  0
SECTION
  2
HEADER
  9
$ACADVER
  1
AC1015
  9
$ACADMAINTVER
 70
    10
  9
$DWGCODEPAGE
  3
ANSI_932
  9
$INSBASE
 10
0.0
 20
0.0
 30
0.0
  9
$EXTMIN
 10
26.42441758688408
 20
148.333025598273
 30
0.0
  9
$EXTMAX
 10
399.8548415210116
 20
245.5756663990956
 30
0.0
  9
$LIMMIN
 10
0.0
 20
0.0
  9
$LIMMAX
 10
420.0
 20
297.0
  9
$ORTHOMODE
 70
     0
  9
$REGENMODE
 70
     1
  9
$FILLMODE
 70
     1
  9
$QTEXTMODE
 70
     0
  9
$MIRRTEXT
 70
     1
  9
$LTSCALE
 40
1.0
  9
$ATTMODE
 70
     1
  9
$TEXTSIZE
 40
0.0
  9
$TRACEWID
 40
1.0
  9
$TEXTSTYLE
  7
STANDARD
  9
$CLAYER
  8
0
  9
$CELTYPE
  6
CONTINUOUS
  9
$CECOLOR
 62
     7
  9
$CELTSCALE
 40
1.0
  9
$DISPSILH
 70
     0
  9
$DIMSCALE
 40
1.0
  9
$DIMASZ
 40
2.5
  9
$DIMEXO
 40
0.625
  9
$DIMDLI
 40
3.75
  9
$DIMRND
 40
0.0
  9
$DIMDLE
 40
0.0
  9
$DIMEXE
 40
1.25
  9
$DIMTP
 40
0.0
  9
$DIMTM
 40
0.0
  9
$DIMTXT
 40
2.5
  9
$DIMCEN
 40
2.5
  9
$DIMTSZ
 40
0.0
  9
$DIMTOL
 70
     0
  9
$DIMLIM
 70
     0
  9
$DIMTIH
 70
     0
  9
$DIMTOH
 70
     0
  9
$DIMSE1
 70
     0
  9
$DIMSE2
 70
     0
  9
$DIMTAD
 70
     1
  9
$DIMZIN
 70
     8
  9
$DIMBLK
  1

  9
$DIMASO
 70
     1
  9
$DIMSHO
 70
     1
  9
$DIMPOST
  1

  9
$DIMAPOST
  1

  9
$DIMALT
 70
     0
  9
$DIMALTD
 70
     3
  9
$DIMALTF
 40
0.03937
  9
$DIMLFAC
 40
1.0
  9
$DIMTOFL
 70
     1
  9
$DIMTVP
 40
0.0
  9
$DIMTIX
 70
     0
  9
$DIMSOXD
 70
     0
  9
$DIMSAH
 70
     0
  9
$DIMBLK1
  1

  9
$DIMBLK2
  1

  9
$DIMSTYLE
  2
STANDARD
  9
$DIMCLRD
 70
     0
  9
$DIMCLRE
 70
     0
  9
$DIMCLRT
 70
     0
  9
$DIMTFAC
 40
1.0
  9
$DIMGAP
 40
0.625
  9
$DIMJUST
 70
     0
  9
$DIMSD1
 70
     0
  9
$DIMSD2
 70
     0
  9
$DIMTOLJ
 70
     0
  9
$DIMTZIN
 70
     8
  9
$DIMALTZ
 70
     0
  9
$DIMALTTZ
 70
     0
  9
$DIMUPT
 70
     0
  9
$DIMDEC
 70
     2
  9
$DIMTDEC
 70
     2
  9
$DIMALTU
 70
     2
  9
$DIMALTTD
 70
     3
  9
$DIMTXSTY
  7
STANDARD
  9
$DIMAUNIT
 70
     0
  9
$DIMADEC
 70
     0
  9
$DIMALTRND
 40
0.0
  9
$DIMAZIN
 70
     0
  9
$DIMDSEP
 70
    46
  9
$DIMATFIT
 70
     3
  9
$DIMFRAC
 70
     0
  9
$DIMLDRBLK
  1

  9
$DIMLUNIT
 70
     2
  9
$DIMLWD
 70
    -2
  9
$DIMLWE
 70
    -2
  9
$DIMTMOVE
 70
     0
  9
$LUNITS
 70
     2
  9
$LUPREC
 70
     4
  9
$SKETCHINC
 40
1.0
  9
$FILLETRAD
 40
2.5
  9
$AUNITS
 70
     0
  9
$AUPREC
 70
     0
  9
$MENU
  1
.
  9
$ELEVATION
 40
0.0
  9
$PELEVATION
 40
0.0
  9
$THICKNESS
 40
0.0
  9
$LIMCHECK
 70
     0
  9
$CHAMFERA
 40
2.5
  9
$CHAMFERB
 40
2.5
  9
$CHAMFERC
 40
0.0
  9
$CHAMFERD
 40
0.0
  9
$SKPOLY
 70
     0
  9
$TDCREATE
 40
2312275.082376215
  9
$TDUCREATE
 40
2312274.707376215
  9
$TDUPDATE
 40
2456486.396246227
  9
$TDUUPDATE
 40
2456486.021246226
  9
$TDINDWG
 40
0.1285327315
  9
$TDUSRTIMER
 40
0.1285226042
  9
$USRTIMER
 70
     1
  9
$ANGBASE
 50
0.0
  9
$ANGDIR
 70
     0
  9
$PDMODE
 70
     0
  9
$PDSIZE
 40
0.0
  9
$PLINEWID
 40
0.0
  9
$SPLFRAME
 70
     0
  9
$SPLINETYPE
 70
     6
  9
$SPLINESEGS
 70
     8
  9
$HANDSEED
  5
63D0
  9
$SURFTAB1
 70
     6
  9
$SURFTAB2
 70
     6
  9
$SURFTYPE
 70
     6
  9
$SURFU
 70
     6
  9
$SURFV
 70
     6
  9
$UCSBASE
  2

  9
$UCSNAME
  2

  9
$UCSORG
 10
0.0
 20
0.0
 30
0.0
  9
$UCSXDIR
 10
1.0
 20
0.0
 30
0.0
  9
$UCSYDIR
 10
0.0
 20
1.0
 30
0.0
  9
$UCSORTHOREF
  2

  9
$UCSORTHOVIEW
 70
     0
  9
$UCSORGTOP
 10
0.0
 20
0.0
 30
0.0
  9
$UCSORGBOTTOM
 10
0.0
 20
0.0
 30
0.0
  9
$UCSORGLEFT
 10
0.0
 20
0.0
 30
0.0
  9
$UCSORGRIGHT
 10
0.0
 20
0.0
 30
0.0
  9
$UCSORGFRONT
 10
0.0
 20
0.0
 30
0.0
  9
$UCSORGBACK
 10
0.0
 20
0.0
 30
0.0
  9
$PUCSBASE
  2

  9
$PUCSNAME
  2

  9
$PUCSORG
 10
0.0
 20
0.0
 30
0.0
  9
$PUCSXDIR
 10
1.0
 20
0.0
 30
0.0
  9
$PUCSYDIR
 10
0.0
 20
1.0
 30
0.0
  9
$PUCSORTHOREF
  2

  9
$PUCSORTHOVIEW
 70
     0
  9
$PUCSORGTOP
 10
0.0
 20
0.0
 30
0.0
  9
$PUCSORGBOTTOM
 10
0.0
 20
0.0
 30
0.0
  9
$PUCSORGLEFT
 10
0.0
 20
0.0
 30
0.0
  9
$PUCSORGRIGHT
 10
0.0
 20
0.0
 30
0.0
  9
$PUCSORGFRONT
 10
0.0
 20
0.0
 30
0.0
  9
$PUCSORGBACK
 10
0.0
 20
0.0
 30
0.0
  9
$USERI1
 70
     0
  9
$USERI2
 70
     0
  9
$USERI3
 70
     0
  9
$USERI4
 70
     0
  9
$USERI5
 70
     0
  9
$USERR1
 40
0.0
  9
$USERR2
 40
0.0
  9
$USERR3
 40
0.0
  9
$USERR4
 40
0.0
  9
$USERR5
 40
0.0
  9
$WORLDVIEW
 70
     1
  9
$SHADEDGE
 70
     3
  9
$SHADEDIF
 70
    70
  9
$TILEMODE
 70
     1
  9
$MAXACTVP
 70
    48
  9
$PINSBASE
 10
0.0
 20
0.0
 30
0.0
  9
$PLIMCHECK
 70
     0
  9
$PEXTMIN
 10
0.0
 20
0.0
 30
0.0
  9
$PEXTMAX
 10
0.0
 20
0.0
 30
0.0
  9
$PLIMMIN
 10
0.0
 20
0.0
  9
$PLIMMAX
 10
12.0
 20
9.0
  9
$UNITMODE
 70
     0
  9
$VISRETAIN
 70
     0
  9
$PLINEGEN
 70
     0
  9
$PSLTSCALE
 70
     1
  9
$TREEDEPTH
 70
  3020
  9
$CMLSTYLE
  2
STANDARD
  9
$CMLJUST
 70
     0
  9
$CMLSCALE
 40
20.0
  9
$PROXYGRAPHICS
 70
     1
  9
$MEASUREMENT
 70
     1
  9
$CELWEIGHT
370
    -1
  9
$ENDCAPS
280
     0
  9
$JOINSTYLE
280
     0
  9
$LWDISPLAY
290
     0
  9
$INSUNITS
 70
     0
  9
$HYPERLINKBASE
  1

  9
$STYLESHEET
  1

  9
$XEDIT
290
     1
  9
$CEPSNTYPE
380
     0
  9
$PSTYLEMODE
290
     1
  9
$FINGERPRINTGUID
  2
{CFE826FC-4A12-495E-8676-F5889819A686}
  9
$VERSIONGUID
  2
{5FEFCE97-208F-4236-882B-CA3EC105A244}
  9
$EXTNAMES
290
     1
  9
$PSVPSCALE
 40
0.0
  9
$OLESTARTUP
290
     0
  0
ENDSEC
  0
SECTION
  2
CLASSES
  0
CLASS
  1
LWPOLYLINE
  2
AcDbPolyline
  3
AutoCAD 2000
 90
    32768
280
     0
281
     1
  0
CLASS
  1
IMAGE
  2
AcDbRasterImage
  3
ISM
 90
    32895
280
     0
281
     1
  0
CLASS
  1
OLE2FRAME
  2
AcDbOle2Frame
  3
AutoCAD 2000
 90
    32768
280
     0
281
     1
  0
CLASS
  1
HATCH
  2
AcDbHatch
  3
AutoCAD 2000
 90
    32768
280
     0
281
     1
  0
CLASS
  1
DICTIONARYVAR
  2
AcDbDictionaryVar
  3
AutoCAD 2000
 90
    32768
280
     0
281
     0
  0
CLASS
  1
RASTERVARIABLES
  2
AcDbRasterVariables
  3
ISM
 90
    32768
280
     0
281
     0
  0
CLASS
  1
IMAGEDEF
  2
AcDbRasterImageDef
  3
ISM
 90
    32768
280
     0
281
     0
  0
CLASS
  1
IMAGEDEF_REACTOR
  2
AcDbRasterImageDefReactor
  3
ISM
 90
    32769
280
     0
281
     0
  0
CLASS
  1
IDBUFFER
  2
AcDbIdBuffer
  3
AutoCAD 2000
 90
    32768
280
     0
281
     0
  0
CLASS
  1
SPATIAL_FILTER
  2
AcDbSpatialFilter
  3
AutoCAD 2000
 90
    32768
280
     0
281
     0
  0
CLASS
  1
XRECORD
  2
AcDbXrecord
  3
AutoCAD 2000
 90
    32768
280
     0
281
     0
  0
CLASS
  1
SORTENTSTABLE
  2
AcDbSortentsTable
  3
AutoCAD 2000
 90
    32768
280
     0
281
     0
  0
CLASS
  1
LAYER_INDEX
  2
AcDbLayerIndex
  3
AutoCAD 2000
 90
    32768
280
     0
281
     0
  0
CLASS
  1
SPATIAL_INDEX
  2
AcDbSpatialIndex
  3
AutoCAD 2000
 90
    32768
280
     0
281
     0
  0
CLASS
  1
OBJECT_PTR
  2
CAseDLPNTableRecord
  3
"ASE-LPNTableRecord"
 90
    32769
280
     0
281
     0
  0
CLASS
  1
LAYOUT
  2
AcDbLayout
  3
AutoCAD 2000
 90
        0
280
     0
281
     0
  0
CLASS
  1
PLOTSETTINGS
  2
AcDbPlotSettings
  3
AutoCAD 2000
 90
    32768
280
     0
281
     0
  0
CLASS
  1
ACDBDICTIONARYWDFLT
  2
AcDbDictionaryWithDefault
  3
AutoCAD 2000
 90
        0
280
     0
281
     0
  0
CLASS
  1
ACDBPLACEHOLDER
  2
AcDbPlaceHolder
  3
AutoCAD 2000
 90
        0
280
     0
281
     0
  0
CLASS
  1
VBA_PROJECT
  2
AcDbVbaProject
  3
"acadvba"
 90
    32768
280
     0
281
     0
  0
CLASS
  1
WIPEOUT
  2
AcDbWipeout
  3
WipeOut|AutoCAD Express Tool|expresstools@autodesk.com
 90
    32895
280
     0
281
     1
  0
CLASS
  1
WIPEOUTVARIABLES
  2
AcDbWipeoutVariables
  3
WipeOut|AutoCAD Express Tool|expresstools@autodesk.com
 90
    32768
280
     0
281
     0
  0
CLASS
  1
RTEXT
  2
RText
  3
RText|AutoCAD Express Tool|expresstools@autodesk.com
 90
    32768
280
     0
281
     1
  0
CLASS
  1
ARCALIGNEDTEXT
  2
AcDbArcAlignedText
  3
ATEXT|AutoCAD Express Tool|expresstools@autodesk.com
 90
    32768
280
     0
281
     1
  0
ENDSEC
  0
SECTION
  2
TABLES
  0
TABLE
  2
VPORT
  5
7
330
0
100
AcDbSymbolTable
 70
     2
  0
VPORT
  5
63CF
330
7
100
AcDbSymbolTableRecord
100
AcDbViewportTableRecord
  2
*Active
 70
     0
 10
0.0
 20
0.0
 11
1.0
 21
1.0
 12
214.3593512174611
 22
197.3199912921099
 13
0.0
 23
0.0
 14
1.0
 24
1.0
 15
0.0
 25
0.0
 16
0.0
 26
0.0
 36
1.0
 17
0.0
 27
0.0
 37
0.0
 40
237.2667937566954
 41
1.781954887218045
 42
50.0
 43
0.0
 44
0.0
 50
0.0
 51
0.0
 71
     0
 72
   100
 73
     1
 74
     1
 75
     0
 76
     0
 77
     0
 78
     0
281
     0
 65
     1
110
0.0
120
0.0
130
0.0
111
1.0
121
0.0
131
0.0
112
0.0
122
1.0
132
0.0
 79
     0
146
0.0
  0
ENDTAB
  0
TABLE
  2
LTYPE
  5
4
330
0
100
AcDbSymbolTable
 70
     3
  0
LTYPE
  5
11
330
4
100
AcDbSymbolTableRecord
100
AcDbLinetypeTableRecord
  2
BYBLOCK
 70
     0
  3

 72
    65
 73
     0
 40
0.0
  0
LTYPE
  5
12
330
4
100
AcDbSymbolTableRecord
100
AcDbLinetypeTableRecord
  2
BYLAYER
 70
     0
  3

 72
    65
 73
     0
 40
0.0
  0
LTYPE
  5
13
330
4
100
AcDbSymbolTableRecord
100
AcDbLinetypeTableRecord
  2
CONTINUOUS
 70
     0
  3
Solid line
 72
    65
 73
     0
 40
0.0
  0
LTYPE
  5
1D
330
4
100
AcDbSymbolTableRecord
100
AcDbLinetypeTableRecord
  2
DASHED
 70
     0
  3
__ __ __ __ __ __ __ __ __ __ __ __ __ __ __ __
 72
    65
 73
     2
 40
15.0
 49
12.0
 74
     0
 49
-3.0
 74
     0
  0
ENDTAB
  0
TABLE
  2
LAYER
  5
2
330
0
100
AcDbSymbolTable
 70
     1
  0
LAYER
  5
14
330
2
100
AcDbSymbolTableRecord
100
AcDbLayerTableRecord
  2
0
 70
     0
 62
     7
  6
CONTINUOUS
370
    -3
390
6359
  0
ENDTAB
  0
TABLE
  2
STYLE
  5
3
330
0
100
AcDbSymbolTable
 70
     1
  0
STYLE
  5
17
330
3
100
AcDbSymbolTableRecord
100
AcDbTextStyleTableRecord
  2
STANDARD
 70
     0
 40
0.0
 41
1.0
 50
0.0
 71
     0
 42
0.0
  3
txt
  4

  0
ENDTAB
  0
TABLE
  2
VIEW
  5
5
330
0
100
AcDbSymbolTable
 70
     0
  0
ENDTAB
  0
TABLE
  2
UCS
  5
6
330
0
100
AcDbSymbolTable
 70
     0
  0
ENDTAB
  0
TABLE
  2
APPID
  5
8
330
0
100
AcDbSymbolTable
 70
     1
  0
APPID
  5
16
330
8
100
AcDbSymbolTableRecord
100
AcDbRegAppTableRecord
  2
ACAD
 70
     0
  0
ENDTAB
  0
TABLE
  2
DIMSTYLE
  5
9
330
0
100
AcDbSymbolTable
 70
     1
100
AcDbDimStyleTable
 71
     1
340
18
  0
DIMSTYLE
105
18
330
9
100
AcDbSymbolTableRecord
100
AcDbDimStyleTableRecord
  2
STANDARD
 70
     0
340
17
  0
ENDTAB
  0
TABLE
  2
BLOCK_RECORD
  5
1
330
0
100
AcDbSymbolTable
 70
     0
  0
BLOCK_RECORD
  5
A
330
1
100
AcDbSymbolTableRecord
100
AcDbBlockTableRecord
  2
*MODEL_SPACE
340
635C
  0
BLOCK_RECORD
  5
63B0
330
1
100
AcDbSymbolTableRecord
100
AcDbBlockTableRecord
  2
*Paper_Space
340
63B1
  0
ENDTAB
  0
ENDSEC
  0
SECTION
  2
BLOCKS
  0
BLOCK
  5
D
330
A
100
AcDbEntity
  8
0
100
AcDbBlockBegin
  2
*MODEL_SPACE
 70
     0
 10
0.0
 20
0.0
 30
0.0
  3
*MODEL_SPACE
  1

  0
ENDBLK
  5
E
330
A
100
AcDbEntity
  8
0
100
AcDbBlockEnd
  0
BLOCK
  5
63B2
330
63B0
100
AcDbEntity
 67
     1
  8
0
100
AcDbBlockBegin
  2
*Paper_Space
 70
     0
 10
0.0
 20
0.0
 30
0.0
  3
*Paper_Space
  1

  0
ENDBLK
  5
63B3
330
63B0
100
AcDbEntity
 67
     1
  8
0
100
AcDbBlockEnd
  0
ENDSEC
  0
SECTION
  2
ENTITIES
  0
LINE
  5
2C73
330
A
100
AcDbEntity
  8
0
  6
Continuous
 62
     7
100
AcDbLine
 10
120.0457379999999
 20
244.954346
 30
0.0
 11
30.045738
 21
244.954346
 31
0.0
  0
LINE
  5
2C74
330
A
100
AcDbEntity
  8
0
  6
Continuous
 62
     7
100
AcDbLine
 10
27.045738
 20
151.9543459999999
 30
0.0
 11
27.045738
 21
241.9543459999999
 31
0.0
  0
LINE
  5
2C7C
330
A
100
AcDbEntity
  8
0
  6
Continuous
 62
     7
 48
0.2
100
AcDbLine
 10
43.345741
 20
171.6543579999999
 30
0.0
 11
35.345737
 21
171.6543579999999
 31
0.0
  0
ARC
  5
2C7D
330
A
100
AcDbEntity
  8
0
  6
Continuous
 62
     7
100
AcDbCircle
 10
35.345737
 20
170.6543579999999
 30
0.0
 40
1.0
100
AcDbArc
 50
90.00000300000001
 51
180.000005
  0
LINE
  5
2C7E
330
A
100
AcDbEntity
  8
0
  6
Continuous
 62
     7
 48
0.175
100
AcDbLine
 10
34.345737
 20
163.654358
 30
0.0
 11
34.345737
 21
170.6543579999999
 31
0.0
  0
ARC
  5
2C7F
330
A
100
AcDbEntity
  8
0
  6
Continuous
 62
     7
100
AcDbCircle
 10
43.345741
 20
170.6543579999999
 30
0.0
 40
1.0
100
AcDbArc
 50
0.0
 51
90.00000300000001
  0
LINE
  5
2C80
330
A
100
AcDbEntity
  8
0
  6
Continuous
 62
     7
 48
0.205
100
AcDbLine
 10
43.44574
 20
162.5543519999999
 30
0.0
 11
35.245739
 21
162.5543519999999
 31
0.0
  0
LINE
  5
2C81
330
A
100
AcDbEntity
  8
0
  6
Continuous
 62
     7
 48
0.18
100
AcDbLine
 10
34.245739
 20
163.5543519999995
 30
0.0
 11
34.245739
 21
170.7543489999999
 31
0.0
  0
LINE
  5
2C82
330
A
100
AcDbEntity
  8
0
  6
Continuous
 62
     7
 48
0.205
100
AcDbLine
 10
35.245739
 20
171.7543489999999
 30
0.0
 11
43.44574
 21
171.7543489999999
 31
0.0
  0
LINE
  5
2C83
330
A
100
AcDbEntity
  8
0
  6
Continuous
 62
     7
 48
0.18
100
AcDbLine
 10
44.44574
 20
170.7543489999999
 30
0.0
 11
44.44574
 21
163.5543519999995
 31
0.0
  0
ARC
  5
2C84
330
A
100
AcDbEntity
  8
0
  6
Continuous
 62
     7
100
AcDbCircle
 10
106.7457429999999
 20
163.654358
 30
0.0
 40
1.0
100
AcDbArc
 50
180.000005
 51
270.000001
  0
ARC
  5
2C85
330
A
100
AcDbEntity
  8
0
  6
Continuous
 62
     7
100
AcDbCircle
 10
114.745743
 20
170.6543579999999
 30
0.0
 40
1.0
100
AcDbArc
 50
0.0
 51
90.00000300000001
  0
LINE
  5
2C86
330
A
100
AcDbEntity
  8
0
  6
Continuous
 62
     7
 48
0.2
100
AcDbLine
 10
114.745743
 20
171.6543579999999
 30
0.0
 11
106.7457429999999
 21
171.6543579999999
 31
0.0
  0
ARC
  5
2C87
330
A
100
AcDbEntity
  8
0
  6
Continuous
 62
     7
100
AcDbCircle
 10
106.7457429999999
 20
170.6543579999999
 30
0.0
 40
1.0
100
AcDbArc
 50
90.00000300000001
 51
180.000005
  0
LINE
  5
2C88
330
A
100
AcDbEntity
  8
0
  6
Continuous
 62
     7
 48
0.175
100
AcDbLine
 10
105.7457429999999
 20
163.654358
 30
0.0
 11
105.7457429999999
 21
170.6543579999999
 31
0.0
  0
ARC
  5
2C89
330
A
100
AcDbEntity
  8
0
  6
Continuous
 62
     7
100
AcDbCircle
 10
102.845741
 20
170.6543579999999
 30
0.0
 40
1.0
100
AcDbArc
 50
0.0
 51
90.00000300000001
  0
LINE
  5
2C8A
330
A
100
AcDbEntity
  8
0
  6
Continuous
 62
     7
 48
0.2
100
AcDbLine
 10
102.845741
 20
171.6543579999999
 30
0.0
 11
94.84574100000001
 21
171.6543579999999
 31
0.0
  0
ARC
  5
2C8B
330
A
100
AcDbEntity
  8
0
  6
Continuous
 62
     7
100
AcDbCircle
 10
94.84574100000001
 20
170.6543579999999
 30
0.0
 40
1.0
100
AcDbArc
 50
90.00000300000001
 51
180.000005
  0
LINE
  5
2C8C
330
A
100
AcDbEntity
  8
0
  6
Continuous
 62
     7
 48
0.175
100
AcDbLine
 10
93.845741
 20
163.654358
 30
0.0
 11
93.845741
 21
170.6543579999999
 31
0.0
  0
ARC
  5
2C8D
330
A
100
AcDbEntity
  8
0
  6
Continuous
 62
     7
100
AcDbCircle
 10
82.94574
 20
163.654358
 30
0.0
 40
1.0
100
AcDbArc
 50
180.000005
 51
270.000001
  0
ARC
  5
2C8E
330
A
100
AcDbEntity
  8
0
  6
Continuous
 62
     7
100
AcDbCircle
 10
90.94573999999999
 20
170.6543579999999
 30
0.0
 40
1.0
100
AcDbArc
 50
0.0
 51
90.00000300000001
  0
LINE
  5
2C8F
330
A
100
AcDbEntity
  8
0
  6
Continuous
 62
     7
 48
0.2
100
AcDbLine
 10
90.94573999999999
 20
171.6543579999999
 30
0.0
 11
82.94574
 21
171.6543579999999
 31
0.0
  0
ARC
  5
2C90
330
A
100
AcDbEntity
  8
0
  6
Continuous
 62
     7
100
AcDbCircle
 10
82.94574
 20
170.6543579999999
 30
0.0
 40
1.0
100
AcDbArc
 50
90.00000300000001
 51
180.000005
  0
LINE
  5
2C91
330
A
100
AcDbEntity
  8
0
  6
Continuous
 62
     7
 48
0.175
100
AcDbLine
 10
81.94574000000001
 20
163.654358
 30
0.0
 11
81.94574000000001
 21
170.6543579999999
 31
0.0
  0
ARC
  5
2C92
330
A
100
AcDbEntity
  8
0
  6
Continuous
 62
     7
100
AcDbCircle
 10
79.045738
 20
170.6543579999999
 30
0.0
 40
1.0
100
AcDbArc
 50
0.0
 51
90.00000300000001
  0
LINE
  5
2C93
330
A
100
AcDbEntity
  8
0
  6
Continuous
 62
     7
 48
0.2
100
AcDbLine
 10
79.045738
 20
171.6543579999999
 30
0.0
 11
71.045738
 21
171.6543579999999
 31
0.0
  0
ARC
  5
2C94
330
A
100
AcDbEntity
  8
0
  6
Continuous
 62
     7
100
AcDbCircle
 10
71.045738
 20
170.6543579999999
 30
0.0
 40
1.0
100
AcDbArc
 50
90.00000300000001
 51
180.000005
  0
LINE
  5
2C95
330
A
100
AcDbEntity
  8
0
  6
Continuous
 62
     7
 48
0.175
100
AcDbLine
 10
70.045738
 20
163.654358
 30
0.0
 11
70.045738
 21
170.6543579999999
 31
0.0
  0
ARC
  5
2C96
330
A
100
AcDbEntity
  8
0
  6
Continuous
 62
     7
100
AcDbCircle
 10
67.14573699999999
 20
170.6543579999999
 30
0.0
 40
1.0
100
AcDbArc
 50
0.0
 51
90.00000300000001
  0
LINE
  5
2C97
330
A
100
AcDbEntity
  8
0
  6
Continuous
 62
     7
 48
0.2
100
AcDbLine
 10
67.14573699999999
 20
171.6543579999999
 30
0.0
 11
59.145737
 21
171.6543579999999
 31
0.0
  0
ARC
  5
2C98
330
A
100
AcDbEntity
  8
0
  6
Continuous
 62
     7
100
AcDbCircle
 10
59.145737
 20
170.6543579999999
 30
0.0
 40
1.0
100
AcDbArc
 50
90.00000300000001
 51
180.000005
  0
LINE
  5
2C99
330
A
100
AcDbEntity
  8
0
  6
Continuous
 62
     7
 48
0.175
100
AcDbLine
 10
58.145737
 20
163.654358
 30
0.0
 11
58.145737
 21
170.6543579999999
 31
0.0
  0
ARC
  5
2C9A
330
A
100
AcDbEntity
  8
0
  6
Continuous
 62
     7
100
AcDbCircle
 10
47.245739
 20
163.654358
 30
0.0
 40
1.0
100
AcDbArc
 50
180.000005
 51
270.000001
  0
ARC
  5
2C9B
330
A
100
AcDbEntity
  8
0
  6
Continuous
 62
     7
100
AcDbCircle
 10
55.245739
 20
170.6543579999999
 30
0.0
 40
1.0
100
AcDbArc
 50
0.0
 51
90.00000300000001
  0
LINE
  5
2C9C
330
A
100
AcDbEntity
  8
0
  6
Continuous
 62
     7
 48
0.2
100
AcDbLine
 10
55.245739
 20
171.6543579999999
 30
0.0
 11
47.245739
 21
171.6543579999999
 31
0.0
  0
ARC
  5
2C9D
330
A
100
AcDbEntity
  8
0
  6
Continuous
 62
     7
100
AcDbCircle
 10
47.245739
 20
170.6543579999999
 30
0.0
 40
1.0
100
AcDbArc
 50
90.00000300000001
 51
180.000005
  0
LINE
  5
2C9E
330
A
100
AcDbEntity
  8
0
  6
Continuous
 62
     7
 48
0.175
100
AcDbLine
 10
46.245739
 20
163.654358
 30
0.0
 11
46.245739
 21
170.6543579999999
 31
0.0
  0
ARC
  5
2C9F
330
A
100
AcDbEntity
  8
0
  6
Continuous
 62
     7
100
AcDbCircle
 10
43.44560999999997
 20
163.554474
 30
0.0
 40
1.000035
100
AcDbArc
 50
270.007422
 51
359.9925949999998
  0
ARC
  5
2CA0
330
A
100
AcDbEntity
  8
0
  6
Continuous
 62
     7
100
AcDbCircle
 10
117.0457379999999
 20
158.4543459999999
 30
0.0
 40
2.0
100
AcDbArc
 50
0.0
 51
90.00000300000001
  0
LINE
  5
2CA1
330
A
100
AcDbEntity
  8
0
  6
Continuous
 62
     7
 48
0.1625
100
AcDbLine
 10
119.0457379999999
 20
151.9543459999999
 30
0.0
 11
119.0457379999999
 21
158.4543459999999
 31
0.0
  0
LINE
  5
2CA2
330
A
100
AcDbEntity
  8
0
  6
Continuous
 62
     7
 48
0.1625
100
AcDbLine
 10
31.045738
 20
158.4543459999999
 30
0.0
 11
31.045738
 21
148.9543459999999
 31
0.0
  0
ARC
  5
2CA3
330
A
100
AcDbEntity
  8
0
  6
Continuous
 62
     7
100
AcDbCircle
 10
33.045738
 20
158.4543459999999
 30
0.0
 40
2.0
100
AcDbArc
 50
90.00000300000001
 51
180.000005
  0
LINE
  5
2CA4
330
A
100
AcDbEntity
  8
0
  6
Continuous
 62
     7
100
AcDbLine
 10
117.0457379999999
 20
160.4543459999999
 30
0.0
 11
33.045738
 21
160.4543459999999
 31
0.0
  0
LWPOLYLINE
  5
2CA5
330
A
100
AcDbEntity
  8
0
  6
Continuous
 62
     7
100
AcDbPolyline
 90
       10
 70
     0
 43
0.0
 10
119.0457379999999
 20
166.2323909999996
 10
119.034409
 20
164.6321719999999
 10
118.995102
 20
163.6730039999999
 10
118.943359
 20
163.1401669999999
 10
118.8871149999999
 20
162.823746
 10
118.858932
 20
162.7212219999998
 10
118.819778
 20
162.6234739999999
 10
118.791
 20
162.579803
 10
118.7627259999999
 20
162.557983
 10
118.745743
 20
162.5543519999999
  0
LINE
  5
2CB1
330
A
100
AcDbEntity
  8
0
  6
Continuous
 62
     7
 48
0.0975
100
AcDbLine
 10
114.8457339999999
 20
162.5543519999999
 30
0.0
 11
118.745743
 21
162.5543519999999
 31
0.0
  0
LINE
  5
2CB2
330
A
100
AcDbEntity
  8
0
  6
Continuous
 62
     7
 48
0.205
100
AcDbLine
 10
114.8457339999999
 20
162.5543519999999
 30
0.0
 11
106.645737
 21
162.5543519999999
 31
0.0
  0
LINE
  5
2CB3
330
A
100
AcDbEntity
  8
0
  6
Continuous
 62
     7
 48
0.0925
100
AcDbLine
 10
102.94574
 20
162.5543519999999
 30
0.0
 11
106.645737
 21
162.5543519999999
 31
0.0
  0
LINE
  5
2CB4
330
A
100
AcDbEntity
  8
0
  6
Continuous
 62
     7
 48
0.205
100
AcDbLine
 10
102.94574
 20
162.5543519999999
 30
0.0
 11
94.745743
 21
162.5543519999999
 31
0.0
  0
LINE
  5
2CB5
330
A
100
AcDbEntity
  8
0
  6
Continuous
 62
     7
 48
0.0925
100
AcDbLine
 10
91.045738
 20
162.5543519999999
 30
0.0
 11
94.745743
 21
162.5543519999999
 31
0.0
  0
LINE
  5
2CB6
330
A
100
AcDbEntity
  8
0
  6
Continuous
 62
     7
 48
0.205
100
AcDbLine
 10
91.045738
 20
162.5543519999999
 30
0.0
 11
82.845741
 21
162.5543519999999
 31
0.0
  0
LINE
  5
2CB7
330
A
100
AcDbEntity
  8
0
  6
Continuous
 62
     7
 48
0.0925
100
AcDbLine
 10
79.145737
 20
162.5543519999999
 30
0.0
 11
82.845741
 21
162.5543519999999
 31
0.0
  0
LINE
  5
2CB8
330
A
100
AcDbEntity
  8
0
  6
Continuous
 62
     7
 48
0.205
100
AcDbLine
 10
79.145737
 20
162.5543519999999
 30
0.0
 11
70.94574
 21
162.5543519999999
 31
0.0
  0
LINE
  5
2CB9
330
A
100
AcDbEntity
  8
0
  6
Continuous
 62
     7
 48
0.0925
100
AcDbLine
 10
67.245743
 20
162.5543519999999
 30
0.0
 11
70.94574
 21
162.5543519999999
 31
0.0
  0
LINE
  5
2CBA
330
A
100
AcDbEntity
  8
0
  6
Continuous
 62
     7
 48
0.205
100
AcDbLine
 10
67.245743
 20
162.5543519999999
 30
0.0
 11
59.045738
 21
162.5543519999999
 31
0.0
  0
LINE
  5
2CBB
330
A
100
AcDbEntity
  8
0
  6
Continuous
 62
     7
 48
0.0925
100
AcDbLine
 10
55.345741
 20
162.5543519999999
 30
0.0
 11
59.045738
 21
162.5543519999999
 31
0.0
  0
LINE
  5
2CBC
330
A
100
AcDbEntity
  8
0
  6
Continuous
 62
     7
 48
0.205
100
AcDbLine
 10
55.345741
 20
162.5543519999999
 30
0.0
 11
47.14573699999998
 21
162.5543519999999
 31
0.0
  0
LINE
  5
2CBD
330
A
100
AcDbEntity
  8
0
  6
Continuous
 62
     7
 48
0.0925
100
AcDbLine
 10
43.44574
 20
162.5543519999999
 30
0.0
 11
47.14573699999998
 21
162.5543519999999
 31
0.0
  0
LINE
  5
2CBE
330
A
100
AcDbEntity
  8
0
  6
Continuous
 62
     7
 48
0.0975
100
AcDbLine
 10
31.345737
 20
162.5543519999999
 30
0.0
 11
35.245739
 21
162.5543519999999
 31
0.0
  0
LWPOLYLINE
  5
2CBF
330
A
100
AcDbEntity
  8
0
  6
Continuous
 62
     7
100
AcDbPolyline
 90
       10
 70
     0
 43
0.0
 10
31.045738
 20
166.2323909999996
 10
31.05707199999999
 20
164.6321719999999
 10
31.096382
 20
163.6730039999999
 10
31.148113
 20
163.1401669999999
 10
31.204369
 20
162.82373
 10
31.23254799999999
 20
162.7212219999998
 10
31.271702
 20
162.6234589999999
 10
31.300484
 20
162.579803
 10
31.32875399999999
 20
162.557983
 10
31.345737
 20
162.5543519999999
  0
LWPOLYLINE
  5
2CCB
330
A
100
AcDbEntity
  8
0
  6
Continuous
 62
     7
100
AcDbPolyline
 90
       10
 70
     0
 43
0.0
 10
31.045738
 20
168.076309
 10
31.05707199999999
 20
169.676529
 10
31.096382
 20
170.6356959999999
 10
31.148113
 20
171.168549
 10
31.204369
 20
171.48497
 10
31.23254799999999
 20
171.5874939999999
 10
31.271702
 20
171.6852419999999
 10
31.300484
 20
171.728912
 10
31.32875399999999
 20
171.7507319999999
 10
31.345737
 20
171.7543489999999
  0
LINE
  5
2CD7
330
A
100
AcDbEntity
  8
0
  6
Continuous
 62
     7
 48
0.0975
100
AcDbLine
 10
31.345737
 20
171.7543489999999
 30
0.0
 11
35.245739
 21
171.7543489999999
 31
0.0
  0
LINE
  5
2CD8
330
A
100
AcDbEntity
  8
0
  6
Continuous
 62
     7
 48
0.0925
100
AcDbLine
 10
43.44574
 20
171.7543489999999
 30
0.0
 11
47.14573699999998
 21
171.7543489999999
 31
0.0
  0
LINE
  5
2CD9
330
A
100
AcDbEntity
  8
0
  6
Continuous
 62
     7
 48
0.205
100
AcDbLine
 10
47.14573699999998
 20
171.7543489999999
 30
0.0
 11
55.345741
 21
171.7543489999999
 31
0.0
  0
LINE
  5
2CDA
330
A
100
AcDbEntity
  8
0
  6
Continuous
 62
     7
 48
0.0925
100
AcDbLine
 10
55.345741
 20
171.7543489999999
 30
0.0
 11
59.045738
 21
171.7543489999999
 31
0.0
  0
LINE
  5
2CDB
330
A
100
AcDbEntity
  8
0
  6
Continuous
 62
     7
 48
0.205
100
AcDbLine
 10
59.045738
 20
171.7543489999999
 30
0.0
 11
67.245743
 21
171.7543489999999
 31
0.0
  0
LINE
  5
2CDC
330
A
100
AcDbEntity
  8
0
  6
Continuous
 62
     7
 48
0.0925
100
AcDbLine
 10
67.245743
 20
171.7543489999999
 30
0.0
 11
70.94574
 21
171.7543489999999
 31
0.0
  0
LINE
  5
2CDD
330
A
100
AcDbEntity
  8
0
  6
Continuous
 62
     7
 48
0.205
100
AcDbLine
 10
70.94574
 20
171.7543489999999
 30
0.0
 11
79.145737
 21
171.7543489999999
 31
0.0
  0
LINE
  5
2CDE
330
A
100
AcDbEntity
  8
0
  6
Continuous
 62
     7
 48
0.0925
100
AcDbLine
 10
79.145737
 20
171.7543489999999
 30
0.0
 11
82.845741
 21
171.7543489999999
 31
0.0
  0
LINE
  5
2CDF
330
A
100
AcDbEntity
  8
0
  6
Continuous
 62
     7
 48
0.205
100
AcDbLine
 10
82.845741
 20
171.7543489999999
 30
0.0
 11
91.045738
 21
171.7543489999999
 31
0.0
  0
LINE
  5
2CE0
330
A
100
AcDbEntity
  8
0
  6
Continuous
 62
     7
 48
0.0925
100
AcDbLine
 10
91.045738
 20
171.7543489999999
 30
0.0
 11
94.745743
 21
171.7543489999999
 31
0.0
  0
LINE
  5
2CE1
330
A
100
AcDbEntity
  8
0
  6
Continuous
 62
     7
 48
0.205
100
AcDbLine
 10
94.745743
 20
171.7543489999999
 30
0.0
 11
102.94574
 21
171.7543489999999
 31
0.0
  0
LINE
  5
2CE2
330
A
100
AcDbEntity
  8
0
  6
Continuous
 62
     7
 48
0.0925
100
AcDbLine
 10
102.94574
 20
171.7543489999999
 30
0.0
 11
106.645737
 21
171.7543489999999
 31
0.0
  0
LINE
  5
2CE3
330
A
100
AcDbEntity
  8
0
  6
Continuous
 62
     7
 48
0.205
100
AcDbLine
 10
106.645737
 20
171.7543489999999
 30
0.0
 11
114.8457339999999
 21
171.7543489999999
 31
0.0
  0
LINE
  5
2CE4
330
A
100
AcDbEntity
  8
0
  6
Continuous
 62
     7
 48
0.0975
100
AcDbLine
 10
114.8457339999999
 20
171.7543489999999
 30
0.0
 11
118.745743
 21
171.7543489999999
 31
0.0
  0
LWPOLYLINE
  5
2CE5
330
A
100
AcDbEntity
  8
0
  6
Continuous
 62
     7
100
AcDbPolyline
 90
       10
 70
     0
 43
0.0
 10
119.0457379999999
 20
168.076309
 10
119.034409
 20
169.676529
 10
118.995102
 20
170.6356959999999
 10
118.943359
 20
171.168549
 10
118.8871149999999
 20
171.484955
 10
118.858932
 20
171.5874939999999
 10
118.819778
 20
171.6852419999999
 10
118.791
 20
171.728912
 10
118.7627259999999
 20
171.7507319999999
 10
118.745743
 20
171.7543489999999
  0
ARC
  5
2CF1
330
A
100
AcDbEntity
  8
0
  6
Continuous
 62
     7
100
AcDbCircle
 10
33.045738
 20
175.154358
 30
0.0
 40
2.0
100
AcDbArc
 50
180.000005
 51
270.000001
  0
LINE
  5
2CF2
330
A
100
AcDbEntity
  8
0
  6
Continuous
 62
     7
100
AcDbLine
 10
31.045738
 20
238.954346
 30
0.0
 11
31.045738
 21
175.154358
 31
0.0
  0
ARC
  5
2CF3
330
A
100
AcDbEntity
  8
0
  6
Continuous
 62
     7
100
AcDbCircle
 10
33.045738
 20
238.954346
 30
0.0
 40
2.0
100
AcDbArc
 50
90.00000300000001
 51
180.000005
  0
LINE
  5
2CF4
330
A
100
AcDbEntity
  8
0
  6
Continuous
 62
     7
100
AcDbLine
 10
33.045738
 20
240.954346
 30
0.0
 11
117.0457379999999
 21
240.954346
 31
0.0
  0
ARC
  5
2CF5
330
A
100
AcDbEntity
  8
0
  6
Continuous
 62
     7
100
AcDbCircle
 10
117.0457379999999
 20
238.954346
 30
0.0
 40
2.0
100
AcDbArc
 50
0.0
 51
90.00000300000001
  0
LINE
  5
2CF6
330
A
100
AcDbEntity
  8
0
  6
Continuous
 62
     7
100
AcDbLine
 10
119.0457379999999
 20
175.154358
 30
0.0
 11
119.0457379999999
 21
238.954346
 31
0.0
  0
ARC
  5
2CF7
330
A
100
AcDbEntity
  8
0
  6
Continuous
 62
     7
100
AcDbCircle
 10
117.0457379999999
 20
175.154358
 30
0.0
 40
2.0
100
AcDbArc
 50
270.000001
 51
0.00001
  0
LINE
  5
2CF8
330
A
100
AcDbEntity
  8
0
  6
Continuous
 62
     7
100
AcDbLine
 10
117.0457379999999
 20
173.154358
 30
0.0
 11
33.045738
 21
173.154358
 31
0.0
  0
ARC
  5
2CF9
330
A
100
AcDbEntity
  8
0
  6
Continuous
 62
     7
100
AcDbCircle
 10
35.245869
 20
163.554474
 30
0.0
 40
1.000035
100
AcDbArc
 50
180.0073989999999
 51
269.9925799999999
  0
ARC
  5
2CFA
330
A
100
AcDbEntity
  8
0
  6
Continuous
 62
     7
100
AcDbCircle
 10
35.245869
 20
170.754227
 30
0.0
 40
1.000035
100
AcDbArc
 50
90.00742
 51
179.992601
  0
ARC
  5
2CFB
330
A
100
AcDbEntity
  8
0
  6
Continuous
 62
     7
100
AcDbCircle
 10
43.44560999999997
 20
170.754227
 30
0.0
 40
1.000035
100
AcDbArc
 50
0.007405
 51
89.992578
  0
ARC
  5
2CFC
330
A
100
AcDbEntity
  8
0
  6
Continuous
 62
     7
100
AcDbCircle
 10
47.14586599999999
 20
170.754227
 30
0.0
 40
1.000035
100
AcDbArc
 50
90.00742
 51
179.992601
  0
LINE
  5
2CFD
330
A
100
AcDbEntity
  8
0
  6
Continuous
 62
     7
 48
0.18
100
AcDbLine
 10
46.145737
 20
163.5543519999995
 30
0.0
 11
46.145737
 21
170.7543489999999
 31
0.0
  0
ARC
  5
2CFE
330
A
100
AcDbEntity
  8
0
  6
Continuous
 62
     7
100
AcDbCircle
 10
47.14586599999999
 20
163.554474
 30
0.0
 40
1.000035
100
AcDbArc
 50
180.0073989999999
 51
269.9925799999999
  0
LINE
  5
2D01
330
A
100
AcDbEntity
  8
0
  6
Continuous
 62
     7
100
AcDbLine
 10
123.0457379999996
 20
241.9543459999999
 30
0.0
 11
123.0457379999996
 21
151.9543459999999
 31
0.0
  0
LINE
  5
2D02
330
A
100
AcDbEntity
  8
0
  6
Continuous
 62
     7
100
AcDbLine
 10
120.0457379999999
 20
244.954346
 30
0.0
 11
30.045738
 21
244.954346
 31
0.0
  0
LINE
  5
2D03
330
A
100
AcDbEntity
  8
0
  6
Continuous
 62
     7
100
AcDbLine
 10
27.045738
 20
151.9543459999999
 30
0.0
 11
27.045738
 21
241.9543459999999
 31
0.0
  0
LINE
  5
2D06
330
A
100
AcDbEntity
  8
0
  6
Continuous
 62
     7
 48
0.046098
100
AcDbLine
 10
119.0457379999999
 20
168.076309
 30
0.0
 11
119.0457379999999
 21
166.2323909999996
 31
0.0
  0
ARC
  5
2D07
330
A
100
AcDbEntity
  8
0
  6
Continuous
 62
     7
100
AcDbCircle
 10
114.845612
 20
163.554474
 30
0.0
 40
1.000035
100
AcDbArc
 50
270.007422
 51
359.9925949999998
  0
LINE
  5
2D08
330
A
100
AcDbEntity
  8
0
  6
Continuous
 62
     7
 48
0.18
100
AcDbLine
 10
115.845734
 20
170.7543489999999
 30
0.0
 11
115.845734
 21
163.5543519999995
 31
0.0
  0
ARC
  5
2D09
330
A
100
AcDbEntity
  8
0
  6
Continuous
 62
     7
100
AcDbCircle
 10
114.845612
 20
170.754227
 30
0.0
 40
1.000035
100
AcDbArc
 50
0.007405
 51
89.992578
  0
ARC
  5
2D0A
330
A
100
AcDbEntity
  8
0
  6
Continuous
 62
     7
100
AcDbCircle
 10
106.6458659999999
 20
170.754227
 30
0.0
 40
1.000035
100
AcDbArc
 50
90.00742
 51
179.992601
  0
LINE
  5
2D0B
330
A
100
AcDbEntity
  8
0
  6
Continuous
 62
     7
 48
0.18
100
AcDbLine
 10
105.645737
 20
163.5543519999995
 30
0.0
 11
105.645737
 21
170.7543489999999
 31
0.0
  0
ARC
  5
2D0C
330
A
100
AcDbEntity
  8
0
  6
Continuous
 62
     7
100
AcDbCircle
 10
106.6458659999999
 20
163.554474
 30
0.0
 40
1.000035
100
AcDbArc
 50
180.0073989999999
 51
269.9925799999999
  0
ARC
  5
2D0D
330
A
100
AcDbEntity
  8
0
  6
Continuous
 62
     7
100
AcDbCircle
 10
102.9456099999999
 20
163.554474
 30
0.0
 40
1.000035
100
AcDbArc
 50
270.007422
 51
359.9925949999998
  0
LINE
  5
2D0E
330
A
100
AcDbEntity
  8
0
  6
Continuous
 62
     7
 48
0.18
100
AcDbLine
 10
103.94574
 20
170.7543489999999
 30
0.0
 11
103.94574
 21
163.5543519999995
 31
0.0
  0
ARC
  5
2D0F
330
A
100
AcDbEntity
  8
0
  6
Continuous
 62
     7
100
AcDbCircle
 10
102.9456099999999
 20
170.754227
 30
0.0
 40
1.000035
100
AcDbArc
 50
0.007405
 51
89.992578
  0
ARC
  5
2D10
330
A
100
AcDbEntity
  8
0
  6
Continuous
 62
     7
100
AcDbCircle
 10
91.045609
 20
163.554474
 30
0.0
 40
1.000035
100
AcDbArc
 50
270.007422
 51
359.9925949999998
  0
LINE
  5
2D11
330
A
100
AcDbEntity
  8
0
  6
Continuous
 62
     7
 48
0.18
100
AcDbLine
 10
92.045738
 20
170.7543489999999
 30
0.0
 11
92.045738
 21
163.5543519999995
 31
0.0
  0
ARC
  5
2D12
330
A
100
AcDbEntity
  8
0
  6
Continuous
 62
     7
100
AcDbCircle
 10
91.045609
 20
170.754227
 30
0.0
 40
1.000035
100
AcDbArc
 50
0.007405
 51
89.992578
  0
ARC
  5
2D13
330
A
100
AcDbEntity
  8
0
  6
Continuous
 62
     7
100
AcDbCircle
 10
94.745865
 20
170.754227
 30
0.0
 40
1.000035
100
AcDbArc
 50
90.00742
 51
179.992601
  0
LINE
  5
2D14
330
A
100
AcDbEntity
  8
0
  6
Continuous
 62
     7
 48
0.18
100
AcDbLine
 10
93.745743
 20
163.5543519999995
 30
0.0
 11
93.745743
 21
170.7543489999999
 31
0.0
  0
ARC
  5
2D15
330
A
100
AcDbEntity
  8
0
  6
Continuous
 62
     7
100
AcDbCircle
 10
94.745865
 20
163.554474
 30
0.0
 40
1.000035
100
AcDbArc
 50
180.0073989999999
 51
269.9925799999999
  0
ARC
  5
2D16
330
A
100
AcDbEntity
  8
0
  6
Continuous
 62
     7
100
AcDbCircle
 10
82.84587100000001
 20
170.754227
 30
0.0
 40
1.000035
100
AcDbArc
 50
90.00742
 51
179.992601
  0
LINE
  5
2D17
330
A
100
AcDbEntity
  8
0
  6
Continuous
 62
     7
 48
0.18
100
AcDbLine
 10
81.845741
 20
163.5543519999995
 30
0.0
 11
81.845741
 21
170.7543489999999
 31
0.0
  0
ARC
  5
2D18
330
A
100
AcDbEntity
  8
0
  6
Continuous
 62
     7
100
AcDbCircle
 10
82.84587100000001
 20
163.554474
 30
0.0
 40
1.000035
100
AcDbArc
 50
180.0073989999999
 51
269.9925799999999
  0
ARC
  5
2D19
330
A
100
AcDbEntity
  8
0
  6
Continuous
 62
     7
100
AcDbCircle
 10
79.145607
 20
163.554474
 30
0.0
 40
1.000035
100
AcDbArc
 50
270.007422
 51
359.9925949999998
  0
LINE
  5
2D1A
330
A
100
AcDbEntity
  8
0
  6
Continuous
 62
     7
 48
0.18
100
AcDbLine
 10
80.14573699999997
 20
170.7543489999999
 30
0.0
 11
80.14573699999997
 21
163.5543519999995
 31
0.0
  0
ARC
  5
2D1B
330
A
100
AcDbEntity
  8
0
  6
Continuous
 62
     7
100
AcDbCircle
 10
79.145607
 20
170.754227
 30
0.0
 40
1.000035
100
AcDbArc
 50
0.007405
 51
89.992578
  0
ARC
  5
2D1C
330
A
100
AcDbEntity
  8
0
  6
Continuous
 62
     7
100
AcDbCircle
 10
70.94586899999999
 20
170.754227
 30
0.0
 40
1.000035
100
AcDbArc
 50
90.00742
 51
179.992601
  0
LINE
  5
2D1D
330
A
100
AcDbEntity
  8
0
  6
Continuous
 62
     7
 48
0.18
100
AcDbLine
 10
69.94574
 20
163.5543519999995
 30
0.0
 11
69.94574
 21
170.7543489999999
 31
0.0
  0
ARC
  5
2D1E
330
A
100
AcDbEntity
  8
0
  6
Continuous
 62
     7
100
AcDbCircle
 10
70.94586899999999
 20
163.554474
 30
0.0
 40
1.000035
100
AcDbArc
 50
180.0073989999999
 51
269.9925799999999
  0
ARC
  5
2D1F
330
A
100
AcDbEntity
  8
0
  6
Continuous
 62
     7
100
AcDbCircle
 10
67.24560499999999
 20
163.554474
 30
0.0
 40
1.000035
100
AcDbArc
 50
270.007422
 51
359.9925949999998
  0
LINE
  5
2D20
330
A
100
AcDbEntity
  8
0
  6
Continuous
 62
     7
 48
0.18
100
AcDbLine
 10
68.245743
 20
170.7543489999999
 30
0.0
 11
68.245743
 21
163.5543519999995
 31
0.0
  0
ARC
  5
2D21
330
A
100
AcDbEntity
  8
0
  6
Continuous
 62
     7
100
AcDbCircle
 10
67.24560499999999
 20
170.754227
 30
0.0
 40
1.000035
100
AcDbArc
 50
0.007405
 51
89.992578
  0
ARC
  5
2D22
330
A
100
AcDbEntity
  8
0
  6
Continuous
 62
     7
100
AcDbCircle
 10
55.345612
 20
163.554474
 30
0.0
 40
1.000035
100
AcDbArc
 50
270.007422
 51
359.9925949999998
  0
LINE
  5
2D23
330
A
100
AcDbEntity
  8
0
  6
Continuous
 62
     7
 48
0.18
100
AcDbLine
 10
56.345741
 20
170.7543489999999
 30
0.0
 11
56.345741
 21
163.5543519999995
 31
0.0
  0
ARC
  5
2D24
330
A
100
AcDbEntity
  8
0
  6
Continuous
 62
     7
100
AcDbCircle
 10
55.345612
 20
170.754227
 30
0.0
 40
1.000035
100
AcDbArc
 50
0.007405
 51
89.992578
  0
ARC
  5
2D25
330
A
100
AcDbEntity
  8
0
  6
Continuous
 62
     7
100
AcDbCircle
 10
59.045868
 20
170.754227
 30
0.0
 40
1.000035
100
AcDbArc
 50
90.00742
 51
179.992601
  0
LINE
  5
2D26
330
A
100
AcDbEntity
  8
0
  6
Continuous
 62
     7
 48
0.18
100
AcDbLine
 10
58.045738
 20
163.5543519999995
 30
0.0
 11
58.045738
 21
170.7543489999999
 31
0.0
  0
ARC
  5
2D27
330
A
100
AcDbEntity
  8
0
  6
Continuous
 62
     7
100
AcDbCircle
 10
59.045868
 20
163.554474
 30
0.0
 40
1.000035
100
AcDbArc
 50
180.0073989999999
 51
269.9925799999999
  0
LINE
  5
2D28
330
A
100
AcDbEntity
  8
0
  6
Continuous
 62
     7
 48
0.046098
100
AcDbLine
 10
31.045738
 20
166.2323909999996
 30
0.0
 11
31.045738
 21
168.076309
 31
0.0
  0
LINE
  5
2D29
330
A
100
AcDbEntity
  8
0
  6
Continuous
 62
     7
100
AcDbLine
 10
30.04573805235987
 20
148.9543459999999
 30
0.0
 11
120.0457380523596
 21
148.9543459999999
 31
0.0
  0
ARC
  5
2D2A
330
A
100
AcDbEntity
  8
0
  6
Continuous
 62
     7
100
AcDbCircle
 10
120.0457379999999
 20
151.9543459999999
 30
0.0
 40
3.0
100
AcDbArc
 50
270.000001
 51
0.00001
  0
ARC
  5
2D2B
330
A
100
AcDbEntity
  8
0
  6
Continuous
 62
     7
100
AcDbCircle
 10
120.0457379999999
 20
241.9543459999999
 30
0.0
 40
3.0
100
AcDbArc
 50
0.0
 51
90.00000300000001
  0
ARC
  5
2D2C
330
A
100
AcDbEntity
  8
0
  6
Continuous
 62
     7
100
AcDbCircle
 10
30.045738
 20
241.9543459999999
 30
0.0
 40
3.0
100
AcDbArc
 50
90.00000300000001
 51
180.000005
  0
ARC
  5
2D2D
330
A
100
AcDbEntity
  8
0
  6
Continuous
 62
     7
100
AcDbCircle
 10
30.045738
 20
151.9543459999999
 30
0.0
 40
3.0
100
AcDbArc
 50
180.000005
 51
270.000001
  0
LINE
  5
2D34
330
A
100
AcDbEntity
  8
0
  6
Continuous
 62
     7
100
AcDbLine
 10
112.7457429999999
 20
177.154358
 30
0.0
 11
48.845741
 21
177.154358
 31
0.0
  0
LINE
  5
2D35
330
A
100
AcDbEntity
  8
0
  6
Continuous
 62
     7
 48
0.4075
100
AcDbLine
 10
112.7457429999999
 20
193.454346
 30
0.0
 11
112.7457429999999
 21
177.154358
 31
0.0
  0
LINE
  5
2D36
330
A
100
AcDbEntity
  8
0
  6
Continuous
 62
     7
 48
0.4075
100
AcDbLine
 10
48.845741
 20
177.154358
 30
0.0
 11
48.845741
 21
193.454346
 31
0.0
  0
LINE
  5
2D37
330
A
100
AcDbEntity
  8
0
  6
Continuous
 62
     7
100
AcDbLine
 10
48.845741
 20
193.454346
 30
0.0
 11
112.7457429999999
 21
193.454346
 31
0.0
  0
LINE
  5
2D38
330
A
100
AcDbEntity
  8
0
  6
Continuous
 62
     7
 48
0.030174
100
AcDbLine
 10
65.92532299999999
 20
227.9389339999999
 30
0.0
 11
66.815201
 21
228.754349
 31
0.0
  0
LINE
  5
2D39
330
A
100
AcDbEntity
  8
0
  6
Continuous
 62
     7
 48
0.026604
100
AcDbLine
 10
66.64425699999999
 20
227.1543579999999
 30
0.0
 11
65.92532299999999
 21
227.9389339999999
 31
0.0
  0
LINE
  5
2D3A
330
A
100
AcDbEntity
  8
0
  6
Continuous
 62
     7
 48
0.117787
100
AcDbLine
 10
66.815201
 20
228.754349
 30
0.0
 11
71.52669499999998
 21
228.754349
 31
0.0
  0
LINE
  5
2D3B
330
A
100
AcDbEntity
  8
0
  6
Continuous
 62
     7
 48
0.117787
100
AcDbLine
 10
71.355751
 20
227.1543579999999
 30
0.0
 11
66.64425699999999
 21
227.1543579999999
 31
0.0
  0
LINE
  5
2D3C
330
A
100
AcDbEntity
  8
0
  6
Continuous
 62
     7
 48
0.030174
100
AcDbLine
 10
72.245628
 20
227.969772
 30
0.0
 11
71.355751
 21
227.1543579999999
 31
0.0
  0
LINE
  5
2D3D
330
A
100
AcDbEntity
  8
0
  6
Continuous
 62
     7
 48
0.026604
100
AcDbLine
 10
71.52669499999998
 20
228.754349
 30
0.0
 11
72.245628
 21
227.969772
 31
0.0
  0
LINE
  5
2D3E
330
A
100
AcDbEntity
  8
0
  6
Continuous
 62
     7
 48
0.110259
100
AcDbLine
 10
97.89534000000001
 20
229.092148
 30
0.0
 11
98.279724
 21
233.485718
 31
0.0
  0
LINE
  5
2D3F
330
A
100
AcDbEntity
  8
0
  6
Continuous
 62
     7
 48
0.026604
100
AcDbLine
 10
98.614273
 20
228.3075709999998
 30
0.0
 11
97.89534000000001
 21
229.092148
 31
0.0
  0
LINE
  5
2D40
330
A
100
AcDbEntity
  8
0
  6
Continuous
 62
     7
 48
0.050964
100
AcDbLine
 10
98.279724
 20
233.485718
 30
0.0
 11
99.78271499999999
 21
234.862946
 31
0.0
  0
LINE
  5
2D41
330
A
100
AcDbEntity
  8
0
  6
Continuous
 62
     7
 48
0.030174
100
AcDbLine
 10
99.50414999999999
 20
229.122986
 30
0.0
 11
98.614273
 21
228.3075709999998
 31
0.0
  0
LINE
  5
2D42
330
A
100
AcDbEntity
  8
0
  6
Continuous
 62
     7
 48
0.12615
100
AcDbLine
 10
99.94393200000001
 20
234.1497649999999
 30
0.0
 11
99.50414999999999
 21
229.122986
 31
0.0
  0
ARC
  5
2D43
330
A
100
AcDbEntity
  8
0
  6
Continuous
 62
     7
100
AcDbCircle
 10
98.738968
 20
234.252197
 30
0.0
 40
1.209362999999997
100
AcDbArc
 50
355.1409779999998
 51
30.334319
  0
LINE
  5
2D44
330
A
100
AcDbEntity
  8
0
  6
Continuous
 62
     7
 48
0.031569
100
AcDbLine
 10
47.347221
 20
203.501236
 30
0.0
 11
48.278236
 21
204.3543549999998
 31
0.0
  0
ARC
  5
2D45
330
A
100
AcDbEntity
  8
0
  6
Continuous
 62
     7
100
AcDbCircle
 10
47.58013199999999
 20
204.05632
 30
0.0
 40
0.601973
100
AcDbArc
 50
247.237184
 51
269.962233
  0
LINE
  5
2D46
330
A
100
AcDbEntity
  8
0
  6
Continuous
 62
     7
 48
0.042474
100
AcDbLine
 10
48.278236
 20
204.3543549999998
 30
0.0
 11
49.97721099999999
 21
204.3543549999998
 31
0.0
  0
LINE
  5
2D47
330
A
100
AcDbEntity
  8
0
  6
Continuous
 62
     7
 48
0.075286
100
AcDbLine
 10
50.591194
 20
203.454346
 30
0.0
 11
47.579735
 21
203.454346
 31
0.0
  0
ARC
  5
2D48
330
A
100
AcDbEntity
  8
0
  6
Continuous
 62
     7
100
AcDbCircle
 10
50.591015
 20
204.055511
 30
0.0
 40
0.601153
100
AcDbArc
 50
270.017264
 51
287.858415
  0
LINE
  5
2D49
330
A
100
AcDbEntity
  8
0
  6
Continuous
 62
     7
 48
0.029535
100
AcDbLine
 10
49.97721099999999
 20
204.3543549999998
 30
0.0
 11
50.775368
 21
203.4833219999999
 31
0.0
  0
LINE
  5
2D4A
330
A
100
AcDbEntity
  8
0
  6
Continuous
 62
     7
 48
0.110259
100
AcDbLine
 10
66.27561999999999
 20
226.8165589999999
 30
0.0
 11
65.89123499999999
 21
222.422989
 31
0.0
  0
LINE
  5
2D4B
330
A
100
AcDbEntity
  8
0
  6
Continuous
 62
     7
 48
0.026604
100
AcDbLine
 10
65.556686
 20
227.601135
 30
0.0
 11
66.27561999999999
 21
226.8165589999999
 31
0.0
  0
LINE
  5
2D4C
330
A
100
AcDbEntity
  8
0
  6
Continuous
 62
     7
 48
0.050964
100
AcDbLine
 10
65.89123499999999
 20
222.422989
 30
0.0
 11
64.38824499999999
 21
221.045746
 31
0.0
  0
LINE
  5
2D4D
330
A
100
AcDbEntity
  8
0
  6
Continuous
 62
     7
 48
0.030175
100
AcDbLine
 10
64.666809
 20
226.785706
 30
0.0
 11
65.556686
 21
227.601135
 31
0.0
  0
LINE
  5
2D4E
330
A
100
AcDbEntity
  8
0
  6
Continuous
 62
     7
 48
0.126149
100
AcDbLine
 10
64.227028
 20
221.7589419999999
 30
0.0
 11
64.666809
 21
226.785706
 31
0.0
  0
ARC
  5
2D4F
330
A
100
AcDbEntity
  8
0
  6
Continuous
 62
     7
100
AcDbCircle
 10
65.431984
 20
221.6565089999999
 30
0.0
 40
1.209362999999997
100
AcDbArc
 50
175.140981
 51
210.334324
  0
LINE
  5
2D50
330
A
100
AcDbEntity
  8
0
  6
Continuous
 62
     7
 48
0.036227
100
AcDbLine
 10
48.065674
 20
206.166565
 30
0.0
 11
47.939381
 21
204.7229919999999
 31
0.0
  0
LINE
  5
2D51
330
A
100
AcDbEntity
  8
0
  6
Continuous
 62
     7
 48
0.014736
100
AcDbLine
 10
47.667458
 20
206.601135
 30
0.0
 11
48.065674
 21
206.166565
 31
0.0
  0
LINE
  5
2D52
330
A
100
AcDbEntity
  8
0
  6
Continuous
 62
     7
 48
0.031558
100
AcDbLine
 10
47.939381
 20
204.7229919999999
 30
0.0
 11
47.008701
 21
203.870178
 31
0.0
  0
LINE
  5
2D53
330
A
100
AcDbEntity
  8
0
  6
Continuous
 62
     7
 48
0.017223
100
AcDbLine
 10
47.159538
 20
206.135712
 30
0.0
 11
47.667458
 21
206.601135
 31
0.0
  0
LINE
  5
2D54
330
A
100
AcDbEntity
  8
0
  6
Continuous
 62
     7
 48
0.05092
100
AcDbLine
 10
46.98201799999998
 20
204.1066439999999
 30
0.0
 11
47.159538
 21
206.135712
 31
0.0
  0
ARC
  5
2D55
330
A
100
AcDbEntity
  8
0
  6
Continuous
 62
     7
100
AcDbCircle
 10
47.58174499999999
 20
204.054581
 30
0.0
 40
0.6019860000000003
100
AcDbArc
 50
175.0381459999999
 51
197.837536
  0
LINE
  5
2D56
330
A
100
AcDbEntity
  8
0
  6
Continuous
 62
     7
 48
0.014736
100
AcDbLine
 10
48.43431500000001
 20
206.5043489999999
 30
0.0
 11
48.036095
 21
206.938934
 31
0.0
  0
LINE
  5
2D57
330
A
100
AcDbEntity
  8
0
  6
Continuous
 62
     7
 48
0.042501
100
AcDbLine
 10
50.13435
 20
206.5043489999999
 30
0.0
 11
48.43431500000001
 21
206.5043489999999
 31
0.0
  0
LINE
  5
2D58
330
A
100
AcDbEntity
  8
0
  6
Continuous
 62
     7
 48
0.017223
100
AcDbLine
 10
48.036095
 20
206.938934
 30
0.0
 11
48.544014
 21
207.404358
 31
0.0
  0
LINE
  5
2D59
330
A
100
AcDbEntity
  8
0
  6
Continuous
 62
     7
 48
0.017223
100
AcDbLine
 10
50.642269
 20
206.969772
 30
0.0
 11
50.13435
 21
206.5043489999999
 31
0.0
  0
LINE
  5
2D5A
330
A
100
AcDbEntity
  8
0
  6
Continuous
 62
     7
 48
0.014736
100
AcDbLine
 10
50.244049
 20
207.404358
 30
0.0
 11
50.642269
 21
206.969772
 31
0.0
  0
LINE
  5
2D5B
330
A
100
AcDbEntity
  8
0
  6
Continuous
 62
     7
 48
0.042501
100
AcDbLine
 10
48.544014
 20
207.404358
 30
0.0
 11
50.244049
 21
207.404358
 31
0.0
  0
ARC
  5
2D5C
330
A
100
AcDbEntity
  8
0
  6
Continuous
 62
     7
100
AcDbCircle
 10
71.644249
 20
221.661285
 30
0.0
 40
1.206971999999999
100
AcDbArc
 50
270.089733
 51
300.38557
  0
LINE
  5
2D5D
330
A
100
AcDbEntity
  8
0
  6
Continuous
 62
     7
 48
0.048632
100
AcDbLine
 10
70.94052099999998
 20
222.054352
 30
0.0
 11
72.254745
 21
220.6201319999999
 31
0.0
  0
LINE
  5
2D5E
330
A
100
AcDbEntity
  8
0
  6
Continuous
 62
     7
 48
0.155592
100
AcDbLine
 10
71.646141
 20
220.454346
 30
0.0
 11
65.42245499999999
 21
220.454346
 31
0.0
  0
LINE
  5
2D5F
330
A
100
AcDbEntity
  8
0
  6
Continuous
 62
     7
 48
0.117787
100
AcDbLine
 10
66.229027
 20
222.054352
 30
0.0
 11
70.94052099999998
 21
222.054352
 31
0.0
  0
LINE
  5
2D60
330
A
100
AcDbEntity
  8
0
  6
Continuous
 62
     7
 48
0.050964
100
AcDbLine
 10
64.72603599999999
 20
220.6771089999999
 30
0.0
 11
66.229027
 21
222.054352
 31
0.0
  0
ARC
  5
2D61
330
A
100
AcDbEntity
  8
0
  6
Continuous
 62
     7
100
AcDbCircle
 10
65.42543000000001
 20
221.6636509999999
 30
0.0
 40
1.209362999999997
100
AcDbArc
 50
234.665673
 51
269.859022
  0
ARC
  5
2D62
330
A
100
AcDbEntity
  8
0
  6
Continuous
 62
     7
100
AcDbCircle
 10
50.590065
 20
204.054626
 30
0.0
 40
0.601153
100
AcDbArc
 50
337.1415819999997
 51
354.982737
  0
LINE
  5
2D63
330
A
100
AcDbEntity
  8
0
  6
Continuous
 62
     7
 48
0.054319
100
AcDbLine
 10
51.378281
 20
206.166565
 30
0.0
 11
51.18891099999999
 21
204.00206
 31
0.0
  0
LINE
  5
2D64
330
A
100
AcDbEntity
  8
0
  6
Continuous
 62
     7
 48
0.029536
100
AcDbLine
 10
51.144005
 20
203.821106
 30
0.0
 11
50.345848
 21
204.692154
 31
0.0
  0
LINE
  5
2D65
330
A
100
AcDbEntity
  8
0
  6
Continuous
 62
     7
 48
0.014736
100
AcDbLine
 10
50.980064
 20
206.601135
 30
0.0
 11
51.378281
 21
206.166565
 31
0.0
  0
LINE
  5
2D66
330
A
100
AcDbEntity
  8
0
  6
Continuous
 62
     7
 48
0.017223
100
AcDbLine
 10
50.472145
 20
206.135712
 30
0.0
 11
50.980064
 21
206.601135
 31
0.0
  0
LINE
  5
2D67
330
A
100
AcDbEntity
  8
0
  6
Continuous
 62
     7
 48
0.036227
100
AcDbLine
 10
50.345848
 20
204.692154
 30
0.0
 11
50.472145
 21
206.135712
 31
0.0
  0
LINE
  5
2D68
330
A
100
AcDbEntity
  8
0
  6
Continuous
 62
     7
 48
0.026604
100
AcDbLine
 10
98.58342700000001
 20
227.601135
 30
0.0
 11
99.30236100000001
 21
226.8165589999999
 31
0.0
  0
LINE
  5
2D69
330
A
100
AcDbEntity
  8
0
  6
Continuous
 62
     7
 48
0.030175
100
AcDbLine
 10
97.69355
 20
226.785706
 30
0.0
 11
98.58342700000001
 21
227.601135
 31
0.0
  0
LINE
  5
2D6A
330
A
100
AcDbEntity
  8
0
  6
Continuous
 62
     7
 48
0.132173
100
AcDbLine
 10
99.30236100000001
 20
226.8165589999999
 30
0.0
 11
98.84157600000001
 21
221.549759
 31
0.0
  0
LINE
  5
2D6B
330
A
100
AcDbEntity
  8
0
  6
Continuous
 62
     7
 48
0.110258
100
AcDbLine
 10
97.309158
 20
222.3921509999999
 30
0.0
 11
97.69355
 21
226.785706
 31
0.0
  0
LINE
  5
2D6C
330
A
100
AcDbEntity
  8
0
  6
Continuous
 62
     7
 48
0.048632
100
AcDbLine
 10
98.62338300000001
 20
220.9579319999999
 30
0.0
 11
97.309158
 21
222.3921509999999
 31
0.0
  0
ARC
  5
2D6D
330
A
100
AcDbEntity
  8
0
  6
Continuous
 62
     7
100
AcDbCircle
 10
97.63938899999999
 20
221.656845
 30
0.0
 40
1.206971999999999
100
AcDbArc
 50
324.6144339999998
 51
354.910266
  0
LINE
  5
2D6E
330
A
100
AcDbEntity
  8
0
  6
Continuous
 62
     7
 48
0.036227
100
AcDbLine
 10
50.61269
 20
207.7421419999999
 30
0.0
 11
50.738983
 21
209.185715
 31
0.0
  0
LINE
  5
2D6F
330
A
100
AcDbEntity
  8
0
  6
Continuous
 62
     7
 48
0.014736
100
AcDbLine
 10
51.01091
 20
207.3075709999999
 30
0.0
 11
50.61269
 21
207.7421419999999
 31
0.0
  0
LINE
  5
2D70
330
A
100
AcDbEntity
  8
0
  6
Continuous
 62
     7
 48
0.031558
100
AcDbLine
 10
50.738983
 20
209.185715
 30
0.0
 11
51.669662
 21
210.0385279999999
 31
0.0
  0
LINE
  5
2D71
330
A
100
AcDbEntity
  8
0
  6
Continuous
 62
     7
 48
0.017223
100
AcDbLine
 10
51.518829
 20
207.772995
 30
0.0
 11
51.01091
 21
207.3075709999999
 31
0.0
  0
LINE
  5
2D72
330
A
100
AcDbEntity
  8
0
  6
Continuous
 62
     7
 48
0.05092
100
AcDbLine
 10
51.69634600000001
 20
209.8020629999999
 30
0.0
 11
51.518829
 21
207.772995
 31
0.0
  0
ARC
  5
2D73
330
A
100
AcDbEntity
  8
0
  6
Continuous
 62
     7
100
AcDbCircle
 10
51.09662199999998
 20
209.8541259999999
 30
0.0
 40
0.6019860000000003
100
AcDbArc
 50
355.0381409999998
 51
17.837541
  0
LINE
  5
2D74
330
A
100
AcDbEntity
  8
0
  6
Continuous
 62
     7
 48
0.026604
100
AcDbLine
 10
72.583427
 20
227.601135
 30
0.0
 11
73.302361
 21
226.8165589999999
 31
0.0
  0
LINE
  5
2D75
330
A
100
AcDbEntity
  8
0
  6
Continuous
 62
     7
 48
0.030175
100
AcDbLine
 10
71.69355
 20
226.785706
 30
0.0
 11
72.583427
 21
227.601135
 31
0.0
  0
LINE
  5
2D76
330
A
100
AcDbEntity
  8
0
  6
Continuous
 62
     7
 48
0.132173
100
AcDbLine
 10
73.302361
 20
226.8165589999999
 30
0.0
 11
72.841576
 21
221.549759
 31
0.0
  0
LINE
  5
2D77
330
A
100
AcDbEntity
  8
0
  6
Continuous
 62
     7
 48
0.110258
100
AcDbLine
 10
71.309158
 20
222.3921509999999
 30
0.0
 11
71.69355
 21
226.785706
 31
0.0
  0
LINE
  5
2D78
330
A
100
AcDbEntity
  8
0
  6
Continuous
 62
     7
 48
0.048632
100
AcDbLine
 10
72.62338299999997
 20
220.9579319999999
 30
0.0
 11
71.309158
 21
222.3921509999999
 31
0.0
  0
ARC
  5
2D79
330
A
100
AcDbEntity
  8
0
  6
Continuous
 62
     7
100
AcDbCircle
 10
71.639397
 20
221.656845
 30
0.0
 40
1.206971999999999
100
AcDbArc
 50
324.6144339999998
 51
354.910266
  0
LINE
  5
2D7A
330
A
100
AcDbEntity
  8
0
  6
Continuous
 62
     7
 48
0.031558
100
AcDbLine
 10
51.331871
 20
210.407166
 30
0.0
 11
50.401192
 21
209.554352
 31
0.0
  0
ARC
  5
2D7B
330
A
100
AcDbEntity
  8
0
  6
Continuous
 62
     7
100
AcDbCircle
 10
51.098228
 20
209.852371
 30
0.0
 40
0.6019860000000003
100
AcDbArc
 50
67.162459
 51
89.96185600000002
  0
LINE
  5
2D7C
330
A
100
AcDbEntity
  8
0
  6
Continuous
 62
     7
 48
0.042501
100
AcDbLine
 10
50.401192
 20
209.554352
 30
0.0
 11
48.701157
 21
209.554352
 31
0.0
  0
LINE
  5
2D7D
330
A
100
AcDbEntity
  8
0
  6
Continuous
 62
     7
 48
0.075286
100
AcDbLine
 10
48.087173
 20
210.4543459999999
 30
0.0
 11
51.098633
 21
210.4543459999999
 31
0.0
  0
ARC
  5
2D7E
330
A
100
AcDbEntity
  8
0
  6
Continuous
 62
     7
100
AcDbCircle
 10
48.087353
 20
209.853195
 30
0.0
 40
0.601153
100
AcDbArc
 50
90.017262
 51
107.8584199999999
  0
LINE
  5
2D7F
330
A
100
AcDbEntity
  8
0
  6
Continuous
 62
     7
 48
0.029535
100
AcDbLine
 10
48.701157
 20
209.554352
 30
0.0
 11
47.903
 21
210.425385
 31
0.0
  0
LINE
  5
2D80
330
A
100
AcDbEntity
  8
0
  6
Continuous
 62
     7
 48
0.026604
100
AcDbLine
 10
111.583427
 20
227.601135
 30
0.0
 11
112.302361
 21
226.8165589999999
 31
0.0
  0
LINE
  5
2D81
330
A
100
AcDbEntity
  8
0
  6
Continuous
 62
     7
 48
0.030175
100
AcDbLine
 10
110.69355
 20
226.785706
 30
0.0
 11
111.583427
 21
227.601135
 31
0.0
  0
LINE
  5
2D82
330
A
100
AcDbEntity
  8
0
  6
Continuous
 62
     7
 48
0.132173
100
AcDbLine
 10
112.302361
 20
226.8165589999999
 30
0.0
 11
111.8415759999999
 21
221.549759
 31
0.0
  0
LINE
  5
2D83
330
A
100
AcDbEntity
  8
0
  6
Continuous
 62
     7
 48
0.110258
100
AcDbLine
 10
110.309158
 20
222.3921509999999
 30
0.0
 11
110.69355
 21
226.785706
 31
0.0
  0
LINE
  5
2D84
330
A
100
AcDbEntity
  8
0
  6
Continuous
 62
     7
 48
0.048632
100
AcDbLine
 10
111.623383
 20
220.9579319999999
 30
0.0
 11
110.309158
 21
222.3921509999999
 31
0.0
  0
ARC
  5
2D85
330
A
100
AcDbEntity
  8
0
  6
Continuous
 62
     7
100
AcDbCircle
 10
110.6393889999999
 20
221.656845
 30
0.0
 40
1.206971999999999
100
AcDbArc
 50
324.6144339999998
 51
354.910266
  0
ARC
  5
2D86
330
A
100
AcDbEntity
  8
0
  6
Continuous
 62
     7
100
AcDbCircle
 10
48.088303
 20
209.8540649999999
 30
0.0
 40
0.601153
100
AcDbArc
 50
157.1415879999999
 51
174.9827389999999
  0
LINE
  5
2D87
330
A
100
AcDbEntity
  8
0
  6
Continuous
 62
     7
 48
0.054319
100
AcDbLine
 10
47.30008699999999
 20
207.7421419999999
 30
0.0
 11
47.48945599999998
 21
209.906647
 31
0.0
  0
LINE
  5
2D88
330
A
100
AcDbEntity
  8
0
  6
Continuous
 62
     7
 48
0.029535
100
AcDbLine
 10
47.53436299999999
 20
210.087585
 30
0.0
 11
48.33252
 21
209.2165529999999
 31
0.0
  0
LINE
  5
2D89
330
A
100
AcDbEntity
  8
0
  6
Continuous
 62
     7
 48
0.014736
100
AcDbLine
 10
47.698303
 20
207.3075709999999
 30
0.0
 11
47.30008699999999
 21
207.7421419999999
 31
0.0
  0
LINE
  5
2D8A
330
A
100
AcDbEntity
  8
0
  6
Continuous
 62
     7
 48
0.017223
100
AcDbLine
 10
48.206223
 20
207.772995
 30
0.0
 11
47.698303
 21
207.3075709999999
 31
0.0
  0
LINE
  5
2D8B
330
A
100
AcDbEntity
  8
0
  6
Continuous
 62
     7
 48
0.036227
100
AcDbLine
 10
48.33252
 20
209.2165529999999
 30
0.0
 11
48.206223
 21
207.772995
 31
0.0
  0
CIRCLE
  5
2D8C
330
A
100
AcDbEntity
  8
0
  6
Continuous
 62
     7
100
AcDbCircle
 10
74.64573699999998
 20
221.254349
 30
0.0
 40
0.8
  0
ARC
  5
2D8D
330
A
100
AcDbEntity
  8
0
  6
Continuous
 62
     7
100
AcDbCircle
 10
97.64424900000001
 20
221.661285
 30
0.0
 40
1.206971999999999
100
AcDbArc
 50
270.089733
 51
300.38557
  0
LINE
  5
2D8E
330
A
100
AcDbEntity
  8
0
  6
Continuous
 62
     7
 48
0.048632
100
AcDbLine
 10
96.940521
 20
222.054352
 30
0.0
 11
98.254745
 21
220.6201319999999
 31
0.0
  0
LINE
  5
2D8F
330
A
100
AcDbEntity
  8
0
  6
Continuous
 62
     7
 48
0.155592
100
AcDbLine
 10
97.64614100000001
 20
220.454346
 30
0.0
 11
91.42245499999999
 21
220.454346
 31
0.0
  0
LINE
  5
2D90
330
A
100
AcDbEntity
  8
0
  6
Continuous
 62
     7
 48
0.117787
100
AcDbLine
 10
92.229027
 20
222.054352
 30
0.0
 11
96.940521
 21
222.054352
 31
0.0
  0
LINE
  5
2D91
330
A
100
AcDbEntity
  8
0
  6
Continuous
 62
     7
 48
0.050964
100
AcDbLine
 10
90.72603599999998
 20
220.6771089999999
 30
0.0
 11
92.229027
 21
222.054352
 31
0.0
  0
ARC
  5
2D92
330
A
100
AcDbEntity
  8
0
  6
Continuous
 62
     7
100
AcDbCircle
 10
91.42543000000001
 20
221.6636509999999
 30
0.0
 40
1.209362999999997
100
AcDbArc
 50
234.665673
 51
269.859022
  0
LINE
  5
2D93
330
A
100
AcDbEntity
  8
0
  6
Continuous
 62
     7
 48
0.026604
100
AcDbLine
 10
78.58753199999998
 20
228.3075709999998
 30
0.0
 11
77.868599
 21
229.092148
 31
0.0
  0
LINE
  5
2D94
330
A
100
AcDbEntity
  8
0
  6
Continuous
 62
     7
 48
0.030174
100
AcDbLine
 10
79.47740899999998
 20
229.122986
 30
0.0
 11
78.58753199999998
 21
228.3075709999998
 31
0.0
  0
LINE
  5
2D95
330
A
100
AcDbEntity
  8
0
  6
Continuous
 62
     7
 48
0.132173
100
AcDbLine
 10
77.868599
 20
229.092148
 30
0.0
 11
78.32938399999997
 21
234.3589479999999
 31
0.0
  0
LINE
  5
2D96
330
A
100
AcDbEntity
  8
0
  6
Continuous
 62
     7
 48
0.110259
100
AcDbLine
 10
79.86179399999997
 20
233.516556
 30
0.0
 11
79.47740899999998
 21
229.122986
 31
0.0
  0
LINE
  5
2D97
330
A
100
AcDbEntity
  8
0
  6
Continuous
 62
     7
 48
0.048632
100
AcDbLine
 10
78.547577
 20
234.9507749999999
 30
0.0
 11
79.86179399999997
 21
233.516556
 31
0.0
  0
ARC
  5
2D98
330
A
100
AcDbEntity
  8
0
  6
Continuous
 62
     7
100
AcDbCircle
 10
79.531563
 20
234.251862
 30
0.0
 40
1.206971999999999
100
AcDbArc
 50
144.614434
 51
174.910271
  0
ARC
  5
2D99
330
A
100
AcDbEntity
  8
0
  6
Continuous
 62
     7
100
AcDbCircle
 10
111.328194
 20
205.4592129999999
 30
0.0
 40
1.004878
100
AcDbArc
 50
270.0691529999999
 51
297.9533399999999
  0
LINE
  5
2D9A
330
A
100
AcDbEntity
  8
0
  6
Continuous
 62
     7
 48
0.036715
100
AcDbLine
 10
110.8070529999999
 20
205.654358
 30
0.0
 11
111.799225
 21
204.571594
 31
0.0
  0
LINE
  5
2D9B
330
A
100
AcDbEntity
  8
0
  6
Continuous
 62
     7
 48
0.122968
100
AcDbLine
 10
111.329407
 20
204.4543459999999
 30
0.0
 11
106.4106899999996
 21
204.4543459999999
 31
0.0
  0
LINE
  5
2D9C
330
A
100
AcDbEntity
  8
0
  6
Continuous
 62
     7
 48
0.095201
100
AcDbLine
 10
106.999001
 20
205.654358
 30
0.0
 11
110.8070529999999
 21
205.654358
 31
0.0
  0
LINE
  5
2D9D
330
A
100
AcDbEntity
  8
0
  6
Continuous
 62
     7
 48
0.038428
100
AcDbLine
 10
105.865723
 20
204.6158909999999
 30
0.0
 11
106.999001
 21
205.654358
 31
0.0
  0
ARC
  5
2D9E
330
A
100
AcDbEntity
  8
0
  6
Continuous
 62
     7
100
AcDbCircle
 10
106.4126889999996
 20
205.461105
 30
0.0
 40
1.006791999999999
100
AcDbArc
 50
237.091455
 51
269.8860559999999
  0
LINE
  5
2D9F
330
A
100
AcDbEntity
  8
0
  6
Continuous
 62
     7
 48
0.019822
100
AcDbLine
 10
112.152954
 20
210.1011349999999
 30
0.0
 11
112.688629
 21
209.516556
 31
0.0
  0
LINE
  5
2DA0
330
A
100
AcDbEntity
  8
0
  6
Continuous
 62
     7
 48
0.022773
100
AcDbLine
 10
111.4813389999999
 20
209.4857179999999
 30
0.0
 11
112.152954
 21
210.1011349999999
 31
0.0
  0
LINE
  5
2DA1
330
A
100
AcDbEntity
  8
0
  6
Continuous
 62
     7
 48
0.10413
100
AcDbLine
 10
112.688629
 20
209.516556
 30
0.0
 11
112.325607
 21
205.3672029999999
 31
0.0
  0
LINE
  5
2DA2
330
A
100
AcDbEntity
  8
0
  6
Continuous
 62
     7
 48
0.087673
100
AcDbLine
 10
111.1756899999999
 20
205.992142
 30
0.0
 11
111.4813389999999
 21
209.4857179999999
 31
0.0
  0
LINE
  5
2DA3
330
A
100
AcDbEntity
  8
0
  6
Continuous
 62
     7
 48
0.036715
100
AcDbLine
 10
112.167862
 20
204.909378
 30
0.0
 11
111.1756899999999
 21
205.992142
 31
0.0
  0
ARC
  5
2DA4
330
A
100
AcDbEntity
  8
0
  6
Continuous
 62
     7
100
AcDbCircle
 10
111.3246149999999
 20
205.4559939999999
 30
0.0
 40
1.004931
100
AcDbArc
 50
327.047401
 51
354.9301129999998
  0
CIRCLE
  5
2DA5
330
A
100
AcDbEntity
  8
0
  6
Continuous
 62
     7
100
AcDbCircle
 10
113.645737
 20
205.054352
 30
0.0
 40
0.6
  0
LINE
  5
2DA6
330
A
100
AcDbEntity
  8
0
  6
Continuous
 62
     7
 48
0.087673
100
AcDbLine
 10
111.648132
 20
211.3921509999999
 30
0.0
 11
111.953781
 21
214.885712
 31
0.0
  0
LINE
  5
2DA7
330
A
100
AcDbEntity
  8
0
  6
Continuous
 62
     7
 48
0.019822
100
AcDbLine
 10
112.1838
 20
210.807571
 30
0.0
 11
111.648132
 21
211.3921509999999
 31
0.0
  0
LINE
  5
2DA8
330
A
100
AcDbEntity
  8
0
  6
Continuous
 62
     7
 48
0.038428
100
AcDbLine
 10
111.953781
 20
214.885712
 30
0.0
 11
113.087059
 21
215.924164
 31
0.0
  0
LINE
  5
2DA9
330
A
100
AcDbEntity
  8
0
  6
Continuous
 62
     7
 48
0.022773
100
AcDbLine
 10
112.855415
 20
211.4229889999999
 30
0.0
 11
112.1838
 21
210.807571
 31
0.0
  0
LINE
  5
2DAA
330
A
100
AcDbEntity
  8
0
  6
Continuous
 62
     7
 48
0.098982
100
AcDbLine
 10
113.200485
 20
215.367203
 30
0.0
 11
112.855415
 21
211.4229889999999
 31
0.0
  0
ARC
  5
2DAB
330
A
100
AcDbEntity
  8
0
  6
Continuous
 62
     7
100
AcDbCircle
 10
112.1973879999996
 20
215.4529419999999
 30
0.0
 40
1.006791999999999
100
AcDbArc
 50
355.113943
 51
27.908544
  0
LINE
  5
2DAC
330
A
100
AcDbEntity
  8
0
  6
Continuous
 62
     7
 48
0.110259
100
AcDbLine
 10
79.27561999999998
 20
226.8165589999999
 30
0.0
 11
78.891235
 21
222.422989
 31
0.0
  0
LINE
  5
2DAD
330
A
100
AcDbEntity
  8
0
  6
Continuous
 62
     7
 48
0.026604
100
AcDbLine
 10
78.556686
 20
227.601135
 30
0.0
 11
79.27561999999998
 21
226.8165589999999
 31
0.0
  0
LINE
  5
2DAE
330
A
100
AcDbEntity
  8
0
  6
Continuous
 62
     7
 48
0.050964
100
AcDbLine
 10
78.891235
 20
222.422989
 30
0.0
 11
77.38824499999998
 21
221.045746
 31
0.0
  0
LINE
  5
2DAF
330
A
100
AcDbEntity
  8
0
  6
Continuous
 62
     7
 48
0.030175
100
AcDbLine
 10
77.666809
 20
226.785706
 30
0.0
 11
78.556686
 21
227.601135
 31
0.0
  0
LINE
  5
2DB0
330
A
100
AcDbEntity
  8
0
  6
Continuous
 62
     7
 48
0.126149
100
AcDbLine
 10
77.227028
 20
221.7589419999999
 30
0.0
 11
77.666809
 21
226.785706
 31
0.0
  0
ARC
  5
2DB1
330
A
100
AcDbEntity
  8
0
  6
Continuous
 62
     7
100
AcDbCircle
 10
78.431984
 20
221.6565089999999
 30
0.0
 40
1.209362999999997
100
AcDbArc
 50
175.140981
 51
210.334324
  0
LINE
  5
2DB2
330
A
100
AcDbEntity
  8
0
  6
Continuous
 62
     7
 48
0.095201
100
AcDbLine
 10
111.615982
 20
215.254349
 30
0.0
 11
107.8079299999999
 21
215.254349
 31
0.0
  0
LINE
  5
2DB3
330
A
100
AcDbEntity
  8
0
  6
Continuous
 62
     7
 48
0.038428
100
AcDbLine
 10
112.7492679999999
 20
216.292816
 30
0.0
 11
111.615982
 21
215.254349
 31
0.0
  0
LINE
  5
2DB4
330
A
100
AcDbEntity
  8
0
  6
Continuous
 62
     7
 48
0.036715
100
AcDbLine
 10
107.8079299999999
 20
215.254349
 30
0.0
 11
106.815758
 21
216.337112
 31
0.0
  0
ARC
  5
2DB5
330
A
100
AcDbEntity
  8
0
  6
Continuous
 62
     7
100
AcDbCircle
 10
112.2022929999999
 20
215.4476009999999
 30
0.0
 40
1.006791999999999
100
AcDbArc
 50
57.091453
 51
89.886054
  0
LINE
  5
2DB6
330
A
100
AcDbEntity
  8
0
  6
Continuous
 62
     7
 48
0.122968
100
AcDbLine
 10
107.285576
 20
216.4543459999999
 30
0.0
 11
112.2043
 21
216.4543459999999
 31
0.0
  0
ARC
  5
2DB7
330
A
100
AcDbEntity
  8
0
  6
Continuous
 62
     7
100
AcDbCircle
 10
107.286804
 20
215.4494319999999
 30
0.0
 40
1.004931
100
AcDbArc
 50
90.06988900000001
 51
117.9525989999999
  0
LINE
  5
2DB8
330
A
100
AcDbEntity
  8
0
  6
Continuous
 62
     7
 48
0.019822
100
AcDbLine
 10
106.462029
 20
210.807571
 30
0.0
 11
105.926361
 21
211.3921509999999
 31
0.0
  0
LINE
  5
2DB9
330
A
100
AcDbEntity
  8
0
  6
Continuous
 62
     7
 48
0.022773
100
AcDbLine
 10
107.1336439999999
 20
211.4229889999999
 30
0.0
 11
106.462029
 21
210.807571
 31
0.0
  0
LINE
  5
2DBA
330
A
100
AcDbEntity
  8
0
  6
Continuous
 62
     7
 48
0.10413
100
AcDbLine
 10
105.926361
 20
211.3921509999999
 30
0.0
 11
106.2893829999999
 21
215.541504
 31
0.0
  0
LINE
  5
2DBB
330
A
100
AcDbEntity
  8
0
  6
Continuous
 62
     7
 48
0.087673
100
AcDbLine
 10
107.439285
 20
214.916565
 30
0.0
 11
107.1336439999999
 21
211.4229889999999
 31
0.0
  0
LINE
  5
2DBC
330
A
100
AcDbEntity
  8
0
  6
Continuous
 62
     7
 48
0.036715
100
AcDbLine
 10
106.447121
 20
215.999329
 30
0.0
 11
107.439285
 21
214.916565
 31
0.0
  0
ARC
  5
2DBD
330
A
100
AcDbEntity
  8
0
  6
Continuous
 62
     7
100
AcDbCircle
 10
107.290359
 20
215.4526979999999
 30
0.0
 40
1.004931
100
AcDbArc
 50
147.047401
 51
174.9301199999999
  0
CIRCLE
  5
2DBE
330
A
100
AcDbEntity
  8
0
  6
Continuous
 62
     7
100
AcDbCircle
 10
100.6457369999999
 20
221.254349
 30
0.0
 40
0.8
  0
LINE
  5
2DBF
330
A
100
AcDbEntity
  8
0
  6
Continuous
 62
     7
 48
0.022773
100
AcDbLine
 10
106.7998199999999
 20
210.4389339999999
 30
0.0
 11
107.471436
 21
211.0543519999999
 31
0.0
  0
LINE
  5
2DC0
330
A
100
AcDbEntity
  8
0
  6
Continuous
 62
     7
 48
0.019822
100
AcDbLine
 10
107.3354949999999
 20
209.8543549999999
 30
0.0
 11
106.7998199999999
 21
210.4389339999999
 31
0.0
  0
LINE
  5
2DC1
330
A
100
AcDbEntity
  8
0
  6
Continuous
 62
     7
 48
0.095201
100
AcDbLine
 10
107.471436
 20
211.0543519999999
 30
0.0
 11
111.279495
 21
211.0543519999999
 31
0.0
  0
LINE
  5
2DC2
330
A
100
AcDbEntity
  8
0
  6
Continuous
 62
     7
 48
0.095201
100
AcDbLine
 10
111.1435469999999
 20
209.8543549999999
 30
0.0
 11
107.3354949999999
 21
209.8543549999999
 31
0.0
  0
LINE
  5
2DC3
330
A
100
AcDbEntity
  8
0
  6
Continuous
 62
     7
 48
0.022773
100
AcDbLine
 10
111.8151629999996
 20
210.469772
 30
0.0
 11
111.1435469999999
 21
209.8543549999999
 31
0.0
  0
LINE
  5
2DC4
330
A
100
AcDbEntity
  8
0
  6
Continuous
 62
     7
 48
0.019822
100
AcDbLine
 10
111.279495
 20
211.0543519999999
 30
0.0
 11
111.8151629999996
 21
210.469772
 31
0.0
  0
LINE
  5
2DC5
330
A
100
AcDbEntity
  8
0
  6
Continuous
 62
     7
 48
0.087673
100
AcDbLine
 10
106.9668499999999
 20
209.516556
 30
0.0
 11
106.661209
 21
206.022995
 31
0.0
  0
LINE
  5
2DC6
330
A
100
AcDbEntity
  8
0
  6
Continuous
 62
     7
 48
0.019822
100
AcDbLine
 10
106.431183
 20
210.1011349999999
 30
0.0
 11
106.9668499999999
 21
209.516556
 31
0.0
  0
LINE
  5
2DC7
330
A
100
AcDbEntity
  8
0
  6
Continuous
 62
     7
 48
0.038428
100
AcDbLine
 10
106.661209
 20
206.022995
 30
0.0
 11
105.5279239999999
 21
204.9845279999999
 31
0.0
  0
LINE
  5
2DC8
330
A
100
AcDbEntity
  8
0
  6
Continuous
 62
     7
 48
0.022773
100
AcDbLine
 10
105.7595669999999
 20
209.4857179999999
 30
0.0
 11
106.431183
 21
210.1011349999999
 31
0.0
  0
LINE
  5
2DC9
330
A
100
AcDbEntity
  8
0
  6
Continuous
 62
     7
 48
0.098982
100
AcDbLine
 10
105.414497
 20
205.541504
 30
0.0
 11
105.7595669999999
 21
209.4857179999999
 31
0.0
  0
ARC
  5
2DCA
330
A
100
AcDbEntity
  8
0
  6
Continuous
 62
     7
100
AcDbCircle
 10
106.4175949999995
 20
205.455765
 30
0.0
 40
1.006791999999999
100
AcDbArc
 50
175.1139479999999
 51
207.9085389999999
  0
LINE
  5
2DCB
330
A
100
AcDbEntity
  8
0
  6
Continuous
 62
     7
 48
0.030174
100
AcDbLine
 10
78.92532299999998
 20
227.9389339999999
 30
0.0
 11
79.815201
 21
228.754349
 31
0.0
  0
LINE
  5
2DCC
330
A
100
AcDbEntity
  8
0
  6
Continuous
 62
     7
 48
0.026604
100
AcDbLine
 10
79.64425699999998
 20
227.1543579999999
 30
0.0
 11
78.92532299999998
 21
227.9389339999999
 31
0.0
  0
LINE
  5
2DCD
330
A
100
AcDbEntity
  8
0
  6
Continuous
 62
     7
 48
0.117787
100
AcDbLine
 10
79.815201
 20
228.754349
 30
0.0
 11
84.52669499999997
 21
228.754349
 31
0.0
  0
LINE
  5
2DCE
330
A
100
AcDbEntity
  8
0
  6
Continuous
 62
     7
 48
0.117787
100
AcDbLine
 10
84.35575099999999
 20
227.1543579999999
 30
0.0
 11
79.64425699999998
 21
227.1543579999999
 31
0.0
  0
LINE
  5
2DCF
330
A
100
AcDbEntity
  8
0
  6
Continuous
 62
     7
 48
0.030174
100
AcDbLine
 10
85.24562799999998
 20
227.969772
 30
0.0
 11
84.35575099999999
 21
227.1543579999999
 31
0.0
  0
LINE
  5
2DD0
330
A
100
AcDbEntity
  8
0
  6
Continuous
 62
     7
 48
0.026604
100
AcDbLine
 10
84.52669499999997
 20
228.754349
 30
0.0
 11
85.24562799999998
 21
227.969772
 31
0.0
  0
CIRCLE
  5
2DD1
330
A
100
AcDbEntity
  8
0
  6
Continuous
 62
     7
100
AcDbCircle
 10
103.6457369999999
 20
205.054352
 30
0.0
 40
0.6
  0
LINE
  5
2DD2
330
A
100
AcDbEntity
  8
0
  6
Continuous
 62
     7
 48
0.087673
100
AcDbLine
 10
101.648132
 20
211.3921509999999
 30
0.0
 11
101.953781
 21
214.885712
 31
0.0
  0
LINE
  5
2DD3
330
A
100
AcDbEntity
  8
0
  6
Continuous
 62
     7
 48
0.019822
100
AcDbLine
 10
102.1838
 20
210.807571
 30
0.0
 11
101.648132
 21
211.3921509999999
 31
0.0
  0
LINE
  5
2DD4
330
A
100
AcDbEntity
  8
0
  6
Continuous
 62
     7
 48
0.038428
100
AcDbLine
 10
101.953781
 20
214.885712
 30
0.0
 11
103.0870589999999
 21
215.924164
 31
0.0
  0
LINE
  5
2DD5
330
A
100
AcDbEntity
  8
0
  6
Continuous
 62
     7
 48
0.022773
100
AcDbLine
 10
102.855415
 20
211.4229889999999
 30
0.0
 11
102.1838
 21
210.807571
 31
0.0
  0
LINE
  5
2DD6
330
A
100
AcDbEntity
  8
0
  6
Continuous
 62
     7
 48
0.098982
100
AcDbLine
 10
103.200485
 20
215.367203
 30
0.0
 11
102.855415
 21
211.4229889999999
 31
0.0
  0
ARC
  5
2DD7
330
A
100
AcDbEntity
  8
0
  6
Continuous
 62
     7
100
AcDbCircle
 10
102.197388
 20
215.4529419999999
 30
0.0
 40
1.006791999999999
100
AcDbArc
 50
355.113943
 51
27.908544
  0
ARC
  5
2DD8
330
A
100
AcDbEntity
  8
0
  6
Continuous
 62
     7
100
AcDbCircle
 10
110.644257
 20
221.661285
 30
0.0
 40
1.206971999999999
100
AcDbArc
 50
270.089733
 51
300.38557
  0
LINE
  5
2DD9
330
A
100
AcDbEntity
  8
0
  6
Continuous
 62
     7
 48
0.048632
100
AcDbLine
 10
109.940521
 20
222.054352
 30
0.0
 11
111.254745
 21
220.6201319999999
 31
0.0
  0
LINE
  5
2DDA
330
A
100
AcDbEntity
  8
0
  6
Continuous
 62
     7
 48
0.155592
100
AcDbLine
 10
110.6461409999996
 20
220.454346
 30
0.0
 11
104.422455
 21
220.454346
 31
0.0
  0
LINE
  5
2DDB
330
A
100
AcDbEntity
  8
0
  6
Continuous
 62
     7
 48
0.117787
100
AcDbLine
 10
105.229027
 20
222.054352
 30
0.0
 11
109.940521
 21
222.054352
 31
0.0
  0
LINE
  5
2DDC
330
A
100
AcDbEntity
  8
0
  6
Continuous
 62
     7
 48
0.050964
100
AcDbLine
 10
103.7260359999995
 20
220.6771089999999
 30
0.0
 11
105.229027
 21
222.054352
 31
0.0
  0
ARC
  5
2DDD
330
A
100
AcDbEntity
  8
0
  6
Continuous
 62
     7
100
AcDbCircle
 10
104.4254299999999
 20
221.6636509999999
 30
0.0
 40
1.209362999999997
100
AcDbArc
 50
234.665673
 51
269.859022
  0
LINE
  5
2DDE
330
A
100
AcDbEntity
  8
0
  6
Continuous
 62
     7
 48
0.095201
100
AcDbLine
 10
101.6159819999999
 20
215.254349
 30
0.0
 11
97.80793
 21
215.254349
 31
0.0
  0
LINE
  5
2DDF
330
A
100
AcDbEntity
  8
0
  6
Continuous
 62
     7
 48
0.038428
100
AcDbLine
 10
102.7492599999999
 20
216.292816
 30
0.0
 11
101.6159819999999
 21
215.254349
 31
0.0
  0
LINE
  5
2DE0
330
A
100
AcDbEntity
  8
0
  6
Continuous
 62
     7
 48
0.036715
100
AcDbLine
 10
97.80793
 20
215.254349
 30
0.0
 11
96.815758
 21
216.337112
 31
0.0
  0
ARC
  5
2DE1
330
A
100
AcDbEntity
  8
0
  6
Continuous
 62
     7
100
AcDbCircle
 10
102.202293
 20
215.4476009999999
 30
0.0
 40
1.006791999999999
100
AcDbArc
 50
57.091453
 51
89.886054
  0
LINE
  5
2DE2
330
A
100
AcDbEntity
  8
0
  6
Continuous
 62
     7
 48
0.122968
100
AcDbLine
 10
97.28557600000002
 20
216.4543459999999
 30
0.0
 11
102.204292
 21
216.4543459999999
 31
0.0
  0
ARC
  5
2DE3
330
A
100
AcDbEntity
  8
0
  6
Continuous
 62
     7
100
AcDbCircle
 10
97.28680400000001
 20
215.4494319999999
 30
0.0
 40
1.004931
100
AcDbArc
 50
90.06988900000001
 51
117.9525989999999
  0
LINE
  5
2DE4
330
A
100
AcDbEntity
  8
0
  6
Continuous
 62
     7
 48
0.022773
100
AcDbLine
 10
96.79982
 20
210.4389339999999
 30
0.0
 11
97.47143600000001
 21
211.0543519999999
 31
0.0
  0
LINE
  5
2DE5
330
A
100
AcDbEntity
  8
0
  6
Continuous
 62
     7
 48
0.019822
100
AcDbLine
 10
97.335487
 20
209.8543549999999
 30
0.0
 11
96.79982
 21
210.4389339999999
 31
0.0
  0
LINE
  5
2DE6
330
A
100
AcDbEntity
  8
0
  6
Continuous
 62
     7
 48
0.095201
100
AcDbLine
 10
97.47143600000001
 20
211.0543519999999
 30
0.0
 11
101.2794949999999
 21
211.0543519999999
 31
0.0
  0
LINE
  5
2DE7
330
A
100
AcDbEntity
  8
0
  6
Continuous
 62
     7
 48
0.095201
100
AcDbLine
 10
101.1435469999999
 20
209.8543549999999
 30
0.0
 11
97.335487
 21
209.8543549999999
 31
0.0
  0
LINE
  5
2DE8
330
A
100
AcDbEntity
  8
0
  6
Continuous
 62
     7
 48
0.022773
100
AcDbLine
 10
101.8151629999999
 20
210.469772
 30
0.0
 11
101.1435469999999
 21
209.8543549999999
 31
0.0
  0
LINE
  5
2DE9
330
A
100
AcDbEntity
  8
0
  6
Continuous
 62
     7
 48
0.019822
100
AcDbLine
 10
101.2794949999999
 20
211.0543519999999
 30
0.0
 11
101.8151629999999
 21
210.469772
 31
0.0
  0
LINE
  5
2DEA
330
A
100
AcDbEntity
  8
0
  6
Continuous
 62
     7
 48
0.117787
100
AcDbLine
 10
84.941925
 20
233.8543549999999
 30
0.0
 11
80.230431
 21
233.8543549999999
 31
0.0
  0
LINE
  5
2DEB
330
A
100
AcDbEntity
  8
0
  6
Continuous
 62
     7
 48
0.050964
100
AcDbLine
 10
86.44492300000001
 20
235.2315979999999
 30
0.0
 11
84.941925
 21
233.8543549999999
 31
0.0
  0
LINE
  5
2DEC
330
A
100
AcDbEntity
  8
0
  6
Continuous
 62
     7
 48
0.048632
100
AcDbLine
 10
80.230431
 20
233.8543549999999
 30
0.0
 11
78.916214
 21
235.288574
 31
0.0
  0
ARC
  5
2DED
330
A
100
AcDbEntity
  8
0
  6
Continuous
 62
     7
100
AcDbCircle
 10
85.745552
 20
234.245148
 30
0.0
 40
1.20926
100
AcDbArc
 50
54.66419399999999
 51
89.860503
  0
LINE
  5
2DEE
330
A
100
AcDbEntity
  8
0
  6
Continuous
 62
     7
 48
0.155592
100
AcDbLine
 10
79.52481800000002
 20
235.4543459999999
 30
0.0
 11
85.74849699999999
 21
235.4543459999999
 31
0.0
  0
ARC
  5
2DEF
330
A
100
AcDbEntity
  8
0
  6
Continuous
 62
     7
100
AcDbCircle
 10
79.526703
 20
234.247406
 30
0.0
 40
1.206971999999999
100
AcDbArc
 50
90.08973799999999
 51
120.385567
  0
LINE
  5
2DF0
330
A
100
AcDbEntity
  8
0
  6
Continuous
 62
     7
 48
0.019822
100
AcDbLine
 10
102.152954
 20
210.1011349999999
 30
0.0
 11
102.6886289999999
 21
209.516556
 31
0.0
  0
LINE
  5
2DF1
330
A
100
AcDbEntity
  8
0
  6
Continuous
 62
     7
 48
0.022773
100
AcDbLine
 10
101.481339
 20
209.4857179999999
 30
0.0
 11
102.152954
 21
210.1011349999999
 31
0.0
  0
LINE
  5
2DF2
330
A
100
AcDbEntity
  8
0
  6
Continuous
 62
     7
 48
0.10413
100
AcDbLine
 10
102.6886289999999
 20
209.516556
 30
0.0
 11
102.3255999999999
 21
205.3672029999999
 31
0.0
  0
LINE
  5
2DF3
330
A
100
AcDbEntity
  8
0
  6
Continuous
 62
     7
 48
0.087673
100
AcDbLine
 10
101.1756969999999
 20
205.992142
 30
0.0
 11
101.481339
 21
209.4857179999999
 31
0.0
  0
LINE
  5
2DF4
330
A
100
AcDbEntity
  8
0
  6
Continuous
 62
     7
 48
0.036715
100
AcDbLine
 10
102.167862
 20
204.909378
 30
0.0
 11
101.1756969999999
 21
205.992142
 31
0.0
  0
ARC
  5
2DF5
330
A
100
AcDbEntity
  8
0
  6
Continuous
 62
     7
100
AcDbCircle
 10
101.324623
 20
205.4559939999999
 30
0.0
 40
1.004931
100
AcDbArc
 50
327.047401
 51
354.9301129999998
  0
ARC
  5
2DF6
330
A
100
AcDbEntity
  8
0
  6
Continuous
 62
     7
100
AcDbCircle
 10
101.3281859999999
 20
205.4592589999999
 30
0.0
 40
1.004931
100
AcDbArc
 50
270.069884
 51
297.952602
  0
LINE
  5
2DF7
330
A
100
AcDbEntity
  8
0
  6
Continuous
 62
     7
 48
0.036715
100
AcDbLine
 10
100.8070529999999
 20
205.654358
 30
0.0
 11
101.799225
 21
204.571594
 31
0.0
  0
LINE
  5
2DF8
330
A
100
AcDbEntity
  8
0
  6
Continuous
 62
     7
 48
0.122968
100
AcDbLine
 10
101.3294069999999
 20
204.4543459999999
 30
0.0
 11
96.41069000000001
 21
204.4543459999999
 31
0.0
  0
LINE
  5
2DF9
330
A
100
AcDbEntity
  8
0
  6
Continuous
 62
     7
 48
0.095201
100
AcDbLine
 10
96.999001
 20
205.654358
 30
0.0
 11
100.8070529999999
 21
205.654358
 31
0.0
  0
LINE
  5
2DFA
330
A
100
AcDbEntity
  8
0
  6
Continuous
 62
     7
 48
0.038428
100
AcDbLine
 10
95.865723
 20
204.6158909999999
 30
0.0
 11
96.999001
 21
205.654358
 31
0.0
  0
ARC
  5
2DFB
330
A
100
AcDbEntity
  8
0
  6
Continuous
 62
     7
100
AcDbCircle
 10
96.412689
 20
205.461105
 30
0.0
 40
1.006791999999999
100
AcDbArc
 50
237.091455
 51
269.8860559999999
  0
LINE
  5
2DFC
330
A
100
AcDbEntity
  8
0
  6
Continuous
 62
     7
 48
0.026604
100
AcDbLine
 10
104.5875319999999
 20
228.3075709999998
 30
0.0
 11
103.868599
 21
229.092148
 31
0.0
  0
LINE
  5
2DFD
330
A
100
AcDbEntity
  8
0
  6
Continuous
 62
     7
 48
0.030174
100
AcDbLine
 10
105.4774089999999
 20
229.122986
 30
0.0
 11
104.5875319999999
 21
228.3075709999998
 31
0.0
  0
LINE
  5
2DFE
330
A
100
AcDbEntity
  8
0
  6
Continuous
 62
     7
 48
0.132173
100
AcDbLine
 10
103.868599
 20
229.092148
 30
0.0
 11
104.329384
 21
234.3589479999999
 31
0.0
  0
LINE
  5
2DFF
330
A
100
AcDbEntity
  8
0
  6
Continuous
 62
     7
 48
0.110259
100
AcDbLine
 10
105.8617939999999
 20
233.516556
 30
0.0
 11
105.4774089999999
 21
229.122986
 31
0.0
  0
LINE
  5
2E00
330
A
100
AcDbEntity
  8
0
  6
Continuous
 62
     7
 48
0.048632
100
AcDbLine
 10
104.547577
 20
234.9507749999999
 30
0.0
 11
105.8617939999999
 21
233.516556
 31
0.0
  0
ARC
  5
2E01
330
A
100
AcDbEntity
  8
0
  6
Continuous
 62
     7
100
AcDbCircle
 10
105.5315629999999
 20
234.251862
 30
0.0
 40
1.206971999999999
100
AcDbArc
 50
144.614434
 51
174.910271
  0
LINE
  5
2E02
330
A
100
AcDbEntity
  8
0
  6
Continuous
 62
     7
 48
0.087673
100
AcDbLine
 10
96.96685
 20
209.516556
 30
0.0
 11
96.661201
 21
206.022995
 31
0.0
  0
LINE
  5
2E03
330
A
100
AcDbEntity
  8
0
  6
Continuous
 62
     7
 48
0.019822
100
AcDbLine
 10
96.43118300000001
 20
210.1011349999999
 30
0.0
 11
96.96685
 21
209.516556
 31
0.0
  0
LINE
  5
2E04
330
A
100
AcDbEntity
  8
0
  6
Continuous
 62
     7
 48
0.038428
100
AcDbLine
 10
96.661201
 20
206.022995
 30
0.0
 11
95.52792399999999
 21
204.9845279999999
 31
0.0
  0
LINE
  5
2E05
330
A
100
AcDbEntity
  8
0
  6
Continuous
 62
     7
 48
0.022773
100
AcDbLine
 10
95.759567
 20
209.4857179999999
 30
0.0
 11
96.43118300000001
 21
210.1011349999999
 31
0.0
  0
LINE
  5
2E06
330
A
100
AcDbEntity
  8
0
  6
Continuous
 62
     7
 48
0.098982
100
AcDbLine
 10
95.41449699999999
 20
205.541504
 30
0.0
 11
95.759567
 21
209.4857179999999
 31
0.0
  0
ARC
  5
2E07
330
A
100
AcDbEntity
  8
0
  6
Continuous
 62
     7
100
AcDbCircle
 10
96.41759499999999
 20
205.455765
 30
0.0
 40
1.006791999999999
100
AcDbArc
 50
175.1139479999999
 51
207.9085389999999
  0
LINE
  5
2E08
330
A
100
AcDbEntity
  8
0
  6
Continuous
 62
     7
 48
0.019822
100
AcDbLine
 10
96.462029
 20
210.807571
 30
0.0
 11
95.92636099999999
 21
211.3921509999999
 31
0.0
  0
LINE
  5
2E09
330
A
100
AcDbEntity
  8
0
  6
Continuous
 62
     7
 48
0.022773
100
AcDbLine
 10
97.13364400000001
 20
211.4229889999999
 30
0.0
 11
96.462029
 21
210.807571
 31
0.0
  0
LINE
  5
2E0A
330
A
100
AcDbEntity
  8
0
  6
Continuous
 62
     7
 48
0.10413
100
AcDbLine
 10
95.92636099999999
 20
211.3921509999999
 30
0.0
 11
96.28938300000001
 21
215.541504
 31
0.0
  0
LINE
  5
2E0B
330
A
100
AcDbEntity
  8
0
  6
Continuous
 62
     7
 48
0.087673
100
AcDbLine
 10
97.43929300000001
 20
214.916565
 30
0.0
 11
97.13364400000001
 21
211.4229889999999
 31
0.0
  0
LINE
  5
2E0C
330
A
100
AcDbEntity
  8
0
  6
Continuous
 62
     7
 48
0.036715
100
AcDbLine
 10
96.44712099999999
 20
215.999329
 30
0.0
 11
97.43929300000001
 21
214.916565
 31
0.0
  0
ARC
  5
2E0D
330
A
100
AcDbEntity
  8
0
  6
Continuous
 62
     7
100
AcDbCircle
 10
97.29035899999999
 20
215.4526979999999
 30
0.0
 40
1.004931
100
AcDbArc
 50
147.047401
 51
174.9301199999999
  0
LINE
  5
2E0E
330
A
100
AcDbEntity
  8
0
  6
Continuous
 62
     7
 48
0.110259
100
AcDbLine
 10
84.89534
 20
229.092148
 30
0.0
 11
85.27972400000001
 21
233.485718
 31
0.0
  0
LINE
  5
2E0F
330
A
100
AcDbEntity
  8
0
  6
Continuous
 62
     7
 48
0.026604
100
AcDbLine
 10
85.614273
 20
228.3075709999998
 30
0.0
 11
84.89534
 21
229.092148
 31
0.0
  0
LINE
  5
2E10
330
A
100
AcDbEntity
  8
0
  6
Continuous
 62
     7
 48
0.050964
100
AcDbLine
 10
85.27972400000001
 20
233.485718
 30
0.0
 11
86.78271499999999
 21
234.862946
 31
0.0
  0
LINE
  5
2E11
330
A
100
AcDbEntity
  8
0
  6
Continuous
 62
     7
 48
0.030174
100
AcDbLine
 10
86.50415
 20
229.122986
 30
0.0
 11
85.614273
 21
228.3075709999998
 31
0.0
  0
LINE
  5
2E12
330
A
100
AcDbEntity
  8
0
  6
Continuous
 62
     7
 48
0.12615
100
AcDbLine
 10
86.94393199999998
 20
234.1497649999999
 30
0.0
 11
86.50415
 21
229.122986
 31
0.0
  0
ARC
  5
2E13
330
A
100
AcDbEntity
  8
0
  6
Continuous
 62
     7
100
AcDbCircle
 10
85.738976
 20
234.252197
 30
0.0
 40
1.209362999999997
100
AcDbArc
 50
355.1409779999998
 51
30.334319
  0
CIRCLE
  5
2E14
330
A
100
AcDbEntity
  8
0
  6
Continuous
 62
     7
100
AcDbCircle
 10
93.64573699999999
 20
205.054352
 30
0.0
 40
0.6
  0
ARC
  5
2E15
330
A
100
AcDbEntity
  8
0
  6
Continuous
 62
     7
100
AcDbCircle
 10
91.328186
 20
205.4592589999999
 30
0.0
 40
1.004931
100
AcDbArc
 50
270.069884
 51
297.952602
  0
LINE
  5
2E16
330
A
100
AcDbEntity
  8
0
  6
Continuous
 62
     7
 48
0.036715
100
AcDbLine
 10
90.80705299999999
 20
205.654358
 30
0.0
 11
91.79922500000001
 21
204.571594
 31
0.0
  0
LINE
  5
2E17
330
A
100
AcDbEntity
  8
0
  6
Continuous
 62
     7
 48
0.122968
100
AcDbLine
 10
91.32940699999997
 20
204.4543459999999
 30
0.0
 11
86.41068999999998
 21
204.4543459999999
 31
0.0
  0
LINE
  5
2E18
330
A
100
AcDbEntity
  8
0
  6
Continuous
 62
     7
 48
0.095201
100
AcDbLine
 10
86.999001
 20
205.654358
 30
0.0
 11
90.80705299999999
 21
205.654358
 31
0.0
  0
LINE
  5
2E19
330
A
100
AcDbEntity
  8
0
  6
Continuous
 62
     7
 48
0.038428
100
AcDbLine
 10
85.865723
 20
204.6158909999999
 30
0.0
 11
86.999001
 21
205.654358
 31
0.0
  0
ARC
  5
2E1A
330
A
100
AcDbEntity
  8
0
  6
Continuous
 62
     7
100
AcDbCircle
 10
86.412689
 20
205.461105
 30
0.0
 40
1.006791999999999
100
AcDbArc
 50
237.091455
 51
269.8860559999999
  0
LINE
  5
2E1B
330
A
100
AcDbEntity
  8
0
  6
Continuous
 62
     7
 48
0.087673
100
AcDbLine
 10
86.96685
 20
209.516556
 30
0.0
 11
86.661201
 21
206.022995
 31
0.0
  0
LINE
  5
2E1C
330
A
100
AcDbEntity
  8
0
  6
Continuous
 62
     7
 48
0.019822
100
AcDbLine
 10
86.43118299999995
 20
210.1011349999999
 30
0.0
 11
86.96685
 21
209.516556
 31
0.0
  0
LINE
  5
2E1D
330
A
100
AcDbEntity
  8
0
  6
Continuous
 62
     7
 48
0.038428
100
AcDbLine
 10
86.661201
 20
206.022995
 30
0.0
 11
85.52792399999999
 21
204.9845279999999
 31
0.0
  0
LINE
  5
2E1E
330
A
100
AcDbEntity
  8
0
  6
Continuous
 62
     7
 48
0.022773
100
AcDbLine
 10
85.759567
 20
209.4857179999999
 30
0.0
 11
86.43118299999995
 21
210.1011349999999
 31
0.0
  0
LINE
  5
2E1F
330
A
100
AcDbEntity
  8
0
  6
Continuous
 62
     7
 48
0.098982
100
AcDbLine
 10
85.41449699999999
 20
205.541504
 30
0.0
 11
85.759567
 21
209.4857179999999
 31
0.0
  0
ARC
  5
2E20
330
A
100
AcDbEntity
  8
0
  6
Continuous
 62
     7
100
AcDbCircle
 10
86.41759499999997
 20
205.455765
 30
0.0
 40
1.006791999999999
100
AcDbArc
 50
175.1139479999999
 51
207.9085389999999
  0
LINE
  5
2E21
330
A
100
AcDbEntity
  8
0
  6
Continuous
 62
     7
 48
0.019822
100
AcDbLine
 10
92.152954
 20
210.1011349999999
 30
0.0
 11
92.688629
 21
209.516556
 31
0.0
  0
LINE
  5
2E22
330
A
100
AcDbEntity
  8
0
  6
Continuous
 62
     7
 48
0.022773
100
AcDbLine
 10
91.48133900000001
 20
209.4857179999999
 30
0.0
 11
92.152954
 21
210.1011349999999
 31
0.0
  0
LINE
  5
2E23
330
A
100
AcDbEntity
  8
0
  6
Continuous
 62
     7
 48
0.10413
100
AcDbLine
 10
92.688629
 20
209.516556
 30
0.0
 11
92.32559999999999
 21
205.3672029999999
 31
0.0
  0
LINE
  5
2E24
330
A
100
AcDbEntity
  8
0
  6
Continuous
 62
     7
 48
0.087673
100
AcDbLine
 10
91.175697
 20
205.992142
 30
0.0
 11
91.48133900000001
 21
209.4857179999999
 31
0.0
  0
LINE
  5
2E25
330
A
100
AcDbEntity
  8
0
  6
Continuous
 62
     7
 48
0.036715
100
AcDbLine
 10
92.16786199999999
 20
204.909378
 30
0.0
 11
91.175697
 21
205.992142
 31
0.0
  0
ARC
  5
2E26
330
A
100
AcDbEntity
  8
0
  6
Continuous
 62
     7
100
AcDbCircle
 10
91.324623
 20
205.4559939999999
 30
0.0
 40
1.004931
100
AcDbArc
 50
327.047401
 51
354.9301129999998
  0
LINE
  5
2E27
330
A
100
AcDbEntity
  8
0
  6
Continuous
 62
     7
 48
0.026604
100
AcDbLine
 10
85.583427
 20
227.601135
 30
0.0
 11
86.30236100000002
 21
226.8165589999999
 31
0.0
  0
LINE
  5
2E28
330
A
100
AcDbEntity
  8
0
  6
Continuous
 62
     7
 48
0.030175
100
AcDbLine
 10
84.69355
 20
226.785706
 30
0.0
 11
85.583427
 21
227.601135
 31
0.0
  0
LINE
  5
2E29
330
A
100
AcDbEntity
  8
0
  6
Continuous
 62
     7
 48
0.132173
100
AcDbLine
 10
86.30236100000002
 20
226.8165589999999
 30
0.0
 11
85.84157600000002
 21
221.549759
 31
0.0
  0
LINE
  5
2E2A
330
A
100
AcDbEntity
  8
0
  6
Continuous
 62
     7
 48
0.110258
100
AcDbLine
 10
84.30915799999999
 20
222.3921509999999
 30
0.0
 11
84.69355
 21
226.785706
 31
0.0
  0
LINE
  5
2E2B
330
A
100
AcDbEntity
  8
0
  6
Continuous
 62
     7
 48
0.048632
100
AcDbLine
 10
85.62338299999998
 20
220.9579319999999
 30
0.0
 11
84.30915799999999
 21
222.3921509999999
 31
0.0
  0
ARC
  5
2E2C
330
A
100
AcDbEntity
  8
0
  6
Continuous
 62
     7
100
AcDbCircle
 10
84.639389
 20
221.656845
 30
0.0
 40
1.206971999999999
100
AcDbArc
 50
324.6144339999998
 51
354.910266
  0
LINE
  5
2E2D
330
A
100
AcDbEntity
  8
0
  6
Continuous
 62
     7
 48
0.022773
100
AcDbLine
 10
86.79982
 20
210.4389339999999
 30
0.0
 11
87.47143599999999
 21
211.0543519999999
 31
0.0
  0
LINE
  5
2E2E
330
A
100
AcDbEntity
  8
0
  6
Continuous
 62
     7
 48
0.019822
100
AcDbLine
 10
87.335487
 20
209.8543549999999
 30
0.0
 11
86.79982
 21
210.4389339999999
 31
0.0
  0
LINE
  5
2E2F
330
A
100
AcDbEntity
  8
0
  6
Continuous
 62
     7
 48
0.095201
100
AcDbLine
 10
87.47143599999999
 20
211.0543519999999
 30
0.0
 11
91.27949499999999
 21
211.0543519999999
 31
0.0
  0
LINE
  5
2E30
330
A
100
AcDbEntity
  8
0
  6
Continuous
 62
     7
 48
0.095201
100
AcDbLine
 10
91.14354699999999
 20
209.8543549999999
 30
0.0
 11
87.335487
 21
209.8543549999999
 31
0.0
  0
LINE
  5
2E31
330
A
100
AcDbEntity
  8
0
  6
Continuous
 62
     7
 48
0.022773
100
AcDbLine
 10
91.815163
 20
210.469772
 30
0.0
 11
91.14354699999999
 21
209.8543549999999
 31
0.0
  0
LINE
  5
2E32
330
A
100
AcDbEntity
  8
0
  6
Continuous
 62
     7
 48
0.019822
100
AcDbLine
 10
91.27949499999999
 20
211.0543519999999
 30
0.0
 11
91.815163
 21
210.469772
 31
0.0
  0
LINE
  5
2E33
330
A
100
AcDbEntity
  8
0
  6
Continuous
 62
     7
 48
0.019822
100
AcDbLine
 10
86.462029
 20
210.807571
 30
0.0
 11
85.92636099999998
 21
211.3921509999999
 31
0.0
  0
LINE
  5
2E34
330
A
100
AcDbEntity
  8
0
  6
Continuous
 62
     7
 48
0.022773
100
AcDbLine
 10
87.13364399999996
 20
211.4229889999999
 30
0.0
 11
86.462029
 21
210.807571
 31
0.0
  0
LINE
  5
2E35
330
A
100
AcDbEntity
  8
0
  6
Continuous
 62
     7
 48
0.10413
100
AcDbLine
 10
85.92636099999998
 20
211.3921509999999
 30
0.0
 11
86.28938299999999
 21
215.541504
 31
0.0
  0
LINE
  5
2E36
330
A
100
AcDbEntity
  8
0
  6
Continuous
 62
     7
 48
0.087673
100
AcDbLine
 10
87.43929300000003
 20
214.916565
 30
0.0
 11
87.13364399999996
 21
211.4229889999999
 31
0.0
  0
LINE
  5
2E37
330
A
100
AcDbEntity
  8
0
  6
Continuous
 62
     7
 48
0.036715
100
AcDbLine
 10
86.44712099999997
 20
215.999329
 30
0.0
 11
87.43929300000003
 21
214.916565
 31
0.0
  0
ARC
  5
2E38
330
A
100
AcDbEntity
  8
0
  6
Continuous
 62
     7
100
AcDbCircle
 10
87.29035899999997
 20
215.4526979999999
 30
0.0
 40
1.004931
100
AcDbArc
 50
147.047401
 51
174.9301199999999
  0
LINE
  5
2E39
330
A
100
AcDbEntity
  8
0
  6
Continuous
 62
     7
 48
0.110259
100
AcDbLine
 10
105.2756199999999
 20
226.8165589999999
 30
0.0
 11
104.891235
 21
222.422989
 31
0.0
  0
LINE
  5
2E3A
330
A
100
AcDbEntity
  8
0
  6
Continuous
 62
     7
 48
0.026604
100
AcDbLine
 10
104.556686
 20
227.601135
 30
0.0
 11
105.2756199999999
 21
226.8165589999999
 31
0.0
  0
LINE
  5
2E3B
330
A
100
AcDbEntity
  8
0
  6
Continuous
 62
     7
 48
0.050964
100
AcDbLine
 10
104.891235
 20
222.422989
 30
0.0
 11
103.3882449999999
 21
221.045746
 31
0.0
  0
LINE
  5
2E3C
330
A
100
AcDbEntity
  8
0
  6
Continuous
 62
     7
 48
0.030175
100
AcDbLine
 10
103.666809
 20
226.785706
 30
0.0
 11
104.556686
 21
227.601135
 31
0.0
  0
LINE
  5
2E3D
330
A
100
AcDbEntity
  8
0
  6
Continuous
 62
     7
 48
0.126149
100
AcDbLine
 10
103.2270199999999
 20
221.7589419999999
 30
0.0
 11
103.666809
 21
226.785706
 31
0.0
  0
ARC
  5
2E3E
330
A
100
AcDbEntity
  8
0
  6
Continuous
 62
     7
100
AcDbCircle
 10
104.4319839999999
 20
221.6565089999999
 30
0.0
 40
1.209362999999997
100
AcDbArc
 50
175.140981
 51
210.334324
  0
LINE
  5
2E3F
330
A
100
AcDbEntity
  8
0
  6
Continuous
 62
     7
 48
0.087673
100
AcDbLine
 10
91.64813200000001
 20
211.3921509999999
 30
0.0
 11
91.953781
 21
214.885712
 31
0.0
  0
LINE
  5
2E40
330
A
100
AcDbEntity
  8
0
  6
Continuous
 62
     7
 48
0.019822
100
AcDbLine
 10
92.18380000000001
 20
210.807571
 30
0.0
 11
91.64813200000001
 21
211.3921509999999
 31
0.0
  0
LINE
  5
2E41
330
A
100
AcDbEntity
  8
0
  6
Continuous
 62
     7
 48
0.038428
100
AcDbLine
 10
91.953781
 20
214.885712
 30
0.0
 11
93.08705899999999
 21
215.924164
 31
0.0
  0
LINE
  5
2E42
330
A
100
AcDbEntity
  8
0
  6
Continuous
 62
     7
 48
0.022773
100
AcDbLine
 10
92.855415
 20
211.4229889999999
 30
0.0
 11
92.18380000000001
 21
210.807571
 31
0.0
  0
LINE
  5
2E43
330
A
100
AcDbEntity
  8
0
  6
Continuous
 62
     7
 48
0.098982
100
AcDbLine
 10
93.200485
 20
215.367203
 30
0.0
 11
92.855415
 21
211.4229889999999
 31
0.0
  0
ARC
  5
2E44
330
A
100
AcDbEntity
  8
0
  6
Continuous
 62
     7
100
AcDbCircle
 10
92.197388
 20
215.4529419999999
 30
0.0
 40
1.006791999999999
100
AcDbArc
 50
355.113943
 51
27.908544
  0
LINE
  5
2E45
330
A
100
AcDbEntity
  8
0
  6
Continuous
 62
     7
 48
0.095201
100
AcDbLine
 10
91.61598199999998
 20
215.254349
 30
0.0
 11
87.80793
 21
215.254349
 31
0.0
  0
LINE
  5
2E46
330
A
100
AcDbEntity
  8
0
  6
Continuous
 62
     7
 48
0.038428
100
AcDbLine
 10
92.74925999999998
 20
216.292816
 30
0.0
 11
91.61598199999998
 21
215.254349
 31
0.0
  0
LINE
  5
2E47
330
A
100
AcDbEntity
  8
0
  6
Continuous
 62
     7
 48
0.036715
100
AcDbLine
 10
87.80793
 20
215.254349
 30
0.0
 11
86.815758
 21
216.337112
 31
0.0
  0
ARC
  5
2E48
330
A
100
AcDbEntity
  8
0
  6
Continuous
 62
     7
100
AcDbCircle
 10
92.20229299999999
 20
215.4476009999999
 30
0.0
 40
1.006791999999999
100
AcDbArc
 50
57.091453
 51
89.886054
  0
LINE
  5
2E49
330
A
100
AcDbEntity
  8
0
  6
Continuous
 62
     7
 48
0.122968
100
AcDbLine
 10
87.285576
 20
216.4543459999999
 30
0.0
 11
92.20429199999999
 21
216.4543459999999
 31
0.0
  0
ARC
  5
2E4A
330
A
100
AcDbEntity
  8
0
  6
Continuous
 62
     7
100
AcDbCircle
 10
87.286804
 20
215.4494319999999
 30
0.0
 40
1.004931
100
AcDbArc
 50
90.06988900000001
 51
117.9525989999999
  0
ARC
  5
2E4B
330
A
100
AcDbEntity
  8
0
  6
Continuous
 62
     7
100
AcDbCircle
 10
84.644249
 20
221.661285
 30
0.0
 40
1.206971999999999
100
AcDbArc
 50
270.089733
 51
300.38557
  0
LINE
  5
2E4C
330
A
100
AcDbEntity
  8
0
  6
Continuous
 62
     7
 48
0.048632
100
AcDbLine
 10
83.94052099999997
 20
222.054352
 30
0.0
 11
85.25474499999999
 21
220.6201319999999
 31
0.0
  0
LINE
  5
2E4D
330
A
100
AcDbEntity
  8
0
  6
Continuous
 62
     7
 48
0.155592
100
AcDbLine
 10
84.646141
 20
220.454346
 30
0.0
 11
78.422455
 21
220.454346
 31
0.0
  0
LINE
  5
2E4E
330
A
100
AcDbEntity
  8
0
  6
Continuous
 62
     7
 48
0.117787
100
AcDbLine
 10
79.229027
 20
222.054352
 30
0.0
 11
83.94052099999997
 21
222.054352
 31
0.0
  0
LINE
  5
2E4F
330
A
100
AcDbEntity
  8
0
  6
Continuous
 62
     7
 48
0.050964
100
AcDbLine
 10
77.726036
 20
220.6771089999999
 30
0.0
 11
79.229027
 21
222.054352
 31
0.0
  0
ARC
  5
2E50
330
A
100
AcDbEntity
  8
0
  6
Continuous
 62
     7
100
AcDbCircle
 10
78.42543
 20
221.6636509999999
 30
0.0
 40
1.209362999999997
100
AcDbArc
 50
234.665673
 51
269.859022
  0
LINE
  5
2E51
330
A
100
AcDbEntity
  8
0
  6
Continuous
 62
     7
 48
0.087673
100
AcDbLine
 10
81.64813199999997
 20
211.3921509999999
 30
0.0
 11
81.953781
 21
214.885712
 31
0.0
  0
LINE
  5
2E52
330
A
100
AcDbEntity
  8
0
  6
Continuous
 62
     7
 48
0.019822
100
AcDbLine
 10
82.18380000000001
 20
210.807571
 30
0.0
 11
81.64813199999997
 21
211.3921509999999
 31
0.0
  0
LINE
  5
2E53
330
A
100
AcDbEntity
  8
0
  6
Continuous
 62
     7
 48
0.038428
100
AcDbLine
 10
81.953781
 20
214.885712
 30
0.0
 11
83.08705899999997
 21
215.924164
 31
0.0
  0
LINE
  5
2E54
330
A
100
AcDbEntity
  8
0
  6
Continuous
 62
     7
 48
0.022773
100
AcDbLine
 10
82.855415
 20
211.4229889999999
 30
0.0
 11
82.18380000000001
 21
210.807571
 31
0.0
  0
LINE
  5
2E55
330
A
100
AcDbEntity
  8
0
  6
Continuous
 62
     7
 48
0.098982
100
AcDbLine
 10
83.200485
 20
215.367203
 30
0.0
 11
82.855415
 21
211.4229889999999
 31
0.0
  0
ARC
  5
2E56
330
A
100
AcDbEntity
  8
0
  6
Continuous
 62
     7
100
AcDbCircle
 10
82.197388
 20
215.4529419999999
 30
0.0
 40
1.006791999999999
100
AcDbArc
 50
355.113943
 51
27.908544
  0
ARC
  5
2E57
330
A
100
AcDbEntity
  8
0
  6
Continuous
 62
     7
100
AcDbCircle
 10
58.644249
 20
221.661285
 30
0.0
 40
1.206971999999999
100
AcDbArc
 50
270.089733
 51
300.38557
  0
LINE
  5
2E58
330
A
100
AcDbEntity
  8
0
  6
Continuous
 62
     7
 48
0.048632
100
AcDbLine
 10
57.940521
 20
222.054352
 30
0.0
 11
59.254742
 21
220.6201319999999
 31
0.0
  0
LINE
  5
2E59
330
A
100
AcDbEntity
  8
0
  6
Continuous
 62
     7
 48
0.155592
100
AcDbLine
 10
58.646141
 20
220.454346
 30
0.0
 11
52.422459
 21
220.454346
 31
0.0
  0
LINE
  5
2E5A
330
A
100
AcDbEntity
  8
0
  6
Continuous
 62
     7
 48
0.117787
100
AcDbLine
 10
53.229027
 20
222.054352
 30
0.0
 11
57.940521
 21
222.054352
 31
0.0
  0
LINE
  5
2E5B
330
A
100
AcDbEntity
  8
0
  6
Continuous
 62
     7
 48
0.050964
100
AcDbLine
 10
51.726036
 20
220.6771089999999
 30
0.0
 11
53.229027
 21
222.054352
 31
0.0
  0
ARC
  5
2E5C
330
A
100
AcDbEntity
  8
0
  6
Continuous
 62
     7
100
AcDbCircle
 10
52.425434
 20
221.6636509999999
 30
0.0
 40
1.209362999999997
100
AcDbArc
 50
234.665673
 51
269.859022
  0
LINE
  5
2E5D
330
A
100
AcDbEntity
  8
0
  6
Continuous
 62
     7
 48
0.095201
100
AcDbLine
 10
81.61598199999998
 20
215.254349
 30
0.0
 11
77.80793
 21
215.254349
 31
0.0
  0
LINE
  5
2E5E
330
A
100
AcDbEntity
  8
0
  6
Continuous
 62
     7
 48
0.038428
100
AcDbLine
 10
82.74925999999998
 20
216.292816
 30
0.0
 11
81.61598199999998
 21
215.254349
 31
0.0
  0
LINE
  5
2E5F
330
A
100
AcDbEntity
  8
0
  6
Continuous
 62
     7
 48
0.036715
100
AcDbLine
 10
77.80793
 20
215.254349
 30
0.0
 11
76.815758
 21
216.337112
 31
0.0
  0
ARC
  5
2E60
330
A
100
AcDbEntity
  8
0
  6
Continuous
 62
     7
100
AcDbCircle
 10
82.20229300000003
 20
215.4476009999999
 30
0.0
 40
1.006791999999999
100
AcDbArc
 50
57.091453
 51
89.886054
  0
LINE
  5
2E61
330
A
100
AcDbEntity
  8
0
  6
Continuous
 62
     7
 48
0.122968
100
AcDbLine
 10
77.28557600000002
 20
216.4543459999999
 30
0.0
 11
82.20429200000003
 21
216.4543459999999
 31
0.0
  0
ARC
  5
2E62
330
A
100
AcDbEntity
  8
0
  6
Continuous
 62
     7
100
AcDbCircle
 10
77.286804
 20
215.4494319999999
 30
0.0
 40
1.004931
100
AcDbArc
 50
90.06988900000001
 51
117.9525989999999
  0
CIRCLE
  5
2E63
330
A
100
AcDbEntity
  8
0
  6
Continuous
 62
     7
100
AcDbCircle
 10
113.645737
 20
221.254349
 30
0.0
 40
0.8
  0
LINE
  5
2E64
330
A
100
AcDbEntity
  8
0
  6
Continuous
 62
     7
 48
0.019822
100
AcDbLine
 10
76.462029
 20
210.807571
 30
0.0
 11
75.92636099999999
 21
211.3921509999999
 31
0.0
  0
LINE
  5
2E65
330
A
100
AcDbEntity
  8
0
  6
Continuous
 62
     7
 48
0.022773
100
AcDbLine
 10
77.13364399999997
 20
211.4229889999999
 30
0.0
 11
76.462029
 21
210.807571
 31
0.0
  0
LINE
  5
2E66
330
A
100
AcDbEntity
  8
0
  6
Continuous
 62
     7
 48
0.10413
100
AcDbLine
 10
75.92636099999999
 20
211.3921509999999
 30
0.0
 11
76.289383
 21
215.541504
 31
0.0
  0
LINE
  5
2E67
330
A
100
AcDbEntity
  8
0
  6
Continuous
 62
     7
 48
0.087673
100
AcDbLine
 10
77.43929300000002
 20
214.916565
 30
0.0
 11
77.13364399999997
 21
211.4229889999999
 31
0.0
  0
LINE
  5
2E68
330
A
100
AcDbEntity
  8
0
  6
Continuous
 62
     7
 48
0.036715
100
AcDbLine
 10
76.44712099999998
 20
215.999329
 30
0.0
 11
77.43929300000002
 21
214.916565
 31
0.0
  0
ARC
  5
2E69
330
A
100
AcDbEntity
  8
0
  6
Continuous
 62
     7
100
AcDbCircle
 10
77.290367
 20
215.4526979999999
 30
0.0
 40
1.004931
100
AcDbArc
 50
147.047401
 51
174.9301199999999
  0
LINE
  5
2E6A
330
A
100
AcDbEntity
  8
0
  6
Continuous
 62
     7
 48
0.110259
100
AcDbLine
 10
53.27562
 20
226.8165589999999
 30
0.0
 11
52.89123499999998
 21
222.422989
 31
0.0
  0
LINE
  5
2E6B
330
A
100
AcDbEntity
  8
0
  6
Continuous
 62
     7
 48
0.026604
100
AcDbLine
 10
52.55668599999999
 20
227.601135
 30
0.0
 11
53.27562
 21
226.8165589999999
 31
0.0
  0
LINE
  5
2E6C
330
A
100
AcDbEntity
  8
0
  6
Continuous
 62
     7
 48
0.050964
100
AcDbLine
 10
52.89123499999998
 20
222.422989
 30
0.0
 11
51.388241
 21
221.045746
 31
0.0
  0
LINE
  5
2E6D
330
A
100
AcDbEntity
  8
0
  6
Continuous
 62
     7
 48
0.030175
100
AcDbLine
 10
51.666809
 20
226.785706
 30
0.0
 11
52.55668599999999
 21
227.601135
 31
0.0
  0
LINE
  5
2E6E
330
A
100
AcDbEntity
  8
0
  6
Continuous
 62
     7
 48
0.126149
100
AcDbLine
 10
51.227024
 20
221.7589419999999
 30
0.0
 11
51.666809
 21
226.785706
 31
0.0
  0
ARC
  5
2E6F
330
A
100
AcDbEntity
  8
0
  6
Continuous
 62
     7
100
AcDbCircle
 10
52.431984
 20
221.6565089999999
 30
0.0
 40
1.209362999999997
100
AcDbArc
 50
175.140981
 51
210.334324
  0
LINE
  5
2E70
330
A
100
AcDbEntity
  8
0
  6
Continuous
 62
     7
 48
0.022773
100
AcDbLine
 10
76.79981999999998
 20
210.4389339999999
 30
0.0
 11
77.471436
 21
211.0543519999999
 31
0.0
  0
LINE
  5
2E71
330
A
100
AcDbEntity
  8
0
  6
Continuous
 62
     7
 48
0.019822
100
AcDbLine
 10
77.335487
 20
209.8543549999999
 30
0.0
 11
76.79981999999998
 21
210.4389339999999
 31
0.0
  0
LINE
  5
2E72
330
A
100
AcDbEntity
  8
0
  6
Continuous
 62
     7
 48
0.095201
100
AcDbLine
 10
77.471436
 20
211.0543519999999
 30
0.0
 11
81.27949499999997
 21
211.0543519999999
 31
0.0
  0
LINE
  5
2E73
330
A
100
AcDbEntity
  8
0
  6
Continuous
 62
     7
 48
0.095201
100
AcDbLine
 10
81.14354699999998
 20
209.8543549999999
 30
0.0
 11
77.335487
 21
209.8543549999999
 31
0.0
  0
LINE
  5
2E74
330
A
100
AcDbEntity
  8
0
  6
Continuous
 62
     7
 48
0.022773
100
AcDbLine
 10
81.815163
 20
210.469772
 30
0.0
 11
81.14354699999998
 21
209.8543549999999
 31
0.0
  0
LINE
  5
2E75
330
A
100
AcDbEntity
  8
0
  6
Continuous
 62
     7
 48
0.019822
100
AcDbLine
 10
81.27949499999997
 20
211.0543519999999
 30
0.0
 11
81.815163
 21
210.469772
 31
0.0
  0
CIRCLE
  5
2E76
330
A
100
AcDbEntity
  8
0
  6
Continuous
 62
     7
100
AcDbCircle
 10
87.64573699999997
 20
221.254349
 30
0.0
 40
0.8
  0
LINE
  5
2E77
330
A
100
AcDbEntity
  8
0
  6
Continuous
 62
     7
 48
0.019822
100
AcDbLine
 10
82.152954
 20
210.1011349999999
 30
0.0
 11
82.68862199999999
 21
209.516556
 31
0.0
  0
LINE
  5
2E78
330
A
100
AcDbEntity
  8
0
  6
Continuous
 62
     7
 48
0.022773
100
AcDbLine
 10
81.48133900000003
 20
209.4857179999999
 30
0.0
 11
82.152954
 21
210.1011349999999
 31
0.0
  0
LINE
  5
2E79
330
A
100
AcDbEntity
  8
0
  6
Continuous
 62
     7
 48
0.10413
100
AcDbLine
 10
82.68862199999999
 20
209.516556
 30
0.0
 11
82.32559999999997
 21
205.3672029999999
 31
0.0
  0
LINE
  5
2E7A
330
A
100
AcDbEntity
  8
0
  6
Continuous
 62
     7
 48
0.087673
100
AcDbLine
 10
81.175697
 20
205.992142
 30
0.0
 11
81.48133900000003
 21
209.4857179999999
 31
0.0
  0
LINE
  5
2E7B
330
A
100
AcDbEntity
  8
0
  6
Continuous
 62
     7
 48
0.036715
100
AcDbLine
 10
82.16786199999999
 20
204.909378
 30
0.0
 11
81.175697
 21
205.992142
 31
0.0
  0
ARC
  5
2E7C
330
A
100
AcDbEntity
  8
0
  6
Continuous
 62
     7
100
AcDbCircle
 10
81.324623
 20
205.4559939999999
 30
0.0
 40
1.004931
100
AcDbArc
 50
327.047401
 51
354.9301129999998
  0
LINE
  5
2E7D
330
A
100
AcDbEntity
  8
0
  6
Continuous
 62
     7
 48
0.026604
100
AcDbLine
 10
59.583427
 20
227.601135
 30
0.0
 11
60.30236099999999
 21
226.8165589999999
 31
0.0
  0
LINE
  5
2E7E
330
A
100
AcDbEntity
  8
0
  6
Continuous
 62
     7
 48
0.030175
100
AcDbLine
 10
58.69355
 20
226.785706
 30
0.0
 11
59.583427
 21
227.601135
 31
0.0
  0
LINE
  5
2E7F
330
A
100
AcDbEntity
  8
0
  6
Continuous
 62
     7
 48
0.132173
100
AcDbLine
 10
60.30236099999999
 20
226.8165589999999
 30
0.0
 11
59.841576
 21
221.549759
 31
0.0
  0
LINE
  5
2E80
330
A
100
AcDbEntity
  8
0
  6
Continuous
 62
     7
 48
0.110258
100
AcDbLine
 10
58.309162
 20
222.3921509999999
 30
0.0
 11
58.69355
 21
226.785706
 31
0.0
  0
LINE
  5
2E81
330
A
100
AcDbEntity
  8
0
  6
Continuous
 62
     7
 48
0.048632
100
AcDbLine
 10
59.62338299999998
 20
220.9579319999999
 30
0.0
 11
58.309162
 21
222.3921509999999
 31
0.0
  0
ARC
  5
2E82
330
A
100
AcDbEntity
  8
0
  6
Continuous
 62
     7
100
AcDbCircle
 10
58.63939300000001
 20
221.656845
 30
0.0
 40
1.206971999999999
100
AcDbArc
 50
324.6144339999998
 51
354.910266
  0
CIRCLE
  5
2E83
330
A
100
AcDbEntity
  8
0
  6
Continuous
 62
     7
100
AcDbCircle
 10
83.64573699999999
 20
205.054352
 30
0.0
 40
0.6
  0
LINE
  5
2E84
330
A
100
AcDbEntity
  8
0
  6
Continuous
 62
     7
 48
0.030174
100
AcDbLine
 10
104.9253229999999
 20
227.9389339999999
 30
0.0
 11
105.815201
 21
228.754349
 31
0.0
  0
LINE
  5
2E85
330
A
100
AcDbEntity
  8
0
  6
Continuous
 62
     7
 48
0.026604
100
AcDbLine
 10
105.644257
 20
227.1543579999999
 30
0.0
 11
104.9253229999999
 21
227.9389339999999
 31
0.0
  0
LINE
  5
2E86
330
A
100
AcDbEntity
  8
0
  6
Continuous
 62
     7
 48
0.117788
100
AcDbLine
 10
105.815201
 20
228.754349
 30
0.0
 11
110.526703
 21
228.754349
 31
0.0
  0
LINE
  5
2E87
330
A
100
AcDbEntity
  8
0
  6
Continuous
 62
     7
 48
0.117788
100
AcDbLine
 10
110.355759
 20
227.1543579999999
 30
0.0
 11
105.644257
 21
227.1543579999999
 31
0.0
  0
LINE
  5
2E88
330
A
100
AcDbEntity
  8
0
  6
Continuous
 62
     7
 48
0.030174
100
AcDbLine
 10
111.245636
 20
227.969772
 30
0.0
 11
110.355759
 21
227.1543579999999
 31
0.0
  0
LINE
  5
2E89
330
A
100
AcDbEntity
  8
0
  6
Continuous
 62
     7
 48
0.026604
100
AcDbLine
 10
110.526703
 20
228.754349
 30
0.0
 11
111.245636
 21
227.969772
 31
0.0
  0
ARC
  5
2E8A
330
A
100
AcDbEntity
  8
0
  6
Continuous
 62
     7
100
AcDbCircle
 10
81.32817800000003
 20
205.4592589999999
 30
0.0
 40
1.004931
100
AcDbArc
 50
270.069884
 51
297.952602
  0
LINE
  5
2E8B
330
A
100
AcDbEntity
  8
0
  6
Continuous
 62
     7
 48
0.036715
100
AcDbLine
 10
80.80705299999998
 20
205.654358
 30
0.0
 11
81.79922500000001
 21
204.571594
 31
0.0
  0
LINE
  5
2E8C
330
A
100
AcDbEntity
  8
0
  6
Continuous
 62
     7
 48
0.122968
100
AcDbLine
 10
81.32940699999997
 20
204.4543459999999
 30
0.0
 11
76.41069
 21
204.4543459999999
 31
0.0
  0
LINE
  5
2E8D
330
A
100
AcDbEntity
  8
0
  6
Continuous
 62
     7
 48
0.095201
100
AcDbLine
 10
76.999001
 20
205.654358
 30
0.0
 11
80.80705299999998
 21
205.654358
 31
0.0
  0
LINE
  5
2E8E
330
A
100
AcDbEntity
  8
0
  6
Continuous
 62
     7
 48
0.038428
100
AcDbLine
 10
75.865723
 20
204.6158909999999
 30
0.0
 11
76.999001
 21
205.654358
 31
0.0
  0
ARC
  5
2E8F
330
A
100
AcDbEntity
  8
0
  6
Continuous
 62
     7
100
AcDbCircle
 10
76.412689
 20
205.461105
 30
0.0
 40
1.006791999999999
100
AcDbArc
 50
237.091455
 51
269.8860559999999
  0
CIRCLE
  5
2E90
330
A
100
AcDbEntity
  8
0
  6
Continuous
 62
     7
100
AcDbCircle
 10
61.645737
 20
221.254349
 30
0.0
 40
0.8
  0
LINE
  5
2E91
330
A
100
AcDbEntity
  8
0
  6
Continuous
 62
     7
 48
0.087673
100
AcDbLine
 10
76.96684999999998
 20
209.516556
 30
0.0
 11
76.661201
 21
206.022995
 31
0.0
  0
LINE
  5
2E92
330
A
100
AcDbEntity
  8
0
  6
Continuous
 62
     7
 48
0.019822
100
AcDbLine
 10
76.43118299999997
 20
210.1011349999999
 30
0.0
 11
76.96684999999998
 21
209.516556
 31
0.0
  0
LINE
  5
2E93
330
A
100
AcDbEntity
  8
0
  6
Continuous
 62
     7
 48
0.038428
100
AcDbLine
 10
76.661201
 20
206.022995
 30
0.0
 11
75.527924
 21
204.9845279999999
 31
0.0
  0
LINE
  5
2E94
330
A
100
AcDbEntity
  8
0
  6
Continuous
 62
     7
 48
0.022773
100
AcDbLine
 10
75.759567
 20
209.4857179999999
 30
0.0
 11
76.43118299999997
 21
210.1011349999999
 31
0.0
  0
LINE
  5
2E95
330
A
100
AcDbEntity
  8
0
  6
Continuous
 62
     7
 48
0.098982
100
AcDbLine
 10
75.414497
 20
205.541504
 30
0.0
 11
75.759567
 21
209.4857179999999
 31
0.0
  0
ARC
  5
2E96
330
A
100
AcDbEntity
  8
0
  6
Continuous
 62
     7
100
AcDbCircle
 10
76.41759499999998
 20
205.455765
 30
0.0
 40
1.006791999999999
100
AcDbArc
 50
175.1139479999999
 51
207.9085389999999
  0
LINE
  5
2E97
330
A
100
AcDbEntity
  8
0
  6
Continuous
 62
     7
 48
0.026604
100
AcDbLine
 10
91.58753199999999
 20
228.3075709999998
 30
0.0
 11
90.868599
 21
229.092148
 31
0.0
  0
LINE
  5
2E98
330
A
100
AcDbEntity
  8
0
  6
Continuous
 62
     7
 48
0.030174
100
AcDbLine
 10
92.477409
 20
229.122986
 30
0.0
 11
91.58753199999999
 21
228.3075709999998
 31
0.0
  0
LINE
  5
2E99
330
A
100
AcDbEntity
  8
0
  6
Continuous
 62
     7
 48
0.132173
100
AcDbLine
 10
90.868599
 20
229.092148
 30
0.0
 11
91.32938399999998
 21
234.3589479999999
 31
0.0
  0
LINE
  5
2E9A
330
A
100
AcDbEntity
  8
0
  6
Continuous
 62
     7
 48
0.110259
100
AcDbLine
 10
92.86179399999999
 20
233.516556
 30
0.0
 11
92.477409
 21
229.122986
 31
0.0
  0
LINE
  5
2E9B
330
A
100
AcDbEntity
  8
0
  6
Continuous
 62
     7
 48
0.048632
100
AcDbLine
 10
91.54757700000001
 20
234.9507749999999
 30
0.0
 11
92.86179399999999
 21
233.516556
 31
0.0
  0
ARC
  5
2E9C
330
A
100
AcDbEntity
  8
0
  6
Continuous
 62
     7
100
AcDbCircle
 10
92.531563
 20
234.251862
 30
0.0
 40
1.206971999999999
100
AcDbArc
 50
144.614434
 51
174.910271
  0
CIRCLE
  5
2E9D
330
A
100
AcDbEntity
  8
0
  6
Continuous
 62
     7
100
AcDbCircle
 10
73.645737
 20
205.054352
 30
0.0
 40
0.6
  0
LINE
  5
2E9E
330
A
100
AcDbEntity
  8
0
  6
Continuous
 62
     7
 48
0.030174
100
AcDbLine
 10
52.925323
 20
227.9389339999999
 30
0.0
 11
53.815201
 21
228.754349
 31
0.0
  0
LINE
  5
2E9F
330
A
100
AcDbEntity
  8
0
  6
Continuous
 62
     7
 48
0.026604
100
AcDbLine
 10
53.64425999999999
 20
227.1543579999999
 30
0.0
 11
52.925323
 21
227.9389339999999
 31
0.0
  0
LINE
  5
2EA0
330
A
100
AcDbEntity
  8
0
  6
Continuous
 62
     7
 48
0.117787
100
AcDbLine
 10
53.815201
 20
228.754349
 30
0.0
 11
58.526695
 21
228.754349
 31
0.0
  0
LINE
  5
2EA1
330
A
100
AcDbEntity
  8
0
  6
Continuous
 62
     7
 48
0.117787
100
AcDbLine
 10
58.355755
 20
227.1543579999999
 30
0.0
 11
53.64425999999999
 21
227.1543579999999
 31
0.0
  0
LINE
  5
2EA2
330
A
100
AcDbEntity
  8
0
  6
Continuous
 62
     7
 48
0.030174
100
AcDbLine
 10
59.24563199999999
 20
227.969772
 30
0.0
 11
58.355755
 21
227.1543579999999
 31
0.0
  0
LINE
  5
2EA3
330
A
100
AcDbEntity
  8
0
  6
Continuous
 62
     7
 48
0.026604
100
AcDbLine
 10
58.526695
 20
228.754349
 30
0.0
 11
59.24563199999999
 21
227.969772
 31
0.0
  0
ARC
  5
2EA4
330
A
100
AcDbEntity
  8
0
  6
Continuous
 62
     7
100
AcDbCircle
 10
71.32817800000002
 20
205.4592589999999
 30
0.0
 40
1.004931
100
AcDbArc
 50
270.069884
 51
297.952602
  0
LINE
  5
2EA5
330
A
100
AcDbEntity
  8
0
  6
Continuous
 62
     7
 48
0.036715
100
AcDbLine
 10
70.80705299999998
 20
205.654358
 30
0.0
 11
71.799225
 21
204.571594
 31
0.0
  0
LINE
  5
2EA6
330
A
100
AcDbEntity
  8
0
  6
Continuous
 62
     7
 48
0.122968
100
AcDbLine
 10
71.32940699999998
 20
204.4543459999999
 30
0.0
 11
66.41069
 21
204.4543459999999
 31
0.0
  0
LINE
  5
2EA7
330
A
100
AcDbEntity
  8
0
  6
Continuous
 62
     7
 48
0.095201
100
AcDbLine
 10
66.999001
 20
205.654358
 30
0.0
 11
70.80705299999998
 21
205.654358
 31
0.0
  0
LINE
  5
2EA8
330
A
100
AcDbEntity
  8
0
  6
Continuous
 62
     7
 48
0.038428
100
AcDbLine
 10
65.865723
 20
204.6158909999999
 30
0.0
 11
66.999001
 21
205.654358
 31
0.0
  0
ARC
  5
2EA9
330
A
100
AcDbEntity
  8
0
  6
Continuous
 62
     7
100
AcDbCircle
 10
66.412689
 20
205.461105
 30
0.0
 40
1.006791999999999
100
AcDbArc
 50
237.091455
 51
269.8860559999999
  0
LINE
  5
2EAA
330
A
100
AcDbEntity
  8
0
  6
Continuous
 62
     7
 48
0.087673
100
AcDbLine
 10
66.96684999999999
 20
209.516556
 30
0.0
 11
66.661201
 21
206.022995
 31
0.0
  0
LINE
  5
2EAB
330
A
100
AcDbEntity
  8
0
  6
Continuous
 62
     7
 48
0.019822
100
AcDbLine
 10
66.43118299999999
 20
210.1011349999999
 30
0.0
 11
66.96684999999999
 21
209.516556
 31
0.0
  0
LINE
  5
2EAC
330
A
100
AcDbEntity
  8
0
  6
Continuous
 62
     7
 48
0.038428
100
AcDbLine
 10
66.661201
 20
206.022995
 30
0.0
 11
65.527924
 21
204.9845279999999
 31
0.0
  0
LINE
  5
2EAD
330
A
100
AcDbEntity
  8
0
  6
Continuous
 62
     7
 48
0.022773
100
AcDbLine
 10
65.759567
 20
209.4857179999999
 30
0.0
 11
66.43118299999999
 21
210.1011349999999
 31
0.0
  0
LINE
  5
2EAE
330
A
100
AcDbEntity
  8
0
  6
Continuous
 62
     7
 48
0.098982
100
AcDbLine
 10
65.414497
 20
205.541504
 30
0.0
 11
65.759567
 21
209.4857179999999
 31
0.0
  0
ARC
  5
2EAF
330
A
100
AcDbEntity
  8
0
  6
Continuous
 62
     7
100
AcDbCircle
 10
66.41759499999999
 20
205.455765
 30
0.0
 40
1.006791999999999
100
AcDbArc
 50
175.1139479999999
 51
207.9085389999999
  0
LINE
  5
2EB0
330
A
100
AcDbEntity
  8
0
  6
Continuous
 62
     7
 48
0.026604
100
AcDbLine
 10
52.587532
 20
228.3075709999998
 30
0.0
 11
51.86859899999999
 21
229.092148
 31
0.0
  0
LINE
  5
2EB1
330
A
100
AcDbEntity
  8
0
  6
Continuous
 62
     7
 48
0.030174
100
AcDbLine
 10
53.47740899999998
 20
229.122986
 30
0.0
 11
52.587532
 21
228.3075709999998
 31
0.0
  0
LINE
  5
2EB2
330
A
100
AcDbEntity
  8
0
  6
Continuous
 62
     7
 48
0.132173
100
AcDbLine
 10
51.86859899999999
 20
229.092148
 30
0.0
 11
52.329384
 21
234.3589479999999
 31
0.0
  0
LINE
  5
2EB3
330
A
100
AcDbEntity
  8
0
  6
Continuous
 62
     7
 48
0.110259
100
AcDbLine
 10
53.86179399999999
 20
233.516556
 30
0.0
 11
53.47740899999998
 21
229.122986
 31
0.0
  0
LINE
  5
2EB4
330
A
100
AcDbEntity
  8
0
  6
Continuous
 62
     7
 48
0.048632
100
AcDbLine
 10
52.547577
 20
234.9507749999999
 30
0.0
 11
53.86179399999999
 21
233.516556
 31
0.0
  0
ARC
  5
2EB5
330
A
100
AcDbEntity
  8
0
  6
Continuous
 62
     7
100
AcDbCircle
 10
53.531563
 20
234.251862
 30
0.0
 40
1.206971999999999
100
AcDbArc
 50
144.614434
 51
174.910271
  0
LINE
  5
2EB6
330
A
100
AcDbEntity
  8
0
  6
Continuous
 62
     7
 48
0.019822
100
AcDbLine
 10
72.15295400000002
 20
210.1011349999999
 30
0.0
 11
72.688622
 21
209.516556
 31
0.0
  0
LINE
  5
2EB7
330
A
100
AcDbEntity
  8
0
  6
Continuous
 62
     7
 48
0.022773
100
AcDbLine
 10
71.48133900000002
 20
209.4857179999999
 30
0.0
 11
72.15295400000002
 21
210.1011349999999
 31
0.0
  0
LINE
  5
2EB8
330
A
100
AcDbEntity
  8
0
  6
Continuous
 62
     7
 48
0.10413
100
AcDbLine
 10
72.688622
 20
209.516556
 30
0.0
 11
72.32559999999998
 21
205.3672029999999
 31
0.0
  0
LINE
  5
2EB9
330
A
100
AcDbEntity
  8
0
  6
Continuous
 62
     7
 48
0.087673
100
AcDbLine
 10
71.175697
 20
205.992142
 30
0.0
 11
71.48133900000002
 21
209.4857179999999
 31
0.0
  0
LINE
  5
2EBA
330
A
100
AcDbEntity
  8
0
  6
Continuous
 62
     7
 48
0.036715
100
AcDbLine
 10
72.167862
 20
204.909378
 30
0.0
 11
71.175697
 21
205.992142
 31
0.0
  0
ARC
  5
2EBB
330
A
100
AcDbEntity
  8
0
  6
Continuous
 62
     7
100
AcDbCircle
 10
71.324623
 20
205.4559939999999
 30
0.0
 40
1.004931
100
AcDbArc
 50
327.047401
 51
354.9301129999998
  0
LINE
  5
2EBC
330
A
100
AcDbEntity
  8
0
  6
Continuous
 62
     7
 48
0.110259
100
AcDbLine
 10
92.27561999999997
 20
226.8165589999999
 30
0.0
 11
91.89123499999999
 21
222.422989
 31
0.0
  0
LINE
  5
2EBD
330
A
100
AcDbEntity
  8
0
  6
Continuous
 62
     7
 48
0.026604
100
AcDbLine
 10
91.556686
 20
227.601135
 30
0.0
 11
92.27561999999997
 21
226.8165589999999
 31
0.0
  0
LINE
  5
2EBE
330
A
100
AcDbEntity
  8
0
  6
Continuous
 62
     7
 48
0.050964
100
AcDbLine
 10
91.89123499999999
 20
222.422989
 30
0.0
 11
90.388245
 21
221.045746
 31
0.0
  0
LINE
  5
2EBF
330
A
100
AcDbEntity
  8
0
  6
Continuous
 62
     7
 48
0.030175
100
AcDbLine
 10
90.66680899999999
 20
226.785706
 30
0.0
 11
91.556686
 21
227.601135
 31
0.0
  0
LINE
  5
2EC0
330
A
100
AcDbEntity
  8
0
  6
Continuous
 62
     7
 48
0.126149
100
AcDbLine
 10
90.22702800000001
 20
221.7589419999999
 30
0.0
 11
90.66680899999999
 21
226.785706
 31
0.0
  0
ARC
  5
2EC1
330
A
100
AcDbEntity
  8
0
  6
Continuous
 62
     7
100
AcDbCircle
 10
91.43198400000001
 20
221.6565089999999
 30
0.0
 40
1.209362999999997
100
AcDbArc
 50
175.140981
 51
210.334324
  0
LINE
  5
2EC2
330
A
100
AcDbEntity
  8
0
  6
Continuous
 62
     7
 48
0.022773
100
AcDbLine
 10
66.79981999999999
 20
210.4389339999999
 30
0.0
 11
67.471436
 21
211.0543519999999
 31
0.0
  0
LINE
  5
2EC3
330
A
100
AcDbEntity
  8
0
  6
Continuous
 62
     7
 48
0.019822
100
AcDbLine
 10
67.335487
 20
209.8543549999999
 30
0.0
 11
66.79981999999999
 21
210.4389339999999
 31
0.0
  0
LINE
  5
2EC4
330
A
100
AcDbEntity
  8
0
  6
Continuous
 62
     7
 48
0.095201
100
AcDbLine
 10
67.471436
 20
211.0543519999999
 30
0.0
 11
71.27949499999998
 21
211.0543519999999
 31
0.0
  0
LINE
  5
2EC5
330
A
100
AcDbEntity
  8
0
  6
Continuous
 62
     7
 48
0.095201
100
AcDbLine
 10
71.14354699999998
 20
209.8543549999999
 30
0.0
 11
67.335487
 21
209.8543549999999
 31
0.0
  0
LINE
  5
2EC6
330
A
100
AcDbEntity
  8
0
  6
Continuous
 62
     7
 48
0.022773
100
AcDbLine
 10
71.815163
 20
210.469772
 30
0.0
 11
71.14354699999998
 21
209.8543549999999
 31
0.0
  0
LINE
  5
2EC7
330
A
100
AcDbEntity
  8
0
  6
Continuous
 62
     7
 48
0.019822
100
AcDbLine
 10
71.27949499999998
 20
211.0543519999999
 30
0.0
 11
71.815163
 21
210.469772
 31
0.0
  0
LINE
  5
2EC8
330
A
100
AcDbEntity
  8
0
  6
Continuous
 62
     7
 48
0.117787
100
AcDbLine
 10
58.941929
 20
233.8543549999999
 30
0.0
 11
54.230434
 21
233.8543549999999
 31
0.0
  0
LINE
  5
2EC9
330
A
100
AcDbEntity
  8
0
  6
Continuous
 62
     7
 48
0.050964
100
AcDbLine
 10
60.44491999999999
 20
235.2315979999999
 30
0.0
 11
58.941929
 21
233.8543549999999
 31
0.0
  0
LINE
  5
2ECA
330
A
100
AcDbEntity
  8
0
  6
Continuous
 62
     7
 48
0.048632
100
AcDbLine
 10
54.230434
 20
233.8543549999999
 30
0.0
 11
52.916214
 21
235.288574
 31
0.0
  0
ARC
  5
2ECB
330
A
100
AcDbEntity
  8
0
  6
Continuous
 62
     7
100
AcDbCircle
 10
59.74555600000001
 20
234.245148
 30
0.0
 40
1.20926
100
AcDbArc
 50
54.66419399999999
 51
89.860503
  0
LINE
  5
2ECC
330
A
100
AcDbEntity
  8
0
  6
Continuous
 62
     7
 48
0.155592
100
AcDbLine
 10
53.524818
 20
235.4543459999999
 30
0.0
 11
59.748497
 21
235.4543459999999
 31
0.0
  0
ARC
  5
2ECD
330
A
100
AcDbEntity
  8
0
  6
Continuous
 62
     7
100
AcDbCircle
 10
53.526707
 20
234.247406
 30
0.0
 40
1.206971999999999
100
AcDbArc
 50
90.08973799999999
 51
120.385567
  0
LINE
  5
2ECE
330
A
100
AcDbEntity
  8
0
  6
Continuous
 62
     7
 48
0.019822
100
AcDbLine
 10
66.462029
 20
210.807571
 30
0.0
 11
65.92636099999999
 21
211.3921509999999
 31
0.0
  0
LINE
  5
2ECF
330
A
100
AcDbEntity
  8
0
  6
Continuous
 62
     7
 48
0.022773
100
AcDbLine
 10
67.13364399999999
 20
211.4229889999999
 30
0.0
 11
66.462029
 21
210.807571
 31
0.0
  0
LINE
  5
2ED0
330
A
100
AcDbEntity
  8
0
  6
Continuous
 62
     7
 48
0.10413
100
AcDbLine
 10
65.92636099999999
 20
211.3921509999999
 30
0.0
 11
66.289383
 21
215.541504
 31
0.0
  0
LINE
  5
2ED1
330
A
100
AcDbEntity
  8
0
  6
Continuous
 62
     7
 48
0.087673
100
AcDbLine
 10
67.43929300000001
 20
214.916565
 30
0.0
 11
67.13364399999999
 21
211.4229889999999
 31
0.0
  0
LINE
  5
2ED2
330
A
100
AcDbEntity
  8
0
  6
Continuous
 62
     7
 48
0.036715
100
AcDbLine
 10
66.44712099999999
 20
215.999329
 30
0.0
 11
67.43929300000001
 21
214.916565
 31
0.0
  0
ARC
  5
2ED3
330
A
100
AcDbEntity
  8
0
  6
Continuous
 62
     7
100
AcDbCircle
 10
67.290367
 20
215.4526979999999
 30
0.0
 40
1.004931
100
AcDbArc
 50
147.047401
 51
174.9301199999999
  0
LINE
  5
2ED4
330
A
100
AcDbEntity
  8
0
  6
Continuous
 62
     7
 48
0.117787
100
AcDbLine
 10
110.9419249999999
 20
233.8543549999999
 30
0.0
 11
106.230438
 21
233.8543549999999
 31
0.0
  0
LINE
  5
2ED5
330
A
100
AcDbEntity
  8
0
  6
Continuous
 62
     7
 48
0.050964
100
AcDbLine
 10
112.4449159999999
 20
235.2315979999999
 30
0.0
 11
110.9419249999999
 21
233.8543549999999
 31
0.0
  0
LINE
  5
2ED6
330
A
100
AcDbEntity
  8
0
  6
Continuous
 62
     7
 48
0.048632
100
AcDbLine
 10
106.230438
 20
233.8543549999999
 30
0.0
 11
104.9162139999999
 21
235.288574
 31
0.0
  0
ARC
  5
2ED7
330
A
100
AcDbEntity
  8
0
  6
Continuous
 62
     7
100
AcDbCircle
 10
111.7455219999999
 20
234.245056
 30
0.0
 40
1.209362999999997
100
AcDbArc
 50
54.66567799999999
 51
89.859021
  0
LINE
  5
2ED8
330
A
100
AcDbEntity
  8
0
  6
Continuous
 62
     7
 48
0.155592
100
AcDbLine
 10
105.5248179999999
 20
235.4543459999999
 30
0.0
 11
111.748497
 21
235.4543459999999
 31
0.0
  0
ARC
  5
2ED9
330
A
100
AcDbEntity
  8
0
  6
Continuous
 62
     7
100
AcDbCircle
 10
105.5267029999999
 20
234.247406
 30
0.0
 40
1.206971999999999
100
AcDbArc
 50
90.08973799999999
 51
120.385567
  0
LINE
  5
2EDA
330
A
100
AcDbEntity
  8
0
  6
Continuous
 62
     7
 48
0.087673
100
AcDbLine
 10
71.64813199999997
 20
211.3921509999999
 30
0.0
 11
71.953781
 21
214.885712
 31
0.0
  0
LINE
  5
2EDB
330
A
100
AcDbEntity
  8
0
  6
Continuous
 62
     7
 48
0.019822
100
AcDbLine
 10
72.1838
 20
210.807571
 30
0.0
 11
71.64813199999997
 21
211.3921509999999
 31
0.0
  0
LINE
  5
2EDC
330
A
100
AcDbEntity
  8
0
  6
Continuous
 62
     7
 48
0.038428
100
AcDbLine
 10
71.953781
 20
214.885712
 30
0.0
 11
73.08705899999998
 21
215.924164
 31
0.0
  0
LINE
  5
2EDD
330
A
100
AcDbEntity
  8
0
  6
Continuous
 62
     7
 48
0.022773
100
AcDbLine
 10
72.855415
 20
211.4229889999999
 30
0.0
 11
72.1838
 21
210.807571
 31
0.0
  0
LINE
  5
2EDE
330
A
100
AcDbEntity
  8
0
  6
Continuous
 62
     7
 48
0.098982
100
AcDbLine
 10
73.200485
 20
215.367203
 30
0.0
 11
72.855415
 21
211.4229889999999
 31
0.0
  0
ARC
  5
2EDF
330
A
100
AcDbEntity
  8
0
  6
Continuous
 62
     7
100
AcDbCircle
 10
72.197388
 20
215.4529419999999
 30
0.0
 40
1.006791999999999
100
AcDbArc
 50
355.113943
 51
27.908544
  0
LINE
  5
2EE0
330
A
100
AcDbEntity
  8
0
  6
Continuous
 62
     7
 48
0.110259
100
AcDbLine
 10
58.895336
 20
229.092148
 30
0.0
 11
59.279724
 21
233.485718
 31
0.0
  0
LINE
  5
2EE1
330
A
100
AcDbEntity
  8
0
  6
Continuous
 62
     7
 48
0.026604
100
AcDbLine
 10
59.61426899999999
 20
228.3075709999998
 30
0.0
 11
58.895336
 21
229.092148
 31
0.0
  0
LINE
  5
2EE2
330
A
100
AcDbEntity
  8
0
  6
Continuous
 62
     7
 48
0.050964
100
AcDbLine
 10
59.279724
 20
233.485718
 30
0.0
 11
60.782715
 21
234.862946
 31
0.0
  0
LINE
  5
2EE3
330
A
100
AcDbEntity
  8
0
  6
Continuous
 62
     7
 48
0.030174
100
AcDbLine
 10
60.504147
 20
229.122986
 30
0.0
 11
59.61426899999999
 21
228.3075709999998
 31
0.0
  0
LINE
  5
2EE4
330
A
100
AcDbEntity
  8
0
  6
Continuous
 62
     7
 48
0.12615
100
AcDbLine
 10
60.94393199999998
 20
234.1497649999999
 30
0.0
 11
60.504147
 21
229.122986
 31
0.0
  0
ARC
  5
2EE5
330
A
100
AcDbEntity
  8
0
  6
Continuous
 62
     7
100
AcDbCircle
 10
59.73897199999999
 20
234.252197
 30
0.0
 40
1.209362999999997
100
AcDbArc
 50
355.1409779999998
 51
30.334319
  0
LINE
  5
2EE6
330
A
100
AcDbEntity
  8
0
  6
Continuous
 62
     7
 48
0.095201
100
AcDbLine
 10
71.61598199999997
 20
215.254349
 30
0.0
 11
67.80793
 21
215.254349
 31
0.0
  0
LINE
  5
2EE7
330
A
100
AcDbEntity
  8
0
  6
Continuous
 62
     7
 48
0.038428
100
AcDbLine
 10
72.74925999999998
 20
216.292816
 30
0.0
 11
71.61598199999997
 21
215.254349
 31
0.0
  0
LINE
  5
2EE8
330
A
100
AcDbEntity
  8
0
  6
Continuous
 62
     7
 48
0.036715
100
AcDbLine
 10
67.80793
 20
215.254349
 30
0.0
 11
66.815758
 21
216.337112
 31
0.0
  0
ARC
  5
2EE9
330
A
100
AcDbEntity
  8
0
  6
Continuous
 62
     7
100
AcDbCircle
 10
72.20229300000003
 20
215.4476009999999
 30
0.0
 40
1.006791999999999
100
AcDbArc
 50
57.091453
 51
89.886054
  0
LINE
  5
2EEA
330
A
100
AcDbEntity
  8
0
  6
Continuous
 62
     7
 48
0.122968
100
AcDbLine
 10
67.28557600000001
 20
216.4543459999999
 30
0.0
 11
72.20429200000002
 21
216.4543459999999
 31
0.0
  0
ARC
  5
2EEB
330
A
100
AcDbEntity
  8
0
  6
Continuous
 62
     7
100
AcDbCircle
 10
67.286804
 20
215.4494319999999
 30
0.0
 40
1.004931
100
AcDbArc
 50
90.06988900000001
 51
117.9525989999999
  0
LINE
  5
2EEC
330
A
100
AcDbEntity
  8
0
  6
Continuous
 62
     7
 48
0.030174
100
AcDbLine
 10
91.92532300000001
 20
227.9389339999999
 30
0.0
 11
92.81520099999999
 21
228.754349
 31
0.0
  0
LINE
  5
2EED
330
A
100
AcDbEntity
  8
0
  6
Continuous
 62
     7
 48
0.026604
100
AcDbLine
 10
92.644257
 20
227.1543579999999
 30
0.0
 11
91.92532300000001
 21
227.9389339999999
 31
0.0
  0
LINE
  5
2EEE
330
A
100
AcDbEntity
  8
0
  6
Continuous
 62
     7
 48
0.117787
100
AcDbLine
 10
92.81520099999999
 20
228.754349
 30
0.0
 11
97.52669500000001
 21
228.754349
 31
0.0
  0
LINE
  5
2EEF
330
A
100
AcDbEntity
  8
0
  6
Continuous
 62
     7
 48
0.117788
100
AcDbLine
 10
97.355759
 20
227.1543579999999
 30
0.0
 11
92.644257
 21
227.1543579999999
 31
0.0
  0
LINE
  5
2EF0
330
A
100
AcDbEntity
  8
0
  6
Continuous
 62
     7
 48
0.030174
100
AcDbLine
 10
98.245628
 20
227.969772
 30
0.0
 11
97.355759
 21
227.1543579999999
 31
0.0
  0
LINE
  5
2EF1
330
A
100
AcDbEntity
  8
0
  6
Continuous
 62
     7
 48
0.026604
100
AcDbLine
 10
97.52669500000001
 20
228.754349
 30
0.0
 11
98.245628
 21
227.969772
 31
0.0
  0
LINE
  5
2EF2
330
A
100
AcDbEntity
  8
0
  6
Continuous
 62
     7
 48
0.026604
100
AcDbLine
 10
65.58753199999999
 20
228.3075709999998
 30
0.0
 11
64.868599
 21
229.092148
 31
0.0
  0
LINE
  5
2EF3
330
A
100
AcDbEntity
  8
0
  6
Continuous
 62
     7
 48
0.030174
100
AcDbLine
 10
66.47740899999999
 20
229.122986
 30
0.0
 11
65.58753199999999
 21
228.3075709999998
 31
0.0
  0
LINE
  5
2EF4
330
A
100
AcDbEntity
  8
0
  6
Continuous
 62
     7
 48
0.132173
100
AcDbLine
 10
64.868599
 20
229.092148
 30
0.0
 11
65.32938399999999
 21
234.3589479999999
 31
0.0
  0
LINE
  5
2EF5
330
A
100
AcDbEntity
  8
0
  6
Continuous
 62
     7
 48
0.110259
100
AcDbLine
 10
66.86179399999999
 20
233.516556
 30
0.0
 11
66.47740899999999
 21
229.122986
 31
0.0
  0
LINE
  5
2EF6
330
A
100
AcDbEntity
  8
0
  6
Continuous
 62
     7
 48
0.048632
100
AcDbLine
 10
65.547577
 20
234.9507749999999
 30
0.0
 11
66.86179399999999
 21
233.516556
 31
0.0
  0
ARC
  5
2EF7
330
A
100
AcDbEntity
  8
0
  6
Continuous
 62
     7
100
AcDbCircle
 10
66.531563
 20
234.251862
 30
0.0
 40
1.206971999999999
100
AcDbArc
 50
144.614434
 51
174.910271
  0
LINE
  5
2EF8
330
A
100
AcDbEntity
  8
0
  6
Continuous
 62
     7
 48
0.117787
100
AcDbLine
 10
71.94192499999998
 20
233.8543549999999
 30
0.0
 11
67.23043100000001
 21
233.8543549999999
 31
0.0
  0
LINE
  5
2EF9
330
A
100
AcDbEntity
  8
0
  6
Continuous
 62
     7
 48
0.050964
100
AcDbLine
 10
73.444923
 20
235.2315979999999
 30
0.0
 11
71.94192499999998
 21
233.8543549999999
 31
0.0
  0
LINE
  5
2EFA
330
A
100
AcDbEntity
  8
0
  6
Continuous
 62
     7
 48
0.048632
100
AcDbLine
 10
67.23043100000001
 20
233.8543549999999
 30
0.0
 11
65.916214
 21
235.288574
 31
0.0
  0
ARC
  5
2EFB
330
A
100
AcDbEntity
  8
0
  6
Continuous
 62
     7
100
AcDbCircle
 10
72.745552
 20
234.245148
 30
0.0
 40
1.20926
100
AcDbArc
 50
54.66419399999999
 51
89.860503
  0
LINE
  5
2EFC
330
A
100
AcDbEntity
  8
0
  6
Continuous
 62
     7
 48
0.155592
100
AcDbLine
 10
66.52481800000001
 20
235.4543459999999
 30
0.0
 11
72.748497
 21
235.4543459999999
 31
0.0
  0
ARC
  5
2EFD
330
A
100
AcDbEntity
  8
0
  6
Continuous
 62
     7
100
AcDbCircle
 10
66.526703
 20
234.247406
 30
0.0
 40
1.206971999999999
100
AcDbArc
 50
90.08973799999999
 51
120.385567
  0
LINE
  5
2EFE
330
A
100
AcDbEntity
  8
0
  6
Continuous
 62
     7
 48
0.117787
100
AcDbLine
 10
97.94192500000001
 20
233.8543549999999
 30
0.0
 11
93.230438
 21
233.8543549999999
 31
0.0
  0
LINE
  5
2EFF
330
A
100
AcDbEntity
  8
0
  6
Continuous
 62
     7
 48
0.050964
100
AcDbLine
 10
99.444923
 20
235.2315979999999
 30
0.0
 11
97.94192500000001
 21
233.8543549999999
 31
0.0
  0
LINE
  5
2F00
330
A
100
AcDbEntity
  8
0
  6
Continuous
 62
     7
 48
0.048632
100
AcDbLine
 10
93.230438
 20
233.8543549999999
 30
0.0
 11
91.916214
 21
235.288574
 31
0.0
  0
ARC
  5
2F01
330
A
100
AcDbEntity
  8
0
  6
Continuous
 62
     7
100
AcDbCircle
 10
98.745522
 20
234.245056
 30
0.0
 40
1.209362999999997
100
AcDbArc
 50
54.66567799999999
 51
89.859021
  0
LINE
  5
2F02
330
A
100
AcDbEntity
  8
0
  6
Continuous
 62
     7
 48
0.155592
100
AcDbLine
 10
92.52481799999999
 20
235.4543459999999
 30
0.0
 11
98.748497
 21
235.4543459999999
 31
0.0
  0
ARC
  5
2F03
330
A
100
AcDbEntity
  8
0
  6
Continuous
 62
     7
100
AcDbCircle
 10
92.526703
 20
234.247406
 30
0.0
 40
1.206971999999999
100
AcDbArc
 50
90.08973799999999
 51
120.385567
  0
LINE
  5
2F04
330
A
100
AcDbEntity
  8
0
  6
Continuous
 62
     7
 48
0.110259
100
AcDbLine
 10
71.89534
 20
229.092148
 30
0.0
 11
72.279724
 21
233.485718
 31
0.0
  0
LINE
  5
2F05
330
A
100
AcDbEntity
  8
0
  6
Continuous
 62
     7
 48
0.026604
100
AcDbLine
 10
72.614273
 20
228.3075709999998
 30
0.0
 11
71.89534
 21
229.092148
 31
0.0
  0
LINE
  5
2F06
330
A
100
AcDbEntity
  8
0
  6
Continuous
 62
     7
 48
0.050964
100
AcDbLine
 10
72.279724
 20
233.485718
 30
0.0
 11
73.782715
 21
234.862946
 31
0.0
  0
LINE
  5
2F07
330
A
100
AcDbEntity
  8
0
  6
Continuous
 62
     7
 48
0.030174
100
AcDbLine
 10
73.504143
 20
229.122986
 30
0.0
 11
72.614273
 21
228.3075709999998
 31
0.0
  0
LINE
  5
2F08
330
A
100
AcDbEntity
  8
0
  6
Continuous
 62
     7
 48
0.12615
100
AcDbLine
 10
73.94393199999997
 20
234.1497649999999
 30
0.0
 11
73.504143
 21
229.122986
 31
0.0
  0
ARC
  5
2F09
330
A
100
AcDbEntity
  8
0
  6
Continuous
 62
     7
100
AcDbCircle
 10
72.73897599999997
 20
234.252197
 30
0.0
 40
1.209362999999997
100
AcDbArc
 50
355.1409779999998
 51
30.334319
  0
LINE
  5
2F0A
330
A
100
AcDbEntity
  8
0
  6
Continuous
 62
     7
 48
0.110259
100
AcDbLine
 10
110.8953399999996
 20
229.092148
 30
0.0
 11
111.279724
 21
233.485718
 31
0.0
  0
LINE
  5
2F0B
330
A
100
AcDbEntity
  8
0
  6
Continuous
 62
     7
 48
0.026604
100
AcDbLine
 10
111.6142729999999
 20
228.3075709999998
 30
0.0
 11
110.8953399999996
 21
229.092148
 31
0.0
  0
LINE
  5
2F0C
330
A
100
AcDbEntity
  8
0
  6
Continuous
 62
     7
 48
0.050964
100
AcDbLine
 10
111.279724
 20
233.485718
 30
0.0
 11
112.7827149999999
 21
234.862946
 31
0.0
  0
LINE
  5
2F0D
330
A
100
AcDbEntity
  8
0
  6
Continuous
 62
     7
 48
0.030174
100
AcDbLine
 10
112.50415
 20
229.122986
 30
0.0
 11
111.6142729999999
 21
228.3075709999998
 31
0.0
  0
LINE
  5
2F0E
330
A
100
AcDbEntity
  8
0
  6
Continuous
 62
     7
 48
0.12615
100
AcDbLine
 10
112.943932
 20
234.1497649999999
 30
0.0
 11
112.50415
 21
229.122986
 31
0.0
  0
ARC
  5
2F0F
330
A
100
AcDbEntity
  8
0
  6
Continuous
 62
     7
100
AcDbCircle
 10
111.738968
 20
234.252197
 30
0.0
 40
1.209362999999997
100
AcDbArc
 50
355.1409779999998
 51
30.334319
  0
ARC
  5
2F10
330
A
100
AcDbEntity
  8
0
  6
Continuous
 62
     7
100
AcDbCircle
 10
117.0457379999999
 20
238.954346
 30
0.0
 40
2.0
100
AcDbArc
 50
0.0
 51
90.00000300000001
  0
LINE
  5
2F11
330
A
100
AcDbEntity
  8
0
  6
Continuous
 62
     7
100
AcDbLine
 10
119.0457379999999
 20
238.954346
 30
0.0
 11
119.0457379999999
 21
175.154358
 31
0.0
  0
ARC
  5
2F12
330
A
100
AcDbEntity
  8
0
  6
Continuous
 62
     7
100
AcDbCircle
 10
117.0457379999999
 20
175.154358
 30
0.0
 40
2.0
100
AcDbArc
 50
270.000001
 51
0.00001
  0
ARC
  5
2F13
330
A
100
AcDbEntity
  8
0
  6
Continuous
 62
     7
100
AcDbCircle
 10
33.045738
 20
238.954346
 30
0.0
 40
2.0
100
AcDbArc
 50
90.00000300000001
 51
180.000005
  0
LINE
  5
2F14
330
A
100
AcDbEntity
  8
0
  6
Continuous
 62
     7
100
AcDbLine
 10
33.045738
 20
173.154358
 30
0.0
 11
117.0457379999999
 21
173.154358
 31
0.0
  0
ARC
  5
2F15
330
A
100
AcDbEntity
  8
0
  6
Continuous
 62
     7
100
AcDbCircle
 10
33.045738
 20
175.154358
 30
0.0
 40
2.0
100
AcDbArc
 50
180.000005
 51
270.000001
  0
LINE
  5
2F16
330
A
100
AcDbEntity
  8
0
  6
Continuous
 62
     7
 48
0.2
100
AcDbLine
 10
71.045738
 20
171.6543579999999
 30
0.0
 11
79.045738
 21
171.6543579999999
 31
0.0
  0
LINE
  5
2F17
330
A
100
AcDbEntity
  8
0
  6
Continuous
 62
     7
 48
0.2
100
AcDbLine
 10
79.045738
 20
162.654358
 30
0.0
 11
71.045738
 21
162.654358
 31
0.0
  0
ARC
  5
2F18
330
A
100
AcDbEntity
  8
0
  6
Continuous
 62
     7
100
AcDbCircle
 10
71.045738
 20
170.6543579999999
 30
0.0
 40
1.0
100
AcDbArc
 50
90.00000300000001
 51
180.000005
  0
ARC
  5
2F19
330
A
100
AcDbEntity
  8
0
  6
Continuous
 62
     7
100
AcDbCircle
 10
79.045738
 20
170.6543579999999
 30
0.0
 40
1.0
100
AcDbArc
 50
360.0
 51
90.00000300000001
  0
ARC
  5
2F1A
330
A
100
AcDbEntity
  8
0
  6
Continuous
 62
     7
100
AcDbCircle
 10
79.045738
 20
163.654358
 30
0.0
 40
1.0
100
AcDbArc
 50
269.9999969999999
 51
360.0
  0
ARC
  5
2F1B
330
A
100
AcDbEntity
  8
0
  6
Continuous
 62
     7
100
AcDbCircle
 10
71.045738
 20
163.654358
 30
0.0
 40
1.0
100
AcDbArc
 50
180.000005
 51
270.000001
  0
LINE
  5
2F1C
330
A
100
AcDbEntity
  8
0
  6
Continuous
 62
     7
 48
0.175
100
AcDbLine
 10
70.045738
 20
163.654358
 30
0.0
 11
70.045738
 21
170.6543579999999
 31
0.0
  0
LINE
  5
2F1D
330
A
100
AcDbEntity
  8
0
  6
Continuous
 62
     7
 48
0.175
100
AcDbLine
 10
80.04573800000001
 20
163.654358
 30
0.0
 11
80.04573800000001
 21
170.6543579999999
 31
0.0
  0
LINE
  5
2F25
330
A
100
AcDbEntity
  8
0
  6
Continuous
 62
     7
 48
0.2
100
AcDbLine
 10
90.94573999999999
 20
162.654358
 30
0.0
 11
82.94574
 21
162.654358
 31
0.0
  0
LINE
  5
2F26
330
A
100
AcDbEntity
  8
0
  6
Continuous
 62
     7
 48
0.2
100
AcDbLine
 10
82.94574
 20
171.6543579999999
 30
0.0
 11
90.94573999999999
 21
171.6543579999999
 31
0.0
  0
ARC
  5
2F27
330
A
100
AcDbEntity
  8
0
  6
Continuous
 62
     7
100
AcDbCircle
 10
90.94573999999999
 20
163.654358
 30
0.0
 40
1.0
100
AcDbArc
 50
269.9999969999999
 51
0.0
  0
ARC
  5
2F28
330
A
100
AcDbEntity
  8
0
  6
Continuous
 62
     7
100
AcDbCircle
 10
82.94574
 20
163.654358
 30
0.0
 40
1.0
100
AcDbArc
 50
179.9999949999999
 51
269.9999969999999
  0
ARC
  5
2F29
330
A
100
AcDbEntity
  8
0
  6
Continuous
 62
     7
100
AcDbCircle
 10
82.94574
 20
170.6543579999999
 30
0.0
 40
1.0
100
AcDbArc
 50
90.00000300000001
 51
180.000005
  0
ARC
  5
2F2A
330
A
100
AcDbEntity
  8
0
  6
Continuous
 62
     7
100
AcDbCircle
 10
90.94573999999999
 20
170.6543579999999
 30
0.0
 40
1.0
100
AcDbArc
 50
360.0
 51
90.00000300000001
  0
LINE
  5
2F2B
330
A
100
AcDbEntity
  8
0
  6
Continuous
 62
     7
 48
0.175
100
AcDbLine
 10
91.94574000000001
 20
170.6543579999999
 30
0.0
 11
91.94574000000001
 21
163.654358
 31
0.0
  0
LINE
  5
2F2C
330
A
100
AcDbEntity
  8
0
  6
Continuous
 62
     7
 48
0.175
100
AcDbLine
 10
81.94574000000001
 20
170.6543579999999
 30
0.0
 11
81.94574000000001
 21
163.654358
 31
0.0
  0
LINE
  5
2F34
330
A
100
AcDbEntity
  8
0
  6
Continuous
 62
     7
 48
0.2
100
AcDbLine
 10
102.845741
 20
162.654358
 30
0.0
 11
94.84574100000001
 21
162.654358
 31
0.0
  0
LINE
  5
2F35
330
A
100
AcDbEntity
  8
0
  6
Continuous
 62
     7
 48
0.2
100
AcDbLine
 10
94.84574100000001
 20
171.6543579999999
 30
0.0
 11
102.845741
 21
171.6543579999999
 31
0.0
  0
ARC
  5
2F36
330
A
100
AcDbEntity
  8
0
  6
Continuous
 62
     7
100
AcDbCircle
 10
102.845741
 20
163.654358
 30
0.0
 40
1.0
100
AcDbArc
 50
269.9999969999999
 51
0.0
  0
ARC
  5
2F37
330
A
100
AcDbEntity
  8
0
  6
Continuous
 62
     7
100
AcDbCircle
 10
94.84574100000001
 20
163.654358
 30
0.0
 40
1.0
100
AcDbArc
 50
180.000005
 51
270.000001
  0
ARC
  5
2F38
330
A
100
AcDbEntity
  8
0
  6
Continuous
 62
     7
100
AcDbCircle
 10
94.84574100000001
 20
170.6543579999999
 30
0.0
 40
1.0
100
AcDbArc
 50
90.00000300000001
 51
180.000005
  0
ARC
  5
2F39
330
A
100
AcDbEntity
  8
0
  6
Continuous
 62
     7
100
AcDbCircle
 10
102.845741
 20
170.6543579999999
 30
0.0
 40
1.0
100
AcDbArc
 50
360.0
 51
90.00000300000001
  0
LINE
  5
2F3A
330
A
100
AcDbEntity
  8
0
  6
Continuous
 62
     7
 48
0.175
100
AcDbLine
 10
103.845741
 20
170.6543579999999
 30
0.0
 11
103.845741
 21
163.654358
 31
0.0
  0
LINE
  5
2F3B
330
A
100
AcDbEntity
  8
0
  6
Continuous
 62
     7
 48
0.175
100
AcDbLine
 10
93.845741
 20
170.6543579999999
 30
0.0
 11
93.845741
 21
163.654358
 31
0.0
  0
ARC
  5
2F43
330
A
100
AcDbEntity
  8
0
  6
Continuous
 62
     7
100
AcDbCircle
 10
55.245739
 20
170.6543579999999
 30
0.0
 40
1.0
100
AcDbArc
 50
360.0
 51
90.00000300000001
  0
ARC
  5
2F44
330
A
100
AcDbEntity
  8
0
  6
Continuous
 62
     7
100
AcDbCircle
 10
47.245739
 20
170.6543579999999
 30
0.0
 40
1.0
100
AcDbArc
 50
90.00000300000001
 51
180.000005
  0
LINE
  5
2F45
330
A
100
AcDbEntity
  8
0
  6
Continuous
 62
     7
 48
0.175
100
AcDbLine
 10
56.245739
 20
163.654358
 30
0.0
 11
56.245739
 21
170.6543579999999
 31
0.0
  0
ARC
  5
2F46
330
A
100
AcDbEntity
  8
0
  6
Continuous
 62
     7
100
AcDbCircle
 10
55.245739
 20
163.654358
 30
0.0
 40
1.0
100
AcDbArc
 50
269.9999969999999
 51
360.0
  0
LINE
  5
2F47
330
A
100
AcDbEntity
  8
0
  6
Continuous
 62
     7
 48
0.175
100
AcDbLine
 10
46.245739
 20
163.654358
 30
0.0
 11
46.245739
 21
170.6543579999999
 31
0.0
  0
ARC
  5
2F48
330
A
100
AcDbEntity
  8
0
  6
Continuous
 62
     7
100
AcDbCircle
 10
47.245739
 20
163.654358
 30
0.0
 40
1.0
100
AcDbArc
 50
180.000005
 51
270.000001
  0
LINE
  5
2F49
330
A
100
AcDbEntity
  8
0
  6
Continuous
 62
     7
 48
0.2
100
AcDbLine
 10
47.245739
 20
171.6543579999999
 30
0.0
 11
55.245739
 21
171.6543579999999
 31
0.0
  0
LINE
  5
2F4A
330
A
100
AcDbEntity
  8
0
  6
Continuous
 62
     7
 48
0.2
100
AcDbLine
 10
55.245739
 20
162.654358
 30
0.0
 11
47.245739
 21
162.654358
 31
0.0
  0
ARC
  5
2F4B
330
A
100
AcDbEntity
  8
0
  6
Continuous
 62
     7
100
AcDbCircle
 10
67.14573699999999
 20
170.6543579999999
 30
0.0
 40
1.0
100
AcDbArc
 50
0.0
 51
90.00000300000001
  0
ARC
  5
2F4C
330
A
100
AcDbEntity
  8
0
  6
Continuous
 62
     7
100
AcDbCircle
 10
59.145737
 20
170.6543579999999
 30
0.0
 40
1.0
100
AcDbArc
 50
90.00000300000001
 51
180.000005
  0
LINE
  5
2F4D
330
A
100
AcDbEntity
  8
0
  6
Continuous
 62
     7
 48
0.175
100
AcDbLine
 10
68.145737
 20
163.654358
 30
0.0
 11
68.145737
 21
170.6543579999999
 31
0.0
  0
ARC
  5
2F4E
330
A
100
AcDbEntity
  8
0
  6
Continuous
 62
     7
100
AcDbCircle
 10
67.14573699999999
 20
163.654358
 30
0.0
 40
1.0
100
AcDbArc
 50
269.9999969999999
 51
0.0
  0
LINE
  5
2F4F
330
A
100
AcDbEntity
  8
0
  6
Continuous
 62
     7
 48
0.175
100
AcDbLine
 10
58.145737
 20
163.654358
 30
0.0
 11
58.145737
 21
170.6543579999999
 31
0.0
  0
ARC
  5
2F50
330
A
100
AcDbEntity
  8
0
  6
Continuous
 62
     7
100
AcDbCircle
 10
59.145737
 20
163.654358
 30
0.0
 40
1.0
100
AcDbArc
 50
180.000005
 51
270.000001
  0
LINE
  5
2F51
330
A
100
AcDbEntity
  8
0
  6
Continuous
 62
     7
 48
0.2
100
AcDbLine
 10
59.145737
 20
171.6543579999999
 30
0.0
 11
67.14573699999999
 21
171.6543579999999
 31
0.0
  0
LINE
  5
2F52
330
A
100
AcDbEntity
  8
0
  6
Continuous
 62
     7
 48
0.2
100
AcDbLine
 10
67.14573699999999
 20
162.654358
 30
0.0
 11
59.145737
 21
162.654358
 31
0.0
  0
ARC
  5
2F53
330
A
100
AcDbEntity
  8
0
  6
Continuous
 62
     7
100
AcDbCircle
 10
106.7457429999999
 20
163.654358
 30
0.0
 40
1.0
100
AcDbArc
 50
180.000005
 51
270.000001
  0
ARC
  5
2F54
330
A
100
AcDbEntity
  8
0
  6
Continuous
 62
     7
100
AcDbCircle
 10
114.745743
 20
163.654358
 30
0.0
 40
1.0
100
AcDbArc
 50
269.9999969999999
 51
360.0
  0
LINE
  5
2F55
330
A
100
AcDbEntity
  8
0
  6
Continuous
 62
     7
 48
0.175
100
AcDbLine
 10
105.7457429999999
 20
170.6543579999999
 30
0.0
 11
105.7457429999999
 21
163.654358
 31
0.0
  0
ARC
  5
2F56
330
A
100
AcDbEntity
  8
0
  6
Continuous
 62
     7
100
AcDbCircle
 10
106.7457429999999
 20
170.6543579999999
 30
0.0
 40
1.0
100
AcDbArc
 50
90.00000300000001
 51
180.000005
  0
LINE
  5
2F57
330
A
100
AcDbEntity
  8
0
  6
Continuous
 62
     7
 48
0.175
100
AcDbLine
 10
115.745743
 20
170.6543579999999
 30
0.0
 11
115.745743
 21
163.654358
 31
0.0
  0
ARC
  5
2F58
330
A
100
AcDbEntity
  8
0
  6
Continuous
 62
     7
100
AcDbCircle
 10
114.745743
 20
170.6543579999999
 30
0.0
 40
1.0
100
AcDbArc
 50
0.0
 51
90.00000300000001
  0
LINE
  5
2F59
330
A
100
AcDbEntity
  8
0
  6
Continuous
 62
     7
 48
0.2
100
AcDbLine
 10
114.745743
 20
162.654358
 30
0.0
 11
106.7457429999999
 21
162.654358
 31
0.0
  0
LINE
  5
2F5A
330
A
100
AcDbEntity
  8
0
  6
Continuous
 62
     7
 48
0.2
100
AcDbLine
 10
106.7457429999999
 20
171.6543579999999
 30
0.0
 11
114.745743
 21
171.6543579999999
 31
0.0
  0
ARC
  5
2F5B
330
A
100
AcDbEntity
  8
0
  6
Continuous
 62
     7
100
AcDbCircle
 10
35.345737
 20
163.654358
 30
0.0
 40
1.0
100
AcDbArc
 50
180.000005
 51
270.000001
  0
ARC
  5
2F5C
330
A
100
AcDbEntity
  8
0
  6
Continuous
 62
     7
100
AcDbCircle
 10
43.345741
 20
163.654358
 30
0.0
 40
1.0
100
AcDbArc
 50
269.9999969999999
 51
360.0
  0
LINE
  5
2F5D
330
A
100
AcDbEntity
  8
0
  6
Continuous
 62
     7
 48
0.175
100
AcDbLine
 10
34.345737
 20
170.6543579999999
 30
0.0
 11
34.345737
 21
163.654358
 31
0.0
  0
ARC
  5
2F5E
330
A
100
AcDbEntity
  8
0
  6
Continuous
 62
     7
100
AcDbCircle
 10
35.345737
 20
170.6543579999999
 30
0.0
 40
1.0
100
AcDbArc
 50
90.00000300000001
 51
180.000005
  0
LINE
  5
2F5F
330
A
100
AcDbEntity
  8
0
  6
Continuous
 62
     7
 48
0.175
100
AcDbLine
 10
44.34574099999998
 20
170.6543579999999
 30
0.0
 11
44.34574099999998
 21
163.654358
 31
0.0
  0
ARC
  5
2F60
330
A
100
AcDbEntity
  8
0
  6
Continuous
 62
     7
100
AcDbCircle
 10
43.345741
 20
170.6543579999999
 30
0.0
 40
1.0
100
AcDbArc
 50
0.0
 51
90.00000300000001
  0
LINE
  5
2F61
330
A
100
AcDbEntity
  8
0
  6
Continuous
 62
     7
 48
0.2
100
AcDbLine
 10
43.345741
 20
162.654358
 30
0.0
 11
35.345737
 21
162.654358
 31
0.0
  0
LINE
  5
2F62
330
A
100
AcDbEntity
  8
0
  6
Continuous
 62
     7
 48
0.2
100
AcDbLine
 10
35.345737
 20
171.6543579999999
 30
0.0
 11
43.345741
 21
171.6543579999999
 31
0.0
  0
LINE
  5
2F66
330
A
100
AcDbEntity
  8
0
  6
Continuous
 62
     7
 48
0.0125
100
AcDbLine
 10
118.5457379999999
 20
149.125931
 30
0.0
 11
119.0457379999999
 21
149.125931
 31
0.0
  0
LINE
  5
2F6A
330
A
100
AcDbEntity
  8
0
  6
Continuous
 62
     7
 48
0.0125
100
AcDbLine
 10
31.045738
 20
149.125931
 30
0.0
 11
31.545738
 21
149.125931
 31
0.0
  0
LINE
  5
2F6B
330
A
100
AcDbEntity
  8
0
  6
Continuous
 62
     7
 48
0.017678
100
AcDbLine
 10
80.04573800000001
 20
160.4543459999999
 30
0.0
 11
79.545738
 21
159.9543459999999
 31
0.0
  0
LINE
  5
2F6E
330
A
100
AcDbEntity
  8
0
  6
Continuous
 62
     7
 48
0.033294
100
AcDbLine
 10
118.5457379999999
 20
152.954346
 30
0.0
 11
118.5457379999999
 21
149.125931
 31
0.0
  0
LINE
  5
2F6F
330
A
100
AcDbEntity
  8
0
  6
Continuous
 62
     7
100
AcDbLine
 10
31.545738
 20
152.954346
 30
0.0
 11
118.5457379999999
 21
152.954346
 31
0.0
  0
LINE
  5
2F72
330
A
100
AcDbEntity
  8
0
  6
Continuous
 62
     7
 48
0.033294
100
AcDbLine
 10
31.545738
 20
152.954346
 30
0.0
 11
31.545738
 21
149.125931
 31
0.0
  0
LINE
  5
2F73
330
A
100
AcDbEntity
  8
0
  6
Continuous
 62
     7
 48
0.017678
100
AcDbLine
 10
70.045738
 20
160.4543459999999
 30
0.0
 11
70.545738
 21
159.9543459999999
 31
0.0
  0
LINE
  5
2F74
330
A
100
AcDbEntity
  8
0
  6
Continuous
 62
     7
100
AcDbLine
 10
33.045738
 20
159.9543459999999
 30
0.0
 11
117.0457379999999
 21
159.9543459999999
 31
0.0
  0
ARC
  5
2F75
330
A
100
AcDbEntity
  8
0
  6
Continuous
 62
     7
100
AcDbCircle
 10
33.045738
 20
158.4543459999999
 30
0.0
 40
1.5
100
AcDbArc
 50
90.00000300000001
 51
180.000005
  0
LINE
  5
2F76
330
A
100
AcDbEntity
  8
0
  6
Continuous
 62
     7
 48
0.125
100
AcDbLine
 10
31.545738
 20
153.4543459999999
 30
0.0
 11
31.545738
 21
158.4543459999999
 31
0.0
  0
LINE
  5
2F77
330
A
100
AcDbEntity
  8
0
  6
Continuous
 62
     7
100
AcDbLine
 10
31.545738
 20
153.4543459999999
 30
0.0
 11
118.5457379999999
 21
153.4543459999999
 31
0.0
  0
LINE
  5
2F78
330
A
100
AcDbEntity
  8
0
  6
Continuous
 62
     7
 48
0.125
100
AcDbLine
 10
118.5457379999999
 20
153.4543459999999
 30
0.0
 11
118.5457379999999
 21
158.4543459999999
 31
0.0
  0
ARC
  5
2F79
330
A
100
AcDbEntity
  8
0
  6
Continuous
 62
     7
100
AcDbCircle
 10
117.0457379999999
 20
158.4543459999999
 30
0.0
 40
1.5
100
AcDbArc
 50
0.0
 51
90.00000300000001
  0
ARC
  5
2F7B
330
A
100
AcDbEntity
  8
0
  6
Continuous
 62
     7
100
AcDbCircle
 10
117.0457379999999
 20
158.4543459999999
 30
0.0
 40
2.0
100
AcDbArc
 50
0.0
 51
90.00000300000001
  0
LINE
  5
2F7C
330
A
100
AcDbEntity
  8
0
  6
Continuous
 62
     7
 48
0.1625
100
AcDbLine
 10
119.0457379999999
 20
148.9543459999999
 30
0.0
 11
119.0457379999999
 21
158.4543459999999
 31
0.0
  0
LINE
  5
2F7D
330
A
100
AcDbEntity
  8
0
  6
Continuous
 62
     7
100
AcDbLine
 10
118.5457379999999
 20
149.125931
 30
0.0
 11
31.545738
 21
149.125931
 31
0.0
  0
LINE
  5
33FB
330
A
100
AcDbEntity
  8
0
  6
DASHED
 62
     4
100
AcDbLine
 10
260.365906
 20
240.9554899999999
 30
0.0
 11
286.5044859999999
 21
240.9554899999999
 31
0.0
  0
ARC
  5
33FC
330
A
100
AcDbEntity
  8
0
  6
DASHED
 62
     4
100
AcDbCircle
 10
286.3659359999997
 20
239.9651339999999
 30
0.0
 40
1.0
100
AcDbArc
 50
359.447448
 51
82.03650000000001
  0
LINE
  5
33FD
330
A
100
AcDbEntity
  8
0
  6
DASHED
 62
     4
100
AcDbLine
 10
287.3659059999998
 20
239.95549
 30
0.0
 11
287.3659059999998
 21
153.9554899999999
 31
0.0
  0
ARC
  5
33FE
330
A
100
AcDbEntity
  8
0
  6
DASHED
 62
     4
100
AcDbCircle
 10
286.3659059999998
 20
153.9554899999999
 30
0.0
 40
1.0
100
AcDbArc
 50
270.000001
 51
0.00001
  0
LINE
  5
33FF
330
A
100
AcDbEntity
  8
0
  6
DASHED
 62
     4
100
AcDbLine
 10
286.3659059999998
 20
152.9554899999999
 30
0.0
 11
260.365906
 21
152.9554899999999
 31
0.0
  0
LINE
  5
3401
330
A
100
AcDbEntity
  8
0
  6
DASHED
 62
     4
100
AcDbLine
 10
260.365906
 20
154.9554899999999
 30
0.0
 11
280.365906
 21
154.9554899999999
 31
0.0
  0
ARC
  5
3402
330
A
100
AcDbEntity
  8
0
  6
DASHED
 62
     4
100
AcDbCircle
 10
280.365906
 20
157.9554899999999
 30
0.0
 40
3.0
100
AcDbArc
 50
270.0000549999999
 51
0.00001
  0
LINE
  5
3403
330
A
100
AcDbEntity
  8
0
  6
DASHED
 62
     4
100
AcDbLine
 10
283.365906
 20
157.9554899999999
 30
0.0
 11
283.365906
 21
235.95549
 31
0.0
  0
ARC
  5
3404
330
A
100
AcDbEntity
  8
0
  6
DASHED
 62
     4
100
AcDbCircle
 10
280.365906
 20
235.95549
 30
0.0
 40
3.0
100
AcDbArc
 50
0.00001
 51
89.999996
  0
LINE
  5
3405
330
A
100
AcDbEntity
  8
0
  6
DASHED
 62
     4
100
AcDbLine
 10
280.365906
 20
238.9554899999999
 30
0.0
 11
260.365906
 21
238.9554899999999
 31
0.0
  0
LINE
  5
340A
330
A
100
AcDbEntity
  8
0
  6
Continuous
 62
     7
100
AcDbLine
 10
260.365906
 20
241.468216
 30
0.0
 11
260.365906
 21
201.4404909999999
 31
0.0
  0
LINE
  5
340B
330
A
100
AcDbEntity
  8
0
  6
Continuous
 62
     7
 48
0.224307
100
AcDbLine
 10
260.365906
 20
201.4404909999999
 30
0.0
 11
260.365906
 21
192.4682159999999
 31
0.0
  0
LINE
  5
340C
330
A
100
AcDbEntity
  8
0
  6
Continuous
 62
     7
100
AcDbLine
 10
260.365906
 20
192.4682159999999
 30
0.0
 11
260.365906
 21
152.4404909999999
 31
0.0
  0
LINE
  5
3411
330
A
100
AcDbEntity
  8
0
  6
Continuous
 62
     7
100
AcDbLine
 10
145.365891
 20
244.954346
 30
0.0
 11
145.365891
 21
148.9543459999999
 31
0.0
  0
LINE
  5
3413
330
A
100
AcDbEntity
  8
0
  6
Continuous
 62
     7
100
AcDbLine
 10
260.365906
 20
241.468216
 30
0.0
 11
216.7823489999999
 21
241.848572
 31
0.0
  0
LINE
  5
3414
330
A
100
AcDbEntity
  8
0
  6
Continuous
 62
     7
 48
0.056013
100
AcDbLine
 10
214.541931
 20
241.868118
 30
0.0
 11
216.7823489999999
 21
241.848572
 31
0.0
  0
LINE
  5
3415
330
A
100
AcDbEntity
  8
0
  6
Continuous
 62
     7
100
AcDbLine
 10
214.541931
 20
241.868118
 30
0.0
 11
147.365891
 21
242.4543459999999
 31
0.0
  0
LINE
  5
3416
330
A
100
AcDbEntity
  8
0
  6
Continuous
 62
     7
100
AcDbLine
 10
214.541931
 20
152.040588
 30
0.0
 11
147.365891
 21
151.4543459999998
 31
0.0
  0
LINE
  5
3417
330
A
100
AcDbEntity
  8
0
  6
Continuous
 62
     7
 48
0.056013
100
AcDbLine
 10
214.541931
 20
152.040588
 30
0.0
 11
216.7823489999999
 21
152.0601349999999
 31
0.0
  0
LINE
  5
3418
330
A
100
AcDbEntity
  8
0
  6
Continuous
 62
     7
100
AcDbLine
 10
260.365906
 20
152.4404909999999
 30
0.0
 11
216.7823489999999
 21
152.0601349999999
 31
0.0
  0
LWPOLYLINE
  5
3419
330
A
100
AcDbEntity
  8
0
  6
Continuous
 62
     7
100
AcDbPolyline
 90
        7
 70
     0
 43
0.0
 10
216.106293
 20
240.8545069999999
 10
216.140533
 20
241.168427
 10
216.2350159999999
 20
241.4403529999999
 10
216.3720089999999
 20
241.6468959999999
 10
216.534729
 20
241.781235
 10
216.7105869999999
 20
241.843536
 10
216.7823489999999
 20
241.848572
  0
LINE
  5
3422
330
A
100
AcDbEntity
  8
0
  6
Continuous
 62
     7
 48
0.025001
100
AcDbLine
 10
216.106293
 20
240.8545069999999
 30
0.0
 11
216.106293
 21
239.854462
 31
0.0
  0
LINE
  5
3423
330
A
100
AcDbEntity
  8
0
  6
Continuous
 62
     7
100
AcDbLine
 10
260.365906
 20
239.468216
 30
0.0
 11
214.541931
 21
239.868118
 31
0.0
  0
LWPOLYLINE
  5
3424
330
A
100
AcDbEntity
  8
0
  6
Continuous
 62
     7
100
AcDbPolyline
 90
        7
 70
     0
 43
0.0
 10
214.541931
 20
239.868118
 10
214.3636929999999
 20
239.8342899999999
 10
214.194397
 20
239.728897
 10
214.045349
 20
239.551025
 10
213.93161
 20
239.303574
 10
213.871475
 20
239.002289
 10
213.865891
 20
238.874054
  0
LINE
  5
342D
330
A
100
AcDbEntity
  8
0
  6
Continuous
 62
     7
 48
0.05
100
AcDbLine
 10
213.865891
 20
155.0346529999998
 30
0.0
 11
213.865891
 21
153.0346529999999
 31
0.0
  0
LINE
  5
342E
330
A
100
AcDbEntity
  8
0
  6
Continuous
 62
     7
 48
0.05
100
AcDbLine
 10
213.865891
 20
240.874054
 30
0.0
 11
213.865891
 21
238.874054
 31
0.0
  0
LINE
  5
342F
330
A
100
AcDbEntity
  8
0
  6
Continuous
 62
     7
 48
0.200008
100
AcDbLine
 10
260.365906
 20
201.4404909999999
 30
0.0
 11
252.3658909999999
 21
201.3706669999999
 31
0.0
  0
LINE
  5
3430
330
A
100
AcDbEntity
  8
0
  6
Continuous
 62
     7
 48
0.220816
100
AcDbLine
 10
252.3658909999999
 20
201.3706669999999
 30
0.0
 11
252.3658909999999
 21
192.538025
 31
0.0
  0
LINE
  5
3431
330
A
100
AcDbEntity
  8
0
  6
Continuous
 62
     7
 48
0.200008
100
AcDbLine
 10
260.365906
 20
192.4682159999999
 30
0.0
 11
252.3658909999999
 21
192.538025
 31
0.0
  0
LWPOLYLINE
  5
3432
330
A
100
AcDbEntity
  8
0
  6
Continuous
 62
     7
100
AcDbPolyline
 90
        7
 70
     0
 43
0.0
 10
214.541931
 20
154.0405879999999
 10
214.37439
 20
154.0703279999999
 10
214.214172
 20
154.163116
 10
214.070435
 20
154.319809
 10
213.9550779999999
 20
154.539017
 10
213.883087
 20
154.810776
 10
213.865891
 20
155.0346529999998
  0
LINE
  5
343B
330
A
100
AcDbEntity
  8
0
  6
Continuous
 62
     7
100
AcDbLine
 10
260.365906
 20
154.4404909999999
 30
0.0
 11
214.541931
 21
154.0405879999999
 31
0.0
  0
LINE
  5
343C
330
A
100
AcDbEntity
  8
0
  6
Continuous
 62
     7
 48
0.025001
100
AcDbLine
 10
216.106293
 20
154.054245
 30
0.0
 11
216.106293
 21
153.054199
 31
0.0
  0
LWPOLYLINE
  5
343D
330
A
100
AcDbEntity
  8
0
  6
Continuous
 62
     7
100
AcDbPolyline
 90
        7
 70
     0
 43
0.0
 10
216.106293
 20
153.054199
 10
216.140533
 20
152.74028
 10
216.2350159999999
 20
152.468353
 10
216.3720089999999
 20
152.26181
 10
216.534729
 20
152.1274719999999
 10
216.7105869999999
 20
152.065155
 10
216.7823489999999
 20
152.0601349999999
  0
LINE
  5
3446
330
A
100
AcDbEntity
  8
0
  6
Continuous
 62
     7
 48
0.15
100
AcDbLine
 10
260.365906
 20
154.9543459999999
 30
0.0
 11
267.3659059999999
 21
154.9543459999999
 31
0.0
  0
LINE
  5
3448
330
A
100
AcDbEntity
  8
0
  6
Continuous
 62
     7
 48
0.15
100
AcDbLine
 10
260.365906
 20
156.954346
 30
0.0
 11
267.3659059999999
 21
156.954346
 31
0.0
  0
LINE
  5
344C
330
A
100
AcDbEntity
  8
0
  6
Continuous
 62
     7
 48
0.15
100
AcDbLine
 10
260.365906
 20
164.9543459999998
 30
0.0
 11
267.3659059999999
 21
164.9543459999998
 31
0.0
  0
LINE
  5
344D
330
A
100
AcDbEntity
  8
0
  6
Continuous
 62
     7
 48
0.15
100
AcDbLine
 10
260.365906
 20
165.9543459999999
 30
0.0
 11
267.3659059999999
 21
165.9543459999999
 31
0.0
  0
LINE
  5
3451
330
A
100
AcDbEntity
  8
0
  6
Continuous
 62
     7
 48
0.15
100
AcDbLine
 10
260.365906
 20
173.9543459999999
 30
0.0
 11
267.3659059999999
 21
173.9543459999999
 31
0.0
  0
LINE
  5
3452
330
A
100
AcDbEntity
  8
0
  6
Continuous
 62
     7
 48
0.15
100
AcDbLine
 10
260.365906
 20
174.9543459999999
 30
0.0
 11
267.3659059999999
 21
174.9543459999999
 31
0.0
  0
LINE
  5
3456
330
A
100
AcDbEntity
  8
0
  6
Continuous
 62
     7
 48
0.15
100
AcDbLine
 10
260.365906
 20
182.954346
 30
0.0
 11
267.3659059999999
 21
182.954346
 31
0.0
  0
LINE
  5
3457
330
A
100
AcDbEntity
  8
0
  6
Continuous
 62
     7
 48
0.15
100
AcDbLine
 10
260.365906
 20
183.9543459999999
 30
0.0
 11
267.3659059999999
 21
183.9543459999999
 31
0.0
  0
LINE
  5
345B
330
A
100
AcDbEntity
  8
0
  6
Continuous
 62
     7
 48
0.15
100
AcDbLine
 10
260.365906
 20
191.9543459999999
 30
0.0
 11
267.3659059999999
 21
191.9543459999998
 31
0.0
  0
LINE
  5
345C
330
A
100
AcDbEntity
  8
0
  6
Continuous
 62
     7
 48
0.15
100
AcDbLine
 10
260.365906
 20
192.9543459999999
 30
0.0
 11
267.3659059999999
 21
192.9543459999998
 31
0.0
  0
LINE
  5
3460
330
A
100
AcDbEntity
  8
0
  6
Continuous
 62
     7
 48
0.15
100
AcDbLine
 10
260.365906
 20
200.9543459999999
 30
0.0
 11
267.3659059999999
 21
200.9543459999999
 31
0.0
  0
LINE
  5
3461
330
A
100
AcDbEntity
  8
0
  6
Continuous
 62
     7
 48
0.15
100
AcDbLine
 10
260.365906
 20
201.9543459999999
 30
0.0
 11
267.3659059999999
 21
201.9543459999999
 31
0.0
  0
LINE
  5
3465
330
A
100
AcDbEntity
  8
0
  6
Continuous
 62
     7
 48
0.15
100
AcDbLine
 10
260.365906
 20
209.954346
 30
0.0
 11
267.3659059999999
 21
209.954346
 31
0.0
  0
LINE
  5
3466
330
A
100
AcDbEntity
  8
0
  6
Continuous
 62
     7
 48
0.15
100
AcDbLine
 10
260.365906
 20
219.954346
 30
0.0
 11
267.3659059999999
 21
219.954346
 31
0.0
  0
LINE
  5
346A
330
A
100
AcDbEntity
  8
0
  6
Continuous
 62
     7
 48
0.15
100
AcDbLine
 10
260.365906
 20
227.9543459999999
 30
0.0
 11
267.3659059999999
 21
227.9543459999999
 31
0.0
  0
LINE
  5
346B
330
A
100
AcDbEntity
  8
0
  6
Continuous
 62
     7
 48
0.15
100
AcDbLine
 10
260.365906
 20
228.9543459999999
 30
0.0
 11
267.3659059999999
 21
228.9543459999999
 31
0.0
  0
LINE
  5
346F
330
A
100
AcDbEntity
  8
0
  6
Continuous
 62
     7
 48
0.15
100
AcDbLine
 10
260.365906
 20
236.954346
 30
0.0
 11
267.3659059999999
 21
236.954346
 31
0.0
  0
LINE
  5
3470
330
A
100
AcDbEntity
  8
0
  6
Continuous
 62
     7
 48
0.15
100
AcDbLine
 10
260.365906
 20
238.954346
 30
0.0
 11
267.3659059999999
 21
238.954346
 31
0.0
  0
LINE
  5
3472
330
A
100
AcDbEntity
  8
0
  6
Continuous
 62
     7
 48
0.05
100
AcDbLine
 10
145.365891
 20
148.9543459999999
 30
0.0
 11
147.365891
 21
148.9543459999999
 31
0.0
  0
LINE
  5
3474
330
A
100
AcDbEntity
  8
0
  6
Continuous
 62
     7
100
AcDbLine
 10
147.365891
 20
244.954346
 30
0.0
 11
147.365891
 21
148.9543459999999
 31
0.0
  0
LINE
  5
3476
330
A
100
AcDbEntity
  8
0
  6
Continuous
 62
     7
 48
0.05
100
AcDbLine
 10
145.365891
 20
244.954346
 30
0.0
 11
147.365891
 21
244.954346
 31
0.0
  0
LWPOLYLINE
  5
3477
330
A
100
AcDbEntity
  8
0
  6
Continuous
 62
     7
100
AcDbPolyline
 90
        7
 70
     0
 43
0.0
 10
213.865891
 20
240.874054
 10
213.900146
 20
241.1879729999999
 10
213.994614
 20
241.4598999999999
 10
214.1316069999999
 20
241.666443
 10
214.294312
 20
241.800781
 10
214.4701839999999
 20
241.863098
 10
214.541931
 20
241.868118
  0
LWPOLYLINE
  5
3480
330
A
100
AcDbEntity
  8
0
  6
Continuous
 62
     7
100
AcDbPolyline
 90
        7
 70
     0
 43
0.0
 10
213.865891
 20
153.0346529999999
 10
213.900146
 20
152.720734
 10
213.994614
 20
152.448792
 10
214.1316069999999
 20
152.2422639999998
 10
214.294312
 20
152.10791
 10
214.4701839999999
 20
152.045609
 10
214.541931
 20
152.040588
  0
LINE
  5
348F
330
A
100
AcDbEntity
  8
0
  6
Continuous
 62
     7
 48
0.05
100
AcDbLine
 10
267.3659059999999
 20
238.954346
 30
0.0
 11
267.3659059999999
 21
154.9543459999999
 31
0.0
  0
LINE
  5
34B6
330
A
100
AcDbEntity
  8
0
  6
Continuous
 62
     7
100
AcDbLine
 10
140.365891
 20
241.9543459999999
 30
0.0
 11
140.365891
 21
151.9543459999999
 31
0.0
  0
ARC
  5
34B7
330
A
100
AcDbEntity
  8
0
  6
Continuous
 62
     7
100
AcDbCircle
 10
143.365891
 20
151.9543459999999
 30
0.0
 40
3.0
100
AcDbArc
 50
180.000005
 51
270.000001
  0
ARC
  5
34B8
330
A
100
AcDbEntity
  8
0
  6
Continuous
 62
     7
100
AcDbCircle
 10
143.365891
 20
241.9543459999999
 30
0.0
 40
3.0
100
AcDbArc
 50
90.00000300000001
 51
180.000005
  0
ARC
  5
34B9
330
A
100
AcDbEntity
  8
0
  6
Continuous
 62
     7
100
AcDbCircle
 10
174.053284
 20
167.1543579999999
 30
0.0
 40
34.0
100
AcDbArc
 50
172.224367
 51
187.775629
  0
LINE
  5
34BB
330
A
100
AcDbEntity
  8
0
  6
Continuous
 62
     7
 48
0.05
100
AcDbLine
 10
145.365891
 20
148.9543459999999
 30
0.0
 11
143.365891
 21
148.9543459999999
 31
0.0
  0
LINE
  5
34BE
330
A
100
AcDbEntity
  8
0
  6
Continuous
 62
     7
 48
0.025
100
AcDbLine
 10
145.365891
 20
191.9543459999999
 30
0.0
 11
144.365891
 21
191.9543459999999
 31
0.0
  0
LINE
  5
34BF
330
A
100
AcDbEntity
  8
0
  6
Continuous
 62
     7
 48
0.25
100
AcDbLine
 10
144.365891
 20
201.9543459999999
 30
0.0
 11
144.365891
 21
191.9543459999999
 31
0.0
  0
LINE
  5
34C0
330
A
100
AcDbEntity
  8
0
  6
Continuous
 62
     7
 48
0.025
100
AcDbLine
 10
145.365891
 20
201.9543459999999
 30
0.0
 11
144.365891
 21
201.9543459999999
 31
0.0
  0
LINE
  5
34C1
330
A
100
AcDbEntity
  8
0
  6
Continuous
 62
     7
 48
0.05
100
AcDbLine
 10
145.365891
 20
244.954346
 30
0.0
 11
143.365891
 21
244.954346
 31
0.0
  0
LINE
  5
34E9
330
A
100
AcDbEntity
  8
0
  6
Continuous
 62
     7
 48
0.005296
100
AcDbLine
 10
140.140533
 20
162.654358
 30
0.0
 11
140.352386
 21
162.654358
 31
0.0
  0
ARC
  5
34EA
330
A
100
AcDbEntity
  8
0
  6
Continuous
 62
     7
100
AcDbCircle
 10
173.6658939999999
 20
167.1543579999999
 30
0.0
 40
34.0
100
AcDbArc
 50
172.6910879999999
 51
187.3089079999999
  0
LINE
  5
34EB
330
A
100
AcDbEntity
  8
0
  6
Continuous
 62
     7
 48
0.005296
100
AcDbLine
 10
140.140533
 20
171.6543579999999
 30
0.0
 11
140.352386
 21
171.6543579999999
 31
0.0
  0
ARC
  5
34EC
330
A
100
AcDbEntity
  8
0
  6
Continuous
 62
     7
100
AcDbCircle
 10
140.140533
 20
171.4543459999999
 30
0.0
 40
0.2
100
AcDbArc
 50
90.00000300000001
 51
172.6910879999999
  0
ARC
  5
34ED
330
A
100
AcDbEntity
  8
0
  6
Continuous
 62
     7
100
AcDbCircle
 10
140.140533
 20
162.854355
 30
0.0
 40
0.2
100
AcDbArc
 50
187.3089219999999
 51
270.000001
  0
CIRCLE
  5
4E12
330
A
100
AcDbEntity
  8
0
  6
Continuous
 62
     7
100
AcDbCircle
 10
384.8334959999998
 20
232.954346
 30
0.0
 40
3.0
  0
CIRCLE
  5
4E13
330
A
100
AcDbEntity
  8
0
  6
Continuous
 62
     7
100
AcDbCircle
 10
384.8334959999998
 20
223.9543459999999
 30
0.0
 40
3.0
  0
LINE
  5
4E14
330
A
100
AcDbEntity
  8
0
  6
Continuous
 62
     7
 48
0.15
100
AcDbLine
 10
348.233521
 20
202.9543459999999
 30
0.0
 11
348.233521
 21
208.9543459999999
 31
0.0
  0
LINE
  5
4E15
330
A
100
AcDbEntity
  8
0
  6
Continuous
 62
     7
 48
0.05
100
AcDbLine
 10
346.2335209999998
 20
208.9543459999999
 30
0.0
 11
348.233521
 21
208.9543459999999
 31
0.0
  0
LINE
  5
4E16
330
A
100
AcDbEntity
  8
0
  6
Continuous
 62
     7
 48
0.15
100
AcDbLine
 10
346.2335209999998
 20
208.9543459999999
 30
0.0
 11
346.2335209999998
 21
202.9543459999999
 31
0.0
  0
LINE
  5
4E17
330
A
100
AcDbEntity
  8
0
  6
Continuous
 62
     7
 48
0.05
100
AcDbLine
 10
348.233521
 20
202.9543459999999
 30
0.0
 11
346.2335209999998
 21
202.9543459999999
 31
0.0
  0
LINE
  5
4E18
330
A
100
AcDbEntity
  8
0
  6
Continuous
 62
     7
 48
0.05
100
AcDbLine
 10
364.233521
 20
208.9543459999999
 30
0.0
 11
366.233521
 21
208.9543459999999
 31
0.0
  0
LINE
  5
4E19
330
A
100
AcDbEntity
  8
0
  6
Continuous
 62
     7
 48
0.15
100
AcDbLine
 10
364.233521
 20
208.9543459999999
 30
0.0
 11
364.233521
 21
202.9543459999999
 31
0.0
  0
LINE
  5
4E1A
330
A
100
AcDbEntity
  8
0
  6
Continuous
 62
     7
 48
0.05
100
AcDbLine
 10
366.233521
 20
202.9543459999999
 30
0.0
 11
364.233521
 21
202.9543459999999
 31
0.0
  0
LINE
  5
4E1B
330
A
100
AcDbEntity
  8
0
  6
Continuous
 62
     7
 48
0.15
100
AcDbLine
 10
366.233521
 20
202.9543459999999
 30
0.0
 11
366.233521
 21
208.9543459999999
 31
0.0
  0
LINE
  5
4E23
330
A
100
AcDbEntity
  8
0
  6
Continuous
 62
     7
 48
0.100346
100
AcDbLine
 10
348.7335209999998
 20
156.4543459999998
 30
0.0
 11
348.7335209999998
 21
152.4404909999999
 31
0.0
  0
ARC
  5
4E24
330
A
100
AcDbEntity
  8
0
  6
Continuous
 62
     7
100
AcDbCircle
 10
351.2335209999998
 20
156.4543459999998
 30
0.0
 40
2.5
100
AcDbArc
 50
0.00001
 51
180.0000009999999
  0
LINE
  5
4E25
330
A
100
AcDbEntity
  8
0
  6
Continuous
 62
     7
 48
0.100346
100
AcDbLine
 10
353.733521
 20
152.4404909999999
 30
0.0
 11
353.733521
 21
156.4543459999998
 31
0.0
  0
LINE
  5
4E26
330
A
100
AcDbEntity
  8
0
  6
Continuous
 62
     7
100
AcDbLine
 10
353.733521
 20
152.4404909999999
 30
0.0
 11
391.433533
 21
152.4404909999999
 31
0.0
  0
ARC
  5
4E27
330
A
100
AcDbEntity
  8
0
  6
Continuous
 62
     7
100
AcDbCircle
 10
391.433563
 20
153.44043
 30
0.0
 40
0.999943
100
AcDbArc
 50
269.999
 51
0.00099
  0
LINE
  5
4E28
330
A
100
AcDbEntity
  8
0
  6
Continuous
 62
     7
 48
0.025001
100
AcDbLine
 10
392.433502
 20
153.4404449999998
 30
0.0
 11
392.433502
 21
154.4404909999999
 31
0.0
  0
LINE
  5
4E29
330
A
100
AcDbEntity
  8
0
  6
Continuous
 62
     7
 48
0.057848
100
AcDbLine
 10
394.747406
 20
154.4404909999999
 30
0.0
 11
392.433502
 21
154.4404909999999
 31
0.0
  0
ARC
  5
4E2A
330
A
100
AcDbEntity
  8
0
  6
Continuous
 62
     7
100
AcDbCircle
 10
394.747437
 20
155.4404299999999
 30
0.0
 40
0.999943
100
AcDbArc
 50
269.999007
 51
0.000996
  0
LINE
  5
4E2B
330
A
100
AcDbEntity
  8
0
  6
Continuous
 62
     7
100
AcDbLine
 10
395.7473799998489
 20
238.4682596175113
 30
0.0
 11
395.7473749999998
 21
155.4404449999998
 31
0.0
  0
LINE
  5
4E2C
330
A
100
AcDbEntity
  8
0
  6
Continuous
 62
     7
 48
0.018168
100
AcDbLine
 10
395.233521
 20
191.9543459999999
 30
0.0
 11
395.7473749999998
 21
192.4682159999999
 31
0.0
  0
LINE
  5
4E2D
330
A
100
AcDbEntity
  8
0
  6
Continuous
 62
     7
 48
0.25
100
AcDbLine
 10
395.233521
 20
201.9543459999999
 30
0.0
 11
395.233521
 21
191.9543459999999
 31
0.0
  0
LINE
  5
4E2E
330
A
100
AcDbEntity
  8
0
  6
Continuous
 62
     7
 48
0.018168
100
AcDbLine
 10
395.233521
 20
201.9543459999999
 30
0.0
 11
395.7473749999998
 21
201.4404909999999
 31
0.0
  0
ARC
  5
4E30
330
A
100
AcDbEntity
  8
0
  6
Continuous
 62
     7
100
AcDbCircle
 10
394.747437
 20
238.4682769999999
 30
0.0
 40
0.999943
100
AcDbArc
 50
359.999004
 51
90.000993
  0
LINE
  5
4E31
330
A
100
AcDbEntity
  8
0
  6
Continuous
 62
     7
 48
0.057848
100
AcDbLine
 10
394.747406
 20
239.468216
 30
0.0
 11
392.433502
 21
239.468216
 31
0.0
  0
LINE
  5
4E32
330
A
100
AcDbEntity
  8
0
  6
Continuous
 62
     7
 48
0.025001
100
AcDbLine
 10
392.433502
 20
240.4682619999999
 30
0.0
 11
392.433502
 21
239.468216
 31
0.0
  0
ARC
  5
4E33
330
A
100
AcDbEntity
  8
0
  6
Continuous
 62
     7
100
AcDbCircle
 10
391.433563
 20
240.4682769999999
 30
0.0
 40
0.999943
100
AcDbArc
 50
359.9990099999998
 51
90.00100000000001
  0
LINE
  5
4E34
330
A
100
AcDbEntity
  8
0
  6
Continuous
 62
     7
100
AcDbLine
 10
311.033478
 20
241.468216
 30
0.0
 11
391.433533
 21
241.468216
 31
0.0
  0
ARC
  5
4E35
330
A
100
AcDbEntity
  8
0
  6
Continuous
 62
     7
100
AcDbCircle
 10
311.033447
 20
240.4682769999999
 30
0.0
 40
0.999943
100
AcDbArc
 50
89.999005
 51
180.000989
  0
LINE
  5
4E36
330
A
100
AcDbEntity
  8
0
  6
Continuous
 62
     7
 48
0.025001
100
AcDbLine
 10
310.0335079999998
 20
240.4682619999999
 30
0.0
 11
310.0335079999998
 21
239.468216
 31
0.0
  0
LINE
  5
4E37
330
A
100
AcDbEntity
  8
0
  6
Continuous
 62
     7
 48
0.057848
100
AcDbLine
 10
307.719604
 20
239.468216
 30
0.0
 11
310.0335079999998
 21
239.468216
 31
0.0
  0
ARC
  5
4E38
330
A
100
AcDbEntity
  8
0
  6
Continuous
 62
     7
100
AcDbCircle
 10
307.719604
 20
238.4682769999999
 30
0.0
 40
0.999943
100
AcDbArc
 50
89.999012
 51
180.001002
  0
LINE
  5
4E3A
330
A
100
AcDbEntity
  8
0
  6
Continuous
 62
     7
 48
0.018168
100
AcDbLine
 10
307.2335209999998
 20
201.9543459999999
 30
0.0
 11
306.7196349999998
 21
201.4404909999999
 31
0.0
  0
LINE
  5
4E3B
330
A
100
AcDbEntity
  8
0
  6
Continuous
 62
     7
 48
0.25
100
AcDbLine
 10
307.2335209999998
 20
201.9543459999999
 30
0.0
 11
307.2335209999998
 21
191.9543459999999
 31
0.0
  0
LINE
  5
4E3C
330
A
100
AcDbEntity
  8
0
  6
Continuous
 62
     7
 48
0.018168
100
AcDbLine
 10
307.2335209999998
 20
191.9543459999999
 30
0.0
 11
306.7196349999998
 21
192.4682159999999
 31
0.0
  0
LINE
  5
4E3D
330
A
100
AcDbEntity
  8
0
  6
Continuous
 62
     7
100
AcDbLine
 10
306.7196610001528
 20
238.4682595127975
 30
0.0
 11
306.7196349999998
 21
155.4404449999998
 31
0.0
  0
ARC
  5
4E3E
330
A
100
AcDbEntity
  8
0
  6
Continuous
 62
     7
100
AcDbCircle
 10
307.719604
 20
155.4404299999999
 30
0.0
 40
0.999943
100
AcDbArc
 50
179.999008
 51
270.0009839999998
  0
LINE
  5
4E3F
330
A
100
AcDbEntity
  8
0
  6
Continuous
 62
     7
 48
0.057848
100
AcDbLine
 10
307.719604
 20
154.4404909999999
 30
0.0
 11
310.0335079999998
 21
154.4404909999999
 31
0.0
  0
LINE
  5
4E40
330
A
100
AcDbEntity
  8
0
  6
Continuous
 62
     7
 48
0.025001
100
AcDbLine
 10
310.0335079999998
 20
153.4404449999998
 30
0.0
 11
310.0335079999998
 21
154.4404909999999
 31
0.0
  0
ARC
  5
4E41
330
A
100
AcDbEntity
  8
0
  6
Continuous
 62
     7
100
AcDbCircle
 10
311.033447
 20
153.44043
 30
0.0
 40
0.999943
100
AcDbArc
 50
179.999008
 51
270.0009839999998
  0
LINE
  5
4E42
330
A
100
AcDbEntity
  8
0
  6
Continuous
 62
     7
100
AcDbLine
 10
311.033478
 20
152.4404909999999
 30
0.0
 11
348.7335209999998
 21
152.4404909999999
 31
0.0
  0
CIRCLE
  5
4E43
330
A
100
AcDbEntity
  8
0
  6
Continuous
 62
     7
100
AcDbCircle
 10
336.2335209999999
 20
167.2543489999999
 30
0.0
 40
3.0
  0
CIRCLE
  5
4E44
330
A
100
AcDbEntity
  8
0
  6
Continuous
 62
     7
100
AcDbCircle
 10
317.6335139999999
 20
205.9543459999999
 30
0.0
 40
3.0
  0
CIRCLE
  5
4E45
330
A
100
AcDbEntity
  8
0
  6
Continuous
 62
     7
100
AcDbCircle
 10
327.233521
 20
167.2543489999999
 30
0.0
 40
3.0
  0
CIRCLE
  5
4E46
330
A
100
AcDbEntity
  8
0
  6
Continuous
 62
     7
100
AcDbCircle
 10
345.233521
 20
167.2543489999999
 30
0.0
 40
3.0
  0
CIRCLE
  5
4E47
330
A
100
AcDbEntity
  8
0
  6
Continuous
 62
     7
100
AcDbCircle
 10
317.6335139999999
 20
223.9543459999999
 30
0.0
 40
3.0
  0
CIRCLE
  5
4E48
330
A
100
AcDbEntity
  8
0
  6
Continuous
 62
     7
100
AcDbCircle
 10
317.6335139999999
 20
232.954346
 30
0.0
 40
3.0
  0
CIRCLE
  5
4E49
330
A
100
AcDbEntity
  8
0
  6
Continuous
 62
     7
100
AcDbCircle
 10
384.8334959999998
 20
214.9543459999999
 30
0.0
 40
3.0
  0
CIRCLE
  5
4E4A
330
A
100
AcDbEntity
  8
0
  6
Continuous
 62
     7
100
AcDbCircle
 10
384.8334959999998
 20
205.9543459999999
 30
0.0
 40
3.0
  0
CIRCLE
  5
4E4B
330
A
100
AcDbEntity
  8
0
  6
Continuous
 62
     7
100
AcDbCircle
 10
384.8334959999998
 20
196.9543459999999
 30
0.0
 40
3.0
  0
CIRCLE
  5
4E4C
330
A
100
AcDbEntity
  8
0
  6
Continuous
 62
     7
100
AcDbCircle
 10
384.8334959999998
 20
187.9543459999999
 30
0.0
 40
3.0
  0
CIRCLE
  5
4E4D
330
A
100
AcDbEntity
  8
0
  6
Continuous
 62
     7
100
AcDbCircle
 10
384.8334959999998
 20
178.9543459999999
 30
0.0
 40
3.0
  0
CIRCLE
  5
4E4E
330
A
100
AcDbEntity
  8
0
  6
Continuous
 62
     7
100
AcDbCircle
 10
384.8334959999998
 20
169.9543459999999
 30
0.0
 40
3.0
  0
CIRCLE
  5
4E4F
330
A
100
AcDbEntity
  8
0
  6
Continuous
 62
     7
100
AcDbCircle
 10
384.8334959999998
 20
160.9543459999999
 30
0.0
 40
3.0
  0
CIRCLE
  5
4E50
330
A
100
AcDbEntity
  8
0
  6
Continuous
 62
     7
100
AcDbCircle
 10
317.6335139999999
 20
196.9543459999999
 30
0.0
 40
3.0
  0
CIRCLE
  5
4E51
330
A
100
AcDbEntity
  8
0
  6
Continuous
 62
     7
100
AcDbCircle
 10
317.6335139999999
 20
187.9543459999999
 30
0.0
 40
3.0
  0
CIRCLE
  5
4E52
330
A
100
AcDbEntity
  8
0
  6
Continuous
 62
     7
100
AcDbCircle
 10
317.6335139999999
 20
178.9543459999999
 30
0.0
 40
3.0
  0
CIRCLE
  5
4E53
330
A
100
AcDbEntity
  8
0
  6
Continuous
 62
     7
100
AcDbCircle
 10
317.6335139999999
 20
169.9543459999999
 30
0.0
 40
3.0
  0
CIRCLE
  5
4E54
330
A
100
AcDbEntity
  8
0
  6
Continuous
 62
     7
100
AcDbCircle
 10
317.6335139999999
 20
160.9543459999999
 30
0.0
 40
3.0
  0
LINE
  5
4E58
330
A
100
AcDbEntity
  8
0
  6
Continuous
 62
     7
 48
0.083337
100
AcDbLine
 10
307.319702
 20
241.868118
 30
0.0
 11
310.653137
 21
241.848572
 31
0.0
  0
LINE
  5
4E5A
330
A
100
AcDbEntity
  8
0
  6
Continuous
 62
     7
100
AcDbLine
 10
306.7334763650358
 20
242.454349999849
 30
0.0
 11
395.733551
 21
242.4543459999999
 31
0.0
  0
LINE
  5
4E5B
330
A
100
AcDbEntity
  8
0
  6
Continuous
 62
     7
 48
0.083337
100
AcDbLine
 10
395.1473079999998
 20
241.868118
 30
0.0
 11
391.8139039999998
 21
241.848572
 31
0.0
  0
LINE
  5
4E5C
330
A
100
AcDbEntity
  8
0
  6
Continuous
 62
     7
 48
0.027768
100
AcDbLine
 10
349.5189209999998
 20
151.655075
 30
0.0
 11
348.7335209999998
 21
152.4404909999999
 31
0.0
  0
LINE
  5
4E5D
330
A
100
AcDbEntity
  8
0
  6
Continuous
 62
     7
 48
0.085729
100
AcDbLine
 10
349.5189209999998
 20
151.655075
 30
0.0
 11
352.9480899999998
 21
151.655075
 31
0.0
  0
LINE
  5
4E5E
330
A
100
AcDbEntity
  8
0
  6
Continuous
 62
     7
 48
0.027769
100
AcDbLine
 10
352.9480899999998
 20
151.655075
 30
0.0
 11
353.733521
 21
152.4404909999999
 31
0.0
  0
LINE
  5
4E5F
330
A
100
AcDbEntity
  8
0
  6
Continuous
 62
     7
 48
0.083337
100
AcDbLine
 10
395.1473079999998
 20
152.040588
 30
0.0
 11
391.8139039999998
 21
152.0601349999999
 31
0.0
  0
LINE
  5
4E60
330
A
100
AcDbEntity
  8
0
  6
Continuous
 62
     7
100
AcDbLine
 10
395.733551
 20
151.4543459999998
 30
0.0
 11
306.7334761730602
 21
151.4543570001473
 31
0.0
  0
LINE
  5
4E62
330
A
100
AcDbEntity
  8
0
  6
Continuous
 62
     7
 48
0.083337
100
AcDbLine
 10
307.319702
 20
152.040588
 30
0.0
 11
310.653137
 21
152.0601349999999
 31
0.0
  0
LINE
  5
4E63
330
A
100
AcDbEntity
  8
0
  6
Continuous
 62
     7
 48
0.119982
100
AcDbLine
 10
349.5189209999998
 20
151.655075
 30
0.0
 11
349.5189209999998
 21
156.4543459999998
 31
0.0
  0
ARC
  5
4E64
330
A
100
AcDbEntity
  8
0
  6
Continuous
 62
     7
100
AcDbCircle
 10
351.2335209999998
 20
156.4543459999998
 30
0.0
 40
1.714579999999999
100
AcDbArc
 50
0.000029
 51
179.999978
  0
LINE
  5
4E65
330
A
100
AcDbEntity
  8
0
  6
Continuous
 62
     7
 48
0.119982
100
AcDbLine
 10
352.9480899999998
 20
151.655075
 30
0.0
 11
352.9480899999998
 21
156.4543459999998
 31
0.0
  0
ARC
  5
4E66
330
A
100
AcDbEntity
  8
0
  6
Continuous
 62
     7
100
AcDbCircle
 10
391.824402
 20
153.056351
 30
0.0
 40
0.995728
100
AcDbArc
 50
269.395621
 51
359.8766529999998
  0
LINE
  5
4E67
330
A
100
AcDbEntity
  8
0
  6
Continuous
 62
     7
 48
0.025001
100
AcDbLine
 10
392.8197629999998
 20
154.054245
 30
0.0
 11
392.8197629999998
 21
153.054199
 31
0.0
  0
LINE
  5
4E68
330
A
100
AcDbEntity
  8
0
  6
Continuous
 62
     7
 48
0.05819
100
AcDbLine
 10
392.8197629999998
 20
154.054245
 30
0.0
 11
395.1473079999998
 21
154.0405879999999
 31
0.0
  0
ARC
  5
4E69
330
A
100
AcDbEntity
  8
0
  6
Continuous
 62
     7
100
AcDbCircle
 10
395.157837
 20
155.0367889999999
 30
0.0
 40
0.995728
100
AcDbArc
 50
269.395628
 51
359.8766319999998
  0
LINE
  5
4E6A
330
A
100
AcDbEntity
  8
0
  6
Continuous
 62
     7
 48
0.002468
100
AcDbLine
 10
395.7473749999998
 20
192.4682159999999
 30
0.0
 11
395.8172
 21
192.538025
 31
0.0
  0
LINE
  5
4E6C
330
A
100
AcDbEntity
  8
0
  6
Continuous
 62
     7
 48
0.002469
100
AcDbLine
 10
395.7473749999998
 20
201.4404909999999
 30
0.0
 11
395.8172
 21
201.3706669999999
 31
0.0
  0
LINE
  5
4E6D
330
A
100
AcDbEntity
  8
0
  6
Continuous
 62
     7
 48
0.05
100
AcDbLine
 10
396.153168
 20
238.874054
 30
0.0
 11
396.153168
 21
240.874054
 31
0.0
  0
LINE
  5
4E6E
330
A
100
AcDbEntity
  8
0
  6
Continuous
 62
     7
100
AcDbLine
 10
396.7335209999998
 20
152.4543149999999
 30
0.0
 11
396.7335209999998
 21
241.454391
 31
0.0
  0
LINE
  5
4E6F
330
A
100
AcDbEntity
  8
0
  6
Continuous
 62
     7
 48
0.05
100
AcDbLine
 10
396.153168
 20
153.0346529999999
 30
0.0
 11
396.153168
 21
155.0346529999998
 31
0.0
  0
ARC
  5
4E70
330
A
100
AcDbEntity
  8
0
  6
Continuous
 62
     7
100
AcDbCircle
 10
395.157837
 20
238.871918
 30
0.0
 40
0.995728
100
AcDbArc
 50
0.123368
 51
90.604372
  0
LINE
  5
4E71
330
A
100
AcDbEntity
  8
0
  6
Continuous
 62
     7
 48
0.05819
100
AcDbLine
 10
392.8197629999998
 20
239.854462
 30
0.0
 11
395.1473079999998
 21
239.868118
 31
0.0
  0
LINE
  5
4E72
330
A
100
AcDbEntity
  8
0
  6
Continuous
 62
     7
 48
0.025001
100
AcDbLine
 10
392.8197629999998
 20
240.8545069999999
 30
0.0
 11
392.8197629999998
 21
239.854462
 31
0.0
  0
ARC
  5
4E73
330
A
100
AcDbEntity
  8
0
  6
Continuous
 62
     7
100
AcDbCircle
 10
391.824402
 20
240.852356
 30
0.0
 40
0.995728
100
AcDbArc
 50
0.123346
 51
90.60437900000001
  0
ARC
  5
4E74
330
A
100
AcDbEntity
  8
0
  6
Continuous
 62
     7
100
AcDbCircle
 10
310.6426089999998
 20
240.852356
 30
0.0
 40
0.995728
100
AcDbArc
 50
89.39562
 51
179.876652
  0
LINE
  5
4E75
330
A
100
AcDbEntity
  8
0
  6
Continuous
 62
     7
 48
0.025001
100
AcDbLine
 10
309.6472779999998
 20
240.8545069999999
 30
0.0
 11
309.6472779999998
 21
239.854462
 31
0.0
  0
LINE
  5
4E76
330
A
100
AcDbEntity
  8
0
  6
Continuous
 62
     7
 48
0.05819
100
AcDbLine
 10
309.6472779999998
 20
239.854462
 30
0.0
 11
307.319702
 21
239.868118
 31
0.0
  0
ARC
  5
4E77
330
A
100
AcDbEntity
  8
0
  6
Continuous
 62
     7
100
AcDbCircle
 10
307.309204
 20
238.871918
 30
0.0
 40
0.995728
100
AcDbArc
 50
89.39563299999999
 51
179.8766379999999
  0
LINE
  5
4E78
330
A
100
AcDbEntity
  8
0
  6
Continuous
 62
     7
 48
0.05
100
AcDbLine
 10
306.313843
 20
155.0346529999998
 30
0.0
 11
306.313843
 21
153.0346529999999
 31
0.0
  0
LINE
  5
4E79
330
A
100
AcDbEntity
  8
0
  6
Continuous
 62
     7
100
AcDbLine
 10
305.733521
 20
241.454391
 30
0.0
 11
305.733521
 21
152.4543149999999
 31
0.0
  0
LINE
  5
4E7A
330
A
100
AcDbEntity
  8
0
  6
Continuous
 62
     7
 48
0.05
100
AcDbLine
 10
306.313843
 20
240.874054
 30
0.0
 11
306.313843
 21
238.874054
 31
0.0
  0
LINE
  5
4E7B
330
A
100
AcDbEntity
  8
0
  6
Continuous
 62
     7
 48
0.002468
100
AcDbLine
 10
306.7196349999998
 20
201.4404909999999
 30
0.0
 11
306.649841
 21
201.3706669999999
 31
0.0
  0
LINE
  5
4E7D
330
A
100
AcDbEntity
  8
0
  6
Continuous
 62
     7
 48
0.002468
100
AcDbLine
 10
306.7196349999998
 20
192.4682159999999
 30
0.0
 11
306.649841
 21
192.538025
 31
0.0
  0
ARC
  5
4E7E
330
A
100
AcDbEntity
  8
0
  6
Continuous
 62
     7
100
AcDbCircle
 10
307.309204
 20
155.0367889999999
 30
0.0
 40
0.9957379999999995
100
AcDbArc
 50
180.123335
 51
270.6034579999999
  0
LINE
  5
4E7F
330
A
100
AcDbEntity
  8
0
  6
Continuous
 62
     7
 48
0.05819
100
AcDbLine
 10
309.6472779999998
 20
154.054245
 30
0.0
 11
307.319702
 21
154.0405879999999
 31
0.0
  0
LINE
  5
4E80
330
A
100
AcDbEntity
  8
0
  6
Continuous
 62
     7
 48
0.025001
100
AcDbLine
 10
309.6472779999998
 20
154.054245
 30
0.0
 11
309.6472779999998
 21
153.054199
 31
0.0
  0
ARC
  5
4E81
330
A
100
AcDbEntity
  8
0
  6
Continuous
 62
     7
100
AcDbCircle
 10
310.6426089999998
 20
153.056351
 30
0.0
 40
0.995728
100
AcDbArc
 50
180.123348
 51
270.6043799999999
  0
LINE
  5
4E90
330
A
100
AcDbEntity
  8
0
  6
Continuous
 62
     7
 48
0.025
100
AcDbLine
 10
342.9335019999998
 20
174.9543459999999
 30
0.0
 11
342.9335019999998
 21
238.954346
 31
0.0
  0
LINE
  5
4E92
330
A
100
AcDbEntity
  8
0
  6
Continuous
 62
     7
100
AcDbLine
 10
323.133514
 20
174.9543459999999
 30
0.0
 11
360.4335019999998
 21
174.9543459999999
 31
0.0
  0
LINE
  5
4EA1
330
A
100
AcDbEntity
  8
0
  6
Continuous
 62
     7
 48
0.025
100
AcDbLine
 10
350.233521
 20
174.9543459999999
 30
0.0
 11
350.233521
 21
238.954346
 31
0.0
  0
LINE
  5
4EA4
330
A
100
AcDbEntity
  8
0
  6
Continuous
 62
     7
 48
0.205
100
AcDbLine
 10
350.2335209999998
 20
238.954346
 30
0.0
 11
360.4335019999998
 21
238.9543459999999
 31
0.0
  0
LINE
  5
4EA8
330
A
100
AcDbEntity
  8
0
  6
Continuous
 62
     7
 48
0.2
100
AcDbLine
 10
360.4335019999998
 20
173.9543459999999
 30
0.0
 11
360.4335019999998
 21
238.954346
 31
0.0
  0
LINE
  5
4EB8
330
A
100
AcDbEntity
  8
0
  6
Continuous
 62
     7
 48
0.3425
100
AcDbLine
 10
350.2335209999998
 20
159.2543489999999
 30
0.0
 11
350.233521
 21
173.9543459999999
 31
0.0
  0
LINE
  5
4EB9
330
A
100
AcDbEntity
  8
0
  6
Continuous
 62
     7
 48
0.025
100
AcDbLine
 10
350.233521
 20
159.2543489999999
 30
0.0
 11
349.233521
 21
159.2543489999999
 31
0.0
  0
LINE
  5
4EBB
330
A
100
AcDbEntity
  8
0
  6
Continuous
 62
     7
 48
0.3175
100
AcDbLine
 10
349.233521
 20
159.2543489999999
 30
0.0
 11
349.233521
 21
172.9543459999999
 31
0.0
  0
LINE
  5
4EBC
330
A
100
AcDbEntity
  8
0
  6
Continuous
 62
     7
 48
0.2
100
AcDbLine
 10
349.233521
 20
172.9543459999999
 30
0.0
 11
341.233521
 21
172.9543459999999
 31
0.0
  0
LINE
  5
4EBE
330
A
100
AcDbEntity
  8
0
  6
Continuous
 62
     7
 48
0.3175
100
AcDbLine
 10
341.233521
 20
172.9543459999999
 30
0.0
 11
341.233521
 21
159.2543489999999
 31
0.0
  0
LINE
  5
4EBF
330
A
100
AcDbEntity
  8
0
  6
Continuous
 62
     7
 48
0.025
100
AcDbLine
 10
341.233521
 20
159.2543489999999
 30
0.0
 11
340.2335209999999
 21
159.2543489999999
 31
0.0
  0
LINE
  5
4EC1
330
A
100
AcDbEntity
  8
0
  6
Continuous
 62
     7
 48
0.3175
100
AcDbLine
 10
340.2335209999999
 20
159.2543489999999
 30
0.0
 11
340.2335209999999
 21
172.9543459999999
 31
0.0
  0
LINE
  5
4EC2
330
A
100
AcDbEntity
  8
0
  6
Continuous
 62
     7
 48
0.2
100
AcDbLine
 10
340.2335209999999
 20
172.9543459999999
 30
0.0
 11
332.2335209999998
 21
172.9543459999999
 31
0.0
  0
LINE
  5
4EC4
330
A
100
AcDbEntity
  8
0
  6
Continuous
 62
     7
 48
0.3175
100
AcDbLine
 10
332.2335209999998
 20
172.9543459999999
 30
0.0
 11
332.2335209999998
 21
159.2543489999998
 31
0.0
  0
LINE
  5
4EC5
330
A
100
AcDbEntity
  8
0
  6
Continuous
 62
     7
 48
0.025
100
AcDbLine
 10
332.2335209999998
 20
159.2543489999999
 30
0.0
 11
331.233521
 21
159.2543489999999
 31
0.0
  0
LINE
  5
4EC7
330
A
100
AcDbEntity
  8
0
  6
Continuous
 62
     7
 48
0.3175
100
AcDbLine
 10
331.2335209999998
 20
159.2543489999998
 30
0.0
 11
331.233521
 21
172.9543459999999
 31
0.0
  0
LINE
  5
4EC8
330
A
100
AcDbEntity
  8
0
  6
Continuous
 62
     7
 48
0.2025
100
AcDbLine
 10
331.233521
 20
172.9543459999999
 30
0.0
 11
323.133514
 21
172.9543459999999
 31
0.0
  0
LINE
  5
4EC9
330
A
100
AcDbEntity
  8
0
  6
Continuous
 62
     7
 48
0.45
100
AcDbLine
 10
323.133514
 20
154.9543459999999
 30
0.0
 11
323.133514
 21
172.9543459999999
 31
0.0
  0
LINE
  5
4ECA
330
A
100
AcDbEntity
  8
0
  6
Continuous
 62
     7
 48
0.3125
100
AcDbLine
 10
309.6335139999998
 20
154.9543459999999
 30
0.0
 11
323.133514
 21
154.9543459999999
 31
0.0
  0
LINE
  5
4ECC
330
A
100
AcDbEntity
  8
0
  6
Continuous
 62
     7
 48
0.05
100
AcDbLine
 10
309.6335139999998
 20
156.954346
 30
0.0
 11
309.6335139999998
 21
154.9543459999999
 31
0.0
  0
LINE
  5
4ECE
330
A
100
AcDbEntity
  8
0
  6
Continuous
 62
     7
 48
0.2875
100
AcDbLine
 10
322.1335139999998
 20
156.954346
 30
0.0
 11
309.6335139999998
 21
156.954346
 31
0.0
  0
LINE
  5
4ECF
330
A
100
AcDbEntity
  8
0
  6
Continuous
 62
     7
 48
0.2
100
AcDbLine
 10
322.1335139999998
 20
164.9543459999998
 30
0.0
 11
322.1335139999998
 21
156.954346
 31
0.0
  0
LINE
  5
4ED1
330
A
100
AcDbEntity
  8
0
  6
Continuous
 62
     7
 48
0.2875
100
AcDbLine
 10
322.1335139999998
 20
164.9543459999998
 30
0.0
 11
309.6335139999998
 21
164.9543459999998
 31
0.0
  0
LINE
  5
4ED2
330
A
100
AcDbEntity
  8
0
  6
Continuous
 62
     7
 48
0.025
100
AcDbLine
 10
309.6335139999998
 20
165.9543459999999
 30
0.0
 11
309.6335139999998
 21
164.9543459999998
 31
0.0
  0
LINE
  5
4ED4
330
A
100
AcDbEntity
  8
0
  6
Continuous
 62
     7
 48
0.2875
100
AcDbLine
 10
309.6335139999998
 20
165.9543459999999
 30
0.0
 11
322.1335139999998
 21
165.9543459999999
 31
0.0
  0
LINE
  5
4ED5
330
A
100
AcDbEntity
  8
0
  6
Continuous
 62
     7
 48
0.2
100
AcDbLine
 10
322.1335139999998
 20
173.9543459999999
 30
0.0
 11
322.1335139999998
 21
165.9543459999999
 31
0.0
  0
LINE
  5
4ED7
330
A
100
AcDbEntity
  8
0
  6
Continuous
 62
     7
 48
0.2875
100
AcDbLine
 10
322.1335139999998
 20
173.9543459999999
 30
0.0
 11
309.6335139999998
 21
173.9543459999999
 31
0.0
  0
LINE
  5
4ED8
330
A
100
AcDbEntity
  8
0
  6
Continuous
 62
     7
 48
0.025
100
AcDbLine
 10
309.6335139999998
 20
174.9543459999999
 30
0.0
 11
309.6335139999998
 21
173.9543459999999
 31
0.0
  0
LINE
  5
4EDA
330
A
100
AcDbEntity
  8
0
  6
Continuous
 62
     7
 48
0.2875
100
AcDbLine
 10
309.6335139999998
 20
174.9543459999999
 30
0.0
 11
322.1335139999998
 21
174.9543459999999
 31
0.0
  0
LINE
  5
4EDB
330
A
100
AcDbEntity
  8
0
  6
Continuous
 62
     7
 48
0.2
100
AcDbLine
 10
322.1335139999998
 20
182.954346
 30
0.0
 11
322.1335139999998
 21
174.9543459999999
 31
0.0
  0
LINE
  5
4EDD
330
A
100
AcDbEntity
  8
0
  6
Continuous
 62
     7
 48
0.2875
100
AcDbLine
 10
322.1335139999998
 20
182.954346
 30
0.0
 11
309.6335139999998
 21
182.954346
 31
0.0
  0
LINE
  5
4EDE
330
A
100
AcDbEntity
  8
0
  6
Continuous
 62
     7
 48
0.025
100
AcDbLine
 10
309.6335139999998
 20
183.9543459999999
 30
0.0
 11
309.6335139999998
 21
182.954346
 31
0.0
  0
LINE
  5
4EE0
330
A
100
AcDbEntity
  8
0
  6
Continuous
 62
     7
 48
0.2875
100
AcDbLine
 10
309.6335139999998
 20
183.9543459999999
 30
0.0
 11
322.1335139999998
 21
183.9543459999999
 31
0.0
  0
LINE
  5
4EE1
330
A
100
AcDbEntity
  8
0
  6
Continuous
 62
     7
 48
0.2
100
AcDbLine
 10
322.1335139999998
 20
191.9543459999999
 30
0.0
 11
322.1335139999998
 21
183.9543459999999
 31
0.0
  0
LINE
  5
4EE3
330
A
100
AcDbEntity
  8
0
  6
Continuous
 62
     7
 48
0.2875
100
AcDbLine
 10
322.1335139999998
 20
191.9543459999999
 30
0.0
 11
309.6335139999998
 21
191.9543459999999
 31
0.0
  0
LINE
  5
4EE4
330
A
100
AcDbEntity
  8
0
  6
Continuous
 62
     7
 48
0.025
100
AcDbLine
 10
309.6335139999998
 20
192.9543459999999
 30
0.0
 11
309.6335139999998
 21
191.9543459999999
 31
0.0
  0
LINE
  5
4EE6
330
A
100
AcDbEntity
  8
0
  6
Continuous
 62
     7
 48
0.2875
100
AcDbLine
 10
309.6335139999998
 20
192.9543459999999
 30
0.0
 11
322.1335139999998
 21
192.9543459999999
 31
0.0
  0
LINE
  5
4EE7
330
A
100
AcDbEntity
  8
0
  6
Continuous
 62
     7
 48
0.2
100
AcDbLine
 10
322.1335139999998
 20
200.9543459999999
 30
0.0
 11
322.1335139999998
 21
192.9543459999999
 31
0.0
  0
LINE
  5
4EE9
330
A
100
AcDbEntity
  8
0
  6
Continuous
 62
     7
 48
0.2875
100
AcDbLine
 10
322.1335139999998
 20
200.9543459999999
 30
0.0
 11
309.6335139999998
 21
200.9543459999999
 31
0.0
  0
LINE
  5
4EEA
330
A
100
AcDbEntity
  8
0
  6
Continuous
 62
     7
 48
0.025
100
AcDbLine
 10
309.6335139999998
 20
201.9543459999999
 30
0.0
 11
309.6335139999998
 21
200.9543459999999
 31
0.0
  0
LINE
  5
4EEC
330
A
100
AcDbEntity
  8
0
  6
Continuous
 62
     7
 48
0.2875
100
AcDbLine
 10
309.6335139999998
 20
201.9543459999999
 30
0.0
 11
322.1335139999998
 21
201.9543459999999
 31
0.0
  0
LINE
  5
4EED
330
A
100
AcDbEntity
  8
0
  6
Continuous
 62
     7
 48
0.2
100
AcDbLine
 10
322.1335139999998
 20
209.954346
 30
0.0
 11
322.1335139999998
 21
201.9543459999999
 31
0.0
  0
LINE
  5
4EEF
330
A
100
AcDbEntity
  8
0
  6
Continuous
 62
     7
 48
0.2375
100
AcDbLine
 10
322.1335139999998
 20
209.954346
 30
0.0
 11
311.6335139999999
 21
209.954346
 31
0.0
  0
LINE
  5
4EF0
330
A
100
AcDbEntity
  8
0
  6
Continuous
 62
     7
 48
0.25
100
AcDbLine
 10
311.6335139999999
 20
219.954346
 30
0.0
 11
311.6335139999999
 21
209.954346
 31
0.0
  0
LINE
  5
4EF2
330
A
100
AcDbEntity
  8
0
  6
Continuous
 62
     7
 48
0.2375
100
AcDbLine
 10
311.6335139999999
 20
219.9543459999999
 30
0.0
 11
322.1335139999998
 21
219.954346
 31
0.0
  0
LINE
  5
4EF3
330
A
100
AcDbEntity
  8
0
  6
Continuous
 62
     7
 48
0.2
100
AcDbLine
 10
322.1335139999998
 20
227.9543459999999
 30
0.0
 11
322.1335139999998
 21
219.954346
 31
0.0
  0
LINE
  5
4EF5
330
A
100
AcDbEntity
  8
0
  6
Continuous
 62
     7
 48
0.2875
100
AcDbLine
 10
322.1335139999998
 20
227.9543459999999
 30
0.0
 11
309.6335139999998
 21
227.9543459999999
 31
0.0
  0
LINE
  5
4EF6
330
A
100
AcDbEntity
  8
0
  6
Continuous
 62
     7
 48
0.025
100
AcDbLine
 10
309.6335139999998
 20
228.9543459999999
 30
0.0
 11
309.6335139999998
 21
227.9543459999999
 31
0.0
  0
LINE
  5
4EF8
330
A
100
AcDbEntity
  8
0
  6
Continuous
 62
     7
 48
0.2875
100
AcDbLine
 10
309.6335139999998
 20
228.9543459999999
 30
0.0
 11
322.1335139999998
 21
228.9543459999999
 31
0.0
  0
LINE
  5
4EF9
330
A
100
AcDbEntity
  8
0
  6
Continuous
 62
     7
 48
0.2
100
AcDbLine
 10
322.1335139999998
 20
236.954346
 30
0.0
 11
322.1335139999998
 21
228.9543459999999
 31
0.0
  0
LINE
  5
4EFB
330
A
100
AcDbEntity
  8
0
  6
Continuous
 62
     7
 48
0.2875
100
AcDbLine
 10
322.1335139999998
 20
236.954346
 30
0.0
 11
309.6335139999998
 21
236.954346
 31
0.0
  0
LINE
  5
4EFC
330
A
100
AcDbEntity
  8
0
  6
Continuous
 62
     7
 48
0.05
100
AcDbLine
 10
309.6335139999998
 20
238.954346
 30
0.0
 11
309.6335139999998
 21
236.954346
 31
0.0
  0
LINE
  5
4EFE
330
A
100
AcDbEntity
  8
0
  6
Continuous
 62
     7
 48
0.3125
100
AcDbLine
 10
309.6335139999998
 20
238.954346
 30
0.0
 11
323.133514
 21
238.954346
 31
0.0
  0
LINE
  5
4F01
330
A
100
AcDbEntity
  8
0
  6
Continuous
 62
     7
100
AcDbLine
 10
323.133514
 20
238.954346
 30
0.0
 11
323.133514
 21
173.9543459999999
 31
0.0
  0
LINE
  5
4F02
330
A
100
AcDbEntity
  8
0
  6
Continuous
 62
     7
 48
0.2
100
AcDbLine
 10
332.733521
 20
238.954346
 30
0.0
 11
332.733521
 21
174.9543459999999
 31
0.0
  0
LINE
  5
4F13
330
A
100
AcDbEntity
  8
0
  6
Continuous
 62
     7
 48
0.205
100
AcDbLine
 10
332.733521
 20
238.954346
 30
0.0
 11
342.9335019999998
 21
238.954346
 31
0.0
  0
LINE
  5
4F16
330
A
100
AcDbEntity
  8
0
  6
Continuous
 62
     7
100
AcDbLine
 10
366.8334959999998
 20
154.9543459999999
 30
0.0
 11
392.8334959999998
 21
154.9543459999999
 31
0.0
  0
LINE
  5
4F18
330
A
100
AcDbEntity
  8
0
  6
Continuous
 62
     7
 48
0.05
100
AcDbLine
 10
366.8334959999998
 20
154.9543459999999
 30
0.0
 11
366.8334959999998
 21
238.954346
 31
0.0
  0
LINE
  5
4F2C
330
A
100
AcDbEntity
  8
0
  6
Continuous
 62
     7
100
AcDbLine
 10
392.8334959999998
 20
238.954346
 30
0.0
 11
366.8334959999998
 21
238.954346
 31
0.0
  0
LINE
  5
4F2E
330
A
100
AcDbEntity
  8
0
  6
Continuous
 62
     7
 48
0.05
100
AcDbLine
 10
392.8334959999998
 20
236.954346
 30
0.0
 11
392.8334959999998
 21
238.954346
 31
0.0
  0
LINE
  5
4F30
330
A
100
AcDbEntity
  8
0
  6
Continuous
 62
     7
 48
0.2875
100
AcDbLine
 10
392.8334959999998
 20
236.9543459999999
 30
0.0
 11
380.3334959999998
 21
236.954346
 31
0.0
  0
LINE
  5
4F31
330
A
100
AcDbEntity
  8
0
  6
Continuous
 62
     7
 48
0.2
100
AcDbLine
 10
380.3334959999998
 20
236.954346
 30
0.0
 11
380.3334959999998
 21
228.9543459999999
 31
0.0
  0
LINE
  5
4F33
330
A
100
AcDbEntity
  8
0
  6
Continuous
 62
     7
 48
0.2875
100
AcDbLine
 10
380.3334959999998
 20
228.9543459999999
 30
0.0
 11
392.8334959999998
 21
228.9543459999999
 31
0.0
  0
LINE
  5
4F34
330
A
100
AcDbEntity
  8
0
  6
Continuous
 62
     7
 48
0.025
100
AcDbLine
 10
392.8334959999998
 20
227.9543459999999
 30
0.0
 11
392.8334959999998
 21
228.9543459999999
 31
0.0
  0
LINE
  5
4F36
330
A
100
AcDbEntity
  8
0
  6
Continuous
 62
     7
 48
0.2875
100
AcDbLine
 10
392.8334959999998
 20
227.9543459999999
 30
0.0
 11
380.3334959999998
 21
227.9543459999999
 31
0.0
  0
LINE
  5
4F37
330
A
100
AcDbEntity
  8
0
  6
Continuous
 62
     7
 48
0.2
100
AcDbLine
 10
380.3334959999998
 20
227.9543459999999
 30
0.0
 11
380.3334959999998
 21
219.954346
 31
0.0
  0
LINE
  5
4F39
330
A
100
AcDbEntity
  8
0
  6
Continuous
 62
     7
 48
0.2875
100
AcDbLine
 10
380.3334959999998
 20
219.954346
 30
0.0
 11
392.8334959999998
 21
219.9543459999999
 31
0.0
  0
LINE
  5
4F3A
330
A
100
AcDbEntity
  8
0
  6
Continuous
 62
     7
 48
0.025
100
AcDbLine
 10
392.8334959999998
 20
218.9543459999999
 30
0.0
 11
392.8334959999998
 21
219.954346
 31
0.0
  0
LINE
  5
4F3C
330
A
100
AcDbEntity
  8
0
  6
Continuous
 62
     7
 48
0.2875
100
AcDbLine
 10
392.8334959999998
 20
218.9543459999999
 30
0.0
 11
380.3334959999998
 21
218.9543459999999
 31
0.0
  0
LINE
  5
4F3D
330
A
100
AcDbEntity
  8
0
  6
Continuous
 62
     7
 48
0.2
100
AcDbLine
 10
380.3334959999998
 20
218.9543459999999
 30
0.0
 11
380.3334959999998
 21
210.9543459999999
 31
0.0
  0
LINE
  5
4F3F
330
A
100
AcDbEntity
  8
0
  6
Continuous
 62
     7
 48
0.2875
100
AcDbLine
 10
380.3334959999998
 20
210.9543459999999
 30
0.0
 11
392.8334959999998
 21
210.9543459999999
 31
0.0
  0
LINE
  5
4F40
330
A
100
AcDbEntity
  8
0
  6
Continuous
 62
     7
 48
0.025
100
AcDbLine
 10
392.8334959999998
 20
209.954346
 30
0.0
 11
392.8334959999998
 21
210.9543459999999
 31
0.0
  0
LINE
  5
4F42
330
A
100
AcDbEntity
  8
0
  6
Continuous
 62
     7
 48
0.2875
100
AcDbLine
 10
392.8334959999998
 20
209.9543459999999
 30
0.0
 11
380.3334959999998
 21
209.954346
 31
0.0
  0
LINE
  5
4F43
330
A
100
AcDbEntity
  8
0
  6
Continuous
 62
     7
 48
0.2
100
AcDbLine
 10
380.3334959999998
 20
209.954346
 30
0.0
 11
380.3334959999998
 21
201.9543459999999
 31
0.0
  0
LINE
  5
4F45
330
A
100
AcDbEntity
  8
0
  6
Continuous
 62
     7
 48
0.2875
100
AcDbLine
 10
380.3334959999998
 20
201.9543459999999
 30
0.0
 11
392.8334959999998
 21
201.9543459999999
 31
0.0
  0
LINE
  5
4F46
330
A
100
AcDbEntity
  8
0
  6
Continuous
 62
     7
 48
0.025
100
AcDbLine
 10
392.8334959999998
 20
200.9543459999999
 30
0.0
 11
392.8334959999998
 21
201.9543459999999
 31
0.0
  0
LINE
  5
4F48
330
A
100
AcDbEntity
  8
0
  6
Continuous
 62
     7
 48
0.2875
100
AcDbLine
 10
392.8334959999998
 20
200.9543459999999
 30
0.0
 11
380.3334959999998
 21
200.9543459999999
 31
0.0
  0
LINE
  5
4F49
330
A
100
AcDbEntity
  8
0
  6
Continuous
 62
     7
 48
0.2
100
AcDbLine
 10
380.3334959999998
 20
200.9543459999999
 30
0.0
 11
380.3334959999998
 21
192.9543459999999
 31
0.0
  0
LINE
  5
4F4B
330
A
100
AcDbEntity
  8
0
  6
Continuous
 62
     7
 48
0.2875
100
AcDbLine
 10
380.3334959999998
 20
192.9543459999999
 30
0.0
 11
392.8334959999998
 21
192.9543459999999
 31
0.0
  0
LINE
  5
4F4C
330
A
100
AcDbEntity
  8
0
  6
Continuous
 62
     7
 48
0.025
100
AcDbLine
 10
392.8334959999998
 20
191.9543459999999
 30
0.0
 11
392.8334959999998
 21
192.9543459999999
 31
0.0
  0
LINE
  5
4F4E
330
A
100
AcDbEntity
  8
0
  6
Continuous
 62
     7
 48
0.2875
100
AcDbLine
 10
392.8334959999998
 20
191.9543459999999
 30
0.0
 11
380.3334959999998
 21
191.9543459999999
 31
0.0
  0
LINE
  5
4F4F
330
A
100
AcDbEntity
  8
0
  6
Continuous
 62
     7
 48
0.2
100
AcDbLine
 10
380.3334959999998
 20
191.9543459999999
 30
0.0
 11
380.3334959999998
 21
183.9543459999999
 31
0.0
  0
LINE
  5
4F51
330
A
100
AcDbEntity
  8
0
  6
Continuous
 62
     7
 48
0.2875
100
AcDbLine
 10
380.3334959999998
 20
183.9543459999999
 30
0.0
 11
392.8334959999998
 21
183.9543459999999
 31
0.0
  0
LINE
  5
4F52
330
A
100
AcDbEntity
  8
0
  6
Continuous
 62
     7
 48
0.025
100
AcDbLine
 10
392.8334959999998
 20
182.954346
 30
0.0
 11
392.8334959999998
 21
183.9543459999999
 31
0.0
  0
LINE
  5
4F54
330
A
100
AcDbEntity
  8
0
  6
Continuous
 62
     7
 48
0.2875
100
AcDbLine
 10
392.8334959999998
 20
182.9543459999999
 30
0.0
 11
380.3334959999998
 21
182.954346
 31
0.0
  0
LINE
  5
4F55
330
A
100
AcDbEntity
  8
0
  6
Continuous
 62
     7
 48
0.2
100
AcDbLine
 10
380.3334959999998
 20
182.954346
 30
0.0
 11
380.3334959999998
 21
174.9543459999999
 31
0.0
  0
LINE
  5
4F57
330
A
100
AcDbEntity
  8
0
  6
Continuous
 62
     7
 48
0.2875
100
AcDbLine
 10
380.3334959999998
 20
174.9543459999999
 30
0.0
 11
392.8334959999998
 21
174.9543459999999
 31
0.0
  0
LINE
  5
4F58
330
A
100
AcDbEntity
  8
0
  6
Continuous
 62
     7
 48
0.025
100
AcDbLine
 10
392.8334959999998
 20
173.9543459999999
 30
0.0
 11
392.8334959999998
 21
174.9543459999999
 31
0.0
  0
LINE
  5
4F5A
330
A
100
AcDbEntity
  8
0
  6
Continuous
 62
     7
 48
0.2875
100
AcDbLine
 10
392.8334959999998
 20
173.9543459999999
 30
0.0
 11
380.3334959999998
 21
173.9543459999999
 31
0.0
  0
LINE
  5
4F5B
330
A
100
AcDbEntity
  8
0
  6
Continuous
 62
     7
 48
0.2
100
AcDbLine
 10
380.3334959999998
 20
173.9543459999999
 30
0.0
 11
380.3334959999998
 21
165.9543459999999
 31
0.0
  0
LINE
  5
4F5D
330
A
100
AcDbEntity
  8
0
  6
Continuous
 62
     7
 48
0.2875
100
AcDbLine
 10
380.3334959999998
 20
165.9543459999999
 30
0.0
 11
392.8334959999998
 21
165.9543459999999
 31
0.0
  0
LINE
  5
4F5E
330
A
100
AcDbEntity
  8
0
  6
Continuous
 62
     7
 48
0.025
100
AcDbLine
 10
392.8334959999998
 20
164.9543459999998
 30
0.0
 11
392.8334959999998
 21
165.9543459999999
 31
0.0
  0
LINE
  5
4F60
330
A
100
AcDbEntity
  8
0
  6
Continuous
 62
     7
 48
0.2875
100
AcDbLine
 10
392.8334959999998
 20
164.9543459999994
 30
0.0
 11
380.3334959999998
 21
164.9543459999998
 31
0.0
  0
LINE
  5
4F61
330
A
100
AcDbEntity
  8
0
  6
Continuous
 62
     7
 48
0.2
100
AcDbLine
 10
380.3334959999998
 20
164.9543459999998
 30
0.0
 11
380.3334959999998
 21
156.954346
 31
0.0
  0
LINE
  5
4F63
330
A
100
AcDbEntity
  8
0
  6
Continuous
 62
     7
 48
0.2875
100
AcDbLine
 10
392.8334959999998
 20
156.954346
 30
0.0
 11
380.3334959999998
 21
156.954346
 31
0.0
  0
LINE
  5
4F64
330
A
100
AcDbEntity
  8
0
  6
Continuous
 62
     7
 48
0.05
100
AcDbLine
 10
392.8334959999998
 20
154.9543459999999
 30
0.0
 11
392.8334959999998
 21
156.954346
 31
0.0
  0
ARC
  5
4F67
330
A
100
AcDbEntity
  8
0
  6
Continuous
 62
     7
100
AcDbCircle
 10
306.233521
 20
151.9543459999999
 30
0.0
 40
3.0
100
AcDbArc
 50
180.000005
 51
270.000001
  0
ARC
  5
4F69
330
A
100
AcDbEntity
  8
0
  6
Continuous
 62
     7
100
AcDbCircle
 10
306.233521
 20
241.9543459999999
 30
0.0
 40
3.0
100
AcDbArc
 50
90.00000300000001
 51
180.000005
  0
LINE
  5
4F6B
330
A
100
AcDbEntity
  8
0
  6
Continuous
 62
     7
100
AcDbLine
 10
306.2335208429203
 20
244.9543459999999
 30
0.0
 11
396.2335209999998
 21
244.954346
 31
0.0
  0
ARC
  5
4F6C
330
A
100
AcDbEntity
  8
0
  6
Continuous
 62
     7
100
AcDbCircle
 10
396.2335209999998
 20
241.9543459999999
 30
0.0
 40
3.0
100
AcDbArc
 50
0.00001
 51
89.99999200000003
  0
LINE
  5
4F6D
330
A
100
AcDbEntity
  8
0
  6
Continuous
 62
     7
100
AcDbLine
 10
399.233521
 20
151.9543459999999
 30
0.0
 11
399.233521
 21
241.9543459999999
 31
0.0
  0
ARC
  5
4F6E
330
A
100
AcDbEntity
  8
0
  6
Continuous
 62
     7
100
AcDbCircle
 10
396.2335209999998
 20
151.9543459999999
 30
0.0
 40
3.0
100
AcDbArc
 50
270.000001
 51
0.00001
  0
ARC
  5
4F6F
330
A
100
AcDbEntity
  8
0
  6
Continuous
 62
     7
100
AcDbCircle
 10
395.157837
 20
240.871918
 30
0.0
 40
0.995728
100
AcDbArc
 50
0.123346
 51
90.60437900000001
  0
ARC
  5
4F70
330
A
100
AcDbEntity
  8
0
  6
Continuous
 62
     7
100
AcDbCircle
 10
395.7335819999998
 20
241.4544069999999
 30
0.0
 40
0.999943
100
AcDbArc
 50
359.9990099999998
 51
90.00100000000001
  0
ARC
  5
4F71
330
A
100
AcDbEntity
  8
0
  6
Continuous
 62
     7
100
AcDbCircle
 10
395.7335819999998
 20
152.4542999999999
 30
0.0
 40
0.999943
100
AcDbArc
 50
269.999007
 51
0.000996
  0
ARC
  5
4F72
330
A
100
AcDbEntity
  8
0
  6
Continuous
 62
     7
100
AcDbCircle
 10
306.7334589999997
 20
241.4544069999999
 30
0.0
 40
0.999943
100
AcDbArc
 50
89.999005
 51
180.000989
  0
ARC
  5
4F73
330
A
100
AcDbEntity
  8
0
  6
Continuous
 62
     7
100
AcDbCircle
 10
306.7334589999997
 20
152.4542999999999
 30
0.0
 40
0.999943
100
AcDbArc
 50
179.999008
 51
270.0009839999998
  0
ARC
  5
4F74
330
A
100
AcDbEntity
  8
0
  6
Continuous
 62
     7
100
AcDbCircle
 10
307.309204
 20
240.871918
 30
0.0
 40
0.995728
100
AcDbArc
 50
89.39562
 51
179.876652
  0
ARC
  5
4F75
330
A
100
AcDbEntity
  8
0
  6
Continuous
 62
     7
100
AcDbCircle
 10
307.309204
 20
153.0367889999999
 30
0.0
 40
0.995728
100
AcDbArc
 50
180.123348
 51
270.6043799999999
  0
ARC
  5
4F76
330
A
100
AcDbEntity
  8
0
  6
Continuous
 62
     7
100
AcDbCircle
 10
395.157837
 20
153.0367889999999
 30
0.0
 40
0.995728
100
AcDbArc
 50
269.395621
 51
359.8766529999998
  0
LINE
  5
4F78
330
A
100
AcDbEntity
  8
0
  6
Continuous
 62
     7
 48
0.205
100
AcDbLine
 10
332.7335209999998
 20
237.9543459999998
 30
0.0
 11
342.9335019999998
 21
237.9543459999998
 31
0.0
  0
LINE
  5
4F7A
330
A
100
AcDbEntity
  8
0
  6
Continuous
 62
     7
 48
0.255
100
AcDbLine
 10
342.9335019999998
 20
236.954346
 30
0.0
 11
332.733521
 21
236.954346
 31
0.0
  0
CIRCLE
  5
4F7B
330
A
100
AcDbEntity
  8
0
  6
Continuous
 62
     7
100
AcDbCircle
 10
337.8334959999999
 20
232.954346
 30
0.0
 40
3.0
  0
LINE
  5
4F7E
330
A
100
AcDbEntity
  8
0
  6
Continuous
 62
     7
 48
0.205
100
AcDbLine
 10
332.733521
 20
228.9543459999999
 30
0.0
 11
342.9335019999998
 21
228.9543459999999
 31
0.0
  0
LINE
  5
4F80
330
A
100
AcDbEntity
  8
0
  6
Continuous
 62
     7
 48
0.205
100
AcDbLine
 10
342.9335019999998
 20
227.9543459999999
 30
0.0
 11
332.733521
 21
227.9543459999999
 31
0.0
  0
CIRCLE
  5
4F82
330
A
100
AcDbEntity
  8
0
  6
Continuous
 62
     7
100
AcDbCircle
 10
337.8334959999999
 20
223.9543459999999
 30
0.0
 40
3.0
  0
LINE
  5
4F84
330
A
100
AcDbEntity
  8
0
  6
Continuous
 62
     7
 48
0.205
100
AcDbLine
 10
332.733521
 20
219.954346
 30
0.0
 11
342.9335019999998
 21
219.954346
 31
0.0
  0
LINE
  5
4F88
330
A
100
AcDbEntity
  8
0
  6
Continuous
 62
     7
 48
0.205
100
AcDbLine
 10
342.9335019999998
 20
218.9543459999999
 30
0.0
 11
332.733521
 21
218.9543459999999
 31
0.0
  0
CIRCLE
  5
4F89
330
A
100
AcDbEntity
  8
0
  6
Continuous
 62
     7
100
AcDbCircle
 10
337.8334959999999
 20
214.9543459999999
 30
0.0
 40
3.0
  0
LINE
  5
4F8C
330
A
100
AcDbEntity
  8
0
  6
Continuous
 62
     7
 48
0.205
100
AcDbLine
 10
332.733521
 20
210.9543459999998
 30
0.0
 11
342.9335019999998
 21
210.9543459999999
 31
0.0
  0
LINE
  5
4F8E
330
A
100
AcDbEntity
  8
0
  6
Continuous
 62
     7
 48
0.205
100
AcDbLine
 10
342.9335019999998
 20
209.954346
 30
0.0
 11
332.733521
 21
209.954346
 31
0.0
  0
CIRCLE
  5
4F90
330
A
100
AcDbEntity
  8
0
  6
Continuous
 62
     7
100
AcDbCircle
 10
337.8334959999999
 20
205.9543459999999
 30
0.0
 40
3.0
  0
LINE
  5
4F92
330
A
100
AcDbEntity
  8
0
  6
Continuous
 62
     7
 48
0.205
100
AcDbLine
 10
332.733521
 20
201.9543459999999
 30
0.0
 11
342.9335019999998
 21
201.9543459999999
 31
0.0
  0
LINE
  5
4F96
330
A
100
AcDbEntity
  8
0
  6
Continuous
 62
     7
 48
0.205
100
AcDbLine
 10
342.9335019999998
 20
200.9543459999999
 30
0.0
 11
332.733521
 21
200.9543459999999
 31
0.0
  0
CIRCLE
  5
4F97
330
A
100
AcDbEntity
  8
0
  6
Continuous
 62
     7
100
AcDbCircle
 10
337.8334959999999
 20
196.9543459999999
 30
0.0
 40
3.0
  0
LINE
  5
4F9A
330
A
100
AcDbEntity
  8
0
  6
Continuous
 62
     7
 48
0.205
100
AcDbLine
 10
332.733521
 20
192.9543459999999
 30
0.0
 11
342.9335019999998
 21
192.9543459999999
 31
0.0
  0
LINE
  5
4F9C
330
A
100
AcDbEntity
  8
0
  6
Continuous
 62
     7
 48
0.205
100
AcDbLine
 10
342.9335019999998
 20
191.9543459999999
 30
0.0
 11
332.733521
 21
191.9543459999999
 31
0.0
  0
CIRCLE
  5
4F9E
330
A
100
AcDbEntity
  8
0
  6
Continuous
 62
     7
100
AcDbCircle
 10
337.8334959999999
 20
187.9543459999999
 30
0.0
 40
3.0
  0
LINE
  5
4FA1
330
A
100
AcDbEntity
  8
0
  6
Continuous
 62
     7
 48
0.205
100
AcDbLine
 10
332.733521
 20
183.9543459999999
 30
0.0
 11
342.9335019999998
 21
183.9543459999999
 31
0.0
  0
LINE
  5
4FA3
330
A
100
AcDbEntity
  8
0
  6
Continuous
 62
     7
 48
0.205
100
AcDbLine
 10
342.9335019999998
 20
182.954346
 30
0.0
 11
332.733521
 21
182.954346
 31
0.0
  0
CIRCLE
  5
4FA5
330
A
100
AcDbEntity
  8
0
  6
Continuous
 62
     7
100
AcDbCircle
 10
337.8334959999999
 20
178.9543459999999
 30
0.0
 40
3.0
  0
CIRCLE
  5
4FA6
330
A
100
AcDbEntity
  8
0
  6
Continuous
 62
     7
100
AcDbCircle
 10
355.3334959999998
 20
178.9543459999999
 30
0.0
 40
3.0
  0
LINE
  5
4FA8
330
A
100
AcDbEntity
  8
0
  6
Continuous
 62
     7
 48
0.205
100
AcDbLine
 10
360.4335019999998
 20
182.954346
 30
0.0
 11
350.233521
 21
182.954346
 31
0.0
  0
LINE
  5
4FAC
330
A
100
AcDbEntity
  8
0
  6
Continuous
 62
     7
 48
0.205
100
AcDbLine
 10
350.233521
 20
183.9543459999999
 30
0.0
 11
360.4335019999998
 21
183.9543459999999
 31
0.0
  0
CIRCLE
  5
4FAD
330
A
100
AcDbEntity
  8
0
  6
Continuous
 62
     7
100
AcDbCircle
 10
355.3334959999998
 20
187.9543459999999
 30
0.0
 40
3.0
  0
LINE
  5
4FB0
330
A
100
AcDbEntity
  8
0
  6
Continuous
 62
     7
 48
0.205
100
AcDbLine
 10
360.4335019999998
 20
191.9543459999998
 30
0.0
 11
350.233521
 21
191.9543459999999
 31
0.0
  0
LINE
  5
4FB2
330
A
100
AcDbEntity
  8
0
  6
Continuous
 62
     7
 48
0.205
100
AcDbLine
 10
350.233521
 20
192.9543459999998
 30
0.0
 11
360.4335019999998
 21
192.9543459999999
 31
0.0
  0
CIRCLE
  5
4FB4
330
A
100
AcDbEntity
  8
0
  6
Continuous
 62
     7
100
AcDbCircle
 10
355.3334959999998
 20
196.9543459999999
 30
0.0
 40
3.0
  0
LINE
  5
4FB6
330
A
100
AcDbEntity
  8
0
  6
Continuous
 62
     7
 48
0.205
100
AcDbLine
 10
360.4335019999998
 20
200.9543459999999
 30
0.0
 11
350.233521
 21
200.9543459999998
 31
0.0
  0
LINE
  5
4FBA
330
A
100
AcDbEntity
  8
0
  6
Continuous
 62
     7
 48
0.205
100
AcDbLine
 10
350.233521
 20
201.9543459999999
 30
0.0
 11
360.4335019999998
 21
201.9543459999999
 31
0.0
  0
CIRCLE
  5
4FBB
330
A
100
AcDbEntity
  8
0
  6
Continuous
 62
     7
100
AcDbCircle
 10
355.3334959999998
 20
205.9543459999999
 30
0.0
 40
3.0
  0
LINE
  5
4FBE
330
A
100
AcDbEntity
  8
0
  6
Continuous
 62
     7
 48
0.205
100
AcDbLine
 10
360.4335019999998
 20
209.9543459999999
 30
0.0
 11
350.233521
 21
209.954346
 31
0.0
  0
LINE
  5
4FC0
330
A
100
AcDbEntity
  8
0
  6
Continuous
 62
     7
 48
0.205
100
AcDbLine
 10
350.233521
 20
210.9543459999999
 30
0.0
 11
360.4335019999998
 21
210.9543459999999
 31
0.0
  0
CIRCLE
  5
4FC2
330
A
100
AcDbEntity
  8
0
  6
Continuous
 62
     7
100
AcDbCircle
 10
355.3334959999998
 20
214.9543459999999
 30
0.0
 40
3.0
  0
LINE
  5
4FC4
330
A
100
AcDbEntity
  8
0
  6
Continuous
 62
     7
 48
0.205
100
AcDbLine
 10
360.4335019999998
 20
218.9543459999999
 30
0.0
 11
350.233521
 21
218.9543459999999
 31
0.0
  0
LINE
  5
4FC8
330
A
100
AcDbEntity
  8
0
  6
Continuous
 62
     7
 48
0.205
100
AcDbLine
 10
350.233521
 20
219.954346
 30
0.0
 11
360.4335019999998
 21
219.9543459999999
 31
0.0
  0
CIRCLE
  5
4FC9
330
A
100
AcDbEntity
  8
0
  6
Continuous
 62
     7
100
AcDbCircle
 10
355.3334959999998
 20
223.9543459999999
 30
0.0
 40
3.0
  0
LINE
  5
4FCB
330
A
100
AcDbEntity
  8
0
  6
Continuous
 62
     7
 48
0.205
100
AcDbLine
 10
360.4335019999998
 20
227.9543459999998
 30
0.0
 11
350.2335209999998
 21
227.9543459999999
 31
0.0
  0
LINE
  5
4FCF
330
A
100
AcDbEntity
  8
0
  6
Continuous
 62
     7
 48
0.205
100
AcDbLine
 10
350.2335209999998
 20
228.9543459999999
 30
0.0
 11
360.4335019999998
 21
228.9543459999999
 31
0.0
  0
CIRCLE
  5
4FD0
330
A
100
AcDbEntity
  8
0
  6
Continuous
 62
     7
100
AcDbCircle
 10
355.3334959999998
 20
232.954346
 30
0.0
 40
3.0
  0
LINE
  5
4FD1
330
A
100
AcDbEntity
  8
0
  6
Continuous
 62
     7
 48
0.255
100
AcDbLine
 10
360.4335019999998
 20
236.954346
 30
0.0
 11
350.233521
 21
236.954346
 31
0.0
  0
LINE
  5
4FD3
330
A
100
AcDbEntity
  8
0
  6
Continuous
 62
     7
 48
0.205
100
AcDbLine
 10
350.2335209999998
 20
237.9543459999998
 30
0.0
 11
360.4335019999998
 21
237.9543459999999
 31
0.0
  0
LINE
  5
4FD5
330
A
100
AcDbEntity
  8
0
  6
Continuous
 62
     7
100
AcDbLine
 10
360.4335019999998
 20
173.9543459999999
 30
0.0
 11
323.133514
 21
173.9543459999999
 31
0.0
  0
LINE
  5
4FD6
330
A
100
AcDbEntity
  8
0
  6
Continuous
 62
     7
 48
0.2875
100
AcDbLine
 10
379.3334959999998
 20
156.954346
 30
0.0
 11
366.8334959999998
 21
156.954346
 31
0.0
  0
LINE
  5
4FD7
330
A
100
AcDbEntity
  8
0
  6
Continuous
 62
     7
 48
0.2
100
AcDbLine
 10
379.3334959999998
 20
156.954346
 30
0.0
 11
379.3334959999998
 21
164.9543459999998
 31
0.0
  0
LINE
  5
4FD8
330
A
100
AcDbEntity
  8
0
  6
Continuous
 62
     7
 48
0.2875
100
AcDbLine
 10
379.3334959999998
 20
164.9543459999998
 30
0.0
 11
366.8334959999998
 21
164.9543459999998
 31
0.0
  0
LINE
  5
4FD9
330
A
100
AcDbEntity
  8
0
  6
Continuous
 62
     7
 48
0.2875
100
AcDbLine
 10
366.8334959999998
 20
165.9543459999999
 30
0.0
 11
379.3334959999998
 21
165.9543459999999
 31
0.0
  0
LINE
  5
4FE8
330
A
100
AcDbEntity
  8
0
  6
Continuous
 62
     7
 48
0.2
100
AcDbLine
 10
379.3334959999998
 20
165.9543459999999
 30
0.0
 11
379.3334959999998
 21
237.9543459999999
 31
0.0
  0
LINE
  5
4FEA
330
A
100
AcDbEntity
  8
0
  6
Continuous
 62
     7
 48
0.2875
100
AcDbLine
 10
366.8334959999998
 20
237.9543459999998
 30
0.0
 11
379.3334959999998
 21
237.9543459999999
 31
0.0
  0
LINE
  5
4FED
330
A
100
AcDbEntity
  8
0
  6
Continuous
 62
     7
 48
0.3125
100
AcDbLine
 10
379.3334959999998
 20
236.954346
 30
0.0
 11
366.8334959999998
 21
236.954346
 31
0.0
  0
CIRCLE
  5
4FEE
330
A
100
AcDbEntity
  8
0
  6
Continuous
 62
     7
100
AcDbCircle
 10
372.8334959999998
 20
232.954346
 30
0.0
 40
3.0
  0
LINE
  5
4FF0
330
A
100
AcDbEntity
  8
0
  6
Continuous
 62
     7
 48
0.2875
100
AcDbLine
 10
379.3334959999998
 20
228.9543459999999
 30
0.0
 11
366.8334959999998
 21
228.9543459999999
 31
0.0
  0
LINE
  5
4FF2
330
A
100
AcDbEntity
  8
0
  6
Continuous
 62
     7
 48
0.2875
100
AcDbLine
 10
379.3334959999998
 20
227.9543459999999
 30
0.0
 11
366.8334959999998
 21
227.9543459999999
 31
0.0
  0
CIRCLE
  5
4FF3
330
A
100
AcDbEntity
  8
0
  6
Continuous
 62
     7
100
AcDbCircle
 10
372.8334959999998
 20
223.9543459999999
 30
0.0
 40
3.0
  0
LINE
  5
4FF5
330
A
100
AcDbEntity
  8
0
  6
Continuous
 62
     7
 48
0.2875
100
AcDbLine
 10
379.3334959999998
 20
219.954346
 30
0.0
 11
366.8334959999998
 21
219.9543459999999
 31
0.0
  0
LINE
  5
4FF7
330
A
100
AcDbEntity
  8
0
  6
Continuous
 62
     7
 48
0.2875
100
AcDbLine
 10
379.3334959999998
 20
218.9543459999999
 30
0.0
 11
366.8334959999998
 21
218.9543459999999
 31
0.0
  0
CIRCLE
  5
4FF8
330
A
100
AcDbEntity
  8
0
  6
Continuous
 62
     7
100
AcDbCircle
 10
372.8334959999998
 20
214.9543459999999
 30
0.0
 40
3.0
  0
LINE
  5
4FFA
330
A
100
AcDbEntity
  8
0
  6
Continuous
 62
     7
 48
0.2875
100
AcDbLine
 10
379.3334959999998
 20
210.9543459999999
 30
0.0
 11
366.8334959999998
 21
210.9543459999998
 31
0.0
  0
LINE
  5
4FFC
330
A
100
AcDbEntity
  8
0
  6
Continuous
 62
     7
 48
0.2875
100
AcDbLine
 10
379.3334959999998
 20
209.954346
 30
0.0
 11
366.8334959999998
 21
209.9543459999999
 31
0.0
  0
CIRCLE
  5
4FFD
330
A
100
AcDbEntity
  8
0
  6
Continuous
 62
     7
100
AcDbCircle
 10
372.8334959999998
 20
205.9543459999999
 30
0.0
 40
3.0
  0
LINE
  5
4FFF
330
A
100
AcDbEntity
  8
0
  6
Continuous
 62
     7
 48
0.2875
100
AcDbLine
 10
379.3334959999998
 20
201.9543459999999
 30
0.0
 11
366.8334959999998
 21
201.9543459999999
 31
0.0
  0
LINE
  5
5001
330
A
100
AcDbEntity
  8
0
  6
Continuous
 62
     7
 48
0.2875
100
AcDbLine
 10
379.3334959999998
 20
200.9543459999999
 30
0.0
 11
366.8334959999998
 21
200.9543459999999
 31
0.0
  0
CIRCLE
  5
5002
330
A
100
AcDbEntity
  8
0
  6
Continuous
 62
     7
100
AcDbCircle
 10
372.8334959999998
 20
196.9543459999999
 30
0.0
 40
3.0
  0
LINE
  5
5004
330
A
100
AcDbEntity
  8
0
  6
Continuous
 62
     7
 48
0.2875
100
AcDbLine
 10
379.3334959999998
 20
192.9543459999999
 30
0.0
 11
366.8334959999998
 21
192.9543459999999
 31
0.0
  0
LINE
  5
5006
330
A
100
AcDbEntity
  8
0
  6
Continuous
 62
     7
 48
0.2875
100
AcDbLine
 10
379.3334959999998
 20
191.9543459999999
 30
0.0
 11
366.8334959999998
 21
191.9543459999999
 31
0.0
  0
CIRCLE
  5
5007
330
A
100
AcDbEntity
  8
0
  6
Continuous
 62
     7
100
AcDbCircle
 10
372.8334959999998
 20
187.9543459999999
 30
0.0
 40
3.0
  0
LINE
  5
5009
330
A
100
AcDbEntity
  8
0
  6
Continuous
 62
     7
 48
0.2875
100
AcDbLine
 10
379.3334959999998
 20
183.9543459999999
 30
0.0
 11
366.8334959999998
 21
183.9543459999999
 31
0.0
  0
LINE
  5
500B
330
A
100
AcDbEntity
  8
0
  6
Continuous
 62
     7
 48
0.2875
100
AcDbLine
 10
379.3334959999998
 20
182.954346
 30
0.0
 11
366.8334959999998
 21
182.9543459999999
 31
0.0
  0
CIRCLE
  5
500C
330
A
100
AcDbEntity
  8
0
  6
Continuous
 62
     7
100
AcDbCircle
 10
372.8334959999998
 20
178.9543459999999
 30
0.0
 40
3.0
  0
LINE
  5
500E
330
A
100
AcDbEntity
  8
0
  6
Continuous
 62
     7
 48
0.2875
100
AcDbLine
 10
379.3334959999998
 20
174.9543459999999
 30
0.0
 11
366.8334959999998
 21
174.9543459999999
 31
0.0
  0
LINE
  5
5010
330
A
100
AcDbEntity
  8
0
  6
Continuous
 62
     7
 48
0.2875
100
AcDbLine
 10
379.3334959999998
 20
173.9543459999999
 30
0.0
 11
366.8334959999998
 21
173.9543459999999
 31
0.0
  0
CIRCLE
  5
5011
330
A
100
AcDbEntity
  8
0
  6
Continuous
 62
     7
100
AcDbCircle
 10
372.8334959999998
 20
169.9543459999999
 30
0.0
 40
3.0
  0
CIRCLE
  5
5014
330
A
100
AcDbEntity
  8
0
  6
Continuous
 62
     7
100
AcDbCircle
 10
372.8334959999998
 20
160.9543459999999
 30
0.0
 40
3.0
  0
LINE
  5
5044
330
A
100
AcDbEntity
  8
0
  6
Continuous
 62
     7
100
AcDbLine
 10
306.2335210523599
 20
148.9543459999999
 30
0.0
 11
396.2335209999998
 21
148.9543459999999
 31
0.0
  0
LINE
  5
5047
330
A
100
AcDbEntity
  8
0
  6
Continuous
 62
     7
100
AcDbLine
 10
303.2335209999998
 20
151.9543459999999
 30
0.0
 11
303.2335209999998
 21
241.9543457382004
 31
0.0
  0
ARC
  5
504A
330
A
100
AcDbEntity
  8
0
  6
Continuous
 62
     7
100
AcDbCircle
 10
396.2335209999998
 20
151.9543459999999
 30
0.0
 40
3.0
100
AcDbArc
 50
270.000001
 51
0.00001
  0
LINE
  5
63C7
330
A
100
AcDbEntity
  8
0
  6
DASHED
 62
     4
100
AcDbLine
 10
260.365906
 20
240.9554899999999
 30
0.0
 11
260.365906
 21
238.9554899999999
 31
0.0
  0
LINE
  5
63C8
330
A
100
AcDbEntity
  8
0
  6
DASHED
 62
     4
100
AcDbLine
 10
260.365906
 20
152.9554899999999
 30
0.0
 11
260.365906
 21
154.9543459999999
 31
0.0
  0
ENDSEC
  0
SECTION
  2
OBJECTS
  0
DICTIONARY
  5
19
330
0
100
AcDbDictionary
281
     1
  3
ACAD_GROUP
350
1A
  3
ACAD_LAYOUT
350
635A
  3
ACAD_MLINESTYLE
350
1B
  3
ACAD_PLOTSETTINGS
350
635B
  3
ACAD_PLOTSTYLENAME
350
6358
  0
DICTIONARY
  5
1A
102
{ACAD_REACTORS
330
19
102
}
330
19
100
AcDbDictionary
281
     1
  0
DICTIONARY
  5
635A
102
{ACAD_REACTORS
330
19
102
}
330
19
100
AcDbDictionary
281
     1
  3
Model
350
635C
  3
ﾚｲｱｳﾄ1
350
63B1
  0
DICTIONARY
  5
1B
102
{ACAD_REACTORS
330
19
102
}
330
19
100
AcDbDictionary
281
     1
  3
STANDARD
350
1C
  0
DICTIONARY
  5
635B
102
{ACAD_REACTORS
330
19
102
}
330
19
100
AcDbDictionary
281
     1
  0
ACDBDICTIONARYWDFLT
  5
6358
102
{ACAD_REACTORS
330
19
102
}
330
19
100
AcDbDictionary
281
     1
  3
Normal
350
6359
100
AcDbDictionaryWithDefault
340
6359
  0
LAYOUT
  5
635C
102
{ACAD_REACTORS
330
635A
102
}
330
635A
100
AcDbPlotSettings
  1

  2
Canon iR-ADV C5030/5035 LIPSLX
  4

  6

 40
0.0
 41
0.0
 42
0.0
 43
0.0
 44
0.0
 45
0.0
 46
0.0
 47
0.0
 48
0.0
 49
0.0
140
0.0
141
0.0
142
1.0
143
1.0
 70
  1712
 72
     0
 73
     0
 74
     0
  7

 75
     0
147
1.0
148
0.0
149
0.0
100
AcDbLayout
  1
Model
 70
     1
 71
     0
 10
0.0
 20
0.0
 11
12.0
 21
9.0
 12
0.0
 22
0.0
 32
0.0
 14
0.0
 24
0.0
 34
0.0
 15
0.0
 25
0.0
 35
0.0
146
0.0
 13
0.0
 23
0.0
 33
0.0
 16
1.0
 26
0.0
 36
0.0
 17
0.0
 27
1.0
 37
0.0
 76
     0
330
A
  0
LAYOUT
  5
63B1
102
{ACAD_REACTORS
330
635A
102
}
330
635A
100
AcDbPlotSettings
  1

  2
A2 Printer TG2 RPCS
  4

  6

 40
0.0
 41
0.0
 42
0.0
 43
0.0
 44
0.0
 45
0.0
 46
0.0
 47
0.0
 48
0.0
 49
0.0
140
0.0
141
0.0
142
1.0
143
1.0
 70
   688
 72
     0
 73
     0
 74
     5
  7

 75
    16
147
1.0
148
0.0
149
0.0
100
AcDbLayout
  1
ﾚｲｱｳﾄ1
 70
     1
 71
     1
 10
0.0
 20
0.0
 11
12.0
 21
9.0
 12
0.0
 22
0.0
 32
0.0
 14
0.0
 24
0.0
 34
0.0
 15
0.0
 25
0.0
 35
0.0
146
0.0
 13
0.0
 23
0.0
 33
0.0
 16
1.0
 26
0.0
 36
0.0
 17
0.0
 27
1.0
 37
0.0
 76
     0
330
63B0
  0
MLINESTYLE
  5
1C
102
{ACAD_REACTORS
330
1B
102
}
330
1B
100
AcDbMlineStyle
  2
STANDARD
 70
     0
  3

 62
     0
 51
90.0
 52
90.0
 71
     2
 49
0.5
 62
   256
  6
BYLAYER
 49
-0.5
 62
   256
  6
BYLAYER
  0
ACDBPLACEHOLDER
  5
6359
102
{ACAD_REACTORS
330
6358
102
}
330
6358
  0
ENDSEC
  0
EOF
