  0
SECTION
  2
HEADER
  9
$ACADVER
  1
AC1015
  9
$ACADMAINTVER
 70
    10
  9
$DWGCODEPAGE
  3
ANSI_932
  9
$INSBASE
 10
0.0
 20
0.0
 30
0.0
  9
$EXTMIN
 10
27.02918458688408
 20
147.4648615982731
 30
0.0
  9
$EXTMAX
 10
399.6029795210116
 20
244.7075023990956
 30
0.0
  9
$LIMMIN
 10
0.0
 20
0.0
  9
$LIMMAX
 10
420.0
 20
297.0
  9
$ORTHOMODE
 70
     1
  9
$REGENMODE
 70
     1
  9
$FILLMODE
 70
     1
  9
$QTEXTMODE
 70
     0
  9
$MIRRTEXT
 70
     1
  9
$LTSCALE
 40
1.0
  9
$ATTMODE
 70
     1
  9
$TEXTSIZE
 40
0.0
  9
$TRACEWID
 40
1.0
  9
$TEXTSTYLE
  7
STANDARD
  9
$CLAYER
  8
0
  9
$CELTYPE
  6
CONTINUOUS
  9
$CECOLOR
 62
     7
  9
$CELTSCALE
 40
1.0
  9
$DISPSILH
 70
     0
  9
$DIMSCALE
 40
1.0
  9
$DIMASZ
 40
2.5
  9
$DIMEXO
 40
0.625
  9
$DIMDLI
 40
3.75
  9
$DIMRND
 40
0.0
  9
$DIMDLE
 40
0.0
  9
$DIMEXE
 40
1.25
  9
$DIMTP
 40
0.0
  9
$DIMTM
 40
0.0
  9
$DIMTXT
 40
2.5
  9
$DIMCEN
 40
2.5
  9
$DIMTSZ
 40
0.0
  9
$DIMTOL
 70
     0
  9
$DIMLIM
 70
     0
  9
$DIMTIH
 70
     0
  9
$DIMTOH
 70
     0
  9
$DIMSE1
 70
     0
  9
$DIMSE2
 70
     0
  9
$DIMTAD
 70
     1
  9
$DIMZIN
 70
     8
  9
$DIMBLK
  1

  9
$DIMASO
 70
     1
  9
$DIMSHO
 70
     1
  9
$DIMPOST
  1

  9
$DIMAPOST
  1

  9
$DIMALT
 70
     0
  9
$DIMALTD
 70
     3
  9
$DIMALTF
 40
0.03937
  9
$DIMLFAC
 40
1.0
  9
$DIMTOFL
 70
     1
  9
$DIMTVP
 40
0.0
  9
$DIMTIX
 70
     0
  9
$DIMSOXD
 70
     0
  9
$DIMSAH
 70
     0
  9
$DIMBLK1
  1

  9
$DIMBLK2
  1

  9
$DIMSTYLE
  2
STANDARD
  9
$DIMCLRD
 70
     0
  9
$DIMCLRE
 70
     0
  9
$DIMCLRT
 70
     0
  9
$DIMTFAC
 40
1.0
  9
$DIMGAP
 40
0.625
  9
$DIMJUST
 70
     0
  9
$DIMSD1
 70
     0
  9
$DIMSD2
 70
     0
  9
$DIMTOLJ
 70
     0
  9
$DIMTZIN
 70
     8
  9
$DIMALTZ
 70
     0
  9
$DIMALTTZ
 70
     0
  9
$DIMUPT
 70
     0
  9
$DIMDEC
 70
     2
  9
$DIMTDEC
 70
     2
  9
$DIMALTU
 70
     2
  9
$DIMALTTD
 70
     3
  9
$DIMTXSTY
  7
STANDARD
  9
$DIMAUNIT
 70
     0
  9
$DIMADEC
 70
     0
  9
$DIMALTRND
 40
0.0
  9
$DIMAZIN
 70
     0
  9
$DIMDSEP
 70
    46
  9
$DIMATFIT
 70
     3
  9
$DIMFRAC
 70
     0
  9
$DIMLDRBLK
  1

  9
$DIMLUNIT
 70
     2
  9
$DIMLWD
 70
    -2
  9
$DIMLWE
 70
    -2
  9
$DIMTMOVE
 70
     0
  9
$LUNITS
 70
     2
  9
$LUPREC
 70
     4
  9
$SKETCHINC
 40
1.0
  9
$FILLETRAD
 40
2.5
  9
$AUNITS
 70
     0
  9
$AUPREC
 70
     0
  9
$MENU
  1
.
  9
$ELEVATION
 40
0.0
  9
$PELEVATION
 40
0.0
  9
$THICKNESS
 40
0.0
  9
$LIMCHECK
 70
     0
  9
$CHAMFERA
 40
2.5
  9
$CHAMFERB
 40
2.5
  9
$CHAMFERC
 40
0.0
  9
$CHAMFERD
 40
0.0
  9
$SKPOLY
 70
     0
  9
$TDCREATE
 40
2312275.082420717
  9
$TDUCREATE
 40
2312274.707420717
  9
$TDUPDATE
 40
2456486.396521979
  9
$TDUUPDATE
 40
2456486.021521979
  9
$TDINDWG
 40
0.1039577778
  9
$TDUSRTIMER
 40
0.1039550926
  9
$USRTIMER
 70
     1
  9
$ANGBASE
 50
0.0
  9
$ANGDIR
 70
     0
  9
$PDMODE
 70
     0
  9
$PDSIZE
 40
0.0
  9
$PLINEWID
 40
0.0
  9
$SPLFRAME
 70
     0
  9
$SPLINETYPE
 70
     6
  9
$SPLINESEGS
 70
     8
  9
$HANDSEED
  5
615C
  9
$SURFTAB1
 70
     6
  9
$SURFTAB2
 70
     6
  9
$SURFTYPE
 70
     6
  9
$SURFU
 70
     6
  9
$SURFV
 70
     6
  9
$UCSBASE
  2

  9
$UCSNAME
  2

  9
$UCSORG
 10
0.0
 20
0.0
 30
0.0
  9
$UCSXDIR
 10
1.0
 20
0.0
 30
0.0
  9
$UCSYDIR
 10
0.0
 20
1.0
 30
0.0
  9
$UCSORTHOREF
  2

  9
$UCSORTHOVIEW
 70
     0
  9
$UCSORGTOP
 10
0.0
 20
0.0
 30
0.0
  9
$UCSORGBOTTOM
 10
0.0
 20
0.0
 30
0.0
  9
$UCSORGLEFT
 10
0.0
 20
0.0
 30
0.0
  9
$UCSORGRIGHT
 10
0.0
 20
0.0
 30
0.0
  9
$UCSORGFRONT
 10
0.0
 20
0.0
 30
0.0
  9
$UCSORGBACK
 10
0.0
 20
0.0
 30
0.0
  9
$PUCSBASE
  2

  9
$PUCSNAME
  2

  9
$PUCSORG
 10
0.0
 20
0.0
 30
0.0
  9
$PUCSXDIR
 10
1.0
 20
0.0
 30
0.0
  9
$PUCSYDIR
 10
0.0
 20
1.0
 30
0.0
  9
$PUCSORTHOREF
  2

  9
$PUCSORTHOVIEW
 70
     0
  9
$PUCSORGTOP
 10
0.0
 20
0.0
 30
0.0
  9
$PUCSORGBOTTOM
 10
0.0
 20
0.0
 30
0.0
  9
$PUCSORGLEFT
 10
0.0
 20
0.0
 30
0.0
  9
$PUCSORGRIGHT
 10
0.0
 20
0.0
 30
0.0
  9
$PUCSORGFRONT
 10
0.0
 20
0.0
 30
0.0
  9
$PUCSORGBACK
 10
0.0
 20
0.0
 30
0.0
  9
$USERI1
 70
     0
  9
$USERI2
 70
     0
  9
$USERI3
 70
     0
  9
$USERI4
 70
     0
  9
$USERI5
 70
     0
  9
$USERR1
 40
0.0
  9
$USERR2
 40
0.0
  9
$USERR3
 40
0.0
  9
$USERR4
 40
0.0
  9
$USERR5
 40
0.0
  9
$WORLDVIEW
 70
     1
  9
$SHADEDGE
 70
     3
  9
$SHADEDIF
 70
    70
  9
$TILEMODE
 70
     1
  9
$MAXACTVP
 70
    48
  9
$PINSBASE
 10
0.0
 20
0.0
 30
0.0
  9
$PLIMCHECK
 70
     0
  9
$PEXTMIN
 10
0.0
 20
0.0
 30
0.0
  9
$PEXTMAX
 10
401.4999999999998
 20
275.0
 30
2.0
  9
$PLIMMIN
 10
0.0
 20
0.0
  9
$PLIMMAX
 10
420.0
 20
297.0
  9
$UNITMODE
 70
     0
  9
$VISRETAIN
 70
     0
  9
$PLINEGEN
 70
     0
  9
$PSLTSCALE
 70
     1
  9
$TREEDEPTH
 70
  3020
  9
$CMLSTYLE
  2
STANDARD
  9
$CMLJUST
 70
     0
  9
$CMLSCALE
 40
20.0
  9
$PROXYGRAPHICS
 70
     1
  9
$MEASUREMENT
 70
     1
  9
$CELWEIGHT
370
    -1
  9
$ENDCAPS
280
     0
  9
$JOINSTYLE
280
     0
  9
$LWDISPLAY
290
     0
  9
$INSUNITS
 70
     0
  9
$HYPERLINKBASE
  1

  9
$STYLESHEET
  1

  9
$XEDIT
290
     1
  9
$CEPSNTYPE
380
     0
  9
$PSTYLEMODE
290
     1
  9
$FINGERPRINTGUID
  2
{611AE204-ADA0-4DDD-8448-7D06B910F5D6}
  9
$VERSIONGUID
  2
{5D04CC54-B19F-4320-B4AB-1398059F760A}
  9
$EXTNAMES
290
     1
  9
$PSVPSCALE
 40
0.0
  9
$OLESTARTUP
290
     0
  0
ENDSEC
  0
SECTION
  2
CLASSES
  0
CLASS
  1
LWPOLYLINE
  2
AcDbPolyline
  3
AutoCAD 2000
 90
    32768
280
     0
281
     1
  0
CLASS
  1
IMAGE
  2
AcDbRasterImage
  3
ISM
 90
    32895
280
     0
281
     1
  0
CLASS
  1
OLE2FRAME
  2
AcDbOle2Frame
  3
AutoCAD 2000
 90
    32768
280
     0
281
     1
  0
CLASS
  1
HATCH
  2
AcDbHatch
  3
AutoCAD 2000
 90
    32768
280
     0
281
     1
  0
CLASS
  1
DICTIONARYVAR
  2
AcDbDictionaryVar
  3
AutoCAD 2000
 90
    32768
280
     0
281
     0
  0
CLASS
  1
RASTERVARIABLES
  2
AcDbRasterVariables
  3
ISM
 90
    32768
280
     0
281
     0
  0
CLASS
  1
IMAGEDEF
  2
AcDbRasterImageDef
  3
ISM
 90
    32768
280
     0
281
     0
  0
CLASS
  1
IMAGEDEF_REACTOR
  2
AcDbRasterImageDefReactor
  3
ISM
 90
    32769
280
     0
281
     0
  0
CLASS
  1
IDBUFFER
  2
AcDbIdBuffer
  3
AutoCAD 2000
 90
    32768
280
     0
281
     0
  0
CLASS
  1
SPATIAL_FILTER
  2
AcDbSpatialFilter
  3
AutoCAD 2000
 90
    32768
280
     0
281
     0
  0
CLASS
  1
XRECORD
  2
AcDbXrecord
  3
AutoCAD 2000
 90
    32768
280
     0
281
     0
  0
CLASS
  1
SORTENTSTABLE
  2
AcDbSortentsTable
  3
AutoCAD 2000
 90
    32768
280
     0
281
     0
  0
CLASS
  1
LAYER_INDEX
  2
AcDbLayerIndex
  3
AutoCAD 2000
 90
    32768
280
     0
281
     0
  0
CLASS
  1
SPATIAL_INDEX
  2
AcDbSpatialIndex
  3
AutoCAD 2000
 90
    32768
280
     0
281
     0
  0
CLASS
  1
OBJECT_PTR
  2
CAseDLPNTableRecord
  3
"ASE-LPNTableRecord"
 90
    32769
280
     0
281
     0
  0
CLASS
  1
LAYOUT
  2
AcDbLayout
  3
AutoCAD 2000
 90
        0
280
     0
281
     0
  0
CLASS
  1
PLOTSETTINGS
  2
AcDbPlotSettings
  3
AutoCAD 2000
 90
    32768
280
     0
281
     0
  0
CLASS
  1
ACDBDICTIONARYWDFLT
  2
AcDbDictionaryWithDefault
  3
AutoCAD 2000
 90
        0
280
     0
281
     0
  0
CLASS
  1
ACDBPLACEHOLDER
  2
AcDbPlaceHolder
  3
AutoCAD 2000
 90
        0
280
     0
281
     0
  0
CLASS
  1
VBA_PROJECT
  2
AcDbVbaProject
  3
"acadvba"
 90
    32768
280
     0
281
     0
  0
CLASS
  1
WIPEOUT
  2
AcDbWipeout
  3
WipeOut|AutoCAD Express Tool|expresstools@autodesk.com
 90
    32895
280
     0
281
     1
  0
CLASS
  1
WIPEOUTVARIABLES
  2
AcDbWipeoutVariables
  3
WipeOut|AutoCAD Express Tool|expresstools@autodesk.com
 90
    32768
280
     0
281
     0
  0
CLASS
  1
RTEXT
  2
RText
  3
RText|AutoCAD Express Tool|expresstools@autodesk.com
 90
    32768
280
     0
281
     1
  0
CLASS
  1
ARCALIGNEDTEXT
  2
AcDbArcAlignedText
  3
ATEXT|AutoCAD Express Tool|expresstools@autodesk.com
 90
    32768
280
     0
281
     1
  0
ENDSEC
  0
SECTION
  2
TABLES
  0
TABLE
  2
VPORT
  5
7
330
0
100
AcDbSymbolTable
 70
     2
  0
VPORT
  5
615B
330
7
100
AcDbSymbolTableRecord
100
AcDbViewportTableRecord
  2
*Active
 70
     0
 10
0.0
 20
0.0
 11
1.0
 21
1.0
 12
222.1118011593795
 22
189.1042847858556
 13
0.0
 23
0.0
 14
1.0
 24
1.0
 15
0.0
 25
0.0
 16
0.0
 26
0.0
 36
1.0
 17
0.0
 27
0.0
 37
0.0
 40
237.1063527962798
 41
1.781954887218045
 42
50.0
 43
0.0
 44
0.0
 50
0.0
 51
0.0
 71
     0
 72
   100
 73
     1
 74
     1
 75
     0
 76
     1
 77
     0
 78
     0
281
     0
 65
     1
110
0.0
120
0.0
130
0.0
111
1.0
121
0.0
131
0.0
112
0.0
122
1.0
132
0.0
 79
     0
146
0.0
  0
ENDTAB
  0
TABLE
  2
LTYPE
  5
4
330
0
100
AcDbSymbolTable
 70
     3
  0
LTYPE
  5
11
330
4
100
AcDbSymbolTableRecord
100
AcDbLinetypeTableRecord
  2
BYBLOCK
 70
     0
  3

 72
    65
 73
     0
 40
0.0
  0
LTYPE
  5
12
330
4
100
AcDbSymbolTableRecord
100
AcDbLinetypeTableRecord
  2
BYLAYER
 70
     0
  3

 72
    65
 73
     0
 40
0.0
  0
LTYPE
  5
13
330
4
100
AcDbSymbolTableRecord
100
AcDbLinetypeTableRecord
  2
CONTINUOUS
 70
     0
  3
Solid line
 72
    65
 73
     0
 40
0.0
  0
LTYPE
  5
1D
330
4
100
AcDbSymbolTableRecord
100
AcDbLinetypeTableRecord
  2
DASHED
 70
     0
  3
__ __ __ __ __ __ __ __ __ __ __ __ __ __ __ __
 72
    65
 73
     2
 40
15.0
 49
12.0
 74
     0
 49
-3.0
 74
     0
  0
ENDTAB
  0
TABLE
  2
LAYER
  5
2
330
0
100
AcDbSymbolTable
 70
     1
  0
LAYER
  5
14
330
2
100
AcDbSymbolTableRecord
100
AcDbLayerTableRecord
  2
0
 70
     0
 62
     7
  6
CONTINUOUS
370
    -3
390
60F2
  0
ENDTAB
  0
TABLE
  2
STYLE
  5
3
330
0
100
AcDbSymbolTable
 70
     1
  0
STYLE
  5
17
330
3
100
AcDbSymbolTableRecord
100
AcDbTextStyleTableRecord
  2
STANDARD
 70
     0
 40
0.0
 41
1.0
 50
0.0
 71
     0
 42
0.0
  3
txt
  4

  0
ENDTAB
  0
TABLE
  2
VIEW
  5
5
330
0
100
AcDbSymbolTable
 70
     0
  0
ENDTAB
  0
TABLE
  2
UCS
  5
6
330
0
100
AcDbSymbolTable
 70
     0
  0
ENDTAB
  0
TABLE
  2
APPID
  5
8
330
0
100
AcDbSymbolTable
 70
     1
  0
APPID
  5
16
330
8
100
AcDbSymbolTableRecord
100
AcDbRegAppTableRecord
  2
ACAD
 70
     0
  0
ENDTAB
  0
TABLE
  2
DIMSTYLE
  5
9
330
0
100
AcDbSymbolTable
 70
     1
100
AcDbDimStyleTable
 71
     1
340
18
  0
DIMSTYLE
105
18
330
9
100
AcDbSymbolTableRecord
100
AcDbDimStyleTableRecord
  2
STANDARD
 70
     0
340
17
  0
ENDTAB
  0
TABLE
  2
BLOCK_RECORD
  5
1
330
0
100
AcDbSymbolTable
 70
     0
  0
BLOCK_RECORD
  5
A
330
1
100
AcDbSymbolTableRecord
100
AcDbBlockTableRecord
  2
*MODEL_SPACE
340
60F5
  0
BLOCK_RECORD
  5
B
330
1
100
AcDbSymbolTableRecord
100
AcDbBlockTableRecord
  2
*PAPER_SPACE
340
60F6
  0
ENDTAB
  0
ENDSEC
  0
SECTION
  2
BLOCKS
  0
BLOCK
  5
D
330
A
100
AcDbEntity
  8
0
100
AcDbBlockBegin
  2
*MODEL_SPACE
 70
     0
 10
0.0
 20
0.0
 30
0.0
  3
*MODEL_SPACE
  1

  0
ENDBLK
  5
E
330
A
100
AcDbEntity
  8
0
100
AcDbBlockEnd
  0
BLOCK
  5
F
330
B
100
AcDbEntity
 67
     1
  8
0
100
AcDbBlockBegin
  2
*PAPER_SPACE
 70
     0
 10
0.0
 20
0.0
 30
0.0
  3
*PAPER_SPACE
  1

  0
ENDBLK
  5
10
330
B
100
AcDbEntity
 67
     1
  8
0
100
AcDbBlockEnd
  0
ENDSEC
  0
SECTION
  2
ENTITIES
  0
LINE
  5
2992
330
A
100
AcDbEntity
  8
0
  6
Continuous
 62
     7
100
AcDbLine
 10
120.650505
 20
244.0861819999999
 30
0.0
 11
30.65050499999999
 21
244.0861819999999
 31
0.0
  0
LINE
  5
2993
330
A
100
AcDbEntity
  8
0
  6
Continuous
 62
     7
100
AcDbLine
 10
27.650505
 20
151.086182
 30
0.0
 11
27.650505
 21
241.086182
 31
0.0
  0
LINE
  5
299B
330
A
100
AcDbEntity
  8
0
  6
Continuous
 62
     7
 48
0.2
100
AcDbLine
 10
43.95050799999999
 20
170.786179
 30
0.0
 11
35.95050399999996
 21
170.786179
 31
0.0
  0
ARC
  5
299C
330
A
100
AcDbEntity
  8
0
  6
Continuous
 62
     7
100
AcDbCircle
 10
35.95050399999996
 20
169.786179
 30
0.0
 40
1.0
100
AcDbArc
 50
90.00000300000001
 51
180.000005
  0
LINE
  5
299D
330
A
100
AcDbEntity
  8
0
  6
Continuous
 62
     7
 48
0.175
100
AcDbLine
 10
34.95050399999998
 20
162.786179
 30
0.0
 11
34.95050399999998
 21
169.786179
 31
0.0
  0
ARC
  5
299E
330
A
100
AcDbEntity
  8
0
  6
Continuous
 62
     7
100
AcDbCircle
 10
43.95050799999999
 20
169.786179
 30
0.0
 40
1.0
100
AcDbArc
 50
0.0
 51
90.00000300000001
  0
LINE
  5
299F
330
A
100
AcDbEntity
  8
0
  6
Continuous
 62
     7
 48
0.205
100
AcDbLine
 10
44.050507
 20
161.6861719999999
 30
0.0
 11
35.850506
 21
161.6861719999999
 31
0.0
  0
LINE
  5
29A0
330
A
100
AcDbEntity
  8
0
  6
Continuous
 62
     7
 48
0.18
100
AcDbLine
 10
34.850506
 20
162.6861719999999
 30
0.0
 11
34.850506
 21
169.886169
 31
0.0
  0
LINE
  5
29A1
330
A
100
AcDbEntity
  8
0
  6
Continuous
 62
     7
 48
0.205
100
AcDbLine
 10
35.850506
 20
170.8861689999999
 30
0.0
 11
44.050507
 21
170.8861689999999
 31
0.0
  0
LINE
  5
29A2
330
A
100
AcDbEntity
  8
0
  6
Continuous
 62
     7
 48
0.18
100
AcDbLine
 10
45.050507
 20
169.886169
 30
0.0
 11
45.050507
 21
162.6861719999999
 31
0.0
  0
ARC
  5
29A3
330
A
100
AcDbEntity
  8
0
  6
Continuous
 62
     7
100
AcDbCircle
 10
107.35051
 20
162.786179
 30
0.0
 40
1.0
100
AcDbArc
 50
180.000005
 51
270.000001
  0
ARC
  5
29A4
330
A
100
AcDbEntity
  8
0
  6
Continuous
 62
     7
100
AcDbCircle
 10
115.35051
 20
169.786179
 30
0.0
 40
1.0
100
AcDbArc
 50
0.0
 51
90.00000300000001
  0
LINE
  5
29A5
330
A
100
AcDbEntity
  8
0
  6
Continuous
 62
     7
 48
0.2
100
AcDbLine
 10
115.35051
 20
170.786179
 30
0.0
 11
107.35051
 21
170.786179
 31
0.0
  0
ARC
  5
29A6
330
A
100
AcDbEntity
  8
0
  6
Continuous
 62
     7
100
AcDbCircle
 10
107.35051
 20
169.786179
 30
0.0
 40
1.0
100
AcDbArc
 50
90.00000300000001
 51
180.000005
  0
LINE
  5
29A7
330
A
100
AcDbEntity
  8
0
  6
Continuous
 62
     7
 48
0.175
100
AcDbLine
 10
106.35051
 20
162.786179
 30
0.0
 11
106.35051
 21
169.786179
 31
0.0
  0
ARC
  5
29A8
330
A
100
AcDbEntity
  8
0
  6
Continuous
 62
     7
100
AcDbCircle
 10
103.4505079999999
 20
169.786179
 30
0.0
 40
1.0
100
AcDbArc
 50
0.0
 51
90.00000300000001
  0
LINE
  5
29A9
330
A
100
AcDbEntity
  8
0
  6
Continuous
 62
     7
 48
0.2
100
AcDbLine
 10
103.4505079999999
 20
170.786179
 30
0.0
 11
95.450508
 21
170.786179
 31
0.0
  0
ARC
  5
29AA
330
A
100
AcDbEntity
  8
0
  6
Continuous
 62
     7
100
AcDbCircle
 10
95.450508
 20
169.786179
 30
0.0
 40
1.0
100
AcDbArc
 50
90.00000300000001
 51
180.000005
  0
LINE
  5
29AB
330
A
100
AcDbEntity
  8
0
  6
Continuous
 62
     7
 48
0.175
100
AcDbLine
 10
94.450508
 20
162.786179
 30
0.0
 11
94.450508
 21
169.786179
 31
0.0
  0
ARC
  5
29AC
330
A
100
AcDbEntity
  8
0
  6
Continuous
 62
     7
100
AcDbCircle
 10
83.55050699999997
 20
162.786179
 30
0.0
 40
1.0
100
AcDbArc
 50
180.000005
 51
270.000001
  0
ARC
  5
29AD
330
A
100
AcDbEntity
  8
0
  6
Continuous
 62
     7
100
AcDbCircle
 10
91.550507
 20
169.786179
 30
0.0
 40
1.0
100
AcDbArc
 50
0.0
 51
90.00000300000001
  0
LINE
  5
29AE
330
A
100
AcDbEntity
  8
0
  6
Continuous
 62
     7
 48
0.2
100
AcDbLine
 10
91.550507
 20
170.786179
 30
0.0
 11
83.55050699999997
 21
170.786179
 31
0.0
  0
ARC
  5
29AF
330
A
100
AcDbEntity
  8
0
  6
Continuous
 62
     7
100
AcDbCircle
 10
83.55050699999997
 20
169.786179
 30
0.0
 40
1.0
100
AcDbArc
 50
90.00000300000001
 51
180.000005
  0
LINE
  5
29B0
330
A
100
AcDbEntity
  8
0
  6
Continuous
 62
     7
 48
0.175
100
AcDbLine
 10
82.55050699999998
 20
162.786179
 30
0.0
 11
82.55050699999998
 21
169.786179
 31
0.0
  0
ARC
  5
29B1
330
A
100
AcDbEntity
  8
0
  6
Continuous
 62
     7
100
AcDbCircle
 10
79.65050500000002
 20
169.786179
 30
0.0
 40
1.0
100
AcDbArc
 50
0.0
 51
90.00000300000001
  0
LINE
  5
29B2
330
A
100
AcDbEntity
  8
0
  6
Continuous
 62
     7
 48
0.2
100
AcDbLine
 10
79.65050500000002
 20
170.786179
 30
0.0
 11
71.65050500000003
 21
170.786179
 31
0.0
  0
ARC
  5
29B3
330
A
100
AcDbEntity
  8
0
  6
Continuous
 62
     7
100
AcDbCircle
 10
71.65050500000003
 20
169.786179
 30
0.0
 40
1.0
100
AcDbArc
 50
90.00000300000001
 51
180.000005
  0
LINE
  5
29B4
330
A
100
AcDbEntity
  8
0
  6
Continuous
 62
     7
 48
0.175
100
AcDbLine
 10
70.65050500000002
 20
162.786179
 30
0.0
 11
70.65050500000002
 21
169.786179
 31
0.0
  0
ARC
  5
29B5
330
A
100
AcDbEntity
  8
0
  6
Continuous
 62
     7
100
AcDbCircle
 10
67.75050400000001
 20
169.786179
 30
0.0
 40
1.0
100
AcDbArc
 50
0.0
 51
90.00000300000001
  0
LINE
  5
29B6
330
A
100
AcDbEntity
  8
0
  6
Continuous
 62
     7
 48
0.2
100
AcDbLine
 10
67.75050400000001
 20
170.786179
 30
0.0
 11
59.750504
 21
170.786179
 31
0.0
  0
ARC
  5
29B7
330
A
100
AcDbEntity
  8
0
  6
Continuous
 62
     7
100
AcDbCircle
 10
59.750504
 20
169.786179
 30
0.0
 40
1.0
100
AcDbArc
 50
90.00000300000001
 51
180.000005
  0
LINE
  5
29B8
330
A
100
AcDbEntity
  8
0
  6
Continuous
 62
     7
 48
0.175
100
AcDbLine
 10
58.75050400000001
 20
162.786179
 30
0.0
 11
58.75050400000001
 21
169.786179
 31
0.0
  0
ARC
  5
29B9
330
A
100
AcDbEntity
  8
0
  6
Continuous
 62
     7
100
AcDbCircle
 10
47.850506
 20
162.786179
 30
0.0
 40
1.0
100
AcDbArc
 50
180.000005
 51
270.000001
  0
ARC
  5
29BA
330
A
100
AcDbEntity
  8
0
  6
Continuous
 62
     7
100
AcDbCircle
 10
55.850506
 20
169.786179
 30
0.0
 40
1.0
100
AcDbArc
 50
0.0
 51
90.00000300000001
  0
LINE
  5
29BB
330
A
100
AcDbEntity
  8
0
  6
Continuous
 62
     7
 48
0.2
100
AcDbLine
 10
55.850506
 20
170.786179
 30
0.0
 11
47.850506
 21
170.786179
 31
0.0
  0
ARC
  5
29BC
330
A
100
AcDbEntity
  8
0
  6
Continuous
 62
     7
100
AcDbCircle
 10
47.850506
 20
169.786179
 30
0.0
 40
1.0
100
AcDbArc
 50
90.00000300000001
 51
180.000005
  0
LINE
  5
29BD
330
A
100
AcDbEntity
  8
0
  6
Continuous
 62
     7
 48
0.175
100
AcDbLine
 10
46.850506
 20
162.786179
 30
0.0
 11
46.850506
 21
169.786179
 31
0.0
  0
ARC
  5
29BE
330
A
100
AcDbEntity
  8
0
  6
Continuous
 62
     7
100
AcDbCircle
 10
44.050377
 20
162.68631
 30
0.0
 40
1.000035
100
AcDbArc
 50
270.007422
 51
359.9925949999998
  0
ARC
  5
29BF
330
A
100
AcDbEntity
  8
0
  6
Continuous
 62
     7
100
AcDbCircle
 10
117.650505
 20
157.586182
 30
0.0
 40
2.0
100
AcDbArc
 50
0.0
 51
90.00000300000001
  0
LINE
  5
29C0
330
A
100
AcDbEntity
  8
0
  6
Continuous
 62
     7
 48
0.1625
100
AcDbLine
 10
119.650505
 20
148.0861819999998
 30
0.0
 11
119.650505
 21
157.586182
 31
0.0
  0
LINE
  5
29C1
330
A
100
AcDbEntity
  8
0
  6
Continuous
 62
     7
 48
0.1625
100
AcDbLine
 10
31.65050499999999
 20
157.586182
 30
0.0
 11
31.65050499999999
 21
148.0861819999998
 31
0.0
  0
ARC
  5
29C2
330
A
100
AcDbEntity
  8
0
  6
Continuous
 62
     7
100
AcDbCircle
 10
33.65050499999998
 20
157.586182
 30
0.0
 40
2.0
100
AcDbArc
 50
90.00000300000001
 51
180.000005
  0
LINE
  5
29C3
330
A
100
AcDbEntity
  8
0
  6
Continuous
 62
     7
100
AcDbLine
 10
117.650505
 20
159.586182
 30
0.0
 11
33.65050499999998
 21
159.586182
 31
0.0
  0
LWPOLYLINE
  5
29C4
330
A
100
AcDbEntity
  8
0
  6
Continuous
 62
     7
100
AcDbPolyline
 90
       10
 70
     0
 43
0.0
 10
119.650505
 20
165.364212
 10
119.6391749999999
 20
163.7639919999999
 10
119.5998689999999
 20
162.8048249999999
 10
119.5481259999999
 20
162.271988
 10
119.491882
 20
161.955566
 10
119.463699
 20
161.8530269999999
 10
119.4245449999999
 20
161.75528
 10
119.3957669999999
 20
161.711609
 10
119.367493
 20
161.6897889999999
 10
119.35051
 20
161.6861719999999
  0
LINE
  5
29D0
330
A
100
AcDbEntity
  8
0
  6
Continuous
 62
     7
 48
0.0975
100
AcDbLine
 10
115.4505
 20
161.6861719999999
 30
0.0
 11
119.35051
 21
161.6861719999999
 31
0.0
  0
LINE
  5
29D1
330
A
100
AcDbEntity
  8
0
  6
Continuous
 62
     7
 48
0.205
100
AcDbLine
 10
115.4505
 20
161.6861719999999
 30
0.0
 11
107.250504
 21
161.6861719999999
 31
0.0
  0
LINE
  5
29D2
330
A
100
AcDbEntity
  8
0
  6
Continuous
 62
     7
 48
0.0925
100
AcDbLine
 10
103.5505069999999
 20
161.6861719999999
 30
0.0
 11
107.250504
 21
161.6861719999999
 31
0.0
  0
LINE
  5
29D3
330
A
100
AcDbEntity
  8
0
  6
Continuous
 62
     7
 48
0.205
100
AcDbLine
 10
103.5505069999999
 20
161.6861719999999
 30
0.0
 11
95.35051000000001
 21
161.6861719999999
 31
0.0
  0
LINE
  5
29D4
330
A
100
AcDbEntity
  8
0
  6
Continuous
 62
     7
 48
0.0925
100
AcDbLine
 10
91.65050499999999
 20
161.6861719999999
 30
0.0
 11
95.35051000000001
 21
161.6861719999999
 31
0.0
  0
LINE
  5
29D5
330
A
100
AcDbEntity
  8
0
  6
Continuous
 62
     7
 48
0.205
100
AcDbLine
 10
91.65050499999999
 20
161.6861719999999
 30
0.0
 11
83.450508
 21
161.6861719999999
 31
0.0
  0
LINE
  5
29D6
330
A
100
AcDbEntity
  8
0
  6
Continuous
 62
     7
 48
0.0925
100
AcDbLine
 10
79.750504
 20
161.6861719999999
 30
0.0
 11
83.450508
 21
161.6861719999999
 31
0.0
  0
LINE
  5
29D7
330
A
100
AcDbEntity
  8
0
  6
Continuous
 62
     7
 48
0.205
100
AcDbLine
 10
79.750504
 20
161.6861719999999
 30
0.0
 11
71.550507
 21
161.6861719999999
 31
0.0
  0
LINE
  5
29D8
330
A
100
AcDbEntity
  8
0
  6
Continuous
 62
     7
 48
0.0925
100
AcDbLine
 10
67.85051
 20
161.6861719999999
 30
0.0
 11
71.550507
 21
161.6861719999999
 31
0.0
  0
LINE
  5
29D9
330
A
100
AcDbEntity
  8
0
  6
Continuous
 62
     7
 48
0.205
100
AcDbLine
 10
67.85051
 20
161.6861719999999
 30
0.0
 11
59.650505
 21
161.6861719999999
 31
0.0
  0
LINE
  5
29DA
330
A
100
AcDbEntity
  8
0
  6
Continuous
 62
     7
 48
0.0925
100
AcDbLine
 10
55.950508
 20
161.6861719999999
 30
0.0
 11
59.650505
 21
161.6861719999999
 31
0.0
  0
LINE
  5
29DB
330
A
100
AcDbEntity
  8
0
  6
Continuous
 62
     7
 48
0.205
100
AcDbLine
 10
55.950508
 20
161.6861719999999
 30
0.0
 11
47.750504
 21
161.6861719999999
 31
0.0
  0
LINE
  5
29DC
330
A
100
AcDbEntity
  8
0
  6
Continuous
 62
     7
 48
0.0925
100
AcDbLine
 10
44.050507
 20
161.6861719999999
 30
0.0
 11
47.750504
 21
161.6861719999999
 31
0.0
  0
LINE
  5
29DD
330
A
100
AcDbEntity
  8
0
  6
Continuous
 62
     7
 48
0.0975
100
AcDbLine
 10
31.95050399999999
 20
161.6861719999999
 30
0.0
 11
35.850506
 21
161.6861719999999
 31
0.0
  0
LWPOLYLINE
  5
29DE
330
A
100
AcDbEntity
  8
0
  6
Continuous
 62
     7
100
AcDbPolyline
 90
       10
 70
     0
 43
0.0
 10
31.65050499999999
 20
165.364212
 10
31.661839
 20
163.7639919999999
 10
31.70114899999999
 20
162.8048249999999
 10
31.75288
 20
162.271988
 10
31.80913499999999
 20
161.955566
 10
31.837315
 20
161.8530269999999
 10
31.876469
 20
161.75528
 10
31.905251
 20
161.711609
 10
31.933521
 20
161.6897889999999
 10
31.95050399999999
 20
161.6861719999999
  0
LWPOLYLINE
  5
29EA
330
A
100
AcDbEntity
  8
0
  6
Continuous
 62
     7
100
AcDbPolyline
 90
       10
 70
     0
 43
0.0
 10
31.65050499999999
 20
167.20813
 10
31.661839
 20
168.8083499999999
 10
31.70114899999999
 20
169.767517
 10
31.75288
 20
170.3003689999999
 10
31.80913499999999
 20
170.6167909999996
 10
31.837315
 20
170.7193149999999
 10
31.876469
 20
170.817062
 10
31.905251
 20
170.860733
 10
31.933521
 20
170.882553
 10
31.95050399999999
 20
170.8861689999999
  0
LINE
  5
29F6
330
A
100
AcDbEntity
  8
0
  6
Continuous
 62
     7
 48
0.0975
100
AcDbLine
 10
31.95050399999999
 20
170.8861689999999
 30
0.0
 11
35.850506
 21
170.8861689999999
 31
0.0
  0
LINE
  5
29F7
330
A
100
AcDbEntity
  8
0
  6
Continuous
 62
     7
 48
0.0925
100
AcDbLine
 10
44.050507
 20
170.8861689999999
 30
0.0
 11
47.750504
 21
170.8861689999999
 31
0.0
  0
LINE
  5
29F8
330
A
100
AcDbEntity
  8
0
  6
Continuous
 62
     7
 48
0.205
100
AcDbLine
 10
47.750504
 20
170.8861689999999
 30
0.0
 11
55.950508
 21
170.8861689999999
 31
0.0
  0
LINE
  5
29F9
330
A
100
AcDbEntity
  8
0
  6
Continuous
 62
     7
 48
0.0925
100
AcDbLine
 10
55.950508
 20
170.8861689999999
 30
0.0
 11
59.650505
 21
170.8861689999999
 31
0.0
  0
LINE
  5
29FA
330
A
100
AcDbEntity
  8
0
  6
Continuous
 62
     7
 48
0.205
100
AcDbLine
 10
59.650505
 20
170.8861689999999
 30
0.0
 11
67.85051
 21
170.8861689999999
 31
0.0
  0
LINE
  5
29FB
330
A
100
AcDbEntity
  8
0
  6
Continuous
 62
     7
 48
0.0925
100
AcDbLine
 10
67.85051
 20
170.8861689999999
 30
0.0
 11
71.550507
 21
170.8861689999999
 31
0.0
  0
LINE
  5
29FC
330
A
100
AcDbEntity
  8
0
  6
Continuous
 62
     7
 48
0.205
100
AcDbLine
 10
71.550507
 20
170.8861689999999
 30
0.0
 11
79.750504
 21
170.8861689999999
 31
0.0
  0
LINE
  5
29FD
330
A
100
AcDbEntity
  8
0
  6
Continuous
 62
     7
 48
0.0925
100
AcDbLine
 10
79.750504
 20
170.8861689999999
 30
0.0
 11
83.450508
 21
170.8861689999999
 31
0.0
  0
LINE
  5
29FE
330
A
100
AcDbEntity
  8
0
  6
Continuous
 62
     7
 48
0.205
100
AcDbLine
 10
83.450508
 20
170.8861689999999
 30
0.0
 11
91.65050499999999
 21
170.8861689999999
 31
0.0
  0
LINE
  5
29FF
330
A
100
AcDbEntity
  8
0
  6
Continuous
 62
     7
 48
0.0925
100
AcDbLine
 10
91.65050499999999
 20
170.8861689999999
 30
0.0
 11
95.35051000000001
 21
170.8861689999999
 31
0.0
  0
LINE
  5
2A00
330
A
100
AcDbEntity
  8
0
  6
Continuous
 62
     7
 48
0.205
100
AcDbLine
 10
95.35051000000001
 20
170.8861689999999
 30
0.0
 11
103.5505069999999
 21
170.8861689999999
 31
0.0
  0
LINE
  5
2A01
330
A
100
AcDbEntity
  8
0
  6
Continuous
 62
     7
 48
0.0925
100
AcDbLine
 10
103.5505069999999
 20
170.8861689999999
 30
0.0
 11
107.250504
 21
170.8861689999999
 31
0.0
  0
LINE
  5
2A02
330
A
100
AcDbEntity
  8
0
  6
Continuous
 62
     7
 48
0.205
100
AcDbLine
 10
107.250504
 20
170.8861689999999
 30
0.0
 11
115.4505
 21
170.8861689999999
 31
0.0
  0
LINE
  5
2A03
330
A
100
AcDbEntity
  8
0
  6
Continuous
 62
     7
 48
0.0975
100
AcDbLine
 10
115.4505
 20
170.8861689999999
 30
0.0
 11
119.35051
 21
170.8861689999999
 31
0.0
  0
LWPOLYLINE
  5
2A04
330
A
100
AcDbEntity
  8
0
  6
Continuous
 62
     7
100
AcDbPolyline
 90
       10
 70
     0
 43
0.0
 10
119.650505
 20
167.20813
 10
119.6391749999999
 20
168.8083499999999
 10
119.5998689999999
 20
169.767517
 10
119.5481259999999
 20
170.300354
 10
119.491882
 20
170.6167909999996
 10
119.463699
 20
170.7193149999999
 10
119.4245449999999
 20
170.817062
 10
119.3957669999999
 20
170.860733
 10
119.367493
 20
170.882553
 10
119.35051
 20
170.8861689999999
  0
ARC
  5
2A10
330
A
100
AcDbEntity
  8
0
  6
Continuous
 62
     7
100
AcDbCircle
 10
33.65050499999998
 20
174.286179
 30
0.0
 40
2.0
100
AcDbArc
 50
180.000005
 51
270.000001
  0
LINE
  5
2A11
330
A
100
AcDbEntity
  8
0
  6
Continuous
 62
     7
100
AcDbLine
 10
31.65050499999999
 20
238.0861819999999
 30
0.0
 11
31.65050499999999
 21
174.286179
 31
0.0
  0
ARC
  5
2A12
330
A
100
AcDbEntity
  8
0
  6
Continuous
 62
     7
100
AcDbCircle
 10
33.65050499999998
 20
238.0861819999999
 30
0.0
 40
2.0
100
AcDbArc
 50
90.00000300000001
 51
180.000005
  0
LINE
  5
2A13
330
A
100
AcDbEntity
  8
0
  6
Continuous
 62
     7
100
AcDbLine
 10
33.65050499999998
 20
240.0861819999999
 30
0.0
 11
117.650505
 21
240.0861819999999
 31
0.0
  0
ARC
  5
2A14
330
A
100
AcDbEntity
  8
0
  6
Continuous
 62
     7
100
AcDbCircle
 10
117.650505
 20
238.0861819999999
 30
0.0
 40
2.0
100
AcDbArc
 50
0.0
 51
90.00000300000001
  0
LINE
  5
2A15
330
A
100
AcDbEntity
  8
0
  6
Continuous
 62
     7
100
AcDbLine
 10
119.650505
 20
174.286179
 30
0.0
 11
119.650505
 21
238.0861819999999
 31
0.0
  0
ARC
  5
2A16
330
A
100
AcDbEntity
  8
0
  6
Continuous
 62
     7
100
AcDbCircle
 10
117.650505
 20
174.286179
 30
0.0
 40
2.0
100
AcDbArc
 50
270.000001
 51
0.00001
  0
LINE
  5
2A17
330
A
100
AcDbEntity
  8
0
  6
Continuous
 62
     7
100
AcDbLine
 10
117.650505
 20
172.286179
 30
0.0
 11
33.65050499999998
 21
172.286179
 31
0.0
  0
ARC
  5
2A18
330
A
100
AcDbEntity
  8
0
  6
Continuous
 62
     7
100
AcDbCircle
 10
35.850636
 20
162.68631
 30
0.0
 40
1.000035
100
AcDbArc
 50
180.0073989999999
 51
269.9925799999999
  0
ARC
  5
2A19
330
A
100
AcDbEntity
  8
0
  6
Continuous
 62
     7
100
AcDbCircle
 10
35.850636
 20
169.8860469999999
 30
0.0
 40
1.000035
100
AcDbArc
 50
90.00742
 51
179.992601
  0
ARC
  5
2A1A
330
A
100
AcDbEntity
  8
0
  6
Continuous
 62
     7
100
AcDbCircle
 10
44.050377
 20
169.8860469999999
 30
0.0
 40
1.000035
100
AcDbArc
 50
0.007405
 51
89.992578
  0
ARC
  5
2A1B
330
A
100
AcDbEntity
  8
0
  6
Continuous
 62
     7
100
AcDbCircle
 10
47.750633
 20
169.8860469999999
 30
0.0
 40
1.000035
100
AcDbArc
 50
90.00742
 51
179.992601
  0
LINE
  5
2A1C
330
A
100
AcDbEntity
  8
0
  6
Continuous
 62
     7
 48
0.18
100
AcDbLine
 10
46.75050399999999
 20
162.6861719999999
 30
0.0
 11
46.75050399999999
 21
169.886169
 31
0.0
  0
ARC
  5
2A1D
330
A
100
AcDbEntity
  8
0
  6
Continuous
 62
     7
100
AcDbCircle
 10
47.750633
 20
162.68631
 30
0.0
 40
1.000035
100
AcDbArc
 50
180.0073989999999
 51
269.9925799999999
  0
LINE
  5
2A20
330
A
100
AcDbEntity
  8
0
  6
Continuous
 62
     7
100
AcDbLine
 10
123.650505
 20
241.086182
 30
0.0
 11
123.650505
 21
151.086182
 31
0.0
  0
LINE
  5
2A21
330
A
100
AcDbEntity
  8
0
  6
Continuous
 62
     7
100
AcDbLine
 10
120.650505
 20
244.0861819999999
 30
0.0
 11
30.65050499999999
 21
244.0861819999999
 31
0.0
  0
LINE
  5
2A22
330
A
100
AcDbEntity
  8
0
  6
Continuous
 62
     7
100
AcDbLine
 10
27.650505
 20
151.086182
 30
0.0
 11
27.650505
 21
241.086182
 31
0.0
  0
LINE
  5
2A25
330
A
100
AcDbEntity
  8
0
  6
Continuous
 62
     7
 48
0.046098
100
AcDbLine
 10
119.650505
 20
167.20813
 30
0.0
 11
119.650505
 21
165.364212
 31
0.0
  0
ARC
  5
2A26
330
A
100
AcDbEntity
  8
0
  6
Continuous
 62
     7
100
AcDbCircle
 10
115.4503779999999
 20
162.68631
 30
0.0
 40
1.000035
100
AcDbArc
 50
270.007422
 51
359.9925949999998
  0
LINE
  5
2A27
330
A
100
AcDbEntity
  8
0
  6
Continuous
 62
     7
 48
0.18
100
AcDbLine
 10
116.4505
 20
169.886169
 30
0.0
 11
116.4505
 21
162.6861719999999
 31
0.0
  0
ARC
  5
2A28
330
A
100
AcDbEntity
  8
0
  6
Continuous
 62
     7
100
AcDbCircle
 10
115.4503779999999
 20
169.8860469999999
 30
0.0
 40
1.000035
100
AcDbArc
 50
0.007405
 51
89.992578
  0
ARC
  5
2A29
330
A
100
AcDbEntity
  8
0
  6
Continuous
 62
     7
100
AcDbCircle
 10
107.250633
 20
169.8860469999999
 30
0.0
 40
1.000035
100
AcDbArc
 50
90.00742
 51
179.992601
  0
LINE
  5
2A2A
330
A
100
AcDbEntity
  8
0
  6
Continuous
 62
     7
 48
0.18
100
AcDbLine
 10
106.250504
 20
162.6861719999999
 30
0.0
 11
106.250504
 21
169.886169
 31
0.0
  0
ARC
  5
2A2B
330
A
100
AcDbEntity
  8
0
  6
Continuous
 62
     7
100
AcDbCircle
 10
107.250633
 20
162.68631
 30
0.0
 40
1.000035
100
AcDbArc
 50
180.0073989999999
 51
269.9925799999999
  0
ARC
  5
2A2C
330
A
100
AcDbEntity
  8
0
  6
Continuous
 62
     7
100
AcDbCircle
 10
103.550377
 20
162.68631
 30
0.0
 40
1.000035
100
AcDbArc
 50
270.007422
 51
359.9925949999998
  0
LINE
  5
2A2D
330
A
100
AcDbEntity
  8
0
  6
Continuous
 62
     7
 48
0.18
100
AcDbLine
 10
104.5505069999999
 20
169.886169
 30
0.0
 11
104.5505069999999
 21
162.6861719999999
 31
0.0
  0
ARC
  5
2A2E
330
A
100
AcDbEntity
  8
0
  6
Continuous
 62
     7
100
AcDbCircle
 10
103.550377
 20
169.8860469999999
 30
0.0
 40
1.000035
100
AcDbArc
 50
0.007405
 51
89.992578
  0
ARC
  5
2A2F
330
A
100
AcDbEntity
  8
0
  6
Continuous
 62
     7
100
AcDbCircle
 10
91.650375
 20
162.68631
 30
0.0
 40
1.000035
100
AcDbArc
 50
270.007422
 51
359.9925949999998
  0
LINE
  5
2A30
330
A
100
AcDbEntity
  8
0
  6
Continuous
 62
     7
 48
0.18
100
AcDbLine
 10
92.650505
 20
169.886169
 30
0.0
 11
92.650505
 21
162.6861719999999
 31
0.0
  0
ARC
  5
2A31
330
A
100
AcDbEntity
  8
0
  6
Continuous
 62
     7
100
AcDbCircle
 10
91.650375
 20
169.8860469999999
 30
0.0
 40
1.000035
100
AcDbArc
 50
0.007405
 51
89.992578
  0
ARC
  5
2A32
330
A
100
AcDbEntity
  8
0
  6
Continuous
 62
     7
100
AcDbCircle
 10
95.35063200000001
 20
169.8860469999999
 30
0.0
 40
1.000035
100
AcDbArc
 50
90.00742
 51
179.992601
  0
LINE
  5
2A33
330
A
100
AcDbEntity
  8
0
  6
Continuous
 62
     7
 48
0.18
100
AcDbLine
 10
94.35050999999999
 20
162.6861719999999
 30
0.0
 11
94.35050999999999
 21
169.886169
 31
0.0
  0
ARC
  5
2A34
330
A
100
AcDbEntity
  8
0
  6
Continuous
 62
     7
100
AcDbCircle
 10
95.35063200000001
 20
162.68631
 30
0.0
 40
1.000035
100
AcDbArc
 50
180.0073989999999
 51
269.9925799999999
  0
ARC
  5
2A35
330
A
100
AcDbEntity
  8
0
  6
Continuous
 62
     7
100
AcDbCircle
 10
83.450638
 20
169.8860469999999
 30
0.0
 40
1.000035
100
AcDbArc
 50
90.00742
 51
179.992601
  0
LINE
  5
2A36
330
A
100
AcDbEntity
  8
0
  6
Continuous
 62
     7
 48
0.18
100
AcDbLine
 10
82.45050799999999
 20
162.6861719999999
 30
0.0
 11
82.45050799999999
 21
169.886169
 31
0.0
  0
ARC
  5
2A37
330
A
100
AcDbEntity
  8
0
  6
Continuous
 62
     7
100
AcDbCircle
 10
83.450638
 20
162.68631
 30
0.0
 40
1.000035
100
AcDbArc
 50
180.0073989999999
 51
269.9925799999999
  0
ARC
  5
2A38
330
A
100
AcDbEntity
  8
0
  6
Continuous
 62
     7
100
AcDbCircle
 10
79.75037399999997
 20
162.68631
 30
0.0
 40
1.000035
100
AcDbArc
 50
270.007422
 51
359.9925949999998
  0
LINE
  5
2A39
330
A
100
AcDbEntity
  8
0
  6
Continuous
 62
     7
 48
0.18
100
AcDbLine
 10
80.750504
 20
169.886169
 30
0.0
 11
80.750504
 21
162.6861719999999
 31
0.0
  0
ARC
  5
2A3A
330
A
100
AcDbEntity
  8
0
  6
Continuous
 62
     7
100
AcDbCircle
 10
79.75037399999997
 20
169.8860469999999
 30
0.0
 40
1.000035
100
AcDbArc
 50
0.007405
 51
89.992578
  0
ARC
  5
2A3B
330
A
100
AcDbEntity
  8
0
  6
Continuous
 62
     7
100
AcDbCircle
 10
71.550636
 20
169.8860469999999
 30
0.0
 40
1.000035
100
AcDbArc
 50
90.00742
 51
179.992601
  0
LINE
  5
2A3C
330
A
100
AcDbEntity
  8
0
  6
Continuous
 62
     7
 48
0.18
100
AcDbLine
 10
70.55050699999998
 20
162.6861719999999
 30
0.0
 11
70.55050699999998
 21
169.886169
 31
0.0
  0
ARC
  5
2A3D
330
A
100
AcDbEntity
  8
0
  6
Continuous
 62
     7
100
AcDbCircle
 10
71.550636
 20
162.68631
 30
0.0
 40
1.000035
100
AcDbArc
 50
180.0073989999999
 51
269.9925799999999
  0
ARC
  5
2A3E
330
A
100
AcDbEntity
  8
0
  6
Continuous
 62
     7
100
AcDbCircle
 10
67.85037199999999
 20
162.68631
 30
0.0
 40
1.000035
100
AcDbArc
 50
270.007422
 51
359.9925949999998
  0
LINE
  5
2A3F
330
A
100
AcDbEntity
  8
0
  6
Continuous
 62
     7
 48
0.18
100
AcDbLine
 10
68.85051
 20
169.886169
 30
0.0
 11
68.85051
 21
162.6861719999999
 31
0.0
  0
ARC
  5
2A40
330
A
100
AcDbEntity
  8
0
  6
Continuous
 62
     7
100
AcDbCircle
 10
67.85037199999999
 20
169.8860469999999
 30
0.0
 40
1.000035
100
AcDbArc
 50
0.007405
 51
89.992578
  0
ARC
  5
2A41
330
A
100
AcDbEntity
  8
0
  6
Continuous
 62
     7
100
AcDbCircle
 10
55.950378
 20
162.68631
 30
0.0
 40
1.000035
100
AcDbArc
 50
270.007422
 51
359.9925949999998
  0
LINE
  5
2A42
330
A
100
AcDbEntity
  8
0
  6
Continuous
 62
     7
 48
0.18
100
AcDbLine
 10
56.950508
 20
169.886169
 30
0.0
 11
56.950508
 21
162.6861719999999
 31
0.0
  0
ARC
  5
2A43
330
A
100
AcDbEntity
  8
0
  6
Continuous
 62
     7
100
AcDbCircle
 10
55.950378
 20
169.8860469999999
 30
0.0
 40
1.000035
100
AcDbArc
 50
0.007405
 51
89.992578
  0
ARC
  5
2A44
330
A
100
AcDbEntity
  8
0
  6
Continuous
 62
     7
100
AcDbCircle
 10
59.650635
 20
169.8860469999999
 30
0.0
 40
1.000035
100
AcDbArc
 50
90.00742
 51
179.992601
  0
LINE
  5
2A45
330
A
100
AcDbEntity
  8
0
  6
Continuous
 62
     7
 48
0.18
100
AcDbLine
 10
58.650505
 20
162.6861719999999
 30
0.0
 11
58.650505
 21
169.886169
 31
0.0
  0
ARC
  5
2A46
330
A
100
AcDbEntity
  8
0
  6
Continuous
 62
     7
100
AcDbCircle
 10
59.650635
 20
162.68631
 30
0.0
 40
1.000035
100
AcDbArc
 50
180.0073989999999
 51
269.9925799999999
  0
LINE
  5
2A47
330
A
100
AcDbEntity
  8
0
  6
Continuous
 62
     7
 48
0.046098
100
AcDbLine
 10
31.65050499999999
 20
165.364212
 30
0.0
 11
31.65050499999999
 21
167.20813
 31
0.0
  0
LINE
  5
2A48
330
A
100
AcDbEntity
  8
0
  6
Continuous
 62
     7
100
AcDbLine
 10
30.65050505235987
 20
148.086182
 30
0.0
 11
120.6505050523599
 21
148.086182
 31
0.0
  0
ARC
  5
2A49
330
A
100
AcDbEntity
  8
0
  6
Continuous
 62
     7
100
AcDbCircle
 10
120.650505
 20
151.086182
 30
0.0
 40
3.0
100
AcDbArc
 50
270.000001
 51
0.00001
  0
ARC
  5
2A4A
330
A
100
AcDbEntity
  8
0
  6
Continuous
 62
     7
100
AcDbCircle
 10
120.650505
 20
241.086182
 30
0.0
 40
3.0
100
AcDbArc
 50
0.0
 51
90.00000300000001
  0
ARC
  5
2A4B
330
A
100
AcDbEntity
  8
0
  6
Continuous
 62
     7
100
AcDbCircle
 10
30.65050499999999
 20
241.086182
 30
0.0
 40
3.0
100
AcDbArc
 50
90.00000300000001
 51
180.000005
  0
ARC
  5
2A4C
330
A
100
AcDbEntity
  8
0
  6
Continuous
 62
     7
100
AcDbCircle
 10
30.65050499999999
 20
151.086182
 30
0.0
 40
3.0
100
AcDbArc
 50
180.000005
 51
270.000001
  0
LINE
  5
2A53
330
A
100
AcDbEntity
  8
0
  6
Continuous
 62
     7
100
AcDbLine
 10
113.35051
 20
176.286179
 30
0.0
 11
49.450508
 21
176.286179
 31
0.0
  0
LINE
  5
2A54
330
A
100
AcDbEntity
  8
0
  6
Continuous
 62
     7
 48
0.4075
100
AcDbLine
 10
113.35051
 20
192.5861659999999
 30
0.0
 11
113.35051
 21
176.286179
 31
0.0
  0
LINE
  5
2A55
330
A
100
AcDbEntity
  8
0
  6
Continuous
 62
     7
 48
0.4075
100
AcDbLine
 10
49.450508
 20
176.286179
 30
0.0
 11
49.450508
 21
192.5861659999999
 31
0.0
  0
LINE
  5
2A56
330
A
100
AcDbEntity
  8
0
  6
Continuous
 62
     7
100
AcDbLine
 10
49.450508
 20
192.5861659999999
 30
0.0
 11
113.35051
 21
192.5861659999999
 31
0.0
  0
LINE
  5
2A57
330
A
100
AcDbEntity
  8
0
  6
Continuous
 62
     7
 48
0.030174
100
AcDbLine
 10
66.53009
 20
227.070755
 30
0.0
 11
67.41996800000001
 21
227.8861689999998
 31
0.0
  0
LINE
  5
2A58
330
A
100
AcDbEntity
  8
0
  6
Continuous
 62
     7
 48
0.026604
100
AcDbLine
 10
67.249023
 20
226.286179
 30
0.0
 11
66.53009
 21
227.070755
 31
0.0
  0
LINE
  5
2A59
330
A
100
AcDbEntity
  8
0
  6
Continuous
 62
     7
 48
0.117787
100
AcDbLine
 10
67.41996800000001
 20
227.8861689999998
 30
0.0
 11
72.131462
 21
227.8861689999998
 31
0.0
  0
LINE
  5
2A5A
330
A
100
AcDbEntity
  8
0
  6
Continuous
 62
     7
 48
0.117787
100
AcDbLine
 10
71.96051800000002
 20
226.286179
 30
0.0
 11
67.249023
 21
226.286179
 31
0.0
  0
LINE
  5
2A5B
330
A
100
AcDbEntity
  8
0
  6
Continuous
 62
     7
 48
0.030174
100
AcDbLine
 10
72.85039499999998
 20
227.101593
 30
0.0
 11
71.96051800000002
 21
226.286179
 31
0.0
  0
LINE
  5
2A5C
330
A
100
AcDbEntity
  8
0
  6
Continuous
 62
     7
 48
0.026604
100
AcDbLine
 10
72.131462
 20
227.8861689999998
 30
0.0
 11
72.85039499999998
 21
227.101593
 31
0.0
  0
LINE
  5
2A5D
330
A
100
AcDbEntity
  8
0
  6
Continuous
 62
     7
 48
0.110259
100
AcDbLine
 10
98.500107
 20
228.2239689999999
 30
0.0
 11
98.884491
 21
232.617538
 31
0.0
  0
LINE
  5
2A5E
330
A
100
AcDbEntity
  8
0
  6
Continuous
 62
     7
 48
0.026604
100
AcDbLine
 10
99.21904000000001
 20
227.439392
 30
0.0
 11
98.500107
 21
228.2239689999999
 31
0.0
  0
LINE
  5
2A5F
330
A
100
AcDbEntity
  8
0
  6
Continuous
 62
     7
 48
0.050964
100
AcDbLine
 10
98.884491
 20
232.617538
 30
0.0
 11
100.3874819999999
 21
233.994781
 31
0.0
  0
LINE
  5
2A60
330
A
100
AcDbEntity
  8
0
  6
Continuous
 62
     7
 48
0.030174
100
AcDbLine
 10
100.1089169999999
 20
228.2548069999999
 30
0.0
 11
99.21904000000001
 21
227.439392
 31
0.0
  0
LINE
  5
2A61
330
A
100
AcDbEntity
  8
0
  6
Continuous
 62
     7
 48
0.12615
100
AcDbLine
 10
100.548698
 20
233.2815859999999
 30
0.0
 11
100.1089169999999
 21
228.2548069999999
 31
0.0
  0
ARC
  5
2A62
330
A
100
AcDbEntity
  8
0
  6
Continuous
 62
     7
100
AcDbCircle
 10
99.34373499999999
 20
233.384018
 30
0.0
 40
1.209362999999997
100
AcDbArc
 50
355.1409779999998
 51
30.334319
  0
LINE
  5
2A63
330
A
100
AcDbEntity
  8
0
  6
Continuous
 62
     7
 48
0.031569
100
AcDbLine
 10
47.951988
 20
202.633057
 30
0.0
 11
48.883003
 21
203.486176
 31
0.0
  0
ARC
  5
2A64
330
A
100
AcDbEntity
  8
0
  6
Continuous
 62
     7
100
AcDbCircle
 10
48.184898
 20
203.1881409999999
 30
0.0
 40
0.601973
100
AcDbArc
 50
247.237184
 51
269.962233
  0
LINE
  5
2A65
330
A
100
AcDbEntity
  8
0
  6
Continuous
 62
     7
 48
0.042474
100
AcDbLine
 10
48.883003
 20
203.486176
 30
0.0
 11
50.581978
 21
203.486176
 31
0.0
  0
LINE
  5
2A66
330
A
100
AcDbEntity
  8
0
  6
Continuous
 62
     7
 48
0.075286
100
AcDbLine
 10
51.19596099999998
 20
202.5861659999999
 30
0.0
 11
48.184502
 21
202.5861659999999
 31
0.0
  0
ARC
  5
2A67
330
A
100
AcDbEntity
  8
0
  6
Continuous
 62
     7
100
AcDbCircle
 10
51.195782
 20
203.1873169999999
 30
0.0
 40
0.601153
100
AcDbArc
 50
270.017264
 51
287.858415
  0
LINE
  5
2A68
330
A
100
AcDbEntity
  8
0
  6
Continuous
 62
     7
 48
0.029535
100
AcDbLine
 10
50.581978
 20
203.486176
 30
0.0
 11
51.38013499999999
 21
202.615143
 31
0.0
  0
LINE
  5
2A69
330
A
100
AcDbEntity
  8
0
  6
Continuous
 62
     7
 48
0.110259
100
AcDbLine
 10
66.880386
 20
225.9483799999999
 30
0.0
 11
66.496002
 21
221.5548099999999
 31
0.0
  0
LINE
  5
2A6A
330
A
100
AcDbEntity
  8
0
  6
Continuous
 62
     7
 48
0.026604
100
AcDbLine
 10
66.16145300000001
 20
226.7329559999999
 30
0.0
 11
66.880386
 21
225.9483799999999
 31
0.0
  0
LINE
  5
2A6B
330
A
100
AcDbEntity
  8
0
  6
Continuous
 62
     7
 48
0.050964
100
AcDbLine
 10
66.496002
 20
221.5548099999999
 30
0.0
 11
64.993011
 21
220.1775669999999
 31
0.0
  0
LINE
  5
2A6C
330
A
100
AcDbEntity
  8
0
  6
Continuous
 62
     7
 48
0.030174
100
AcDbLine
 10
65.27157599999999
 20
225.917542
 30
0.0
 11
66.16145300000001
 21
226.7329559999999
 31
0.0
  0
LINE
  5
2A6D
330
A
100
AcDbEntity
  8
0
  6
Continuous
 62
     7
 48
0.12615
100
AcDbLine
 10
64.831795
 20
220.890762
 30
0.0
 11
65.27157599999999
 21
225.917542
 31
0.0
  0
ARC
  5
2A6E
330
A
100
AcDbEntity
  8
0
  6
Continuous
 62
     7
100
AcDbCircle
 10
66.036751
 20
220.7883299999999
 30
0.0
 40
1.209362999999997
100
AcDbArc
 50
175.140981
 51
210.334324
  0
LINE
  5
2A6F
330
A
100
AcDbEntity
  8
0
  6
Continuous
 62
     7
 48
0.036227
100
AcDbLine
 10
48.670441
 20
205.2983699999999
 30
0.0
 11
48.54414699999999
 21
203.8548129999999
 31
0.0
  0
LINE
  5
2A70
330
A
100
AcDbEntity
  8
0
  6
Continuous
 62
     7
 48
0.014736
100
AcDbLine
 10
48.272224
 20
205.7329559999999
 30
0.0
 11
48.670441
 21
205.2983699999999
 31
0.0
  0
LINE
  5
2A71
330
A
100
AcDbEntity
  8
0
  6
Continuous
 62
     7
 48
0.031558
100
AcDbLine
 10
48.54414699999999
 20
203.8548129999999
 30
0.0
 11
47.613468
 21
203.0019989999999
 31
0.0
  0
LINE
  5
2A72
330
A
100
AcDbEntity
  8
0
  6
Continuous
 62
     7
 48
0.017223
100
AcDbLine
 10
47.764305
 20
205.267532
 30
0.0
 11
48.272224
 21
205.7329559999999
 31
0.0
  0
LINE
  5
2A73
330
A
100
AcDbEntity
  8
0
  6
Continuous
 62
     7
 48
0.05092
100
AcDbLine
 10
47.58678399999999
 20
203.238464
 30
0.0
 11
47.764305
 21
205.267532
 31
0.0
  0
ARC
  5
2A74
330
A
100
AcDbEntity
  8
0
  6
Continuous
 62
     7
100
AcDbCircle
 10
48.186512
 20
203.186401
 30
0.0
 40
0.6019860000000003
100
AcDbArc
 50
175.0381459999999
 51
197.837536
  0
LINE
  5
2A75
330
A
100
AcDbEntity
  8
0
  6
Continuous
 62
     7
 48
0.014736
100
AcDbLine
 10
49.039082
 20
205.636169
 30
0.0
 11
48.640862
 21
206.070755
 31
0.0
  0
LINE
  5
2A76
330
A
100
AcDbEntity
  8
0
  6
Continuous
 62
     7
 48
0.042501
100
AcDbLine
 10
50.739117
 20
205.636169
 30
0.0
 11
49.039082
 21
205.636169
 31
0.0
  0
LINE
  5
2A77
330
A
100
AcDbEntity
  8
0
  6
Continuous
 62
     7
 48
0.017223
100
AcDbLine
 10
48.640862
 20
206.070755
 30
0.0
 11
49.148781
 21
206.5361789999999
 31
0.0
  0
LINE
  5
2A78
330
A
100
AcDbEntity
  8
0
  6
Continuous
 62
     7
 48
0.017223
100
AcDbLine
 10
51.247036
 20
206.1015929999999
 30
0.0
 11
50.739117
 21
205.636169
 31
0.0
  0
LINE
  5
2A79
330
A
100
AcDbEntity
  8
0
  6
Continuous
 62
     7
 48
0.014736
100
AcDbLine
 10
50.848816
 20
206.5361789999999
 30
0.0
 11
51.247036
 21
206.1015929999999
 31
0.0
  0
LINE
  5
2A7A
330
A
100
AcDbEntity
  8
0
  6
Continuous
 62
     7
 48
0.042501
100
AcDbLine
 10
49.148781
 20
206.5361789999999
 30
0.0
 11
50.848816
 21
206.5361789999999
 31
0.0
  0
ARC
  5
2A7B
330
A
100
AcDbEntity
  8
0
  6
Continuous
 62
     7
100
AcDbCircle
 10
72.24901599999999
 20
220.7931059999999
 30
0.0
 40
1.206971999999999
100
AcDbArc
 50
270.089733
 51
300.38557
  0
LINE
  5
2A7C
330
A
100
AcDbEntity
  8
0
  6
Continuous
 62
     7
 48
0.048632
100
AcDbLine
 10
71.545288
 20
221.186172
 30
0.0
 11
72.85951199999998
 21
219.751953
 31
0.0
  0
LINE
  5
2A7D
330
A
100
AcDbEntity
  8
0
  6
Continuous
 62
     7
 48
0.155592
100
AcDbLine
 10
72.250908
 20
219.586166
 30
0.0
 11
66.02722199999999
 21
219.586166
 31
0.0
  0
LINE
  5
2A7E
330
A
100
AcDbEntity
  8
0
  6
Continuous
 62
     7
 48
0.117787
100
AcDbLine
 10
66.83379399999999
 20
221.186172
 30
0.0
 11
71.545288
 21
221.186172
 31
0.0
  0
LINE
  5
2A7F
330
A
100
AcDbEntity
  8
0
  6
Continuous
 62
     7
 48
0.050964
100
AcDbLine
 10
65.330803
 20
219.8089289999999
 30
0.0
 11
66.83379399999999
 21
221.186172
 31
0.0
  0
ARC
  5
2A80
330
A
100
AcDbEntity
  8
0
  6
Continuous
 62
     7
100
AcDbCircle
 10
66.030197
 20
220.795471
 30
0.0
 40
1.209362999999997
100
AcDbArc
 50
234.665673
 51
269.859022
  0
ARC
  5
2A81
330
A
100
AcDbEntity
  8
0
  6
Continuous
 62
     7
100
AcDbCircle
 10
51.194832
 20
203.1864469999999
 30
0.0
 40
0.601153
100
AcDbArc
 50
337.1415819999997
 51
354.982737
  0
LINE
  5
2A82
330
A
100
AcDbEntity
  8
0
  6
Continuous
 62
     7
 48
0.054319
100
AcDbLine
 10
51.983047
 20
205.2983699999999
 30
0.0
 11
51.793678
 21
203.133881
 31
0.0
  0
LINE
  5
2A83
330
A
100
AcDbEntity
  8
0
  6
Continuous
 62
     7
 48
0.029536
100
AcDbLine
 10
51.748772
 20
202.9529269999999
 30
0.0
 11
50.95061499999999
 21
203.8239749999999
 31
0.0
  0
LINE
  5
2A84
330
A
100
AcDbEntity
  8
0
  6
Continuous
 62
     7
 48
0.014736
100
AcDbLine
 10
51.584831
 20
205.7329559999999
 30
0.0
 11
51.983047
 21
205.2983699999999
 31
0.0
  0
LINE
  5
2A85
330
A
100
AcDbEntity
  8
0
  6
Continuous
 62
     7
 48
0.017223
100
AcDbLine
 10
51.076912
 20
205.267532
 30
0.0
 11
51.584831
 21
205.7329559999999
 31
0.0
  0
LINE
  5
2A86
330
A
100
AcDbEntity
  8
0
  6
Continuous
 62
     7
 48
0.036227
100
AcDbLine
 10
50.95061499999999
 20
203.8239749999999
 30
0.0
 11
51.076912
 21
205.267532
 31
0.0
  0
LINE
  5
2A87
330
A
100
AcDbEntity
  8
0
  6
Continuous
 62
     7
 48
0.026604
100
AcDbLine
 10
99.188194
 20
226.7329559999999
 30
0.0
 11
99.90712700000001
 21
225.9483799999999
 31
0.0
  0
LINE
  5
2A88
330
A
100
AcDbEntity
  8
0
  6
Continuous
 62
     7
 48
0.030174
100
AcDbLine
 10
98.29831699999999
 20
225.917542
 30
0.0
 11
99.188194
 21
226.7329559999999
 31
0.0
  0
LINE
  5
2A89
330
A
100
AcDbEntity
  8
0
  6
Continuous
 62
     7
 48
0.132173
100
AcDbLine
 10
99.90712700000001
 20
225.9483799999999
 30
0.0
 11
99.44634200000001
 21
220.6815799999999
 31
0.0
  0
LINE
  5
2A8A
330
A
100
AcDbEntity
  8
0
  6
Continuous
 62
     7
 48
0.110259
100
AcDbLine
 10
97.913925
 20
221.523972
 30
0.0
 11
98.29831699999999
 21
225.917542
 31
0.0
  0
LINE
  5
2A8B
330
A
100
AcDbEntity
  8
0
  6
Continuous
 62
     7
 48
0.048632
100
AcDbLine
 10
99.228149
 20
220.089752
 30
0.0
 11
97.913925
 21
221.523972
 31
0.0
  0
ARC
  5
2A8C
330
A
100
AcDbEntity
  8
0
  6
Continuous
 62
     7
100
AcDbCircle
 10
98.24415600000001
 20
220.788666
 30
0.0
 40
1.206971999999999
100
AcDbArc
 50
324.6144339999998
 51
354.910266
  0
LINE
  5
2A8D
330
A
100
AcDbEntity
  8
0
  6
Continuous
 62
     7
 48
0.036227
100
AcDbLine
 10
51.217457
 20
206.873962
 30
0.0
 11
51.34375
 21
208.317535
 31
0.0
  0
LINE
  5
2A8E
330
A
100
AcDbEntity
  8
0
  6
Continuous
 62
     7
 48
0.014736
100
AcDbLine
 10
51.615677
 20
206.439392
 30
0.0
 11
51.217457
 21
206.873962
 31
0.0
  0
LINE
  5
2A8F
330
A
100
AcDbEntity
  8
0
  6
Continuous
 62
     7
 48
0.031558
100
AcDbLine
 10
51.34375
 20
208.317535
 30
0.0
 11
52.27442899999999
 21
209.1703489999999
 31
0.0
  0
LINE
  5
2A90
330
A
100
AcDbEntity
  8
0
  6
Continuous
 62
     7
 48
0.017223
100
AcDbLine
 10
52.123596
 20
206.9048159999999
 30
0.0
 11
51.615677
 21
206.439392
 31
0.0
  0
LINE
  5
2A91
330
A
100
AcDbEntity
  8
0
  6
Continuous
 62
     7
 48
0.05092
100
AcDbLine
 10
52.301113
 20
208.9338839999999
 30
0.0
 11
52.123596
 21
206.9048159999999
 31
0.0
  0
ARC
  5
2A92
330
A
100
AcDbEntity
  8
0
  6
Continuous
 62
     7
100
AcDbCircle
 10
51.701389
 20
208.9859469999999
 30
0.0
 40
0.6019860000000003
100
AcDbArc
 50
355.0381409999998
 51
17.837541
  0
LINE
  5
2A93
330
A
100
AcDbEntity
  8
0
  6
Continuous
 62
     7
 48
0.026604
100
AcDbLine
 10
73.18819399999998
 20
226.7329559999999
 30
0.0
 11
73.907127
 21
225.9483799999999
 31
0.0
  0
LINE
  5
2A94
330
A
100
AcDbEntity
  8
0
  6
Continuous
 62
     7
 48
0.030174
100
AcDbLine
 10
72.298317
 20
225.917542
 30
0.0
 11
73.18819399999998
 21
226.7329559999999
 31
0.0
  0
LINE
  5
2A95
330
A
100
AcDbEntity
  8
0
  6
Continuous
 62
     7
 48
0.132173
100
AcDbLine
 10
73.907127
 20
225.9483799999999
 30
0.0
 11
73.446342
 21
220.6815799999999
 31
0.0
  0
LINE
  5
2A96
330
A
100
AcDbEntity
  8
0
  6
Continuous
 62
     7
 48
0.110259
100
AcDbLine
 10
71.913925
 20
221.523972
 30
0.0
 11
72.298317
 21
225.917542
 31
0.0
  0
LINE
  5
2A97
330
A
100
AcDbEntity
  8
0
  6
Continuous
 62
     7
 48
0.048632
100
AcDbLine
 10
73.228149
 20
220.089752
 30
0.0
 11
71.913925
 21
221.523972
 31
0.0
  0
ARC
  5
2A98
330
A
100
AcDbEntity
  8
0
  6
Continuous
 62
     7
100
AcDbCircle
 10
72.24416399999999
 20
220.788666
 30
0.0
 40
1.206971999999999
100
AcDbArc
 50
324.6144339999998
 51
354.910266
  0
LINE
  5
2A99
330
A
100
AcDbEntity
  8
0
  6
Continuous
 62
     7
 48
0.031558
100
AcDbLine
 10
51.936638
 20
209.538986
 30
0.0
 11
51.005959
 21
208.6861719999999
 31
0.0
  0
ARC
  5
2A9A
330
A
100
AcDbEntity
  8
0
  6
Continuous
 62
     7
100
AcDbCircle
 10
51.702995
 20
208.984192
 30
0.0
 40
0.6019860000000003
100
AcDbArc
 50
67.162459
 51
89.96185600000002
  0
LINE
  5
2A9B
330
A
100
AcDbEntity
  8
0
  6
Continuous
 62
     7
 48
0.042501
100
AcDbLine
 10
51.005959
 20
208.6861719999999
 30
0.0
 11
49.305923
 21
208.6861719999999
 31
0.0
  0
LINE
  5
2A9C
330
A
100
AcDbEntity
  8
0
  6
Continuous
 62
     7
 48
0.075286
100
AcDbLine
 10
48.69194
 20
209.5861659999999
 30
0.0
 11
51.7034
 21
209.5861659999999
 31
0.0
  0
ARC
  5
2A9D
330
A
100
AcDbEntity
  8
0
  6
Continuous
 62
     7
100
AcDbCircle
 10
48.69212
 20
208.985016
 30
0.0
 40
0.601153
100
AcDbArc
 50
90.017262
 51
107.8584199999999
  0
LINE
  5
2A9E
330
A
100
AcDbEntity
  8
0
  6
Continuous
 62
     7
 48
0.029535
100
AcDbLine
 10
49.305923
 20
208.6861719999999
 30
0.0
 11
48.507767
 21
209.557205
 31
0.0
  0
LINE
  5
2A9F
330
A
100
AcDbEntity
  8
0
  6
Continuous
 62
     7
 48
0.026604
100
AcDbLine
 10
112.1881939999999
 20
226.7329559999999
 30
0.0
 11
112.907127
 21
225.9483799999999
 31
0.0
  0
LINE
  5
2AA0
330
A
100
AcDbEntity
  8
0
  6
Continuous
 62
     7
 48
0.030174
100
AcDbLine
 10
111.2983169999999
 20
225.917542
 30
0.0
 11
112.1881939999999
 21
226.7329559999999
 31
0.0
  0
LINE
  5
2AA1
330
A
100
AcDbEntity
  8
0
  6
Continuous
 62
     7
 48
0.132173
100
AcDbLine
 10
112.907127
 20
225.9483799999999
 30
0.0
 11
112.4463419999996
 21
220.6815799999999
 31
0.0
  0
LINE
  5
2AA2
330
A
100
AcDbEntity
  8
0
  6
Continuous
 62
     7
 48
0.110259
100
AcDbLine
 10
110.913925
 20
221.523972
 30
0.0
 11
111.2983169999999
 21
225.917542
 31
0.0
  0
LINE
  5
2AA3
330
A
100
AcDbEntity
  8
0
  6
Continuous
 62
     7
 48
0.048632
100
AcDbLine
 10
112.2281489999999
 20
220.089752
 30
0.0
 11
110.913925
 21
221.523972
 31
0.0
  0
ARC
  5
2AA4
330
A
100
AcDbEntity
  8
0
  6
Continuous
 62
     7
100
AcDbCircle
 10
111.244156
 20
220.788666
 30
0.0
 40
1.206971999999999
100
AcDbArc
 50
324.6144339999998
 51
354.910266
  0
ARC
  5
2AA5
330
A
100
AcDbEntity
  8
0
  6
Continuous
 62
     7
100
AcDbCircle
 10
48.693069
 20
208.985886
 30
0.0
 40
0.601153
100
AcDbArc
 50
157.1415879999999
 51
174.9827389999999
  0
LINE
  5
2AA6
330
A
100
AcDbEntity
  8
0
  6
Continuous
 62
     7
 48
0.054319
100
AcDbLine
 10
47.904854
 20
206.873962
 30
0.0
 11
48.094223
 21
209.038467
 31
0.0
  0
LINE
  5
2AA7
330
A
100
AcDbEntity
  8
0
  6
Continuous
 62
     7
 48
0.029535
100
AcDbLine
 10
48.13913
 20
209.2194059999999
 30
0.0
 11
48.937286
 21
208.348373
 31
0.0
  0
LINE
  5
2AA8
330
A
100
AcDbEntity
  8
0
  6
Continuous
 62
     7
 48
0.014736
100
AcDbLine
 10
48.30307
 20
206.439392
 30
0.0
 11
47.904854
 21
206.873962
 31
0.0
  0
LINE
  5
2AA9
330
A
100
AcDbEntity
  8
0
  6
Continuous
 62
     7
 48
0.017223
100
AcDbLine
 10
48.810989
 20
206.9048159999999
 30
0.0
 11
48.30307
 21
206.439392
 31
0.0
  0
LINE
  5
2AAA
330
A
100
AcDbEntity
  8
0
  6
Continuous
 62
     7
 48
0.036227
100
AcDbLine
 10
48.937286
 20
208.348373
 30
0.0
 11
48.810989
 21
206.9048159999999
 31
0.0
  0
CIRCLE
  5
2AAB
330
A
100
AcDbEntity
  8
0
  6
Continuous
 62
     7
100
AcDbCircle
 10
75.25050400000002
 20
220.386169
 30
0.0
 40
0.8
  0
ARC
  5
2AAC
330
A
100
AcDbEntity
  8
0
  6
Continuous
 62
     7
100
AcDbCircle
 10
98.249016
 20
220.7931059999999
 30
0.0
 40
1.206971999999999
100
AcDbArc
 50
270.089733
 51
300.38557
  0
LINE
  5
2AAD
330
A
100
AcDbEntity
  8
0
  6
Continuous
 62
     7
 48
0.048632
100
AcDbLine
 10
97.545288
 20
221.186172
 30
0.0
 11
98.859512
 21
219.751953
 31
0.0
  0
LINE
  5
2AAE
330
A
100
AcDbEntity
  8
0
  6
Continuous
 62
     7
 48
0.155592
100
AcDbLine
 10
98.25090799999999
 20
219.586166
 30
0.0
 11
92.027222
 21
219.586166
 31
0.0
  0
LINE
  5
2AAF
330
A
100
AcDbEntity
  8
0
  6
Continuous
 62
     7
 48
0.117787
100
AcDbLine
 10
92.83379399999999
 20
221.186172
 30
0.0
 11
97.545288
 21
221.186172
 31
0.0
  0
LINE
  5
2AB0
330
A
100
AcDbEntity
  8
0
  6
Continuous
 62
     7
 48
0.050964
100
AcDbLine
 10
91.33080300000001
 20
219.8089289999999
 30
0.0
 11
92.83379399999999
 21
221.186172
 31
0.0
  0
ARC
  5
2AB1
330
A
100
AcDbEntity
  8
0
  6
Continuous
 62
     7
100
AcDbCircle
 10
92.030197
 20
220.795471
 30
0.0
 40
1.209362999999997
100
AcDbArc
 50
234.665673
 51
269.859022
  0
LINE
  5
2AB2
330
A
100
AcDbEntity
  8
0
  6
Continuous
 62
     7
 48
0.026604
100
AcDbLine
 10
79.19229900000002
 20
227.439392
 30
0.0
 11
78.473366
 21
228.2239689999999
 31
0.0
  0
LINE
  5
2AB3
330
A
100
AcDbEntity
  8
0
  6
Continuous
 62
     7
 48
0.030174
100
AcDbLine
 10
80.082176
 20
228.2548069999999
 30
0.0
 11
79.19229900000002
 21
227.439392
 31
0.0
  0
LINE
  5
2AB4
330
A
100
AcDbEntity
  8
0
  6
Continuous
 62
     7
 48
0.132173
100
AcDbLine
 10
78.473366
 20
228.2239689999999
 30
0.0
 11
78.934151
 21
233.4907529999999
 31
0.0
  0
LINE
  5
2AB5
330
A
100
AcDbEntity
  8
0
  6
Continuous
 62
     7
 48
0.110259
100
AcDbLine
 10
80.46656
 20
232.6483759999999
 30
0.0
 11
80.082176
 21
228.2548069999999
 31
0.0
  0
LINE
  5
2AB6
330
A
100
AcDbEntity
  8
0
  6
Continuous
 62
     7
 48
0.048632
100
AcDbLine
 10
79.152344
 20
234.082596
 30
0.0
 11
80.46656
 21
232.6483759999999
 31
0.0
  0
ARC
  5
2AB7
330
A
100
AcDbEntity
  8
0
  6
Continuous
 62
     7
100
AcDbCircle
 10
80.13633
 20
233.383682
 30
0.0
 40
1.206971999999999
100
AcDbArc
 50
144.614434
 51
174.910271
  0
ARC
  5
2AB8
330
A
100
AcDbEntity
  8
0
  6
Continuous
 62
     7
100
AcDbCircle
 10
111.932961
 20
204.591034
 30
0.0
 40
1.004878
100
AcDbArc
 50
270.0691529999999
 51
297.9533399999999
  0
LINE
  5
2AB9
330
A
100
AcDbEntity
  8
0
  6
Continuous
 62
     7
 48
0.036715
100
AcDbLine
 10
111.4118189999999
 20
204.786179
 30
0.0
 11
112.4039919999999
 21
203.7034149999999
 31
0.0
  0
LINE
  5
2ABA
330
A
100
AcDbEntity
  8
0
  6
Continuous
 62
     7
 48
0.122968
100
AcDbLine
 10
111.934174
 20
203.586166
 30
0.0
 11
107.015457
 21
203.586166
 31
0.0
  0
LINE
  5
2ABB
330
A
100
AcDbEntity
  8
0
  6
Continuous
 62
     7
 48
0.095201
100
AcDbLine
 10
107.6037669999999
 20
204.786179
 30
0.0
 11
111.4118189999999
 21
204.786179
 31
0.0
  0
LINE
  5
2ABC
330
A
100
AcDbEntity
  8
0
  6
Continuous
 62
     7
 48
0.038428
100
AcDbLine
 10
106.4704899999999
 20
203.747711
 30
0.0
 11
107.6037669999999
 21
204.786179
 31
0.0
  0
ARC
  5
2ABD
330
A
100
AcDbEntity
  8
0
  6
Continuous
 62
     7
100
AcDbCircle
 10
107.017456
 20
204.592926
 30
0.0
 40
1.006791999999999
100
AcDbArc
 50
237.091455
 51
269.8860559999999
  0
LINE
  5
2ABE
330
A
100
AcDbEntity
  8
0
  6
Continuous
 62
     7
 48
0.019822
100
AcDbLine
 10
112.7577209999996
 20
209.232956
 30
0.0
 11
113.293396
 21
208.648376
 31
0.0
  0
LINE
  5
2ABF
330
A
100
AcDbEntity
  8
0
  6
Continuous
 62
     7
 48
0.022773
100
AcDbLine
 10
112.086105
 20
208.6175379999999
 30
0.0
 11
112.7577209999996
 21
209.232956
 31
0.0
  0
LINE
  5
2AC0
330
A
100
AcDbEntity
  8
0
  6
Continuous
 62
     7
 48
0.10413
100
AcDbLine
 10
113.293396
 20
208.648376
 30
0.0
 11
112.930374
 21
204.4990229999999
 31
0.0
  0
LINE
  5
2AC1
330
A
100
AcDbEntity
  8
0
  6
Continuous
 62
     7
 48
0.087673
100
AcDbLine
 10
111.780457
 20
205.123962
 30
0.0
 11
112.086105
 21
208.6175379999999
 31
0.0
  0
LINE
  5
2AC2
330
A
100
AcDbEntity
  8
0
  6
Continuous
 62
     7
 48
0.036715
100
AcDbLine
 10
112.772629
 20
204.0411989999999
 30
0.0
 11
111.780457
 21
205.123962
 31
0.0
  0
ARC
  5
2AC3
330
A
100
AcDbEntity
  8
0
  6
Continuous
 62
     7
100
AcDbCircle
 10
111.9293819999999
 20
204.58783
 30
0.0
 40
1.004931
100
AcDbArc
 50
327.047401
 51
354.9301129999998
  0
CIRCLE
  5
2AC4
330
A
100
AcDbEntity
  8
0
  6
Continuous
 62
     7
100
AcDbCircle
 10
114.250504
 20
204.1861719999999
 30
0.0
 40
0.6
  0
LINE
  5
2AC5
330
A
100
AcDbEntity
  8
0
  6
Continuous
 62
     7
 48
0.087673
100
AcDbLine
 10
112.2528989999999
 20
210.523972
 30
0.0
 11
112.558548
 21
214.0175319999999
 31
0.0
  0
LINE
  5
2AC6
330
A
100
AcDbEntity
  8
0
  6
Continuous
 62
     7
 48
0.019822
100
AcDbLine
 10
112.7885669999999
 20
209.9393919999999
 30
0.0
 11
112.2528989999999
 21
210.523972
 31
0.0
  0
LINE
  5
2AC7
330
A
100
AcDbEntity
  8
0
  6
Continuous
 62
     7
 48
0.038428
100
AcDbLine
 10
112.558548
 20
214.0175319999999
 30
0.0
 11
113.691826
 21
215.055984
 31
0.0
  0
LINE
  5
2AC8
330
A
100
AcDbEntity
  8
0
  6
Continuous
 62
     7
 48
0.022773
100
AcDbLine
 10
113.460182
 20
210.55481
 30
0.0
 11
112.7885669999999
 21
209.9393919999999
 31
0.0
  0
LINE
  5
2AC9
330
A
100
AcDbEntity
  8
0
  6
Continuous
 62
     7
 48
0.098982
100
AcDbLine
 10
113.805252
 20
214.4990229999999
 30
0.0
 11
113.460182
 21
210.55481
 31
0.0
  0
ARC
  5
2ACA
330
A
100
AcDbEntity
  8
0
  6
Continuous
 62
     7
100
AcDbCircle
 10
112.8021549999999
 20
214.584763
 30
0.0
 40
1.006791999999999
100
AcDbArc
 50
355.113943
 51
27.908544
  0
LINE
  5
2ACB
330
A
100
AcDbEntity
  8
0
  6
Continuous
 62
     7
 48
0.110259
100
AcDbLine
 10
79.880386
 20
225.9483799999999
 30
0.0
 11
79.496002
 21
221.5548099999999
 31
0.0
  0
LINE
  5
2ACC
330
A
100
AcDbEntity
  8
0
  6
Continuous
 62
     7
 48
0.026604
100
AcDbLine
 10
79.16145300000002
 20
226.7329559999999
 30
0.0
 11
79.880386
 21
225.9483799999999
 31
0.0
  0
LINE
  5
2ACD
330
A
100
AcDbEntity
  8
0
  6
Continuous
 62
     7
 48
0.050964
100
AcDbLine
 10
79.496002
 20
221.5548099999999
 30
0.0
 11
77.993011
 21
220.1775669999999
 31
0.0
  0
LINE
  5
2ACE
330
A
100
AcDbEntity
  8
0
  6
Continuous
 62
     7
 48
0.030174
100
AcDbLine
 10
78.27157599999998
 20
225.917542
 30
0.0
 11
79.16145300000002
 21
226.7329559999999
 31
0.0
  0
LINE
  5
2ACF
330
A
100
AcDbEntity
  8
0
  6
Continuous
 62
     7
 48
0.12615
100
AcDbLine
 10
77.831795
 20
220.890762
 30
0.0
 11
78.27157599999998
 21
225.917542
 31
0.0
  0
ARC
  5
2AD0
330
A
100
AcDbEntity
  8
0
  6
Continuous
 62
     7
100
AcDbCircle
 10
79.036751
 20
220.7883299999999
 30
0.0
 40
1.209362999999997
100
AcDbArc
 50
175.140981
 51
210.334324
  0
LINE
  5
2AD1
330
A
100
AcDbEntity
  8
0
  6
Continuous
 62
     7
 48
0.095201
100
AcDbLine
 10
112.220749
 20
214.386169
 30
0.0
 11
108.412697
 21
214.386169
 31
0.0
  0
LINE
  5
2AD2
330
A
100
AcDbEntity
  8
0
  6
Continuous
 62
     7
 48
0.038428
100
AcDbLine
 10
113.354034
 20
215.424622
 30
0.0
 11
112.220749
 21
214.386169
 31
0.0
  0
LINE
  5
2AD3
330
A
100
AcDbEntity
  8
0
  6
Continuous
 62
     7
 48
0.036715
100
AcDbLine
 10
108.412697
 20
214.386169
 30
0.0
 11
107.420525
 21
215.468933
 31
0.0
  0
ARC
  5
2AD4
330
A
100
AcDbEntity
  8
0
  6
Continuous
 62
     7
100
AcDbCircle
 10
112.80706
 20
214.579422
 30
0.0
 40
1.006791999999999
100
AcDbArc
 50
57.091453
 51
89.886054
  0
LINE
  5
2AD5
330
A
100
AcDbEntity
  8
0
  6
Continuous
 62
     7
 48
0.122968
100
AcDbLine
 10
107.8903429999999
 20
215.586166
 30
0.0
 11
112.8090669999999
 21
215.586166
 31
0.0
  0
ARC
  5
2AD6
330
A
100
AcDbEntity
  8
0
  6
Continuous
 62
     7
100
AcDbCircle
 10
107.8915709999999
 20
214.581268
 30
0.0
 40
1.004931
100
AcDbArc
 50
90.06988900000001
 51
117.9525989999999
  0
LINE
  5
2AD7
330
A
100
AcDbEntity
  8
0
  6
Continuous
 62
     7
 48
0.019822
100
AcDbLine
 10
107.066795
 20
209.9393919999999
 30
0.0
 11
106.531128
 21
210.523972
 31
0.0
  0
LINE
  5
2AD8
330
A
100
AcDbEntity
  8
0
  6
Continuous
 62
     7
 48
0.022773
100
AcDbLine
 10
107.738411
 20
210.55481
 30
0.0
 11
107.066795
 21
209.9393919999999
 31
0.0
  0
LINE
  5
2AD9
330
A
100
AcDbEntity
  8
0
  6
Continuous
 62
     7
 48
0.10413
100
AcDbLine
 10
106.531128
 20
210.523972
 30
0.0
 11
106.8941499999999
 21
214.673325
 31
0.0
  0
LINE
  5
2ADA
330
A
100
AcDbEntity
  8
0
  6
Continuous
 62
     7
 48
0.087673
100
AcDbLine
 10
108.044052
 20
214.04837
 30
0.0
 11
107.738411
 21
210.55481
 31
0.0
  0
LINE
  5
2ADB
330
A
100
AcDbEntity
  8
0
  6
Continuous
 62
     7
 48
0.036715
100
AcDbLine
 10
107.0518879999999
 20
215.1311339999999
 30
0.0
 11
108.044052
 21
214.04837
 31
0.0
  0
ARC
  5
2ADC
330
A
100
AcDbEntity
  8
0
  6
Continuous
 62
     7
100
AcDbCircle
 10
107.8951259999999
 20
214.584518
 30
0.0
 40
1.004931
100
AcDbArc
 50
147.047401
 51
174.9301199999999
  0
CIRCLE
  5
2ADD
330
A
100
AcDbEntity
  8
0
  6
Continuous
 62
     7
100
AcDbCircle
 10
101.250504
 20
220.386169
 30
0.0
 40
0.8
  0
LINE
  5
2ADE
330
A
100
AcDbEntity
  8
0
  6
Continuous
 62
     7
 48
0.022773
100
AcDbLine
 10
107.404587
 20
209.5707549999999
 30
0.0
 11
108.0762019999999
 21
210.186172
 31
0.0
  0
LINE
  5
2ADF
330
A
100
AcDbEntity
  8
0
  6
Continuous
 62
     7
 48
0.019822
100
AcDbLine
 10
107.9402619999999
 20
208.986176
 30
0.0
 11
107.404587
 21
209.5707549999999
 31
0.0
  0
LINE
  5
2AE0
330
A
100
AcDbEntity
  8
0
  6
Continuous
 62
     7
 48
0.095201
100
AcDbLine
 10
108.0762019999999
 20
210.186172
 30
0.0
 11
111.884262
 21
210.186172
 31
0.0
  0
LINE
  5
2AE1
330
A
100
AcDbEntity
  8
0
  6
Continuous
 62
     7
 48
0.095201
100
AcDbLine
 10
111.748314
 20
208.986176
 30
0.0
 11
107.9402619999999
 21
208.986176
 31
0.0
  0
LINE
  5
2AE2
330
A
100
AcDbEntity
  8
0
  6
Continuous
 62
     7
 48
0.022773
100
AcDbLine
 10
112.41993
 20
209.6015929999999
 30
0.0
 11
111.748314
 21
208.986176
 31
0.0
  0
LINE
  5
2AE3
330
A
100
AcDbEntity
  8
0
  6
Continuous
 62
     7
 48
0.019822
100
AcDbLine
 10
111.884262
 20
210.186172
 30
0.0
 11
112.41993
 21
209.6015929999999
 31
0.0
  0
LINE
  5
2AE4
330
A
100
AcDbEntity
  8
0
  6
Continuous
 62
     7
 48
0.087673
100
AcDbLine
 10
107.5716169999999
 20
208.648376
 30
0.0
 11
107.265976
 21
205.1548159999999
 31
0.0
  0
LINE
  5
2AE5
330
A
100
AcDbEntity
  8
0
  6
Continuous
 62
     7
 48
0.019822
100
AcDbLine
 10
107.03595
 20
209.232956
 30
0.0
 11
107.5716169999999
 21
208.648376
 31
0.0
  0
LINE
  5
2AE6
330
A
100
AcDbEntity
  8
0
  6
Continuous
 62
     7
 48
0.038428
100
AcDbLine
 10
107.265976
 20
205.1548159999999
 30
0.0
 11
106.13269
 21
204.1163479999999
 31
0.0
  0
LINE
  5
2AE7
330
A
100
AcDbEntity
  8
0
  6
Continuous
 62
     7
 48
0.022773
100
AcDbLine
 10
106.364334
 20
208.6175379999999
 30
0.0
 11
107.03595
 21
209.232956
 31
0.0
  0
LINE
  5
2AE8
330
A
100
AcDbEntity
  8
0
  6
Continuous
 62
     7
 48
0.098982
100
AcDbLine
 10
106.0192639999999
 20
204.6733249999999
 30
0.0
 11
106.364334
 21
208.6175379999999
 31
0.0
  0
ARC
  5
2AE9
330
A
100
AcDbEntity
  8
0
  6
Continuous
 62
     7
100
AcDbCircle
 10
107.022362
 20
204.587585
 30
0.0
 40
1.006791999999999
100
AcDbArc
 50
175.1139479999999
 51
207.9085389999999
  0
LINE
  5
2AEA
330
A
100
AcDbEntity
  8
0
  6
Continuous
 62
     7
 48
0.030174
100
AcDbLine
 10
79.53009
 20
227.070755
 30
0.0
 11
80.41996800000003
 21
227.8861689999998
 31
0.0
  0
LINE
  5
2AEB
330
A
100
AcDbEntity
  8
0
  6
Continuous
 62
     7
 48
0.026604
100
AcDbLine
 10
80.24902299999999
 20
226.286179
 30
0.0
 11
79.53009
 21
227.070755
 31
0.0
  0
LINE
  5
2AEC
330
A
100
AcDbEntity
  8
0
  6
Continuous
 62
     7
 48
0.117787
100
AcDbLine
 10
80.41996800000003
 20
227.8861689999998
 30
0.0
 11
85.13146199999999
 21
227.8861689999998
 31
0.0
  0
LINE
  5
2AED
330
A
100
AcDbEntity
  8
0
  6
Continuous
 62
     7
 48
0.117787
100
AcDbLine
 10
84.96051800000001
 20
226.286179
 30
0.0
 11
80.24902299999999
 21
226.286179
 31
0.0
  0
LINE
  5
2AEE
330
A
100
AcDbEntity
  8
0
  6
Continuous
 62
     7
 48
0.030174
100
AcDbLine
 10
85.85039499999998
 20
227.101593
 30
0.0
 11
84.96051800000001
 21
226.286179
 31
0.0
  0
LINE
  5
2AEF
330
A
100
AcDbEntity
  8
0
  6
Continuous
 62
     7
 48
0.026604
100
AcDbLine
 10
85.13146199999999
 20
227.8861689999998
 30
0.0
 11
85.85039499999998
 21
227.101593
 31
0.0
  0
CIRCLE
  5
2AF0
330
A
100
AcDbEntity
  8
0
  6
Continuous
 62
     7
100
AcDbCircle
 10
104.2505039999999
 20
204.1861719999999
 30
0.0
 40
0.6
  0
LINE
  5
2AF1
330
A
100
AcDbEntity
  8
0
  6
Continuous
 62
     7
 48
0.087673
100
AcDbLine
 10
102.252899
 20
210.523972
 30
0.0
 11
102.5585479999999
 21
214.0175319999999
 31
0.0
  0
LINE
  5
2AF2
330
A
100
AcDbEntity
  8
0
  6
Continuous
 62
     7
 48
0.019822
100
AcDbLine
 10
102.788567
 20
209.9393919999999
 30
0.0
 11
102.252899
 21
210.523972
 31
0.0
  0
LINE
  5
2AF3
330
A
100
AcDbEntity
  8
0
  6
Continuous
 62
     7
 48
0.038428
100
AcDbLine
 10
102.5585479999999
 20
214.0175319999999
 30
0.0
 11
103.6918259999999
 21
215.055984
 31
0.0
  0
LINE
  5
2AF4
330
A
100
AcDbEntity
  8
0
  6
Continuous
 62
     7
 48
0.022773
100
AcDbLine
 10
103.460182
 20
210.55481
 30
0.0
 11
102.788567
 21
209.9393919999999
 31
0.0
  0
LINE
  5
2AF5
330
A
100
AcDbEntity
  8
0
  6
Continuous
 62
     7
 48
0.098982
100
AcDbLine
 10
103.8052519999999
 20
214.4990229999999
 30
0.0
 11
103.460182
 21
210.55481
 31
0.0
  0
ARC
  5
2AF6
330
A
100
AcDbEntity
  8
0
  6
Continuous
 62
     7
100
AcDbCircle
 10
102.802155
 20
214.584763
 30
0.0
 40
1.006791999999999
100
AcDbArc
 50
355.113943
 51
27.908544
  0
ARC
  5
2AF7
330
A
100
AcDbEntity
  8
0
  6
Continuous
 62
     7
100
AcDbCircle
 10
111.2490229999999
 20
220.7931059999999
 30
0.0
 40
1.206971999999999
100
AcDbArc
 50
270.089733
 51
300.38557
  0
LINE
  5
2AF8
330
A
100
AcDbEntity
  8
0
  6
Continuous
 62
     7
 48
0.048632
100
AcDbLine
 10
110.5452879999996
 20
221.186172
 30
0.0
 11
111.859512
 21
219.751953
 31
0.0
  0
LINE
  5
2AF9
330
A
100
AcDbEntity
  8
0
  6
Continuous
 62
     7
 48
0.155592
100
AcDbLine
 10
111.250908
 20
219.586166
 30
0.0
 11
105.0272219999999
 21
219.586166
 31
0.0
  0
LINE
  5
2AFA
330
A
100
AcDbEntity
  8
0
  6
Continuous
 62
     7
 48
0.117787
100
AcDbLine
 10
105.8337939999999
 20
221.186172
 30
0.0
 11
110.5452879999996
 21
221.186172
 31
0.0
  0
LINE
  5
2AFB
330
A
100
AcDbEntity
  8
0
  6
Continuous
 62
     7
 48
0.050964
100
AcDbLine
 10
104.3308029999999
 20
219.8089289999999
 30
0.0
 11
105.8337939999999
 21
221.186172
 31
0.0
  0
ARC
  5
2AFC
330
A
100
AcDbEntity
  8
0
  6
Continuous
 62
     7
100
AcDbCircle
 10
105.030197
 20
220.795471
 30
0.0
 40
1.209362999999997
100
AcDbArc
 50
234.665673
 51
269.859022
  0
LINE
  5
2AFD
330
A
100
AcDbEntity
  8
0
  6
Continuous
 62
     7
 48
0.095201
100
AcDbLine
 10
102.2207489999999
 20
214.386169
 30
0.0
 11
98.41269699999999
 21
214.386169
 31
0.0
  0
LINE
  5
2AFE
330
A
100
AcDbEntity
  8
0
  6
Continuous
 62
     7
 48
0.038428
100
AcDbLine
 10
103.354027
 20
215.424622
 30
0.0
 11
102.2207489999999
 21
214.386169
 31
0.0
  0
LINE
  5
2AFF
330
A
100
AcDbEntity
  8
0
  6
Continuous
 62
     7
 48
0.036715
100
AcDbLine
 10
98.41269699999999
 20
214.386169
 30
0.0
 11
97.42052499999999
 21
215.468933
 31
0.0
  0
ARC
  5
2B00
330
A
100
AcDbEntity
  8
0
  6
Continuous
 62
     7
100
AcDbCircle
 10
102.8070599999999
 20
214.579422
 30
0.0
 40
1.006791999999999
100
AcDbArc
 50
57.091453
 51
89.886054
  0
LINE
  5
2B01
330
A
100
AcDbEntity
  8
0
  6
Continuous
 62
     7
 48
0.122968
100
AcDbLine
 10
97.890343
 20
215.586166
 30
0.0
 11
102.8090589999999
 21
215.586166
 31
0.0
  0
ARC
  5
2B02
330
A
100
AcDbEntity
  8
0
  6
Continuous
 62
     7
100
AcDbCircle
 10
97.891571
 20
214.581268
 30
0.0
 40
1.004931
100
AcDbArc
 50
90.06988900000001
 51
117.9525989999999
  0
LINE
  5
2B03
330
A
100
AcDbEntity
  8
0
  6
Continuous
 62
     7
 48
0.022773
100
AcDbLine
 10
97.40458700000001
 20
209.5707549999999
 30
0.0
 11
98.076202
 21
210.186172
 31
0.0
  0
LINE
  5
2B04
330
A
100
AcDbEntity
  8
0
  6
Continuous
 62
     7
 48
0.019822
100
AcDbLine
 10
97.94025400000002
 20
208.986176
 30
0.0
 11
97.40458700000001
 21
209.5707549999999
 31
0.0
  0
LINE
  5
2B05
330
A
100
AcDbEntity
  8
0
  6
Continuous
 62
     7
 48
0.095201
100
AcDbLine
 10
98.076202
 20
210.186172
 30
0.0
 11
101.884262
 21
210.186172
 31
0.0
  0
LINE
  5
2B06
330
A
100
AcDbEntity
  8
0
  6
Continuous
 62
     7
 48
0.095201
100
AcDbLine
 10
101.748314
 20
208.986176
 30
0.0
 11
97.94025400000002
 21
208.986176
 31
0.0
  0
LINE
  5
2B07
330
A
100
AcDbEntity
  8
0
  6
Continuous
 62
     7
 48
0.022773
100
AcDbLine
 10
102.41993
 20
209.6015929999999
 30
0.0
 11
101.748314
 21
208.986176
 31
0.0
  0
LINE
  5
2B08
330
A
100
AcDbEntity
  8
0
  6
Continuous
 62
     7
 48
0.019822
100
AcDbLine
 10
101.884262
 20
210.186172
 30
0.0
 11
102.41993
 21
209.6015929999999
 31
0.0
  0
LINE
  5
2B09
330
A
100
AcDbEntity
  8
0
  6
Continuous
 62
     7
 48
0.117787
100
AcDbLine
 10
85.54669200000002
 20
232.9861759999999
 30
0.0
 11
80.835197
 21
232.9861759999999
 31
0.0
  0
LINE
  5
2B0A
330
A
100
AcDbEntity
  8
0
  6
Continuous
 62
     7
 48
0.050964
100
AcDbLine
 10
87.04969
 20
234.363403
 30
0.0
 11
85.54669200000002
 21
232.9861759999999
 31
0.0
  0
LINE
  5
2B0B
330
A
100
AcDbEntity
  8
0
  6
Continuous
 62
     7
 48
0.048632
100
AcDbLine
 10
80.835197
 20
232.9861759999999
 30
0.0
 11
79.520981
 21
234.420395
 31
0.0
  0
ARC
  5
2B0C
330
A
100
AcDbEntity
  8
0
  6
Continuous
 62
     7
100
AcDbCircle
 10
86.35031899999999
 20
233.376968
 30
0.0
 40
1.20926
100
AcDbArc
 50
54.66419399999999
 51
89.860503
  0
LINE
  5
2B0D
330
A
100
AcDbEntity
  8
0
  6
Continuous
 62
     7
 48
0.155592
100
AcDbLine
 10
80.12958499999998
 20
234.5861819999999
 30
0.0
 11
86.353264
 21
234.5861819999999
 31
0.0
  0
ARC
  5
2B0E
330
A
100
AcDbEntity
  8
0
  6
Continuous
 62
     7
100
AcDbCircle
 10
80.13147
 20
233.3792419999999
 30
0.0
 40
1.206971999999999
100
AcDbArc
 50
90.08973799999999
 51
120.385567
  0
LINE
  5
2B0F
330
A
100
AcDbEntity
  8
0
  6
Continuous
 62
     7
 48
0.019822
100
AcDbLine
 10
102.757721
 20
209.232956
 30
0.0
 11
103.293396
 21
208.648376
 31
0.0
  0
LINE
  5
2B10
330
A
100
AcDbEntity
  8
0
  6
Continuous
 62
     7
 48
0.022773
100
AcDbLine
 10
102.086105
 20
208.6175379999999
 30
0.0
 11
102.757721
 21
209.232956
 31
0.0
  0
LINE
  5
2B11
330
A
100
AcDbEntity
  8
0
  6
Continuous
 62
     7
 48
0.10413
100
AcDbLine
 10
103.293396
 20
208.648376
 30
0.0
 11
102.930367
 21
204.4990229999999
 31
0.0
  0
LINE
  5
2B12
330
A
100
AcDbEntity
  8
0
  6
Continuous
 62
     7
 48
0.087673
100
AcDbLine
 10
101.780464
 20
205.123962
 30
0.0
 11
102.086105
 21
208.6175379999999
 31
0.0
  0
LINE
  5
2B13
330
A
100
AcDbEntity
  8
0
  6
Continuous
 62
     7
 48
0.036715
100
AcDbLine
 10
102.772629
 20
204.0411989999999
 30
0.0
 11
101.780464
 21
205.123962
 31
0.0
  0
ARC
  5
2B14
330
A
100
AcDbEntity
  8
0
  6
Continuous
 62
     7
100
AcDbCircle
 10
101.92939
 20
204.58783
 30
0.0
 40
1.004931
100
AcDbArc
 50
327.047401
 51
354.9301129999998
  0
ARC
  5
2B15
330
A
100
AcDbEntity
  8
0
  6
Continuous
 62
     7
100
AcDbCircle
 10
101.932953
 20
204.59108
 30
0.0
 40
1.004931
100
AcDbArc
 50
270.069884
 51
297.952602
  0
LINE
  5
2B16
330
A
100
AcDbEntity
  8
0
  6
Continuous
 62
     7
 48
0.036715
100
AcDbLine
 10
101.411819
 20
204.786179
 30
0.0
 11
102.403992
 21
203.7034149999999
 31
0.0
  0
LINE
  5
2B17
330
A
100
AcDbEntity
  8
0
  6
Continuous
 62
     7
 48
0.122968
100
AcDbLine
 10
101.9341739999999
 20
203.586166
 30
0.0
 11
97.015457
 21
203.586166
 31
0.0
  0
LINE
  5
2B18
330
A
100
AcDbEntity
  8
0
  6
Continuous
 62
     7
 48
0.095201
100
AcDbLine
 10
97.60376700000001
 20
204.786179
 30
0.0
 11
101.411819
 21
204.786179
 31
0.0
  0
LINE
  5
2B19
330
A
100
AcDbEntity
  8
0
  6
Continuous
 62
     7
 48
0.038428
100
AcDbLine
 10
96.47049
 20
203.747711
 30
0.0
 11
97.60376700000001
 21
204.786179
 31
0.0
  0
ARC
  5
2B1A
330
A
100
AcDbEntity
  8
0
  6
Continuous
 62
     7
100
AcDbCircle
 10
97.01745600000002
 20
204.592926
 30
0.0
 40
1.006791999999999
100
AcDbArc
 50
237.091455
 51
269.8860559999999
  0
LINE
  5
2B1B
330
A
100
AcDbEntity
  8
0
  6
Continuous
 62
     7
 48
0.026604
100
AcDbLine
 10
105.192299
 20
227.439392
 30
0.0
 11
104.4733659999999
 21
228.2239689999999
 31
0.0
  0
LINE
  5
2B1C
330
A
100
AcDbEntity
  8
0
  6
Continuous
 62
     7
 48
0.030174
100
AcDbLine
 10
106.082176
 20
228.2548069999999
 30
0.0
 11
105.192299
 21
227.439392
 31
0.0
  0
LINE
  5
2B1D
330
A
100
AcDbEntity
  8
0
  6
Continuous
 62
     7
 48
0.132173
100
AcDbLine
 10
104.4733659999999
 20
228.2239689999999
 30
0.0
 11
104.934151
 21
233.4907529999999
 31
0.0
  0
LINE
  5
2B1E
330
A
100
AcDbEntity
  8
0
  6
Continuous
 62
     7
 48
0.110259
100
AcDbLine
 10
106.46656
 20
232.6483759999999
 30
0.0
 11
106.082176
 21
228.2548069999999
 31
0.0
  0
LINE
  5
2B1F
330
A
100
AcDbEntity
  8
0
  6
Continuous
 62
     7
 48
0.048632
100
AcDbLine
 10
105.1523439999999
 20
234.082596
 30
0.0
 11
106.46656
 21
232.6483759999999
 31
0.0
  0
ARC
  5
2B20
330
A
100
AcDbEntity
  8
0
  6
Continuous
 62
     7
100
AcDbCircle
 10
106.13633
 20
233.383682
 30
0.0
 40
1.206971999999999
100
AcDbArc
 50
144.614434
 51
174.910271
  0
LINE
  5
2B21
330
A
100
AcDbEntity
  8
0
  6
Continuous
 62
     7
 48
0.087673
100
AcDbLine
 10
97.57161700000001
 20
208.648376
 30
0.0
 11
97.26596800000001
 21
205.1548159999999
 31
0.0
  0
LINE
  5
2B22
330
A
100
AcDbEntity
  8
0
  6
Continuous
 62
     7
 48
0.019822
100
AcDbLine
 10
97.03594999999999
 20
209.232956
 30
0.0
 11
97.57161700000001
 21
208.648376
 31
0.0
  0
LINE
  5
2B23
330
A
100
AcDbEntity
  8
0
  6
Continuous
 62
     7
 48
0.038428
100
AcDbLine
 10
97.26596800000001
 20
205.1548159999999
 30
0.0
 11
96.13269
 21
204.1163479999999
 31
0.0
  0
LINE
  5
2B24
330
A
100
AcDbEntity
  8
0
  6
Continuous
 62
     7
 48
0.022773
100
AcDbLine
 10
96.36433400000001
 20
208.6175379999999
 30
0.0
 11
97.03594999999999
 21
209.232956
 31
0.0
  0
LINE
  5
2B25
330
A
100
AcDbEntity
  8
0
  6
Continuous
 62
     7
 48
0.098982
100
AcDbLine
 10
96.01926400000001
 20
204.6733249999999
 30
0.0
 11
96.36433400000001
 21
208.6175379999999
 31
0.0
  0
ARC
  5
2B26
330
A
100
AcDbEntity
  8
0
  6
Continuous
 62
     7
100
AcDbCircle
 10
97.02236200000001
 20
204.587585
 30
0.0
 40
1.006791999999999
100
AcDbArc
 50
175.1139479999999
 51
207.9085389999999
  0
LINE
  5
2B27
330
A
100
AcDbEntity
  8
0
  6
Continuous
 62
     7
 48
0.019822
100
AcDbLine
 10
97.06679499999999
 20
209.9393919999999
 30
0.0
 11
96.53112800000002
 21
210.523972
 31
0.0
  0
LINE
  5
2B28
330
A
100
AcDbEntity
  8
0
  6
Continuous
 62
     7
 48
0.022773
100
AcDbLine
 10
97.738411
 20
210.55481
 30
0.0
 11
97.06679499999999
 21
209.9393919999999
 31
0.0
  0
LINE
  5
2B29
330
A
100
AcDbEntity
  8
0
  6
Continuous
 62
     7
 48
0.10413
100
AcDbLine
 10
96.53112800000002
 20
210.523972
 30
0.0
 11
96.89415
 21
214.673325
 31
0.0
  0
LINE
  5
2B2A
330
A
100
AcDbEntity
  8
0
  6
Continuous
 62
     7
 48
0.087673
100
AcDbLine
 10
98.04406
 20
214.04837
 30
0.0
 11
97.738411
 21
210.55481
 31
0.0
  0
LINE
  5
2B2B
330
A
100
AcDbEntity
  8
0
  6
Continuous
 62
     7
 48
0.036715
100
AcDbLine
 10
97.05188800000001
 20
215.1311339999999
 30
0.0
 11
98.04406
 21
214.04837
 31
0.0
  0
ARC
  5
2B2C
330
A
100
AcDbEntity
  8
0
  6
Continuous
 62
     7
100
AcDbCircle
 10
97.89512600000001
 20
214.584518
 30
0.0
 40
1.004931
100
AcDbArc
 50
147.047401
 51
174.9301199999999
  0
LINE
  5
2B2D
330
A
100
AcDbEntity
  8
0
  6
Continuous
 62
     7
 48
0.110259
100
AcDbLine
 10
85.50010699999999
 20
228.2239689999999
 30
0.0
 11
85.884491
 21
232.617538
 31
0.0
  0
LINE
  5
2B2E
330
A
100
AcDbEntity
  8
0
  6
Continuous
 62
     7
 48
0.026604
100
AcDbLine
 10
86.21904
 20
227.439392
 30
0.0
 11
85.50010699999999
 21
228.2239689999999
 31
0.0
  0
LINE
  5
2B2F
330
A
100
AcDbEntity
  8
0
  6
Continuous
 62
     7
 48
0.050964
100
AcDbLine
 10
85.884491
 20
232.617538
 30
0.0
 11
87.38748199999998
 21
233.994781
 31
0.0
  0
LINE
  5
2B30
330
A
100
AcDbEntity
  8
0
  6
Continuous
 62
     7
 48
0.030174
100
AcDbLine
 10
87.10891700000003
 20
228.2548069999999
 30
0.0
 11
86.21904
 21
227.439392
 31
0.0
  0
LINE
  5
2B31
330
A
100
AcDbEntity
  8
0
  6
Continuous
 62
     7
 48
0.12615
100
AcDbLine
 10
87.54869799999999
 20
233.2815859999999
 30
0.0
 11
87.10891700000003
 21
228.2548069999999
 31
0.0
  0
ARC
  5
2B32
330
A
100
AcDbEntity
  8
0
  6
Continuous
 62
     7
100
AcDbCircle
 10
86.34374200000001
 20
233.384018
 30
0.0
 40
1.209362999999997
100
AcDbArc
 50
355.1409779999998
 51
30.334319
  0
CIRCLE
  5
2B33
330
A
100
AcDbEntity
  8
0
  6
Continuous
 62
     7
100
AcDbCircle
 10
94.25050400000001
 20
204.1861719999999
 30
0.0
 40
0.6
  0
ARC
  5
2B34
330
A
100
AcDbEntity
  8
0
  6
Continuous
 62
     7
100
AcDbCircle
 10
91.932953
 20
204.59108
 30
0.0
 40
1.004931
100
AcDbArc
 50
270.069884
 51
297.952602
  0
LINE
  5
2B35
330
A
100
AcDbEntity
  8
0
  6
Continuous
 62
     7
 48
0.036715
100
AcDbLine
 10
91.41181899999999
 20
204.786179
 30
0.0
 11
92.403992
 21
203.7034149999999
 31
0.0
  0
LINE
  5
2B36
330
A
100
AcDbEntity
  8
0
  6
Continuous
 62
     7
 48
0.122968
100
AcDbLine
 10
91.93417399999999
 20
203.586166
 30
0.0
 11
87.015457
 21
203.586166
 31
0.0
  0
LINE
  5
2B37
330
A
100
AcDbEntity
  8
0
  6
Continuous
 62
     7
 48
0.095201
100
AcDbLine
 10
87.603767
 20
204.786179
 30
0.0
 11
91.41181899999999
 21
204.786179
 31
0.0
  0
LINE
  5
2B38
330
A
100
AcDbEntity
  8
0
  6
Continuous
 62
     7
 48
0.038428
100
AcDbLine
 10
86.47049
 20
203.747711
 30
0.0
 11
87.603767
 21
204.786179
 31
0.0
  0
ARC
  5
2B39
330
A
100
AcDbEntity
  8
0
  6
Continuous
 62
     7
100
AcDbCircle
 10
87.017456
 20
204.592926
 30
0.0
 40
1.006791999999999
100
AcDbArc
 50
237.091455
 51
269.8860559999999
  0
LINE
  5
2B3A
330
A
100
AcDbEntity
  8
0
  6
Continuous
 62
     7
 48
0.087673
100
AcDbLine
 10
87.57161700000002
 20
208.648376
 30
0.0
 11
87.26596800000001
 21
205.1548159999999
 31
0.0
  0
LINE
  5
2B3B
330
A
100
AcDbEntity
  8
0
  6
Continuous
 62
     7
 48
0.019822
100
AcDbLine
 10
87.03594999999998
 20
209.232956
 30
0.0
 11
87.57161700000002
 21
208.648376
 31
0.0
  0
LINE
  5
2B3C
330
A
100
AcDbEntity
  8
0
  6
Continuous
 62
     7
 48
0.038428
100
AcDbLine
 10
87.26596800000001
 20
205.1548159999999
 30
0.0
 11
86.13269
 21
204.1163479999999
 31
0.0
  0
LINE
  5
2B3D
330
A
100
AcDbEntity
  8
0
  6
Continuous
 62
     7
 48
0.022773
100
AcDbLine
 10
86.36433399999999
 20
208.6175379999999
 30
0.0
 11
87.03594999999998
 21
209.232956
 31
0.0
  0
LINE
  5
2B3E
330
A
100
AcDbEntity
  8
0
  6
Continuous
 62
     7
 48
0.098982
100
AcDbLine
 10
86.01926400000001
 20
204.6733249999999
 30
0.0
 11
86.36433399999999
 21
208.6175379999999
 31
0.0
  0
ARC
  5
2B3F
330
A
100
AcDbEntity
  8
0
  6
Continuous
 62
     7
100
AcDbCircle
 10
87.02236199999999
 20
204.587585
 30
0.0
 40
1.006791999999999
100
AcDbArc
 50
175.1139479999999
 51
207.9085389999999
  0
LINE
  5
2B40
330
A
100
AcDbEntity
  8
0
  6
Continuous
 62
     7
 48
0.019822
100
AcDbLine
 10
92.75772100000001
 20
209.232956
 30
0.0
 11
93.293396
 21
208.648376
 31
0.0
  0
LINE
  5
2B41
330
A
100
AcDbEntity
  8
0
  6
Continuous
 62
     7
 48
0.022773
100
AcDbLine
 10
92.086105
 20
208.6175379999999
 30
0.0
 11
92.75772100000001
 21
209.232956
 31
0.0
  0
LINE
  5
2B42
330
A
100
AcDbEntity
  8
0
  6
Continuous
 62
     7
 48
0.10413
100
AcDbLine
 10
93.293396
 20
208.648376
 30
0.0
 11
92.930367
 21
204.4990229999999
 31
0.0
  0
LINE
  5
2B43
330
A
100
AcDbEntity
  8
0
  6
Continuous
 62
     7
 48
0.087673
100
AcDbLine
 10
91.78046399999999
 20
205.123962
 30
0.0
 11
92.086105
 21
208.6175379999999
 31
0.0
  0
LINE
  5
2B44
330
A
100
AcDbEntity
  8
0
  6
Continuous
 62
     7
 48
0.036715
100
AcDbLine
 10
92.77262900000001
 20
204.0411989999999
 30
0.0
 11
91.78046399999999
 21
205.123962
 31
0.0
  0
ARC
  5
2B45
330
A
100
AcDbEntity
  8
0
  6
Continuous
 62
     7
100
AcDbCircle
 10
91.92939
 20
204.58783
 30
0.0
 40
1.004931
100
AcDbArc
 50
327.047401
 51
354.9301129999998
  0
LINE
  5
2B46
330
A
100
AcDbEntity
  8
0
  6
Continuous
 62
     7
 48
0.026604
100
AcDbLine
 10
86.18819399999997
 20
226.7329559999999
 30
0.0
 11
86.907127
 21
225.9483799999999
 31
0.0
  0
LINE
  5
2B47
330
A
100
AcDbEntity
  8
0
  6
Continuous
 62
     7
 48
0.030174
100
AcDbLine
 10
85.298317
 20
225.917542
 30
0.0
 11
86.18819399999997
 21
226.7329559999999
 31
0.0
  0
LINE
  5
2B48
330
A
100
AcDbEntity
  8
0
  6
Continuous
 62
     7
 48
0.132173
100
AcDbLine
 10
86.907127
 20
225.9483799999999
 30
0.0
 11
86.446342
 21
220.6815799999999
 31
0.0
  0
LINE
  5
2B49
330
A
100
AcDbEntity
  8
0
  6
Continuous
 62
     7
 48
0.110259
100
AcDbLine
 10
84.91392500000001
 20
221.523972
 30
0.0
 11
85.298317
 21
225.917542
 31
0.0
  0
LINE
  5
2B4A
330
A
100
AcDbEntity
  8
0
  6
Continuous
 62
     7
 48
0.048632
100
AcDbLine
 10
86.22814899999999
 20
220.089752
 30
0.0
 11
84.91392500000001
 21
221.523972
 31
0.0
  0
ARC
  5
2B4B
330
A
100
AcDbEntity
  8
0
  6
Continuous
 62
     7
100
AcDbCircle
 10
85.24415600000002
 20
220.788666
 30
0.0
 40
1.206971999999999
100
AcDbArc
 50
324.6144339999998
 51
354.910266
  0
LINE
  5
2B4C
330
A
100
AcDbEntity
  8
0
  6
Continuous
 62
     7
 48
0.022773
100
AcDbLine
 10
87.40458700000003
 20
209.5707549999999
 30
0.0
 11
88.076202
 21
210.186172
 31
0.0
  0
LINE
  5
2B4D
330
A
100
AcDbEntity
  8
0
  6
Continuous
 62
     7
 48
0.019822
100
AcDbLine
 10
87.940254
 20
208.986176
 30
0.0
 11
87.40458700000003
 21
209.5707549999999
 31
0.0
  0
LINE
  5
2B4E
330
A
100
AcDbEntity
  8
0
  6
Continuous
 62
     7
 48
0.095201
100
AcDbLine
 10
88.076202
 20
210.186172
 30
0.0
 11
91.884262
 21
210.186172
 31
0.0
  0
LINE
  5
2B4F
330
A
100
AcDbEntity
  8
0
  6
Continuous
 62
     7
 48
0.095201
100
AcDbLine
 10
91.748314
 20
208.986176
 30
0.0
 11
87.940254
 21
208.986176
 31
0.0
  0
LINE
  5
2B50
330
A
100
AcDbEntity
  8
0
  6
Continuous
 62
     7
 48
0.022773
100
AcDbLine
 10
92.41993
 20
209.6015929999999
 30
0.0
 11
91.748314
 21
208.986176
 31
0.0
  0
LINE
  5
2B51
330
A
100
AcDbEntity
  8
0
  6
Continuous
 62
     7
 48
0.019822
100
AcDbLine
 10
91.884262
 20
210.186172
 30
0.0
 11
92.41993
 21
209.6015929999999
 31
0.0
  0
LINE
  5
2B52
330
A
100
AcDbEntity
  8
0
  6
Continuous
 62
     7
 48
0.019822
100
AcDbLine
 10
87.06679499999998
 20
209.9393919999999
 30
0.0
 11
86.531128
 21
210.523972
 31
0.0
  0
LINE
  5
2B53
330
A
100
AcDbEntity
  8
0
  6
Continuous
 62
     7
 48
0.022773
100
AcDbLine
 10
87.738411
 20
210.55481
 30
0.0
 11
87.06679499999998
 21
209.9393919999999
 31
0.0
  0
LINE
  5
2B54
330
A
100
AcDbEntity
  8
0
  6
Continuous
 62
     7
 48
0.10413
100
AcDbLine
 10
86.531128
 20
210.523972
 30
0.0
 11
86.89415
 21
214.673325
 31
0.0
  0
LINE
  5
2B55
330
A
100
AcDbEntity
  8
0
  6
Continuous
 62
     7
 48
0.087673
100
AcDbLine
 10
88.04406
 20
214.04837
 30
0.0
 11
87.738411
 21
210.55481
 31
0.0
  0
LINE
  5
2B56
330
A
100
AcDbEntity
  8
0
  6
Continuous
 62
     7
 48
0.036715
100
AcDbLine
 10
87.051888
 20
215.1311339999999
 30
0.0
 11
88.04406
 21
214.04837
 31
0.0
  0
ARC
  5
2B57
330
A
100
AcDbEntity
  8
0
  6
Continuous
 62
     7
100
AcDbCircle
 10
87.895126
 20
214.584518
 30
0.0
 40
1.004931
100
AcDbArc
 50
147.047401
 51
174.9301199999999
  0
LINE
  5
2B58
330
A
100
AcDbEntity
  8
0
  6
Continuous
 62
     7
 48
0.110259
100
AcDbLine
 10
105.880386
 20
225.9483799999999
 30
0.0
 11
105.4960019999999
 21
221.5548099999999
 31
0.0
  0
LINE
  5
2B59
330
A
100
AcDbEntity
  8
0
  6
Continuous
 62
     7
 48
0.026604
100
AcDbLine
 10
105.161453
 20
226.7329559999999
 30
0.0
 11
105.880386
 21
225.9483799999999
 31
0.0
  0
LINE
  5
2B5A
330
A
100
AcDbEntity
  8
0
  6
Continuous
 62
     7
 48
0.050964
100
AcDbLine
 10
105.4960019999999
 20
221.5548099999999
 30
0.0
 11
103.993011
 21
220.1775669999999
 31
0.0
  0
LINE
  5
2B5B
330
A
100
AcDbEntity
  8
0
  6
Continuous
 62
     7
 48
0.030174
100
AcDbLine
 10
104.2715759999999
 20
225.917542
 30
0.0
 11
105.161453
 21
226.7329559999999
 31
0.0
  0
LINE
  5
2B5C
330
A
100
AcDbEntity
  8
0
  6
Continuous
 62
     7
 48
0.12615
100
AcDbLine
 10
103.8317869999999
 20
220.890762
 30
0.0
 11
104.2715759999999
 21
225.917542
 31
0.0
  0
ARC
  5
2B5D
330
A
100
AcDbEntity
  8
0
  6
Continuous
 62
     7
100
AcDbCircle
 10
105.036751
 20
220.7883299999999
 30
0.0
 40
1.209362999999997
100
AcDbArc
 50
175.140981
 51
210.334324
  0
LINE
  5
2B5E
330
A
100
AcDbEntity
  8
0
  6
Continuous
 62
     7
 48
0.087673
100
AcDbLine
 10
92.25289899999999
 20
210.523972
 30
0.0
 11
92.55854799999999
 21
214.0175319999999
 31
0.0
  0
LINE
  5
2B5F
330
A
100
AcDbEntity
  8
0
  6
Continuous
 62
     7
 48
0.019822
100
AcDbLine
 10
92.788567
 20
209.9393919999999
 30
0.0
 11
92.25289899999999
 21
210.523972
 31
0.0
  0
LINE
  5
2B60
330
A
100
AcDbEntity
  8
0
  6
Continuous
 62
     7
 48
0.038428
100
AcDbLine
 10
92.55854799999999
 20
214.0175319999999
 30
0.0
 11
93.691826
 21
215.055984
 31
0.0
  0
LINE
  5
2B61
330
A
100
AcDbEntity
  8
0
  6
Continuous
 62
     7
 48
0.022773
100
AcDbLine
 10
93.46018200000001
 20
210.55481
 30
0.0
 11
92.788567
 21
209.9393919999999
 31
0.0
  0
LINE
  5
2B62
330
A
100
AcDbEntity
  8
0
  6
Continuous
 62
     7
 48
0.098982
100
AcDbLine
 10
93.80525199999999
 20
214.4990229999999
 30
0.0
 11
93.46018200000001
 21
210.55481
 31
0.0
  0
ARC
  5
2B63
330
A
100
AcDbEntity
  8
0
  6
Continuous
 62
     7
100
AcDbCircle
 10
92.802155
 20
214.584763
 30
0.0
 40
1.006791999999999
100
AcDbArc
 50
355.113943
 51
27.908544
  0
LINE
  5
2B64
330
A
100
AcDbEntity
  8
0
  6
Continuous
 62
     7
 48
0.095201
100
AcDbLine
 10
92.220749
 20
214.386169
 30
0.0
 11
88.41269699999998
 21
214.386169
 31
0.0
  0
LINE
  5
2B65
330
A
100
AcDbEntity
  8
0
  6
Continuous
 62
     7
 48
0.038428
100
AcDbLine
 10
93.35402700000001
 20
215.424622
 30
0.0
 11
92.220749
 21
214.386169
 31
0.0
  0
LINE
  5
2B66
330
A
100
AcDbEntity
  8
0
  6
Continuous
 62
     7
 48
0.036715
100
AcDbLine
 10
88.41269699999998
 20
214.386169
 30
0.0
 11
87.42052499999998
 21
215.468933
 31
0.0
  0
ARC
  5
2B67
330
A
100
AcDbEntity
  8
0
  6
Continuous
 62
     7
100
AcDbCircle
 10
92.80706
 20
214.579422
 30
0.0
 40
1.006791999999999
100
AcDbArc
 50
57.091453
 51
89.886054
  0
LINE
  5
2B68
330
A
100
AcDbEntity
  8
0
  6
Continuous
 62
     7
 48
0.122968
100
AcDbLine
 10
87.890343
 20
215.586166
 30
0.0
 11
92.80905899999998
 21
215.586166
 31
0.0
  0
ARC
  5
2B69
330
A
100
AcDbEntity
  8
0
  6
Continuous
 62
     7
100
AcDbCircle
 10
87.891571
 20
214.581268
 30
0.0
 40
1.004931
100
AcDbArc
 50
90.06988900000001
 51
117.9525989999999
  0
ARC
  5
2B6A
330
A
100
AcDbEntity
  8
0
  6
Continuous
 62
     7
100
AcDbCircle
 10
85.24901599999997
 20
220.7931059999999
 30
0.0
 40
1.206971999999999
100
AcDbArc
 50
270.089733
 51
300.38557
  0
LINE
  5
2B6B
330
A
100
AcDbEntity
  8
0
  6
Continuous
 62
     7
 48
0.048632
100
AcDbLine
 10
84.545288
 20
221.186172
 30
0.0
 11
85.859512
 21
219.751953
 31
0.0
  0
LINE
  5
2B6C
330
A
100
AcDbEntity
  8
0
  6
Continuous
 62
     7
 48
0.155592
100
AcDbLine
 10
85.25090799999999
 20
219.586166
 30
0.0
 11
79.02722199999998
 21
219.586166
 31
0.0
  0
LINE
  5
2B6D
330
A
100
AcDbEntity
  8
0
  6
Continuous
 62
     7
 48
0.117787
100
AcDbLine
 10
79.833794
 20
221.186172
 30
0.0
 11
84.545288
 21
221.186172
 31
0.0
  0
LINE
  5
2B6E
330
A
100
AcDbEntity
  8
0
  6
Continuous
 62
     7
 48
0.050964
100
AcDbLine
 10
78.330803
 20
219.8089289999999
 30
0.0
 11
79.833794
 21
221.186172
 31
0.0
  0
ARC
  5
2B6F
330
A
100
AcDbEntity
  8
0
  6
Continuous
 62
     7
100
AcDbCircle
 10
79.030197
 20
220.795471
 30
0.0
 40
1.209362999999997
100
AcDbArc
 50
234.665673
 51
269.859022
  0
LINE
  5
2B70
330
A
100
AcDbEntity
  8
0
  6
Continuous
 62
     7
 48
0.087673
100
AcDbLine
 10
82.25289899999998
 20
210.523972
 30
0.0
 11
82.55854799999999
 21
214.0175319999999
 31
0.0
  0
LINE
  5
2B71
330
A
100
AcDbEntity
  8
0
  6
Continuous
 62
     7
 48
0.019822
100
AcDbLine
 10
82.788567
 20
209.9393919999999
 30
0.0
 11
82.25289899999998
 21
210.523972
 31
0.0
  0
LINE
  5
2B72
330
A
100
AcDbEntity
  8
0
  6
Continuous
 62
     7
 48
0.038428
100
AcDbLine
 10
82.55854799999999
 20
214.0175319999999
 30
0.0
 11
83.691826
 21
215.055984
 31
0.0
  0
LINE
  5
2B73
330
A
100
AcDbEntity
  8
0
  6
Continuous
 62
     7
 48
0.022773
100
AcDbLine
 10
83.46018199999997
 20
210.55481
 30
0.0
 11
82.788567
 21
209.9393919999999
 31
0.0
  0
LINE
  5
2B74
330
A
100
AcDbEntity
  8
0
  6
Continuous
 62
     7
 48
0.098982
100
AcDbLine
 10
83.80525199999999
 20
214.4990229999999
 30
0.0
 11
83.46018199999997
 21
210.55481
 31
0.0
  0
ARC
  5
2B75
330
A
100
AcDbEntity
  8
0
  6
Continuous
 62
     7
100
AcDbCircle
 10
82.802155
 20
214.584763
 30
0.0
 40
1.006791999999999
100
AcDbArc
 50
355.113943
 51
27.908544
  0
ARC
  5
2B76
330
A
100
AcDbEntity
  8
0
  6
Continuous
 62
     7
100
AcDbCircle
 10
59.249016
 20
220.7931059999999
 30
0.0
 40
1.206971999999999
100
AcDbArc
 50
270.089733
 51
300.38557
  0
LINE
  5
2B77
330
A
100
AcDbEntity
  8
0
  6
Continuous
 62
     7
 48
0.048632
100
AcDbLine
 10
58.545288
 20
221.186172
 30
0.0
 11
59.85950899999998
 21
219.751953
 31
0.0
  0
LINE
  5
2B78
330
A
100
AcDbEntity
  8
0
  6
Continuous
 62
     7
 48
0.155592
100
AcDbLine
 10
59.25090799999999
 20
219.586166
 30
0.0
 11
53.027225
 21
219.586166
 31
0.0
  0
LINE
  5
2B79
330
A
100
AcDbEntity
  8
0
  6
Continuous
 62
     7
 48
0.117787
100
AcDbLine
 10
53.83379399999999
 20
221.186172
 30
0.0
 11
58.545288
 21
221.186172
 31
0.0
  0
LINE
  5
2B7A
330
A
100
AcDbEntity
  8
0
  6
Continuous
 62
     7
 48
0.050964
100
AcDbLine
 10
52.33080300000001
 20
219.8089289999999
 30
0.0
 11
53.83379399999999
 21
221.186172
 31
0.0
  0
ARC
  5
2B7B
330
A
100
AcDbEntity
  8
0
  6
Continuous
 62
     7
100
AcDbCircle
 10
53.030201
 20
220.795471
 30
0.0
 40
1.209362999999997
100
AcDbArc
 50
234.665673
 51
269.859022
  0
LINE
  5
2B7C
330
A
100
AcDbEntity
  8
0
  6
Continuous
 62
     7
 48
0.095201
100
AcDbLine
 10
82.220749
 20
214.386169
 30
0.0
 11
78.41269699999998
 21
214.386169
 31
0.0
  0
LINE
  5
2B7D
330
A
100
AcDbEntity
  8
0
  6
Continuous
 62
     7
 48
0.038428
100
AcDbLine
 10
83.35402700000001
 20
215.424622
 30
0.0
 11
82.220749
 21
214.386169
 31
0.0
  0
LINE
  5
2B7E
330
A
100
AcDbEntity
  8
0
  6
Continuous
 62
     7
 48
0.036715
100
AcDbLine
 10
78.41269699999998
 20
214.386169
 30
0.0
 11
77.42052499999998
 21
215.468933
 31
0.0
  0
ARC
  5
2B7F
330
A
100
AcDbEntity
  8
0
  6
Continuous
 62
     7
100
AcDbCircle
 10
82.80706
 20
214.579422
 30
0.0
 40
1.006791999999999
100
AcDbArc
 50
57.091453
 51
89.886054
  0
LINE
  5
2B80
330
A
100
AcDbEntity
  8
0
  6
Continuous
 62
     7
 48
0.122968
100
AcDbLine
 10
77.890343
 20
215.586166
 30
0.0
 11
82.80905899999998
 21
215.586166
 31
0.0
  0
ARC
  5
2B81
330
A
100
AcDbEntity
  8
0
  6
Continuous
 62
     7
100
AcDbCircle
 10
77.891571
 20
214.581268
 30
0.0
 40
1.004931
100
AcDbArc
 50
90.06988900000001
 51
117.9525989999999
  0
CIRCLE
  5
2B82
330
A
100
AcDbEntity
  8
0
  6
Continuous
 62
     7
100
AcDbCircle
 10
114.250504
 20
220.386169
 30
0.0
 40
0.8
  0
LINE
  5
2B83
330
A
100
AcDbEntity
  8
0
  6
Continuous
 62
     7
 48
0.019822
100
AcDbLine
 10
77.06679499999999
 20
209.9393919999999
 30
0.0
 11
76.53112800000002
 21
210.523972
 31
0.0
  0
LINE
  5
2B84
330
A
100
AcDbEntity
  8
0
  6
Continuous
 62
     7
 48
0.022773
100
AcDbLine
 10
77.738411
 20
210.55481
 30
0.0
 11
77.06679499999999
 21
209.9393919999999
 31
0.0
  0
LINE
  5
2B85
330
A
100
AcDbEntity
  8
0
  6
Continuous
 62
     7
 48
0.10413
100
AcDbLine
 10
76.53112800000002
 20
210.523972
 30
0.0
 11
76.89415
 21
214.673325
 31
0.0
  0
LINE
  5
2B86
330
A
100
AcDbEntity
  8
0
  6
Continuous
 62
     7
 48
0.087673
100
AcDbLine
 10
78.04406
 20
214.04837
 30
0.0
 11
77.738411
 21
210.55481
 31
0.0
  0
LINE
  5
2B87
330
A
100
AcDbEntity
  8
0
  6
Continuous
 62
     7
 48
0.036715
100
AcDbLine
 10
77.05188800000001
 20
215.1311339999999
 30
0.0
 11
78.04406
 21
214.04837
 31
0.0
  0
ARC
  5
2B88
330
A
100
AcDbEntity
  8
0
  6
Continuous
 62
     7
100
AcDbCircle
 10
77.895134
 20
214.584518
 30
0.0
 40
1.004931
100
AcDbArc
 50
147.047401
 51
174.9301199999999
  0
LINE
  5
2B89
330
A
100
AcDbEntity
  8
0
  6
Continuous
 62
     7
 48
0.110259
100
AcDbLine
 10
53.880386
 20
225.9483799999999
 30
0.0
 11
53.49600200000001
 21
221.5548099999999
 31
0.0
  0
LINE
  5
2B8A
330
A
100
AcDbEntity
  8
0
  6
Continuous
 62
     7
 48
0.026604
100
AcDbLine
 10
53.161453
 20
226.7329559999999
 30
0.0
 11
53.880386
 21
225.9483799999999
 31
0.0
  0
LINE
  5
2B8B
330
A
100
AcDbEntity
  8
0
  6
Continuous
 62
     7
 48
0.050964
100
AcDbLine
 10
53.49600200000001
 20
221.5548099999999
 30
0.0
 11
51.993008
 21
220.1775669999999
 31
0.0
  0
LINE
  5
2B8C
330
A
100
AcDbEntity
  8
0
  6
Continuous
 62
     7
 48
0.030174
100
AcDbLine
 10
52.271576
 20
225.917542
 30
0.0
 11
53.161453
 21
226.7329559999999
 31
0.0
  0
LINE
  5
2B8D
330
A
100
AcDbEntity
  8
0
  6
Continuous
 62
     7
 48
0.12615
100
AcDbLine
 10
51.831791
 20
220.890762
 30
0.0
 11
52.271576
 21
225.917542
 31
0.0
  0
ARC
  5
2B8E
330
A
100
AcDbEntity
  8
0
  6
Continuous
 62
     7
100
AcDbCircle
 10
53.036751
 20
220.7883299999999
 30
0.0
 40
1.209362999999997
100
AcDbArc
 50
175.140981
 51
210.334324
  0
LINE
  5
2B8F
330
A
100
AcDbEntity
  8
0
  6
Continuous
 62
     7
 48
0.022773
100
AcDbLine
 10
77.40458700000002
 20
209.5707549999999
 30
0.0
 11
78.07620199999998
 21
210.186172
 31
0.0
  0
LINE
  5
2B90
330
A
100
AcDbEntity
  8
0
  6
Continuous
 62
     7
 48
0.019822
100
AcDbLine
 10
77.94025400000002
 20
208.986176
 30
0.0
 11
77.40458700000002
 21
209.5707549999999
 31
0.0
  0
LINE
  5
2B91
330
A
100
AcDbEntity
  8
0
  6
Continuous
 62
     7
 48
0.095201
100
AcDbLine
 10
78.07620199999998
 20
210.186172
 30
0.0
 11
81.884262
 21
210.186172
 31
0.0
  0
LINE
  5
2B92
330
A
100
AcDbEntity
  8
0
  6
Continuous
 62
     7
 48
0.095201
100
AcDbLine
 10
81.748314
 20
208.986176
 30
0.0
 11
77.94025400000002
 21
208.986176
 31
0.0
  0
LINE
  5
2B93
330
A
100
AcDbEntity
  8
0
  6
Continuous
 62
     7
 48
0.022773
100
AcDbLine
 10
82.41993
 20
209.6015929999999
 30
0.0
 11
81.748314
 21
208.986176
 31
0.0
  0
LINE
  5
2B94
330
A
100
AcDbEntity
  8
0
  6
Continuous
 62
     7
 48
0.019822
100
AcDbLine
 10
81.884262
 20
210.186172
 30
0.0
 11
82.41993
 21
209.6015929999999
 31
0.0
  0
CIRCLE
  5
2B95
330
A
100
AcDbEntity
  8
0
  6
Continuous
 62
     7
100
AcDbCircle
 10
88.250504
 20
220.386169
 30
0.0
 40
0.8
  0
LINE
  5
2B96
330
A
100
AcDbEntity
  8
0
  6
Continuous
 62
     7
 48
0.019822
100
AcDbLine
 10
82.75772099999997
 20
209.232956
 30
0.0
 11
83.293388
 21
208.648376
 31
0.0
  0
LINE
  5
2B97
330
A
100
AcDbEntity
  8
0
  6
Continuous
 62
     7
 48
0.022773
100
AcDbLine
 10
82.086105
 20
208.6175379999999
 30
0.0
 11
82.75772099999997
 21
209.232956
 31
0.0
  0
LINE
  5
2B98
330
A
100
AcDbEntity
  8
0
  6
Continuous
 62
     7
 48
0.10413
100
AcDbLine
 10
83.293388
 20
208.648376
 30
0.0
 11
82.930367
 21
204.4990229999999
 31
0.0
  0
LINE
  5
2B99
330
A
100
AcDbEntity
  8
0
  6
Continuous
 62
     7
 48
0.087673
100
AcDbLine
 10
81.78046399999997
 20
205.123962
 30
0.0
 11
82.086105
 21
208.6175379999999
 31
0.0
  0
LINE
  5
2B9A
330
A
100
AcDbEntity
  8
0
  6
Continuous
 62
     7
 48
0.036715
100
AcDbLine
 10
82.77262900000001
 20
204.0411989999999
 30
0.0
 11
81.78046399999997
 21
205.123962
 31
0.0
  0
ARC
  5
2B9B
330
A
100
AcDbEntity
  8
0
  6
Continuous
 62
     7
100
AcDbCircle
 10
81.92939
 20
204.58783
 30
0.0
 40
1.004931
100
AcDbArc
 50
327.047401
 51
354.9301129999998
  0
LINE
  5
2B9C
330
A
100
AcDbEntity
  8
0
  6
Continuous
 62
     7
 48
0.026604
100
AcDbLine
 10
60.18819399999999
 20
226.7329559999999
 30
0.0
 11
60.907127
 21
225.9483799999999
 31
0.0
  0
LINE
  5
2B9D
330
A
100
AcDbEntity
  8
0
  6
Continuous
 62
     7
 48
0.030174
100
AcDbLine
 10
59.29831700000001
 20
225.917542
 30
0.0
 11
60.18819399999999
 21
226.7329559999999
 31
0.0
  0
LINE
  5
2B9E
330
A
100
AcDbEntity
  8
0
  6
Continuous
 62
     7
 48
0.132173
100
AcDbLine
 10
60.907127
 20
225.9483799999999
 30
0.0
 11
60.446342
 21
220.6815799999999
 31
0.0
  0
LINE
  5
2B9F
330
A
100
AcDbEntity
  8
0
  6
Continuous
 62
     7
 48
0.110259
100
AcDbLine
 10
58.913929
 20
221.523972
 30
0.0
 11
59.29831700000001
 21
225.917542
 31
0.0
  0
LINE
  5
2BA0
330
A
100
AcDbEntity
  8
0
  6
Continuous
 62
     7
 48
0.048632
100
AcDbLine
 10
60.228149
 20
220.089752
 30
0.0
 11
58.913929
 21
221.523972
 31
0.0
  0
ARC
  5
2BA1
330
A
100
AcDbEntity
  8
0
  6
Continuous
 62
     7
100
AcDbCircle
 10
59.24416
 20
220.788666
 30
0.0
 40
1.206971999999999
100
AcDbArc
 50
324.6144339999998
 51
354.910266
  0
CIRCLE
  5
2BA2
330
A
100
AcDbEntity
  8
0
  6
Continuous
 62
     7
100
AcDbCircle
 10
84.25050400000001
 20
204.1861719999999
 30
0.0
 40
0.6
  0
LINE
  5
2BA3
330
A
100
AcDbEntity
  8
0
  6
Continuous
 62
     7
 48
0.030174
100
AcDbLine
 10
105.5300899999999
 20
227.070755
 30
0.0
 11
106.4199679999999
 21
227.8861689999998
 31
0.0
  0
LINE
  5
2BA4
330
A
100
AcDbEntity
  8
0
  6
Continuous
 62
     7
 48
0.026604
100
AcDbLine
 10
106.2490229999999
 20
226.286179
 30
0.0
 11
105.5300899999999
 21
227.070755
 31
0.0
  0
LINE
  5
2BA5
330
A
100
AcDbEntity
  8
0
  6
Continuous
 62
     7
 48
0.117788
100
AcDbLine
 10
106.4199679999999
 20
227.8861689999998
 30
0.0
 11
111.1314699999999
 21
227.8861689999998
 31
0.0
  0
LINE
  5
2BA6
330
A
100
AcDbEntity
  8
0
  6
Continuous
 62
     7
 48
0.117788
100
AcDbLine
 10
110.960526
 20
226.286179
 30
0.0
 11
106.2490229999999
 21
226.286179
 31
0.0
  0
LINE
  5
2BA7
330
A
100
AcDbEntity
  8
0
  6
Continuous
 62
     7
 48
0.030174
100
AcDbLine
 10
111.8504029999999
 20
227.101593
 30
0.0
 11
110.960526
 21
226.286179
 31
0.0
  0
LINE
  5
2BA8
330
A
100
AcDbEntity
  8
0
  6
Continuous
 62
     7
 48
0.026604
100
AcDbLine
 10
111.1314699999999
 20
227.8861689999998
 30
0.0
 11
111.8504029999999
 21
227.101593
 31
0.0
  0
ARC
  5
2BA9
330
A
100
AcDbEntity
  8
0
  6
Continuous
 62
     7
100
AcDbCircle
 10
81.93294499999998
 20
204.59108
 30
0.0
 40
1.004931
100
AcDbArc
 50
270.069884
 51
297.952602
  0
LINE
  5
2BAA
330
A
100
AcDbEntity
  8
0
  6
Continuous
 62
     7
 48
0.036715
100
AcDbLine
 10
81.41181899999997
 20
204.786179
 30
0.0
 11
82.403992
 21
203.7034149999999
 31
0.0
  0
LINE
  5
2BAB
330
A
100
AcDbEntity
  8
0
  6
Continuous
 62
     7
 48
0.122968
100
AcDbLine
 10
81.93417399999999
 20
203.586166
 30
0.0
 11
77.015457
 21
203.586166
 31
0.0
  0
LINE
  5
2BAC
330
A
100
AcDbEntity
  8
0
  6
Continuous
 62
     7
 48
0.095201
100
AcDbLine
 10
77.60376700000001
 20
204.786179
 30
0.0
 11
81.41181899999997
 21
204.786179
 31
0.0
  0
LINE
  5
2BAD
330
A
100
AcDbEntity
  8
0
  6
Continuous
 62
     7
 48
0.038428
100
AcDbLine
 10
76.47048999999999
 20
203.747711
 30
0.0
 11
77.60376700000001
 21
204.786179
 31
0.0
  0
ARC
  5
2BAE
330
A
100
AcDbEntity
  8
0
  6
Continuous
 62
     7
100
AcDbCircle
 10
77.01745600000002
 20
204.592926
 30
0.0
 40
1.006791999999999
100
AcDbArc
 50
237.091455
 51
269.8860559999999
  0
CIRCLE
  5
2BAF
330
A
100
AcDbEntity
  8
0
  6
Continuous
 62
     7
100
AcDbCircle
 10
62.250504
 20
220.386169
 30
0.0
 40
0.8
  0
LINE
  5
2BB0
330
A
100
AcDbEntity
  8
0
  6
Continuous
 62
     7
 48
0.087673
100
AcDbLine
 10
77.57161700000001
 20
208.648376
 30
0.0
 11
77.265968
 21
205.1548159999999
 31
0.0
  0
LINE
  5
2BB1
330
A
100
AcDbEntity
  8
0
  6
Continuous
 62
     7
 48
0.019822
100
AcDbLine
 10
77.03594999999999
 20
209.232956
 30
0.0
 11
77.57161700000001
 21
208.648376
 31
0.0
  0
LINE
  5
2BB2
330
A
100
AcDbEntity
  8
0
  6
Continuous
 62
     7
 48
0.038428
100
AcDbLine
 10
77.265968
 20
205.1548159999999
 30
0.0
 11
76.13268999999998
 21
204.1163479999999
 31
0.0
  0
LINE
  5
2BB3
330
A
100
AcDbEntity
  8
0
  6
Continuous
 62
     7
 48
0.022773
100
AcDbLine
 10
76.364334
 20
208.6175379999999
 30
0.0
 11
77.03594999999999
 21
209.232956
 31
0.0
  0
LINE
  5
2BB4
330
A
100
AcDbEntity
  8
0
  6
Continuous
 62
     7
 48
0.098982
100
AcDbLine
 10
76.019264
 20
204.6733249999999
 30
0.0
 11
76.364334
 21
208.6175379999999
 31
0.0
  0
ARC
  5
2BB5
330
A
100
AcDbEntity
  8
0
  6
Continuous
 62
     7
100
AcDbCircle
 10
77.022362
 20
204.587585
 30
0.0
 40
1.006791999999999
100
AcDbArc
 50
175.1139479999999
 51
207.9085389999999
  0
LINE
  5
2BB6
330
A
100
AcDbEntity
  8
0
  6
Continuous
 62
     7
 48
0.026604
100
AcDbLine
 10
92.192299
 20
227.439392
 30
0.0
 11
91.473366
 21
228.2239689999999
 31
0.0
  0
LINE
  5
2BB7
330
A
100
AcDbEntity
  8
0
  6
Continuous
 62
     7
 48
0.030174
100
AcDbLine
 10
93.082176
 20
228.2548069999999
 30
0.0
 11
92.192299
 21
227.439392
 31
0.0
  0
LINE
  5
2BB8
330
A
100
AcDbEntity
  8
0
  6
Continuous
 62
     7
 48
0.132173
100
AcDbLine
 10
91.473366
 20
228.2239689999999
 30
0.0
 11
91.93415100000001
 21
233.4907529999999
 31
0.0
  0
LINE
  5
2BB9
330
A
100
AcDbEntity
  8
0
  6
Continuous
 62
     7
 48
0.110259
100
AcDbLine
 10
93.46656000000001
 20
232.6483759999999
 30
0.0
 11
93.082176
 21
228.2548069999999
 31
0.0
  0
LINE
  5
2BBA
330
A
100
AcDbEntity
  8
0
  6
Continuous
 62
     7
 48
0.048632
100
AcDbLine
 10
92.15234399999999
 20
234.082596
 30
0.0
 11
93.46656000000001
 21
232.6483759999999
 31
0.0
  0
ARC
  5
2BBB
330
A
100
AcDbEntity
  8
0
  6
Continuous
 62
     7
100
AcDbCircle
 10
93.13633000000001
 20
233.383682
 30
0.0
 40
1.206971999999999
100
AcDbArc
 50
144.614434
 51
174.910271
  0
CIRCLE
  5
2BBC
330
A
100
AcDbEntity
  8
0
  6
Continuous
 62
     7
100
AcDbCircle
 10
74.250504
 20
204.1861719999999
 30
0.0
 40
0.6
  0
LINE
  5
2BBD
330
A
100
AcDbEntity
  8
0
  6
Continuous
 62
     7
 48
0.030174
100
AcDbLine
 10
53.53009
 20
227.070755
 30
0.0
 11
54.419968
 21
227.8861689999998
 31
0.0
  0
LINE
  5
2BBE
330
A
100
AcDbEntity
  8
0
  6
Continuous
 62
     7
 48
0.026604
100
AcDbLine
 10
54.249027
 20
226.286179
 30
0.0
 11
53.53009
 21
227.070755
 31
0.0
  0
LINE
  5
2BBF
330
A
100
AcDbEntity
  8
0
  6
Continuous
 62
     7
 48
0.117787
100
AcDbLine
 10
54.419968
 20
227.8861689999998
 30
0.0
 11
59.13146199999999
 21
227.8861689999998
 31
0.0
  0
LINE
  5
2BC0
330
A
100
AcDbEntity
  8
0
  6
Continuous
 62
     7
 48
0.117787
100
AcDbLine
 10
58.96052199999999
 20
226.286179
 30
0.0
 11
54.249027
 21
226.286179
 31
0.0
  0
LINE
  5
2BC1
330
A
100
AcDbEntity
  8
0
  6
Continuous
 62
     7
 48
0.030174
100
AcDbLine
 10
59.850399
 20
227.101593
 30
0.0
 11
58.96052199999999
 21
226.286179
 31
0.0
  0
LINE
  5
2BC2
330
A
100
AcDbEntity
  8
0
  6
Continuous
 62
     7
 48
0.026604
100
AcDbLine
 10
59.13146199999999
 20
227.8861689999998
 30
0.0
 11
59.850399
 21
227.101593
 31
0.0
  0
ARC
  5
2BC3
330
A
100
AcDbEntity
  8
0
  6
Continuous
 62
     7
100
AcDbCircle
 10
71.93294499999997
 20
204.59108
 30
0.0
 40
1.004931
100
AcDbArc
 50
270.069884
 51
297.952602
  0
LINE
  5
2BC4
330
A
100
AcDbEntity
  8
0
  6
Continuous
 62
     7
 48
0.036715
100
AcDbLine
 10
71.41181899999998
 20
204.786179
 30
0.0
 11
72.403992
 21
203.7034149999999
 31
0.0
  0
LINE
  5
2BC5
330
A
100
AcDbEntity
  8
0
  6
Continuous
 62
     7
 48
0.122968
100
AcDbLine
 10
71.934174
 20
203.586166
 30
0.0
 11
67.015457
 21
203.586166
 31
0.0
  0
LINE
  5
2BC6
330
A
100
AcDbEntity
  8
0
  6
Continuous
 62
     7
 48
0.095201
100
AcDbLine
 10
67.60376700000001
 20
204.786179
 30
0.0
 11
71.41181899999998
 21
204.786179
 31
0.0
  0
LINE
  5
2BC7
330
A
100
AcDbEntity
  8
0
  6
Continuous
 62
     7
 48
0.038428
100
AcDbLine
 10
66.47048999999999
 20
203.747711
 30
0.0
 11
67.60376700000001
 21
204.786179
 31
0.0
  0
ARC
  5
2BC8
330
A
100
AcDbEntity
  8
0
  6
Continuous
 62
     7
100
AcDbCircle
 10
67.01745600000001
 20
204.592926
 30
0.0
 40
1.006791999999999
100
AcDbArc
 50
237.091455
 51
269.8860559999999
  0
LINE
  5
2BC9
330
A
100
AcDbEntity
  8
0
  6
Continuous
 62
     7
 48
0.087673
100
AcDbLine
 10
67.57161700000001
 20
208.648376
 30
0.0
 11
67.265968
 21
205.1548159999999
 31
0.0
  0
LINE
  5
2BCA
330
A
100
AcDbEntity
  8
0
  6
Continuous
 62
     7
 48
0.019822
100
AcDbLine
 10
67.03594999999999
 20
209.232956
 30
0.0
 11
67.57161700000001
 21
208.648376
 31
0.0
  0
LINE
  5
2BCB
330
A
100
AcDbEntity
  8
0
  6
Continuous
 62
     7
 48
0.038428
100
AcDbLine
 10
67.265968
 20
205.1548159999999
 30
0.0
 11
66.13268999999999
 21
204.1163479999999
 31
0.0
  0
LINE
  5
2BCC
330
A
100
AcDbEntity
  8
0
  6
Continuous
 62
     7
 48
0.022773
100
AcDbLine
 10
66.364334
 20
208.6175379999999
 30
0.0
 11
67.03594999999999
 21
209.232956
 31
0.0
  0
LINE
  5
2BCD
330
A
100
AcDbEntity
  8
0
  6
Continuous
 62
     7
 48
0.098982
100
AcDbLine
 10
66.019264
 20
204.6733249999999
 30
0.0
 11
66.364334
 21
208.6175379999999
 31
0.0
  0
ARC
  5
2BCE
330
A
100
AcDbEntity
  8
0
  6
Continuous
 62
     7
100
AcDbCircle
 10
67.022362
 20
204.587585
 30
0.0
 40
1.006791999999999
100
AcDbArc
 50
175.1139479999999
 51
207.9085389999999
  0
LINE
  5
2BCF
330
A
100
AcDbEntity
  8
0
  6
Continuous
 62
     7
 48
0.026604
100
AcDbLine
 10
53.19229899999999
 20
227.439392
 30
0.0
 11
52.473366
 21
228.2239689999999
 31
0.0
  0
LINE
  5
2BD0
330
A
100
AcDbEntity
  8
0
  6
Continuous
 62
     7
 48
0.030174
100
AcDbLine
 10
54.082176
 20
228.2548069999999
 30
0.0
 11
53.19229899999999
 21
227.439392
 31
0.0
  0
LINE
  5
2BD1
330
A
100
AcDbEntity
  8
0
  6
Continuous
 62
     7
 48
0.132173
100
AcDbLine
 10
52.473366
 20
228.2239689999999
 30
0.0
 11
52.934151
 21
233.4907529999999
 31
0.0
  0
LINE
  5
2BD2
330
A
100
AcDbEntity
  8
0
  6
Continuous
 62
     7
 48
0.110259
100
AcDbLine
 10
54.46656
 20
232.6483759999999
 30
0.0
 11
54.082176
 21
228.2548069999999
 31
0.0
  0
LINE
  5
2BD3
330
A
100
AcDbEntity
  8
0
  6
Continuous
 62
     7
 48
0.048632
100
AcDbLine
 10
53.15234399999999
 20
234.082596
 30
0.0
 11
54.46656
 21
232.6483759999999
 31
0.0
  0
ARC
  5
2BD4
330
A
100
AcDbEntity
  8
0
  6
Continuous
 62
     7
100
AcDbCircle
 10
54.13633
 20
233.383682
 30
0.0
 40
1.206971999999999
100
AcDbArc
 50
144.614434
 51
174.910271
  0
LINE
  5
2BD5
330
A
100
AcDbEntity
  8
0
  6
Continuous
 62
     7
 48
0.019822
100
AcDbLine
 10
72.75772099999997
 20
209.232956
 30
0.0
 11
73.29338800000002
 21
208.648376
 31
0.0
  0
LINE
  5
2BD6
330
A
100
AcDbEntity
  8
0
  6
Continuous
 62
     7
 48
0.022773
100
AcDbLine
 10
72.086105
 20
208.6175379999999
 30
0.0
 11
72.75772099999997
 21
209.232956
 31
0.0
  0
LINE
  5
2BD7
330
A
100
AcDbEntity
  8
0
  6
Continuous
 62
     7
 48
0.10413
100
AcDbLine
 10
73.29338800000002
 20
208.648376
 30
0.0
 11
72.930367
 21
204.4990229999999
 31
0.0
  0
LINE
  5
2BD8
330
A
100
AcDbEntity
  8
0
  6
Continuous
 62
     7
 48
0.087673
100
AcDbLine
 10
71.78046399999998
 20
205.123962
 30
0.0
 11
72.086105
 21
208.6175379999999
 31
0.0
  0
LINE
  5
2BD9
330
A
100
AcDbEntity
  8
0
  6
Continuous
 62
     7
 48
0.036715
100
AcDbLine
 10
72.77262900000002
 20
204.0411989999999
 30
0.0
 11
71.78046399999998
 21
205.123962
 31
0.0
  0
ARC
  5
2BDA
330
A
100
AcDbEntity
  8
0
  6
Continuous
 62
     7
100
AcDbCircle
 10
71.92938999999999
 20
204.58783
 30
0.0
 40
1.004931
100
AcDbArc
 50
327.047401
 51
354.9301129999998
  0
LINE
  5
2BDB
330
A
100
AcDbEntity
  8
0
  6
Continuous
 62
     7
 48
0.110259
100
AcDbLine
 10
92.880386
 20
225.9483799999999
 30
0.0
 11
92.49600200000001
 21
221.5548099999999
 31
0.0
  0
LINE
  5
2BDC
330
A
100
AcDbEntity
  8
0
  6
Continuous
 62
     7
 48
0.026604
100
AcDbLine
 10
92.161453
 20
226.7329559999999
 30
0.0
 11
92.880386
 21
225.9483799999999
 31
0.0
  0
LINE
  5
2BDD
330
A
100
AcDbEntity
  8
0
  6
Continuous
 62
     7
 48
0.050964
100
AcDbLine
 10
92.49600200000001
 20
221.5548099999999
 30
0.0
 11
90.99301099999999
 21
220.1775669999999
 31
0.0
  0
LINE
  5
2BDE
330
A
100
AcDbEntity
  8
0
  6
Continuous
 62
     7
 48
0.030174
100
AcDbLine
 10
91.271576
 20
225.917542
 30
0.0
 11
92.161453
 21
226.7329559999999
 31
0.0
  0
LINE
  5
2BDF
330
A
100
AcDbEntity
  8
0
  6
Continuous
 62
     7
 48
0.12615
100
AcDbLine
 10
90.83179499999999
 20
220.890762
 30
0.0
 11
91.271576
 21
225.917542
 31
0.0
  0
ARC
  5
2BE0
330
A
100
AcDbEntity
  8
0
  6
Continuous
 62
     7
100
AcDbCircle
 10
92.03675099999999
 20
220.7883299999999
 30
0.0
 40
1.209362999999997
100
AcDbArc
 50
175.140981
 51
210.334324
  0
LINE
  5
2BE1
330
A
100
AcDbEntity
  8
0
  6
Continuous
 62
     7
 48
0.022773
100
AcDbLine
 10
67.40458700000001
 20
209.5707549999999
 30
0.0
 11
68.07620199999999
 21
210.186172
 31
0.0
  0
LINE
  5
2BE2
330
A
100
AcDbEntity
  8
0
  6
Continuous
 62
     7
 48
0.019822
100
AcDbLine
 10
67.94025400000001
 20
208.986176
 30
0.0
 11
67.40458700000001
 21
209.5707549999999
 31
0.0
  0
LINE
  5
2BE3
330
A
100
AcDbEntity
  8
0
  6
Continuous
 62
     7
 48
0.095201
100
AcDbLine
 10
68.07620199999999
 20
210.186172
 30
0.0
 11
71.88426199999998
 21
210.186172
 31
0.0
  0
LINE
  5
2BE4
330
A
100
AcDbEntity
  8
0
  6
Continuous
 62
     7
 48
0.095201
100
AcDbLine
 10
71.74831400000002
 20
208.986176
 30
0.0
 11
67.94025400000001
 21
208.986176
 31
0.0
  0
LINE
  5
2BE5
330
A
100
AcDbEntity
  8
0
  6
Continuous
 62
     7
 48
0.022773
100
AcDbLine
 10
72.41993
 20
209.6015929999999
 30
0.0
 11
71.74831400000002
 21
208.986176
 31
0.0
  0
LINE
  5
2BE6
330
A
100
AcDbEntity
  8
0
  6
Continuous
 62
     7
 48
0.019822
100
AcDbLine
 10
71.88426199999998
 20
210.186172
 30
0.0
 11
72.41993
 21
209.6015929999999
 31
0.0
  0
LINE
  5
2BE7
330
A
100
AcDbEntity
  8
0
  6
Continuous
 62
     7
 48
0.117787
100
AcDbLine
 10
59.54669599999999
 20
232.9861759999999
 30
0.0
 11
54.83520099999999
 21
232.9861759999999
 31
0.0
  0
LINE
  5
2BE8
330
A
100
AcDbEntity
  8
0
  6
Continuous
 62
     7
 48
0.050964
100
AcDbLine
 10
61.049686
 20
234.363403
 30
0.0
 11
59.54669599999999
 21
232.9861759999999
 31
0.0
  0
LINE
  5
2BE9
330
A
100
AcDbEntity
  8
0
  6
Continuous
 62
     7
 48
0.048632
100
AcDbLine
 10
54.83520099999999
 20
232.9861759999999
 30
0.0
 11
53.520981
 21
234.420395
 31
0.0
  0
ARC
  5
2BEA
330
A
100
AcDbEntity
  8
0
  6
Continuous
 62
     7
100
AcDbCircle
 10
60.350323
 20
233.376968
 30
0.0
 40
1.20926
100
AcDbArc
 50
54.66419399999999
 51
89.860503
  0
LINE
  5
2BEB
330
A
100
AcDbEntity
  8
0
  6
Continuous
 62
     7
 48
0.155592
100
AcDbLine
 10
54.129585
 20
234.5861819999999
 30
0.0
 11
60.353264
 21
234.5861819999999
 31
0.0
  0
ARC
  5
2BEC
330
A
100
AcDbEntity
  8
0
  6
Continuous
 62
     7
100
AcDbCircle
 10
54.13147399999999
 20
233.3792419999999
 30
0.0
 40
1.206971999999999
100
AcDbArc
 50
90.08973799999999
 51
120.385567
  0
LINE
  5
2BED
330
A
100
AcDbEntity
  8
0
  6
Continuous
 62
     7
 48
0.019822
100
AcDbLine
 10
67.06679499999999
 20
209.9393919999999
 30
0.0
 11
66.53112800000001
 21
210.523972
 31
0.0
  0
LINE
  5
2BEE
330
A
100
AcDbEntity
  8
0
  6
Continuous
 62
     7
 48
0.022773
100
AcDbLine
 10
67.738411
 20
210.55481
 30
0.0
 11
67.06679499999999
 21
209.9393919999999
 31
0.0
  0
LINE
  5
2BEF
330
A
100
AcDbEntity
  8
0
  6
Continuous
 62
     7
 48
0.10413
100
AcDbLine
 10
66.53112800000001
 20
210.523972
 30
0.0
 11
66.89415
 21
214.673325
 31
0.0
  0
LINE
  5
2BF0
330
A
100
AcDbEntity
  8
0
  6
Continuous
 62
     7
 48
0.087673
100
AcDbLine
 10
68.04406
 20
214.04837
 30
0.0
 11
67.738411
 21
210.55481
 31
0.0
  0
LINE
  5
2BF1
330
A
100
AcDbEntity
  8
0
  6
Continuous
 62
     7
 48
0.036715
100
AcDbLine
 10
67.05188800000001
 20
215.1311339999999
 30
0.0
 11
68.04406
 21
214.04837
 31
0.0
  0
ARC
  5
2BF2
330
A
100
AcDbEntity
  8
0
  6
Continuous
 62
     7
100
AcDbCircle
 10
67.895134
 20
214.584518
 30
0.0
 40
1.004931
100
AcDbArc
 50
147.047401
 51
174.9301199999999
  0
LINE
  5
2BF3
330
A
100
AcDbEntity
  8
0
  6
Continuous
 62
     7
 48
0.117787
100
AcDbLine
 10
111.546692
 20
232.9861759999999
 30
0.0
 11
106.835205
 21
232.9861759999999
 31
0.0
  0
LINE
  5
2BF4
330
A
100
AcDbEntity
  8
0
  6
Continuous
 62
     7
 48
0.050964
100
AcDbLine
 10
113.049683
 20
234.363403
 30
0.0
 11
111.546692
 21
232.9861759999999
 31
0.0
  0
LINE
  5
2BF5
330
A
100
AcDbEntity
  8
0
  6
Continuous
 62
     7
 48
0.048632
100
AcDbLine
 10
106.835205
 20
232.9861759999999
 30
0.0
 11
105.520981
 21
234.420395
 31
0.0
  0
ARC
  5
2BF6
330
A
100
AcDbEntity
  8
0
  6
Continuous
 62
     7
100
AcDbCircle
 10
112.3502879999999
 20
233.376862
 30
0.0
 40
1.209362999999997
100
AcDbArc
 50
54.66567799999999
 51
89.859021
  0
LINE
  5
2BF7
330
A
100
AcDbEntity
  8
0
  6
Continuous
 62
     7
 48
0.155592
100
AcDbLine
 10
106.129585
 20
234.5861819999999
 30
0.0
 11
112.353264
 21
234.5861819999999
 31
0.0
  0
ARC
  5
2BF8
330
A
100
AcDbEntity
  8
0
  6
Continuous
 62
     7
100
AcDbCircle
 10
106.13147
 20
233.3792419999999
 30
0.0
 40
1.206971999999999
100
AcDbArc
 50
90.08973799999999
 51
120.385567
  0
LINE
  5
2BF9
330
A
100
AcDbEntity
  8
0
  6
Continuous
 62
     7
 48
0.087673
100
AcDbLine
 10
72.25289899999999
 20
210.523972
 30
0.0
 11
72.558548
 21
214.0175319999999
 31
0.0
  0
LINE
  5
2BFA
330
A
100
AcDbEntity
  8
0
  6
Continuous
 62
     7
 48
0.019822
100
AcDbLine
 10
72.788567
 20
209.9393919999999
 30
0.0
 11
72.25289899999999
 21
210.523972
 31
0.0
  0
LINE
  5
2BFB
330
A
100
AcDbEntity
  8
0
  6
Continuous
 62
     7
 48
0.038428
100
AcDbLine
 10
72.558548
 20
214.0175319999999
 30
0.0
 11
73.69182600000002
 21
215.055984
 31
0.0
  0
LINE
  5
2BFC
330
A
100
AcDbEntity
  8
0
  6
Continuous
 62
     7
 48
0.022773
100
AcDbLine
 10
73.46018199999997
 20
210.55481
 30
0.0
 11
72.788567
 21
209.9393919999999
 31
0.0
  0
LINE
  5
2BFD
330
A
100
AcDbEntity
  8
0
  6
Continuous
 62
     7
 48
0.098982
100
AcDbLine
 10
73.805252
 20
214.4990229999999
 30
0.0
 11
73.46018199999997
 21
210.55481
 31
0.0
  0
ARC
  5
2BFE
330
A
100
AcDbEntity
  8
0
  6
Continuous
 62
     7
100
AcDbCircle
 10
72.802155
 20
214.584763
 30
0.0
 40
1.006791999999999
100
AcDbArc
 50
355.113943
 51
27.908544
  0
LINE
  5
2BFF
330
A
100
AcDbEntity
  8
0
  6
Continuous
 62
     7
 48
0.110259
100
AcDbLine
 10
59.500103
 20
228.2239689999999
 30
0.0
 11
59.884491
 21
232.617538
 31
0.0
  0
LINE
  5
2C00
330
A
100
AcDbEntity
  8
0
  6
Continuous
 62
     7
 48
0.026604
100
AcDbLine
 10
60.21903599999999
 20
227.439392
 30
0.0
 11
59.500103
 21
228.2239689999999
 31
0.0
  0
LINE
  5
2C01
330
A
100
AcDbEntity
  8
0
  6
Continuous
 62
     7
 48
0.050964
100
AcDbLine
 10
59.884491
 20
232.617538
 30
0.0
 11
61.38748199999999
 21
233.994781
 31
0.0
  0
LINE
  5
2C02
330
A
100
AcDbEntity
  8
0
  6
Continuous
 62
     7
 48
0.030174
100
AcDbLine
 10
61.108913
 20
228.2548069999999
 30
0.0
 11
60.21903599999999
 21
227.439392
 31
0.0
  0
LINE
  5
2C03
330
A
100
AcDbEntity
  8
0
  6
Continuous
 62
     7
 48
0.12615
100
AcDbLine
 10
61.548698
 20
233.2815859999999
 30
0.0
 11
61.108913
 21
228.2548069999999
 31
0.0
  0
ARC
  5
2C04
330
A
100
AcDbEntity
  8
0
  6
Continuous
 62
     7
100
AcDbCircle
 10
60.343739
 20
233.384018
 30
0.0
 40
1.209362999999997
100
AcDbArc
 50
355.1409779999998
 51
30.334319
  0
LINE
  5
2C05
330
A
100
AcDbEntity
  8
0
  6
Continuous
 62
     7
 48
0.095201
100
AcDbLine
 10
72.22074899999999
 20
214.386169
 30
0.0
 11
68.41269699999999
 21
214.386169
 31
0.0
  0
LINE
  5
2C06
330
A
100
AcDbEntity
  8
0
  6
Continuous
 62
     7
 48
0.038428
100
AcDbLine
 10
73.354027
 20
215.424622
 30
0.0
 11
72.22074899999999
 21
214.386169
 31
0.0
  0
LINE
  5
2C07
330
A
100
AcDbEntity
  8
0
  6
Continuous
 62
     7
 48
0.036715
100
AcDbLine
 10
68.41269699999999
 20
214.386169
 30
0.0
 11
67.42052499999998
 21
215.468933
 31
0.0
  0
ARC
  5
2C08
330
A
100
AcDbEntity
  8
0
  6
Continuous
 62
     7
100
AcDbCircle
 10
72.80705999999998
 20
214.579422
 30
0.0
 40
1.006791999999999
100
AcDbArc
 50
57.091453
 51
89.886054
  0
LINE
  5
2C09
330
A
100
AcDbEntity
  8
0
  6
Continuous
 62
     7
 48
0.122968
100
AcDbLine
 10
67.890343
 20
215.586166
 30
0.0
 11
72.80905899999997
 21
215.586166
 31
0.0
  0
ARC
  5
2C0A
330
A
100
AcDbEntity
  8
0
  6
Continuous
 62
     7
100
AcDbCircle
 10
67.891571
 20
214.581268
 30
0.0
 40
1.004931
100
AcDbArc
 50
90.06988900000001
 51
117.9525989999999
  0
LINE
  5
2C0B
330
A
100
AcDbEntity
  8
0
  6
Continuous
 62
     7
 48
0.030174
100
AcDbLine
 10
92.53009
 20
227.070755
 30
0.0
 11
93.41996800000002
 21
227.8861689999998
 31
0.0
  0
LINE
  5
2C0C
330
A
100
AcDbEntity
  8
0
  6
Continuous
 62
     7
 48
0.026604
100
AcDbLine
 10
93.24902299999999
 20
226.286179
 30
0.0
 11
92.53009
 21
227.070755
 31
0.0
  0
LINE
  5
2C0D
330
A
100
AcDbEntity
  8
0
  6
Continuous
 62
     7
 48
0.117787
100
AcDbLine
 10
93.41996800000002
 20
227.8861689999998
 30
0.0
 11
98.131462
 21
227.8861689999998
 31
0.0
  0
LINE
  5
2C0E
330
A
100
AcDbEntity
  8
0
  6
Continuous
 62
     7
 48
0.117788
100
AcDbLine
 10
97.96052600000001
 20
226.286179
 30
0.0
 11
93.24902299999999
 21
226.286179
 31
0.0
  0
LINE
  5
2C0F
330
A
100
AcDbEntity
  8
0
  6
Continuous
 62
     7
 48
0.030174
100
AcDbLine
 10
98.85039500000001
 20
227.101593
 30
0.0
 11
97.96052600000001
 21
226.286179
 31
0.0
  0
LINE
  5
2C10
330
A
100
AcDbEntity
  8
0
  6
Continuous
 62
     7
 48
0.026604
100
AcDbLine
 10
98.131462
 20
227.8861689999998
 30
0.0
 11
98.85039500000001
 21
227.101593
 31
0.0
  0
LINE
  5
2C11
330
A
100
AcDbEntity
  8
0
  6
Continuous
 62
     7
 48
0.026604
100
AcDbLine
 10
66.192299
 20
227.439392
 30
0.0
 11
65.473366
 21
228.2239689999999
 31
0.0
  0
LINE
  5
2C12
330
A
100
AcDbEntity
  8
0
  6
Continuous
 62
     7
 48
0.030174
100
AcDbLine
 10
67.08217600000001
 20
228.2548069999999
 30
0.0
 11
66.192299
 21
227.439392
 31
0.0
  0
LINE
  5
2C13
330
A
100
AcDbEntity
  8
0
  6
Continuous
 62
     7
 48
0.132173
100
AcDbLine
 10
65.473366
 20
228.2239689999999
 30
0.0
 11
65.934151
 21
233.4907529999999
 31
0.0
  0
LINE
  5
2C14
330
A
100
AcDbEntity
  8
0
  6
Continuous
 62
     7
 48
0.110259
100
AcDbLine
 10
67.46656
 20
232.6483759999999
 30
0.0
 11
67.08217600000001
 21
228.2548069999999
 31
0.0
  0
LINE
  5
2C15
330
A
100
AcDbEntity
  8
0
  6
Continuous
 62
     7
 48
0.048632
100
AcDbLine
 10
66.152344
 20
234.082596
 30
0.0
 11
67.46656
 21
232.6483759999999
 31
0.0
  0
ARC
  5
2C16
330
A
100
AcDbEntity
  8
0
  6
Continuous
 62
     7
100
AcDbCircle
 10
67.13633
 20
233.383682
 30
0.0
 40
1.206971999999999
100
AcDbArc
 50
144.614434
 51
174.910271
  0
LINE
  5
2C17
330
A
100
AcDbEntity
  8
0
  6
Continuous
 62
     7
 48
0.117787
100
AcDbLine
 10
72.54669200000002
 20
232.9861759999999
 30
0.0
 11
67.83519699999999
 21
232.9861759999999
 31
0.0
  0
LINE
  5
2C18
330
A
100
AcDbEntity
  8
0
  6
Continuous
 62
     7
 48
0.050964
100
AcDbLine
 10
74.04969
 20
234.363403
 30
0.0
 11
72.54669200000002
 21
232.9861759999999
 31
0.0
  0
LINE
  5
2C19
330
A
100
AcDbEntity
  8
0
  6
Continuous
 62
     7
 48
0.048632
100
AcDbLine
 10
67.83519699999999
 20
232.9861759999999
 30
0.0
 11
66.520981
 21
234.420395
 31
0.0
  0
ARC
  5
2C1A
330
A
100
AcDbEntity
  8
0
  6
Continuous
 62
     7
100
AcDbCircle
 10
73.350319
 20
233.376968
 30
0.0
 40
1.20926
100
AcDbArc
 50
54.66419399999999
 51
89.860503
  0
LINE
  5
2C1B
330
A
100
AcDbEntity
  8
0
  6
Continuous
 62
     7
 48
0.155592
100
AcDbLine
 10
67.12958499999999
 20
234.5861819999999
 30
0.0
 11
73.35326399999998
 21
234.5861819999999
 31
0.0
  0
ARC
  5
2C1C
330
A
100
AcDbEntity
  8
0
  6
Continuous
 62
     7
100
AcDbCircle
 10
67.13146999999999
 20
233.3792419999999
 30
0.0
 40
1.206971999999999
100
AcDbArc
 50
90.08973799999999
 51
120.385567
  0
LINE
  5
2C1D
330
A
100
AcDbEntity
  8
0
  6
Continuous
 62
     7
 48
0.117787
100
AcDbLine
 10
98.54669200000001
 20
232.9861759999999
 30
0.0
 11
93.83520500000001
 21
232.9861759999999
 31
0.0
  0
LINE
  5
2C1E
330
A
100
AcDbEntity
  8
0
  6
Continuous
 62
     7
 48
0.050964
100
AcDbLine
 10
100.0496899999999
 20
234.363403
 30
0.0
 11
98.54669200000001
 21
232.9861759999999
 31
0.0
  0
LINE
  5
2C1F
330
A
100
AcDbEntity
  8
0
  6
Continuous
 62
     7
 48
0.048632
100
AcDbLine
 10
93.83520500000001
 20
232.9861759999999
 30
0.0
 11
92.52098100000001
 21
234.420395
 31
0.0
  0
ARC
  5
2C20
330
A
100
AcDbEntity
  8
0
  6
Continuous
 62
     7
100
AcDbCircle
 10
99.35028800000001
 20
233.376862
 30
0.0
 40
1.209362999999997
100
AcDbArc
 50
54.66567799999999
 51
89.859021
  0
LINE
  5
2C21
330
A
100
AcDbEntity
  8
0
  6
Continuous
 62
     7
 48
0.155592
100
AcDbLine
 10
93.12958499999998
 20
234.5861819999999
 30
0.0
 11
99.35326400000001
 21
234.5861819999999
 31
0.0
  0
ARC
  5
2C22
330
A
100
AcDbEntity
  8
0
  6
Continuous
 62
     7
100
AcDbCircle
 10
93.13146999999998
 20
233.3792419999999
 30
0.0
 40
1.206971999999999
100
AcDbArc
 50
90.08973799999999
 51
120.385567
  0
LINE
  5
2C23
330
A
100
AcDbEntity
  8
0
  6
Continuous
 62
     7
 48
0.110259
100
AcDbLine
 10
72.500107
 20
228.2239689999999
 30
0.0
 11
72.884491
 21
232.617538
 31
0.0
  0
LINE
  5
2C24
330
A
100
AcDbEntity
  8
0
  6
Continuous
 62
     7
 48
0.026604
100
AcDbLine
 10
73.21904
 20
227.439392
 30
0.0
 11
72.500107
 21
228.2239689999999
 31
0.0
  0
LINE
  5
2C25
330
A
100
AcDbEntity
  8
0
  6
Continuous
 62
     7
 48
0.050964
100
AcDbLine
 10
72.884491
 20
232.617538
 30
0.0
 11
74.38748199999998
 21
233.994781
 31
0.0
  0
LINE
  5
2C26
330
A
100
AcDbEntity
  8
0
  6
Continuous
 62
     7
 48
0.030174
100
AcDbLine
 10
74.10890999999998
 20
228.2548069999999
 30
0.0
 11
73.21904
 21
227.439392
 31
0.0
  0
LINE
  5
2C27
330
A
100
AcDbEntity
  8
0
  6
Continuous
 62
     7
 48
0.12615
100
AcDbLine
 10
74.548698
 20
233.2815859999999
 30
0.0
 11
74.10890999999998
 21
228.2548069999999
 31
0.0
  0
ARC
  5
2C28
330
A
100
AcDbEntity
  8
0
  6
Continuous
 62
     7
100
AcDbCircle
 10
73.343742
 20
233.384018
 30
0.0
 40
1.209362999999997
100
AcDbArc
 50
355.1409779999998
 51
30.334319
  0
LINE
  5
2C29
330
A
100
AcDbEntity
  8
0
  6
Continuous
 62
     7
 48
0.110259
100
AcDbLine
 10
111.5001069999999
 20
228.2239689999999
 30
0.0
 11
111.8844909999999
 21
232.617538
 31
0.0
  0
LINE
  5
2C2A
330
A
100
AcDbEntity
  8
0
  6
Continuous
 62
     7
 48
0.026604
100
AcDbLine
 10
112.21904
 20
227.439392
 30
0.0
 11
111.5001069999999
 21
228.2239689999999
 31
0.0
  0
LINE
  5
2C2B
330
A
100
AcDbEntity
  8
0
  6
Continuous
 62
     7
 48
0.050964
100
AcDbLine
 10
111.8844909999999
 20
232.617538
 30
0.0
 11
113.387482
 21
233.994781
 31
0.0
  0
LINE
  5
2C2C
330
A
100
AcDbEntity
  8
0
  6
Continuous
 62
     7
 48
0.030174
100
AcDbLine
 10
113.1089169999995
 20
228.2548069999999
 30
0.0
 11
112.21904
 21
227.439392
 31
0.0
  0
LINE
  5
2C2D
330
A
100
AcDbEntity
  8
0
  6
Continuous
 62
     7
 48
0.12615
100
AcDbLine
 10
113.548698
 20
233.2815859999999
 30
0.0
 11
113.1089169999995
 21
228.2548069999999
 31
0.0
  0
ARC
  5
2C2E
330
A
100
AcDbEntity
  8
0
  6
Continuous
 62
     7
100
AcDbCircle
 10
112.343735
 20
233.384018
 30
0.0
 40
1.209362999999997
100
AcDbArc
 50
355.1409779999998
 51
30.334319
  0
ARC
  5
2C2F
330
A
100
AcDbEntity
  8
0
  6
Continuous
 62
     7
100
AcDbCircle
 10
117.650505
 20
238.0861819999999
 30
0.0
 40
2.0
100
AcDbArc
 50
0.0
 51
90.00000300000001
  0
LINE
  5
2C30
330
A
100
AcDbEntity
  8
0
  6
Continuous
 62
     7
100
AcDbLine
 10
119.650505
 20
238.0861819999999
 30
0.0
 11
119.650505
 21
174.286179
 31
0.0
  0
ARC
  5
2C31
330
A
100
AcDbEntity
  8
0
  6
Continuous
 62
     7
100
AcDbCircle
 10
117.650505
 20
174.286179
 30
0.0
 40
2.0
100
AcDbArc
 50
270.000001
 51
0.00001
  0
ARC
  5
2C32
330
A
100
AcDbEntity
  8
0
  6
Continuous
 62
     7
100
AcDbCircle
 10
33.65050499999998
 20
238.0861819999999
 30
0.0
 40
2.0
100
AcDbArc
 50
90.00000300000001
 51
180.000005
  0
LINE
  5
2C33
330
A
100
AcDbEntity
  8
0
  6
Continuous
 62
     7
100
AcDbLine
 10
33.65050499999998
 20
172.286179
 30
0.0
 11
117.650505
 21
172.286179
 31
0.0
  0
ARC
  5
2C34
330
A
100
AcDbEntity
  8
0
  6
Continuous
 62
     7
100
AcDbCircle
 10
33.65050499999998
 20
174.286179
 30
0.0
 40
2.0
100
AcDbArc
 50
180.000005
 51
270.000001
  0
ARC
  5
2C4E
330
A
100
AcDbEntity
  8
0
  6
Continuous
 62
     7
100
AcDbCircle
 10
79.65050500000002
 20
169.786179
 30
0.0
 40
1.0
100
AcDbArc
 50
360.0
 51
90.00000300000001
  0
LINE
  5
2C50
330
A
100
AcDbEntity
  8
0
  6
Continuous
 62
     7
 48
0.2
100
AcDbLine
 10
71.65050500000003
 20
170.786179
 30
0.0
 11
79.65050500000002
 21
170.786179
 31
0.0
  0
ARC
  5
2C52
330
A
100
AcDbEntity
  8
0
  6
Continuous
 62
     7
100
AcDbCircle
 10
71.65050500000003
 20
169.786179
 30
0.0
 40
1.0
100
AcDbArc
 50
90.00000300000001
 51
180.000005
  0
LINE
  5
2C54
330
A
100
AcDbEntity
  8
0
  6
Continuous
 62
     7
 48
0.175
100
AcDbLine
 10
70.65050500000002
 20
162.786179
 30
0.0
 11
70.65050500000002
 21
169.786179
 31
0.0
  0
ARC
  5
2C56
330
A
100
AcDbEntity
  8
0
  6
Continuous
 62
     7
100
AcDbCircle
 10
71.65050500000003
 20
162.786179
 30
0.0
 40
1.0
100
AcDbArc
 50
180.000005
 51
270.000001
  0
LINE
  5
2C58
330
A
100
AcDbEntity
  8
0
  6
Continuous
 62
     7
 48
0.2
100
AcDbLine
 10
79.65050500000002
 20
161.786179
 30
0.0
 11
71.65050500000003
 21
161.786179
 31
0.0
  0
ARC
  5
2C5A
330
A
100
AcDbEntity
  8
0
  6
Continuous
 62
     7
100
AcDbCircle
 10
79.65050500000002
 20
162.786179
 30
0.0
 40
1.0
100
AcDbArc
 50
269.9999969999999
 51
360.0
  0
LINE
  5
2C5B
330
A
100
AcDbEntity
  8
0
  6
Continuous
 62
     7
 48
0.175
100
AcDbLine
 10
80.65050500000003
 20
162.786179
 30
0.0
 11
80.65050500000003
 21
169.786179
 31
0.0
  0
ARC
  5
2C75
330
A
100
AcDbEntity
  8
0
  6
Continuous
 62
     7
100
AcDbCircle
 10
91.550507
 20
169.786179
 30
0.0
 40
1.0
100
AcDbArc
 50
0.0
 51
90.00000300000001
  0
LINE
  5
2C77
330
A
100
AcDbEntity
  8
0
  6
Continuous
 62
     7
 48
0.2
100
AcDbLine
 10
83.55050699999997
 20
170.786179
 30
0.0
 11
91.550507
 21
170.786179
 31
0.0
  0
ARC
  5
2C79
330
A
100
AcDbEntity
  8
0
  6
Continuous
 62
     7
100
AcDbCircle
 10
83.55050699999997
 20
169.786179
 30
0.0
 40
1.0
100
AcDbArc
 50
90.00000300000001
 51
180.000005
  0
LINE
  5
2C7B
330
A
100
AcDbEntity
  8
0
  6
Continuous
 62
     7
 48
0.175
100
AcDbLine
 10
82.55050699999998
 20
162.786179
 30
0.0
 11
82.55050699999998
 21
169.786179
 31
0.0
  0
ARC
  5
2C7D
330
A
100
AcDbEntity
  8
0
  6
Continuous
 62
     7
100
AcDbCircle
 10
83.55050699999997
 20
162.786179
 30
0.0
 40
1.0
100
AcDbArc
 50
179.9999949999999
 51
269.9999969999999
  0
LINE
  5
2C7F
330
A
100
AcDbEntity
  8
0
  6
Continuous
 62
     7
 48
0.2
100
AcDbLine
 10
91.550507
 20
161.786179
 30
0.0
 11
83.55050699999997
 21
161.786179
 31
0.0
  0
ARC
  5
2C81
330
A
100
AcDbEntity
  8
0
  6
Continuous
 62
     7
100
AcDbCircle
 10
91.550507
 20
162.786179
 30
0.0
 40
1.0
100
AcDbArc
 50
269.9999969999999
 51
360.0
  0
LINE
  5
2C82
330
A
100
AcDbEntity
  8
0
  6
Continuous
 62
     7
 48
0.175
100
AcDbLine
 10
92.55050699999999
 20
162.786179
 30
0.0
 11
92.55050699999999
 21
169.786179
 31
0.0
  0
ARC
  5
2C9C
330
A
100
AcDbEntity
  8
0
  6
Continuous
 62
     7
100
AcDbCircle
 10
103.4505079999999
 20
169.786179
 30
0.0
 40
1.0
100
AcDbArc
 50
0.0
 51
90.00000300000001
  0
LINE
  5
2C9E
330
A
100
AcDbEntity
  8
0
  6
Continuous
 62
     7
 48
0.2
100
AcDbLine
 10
95.450508
 20
170.786179
 30
0.0
 11
103.4505079999999
 21
170.786179
 31
0.0
  0
ARC
  5
2CA0
330
A
100
AcDbEntity
  8
0
  6
Continuous
 62
     7
100
AcDbCircle
 10
95.450508
 20
169.786179
 30
0.0
 40
1.0
100
AcDbArc
 50
90.00000300000001
 51
180.000005
  0
LINE
  5
2CA2
330
A
100
AcDbEntity
  8
0
  6
Continuous
 62
     7
 48
0.175
100
AcDbLine
 10
94.450508
 20
162.786179
 30
0.0
 11
94.450508
 21
169.786179
 31
0.0
  0
ARC
  5
2CA4
330
A
100
AcDbEntity
  8
0
  6
Continuous
 62
     7
100
AcDbCircle
 10
95.450508
 20
162.786179
 30
0.0
 40
1.0
100
AcDbArc
 50
179.9999949999999
 51
269.9999969999999
  0
LINE
  5
2CA6
330
A
100
AcDbEntity
  8
0
  6
Continuous
 62
     7
 48
0.2
100
AcDbLine
 10
103.4505079999999
 20
161.786179
 30
0.0
 11
95.450508
 21
161.786179
 31
0.0
  0
ARC
  5
2CA8
330
A
100
AcDbEntity
  8
0
  6
Continuous
 62
     7
100
AcDbCircle
 10
103.4505079999999
 20
162.786179
 30
0.0
 40
1.0
100
AcDbArc
 50
269.9999969999999
 51
360.0
  0
LINE
  5
2CA9
330
A
100
AcDbEntity
  8
0
  6
Continuous
 62
     7
 48
0.175
100
AcDbLine
 10
104.4505079999999
 20
162.786179
 30
0.0
 11
104.4505079999999
 21
169.786179
 31
0.0
  0
LINE
  5
2CAA
330
A
100
AcDbEntity
  8
0
  6
Continuous
 62
     7
 48
0.2
100
AcDbLine
 10
47.850506
 20
170.786179
 30
0.0
 11
55.850506
 21
170.786179
 31
0.0
  0
LINE
  5
2CAB
330
A
100
AcDbEntity
  8
0
  6
Continuous
 62
     7
 48
0.2
100
AcDbLine
 10
55.850506
 20
161.786179
 30
0.0
 11
47.850506
 21
161.786179
 31
0.0
  0
ARC
  5
2CAC
330
A
100
AcDbEntity
  8
0
  6
Continuous
 62
     7
100
AcDbCircle
 10
47.850506
 20
169.786179
 30
0.0
 40
1.0
100
AcDbArc
 50
90.00000300000001
 51
180.000005
  0
ARC
  5
2CAD
330
A
100
AcDbEntity
  8
0
  6
Continuous
 62
     7
100
AcDbCircle
 10
55.850506
 20
169.786179
 30
0.0
 40
1.0
100
AcDbArc
 50
360.0
 51
90.00000300000001
  0
ARC
  5
2CAE
330
A
100
AcDbEntity
  8
0
  6
Continuous
 62
     7
100
AcDbCircle
 10
55.850506
 20
162.786179
 30
0.0
 40
1.0
100
AcDbArc
 50
269.9999969999999
 51
360.0
  0
ARC
  5
2CAF
330
A
100
AcDbEntity
  8
0
  6
Continuous
 62
     7
100
AcDbCircle
 10
47.850506
 20
162.786179
 30
0.0
 40
1.0
100
AcDbArc
 50
180.000005
 51
270.000001
  0
LINE
  5
2CB0
330
A
100
AcDbEntity
  8
0
  6
Continuous
 62
     7
 48
0.175
100
AcDbLine
 10
46.850506
 20
162.786179
 30
0.0
 11
46.850506
 21
169.786179
 31
0.0
  0
LINE
  5
2CB1
330
A
100
AcDbEntity
  8
0
  6
Continuous
 62
     7
 48
0.175
100
AcDbLine
 10
56.850506
 20
162.786179
 30
0.0
 11
56.850506
 21
169.786179
 31
0.0
  0
LINE
  5
2CBA
330
A
100
AcDbEntity
  8
0
  6
Continuous
 62
     7
 48
0.2
100
AcDbLine
 10
59.750504
 20
170.786179
 30
0.0
 11
67.75050400000001
 21
170.786179
 31
0.0
  0
LINE
  5
2CBB
330
A
100
AcDbEntity
  8
0
  6
Continuous
 62
     7
 48
0.2
100
AcDbLine
 10
67.75050400000001
 20
161.786179
 30
0.0
 11
59.750504
 21
161.786179
 31
0.0
  0
ARC
  5
2CBC
330
A
100
AcDbEntity
  8
0
  6
Continuous
 62
     7
100
AcDbCircle
 10
59.750504
 20
169.786179
 30
0.0
 40
1.0
100
AcDbArc
 50
90.00000300000001
 51
180.000005
  0
ARC
  5
2CBD
330
A
100
AcDbEntity
  8
0
  6
Continuous
 62
     7
100
AcDbCircle
 10
67.75050400000001
 20
169.786179
 30
0.0
 40
1.0
100
AcDbArc
 50
0.0
 51
90.00000300000001
  0
ARC
  5
2CBE
330
A
100
AcDbEntity
  8
0
  6
Continuous
 62
     7
100
AcDbCircle
 10
67.75050400000001
 20
162.786179
 30
0.0
 40
1.0
100
AcDbArc
 50
269.9999969999999
 51
0.0
  0
ARC
  5
2CBF
330
A
100
AcDbEntity
  8
0
  6
Continuous
 62
     7
100
AcDbCircle
 10
59.750504
 20
162.786179
 30
0.0
 40
1.0
100
AcDbArc
 50
180.000005
 51
270.000001
  0
LINE
  5
2CC0
330
A
100
AcDbEntity
  8
0
  6
Continuous
 62
     7
 48
0.175
100
AcDbLine
 10
58.75050400000001
 20
162.786179
 30
0.0
 11
58.75050400000001
 21
169.786179
 31
0.0
  0
LINE
  5
2CC1
330
A
100
AcDbEntity
  8
0
  6
Continuous
 62
     7
 48
0.175
100
AcDbLine
 10
68.75050400000001
 20
162.786179
 30
0.0
 11
68.75050400000001
 21
169.786179
 31
0.0
  0
LINE
  5
2CCA
330
A
100
AcDbEntity
  8
0
  6
Continuous
 62
     7
 48
0.2
100
AcDbLine
 10
107.35051
 20
170.786179
 30
0.0
 11
115.35051
 21
170.786179
 31
0.0
  0
LINE
  5
2CCB
330
A
100
AcDbEntity
  8
0
  6
Continuous
 62
     7
 48
0.2
100
AcDbLine
 10
115.35051
 20
161.786179
 30
0.0
 11
107.35051
 21
161.786179
 31
0.0
  0
ARC
  5
2CCC
330
A
100
AcDbEntity
  8
0
  6
Continuous
 62
     7
100
AcDbCircle
 10
107.35051
 20
169.786179
 30
0.0
 40
1.0
100
AcDbArc
 50
90.00000300000001
 51
180.000005
  0
ARC
  5
2CCD
330
A
100
AcDbEntity
  8
0
  6
Continuous
 62
     7
100
AcDbCircle
 10
115.35051
 20
169.786179
 30
0.0
 40
1.0
100
AcDbArc
 50
0.0
 51
90.00000300000001
  0
ARC
  5
2CCE
330
A
100
AcDbEntity
  8
0
  6
Continuous
 62
     7
100
AcDbCircle
 10
115.35051
 20
162.786179
 30
0.0
 40
1.0
100
AcDbArc
 50
269.9999969999999
 51
360.0
  0
ARC
  5
2CCF
330
A
100
AcDbEntity
  8
0
  6
Continuous
 62
     7
100
AcDbCircle
 10
107.35051
 20
162.786179
 30
0.0
 40
1.0
100
AcDbArc
 50
180.000005
 51
270.000001
  0
LINE
  5
2CD0
330
A
100
AcDbEntity
  8
0
  6
Continuous
 62
     7
 48
0.175
100
AcDbLine
 10
106.35051
 20
162.786179
 30
0.0
 11
106.35051
 21
169.786179
 31
0.0
  0
LINE
  5
2CD1
330
A
100
AcDbEntity
  8
0
  6
Continuous
 62
     7
 48
0.175
100
AcDbLine
 10
116.35051
 20
162.786179
 30
0.0
 11
116.35051
 21
169.786179
 31
0.0
  0
ARC
  5
2CE9
330
A
100
AcDbEntity
  8
0
  6
Continuous
 62
     7
100
AcDbCircle
 10
43.95050799999999
 20
169.786179
 30
0.0
 40
1.0
100
AcDbArc
 50
0.0
 51
90.00000300000001
  0
LINE
  5
2CEA
330
A
100
AcDbEntity
  8
0
  6
Continuous
 62
     7
 48
0.2
100
AcDbLine
 10
35.95050399999996
 20
170.786179
 30
0.0
 11
43.95050799999999
 21
170.786179
 31
0.0
  0
ARC
  5
2CEB
330
A
100
AcDbEntity
  8
0
  6
Continuous
 62
     7
100
AcDbCircle
 10
35.95050399999996
 20
169.786179
 30
0.0
 40
1.0
100
AcDbArc
 50
90.00000300000001
 51
180.000005
  0
LINE
  5
2CEC
330
A
100
AcDbEntity
  8
0
  6
Continuous
 62
     7
 48
0.175
100
AcDbLine
 10
34.95050399999998
 20
162.786179
 30
0.0
 11
34.95050399999998
 21
169.786179
 31
0.0
  0
ARC
  5
2CED
330
A
100
AcDbEntity
  8
0
  6
Continuous
 62
     7
100
AcDbCircle
 10
35.95050399999996
 20
162.786179
 30
0.0
 40
1.0
100
AcDbArc
 50
179.9999949999999
 51
269.9999969999999
  0
LINE
  5
2CEE
330
A
100
AcDbEntity
  8
0
  6
Continuous
 62
     7
 48
0.2
100
AcDbLine
 10
43.95050799999999
 20
161.786179
 30
0.0
 11
35.95050399999996
 21
161.786179
 31
0.0
  0
ARC
  5
2CEF
330
A
100
AcDbEntity
  8
0
  6
Continuous
 62
     7
100
AcDbCircle
 10
43.95050799999999
 20
162.786179
 30
0.0
 40
1.0
100
AcDbArc
 50
269.9999969999999
 51
360.0
  0
LINE
  5
2CF0
330
A
100
AcDbEntity
  8
0
  6
Continuous
 62
     7
 48
0.175
100
AcDbLine
 10
44.950508
 20
162.786179
 30
0.0
 11
44.950508
 21
169.786179
 31
0.0
  0
LINE
  5
2CF4
330
A
100
AcDbEntity
  8
0
  6
Continuous
 62
     7
 48
0.0125
100
AcDbLine
 10
119.150505
 20
148.257751
 30
0.0
 11
119.650505
 21
148.257751
 31
0.0
  0
LINE
  5
2CF8
330
A
100
AcDbEntity
  8
0
  6
Continuous
 62
     7
 48
0.0125
100
AcDbLine
 10
31.65050499999999
 20
148.257751
 30
0.0
 11
32.15050499999998
 21
148.257751
 31
0.0
  0
LINE
  5
2CF9
330
A
100
AcDbEntity
  8
0
  6
Continuous
 62
     7
 48
0.017678
100
AcDbLine
 10
80.65050500000003
 20
159.586182
 30
0.0
 11
80.150505
 21
159.086182
 31
0.0
  0
LINE
  5
2CFA
330
A
100
AcDbEntity
  8
0
  6
Continuous
 62
     7
 48
0.025
100
AcDbLine
 10
119.150505
 20
148.257751
 30
0.0
 11
119.150505
 21
152.086182
 31
0.0
  0
LINE
  5
2CFD
330
A
100
AcDbEntity
  8
0
  6
Continuous
 62
     7
100
AcDbLine
 10
32.15050499999998
 20
152.086182
 30
0.0
 11
119.150505
 21
152.086182
 31
0.0
  0
LINE
  5
2CFE
330
A
100
AcDbEntity
  8
0
  6
Continuous
 62
     7
 48
0.025
100
AcDbLine
 10
32.15050499999998
 20
148.257751
 30
0.0
 11
32.15050499999998
 21
152.086182
 31
0.0
  0
LINE
  5
2D01
330
A
100
AcDbEntity
  8
0
  6
Continuous
 62
     7
 48
0.017678
100
AcDbLine
 10
70.65050500000002
 20
159.586182
 30
0.0
 11
71.15050500000002
 21
159.086182
 31
0.0
  0
LINE
  5
2D02
330
A
100
AcDbEntity
  8
0
  6
Continuous
 62
     7
100
AcDbLine
 10
33.65050499999998
 20
159.086182
 30
0.0
 11
117.650505
 21
159.086182
 31
0.0
  0
ARC
  5
2D03
330
A
100
AcDbEntity
  8
0
  6
Continuous
 62
     7
100
AcDbCircle
 10
33.65050499999998
 20
157.586182
 30
0.0
 40
1.5
100
AcDbArc
 50
90.00000300000001
 51
180.000005
  0
LINE
  5
2D04
330
A
100
AcDbEntity
  8
0
  6
Continuous
 62
     7
 48
0.125
100
AcDbLine
 10
32.15050499999998
 20
152.586182
 30
0.0
 11
32.15050499999998
 21
157.586182
 31
0.0
  0
LINE
  5
2D05
330
A
100
AcDbEntity
  8
0
  6
Continuous
 62
     7
100
AcDbLine
 10
32.15050499999998
 20
152.586182
 30
0.0
 11
119.150505
 21
152.586182
 31
0.0
  0
LINE
  5
2D06
330
A
100
AcDbEntity
  8
0
  6
Continuous
 62
     7
 48
0.125
100
AcDbLine
 10
119.150505
 20
152.586182
 30
0.0
 11
119.150505
 21
157.586182
 31
0.0
  0
ARC
  5
2D07
330
A
100
AcDbEntity
  8
0
  6
Continuous
 62
     7
100
AcDbCircle
 10
117.650505
 20
157.586182
 30
0.0
 40
1.5
100
AcDbArc
 50
0.0
 51
90.00000300000001
  0
ARC
  5
2D09
330
A
100
AcDbEntity
  8
0
  6
Continuous
 62
     7
100
AcDbCircle
 10
117.650505
 20
157.586182
 30
0.0
 40
2.0
100
AcDbArc
 50
0.0
 51
90.00000300000001
  0
LINE
  5
2D0B
330
A
100
AcDbEntity
  8
0
  6
Continuous
 62
     7
100
AcDbLine
 10
119.150505
 20
148.257751
 30
0.0
 11
32.15050499999998
 21
148.257751
 31
0.0
  0
LINE
  5
318A
330
A
100
AcDbEntity
  8
0
  6
DASHED
 62
     4
100
AcDbLine
 10
280.4653629999999
 20
238.087311
 30
0.0
 11
260.4653629999999
 21
238.087311
 31
0.0
  0
ARC
  5
318B
330
A
100
AcDbEntity
  8
0
  6
DASHED
 62
     4
100
AcDbCircle
 10
280.4653629999999
 20
235.087311
 30
0.0
 40
3.0
100
AcDbArc
 50
0.00001
 51
89.999996
  0
LINE
  5
318C
330
A
100
AcDbEntity
  8
0
  6
DASHED
 62
     4
100
AcDbLine
 10
283.4653629999999
 20
157.0873109999999
 30
0.0
 11
283.4653629999999
 21
235.087311
 31
0.0
  0
ARC
  5
318D
330
A
100
AcDbEntity
  8
0
  6
DASHED
 62
     4
100
AcDbCircle
 10
280.4653629999999
 20
157.0873109999999
 30
0.0
 40
3.0
100
AcDbArc
 50
270.0000549999999
 51
0.00001
  0
LINE
  5
318E
330
A
100
AcDbEntity
  8
0
  6
DASHED
 62
     4
100
AcDbLine
 10
260.4653629999999
 20
154.0873109999999
 30
0.0
 11
280.4653629999999
 21
154.0873109999999
 31
0.0
  0
LINE
  5
3190
330
A
100
AcDbEntity
  8
0
  6
DASHED
 62
     4
100
AcDbLine
 10
286.4653629999999
 20
152.087311
 30
0.0
 11
260.4653629999999
 21
152.087311
 31
0.0
  0
ARC
  5
3191
330
A
100
AcDbEntity
  8
0
  6
DASHED
 62
     4
100
AcDbCircle
 10
286.4653629999999
 20
153.0873109999999
 30
0.0
 40
1.0
100
AcDbArc
 50
270.000001
 51
0.00001
  0
LINE
  5
3192
330
A
100
AcDbEntity
  8
0
  6
DASHED
 62
     4
100
AcDbLine
 10
287.4653629999999
 20
239.087311
 30
0.0
 11
287.4653629999999
 21
153.0873109999999
 31
0.0
  0
ARC
  5
3193
330
A
100
AcDbEntity
  8
0
  6
DASHED
 62
     4
100
AcDbCircle
 10
286.465393
 20
239.0969539999999
 30
0.0
 40
1.0
100
AcDbArc
 50
359.447448
 51
82.03650000000001
  0
LINE
  5
3194
330
A
100
AcDbEntity
  8
0
  6
DASHED
 62
     4
100
AcDbLine
 10
260.4653629999999
 20
240.087311
 30
0.0
 11
286.603943
 21
240.087311
 31
0.0
  0
LINE
  5
3198
330
A
100
AcDbEntity
  8
0
  6
Continuous
 62
     7
100
AcDbLine
 10
260.4653629999999
 20
240.600037
 30
0.0
 11
260.4653629999999
 21
200.572311
 31
0.0
  0
LINE
  5
3199
330
A
100
AcDbEntity
  8
0
  6
Continuous
 62
     7
 48
0.224307
100
AcDbLine
 10
260.4653629999999
 20
200.572311
 30
0.0
 11
260.4653629999999
 21
191.600037
 31
0.0
  0
LINE
  5
319A
330
A
100
AcDbEntity
  8
0
  6
Continuous
 62
     7
100
AcDbLine
 10
260.4653629999999
 20
191.600037
 30
0.0
 11
260.4653629999999
 21
151.572311
 31
0.0
  0
LINE
  5
319F
330
A
100
AcDbEntity
  8
0
  6
Continuous
 62
     7
100
AcDbLine
 10
145.4653629999999
 20
244.0861819999999
 30
0.0
 11
145.4653629999999
 21
148.086182
 31
0.0
  0
LINE
  5
31A1
330
A
100
AcDbEntity
  8
0
  6
Continuous
 62
     7
100
AcDbLine
 10
260.4653629999999
 20
240.600037
 30
0.0
 11
216.881805
 21
240.9803769999999
 31
0.0
  0
LINE
  5
31A2
330
A
100
AcDbEntity
  8
0
  6
Continuous
 62
     7
 48
0.056012
100
AcDbLine
 10
214.641418
 20
240.999939
 30
0.0
 11
216.881805
 21
240.9803769999999
 31
0.0
  0
LINE
  5
31A3
330
A
100
AcDbEntity
  8
0
  6
Continuous
 62
     7
100
AcDbLine
 10
214.641418
 20
240.999939
 30
0.0
 11
147.4653629999999
 21
241.5861819999999
 31
0.0
  0
LINE
  5
31A4
330
A
100
AcDbEntity
  8
0
  6
Continuous
 62
     7
100
AcDbLine
 10
214.641418
 20
151.172409
 30
0.0
 11
147.4653629999999
 21
150.5861819999998
 31
0.0
  0
LINE
  5
31A5
330
A
100
AcDbEntity
  8
0
  6
Continuous
 62
     7
 48
0.056012
100
AcDbLine
 10
214.641418
 20
151.172409
 30
0.0
 11
216.881805
 21
151.191956
 31
0.0
  0
LINE
  5
31A6
330
A
100
AcDbEntity
  8
0
  6
Continuous
 62
     7
100
AcDbLine
 10
260.4653629999999
 20
151.572311
 30
0.0
 11
216.881805
 21
151.191956
 31
0.0
  0
LWPOLYLINE
  5
31A7
330
A
100
AcDbEntity
  8
0
  6
Continuous
 62
     7
100
AcDbPolyline
 90
        7
 70
     0
 43
0.0
 10
216.2057649999999
 20
239.9863279999999
 10
216.2400209999999
 20
240.300247
 10
216.3344879999999
 20
240.572174
 10
216.4714809999999
 20
240.778717
 10
216.634186
 20
240.9130549999999
 10
216.8100589999998
 20
240.975372
 10
216.881805
 20
240.9803769999999
  0
LINE
  5
31B0
330
A
100
AcDbEntity
  8
0
  6
Continuous
 62
     7
 48
0.025001
100
AcDbLine
 10
216.2057649999999
 20
239.9863279999999
 30
0.0
 11
216.2057649999999
 21
238.9862819999999
 31
0.0
  0
LINE
  5
31B1
330
A
100
AcDbEntity
  8
0
  6
Continuous
 62
     7
100
AcDbLine
 10
260.4653629999999
 20
238.600037
 30
0.0
 11
214.641418
 21
238.999939
 31
0.0
  0
LWPOLYLINE
  5
31B2
330
A
100
AcDbEntity
  8
0
  6
Continuous
 62
     7
100
AcDbPolyline
 90
        7
 70
     0
 43
0.0
 10
214.641418
 20
238.999939
 10
214.463165
 20
238.96611
 10
214.293854
 20
238.860718
 10
214.144821
 20
238.6828459999999
 10
214.031097
 20
238.435394
 10
213.970947
 20
238.134094
 10
213.965363
 20
238.0058749999999
  0
LINE
  5
31BB
330
A
100
AcDbEntity
  8
0
  6
Continuous
 62
     7
 48
0.05
100
AcDbLine
 10
213.965363
 20
154.1664729999999
 30
0.0
 11
213.965363
 21
152.1664729999999
 31
0.0
  0
LINE
  5
31BC
330
A
100
AcDbEntity
  8
0
  6
Continuous
 62
     7
 48
0.05
100
AcDbLine
 10
213.965363
 20
240.0058749999999
 30
0.0
 11
213.965363
 21
238.0058749999999
 31
0.0
  0
LINE
  5
31BD
330
A
100
AcDbEntity
  8
0
  6
Continuous
 62
     7
 48
0.200008
100
AcDbLine
 10
260.4653629999999
 20
200.572311
 30
0.0
 11
252.4653629999999
 21
200.502487
 31
0.0
  0
LINE
  5
31BE
330
A
100
AcDbEntity
  8
0
  6
Continuous
 62
     7
 48
0.220816
100
AcDbLine
 10
252.4653629999999
 20
200.502487
 30
0.0
 11
252.4653629999999
 21
191.669846
 31
0.0
  0
LINE
  5
31BF
330
A
100
AcDbEntity
  8
0
  6
Continuous
 62
     7
 48
0.200008
100
AcDbLine
 10
260.4653629999999
 20
191.600037
 30
0.0
 11
252.4653629999999
 21
191.669846
 31
0.0
  0
LWPOLYLINE
  5
31C0
330
A
100
AcDbEntity
  8
0
  6
Continuous
 62
     7
100
AcDbPolyline
 90
        7
 70
     0
 43
0.0
 10
214.641418
 20
153.172409
 10
214.473846
 20
153.202148
 10
214.313629
 20
153.294937
 10
214.169907
 20
153.4516299999999
 10
214.0545499999999
 20
153.670837
 10
213.982544
 20
153.942596
 10
213.965363
 20
154.1664729999999
  0
LINE
  5
31C9
330
A
100
AcDbEntity
  8
0
  6
Continuous
 62
     7
100
AcDbLine
 10
260.4653629999999
 20
153.572311
 30
0.0
 11
214.641418
 21
153.172409
 31
0.0
  0
LINE
  5
31CA
330
A
100
AcDbEntity
  8
0
  6
Continuous
 62
     7
 48
0.025001
100
AcDbLine
 10
216.2057649999999
 20
153.1860659999999
 30
0.0
 11
216.2057649999999
 21
152.1860199999998
 31
0.0
  0
LWPOLYLINE
  5
31CB
330
A
100
AcDbEntity
  8
0
  6
Continuous
 62
     7
100
AcDbPolyline
 90
        7
 70
     0
 43
0.0
 10
216.2057649999999
 20
152.1860199999998
 10
216.2400209999999
 20
151.872101
 10
216.3344879999999
 20
151.600174
 10
216.4714809999999
 20
151.393631
 10
216.634186
 20
151.2592769999999
 10
216.8100589999998
 20
151.1969909999999
 10
216.881805
 20
151.191956
  0
LINE
  5
31D4
330
A
100
AcDbEntity
  8
0
  6
Continuous
 62
     7
 48
0.15
100
AcDbLine
 10
260.4653629999999
 20
154.086182
 30
0.0
 11
267.4653629999999
 21
154.086182
 31
0.0
  0
LINE
  5
31D6
330
A
100
AcDbEntity
  8
0
  6
Continuous
 62
     7
 48
0.15
100
AcDbLine
 10
260.4653629999999
 20
156.086182
 30
0.0
 11
267.4653629999999
 21
156.086182
 31
0.0
  0
LINE
  5
31DA
330
A
100
AcDbEntity
  8
0
  6
Continuous
 62
     7
 48
0.15
100
AcDbLine
 10
260.4653629999999
 20
164.0861659999998
 30
0.0
 11
267.4653629999999
 21
164.0861659999998
 31
0.0
  0
LINE
  5
31DB
330
A
100
AcDbEntity
  8
0
  6
Continuous
 62
     7
 48
0.15
100
AcDbLine
 10
260.4653629999999
 20
165.0861659999999
 30
0.0
 11
267.4653629999999
 21
165.0861659999998
 31
0.0
  0
LINE
  5
31DF
330
A
100
AcDbEntity
  8
0
  6
Continuous
 62
     7
 48
0.15
100
AcDbLine
 10
260.4653629999999
 20
173.0861659999999
 30
0.0
 11
267.4653629999999
 21
173.0861659999999
 31
0.0
  0
LINE
  5
31E0
330
A
100
AcDbEntity
  8
0
  6
Continuous
 62
     7
 48
0.15
100
AcDbLine
 10
260.4653629999999
 20
174.086166
 30
0.0
 11
267.4653629999999
 21
174.086166
 31
0.0
  0
LINE
  5
31E4
330
A
100
AcDbEntity
  8
0
  6
Continuous
 62
     7
 48
0.15
100
AcDbLine
 10
260.4653629999999
 20
182.086166
 30
0.0
 11
267.4653629999999
 21
182.0861659999999
 31
0.0
  0
LINE
  5
31E5
330
A
100
AcDbEntity
  8
0
  6
Continuous
 62
     7
 48
0.15
100
AcDbLine
 10
260.4653629999999
 20
183.086166
 30
0.0
 11
267.4653629999999
 21
183.0861659999999
 31
0.0
  0
LINE
  5
31E9
330
A
100
AcDbEntity
  8
0
  6
Continuous
 62
     7
 48
0.15
100
AcDbLine
 10
260.4653629999999
 20
191.0861659999999
 30
0.0
 11
267.4653629999999
 21
191.0861659999999
 31
0.0
  0
LINE
  5
31EA
330
A
100
AcDbEntity
  8
0
  6
Continuous
 62
     7
 48
0.15
100
AcDbLine
 10
260.4653629999999
 20
192.0861659999999
 30
0.0
 11
267.4653629999999
 21
192.0861659999999
 31
0.0
  0
LINE
  5
31EE
330
A
100
AcDbEntity
  8
0
  6
Continuous
 62
     7
 48
0.15
100
AcDbLine
 10
260.4653629999999
 20
200.0861659999999
 30
0.0
 11
267.4653629999999
 21
200.0861659999999
 31
0.0
  0
LINE
  5
31EF
330
A
100
AcDbEntity
  8
0
  6
Continuous
 62
     7
 48
0.15
100
AcDbLine
 10
260.4653629999999
 20
201.0861659999999
 30
0.0
 11
267.4653629999999
 21
201.0861659999998
 31
0.0
  0
LINE
  5
31F3
330
A
100
AcDbEntity
  8
0
  6
Continuous
 62
     7
 48
0.15
100
AcDbLine
 10
260.4653629999999
 20
209.0861659999999
 30
0.0
 11
267.4653629999999
 21
209.0861659999999
 31
0.0
  0
LINE
  5
31F4
330
A
100
AcDbEntity
  8
0
  6
Continuous
 62
     7
 48
0.15
100
AcDbLine
 10
260.4653629999999
 20
219.086166
 30
0.0
 11
267.4653629999999
 21
219.0861659999999
 31
0.0
  0
LINE
  5
31F8
330
A
100
AcDbEntity
  8
0
  6
Continuous
 62
     7
 48
0.15
100
AcDbLine
 10
260.4653629999999
 20
227.086166
 30
0.0
 11
267.4653629999999
 21
227.086166
 31
0.0
  0
LINE
  5
31F9
330
A
100
AcDbEntity
  8
0
  6
Continuous
 62
     7
 48
0.15
100
AcDbLine
 10
260.4653629999999
 20
228.0861819999999
 30
0.0
 11
267.4653629999999
 21
228.0861819999999
 31
0.0
  0
LINE
  5
31FD
330
A
100
AcDbEntity
  8
0
  6
Continuous
 62
     7
 48
0.15
100
AcDbLine
 10
260.4653629999999
 20
236.0861819999999
 30
0.0
 11
267.4653629999999
 21
236.0861819999999
 31
0.0
  0
LINE
  5
31FE
330
A
100
AcDbEntity
  8
0
  6
Continuous
 62
     7
 48
0.15
100
AcDbLine
 10
260.4653629999999
 20
238.0861819999999
 30
0.0
 11
267.4653629999999
 21
238.0861819999999
 31
0.0
  0
LINE
  5
3200
330
A
100
AcDbEntity
  8
0
  6
Continuous
 62
     7
 48
0.05
100
AcDbLine
 10
145.4653629999999
 20
148.086182
 30
0.0
 11
147.4653629999999
 21
148.086182
 31
0.0
  0
LINE
  5
3202
330
A
100
AcDbEntity
  8
0
  6
Continuous
 62
     7
100
AcDbLine
 10
147.4653629999999
 20
244.0861819999999
 30
0.0
 11
147.4653629999999
 21
148.086182
 31
0.0
  0
LINE
  5
3204
330
A
100
AcDbEntity
  8
0
  6
Continuous
 62
     7
 48
0.05
100
AcDbLine
 10
145.4653629999999
 20
244.0861819999999
 30
0.0
 11
147.4653629999999
 21
244.0861819999999
 31
0.0
  0
LWPOLYLINE
  5
3205
330
A
100
AcDbEntity
  8
0
  6
Continuous
 62
     7
100
AcDbPolyline
 90
        7
 70
     0
 43
0.0
 10
213.965363
 20
240.0058749999999
 10
213.9996029999999
 20
240.319794
 10
214.0940859999999
 20
240.591721
 10
214.2310789999999
 20
240.798264
 10
214.393799
 20
240.9326169999999
 10
214.569656
 20
240.9949189999999
 10
214.641418
 20
240.999939
  0
LWPOLYLINE
  5
320E
330
A
100
AcDbEntity
  8
0
  6
Continuous
 62
     7
100
AcDbPolyline
 90
        7
 70
     0
 43
0.0
 10
213.965363
 20
152.1664729999999
 10
213.9996029999999
 20
151.8525389999998
 10
214.0940859999999
 20
151.5806269999998
 10
214.2310789999999
 20
151.374084
 10
214.393799
 20
151.239731
 10
214.569656
 20
151.177429
 10
214.641418
 20
151.172409
  0
LINE
  5
321D
330
A
100
AcDbEntity
  8
0
  6
Continuous
 62
     7
 48
0.05
100
AcDbLine
 10
267.4653629999999
 20
238.0861819999999
 30
0.0
 11
267.4653629999999
 21
154.086182
 31
0.0
  0
LINE
  5
3244
330
A
100
AcDbEntity
  8
0
  6
Continuous
 62
     7
100
AcDbLine
 10
140.465363
 20
241.086182
 30
0.0
 11
140.465363
 21
151.086182
 31
0.0
  0
ARC
  5
3245
330
A
100
AcDbEntity
  8
0
  6
Continuous
 62
     7
100
AcDbCircle
 10
143.4653629999999
 20
151.086182
 30
0.0
 40
3.0
100
AcDbArc
 50
180.000005
 51
270.000001
  0
ARC
  5
3246
330
A
100
AcDbEntity
  8
0
  6
Continuous
 62
     7
100
AcDbCircle
 10
143.4653629999999
 20
241.086182
 30
0.0
 40
3.0
100
AcDbArc
 50
90.00000300000001
 51
180.000005
  0
LINE
  5
3249
330
A
100
AcDbEntity
  8
0
  6
Continuous
 62
     7
 48
0.05
100
AcDbLine
 10
145.4653629999999
 20
148.086182
 30
0.0
 11
143.4653629999999
 21
148.086182
 31
0.0
  0
LINE
  5
324C
330
A
100
AcDbEntity
  8
0
  6
Continuous
 62
     7
 48
0.025
100
AcDbLine
 10
145.4653629999999
 20
191.0861659999999
 30
0.0
 11
144.4653629999999
 21
191.0861659999999
 31
0.0
  0
LINE
  5
324D
330
A
100
AcDbEntity
  8
0
  6
Continuous
 62
     7
 48
0.25
100
AcDbLine
 10
144.4653629999999
 20
201.0861659999999
 30
0.0
 11
144.4653629999999
 21
191.0861659999999
 31
0.0
  0
LINE
  5
324E
330
A
100
AcDbEntity
  8
0
  6
Continuous
 62
     7
 48
0.025
100
AcDbLine
 10
145.4653629999999
 20
201.0861659999999
 30
0.0
 11
144.4653629999999
 21
201.0861659999999
 31
0.0
  0
LINE
  5
324F
330
A
100
AcDbEntity
  8
0
  6
Continuous
 62
     7
 48
0.05
100
AcDbLine
 10
145.4653629999999
 20
244.0861819999999
 30
0.0
 11
143.4653629999999
 21
244.0861819999999
 31
0.0
  0
LINE
  5
3277
330
A
100
AcDbEntity
  8
0
  6
Continuous
 62
     7
 48
0.005296
100
AcDbLine
 10
140.451859
 20
170.786179
 30
0.0
 11
140.2400049999999
 21
170.786179
 31
0.0
  0
LINE
  5
3278
330
A
100
AcDbEntity
  8
0
  6
Continuous
 62
     7
 48
0.005296
100
AcDbLine
 10
140.451859
 20
161.786179
 30
0.0
 11
140.2400049999999
 21
161.786179
 31
0.0
  0
ARC
  5
327B
330
A
100
AcDbEntity
  8
0
  6
Continuous
 62
     7
100
AcDbCircle
 10
140.2400049999999
 20
170.586166
 30
0.0
 40
0.2
100
AcDbArc
 50
90.00000300000001
 51
172.6910879999999
  0
ARC
  5
327E
330
A
100
AcDbEntity
  8
0
  6
Continuous
 62
     7
100
AcDbCircle
 10
140.2400049999999
 20
161.986176
 30
0.0
 40
0.2
100
AcDbArc
 50
187.3089219999999
 51
270.000001
  0
ARC
  5
3280
330
A
100
AcDbEntity
  8
0
  6
Continuous
 62
     7
100
AcDbCircle
 10
173.765366
 20
166.286179
 30
0.0
 40
34.0
100
AcDbArc
 50
172.6910879999999
 51
185.943649
  0
ARC
  5
3282
330
A
100
AcDbEntity
  8
0
  6
Continuous
 62
     7
100
AcDbCircle
 10
173.765366
 20
166.286179
 30
0.0
 40
34.0
100
AcDbArc
 50
185.943653
 51
187.308912
  0
CIRCLE
  5
4BA8
330
A
100
AcDbEntity
  8
0
  6
Continuous
 62
     7
100
AcDbCircle
 10
384.581665
 20
232.0861819999999
 30
0.0
 40
3.0
  0
CIRCLE
  5
4BA9
330
A
100
AcDbEntity
  8
0
  6
Continuous
 62
     7
100
AcDbCircle
 10
384.581665
 20
223.086166
 30
0.0
 40
3.0
  0
LINE
  5
4BAA
330
A
100
AcDbEntity
  8
0
  6
Continuous
 62
     7
 48
0.15
100
AcDbLine
 10
347.9816589999998
 20
202.086166
 30
0.0
 11
347.9816589999998
 21
208.086166
 31
0.0
  0
LINE
  5
4BAB
330
A
100
AcDbEntity
  8
0
  6
Continuous
 62
     7
 48
0.05
100
AcDbLine
 10
345.9816589999998
 20
208.086166
 30
0.0
 11
347.9816589999998
 21
208.086166
 31
0.0
  0
LINE
  5
4BAC
330
A
100
AcDbEntity
  8
0
  6
Continuous
 62
     7
 48
0.15
100
AcDbLine
 10
345.9816589999998
 20
208.086166
 30
0.0
 11
345.9816589999998
 21
202.086166
 31
0.0
  0
LINE
  5
4BAD
330
A
100
AcDbEntity
  8
0
  6
Continuous
 62
     7
 48
0.05
100
AcDbLine
 10
347.9816589999998
 20
202.086166
 30
0.0
 11
345.9816589999998
 21
202.086166
 31
0.0
  0
LINE
  5
4BAE
330
A
100
AcDbEntity
  8
0
  6
Continuous
 62
     7
 48
0.05
100
AcDbLine
 10
363.9816589999998
 20
208.086166
 30
0.0
 11
365.9816589999998
 21
208.086166
 31
0.0
  0
LINE
  5
4BAF
330
A
100
AcDbEntity
  8
0
  6
Continuous
 62
     7
 48
0.15
100
AcDbLine
 10
363.9816589999998
 20
208.086166
 30
0.0
 11
363.9816589999998
 21
202.086166
 31
0.0
  0
LINE
  5
4BB0
330
A
100
AcDbEntity
  8
0
  6
Continuous
 62
     7
 48
0.05
100
AcDbLine
 10
365.9816589999998
 20
202.086166
 30
0.0
 11
363.9816589999998
 21
202.086166
 31
0.0
  0
LINE
  5
4BB1
330
A
100
AcDbEntity
  8
0
  6
Continuous
 62
     7
 48
0.15
100
AcDbLine
 10
365.9816589999998
 20
202.086166
 30
0.0
 11
365.9816589999998
 21
208.086166
 31
0.0
  0
LINE
  5
4BB9
330
A
100
AcDbEntity
  8
0
  6
Continuous
 62
     7
 48
0.100347
100
AcDbLine
 10
348.4816589999998
 20
155.586182
 30
0.0
 11
348.4816589999998
 21
151.572311
 31
0.0
  0
ARC
  5
4BBA
330
A
100
AcDbEntity
  8
0
  6
Continuous
 62
     7
100
AcDbCircle
 10
350.9816589999998
 20
155.586182
 30
0.0
 40
2.5
100
AcDbArc
 50
0.00001
 51
180.0000009999999
  0
LINE
  5
4BBB
330
A
100
AcDbEntity
  8
0
  6
Continuous
 62
     7
 48
0.100347
100
AcDbLine
 10
353.4816589999998
 20
151.572311
 30
0.0
 11
353.4816589999998
 21
155.586182
 31
0.0
  0
LINE
  5
4BBC
330
A
100
AcDbEntity
  8
0
  6
Continuous
 62
     7
100
AcDbLine
 10
353.4816589999998
 20
151.572311
 30
0.0
 11
391.181702
 21
151.572311
 31
0.0
  0
ARC
  5
4BBD
330
A
100
AcDbEntity
  8
0
  6
Continuous
 62
     7
100
AcDbCircle
 10
391.181702
 20
152.57225
 30
0.0
 40
0.999943
100
AcDbArc
 50
269.999
 51
0.00099
  0
LINE
  5
4BBE
330
A
100
AcDbEntity
  8
0
  6
Continuous
 62
     7
 48
0.025001
100
AcDbLine
 10
392.181641
 20
152.5722659999999
 30
0.0
 11
392.181641
 21
153.572311
 31
0.0
  0
LINE
  5
4BBF
330
A
100
AcDbEntity
  8
0
  6
Continuous
 62
     7
 48
0.057848
100
AcDbLine
 10
394.495544
 20
153.572311
 30
0.0
 11
392.181641
 21
153.572311
 31
0.0
  0
ARC
  5
4BC0
330
A
100
AcDbEntity
  8
0
  6
Continuous
 62
     7
100
AcDbCircle
 10
394.4955749999998
 20
154.57225
 30
0.0
 40
0.999943
100
AcDbArc
 50
269.999007
 51
0.000996
  0
LINE
  5
4BC1
330
A
100
AcDbEntity
  8
0
  6
Continuous
 62
     7
100
AcDbLine
 10
395.495514
 20
191.600037
 30
0.0
 11
395.495514
 21
154.5722659999999
 31
0.0
  0
LINE
  5
4BC2
330
A
100
AcDbEntity
  8
0
  6
Continuous
 62
     7
 48
0.018168
100
AcDbLine
 10
394.9816589999998
 20
191.0861659999999
 30
0.0
 11
395.495514
 21
191.600037
 31
0.0
  0
LINE
  5
4BC3
330
A
100
AcDbEntity
  8
0
  6
Continuous
 62
     7
 48
0.25
100
AcDbLine
 10
394.9816589999998
 20
201.0861659999999
 30
0.0
 11
394.9816589999998
 21
191.0861659999999
 31
0.0
  0
LINE
  5
4BC4
330
A
100
AcDbEntity
  8
0
  6
Continuous
 62
     7
 48
0.018168
100
AcDbLine
 10
394.9816589999998
 20
201.0861659999999
 30
0.0
 11
395.495514
 21
200.572311
 31
0.0
  0
LINE
  5
4BC5
330
A
100
AcDbEntity
  8
0
  6
Continuous
 62
     7
100
AcDbLine
 10
395.495514
 20
237.6000669999999
 30
0.0
 11
395.495514
 21
200.572311
 31
0.0
  0
ARC
  5
4BC6
330
A
100
AcDbEntity
  8
0
  6
Continuous
 62
     7
100
AcDbCircle
 10
394.4955749999998
 20
237.600098
 30
0.0
 40
0.999943
100
AcDbArc
 50
359.999004
 51
90.000993
  0
LINE
  5
4BC7
330
A
100
AcDbEntity
  8
0
  6
Continuous
 62
     7
 48
0.057848
100
AcDbLine
 10
394.495544
 20
238.600037
 30
0.0
 11
392.181641
 21
238.600037
 31
0.0
  0
LINE
  5
4BC8
330
A
100
AcDbEntity
  8
0
  6
Continuous
 62
     7
 48
0.025001
100
AcDbLine
 10
392.181641
 20
239.6000669999998
 30
0.0
 11
392.181641
 21
238.600037
 31
0.0
  0
ARC
  5
4BC9
330
A
100
AcDbEntity
  8
0
  6
Continuous
 62
     7
100
AcDbCircle
 10
391.181702
 20
239.600098
 30
0.0
 40
0.999943
100
AcDbArc
 50
359.9990099999998
 51
90.00100000000001
  0
LINE
  5
4BCA
330
A
100
AcDbEntity
  8
0
  6
Continuous
 62
     7
100
AcDbLine
 10
310.781616
 20
240.600037
 30
0.0
 11
391.181702
 21
240.600037
 31
0.0
  0
ARC
  5
4BCB
330
A
100
AcDbEntity
  8
0
  6
Continuous
 62
     7
100
AcDbCircle
 10
310.781586
 20
239.600098
 30
0.0
 40
0.999943
100
AcDbArc
 50
89.999005
 51
180.000989
  0
LINE
  5
4BCC
330
A
100
AcDbEntity
  8
0
  6
Continuous
 62
     7
 48
0.025001
100
AcDbLine
 10
309.781647
 20
239.6000669999998
 30
0.0
 11
309.781647
 21
238.600037
 31
0.0
  0
LINE
  5
4BCD
330
A
100
AcDbEntity
  8
0
  6
Continuous
 62
     7
 48
0.057848
100
AcDbLine
 10
307.467743
 20
238.600037
 30
0.0
 11
309.781647
 21
238.600037
 31
0.0
  0
ARC
  5
4BCE
330
A
100
AcDbEntity
  8
0
  6
Continuous
 62
     7
100
AcDbCircle
 10
307.467712
 20
237.600098
 30
0.0
 40
0.999943
100
AcDbArc
 50
89.999012
 51
180.001002
  0
LINE
  5
4BCF
330
A
100
AcDbEntity
  8
0
  6
Continuous
 62
     7
100
AcDbLine
 10
306.467773
 20
237.6000669999999
 30
0.0
 11
306.467773
 21
200.572311
 31
0.0
  0
LINE
  5
4BD0
330
A
100
AcDbEntity
  8
0
  6
Continuous
 62
     7
 48
0.018168
100
AcDbLine
 10
306.9816589999998
 20
201.0861659999999
 30
0.0
 11
306.467773
 21
200.572311
 31
0.0
  0
LINE
  5
4BD1
330
A
100
AcDbEntity
  8
0
  6
Continuous
 62
     7
 48
0.25
100
AcDbLine
 10
306.9816589999998
 20
201.0861659999999
 30
0.0
 11
306.9816589999998
 21
191.0861659999999
 31
0.0
  0
LINE
  5
4BD2
330
A
100
AcDbEntity
  8
0
  6
Continuous
 62
     7
 48
0.018168
100
AcDbLine
 10
306.9816589999998
 20
191.0861659999999
 30
0.0
 11
306.467773
 21
191.600037
 31
0.0
  0
LINE
  5
4BD3
330
A
100
AcDbEntity
  8
0
  6
Continuous
 62
     7
100
AcDbLine
 10
306.467773
 20
191.600037
 30
0.0
 11
306.467773
 21
154.5722659999999
 31
0.0
  0
ARC
  5
4BD4
330
A
100
AcDbEntity
  8
0
  6
Continuous
 62
     7
100
AcDbCircle
 10
307.467712
 20
154.57225
 30
0.0
 40
0.999943
100
AcDbArc
 50
179.999008
 51
270.0009839999998
  0
LINE
  5
4BD5
330
A
100
AcDbEntity
  8
0
  6
Continuous
 62
     7
 48
0.057848
100
AcDbLine
 10
307.467743
 20
153.572311
 30
0.0
 11
309.781647
 21
153.572311
 31
0.0
  0
LINE
  5
4BD6
330
A
100
AcDbEntity
  8
0
  6
Continuous
 62
     7
 48
0.025001
100
AcDbLine
 10
309.781647
 20
152.5722659999999
 30
0.0
 11
309.781647
 21
153.572311
 31
0.0
  0
ARC
  5
4BD7
330
A
100
AcDbEntity
  8
0
  6
Continuous
 62
     7
100
AcDbCircle
 10
310.781586
 20
152.57225
 30
0.0
 40
0.999943
100
AcDbArc
 50
179.999008
 51
270.0009839999998
  0
LINE
  5
4BD8
330
A
100
AcDbEntity
  8
0
  6
Continuous
 62
     7
100
AcDbLine
 10
310.781616
 20
151.572311
 30
0.0
 11
348.4816589999998
 21
151.572311
 31
0.0
  0
CIRCLE
  5
4BD9
330
A
100
AcDbEntity
  8
0
  6
Continuous
 62
     7
100
AcDbCircle
 10
335.9816589999998
 20
166.386169
 30
0.0
 40
3.0
  0
CIRCLE
  5
4BDA
330
A
100
AcDbEntity
  8
0
  6
Continuous
 62
     7
100
AcDbCircle
 10
317.3816529999998
 20
205.0861659999999
 30
0.0
 40
3.0
  0
CIRCLE
  5
4BDB
330
A
100
AcDbEntity
  8
0
  6
Continuous
 62
     7
100
AcDbCircle
 10
326.981659
 20
166.386169
 30
0.0
 40
3.0
  0
CIRCLE
  5
4BDC
330
A
100
AcDbEntity
  8
0
  6
Continuous
 62
     7
100
AcDbCircle
 10
344.9816589999998
 20
166.386169
 30
0.0
 40
3.0
  0
CIRCLE
  5
4BDD
330
A
100
AcDbEntity
  8
0
  6
Continuous
 62
     7
100
AcDbCircle
 10
317.3816529999998
 20
223.086166
 30
0.0
 40
3.0
  0
CIRCLE
  5
4BDE
330
A
100
AcDbEntity
  8
0
  6
Continuous
 62
     7
100
AcDbCircle
 10
317.3816529999998
 20
232.0861819999999
 30
0.0
 40
3.0
  0
CIRCLE
  5
4BDF
330
A
100
AcDbEntity
  8
0
  6
Continuous
 62
     7
100
AcDbCircle
 10
384.581665
 20
214.086166
 30
0.0
 40
3.0
  0
CIRCLE
  5
4BE0
330
A
100
AcDbEntity
  8
0
  6
Continuous
 62
     7
100
AcDbCircle
 10
384.581665
 20
205.0861659999999
 30
0.0
 40
3.0
  0
CIRCLE
  5
4BE1
330
A
100
AcDbEntity
  8
0
  6
Continuous
 62
     7
100
AcDbCircle
 10
384.581665
 20
196.0861659999999
 30
0.0
 40
3.0
  0
CIRCLE
  5
4BE2
330
A
100
AcDbEntity
  8
0
  6
Continuous
 62
     7
100
AcDbCircle
 10
384.581665
 20
187.0861659999999
 30
0.0
 40
3.0
  0
CIRCLE
  5
4BE3
330
A
100
AcDbEntity
  8
0
  6
Continuous
 62
     7
100
AcDbCircle
 10
384.581665
 20
178.086166
 30
0.0
 40
3.0
  0
CIRCLE
  5
4BE4
330
A
100
AcDbEntity
  8
0
  6
Continuous
 62
     7
100
AcDbCircle
 10
384.581665
 20
169.0861659999999
 30
0.0
 40
3.0
  0
CIRCLE
  5
4BE5
330
A
100
AcDbEntity
  8
0
  6
Continuous
 62
     7
100
AcDbCircle
 10
384.581665
 20
160.086182
 30
0.0
 40
3.0
  0
CIRCLE
  5
4BE6
330
A
100
AcDbEntity
  8
0
  6
Continuous
 62
     7
100
AcDbCircle
 10
317.3816529999998
 20
196.0861659999999
 30
0.0
 40
3.0
  0
CIRCLE
  5
4BE7
330
A
100
AcDbEntity
  8
0
  6
Continuous
 62
     7
100
AcDbCircle
 10
317.3816529999998
 20
187.0861659999999
 30
0.0
 40
3.0
  0
CIRCLE
  5
4BE8
330
A
100
AcDbEntity
  8
0
  6
Continuous
 62
     7
100
AcDbCircle
 10
317.3816529999998
 20
178.086166
 30
0.0
 40
3.0
  0
CIRCLE
  5
4BE9
330
A
100
AcDbEntity
  8
0
  6
Continuous
 62
     7
100
AcDbCircle
 10
317.3816529999998
 20
169.0861659999999
 30
0.0
 40
3.0
  0
CIRCLE
  5
4BEA
330
A
100
AcDbEntity
  8
0
  6
Continuous
 62
     7
100
AcDbCircle
 10
317.3816529999998
 20
160.086182
 30
0.0
 40
3.0
  0
LINE
  5
4BEE
330
A
100
AcDbEntity
  8
0
  6
Continuous
 62
     7
 48
0.083337
100
AcDbLine
 10
307.0678409999998
 20
240.999939
 30
0.0
 11
310.4012759999998
 21
240.9803769999999
 31
0.0
  0
LINE
  5
4BEF
330
A
100
AcDbEntity
  8
0
  6
Continuous
 62
     7
100
AcDbLine
 10
306.481628
 20
241.5861819999999
 30
0.0
 11
395.4816715477022
 21
241.5861699998476
 31
0.0
  0
LINE
  5
4BF1
330
A
100
AcDbEntity
  8
0
  6
Continuous
 62
     7
 48
0.083337
100
AcDbLine
 10
394.895447
 20
240.999939
 30
0.0
 11
391.562042
 21
240.9803769999999
 31
0.0
  0
LINE
  5
4BF2
330
A
100
AcDbEntity
  8
0
  6
Continuous
 62
     7
 48
0.027768
100
AcDbLine
 10
349.2670589999998
 20
150.7868959999998
 30
0.0
 11
348.4816589999998
 21
151.572311
 31
0.0
  0
LINE
  5
4BF3
330
A
100
AcDbEntity
  8
0
  6
Continuous
 62
     7
 48
0.085729
100
AcDbLine
 10
349.2670589999998
 20
150.7868959999998
 30
0.0
 11
352.6962279999998
 21
150.7868959999998
 31
0.0
  0
LINE
  5
4BF4
330
A
100
AcDbEntity
  8
0
  6
Continuous
 62
     7
 48
0.027769
100
AcDbLine
 10
352.6962279999998
 20
150.7868959999998
 30
0.0
 11
353.4816589999998
 21
151.572311
 31
0.0
  0
LINE
  5
4BF5
330
A
100
AcDbEntity
  8
0
  6
Continuous
 62
     7
 48
0.083337
100
AcDbLine
 10
394.895447
 20
151.172409
 30
0.0
 11
391.562042
 21
151.191956
 31
0.0
  0
LINE
  5
4BF7
330
A
100
AcDbEntity
  8
0
  6
Continuous
 62
     7
100
AcDbLine
 10
395.4816716698683
 20
150.5861780001495
 30
0.0
 11
306.481628
 21
150.5861819999998
 31
0.0
  0
LINE
  5
4BF8
330
A
100
AcDbEntity
  8
0
  6
Continuous
 62
     7
 48
0.083337
100
AcDbLine
 10
307.0678409999998
 20
151.172409
 30
0.0
 11
310.4012759999998
 21
151.191956
 31
0.0
  0
LINE
  5
4BF9
330
A
100
AcDbEntity
  8
0
  6
Continuous
 62
     7
 48
0.119982
100
AcDbLine
 10
349.2670589999998
 20
150.7868959999998
 30
0.0
 11
349.2670589999998
 21
155.586182
 31
0.0
  0
ARC
  5
4BFA
330
A
100
AcDbEntity
  8
0
  6
Continuous
 62
     7
100
AcDbCircle
 10
350.9816589999998
 20
155.586182
 30
0.0
 40
1.714579999999999
100
AcDbArc
 50
0.000029
 51
179.999978
  0
LINE
  5
4BFB
330
A
100
AcDbEntity
  8
0
  6
Continuous
 62
     7
 48
0.119982
100
AcDbLine
 10
352.6962279999998
 20
150.7868959999998
 30
0.0
 11
352.6962279999998
 21
155.586182
 31
0.0
  0
ARC
  5
4BFC
330
A
100
AcDbEntity
  8
0
  6
Continuous
 62
     7
100
AcDbCircle
 10
391.5725399999998
 20
152.1881709999999
 30
0.0
 40
0.995728
100
AcDbArc
 50
269.395621
 51
359.8766529999998
  0
LINE
  5
4BFD
330
A
100
AcDbEntity
  8
0
  6
Continuous
 62
     7
 48
0.025001
100
AcDbLine
 10
392.567902
 20
153.1860659999999
 30
0.0
 11
392.567902
 21
152.1860199999998
 31
0.0
  0
LINE
  5
4BFE
330
A
100
AcDbEntity
  8
0
  6
Continuous
 62
     7
 48
0.05819
100
AcDbLine
 10
392.567902
 20
153.1860659999999
 30
0.0
 11
394.895447
 21
153.172409
 31
0.0
  0
ARC
  5
4BFF
330
A
100
AcDbEntity
  8
0
  6
Continuous
 62
     7
100
AcDbCircle
 10
394.905945
 20
154.1686099999999
 30
0.0
 40
0.995728
100
AcDbArc
 50
269.395628
 51
359.8766319999998
  0
LINE
  5
4C00
330
A
100
AcDbEntity
  8
0
  6
Continuous
 62
     7
 48
0.002468
100
AcDbLine
 10
395.495514
 20
191.600037
 30
0.0
 11
395.565338
 21
191.669846
 31
0.0
  0
LINE
  5
4C01
330
A
100
AcDbEntity
  8
0
  6
Continuous
 62
     7
 48
0.220816
100
AcDbLine
 10
395.565338
 20
200.502487
 30
0.0
 11
395.565338
 21
191.669846
 31
0.0
  0
LINE
  5
4C02
330
A
100
AcDbEntity
  8
0
  6
Continuous
 62
     7
 48
0.002469
100
AcDbLine
 10
395.495514
 20
200.572311
 30
0.0
 11
395.565338
 21
200.502487
 31
0.0
  0
LINE
  5
4C03
330
A
100
AcDbEntity
  8
0
  6
Continuous
 62
     7
 48
0.05
100
AcDbLine
 10
395.901306
 20
238.0058749999999
 30
0.0
 11
395.901306
 21
240.0058749999999
 31
0.0
  0
LINE
  5
4C04
330
A
100
AcDbEntity
  8
0
  6
Continuous
 62
     7
100
AcDbLine
 10
396.4816589999998
 20
151.586136
 30
0.0
 11
396.4816589999998
 21
240.586212
 31
0.0
  0
LINE
  5
4C05
330
A
100
AcDbEntity
  8
0
  6
Continuous
 62
     7
 48
0.05
100
AcDbLine
 10
395.901306
 20
152.1664729999999
 30
0.0
 11
395.901306
 21
154.1664729999999
 31
0.0
  0
ARC
  5
4C06
330
A
100
AcDbEntity
  8
0
  6
Continuous
 62
     7
100
AcDbCircle
 10
394.905945
 20
238.003723
 30
0.0
 40
0.995728
100
AcDbArc
 50
0.123368
 51
90.604372
  0
LINE
  5
4C07
330
A
100
AcDbEntity
  8
0
  6
Continuous
 62
     7
 48
0.05819
100
AcDbLine
 10
392.567902
 20
238.9862819999999
 30
0.0
 11
394.895447
 21
238.999939
 31
0.0
  0
LINE
  5
4C08
330
A
100
AcDbEntity
  8
0
  6
Continuous
 62
     7
 48
0.025001
100
AcDbLine
 10
392.567902
 20
239.9863279999999
 30
0.0
 11
392.567902
 21
238.9862819999999
 31
0.0
  0
ARC
  5
4C09
330
A
100
AcDbEntity
  8
0
  6
Continuous
 62
     7
100
AcDbCircle
 10
391.5725399999998
 20
239.984177
 30
0.0
 40
0.995728
100
AcDbArc
 50
0.123346
 51
90.60437900000001
  0
ARC
  5
4C0A
330
A
100
AcDbEntity
  8
0
  6
Continuous
 62
     7
100
AcDbCircle
 10
310.390747
 20
239.984177
 30
0.0
 40
0.995728
100
AcDbArc
 50
89.39562
 51
179.876652
  0
LINE
  5
4C0B
330
A
100
AcDbEntity
  8
0
  6
Continuous
 62
     7
 48
0.025001
100
AcDbLine
 10
309.3953859999998
 20
239.9863279999999
 30
0.0
 11
309.3953859999998
 21
238.9862819999999
 31
0.0
  0
LINE
  5
4C0C
330
A
100
AcDbEntity
  8
0
  6
Continuous
 62
     7
 48
0.05819
100
AcDbLine
 10
309.3953859999998
 20
238.9862819999999
 30
0.0
 11
307.0678409999998
 21
238.999939
 31
0.0
  0
ARC
  5
4C0D
330
A
100
AcDbEntity
  8
0
  6
Continuous
 62
     7
100
AcDbCircle
 10
307.057343
 20
238.003723
 30
0.0
 40
0.995728
100
AcDbArc
 50
89.39563299999999
 51
179.8766379999999
  0
LINE
  5
4C0E
330
A
100
AcDbEntity
  8
0
  6
Continuous
 62
     7
 48
0.05
100
AcDbLine
 10
306.0619809999999
 20
154.1664729999999
 30
0.0
 11
306.0619809999999
 21
152.1664729999999
 31
0.0
  0
LINE
  5
4C0F
330
A
100
AcDbEntity
  8
0
  6
Continuous
 62
     7
100
AcDbLine
 10
305.4816589999997
 20
240.586212
 30
0.0
 11
305.4816589999997
 21
151.586136
 31
0.0
  0
LINE
  5
4C10
330
A
100
AcDbEntity
  8
0
  6
Continuous
 62
     7
 48
0.05
100
AcDbLine
 10
306.0619809999999
 20
240.0058749999999
 30
0.0
 11
306.0619809999999
 21
238.0058749999999
 31
0.0
  0
LINE
  5
4C11
330
A
100
AcDbEntity
  8
0
  6
Continuous
 62
     7
 48
0.002468
100
AcDbLine
 10
306.467773
 20
200.572311
 30
0.0
 11
306.3979799999998
 21
200.502487
 31
0.0
  0
LINE
  5
4C12
330
A
100
AcDbEntity
  8
0
  6
Continuous
 62
     7
 48
0.220816
100
AcDbLine
 10
306.3979799999998
 20
200.502487
 30
0.0
 11
306.3979799999998
 21
191.669846
 31
0.0
  0
LINE
  5
4C13
330
A
100
AcDbEntity
  8
0
  6
Continuous
 62
     7
 48
0.002468
100
AcDbLine
 10
306.467773
 20
191.600037
 30
0.0
 11
306.3979799999998
 21
191.669846
 31
0.0
  0
ARC
  5
4C14
330
A
100
AcDbEntity
  8
0
  6
Continuous
 62
     7
100
AcDbCircle
 10
307.057343
 20
154.1686099999999
 30
0.0
 40
0.9957379999999995
100
AcDbArc
 50
180.123335
 51
270.6034579999999
  0
LINE
  5
4C15
330
A
100
AcDbEntity
  8
0
  6
Continuous
 62
     7
 48
0.05819
100
AcDbLine
 10
309.3953859999998
 20
153.1860659999999
 30
0.0
 11
307.0678409999998
 21
153.172409
 31
0.0
  0
LINE
  5
4C16
330
A
100
AcDbEntity
  8
0
  6
Continuous
 62
     7
 48
0.025001
100
AcDbLine
 10
309.3953859999998
 20
153.1860659999999
 30
0.0
 11
309.3953859999998
 21
152.1860199999998
 31
0.0
  0
ARC
  5
4C17
330
A
100
AcDbEntity
  8
0
  6
Continuous
 62
     7
100
AcDbCircle
 10
310.390747
 20
152.1881709999999
 30
0.0
 40
0.995728
100
AcDbArc
 50
180.123348
 51
270.6043799999999
  0
LINE
  5
4C26
330
A
100
AcDbEntity
  8
0
  6
Continuous
 62
     7
 48
0.025
100
AcDbLine
 10
342.6816409999998
 20
174.0861659999999
 30
0.0
 11
342.681641
 21
238.0861819999999
 31
0.0
  0
LINE
  5
4C28
330
A
100
AcDbEntity
  8
0
  6
Continuous
 62
     7
100
AcDbLine
 10
322.8816529999998
 20
174.086166
 30
0.0
 11
360.181641
 21
174.086166
 31
0.0
  0
LINE
  5
4C35
330
A
100
AcDbEntity
  8
0
  6
Continuous
 62
     7
 48
0.2
100
AcDbLine
 10
349.981659
 20
238.0861819999999
 30
0.0
 11
349.981659
 21
174.086166
 31
0.0
  0
LINE
  5
4C3A
330
A
100
AcDbEntity
  8
0
  6
Continuous
 62
     7
 48
0.205
100
AcDbLine
 10
349.981659
 20
238.0861819999999
 30
0.0
 11
360.181641
 21
238.0861819999999
 31
0.0
  0
LINE
  5
4C4A
330
A
100
AcDbEntity
  8
0
  6
Continuous
 62
     7
 48
0.025
100
AcDbLine
 10
360.181641
 20
173.0861659999999
 30
0.0
 11
360.181641
 21
238.0861819999999
 31
0.0
  0
LINE
  5
4C4E
330
A
100
AcDbEntity
  8
0
  6
Continuous
 62
     7
 48
0.3425
100
AcDbLine
 10
349.9816589999998
 20
158.3861689999999
 30
0.0
 11
349.981659
 21
173.0861659999999
 31
0.0
  0
LINE
  5
4C4F
330
A
100
AcDbEntity
  8
0
  6
Continuous
 62
     7
 48
0.025
100
AcDbLine
 10
349.981659
 20
158.3861689999999
 30
0.0
 11
348.9816589999998
 21
158.3861689999999
 31
0.0
  0
LINE
  5
4C51
330
A
100
AcDbEntity
  8
0
  6
Continuous
 62
     7
 48
0.3175
100
AcDbLine
 10
348.9816589999998
 20
158.3861689999999
 30
0.0
 11
348.9816589999998
 21
172.0861659999999
 31
0.0
  0
LINE
  5
4C52
330
A
100
AcDbEntity
  8
0
  6
Continuous
 62
     7
 48
0.2
100
AcDbLine
 10
348.9816589999998
 20
172.0861659999999
 30
0.0
 11
340.9816589999998
 21
172.0861659999999
 31
0.0
  0
LINE
  5
4C54
330
A
100
AcDbEntity
  8
0
  6
Continuous
 62
     7
 48
0.3175
100
AcDbLine
 10
340.9816589999998
 20
172.0861659999999
 30
0.0
 11
340.9816589999998
 21
158.3861689999999
 31
0.0
  0
LINE
  5
4C55
330
A
100
AcDbEntity
  8
0
  6
Continuous
 62
     7
 48
0.025
100
AcDbLine
 10
340.9816589999998
 20
158.3861689999999
 30
0.0
 11
339.9816589999998
 21
158.3861689999999
 31
0.0
  0
LINE
  5
4C57
330
A
100
AcDbEntity
  8
0
  6
Continuous
 62
     7
 48
0.3175
100
AcDbLine
 10
339.9816589999998
 20
158.3861689999999
 30
0.0
 11
339.9816589999998
 21
172.0861659999999
 31
0.0
  0
LINE
  5
4C58
330
A
100
AcDbEntity
  8
0
  6
Continuous
 62
     7
 48
0.2
100
AcDbLine
 10
339.9816589999998
 20
172.0861659999999
 30
0.0
 11
331.9816589999998
 21
172.0861659999999
 31
0.0
  0
LINE
  5
4C5A
330
A
100
AcDbEntity
  8
0
  6
Continuous
 62
     7
 48
0.3175
100
AcDbLine
 10
331.9816589999998
 20
172.0861659999999
 30
0.0
 11
331.9816589999997
 21
158.3861689999999
 31
0.0
  0
LINE
  5
4C5B
330
A
100
AcDbEntity
  8
0
  6
Continuous
 62
     7
 48
0.025
100
AcDbLine
 10
331.9816589999998
 20
158.3861689999999
 30
0.0
 11
330.981659
 21
158.3861689999999
 31
0.0
  0
LINE
  5
4C5D
330
A
100
AcDbEntity
  8
0
  6
Continuous
 62
     7
 48
0.3175
100
AcDbLine
 10
330.981659
 20
158.3861689999999
 30
0.0
 11
330.981659
 21
172.0861659999999
 31
0.0
  0
LINE
  5
4C5E
330
A
100
AcDbEntity
  8
0
  6
Continuous
 62
     7
 48
0.2025
100
AcDbLine
 10
330.981659
 20
172.0861659999999
 30
0.0
 11
322.8816529999998
 21
172.0861659999999
 31
0.0
  0
LINE
  5
4C5F
330
A
100
AcDbEntity
  8
0
  6
Continuous
 62
     7
 48
0.45
100
AcDbLine
 10
322.8816529999998
 20
154.086182
 30
0.0
 11
322.8816529999998
 21
172.0861659999999
 31
0.0
  0
LINE
  5
4C60
330
A
100
AcDbEntity
  8
0
  6
Continuous
 62
     7
 48
0.3125
100
AcDbLine
 10
309.3816529999998
 20
154.086182
 30
0.0
 11
322.8816529999998
 21
154.086182
 31
0.0
  0
LINE
  5
4C62
330
A
100
AcDbEntity
  8
0
  6
Continuous
 62
     7
 48
0.05
100
AcDbLine
 10
309.3816529999998
 20
156.086182
 30
0.0
 11
309.3816529999998
 21
154.086182
 31
0.0
  0
LINE
  5
4C64
330
A
100
AcDbEntity
  8
0
  6
Continuous
 62
     7
 48
0.2875
100
AcDbLine
 10
321.8816529999998
 20
156.086182
 30
0.0
 11
309.3816529999998
 21
156.086182
 31
0.0
  0
LINE
  5
4C65
330
A
100
AcDbEntity
  8
0
  6
Continuous
 62
     7
 48
0.2
100
AcDbLine
 10
321.8816529999998
 20
164.0861659999998
 30
0.0
 11
321.8816529999998
 21
156.086182
 31
0.0
  0
LINE
  5
4C67
330
A
100
AcDbEntity
  8
0
  6
Continuous
 62
     7
 48
0.2875
100
AcDbLine
 10
321.8816529999998
 20
164.0861659999998
 30
0.0
 11
309.3816529999998
 21
164.0861659999998
 31
0.0
  0
LINE
  5
4C68
330
A
100
AcDbEntity
  8
0
  6
Continuous
 62
     7
 48
0.025
100
AcDbLine
 10
309.3816529999998
 20
165.0861659999999
 30
0.0
 11
309.3816529999998
 21
164.0861659999998
 31
0.0
  0
LINE
  5
4C6A
330
A
100
AcDbEntity
  8
0
  6
Continuous
 62
     7
 48
0.2875
100
AcDbLine
 10
309.3816529999998
 20
165.0861659999999
 30
0.0
 11
321.8816529999998
 21
165.0861659999999
 31
0.0
  0
LINE
  5
4C6B
330
A
100
AcDbEntity
  8
0
  6
Continuous
 62
     7
 48
0.2
100
AcDbLine
 10
321.8816529999998
 20
173.0861659999999
 30
0.0
 11
321.8816529999998
 21
165.0861659999999
 31
0.0
  0
LINE
  5
4C6D
330
A
100
AcDbEntity
  8
0
  6
Continuous
 62
     7
 48
0.2875
100
AcDbLine
 10
321.8816529999998
 20
173.0861659999999
 30
0.0
 11
309.3816529999998
 21
173.0861659999999
 31
0.0
  0
LINE
  5
4C6E
330
A
100
AcDbEntity
  8
0
  6
Continuous
 62
     7
 48
0.025
100
AcDbLine
 10
309.3816529999998
 20
174.086166
 30
0.0
 11
309.3816529999998
 21
173.0861659999999
 31
0.0
  0
LINE
  5
4C70
330
A
100
AcDbEntity
  8
0
  6
Continuous
 62
     7
 48
0.2875
100
AcDbLine
 10
309.3816529999998
 20
174.086166
 30
0.0
 11
321.8816529999998
 21
174.086166
 31
0.0
  0
LINE
  5
4C71
330
A
100
AcDbEntity
  8
0
  6
Continuous
 62
     7
 48
0.2
100
AcDbLine
 10
321.8816529999998
 20
182.086166
 30
0.0
 11
321.8816529999998
 21
174.086166
 31
0.0
  0
LINE
  5
4C73
330
A
100
AcDbEntity
  8
0
  6
Continuous
 62
     7
 48
0.2875
100
AcDbLine
 10
321.8816529999998
 20
182.086166
 30
0.0
 11
309.3816529999998
 21
182.086166
 31
0.0
  0
LINE
  5
4C74
330
A
100
AcDbEntity
  8
0
  6
Continuous
 62
     7
 48
0.025
100
AcDbLine
 10
309.3816529999998
 20
183.086166
 30
0.0
 11
309.3816529999998
 21
182.086166
 31
0.0
  0
LINE
  5
4C76
330
A
100
AcDbEntity
  8
0
  6
Continuous
 62
     7
 48
0.2875
100
AcDbLine
 10
309.3816529999998
 20
183.086166
 30
0.0
 11
321.8816529999998
 21
183.086166
 31
0.0
  0
LINE
  5
4C77
330
A
100
AcDbEntity
  8
0
  6
Continuous
 62
     7
 48
0.2
100
AcDbLine
 10
321.8816529999998
 20
191.0861659999999
 30
0.0
 11
321.8816529999998
 21
183.086166
 31
0.0
  0
LINE
  5
4C79
330
A
100
AcDbEntity
  8
0
  6
Continuous
 62
     7
 48
0.2875
100
AcDbLine
 10
321.8816529999998
 20
191.0861659999999
 30
0.0
 11
309.3816529999998
 21
191.0861659999999
 31
0.0
  0
LINE
  5
4C7A
330
A
100
AcDbEntity
  8
0
  6
Continuous
 62
     7
 48
0.025
100
AcDbLine
 10
309.3816529999998
 20
192.0861659999999
 30
0.0
 11
309.3816529999998
 21
191.0861659999999
 31
0.0
  0
LINE
  5
4C7C
330
A
100
AcDbEntity
  8
0
  6
Continuous
 62
     7
 48
0.2875
100
AcDbLine
 10
309.3816529999998
 20
192.0861659999999
 30
0.0
 11
321.8816529999998
 21
192.0861659999999
 31
0.0
  0
LINE
  5
4C7D
330
A
100
AcDbEntity
  8
0
  6
Continuous
 62
     7
 48
0.2
100
AcDbLine
 10
321.8816529999998
 20
200.0861659999999
 30
0.0
 11
321.8816529999998
 21
192.0861659999999
 31
0.0
  0
LINE
  5
4C7F
330
A
100
AcDbEntity
  8
0
  6
Continuous
 62
     7
 48
0.2875
100
AcDbLine
 10
321.8816529999998
 20
200.0861659999999
 30
0.0
 11
309.3816529999998
 21
200.0861659999999
 31
0.0
  0
LINE
  5
4C80
330
A
100
AcDbEntity
  8
0
  6
Continuous
 62
     7
 48
0.025
100
AcDbLine
 10
309.3816529999998
 20
201.0861659999999
 30
0.0
 11
309.3816529999998
 21
200.0861659999999
 31
0.0
  0
LINE
  5
4C82
330
A
100
AcDbEntity
  8
0
  6
Continuous
 62
     7
 48
0.2875
100
AcDbLine
 10
309.3816529999998
 20
201.0861659999999
 30
0.0
 11
321.8816529999998
 21
201.0861659999999
 31
0.0
  0
LINE
  5
4C83
330
A
100
AcDbEntity
  8
0
  6
Continuous
 62
     7
 48
0.2
100
AcDbLine
 10
321.8816529999998
 20
209.0861659999999
 30
0.0
 11
321.8816529999998
 21
201.0861659999999
 31
0.0
  0
LINE
  5
4C85
330
A
100
AcDbEntity
  8
0
  6
Continuous
 62
     7
 48
0.2375
100
AcDbLine
 10
321.8816529999998
 20
209.0861659999999
 30
0.0
 11
311.3816529999998
 21
209.0861659999999
 31
0.0
  0
LINE
  5
4C86
330
A
100
AcDbEntity
  8
0
  6
Continuous
 62
     7
 48
0.25
100
AcDbLine
 10
311.3816529999998
 20
219.086166
 30
0.0
 11
311.3816529999998
 21
209.0861659999999
 31
0.0
  0
LINE
  5
4C88
330
A
100
AcDbEntity
  8
0
  6
Continuous
 62
     7
 48
0.2375
100
AcDbLine
 10
311.3816529999998
 20
219.086166
 30
0.0
 11
321.8816529999998
 21
219.086166
 31
0.0
  0
LINE
  5
4C89
330
A
100
AcDbEntity
  8
0
  6
Continuous
 62
     7
 48
0.2
100
AcDbLine
 10
321.8816529999998
 20
227.086166
 30
0.0
 11
321.8816529999998
 21
219.086166
 31
0.0
  0
LINE
  5
4C8B
330
A
100
AcDbEntity
  8
0
  6
Continuous
 62
     7
 48
0.2875
100
AcDbLine
 10
321.8816529999998
 20
227.086166
 30
0.0
 11
309.3816529999998
 21
227.086166
 31
0.0
  0
LINE
  5
4C8C
330
A
100
AcDbEntity
  8
0
  6
Continuous
 62
     7
 48
0.025
100
AcDbLine
 10
309.3816529999998
 20
228.0861819999999
 30
0.0
 11
309.3816529999998
 21
227.086166
 31
0.0
  0
LINE
  5
4C8E
330
A
100
AcDbEntity
  8
0
  6
Continuous
 62
     7
 48
0.2875
100
AcDbLine
 10
309.3816529999998
 20
228.0861819999999
 30
0.0
 11
321.8816529999998
 21
228.0861819999999
 31
0.0
  0
LINE
  5
4C8F
330
A
100
AcDbEntity
  8
0
  6
Continuous
 62
     7
 48
0.2
100
AcDbLine
 10
321.8816529999998
 20
236.0861819999999
 30
0.0
 11
321.8816529999998
 21
228.0861819999999
 31
0.0
  0
LINE
  5
4C91
330
A
100
AcDbEntity
  8
0
  6
Continuous
 62
     7
 48
0.2875
100
AcDbLine
 10
321.8816529999998
 20
236.0861819999999
 30
0.0
 11
309.3816529999998
 21
236.0861819999999
 31
0.0
  0
LINE
  5
4C92
330
A
100
AcDbEntity
  8
0
  6
Continuous
 62
     7
 48
0.05
100
AcDbLine
 10
309.3816529999998
 20
238.0861819999999
 30
0.0
 11
309.3816529999998
 21
236.0861819999999
 31
0.0
  0
LINE
  5
4C94
330
A
100
AcDbEntity
  8
0
  6
Continuous
 62
     7
 48
0.3125
100
AcDbLine
 10
309.3816529999998
 20
238.0861819999999
 30
0.0
 11
322.8816529999998
 21
238.0861819999999
 31
0.0
  0
LINE
  5
4C97
330
A
100
AcDbEntity
  8
0
  6
Continuous
 62
     7
100
AcDbLine
 10
322.8816529999998
 20
238.0861819999999
 30
0.0
 11
322.8816529999998
 21
173.0861659999999
 31
0.0
  0
LINE
  5
4C9A
330
A
100
AcDbEntity
  8
0
  6
Continuous
 62
     7
 48
0.2
100
AcDbLine
 10
332.4816589999997
 20
238.0861819999999
 30
0.0
 11
332.4816589999997
 21
174.086166
 31
0.0
  0
LINE
  5
4CA9
330
A
100
AcDbEntity
  8
0
  6
Continuous
 62
     7
 48
0.205
100
AcDbLine
 10
332.4816589999997
 20
238.0861819999999
 30
0.0
 11
342.681641
 21
238.0861819999999
 31
0.0
  0
LINE
  5
4CAC
330
A
100
AcDbEntity
  8
0
  6
Continuous
 62
     7
100
AcDbLine
 10
366.581635
 20
154.086182
 30
0.0
 11
392.5816649999998
 21
154.086182
 31
0.0
  0
LINE
  5
4CAD
330
A
100
AcDbEntity
  8
0
  6
Continuous
 62
     7
 48
0.025
100
AcDbLine
 10
366.581635
 20
154.086182
 30
0.0
 11
366.581635
 21
238.0861819999999
 31
0.0
  0
LINE
  5
4CC2
330
A
100
AcDbEntity
  8
0
  6
Continuous
 62
     7
100
AcDbLine
 10
392.5816649999998
 20
238.0861819999998
 30
0.0
 11
366.581635
 21
238.0861819999999
 31
0.0
  0
LINE
  5
4CC4
330
A
100
AcDbEntity
  8
0
  6
Continuous
 62
     7
 48
0.05
100
AcDbLine
 10
392.5816649999998
 20
236.0861819999999
 30
0.0
 11
392.5816649999998
 21
238.0861819999999
 31
0.0
  0
LINE
  5
4CC6
330
A
100
AcDbEntity
  8
0
  6
Continuous
 62
     7
 48
0.287501
100
AcDbLine
 10
392.5816649999998
 20
236.0861819999999
 30
0.0
 11
380.081635
 21
236.0861819999999
 31
0.0
  0
LINE
  5
4CC7
330
A
100
AcDbEntity
  8
0
  6
Continuous
 62
     7
 48
0.2
100
AcDbLine
 10
380.081635
 20
236.0861819999999
 30
0.0
 11
380.081635
 21
228.0861819999999
 31
0.0
  0
LINE
  5
4CC9
330
A
100
AcDbEntity
  8
0
  6
Continuous
 62
     7
 48
0.287501
100
AcDbLine
 10
380.081635
 20
228.0861819999999
 30
0.0
 11
392.5816649999998
 21
228.0861819999999
 31
0.0
  0
LINE
  5
4CCA
330
A
100
AcDbEntity
  8
0
  6
Continuous
 62
     7
 48
0.025
100
AcDbLine
 10
392.5816649999998
 20
227.086166
 30
0.0
 11
392.5816649999998
 21
228.0861819999999
 31
0.0
  0
LINE
  5
4CCC
330
A
100
AcDbEntity
  8
0
  6
Continuous
 62
     7
 48
0.287501
100
AcDbLine
 10
392.5816649999998
 20
227.086166
 30
0.0
 11
380.081635
 21
227.086166
 31
0.0
  0
LINE
  5
4CCD
330
A
100
AcDbEntity
  8
0
  6
Continuous
 62
     7
 48
0.2
100
AcDbLine
 10
380.081635
 20
227.086166
 30
0.0
 11
380.081635
 21
219.086166
 31
0.0
  0
LINE
  5
4CCF
330
A
100
AcDbEntity
  8
0
  6
Continuous
 62
     7
 48
0.287501
100
AcDbLine
 10
380.081635
 20
219.086166
 30
0.0
 11
392.5816649999998
 21
219.086166
 31
0.0
  0
LINE
  5
4CD0
330
A
100
AcDbEntity
  8
0
  6
Continuous
 62
     7
 48
0.025
100
AcDbLine
 10
392.5816649999998
 20
218.086166
 30
0.0
 11
392.5816649999998
 21
219.086166
 31
0.0
  0
LINE
  5
4CD2
330
A
100
AcDbEntity
  8
0
  6
Continuous
 62
     7
 48
0.287501
100
AcDbLine
 10
392.5816649999998
 20
218.086166
 30
0.0
 11
380.081635
 21
218.086166
 31
0.0
  0
LINE
  5
4CD3
330
A
100
AcDbEntity
  8
0
  6
Continuous
 62
     7
 48
0.2
100
AcDbLine
 10
380.081635
 20
218.086166
 30
0.0
 11
380.081635
 21
210.086166
 31
0.0
  0
LINE
  5
4CD5
330
A
100
AcDbEntity
  8
0
  6
Continuous
 62
     7
 48
0.287501
100
AcDbLine
 10
380.081635
 20
210.086166
 30
0.0
 11
392.5816649999998
 21
210.086166
 31
0.0
  0
LINE
  5
4CD6
330
A
100
AcDbEntity
  8
0
  6
Continuous
 62
     7
 48
0.025
100
AcDbLine
 10
392.5816649999998
 20
209.0861659999999
 30
0.0
 11
392.5816649999998
 21
210.086166
 31
0.0
  0
LINE
  5
4CD8
330
A
100
AcDbEntity
  8
0
  6
Continuous
 62
     7
 48
0.287501
100
AcDbLine
 10
392.5816649999998
 20
209.0861659999999
 30
0.0
 11
380.081635
 21
209.0861659999999
 31
0.0
  0
LINE
  5
4CD9
330
A
100
AcDbEntity
  8
0
  6
Continuous
 62
     7
 48
0.2
100
AcDbLine
 10
380.081635
 20
209.0861659999999
 30
0.0
 11
380.081635
 21
201.0861659999999
 31
0.0
  0
LINE
  5
4CDB
330
A
100
AcDbEntity
  8
0
  6
Continuous
 62
     7
 48
0.287501
100
AcDbLine
 10
380.081635
 20
201.0861659999999
 30
0.0
 11
392.5816649999998
 21
201.0861659999999
 31
0.0
  0
LINE
  5
4CDC
330
A
100
AcDbEntity
  8
0
  6
Continuous
 62
     7
 48
0.025
100
AcDbLine
 10
392.5816649999998
 20
200.0861659999999
 30
0.0
 11
392.5816649999998
 21
201.0861659999999
 31
0.0
  0
LINE
  5
4CDE
330
A
100
AcDbEntity
  8
0
  6
Continuous
 62
     7
 48
0.287501
100
AcDbLine
 10
392.5816649999998
 20
200.0861659999999
 30
0.0
 11
380.081635
 21
200.0861659999999
 31
0.0
  0
LINE
  5
4CDF
330
A
100
AcDbEntity
  8
0
  6
Continuous
 62
     7
 48
0.2
100
AcDbLine
 10
380.081635
 20
200.0861659999999
 30
0.0
 11
380.081635
 21
192.0861659999999
 31
0.0
  0
LINE
  5
4CE1
330
A
100
AcDbEntity
  8
0
  6
Continuous
 62
     7
 48
0.287501
100
AcDbLine
 10
380.081635
 20
192.0861659999999
 30
0.0
 11
392.5816649999998
 21
192.0861659999999
 31
0.0
  0
LINE
  5
4CE2
330
A
100
AcDbEntity
  8
0
  6
Continuous
 62
     7
 48
0.025
100
AcDbLine
 10
392.5816649999998
 20
191.0861659999999
 30
0.0
 11
392.5816649999998
 21
192.0861659999999
 31
0.0
  0
LINE
  5
4CE4
330
A
100
AcDbEntity
  8
0
  6
Continuous
 62
     7
 48
0.287501
100
AcDbLine
 10
392.5816649999998
 20
191.0861659999999
 30
0.0
 11
380.081635
 21
191.0861659999999
 31
0.0
  0
LINE
  5
4CE5
330
A
100
AcDbEntity
  8
0
  6
Continuous
 62
     7
 48
0.2
100
AcDbLine
 10
380.081635
 20
191.0861659999999
 30
0.0
 11
380.081635
 21
183.086166
 31
0.0
  0
LINE
  5
4CE7
330
A
100
AcDbEntity
  8
0
  6
Continuous
 62
     7
 48
0.287501
100
AcDbLine
 10
380.081635
 20
183.086166
 30
0.0
 11
392.5816649999998
 21
183.086166
 31
0.0
  0
LINE
  5
4CE8
330
A
100
AcDbEntity
  8
0
  6
Continuous
 62
     7
 48
0.025
100
AcDbLine
 10
392.5816649999998
 20
182.086166
 30
0.0
 11
392.5816649999998
 21
183.086166
 31
0.0
  0
LINE
  5
4CEA
330
A
100
AcDbEntity
  8
0
  6
Continuous
 62
     7
 48
0.287501
100
AcDbLine
 10
392.5816649999998
 20
182.0861659999999
 30
0.0
 11
380.081635
 21
182.086166
 31
0.0
  0
LINE
  5
4CEB
330
A
100
AcDbEntity
  8
0
  6
Continuous
 62
     7
 48
0.2
100
AcDbLine
 10
380.081635
 20
182.086166
 30
0.0
 11
380.081635
 21
174.086166
 31
0.0
  0
LINE
  5
4CED
330
A
100
AcDbEntity
  8
0
  6
Continuous
 62
     7
 48
0.287501
100
AcDbLine
 10
380.081635
 20
174.086166
 30
0.0
 11
392.5816649999998
 21
174.086166
 31
0.0
  0
LINE
  5
4CEE
330
A
100
AcDbEntity
  8
0
  6
Continuous
 62
     7
 48
0.025
100
AcDbLine
 10
392.5816649999998
 20
173.0861659999999
 30
0.0
 11
392.5816649999998
 21
174.086166
 31
0.0
  0
LINE
  5
4CF0
330
A
100
AcDbEntity
  8
0
  6
Continuous
 62
     7
 48
0.287501
100
AcDbLine
 10
392.5816649999998
 20
173.0861659999999
 30
0.0
 11
380.081635
 21
173.0861659999999
 31
0.0
  0
LINE
  5
4CF1
330
A
100
AcDbEntity
  8
0
  6
Continuous
 62
     7
 48
0.2
100
AcDbLine
 10
380.081635
 20
173.0861659999999
 30
0.0
 11
380.081635
 21
165.0861659999999
 31
0.0
  0
LINE
  5
4CF3
330
A
100
AcDbEntity
  8
0
  6
Continuous
 62
     7
 48
0.287501
100
AcDbLine
 10
380.081635
 20
165.0861659999999
 30
0.0
 11
392.5816649999998
 21
165.0861659999999
 31
0.0
  0
LINE
  5
4CF4
330
A
100
AcDbEntity
  8
0
  6
Continuous
 62
     7
 48
0.025
100
AcDbLine
 10
392.5816649999998
 20
164.0861659999998
 30
0.0
 11
392.5816649999998
 21
165.0861659999999
 31
0.0
  0
LINE
  5
4CF6
330
A
100
AcDbEntity
  8
0
  6
Continuous
 62
     7
 48
0.287501
100
AcDbLine
 10
392.5816649999998
 20
164.0861659999998
 30
0.0
 11
380.081635
 21
164.0861659999998
 31
0.0
  0
LINE
  5
4CF7
330
A
100
AcDbEntity
  8
0
  6
Continuous
 62
     7
 48
0.2
100
AcDbLine
 10
380.081635
 20
164.0861659999998
 30
0.0
 11
380.081635
 21
156.086182
 31
0.0
  0
LINE
  5
4CF9
330
A
100
AcDbEntity
  8
0
  6
Continuous
 62
     7
 48
0.287501
100
AcDbLine
 10
392.5816649999998
 20
156.086182
 30
0.0
 11
380.081635
 21
156.086182
 31
0.0
  0
LINE
  5
4CFA
330
A
100
AcDbEntity
  8
0
  6
Continuous
 62
     7
 48
0.05
100
AcDbLine
 10
392.5816649999998
 20
154.086182
 30
0.0
 11
392.5816649999998
 21
156.086182
 31
0.0
  0
ARC
  5
4CFD
330
A
100
AcDbEntity
  8
0
  6
Continuous
 62
     7
100
AcDbCircle
 10
305.981659
 20
151.086182
 30
0.0
 40
3.0
100
AcDbArc
 50
180.000005
 51
270.000001
  0
ARC
  5
4CFF
330
A
100
AcDbEntity
  8
0
  6
Continuous
 62
     7
100
AcDbCircle
 10
305.981659
 20
241.086182
 30
0.0
 40
3.0
100
AcDbArc
 50
90.00000300000001
 51
180.000005
  0
LINE
  5
4D00
330
A
100
AcDbEntity
  8
0
  6
Continuous
 62
     7
100
AcDbLine
 10
305.981659
 20
244.0861819999999
 30
0.0
 11
395.9816594188787
 21
244.0861819999999
 31
0.0
  0
ARC
  5
4D02
330
A
100
AcDbEntity
  8
0
  6
Continuous
 62
     7
100
AcDbCircle
 10
395.9816589999998
 20
241.086182
 30
0.0
 40
3.0
100
AcDbArc
 50
0.00001
 51
89.99999200000003
  0
LINE
  5
4D03
330
A
100
AcDbEntity
  8
0
  6
Continuous
 62
     7
100
AcDbLine
 10
398.9816589999998
 20
151.086182
 30
0.0
 11
398.9816589999998
 21
241.086182
 31
0.0
  0
ARC
  5
4D04
330
A
100
AcDbEntity
  8
0
  6
Continuous
 62
     7
100
AcDbCircle
 10
395.9816589999998
 20
151.086182
 30
0.0
 40
3.0
100
AcDbArc
 50
270.000001
 51
0.00001
  0
ARC
  5
4D05
330
A
100
AcDbEntity
  8
0
  6
Continuous
 62
     7
100
AcDbCircle
 10
394.905945
 20
240.003723
 30
0.0
 40
0.995728
100
AcDbArc
 50
0.123346
 51
90.60437900000001
  0
ARC
  5
4D06
330
A
100
AcDbEntity
  8
0
  6
Continuous
 62
     7
100
AcDbCircle
 10
395.481689
 20
240.586227
 30
0.0
 40
0.999943
100
AcDbArc
 50
359.9990099999998
 51
90.00100000000001
  0
ARC
  5
4D07
330
A
100
AcDbEntity
  8
0
  6
Continuous
 62
     7
100
AcDbCircle
 10
395.481689
 20
151.5861209999999
 30
0.0
 40
0.999943
100
AcDbArc
 50
269.999007
 51
0.000996
  0
ARC
  5
4D08
330
A
100
AcDbEntity
  8
0
  6
Continuous
 62
     7
100
AcDbCircle
 10
306.481598
 20
240.586227
 30
0.0
 40
0.999943
100
AcDbArc
 50
89.999005
 51
180.000989
  0
ARC
  5
4D09
330
A
100
AcDbEntity
  8
0
  6
Continuous
 62
     7
100
AcDbCircle
 10
306.481598
 20
151.5861209999999
 30
0.0
 40
0.999943
100
AcDbArc
 50
179.999008
 51
270.0009839999998
  0
ARC
  5
4D0A
330
A
100
AcDbEntity
  8
0
  6
Continuous
 62
     7
100
AcDbCircle
 10
307.057343
 20
240.003723
 30
0.0
 40
0.995728
100
AcDbArc
 50
89.39562
 51
179.876652
  0
ARC
  5
4D0B
330
A
100
AcDbEntity
  8
0
  6
Continuous
 62
     7
100
AcDbCircle
 10
307.057343
 20
152.16861
 30
0.0
 40
0.995728
100
AcDbArc
 50
180.123348
 51
270.6043799999999
  0
ARC
  5
4D0C
330
A
100
AcDbEntity
  8
0
  6
Continuous
 62
     7
100
AcDbCircle
 10
394.905945
 20
152.16861
 30
0.0
 40
0.995728
100
AcDbArc
 50
269.395621
 51
359.8766529999998
  0
LINE
  5
4D0E
330
A
100
AcDbEntity
  8
0
  6
Continuous
 62
     7
 48
0.205
100
AcDbLine
 10
332.4816589999997
 20
237.086182
 30
0.0
 11
342.681641
 21
237.086182
 31
0.0
  0
LINE
  5
4D10
330
A
100
AcDbEntity
  8
0
  6
Continuous
 62
     7
 48
0.255
100
AcDbLine
 10
342.681641
 20
236.0861819999999
 30
0.0
 11
332.4816589999997
 21
236.0861819999999
 31
0.0
  0
CIRCLE
  5
4D11
330
A
100
AcDbEntity
  8
0
  6
Continuous
 62
     7
100
AcDbCircle
 10
337.581635
 20
232.0861819999999
 30
0.0
 40
3.0
  0
LINE
  5
4D14
330
A
100
AcDbEntity
  8
0
  6
Continuous
 62
     7
 48
0.205
100
AcDbLine
 10
332.4816589999997
 20
228.0861819999999
 30
0.0
 11
342.681641
 21
228.0861819999999
 31
0.0
  0
LINE
  5
4D16
330
A
100
AcDbEntity
  8
0
  6
Continuous
 62
     7
 48
0.205
100
AcDbLine
 10
342.681641
 20
227.086166
 30
0.0
 11
332.4816589999997
 21
227.086166
 31
0.0
  0
CIRCLE
  5
4D18
330
A
100
AcDbEntity
  8
0
  6
Continuous
 62
     7
100
AcDbCircle
 10
337.581635
 20
223.086166
 30
0.0
 40
3.0
  0
LINE
  5
4D1A
330
A
100
AcDbEntity
  8
0
  6
Continuous
 62
     7
 48
0.205
100
AcDbLine
 10
332.4816589999997
 20
219.0861659999999
 30
0.0
 11
342.681641
 21
219.086166
 31
0.0
  0
LINE
  5
4D1E
330
A
100
AcDbEntity
  8
0
  6
Continuous
 62
     7
 48
0.205
100
AcDbLine
 10
342.681641
 20
218.086166
 30
0.0
 11
332.4816589999997
 21
218.086166
 31
0.0
  0
CIRCLE
  5
4D1F
330
A
100
AcDbEntity
  8
0
  6
Continuous
 62
     7
100
AcDbCircle
 10
337.581635
 20
214.086166
 30
0.0
 40
3.0
  0
LINE
  5
4D22
330
A
100
AcDbEntity
  8
0
  6
Continuous
 62
     7
 48
0.205
100
AcDbLine
 10
332.4816589999997
 20
210.086166
 30
0.0
 11
342.681641
 21
210.086166
 31
0.0
  0
LINE
  5
4D24
330
A
100
AcDbEntity
  8
0
  6
Continuous
 62
     7
 48
0.205
100
AcDbLine
 10
342.681641
 20
209.0861659999999
 30
0.0
 11
332.4816589999997
 21
209.0861659999998
 31
0.0
  0
CIRCLE
  5
4D26
330
A
100
AcDbEntity
  8
0
  6
Continuous
 62
     7
100
AcDbCircle
 10
337.581635
 20
205.0861659999999
 30
0.0
 40
3.0
  0
LINE
  5
4D28
330
A
100
AcDbEntity
  8
0
  6
Continuous
 62
     7
 48
0.205
100
AcDbLine
 10
332.4816589999997
 20
201.0861659999998
 30
0.0
 11
342.681641
 21
201.0861659999999
 31
0.0
  0
LINE
  5
4D2C
330
A
100
AcDbEntity
  8
0
  6
Continuous
 62
     7
 48
0.205
100
AcDbLine
 10
342.681641
 20
200.0861659999999
 30
0.0
 11
332.4816589999997
 21
200.0861659999999
 31
0.0
  0
CIRCLE
  5
4D2D
330
A
100
AcDbEntity
  8
0
  6
Continuous
 62
     7
100
AcDbCircle
 10
337.581635
 20
196.0861659999999
 30
0.0
 40
3.0
  0
LINE
  5
4D30
330
A
100
AcDbEntity
  8
0
  6
Continuous
 62
     7
 48
0.205
100
AcDbLine
 10
332.4816589999997
 20
192.0861659999999
 30
0.0
 11
342.6816409999998
 21
192.0861659999999
 31
0.0
  0
LINE
  5
4D32
330
A
100
AcDbEntity
  8
0
  6
Continuous
 62
     7
 48
0.205
100
AcDbLine
 10
342.6816409999998
 20
191.0861659999999
 30
0.0
 11
332.4816589999997
 21
191.0861659999999
 31
0.0
  0
CIRCLE
  5
4D34
330
A
100
AcDbEntity
  8
0
  6
Continuous
 62
     7
100
AcDbCircle
 10
337.581635
 20
187.0861659999999
 30
0.0
 40
3.0
  0
LINE
  5
4D37
330
A
100
AcDbEntity
  8
0
  6
Continuous
 62
     7
 48
0.205
100
AcDbLine
 10
332.4816589999997
 20
183.086166
 30
0.0
 11
342.681641
 21
183.086166
 31
0.0
  0
LINE
  5
4D39
330
A
100
AcDbEntity
  8
0
  6
Continuous
 62
     7
 48
0.205
100
AcDbLine
 10
342.681641
 20
182.086166
 30
0.0
 11
332.4816589999997
 21
182.086166
 31
0.0
  0
CIRCLE
  5
4D3B
330
A
100
AcDbEntity
  8
0
  6
Continuous
 62
     7
100
AcDbCircle
 10
337.581635
 20
178.086166
 30
0.0
 40
3.0
  0
CIRCLE
  5
4D3C
330
A
100
AcDbEntity
  8
0
  6
Continuous
 62
     7
100
AcDbCircle
 10
355.081635
 20
178.086166
 30
0.0
 40
3.0
  0
LINE
  5
4D3E
330
A
100
AcDbEntity
  8
0
  6
Continuous
 62
     7
 48
0.205
100
AcDbLine
 10
360.181641
 20
182.086166
 30
0.0
 11
349.981659
 21
182.086166
 31
0.0
  0
LINE
  5
4D42
330
A
100
AcDbEntity
  8
0
  6
Continuous
 62
     7
 48
0.205
100
AcDbLine
 10
349.981659
 20
183.086166
 30
0.0
 11
360.181641
 21
183.086166
 31
0.0
  0
CIRCLE
  5
4D43
330
A
100
AcDbEntity
  8
0
  6
Continuous
 62
     7
100
AcDbCircle
 10
355.081635
 20
187.0861659999999
 30
0.0
 40
3.0
  0
LINE
  5
4D46
330
A
100
AcDbEntity
  8
0
  6
Continuous
 62
     7
 48
0.205
100
AcDbLine
 10
360.181641
 20
191.0861659999999
 30
0.0
 11
349.981659
 21
191.0861659999999
 31
0.0
  0
LINE
  5
4D48
330
A
100
AcDbEntity
  8
0
  6
Continuous
 62
     7
 48
0.205
100
AcDbLine
 10
349.981659
 20
192.0861659999999
 30
0.0
 11
360.181641
 21
192.0861659999999
 31
0.0
  0
CIRCLE
  5
4D4A
330
A
100
AcDbEntity
  8
0
  6
Continuous
 62
     7
100
AcDbCircle
 10
355.081635
 20
196.0861659999999
 30
0.0
 40
3.0
  0
LINE
  5
4D4C
330
A
100
AcDbEntity
  8
0
  6
Continuous
 62
     7
 48
0.205
100
AcDbLine
 10
360.181641
 20
200.0861659999999
 30
0.0
 11
349.981659
 21
200.0861659999999
 31
0.0
  0
LINE
  5
4D50
330
A
100
AcDbEntity
  8
0
  6
Continuous
 62
     7
 48
0.205
100
AcDbLine
 10
349.981659
 20
201.0861659999999
 30
0.0
 11
360.181641
 21
201.0861659999998
 31
0.0
  0
CIRCLE
  5
4D51
330
A
100
AcDbEntity
  8
0
  6
Continuous
 62
     7
100
AcDbCircle
 10
355.081635
 20
205.0861659999999
 30
0.0
 40
3.0
  0
LINE
  5
4D54
330
A
100
AcDbEntity
  8
0
  6
Continuous
 62
     7
 48
0.205
100
AcDbLine
 10
360.181641
 20
209.0861659999999
 30
0.0
 11
349.981659
 21
209.0861659999999
 31
0.0
  0
LINE
  5
4D56
330
A
100
AcDbEntity
  8
0
  6
Continuous
 62
     7
 48
0.205
100
AcDbLine
 10
349.981659
 20
210.086166
 30
0.0
 11
360.181641
 21
210.086166
 31
0.0
  0
CIRCLE
  5
4D58
330
A
100
AcDbEntity
  8
0
  6
Continuous
 62
     7
100
AcDbCircle
 10
355.081635
 20
214.086166
 30
0.0
 40
3.0
  0
LINE
  5
4D5A
330
A
100
AcDbEntity
  8
0
  6
Continuous
 62
     7
 48
0.205
100
AcDbLine
 10
360.181641
 20
218.086166
 30
0.0
 11
349.981659
 21
218.086166
 31
0.0
  0
LINE
  5
4D5E
330
A
100
AcDbEntity
  8
0
  6
Continuous
 62
     7
 48
0.205
100
AcDbLine
 10
349.981659
 20
219.086166
 30
0.0
 11
360.181641
 21
219.086166
 31
0.0
  0
CIRCLE
  5
4D5F
330
A
100
AcDbEntity
  8
0
  6
Continuous
 62
     7
100
AcDbCircle
 10
355.081635
 20
223.086166
 30
0.0
 40
3.0
  0
LINE
  5
4D61
330
A
100
AcDbEntity
  8
0
  6
Continuous
 62
     7
 48
0.205
100
AcDbLine
 10
360.181641
 20
227.086166
 30
0.0
 11
349.981659
 21
227.086166
 31
0.0
  0
LINE
  5
4D65
330
A
100
AcDbEntity
  8
0
  6
Continuous
 62
     7
 48
0.205
100
AcDbLine
 10
349.981659
 20
228.0861819999999
 30
0.0
 11
360.181641
 21
228.0861819999999
 31
0.0
  0
CIRCLE
  5
4D66
330
A
100
AcDbEntity
  8
0
  6
Continuous
 62
     7
100
AcDbCircle
 10
355.081635
 20
232.0861819999999
 30
0.0
 40
3.0
  0
LINE
  5
4D67
330
A
100
AcDbEntity
  8
0
  6
Continuous
 62
     7
 48
0.255
100
AcDbLine
 10
360.181641
 20
236.0861819999999
 30
0.0
 11
349.981659
 21
236.0861819999999
 31
0.0
  0
LINE
  5
4D69
330
A
100
AcDbEntity
  8
0
  6
Continuous
 62
     7
 48
0.205
100
AcDbLine
 10
349.981659
 20
237.086182
 30
0.0
 11
360.181641
 21
237.086182
 31
0.0
  0
LINE
  5
4D6B
330
A
100
AcDbEntity
  8
0
  6
Continuous
 62
     7
100
AcDbLine
 10
360.181641
 20
173.0861659999999
 30
0.0
 11
322.8816529999998
 21
173.0861659999999
 31
0.0
  0
LINE
  5
4D6C
330
A
100
AcDbEntity
  8
0
  6
Continuous
 62
     7
 48
0.2875
100
AcDbLine
 10
379.081635
 20
156.086182
 30
0.0
 11
366.581635
 21
156.086182
 31
0.0
  0
LINE
  5
4D6D
330
A
100
AcDbEntity
  8
0
  6
Continuous
 62
     7
 48
0.2
100
AcDbLine
 10
379.081635
 20
156.086182
 30
0.0
 11
379.081635
 21
164.0861659999998
 31
0.0
  0
LINE
  5
4D6E
330
A
100
AcDbEntity
  8
0
  6
Continuous
 62
     7
 48
0.2875
100
AcDbLine
 10
379.081635
 20
164.0861659999998
 30
0.0
 11
366.581635
 21
164.0861659999998
 31
0.0
  0
LINE
  5
4D6F
330
A
100
AcDbEntity
  8
0
  6
Continuous
 62
     7
 48
0.2875
100
AcDbLine
 10
366.581635
 20
165.0861659999999
 30
0.0
 11
379.081635
 21
165.0861659999999
 31
0.0
  0
LINE
  5
4D72
330
A
100
AcDbEntity
  8
0
  6
Continuous
 62
     7
 48
0.2
100
AcDbLine
 10
379.081635
 20
165.0861659999999
 30
0.0
 11
379.081635
 21
238.0861819999998
 31
0.0
  0
LINE
  5
4D80
330
A
100
AcDbEntity
  8
0
  6
Continuous
 62
     7
 48
0.2875
100
AcDbLine
 10
366.581635
 20
237.086182
 30
0.0
 11
379.081635
 21
237.086182
 31
0.0
  0
LINE
  5
4D83
330
A
100
AcDbEntity
  8
0
  6
Continuous
 62
     7
 48
0.3125
100
AcDbLine
 10
379.081635
 20
236.0861819999999
 30
0.0
 11
366.581635
 21
236.0861819999999
 31
0.0
  0
CIRCLE
  5
4D84
330
A
100
AcDbEntity
  8
0
  6
Continuous
 62
     7
100
AcDbCircle
 10
372.581635
 20
232.0861819999999
 30
0.0
 40
3.0
  0
LINE
  5
4D86
330
A
100
AcDbEntity
  8
0
  6
Continuous
 62
     7
 48
0.2875
100
AcDbLine
 10
379.081635
 20
228.0861819999999
 30
0.0
 11
366.581635
 21
228.0861819999999
 31
0.0
  0
LINE
  5
4D88
330
A
100
AcDbEntity
  8
0
  6
Continuous
 62
     7
 48
0.2875
100
AcDbLine
 10
379.081635
 20
227.086166
 30
0.0
 11
366.581635
 21
227.086166
 31
0.0
  0
CIRCLE
  5
4D89
330
A
100
AcDbEntity
  8
0
  6
Continuous
 62
     7
100
AcDbCircle
 10
372.581635
 20
223.086166
 30
0.0
 40
3.0
  0
LINE
  5
4D8B
330
A
100
AcDbEntity
  8
0
  6
Continuous
 62
     7
 48
0.2875
100
AcDbLine
 10
379.081635
 20
219.086166
 30
0.0
 11
366.581635
 21
219.086166
 31
0.0
  0
LINE
  5
4D8D
330
A
100
AcDbEntity
  8
0
  6
Continuous
 62
     7
 48
0.2875
100
AcDbLine
 10
379.081635
 20
218.086166
 30
0.0
 11
366.581635
 21
218.086166
 31
0.0
  0
CIRCLE
  5
4D8E
330
A
100
AcDbEntity
  8
0
  6
Continuous
 62
     7
100
AcDbCircle
 10
372.581635
 20
214.086166
 30
0.0
 40
3.0
  0
LINE
  5
4D90
330
A
100
AcDbEntity
  8
0
  6
Continuous
 62
     7
 48
0.2875
100
AcDbLine
 10
379.081635
 20
210.086166
 30
0.0
 11
366.581635
 21
210.086166
 31
0.0
  0
LINE
  5
4D92
330
A
100
AcDbEntity
  8
0
  6
Continuous
 62
     7
 48
0.2875
100
AcDbLine
 10
379.081635
 20
209.0861659999999
 30
0.0
 11
366.581635
 21
209.0861659999999
 31
0.0
  0
CIRCLE
  5
4D93
330
A
100
AcDbEntity
  8
0
  6
Continuous
 62
     7
100
AcDbCircle
 10
372.581635
 20
205.0861659999999
 30
0.0
 40
3.0
  0
LINE
  5
4D95
330
A
100
AcDbEntity
  8
0
  6
Continuous
 62
     7
 48
0.2875
100
AcDbLine
 10
379.081635
 20
201.0861659999999
 30
0.0
 11
366.581635
 21
201.0861659999999
 31
0.0
  0
LINE
  5
4D97
330
A
100
AcDbEntity
  8
0
  6
Continuous
 62
     7
 48
0.2875
100
AcDbLine
 10
379.081635
 20
200.0861659999999
 30
0.0
 11
366.581635
 21
200.0861659999999
 31
0.0
  0
CIRCLE
  5
4D98
330
A
100
AcDbEntity
  8
0
  6
Continuous
 62
     7
100
AcDbCircle
 10
372.581635
 20
196.0861659999999
 30
0.0
 40
3.0
  0
LINE
  5
4D9A
330
A
100
AcDbEntity
  8
0
  6
Continuous
 62
     7
 48
0.2875
100
AcDbLine
 10
379.081635
 20
192.0861659999999
 30
0.0
 11
366.581635
 21
192.0861659999999
 31
0.0
  0
LINE
  5
4D9C
330
A
100
AcDbEntity
  8
0
  6
Continuous
 62
     7
 48
0.2875
100
AcDbLine
 10
379.081635
 20
191.0861659999999
 30
0.0
 11
366.581635
 21
191.0861659999999
 31
0.0
  0
CIRCLE
  5
4D9D
330
A
100
AcDbEntity
  8
0
  6
Continuous
 62
     7
100
AcDbCircle
 10
372.581635
 20
187.0861659999999
 30
0.0
 40
3.0
  0
LINE
  5
4D9F
330
A
100
AcDbEntity
  8
0
  6
Continuous
 62
     7
 48
0.2875
100
AcDbLine
 10
379.081635
 20
183.086166
 30
0.0
 11
366.581635
 21
183.086166
 31
0.0
  0
LINE
  5
4DA1
330
A
100
AcDbEntity
  8
0
  6
Continuous
 62
     7
 48
0.2875
100
AcDbLine
 10
379.081635
 20
182.086166
 30
0.0
 11
366.581635
 21
182.086166
 31
0.0
  0
CIRCLE
  5
4DA2
330
A
100
AcDbEntity
  8
0
  6
Continuous
 62
     7
100
AcDbCircle
 10
372.581635
 20
178.086166
 30
0.0
 40
3.0
  0
LINE
  5
4DA4
330
A
100
AcDbEntity
  8
0
  6
Continuous
 62
     7
 48
0.2875
100
AcDbLine
 10
379.081635
 20
174.086166
 30
0.0
 11
366.581635
 21
174.086166
 31
0.0
  0
LINE
  5
4DA6
330
A
100
AcDbEntity
  8
0
  6
Continuous
 62
     7
 48
0.2875
100
AcDbLine
 10
379.081635
 20
173.0861659999999
 30
0.0
 11
366.581635
 21
173.0861659999999
 31
0.0
  0
CIRCLE
  5
4DA7
330
A
100
AcDbEntity
  8
0
  6
Continuous
 62
     7
100
AcDbCircle
 10
372.581635
 20
169.0861659999999
 30
0.0
 40
3.0
  0
CIRCLE
  5
4DAA
330
A
100
AcDbEntity
  8
0
  6
Continuous
 62
     7
100
AcDbCircle
 10
372.581635
 20
160.086182
 30
0.0
 40
3.0
  0
LINE
  5
4DDB
330
A
100
AcDbEntity
  8
0
  6
Continuous
 62
     7
100
AcDbLine
 10
305.981659
 20
148.086182
 30
0.0
 11
395.9816590523597
 21
148.086182
 31
0.0
  0
LINE
  5
4DDD
330
A
100
AcDbEntity
  8
0
  6
Continuous
 62
     7
100
AcDbLine
 10
302.9816589999998
 20
151.086182
 30
0.0
 11
302.9816589999998
 21
241.0861817382004
 31
0.0
  0
ARC
  5
4DE0
330
A
100
AcDbEntity
  8
0
  6
Continuous
 62
     7
100
AcDbCircle
 10
395.9816589999998
 20
151.086182
 30
0.0
 40
3.0
100
AcDbArc
 50
270.000001
 51
0.00001
  0
LINE
  5
613C
330
A
100
AcDbEntity
  8
0
  6
DASHED
 62
     4
100
AcDbLine
 10
260.4653629999999
 20
240.087311
 30
0.0
 11
260.4653629999999
 21
238.087311
 31
0.0
  0
LINE
  5
613D
330
A
100
AcDbEntity
  8
0
  6
DASHED
 62
     4
100
AcDbLine
 10
260.4653629999999
 20
154.086182
 30
0.0
 11
260.4653629999999
 21
152.087311
 31
0.0
  0
VIEWPORT
  5
60EC
330
B
100
AcDbEntity
 67
     1
  8
0
 62
     0
100
AcDbViewport
 10
0.0
 20
0.0
 30
0.0
 40
1000.0
 41
1000.0
 68
     1
 69
     1
 12
0.0
 22
0.0
 13
0.0
 23
0.0
 14
1.0
 24
1.0
 15
1.0
 25
1.0
 16
0.0
 26
0.0
 36
1.0
 17
0.0
 27
0.0
 37
0.0
 42
50.0
 43
0.0
 44
0.0
 45
1000.0
 50
0.0
 51
0.0
 72
   100
 90
    32800
  1

281
     0
 71
     1
 74
     0
110
0.0
120
0.0
130
0.0
111
1.0
121
0.0
131
0.0
112
0.0
122
1.0
132
0.0
 79
     0
146
0.0
  0
ENDSEC
  0
SECTION
  2
OBJECTS
  0
DICTIONARY
  5
19
330
0
100
AcDbDictionary
281
     1
  3
ACAD_GROUP
350
1A
  3
ACAD_LAYOUT
350
60F3
  3
ACAD_MLINESTYLE
350
1B
  3
ACAD_PLOTSETTINGS
350
60F4
  3
ACAD_PLOTSTYLENAME
350
60F1
  0
DICTIONARY
  5
1A
102
{ACAD_REACTORS
330
19
102
}
330
19
100
AcDbDictionary
281
     1
  0
DICTIONARY
  5
60F3
102
{ACAD_REACTORS
330
19
102
}
330
19
100
AcDbDictionary
281
     1
  3
Model
350
60F5
  3
ﾚｲｱｳﾄ1
350
60F6
  0
DICTIONARY
  5
1B
102
{ACAD_REACTORS
330
19
102
}
330
19
100
AcDbDictionary
281
     1
  3
STANDARD
350
1C
  0
DICTIONARY
  5
60F4
102
{ACAD_REACTORS
330
19
102
}
330
19
100
AcDbDictionary
281
     1
  0
ACDBDICTIONARYWDFLT
  5
60F1
102
{ACAD_REACTORS
330
19
102
}
330
19
100
AcDbDictionary
281
     1
  3
Normal
350
60F2
100
AcDbDictionaryWithDefault
340
60F2
  0
LAYOUT
  5
60F5
102
{ACAD_REACTORS
330
60F3
102
}
330
60F3
100
AcDbPlotSettings
  1

  2
Canon iR-ADV C5030/5035 LIPSLX
  4

  6

 40
0.0
 41
0.0
 42
0.0
 43
0.0
 44
0.0
 45
0.0
 46
0.0
 47
0.0
 48
0.0
 49
0.0
140
0.0
141
0.0
142
1.0
143
1.0
 70
  1712
 72
     0
 73
     0
 74
     0
  7

 75
     0
147
1.0
148
0.0
149
0.0
100
AcDbLayout
  1
Model
 70
     1
 71
     0
 10
0.0
 20
0.0
 11
12.0
 21
9.0
 12
0.0
 22
0.0
 32
0.0
 14
0.0
 24
0.0
 34
0.0
 15
0.0
 25
0.0
 35
0.0
146
0.0
 13
0.0
 23
0.0
 33
0.0
 16
1.0
 26
0.0
 36
0.0
 17
0.0
 27
1.0
 37
0.0
 76
     0
330
A
  0
LAYOUT
  5
60F6
102
{ACAD_REACTORS
330
60F3
102
}
330
60F3
100
AcDbPlotSettings
  1

  2
Canon iR-ADV C5030/5035 LIPSLX
  4

  6

 40
0.0
 41
0.0
 42
0.0
 43
0.0
 44
0.0
 45
0.0
 46
0.0
 47
0.0
 48
0.0
 49
0.0
140
0.0
141
0.0
142
1.0
143
1.0
 70
   688
 72
     0
 73
     0
 74
     5
  7

 75
    16
147
1.0
148
0.0
149
0.0
100
AcDbLayout
  1
ﾚｲｱｳﾄ1
 70
     1
 71
     1
 10
0.0
 20
0.0
 11
420.0
 21
297.0
 12
0.0
 22
0.0
 32
0.0
 14
0.0
 24
0.0
 34
0.0
 15
401.4999999999998
 25
275.0
 35
2.0
146
0.0
 13
0.0
 23
0.0
 33
0.0
 16
1.0
 26
0.0
 36
0.0
 17
0.0
 27
1.0
 37
0.0
 76
     0
330
B
331
60EC
  0
MLINESTYLE
  5
1C
102
{ACAD_REACTORS
330
1B
102
}
330
1B
100
AcDbMlineStyle
  2
STANDARD
 70
     0
  3

 62
     0
 51
90.0
 52
90.0
 71
     2
 49
0.5
 62
   256
  6
BYLAYER
 49
-0.5
 62
   256
  6
BYLAYER
  0
ACDBPLACEHOLDER
  5
60F2
102
{ACAD_REACTORS
330
60F1
102
}
330
60F1
  0
ENDSEC
  0
EOF
