  0
SECTION
  2
HEADER
  9
$ACADVER
  1
AC1015
  9
$ACADMAINTVER
 70
    10
  9
$DWGCODEPAGE
  3
ANSI_932
  9
$INSBASE
 10
0.0
 20
0.0
 30
0.0
  9
$EXTMIN
 10
178.863007948311
 20
103.6675189675021
 30
0.0
  9
$EXTMAX
 10
467.9813857483112
 20
200.7858967675021
 30
0.0
  9
$LIMMIN
 10
0.0
 20
0.0
  9
$LIMMAX
 10
420.0
 20
297.0
  9
$ORTHOMODE
 70
     0
  9
$REGENMODE
 70
     1
  9
$FILLMODE
 70
     1
  9
$QTEXTMODE
 70
     0
  9
$MIRRTEXT
 70
     1
  9
$LTSCALE
 40
1.0
  9
$ATTMODE
 70
     1
  9
$TEXTSIZE
 40
2.5
  9
$TRACEWID
 40
1.0
  9
$TEXTSTYLE
  7
Standard
  9
$CLAYER
  8
0
  9
$CELTYPE
  6
Continuous
  9
$CECOLOR
 62
     7
  9
$CELTSCALE
 40
1.0
  9
$DISPSILH
 70
     0
  9
$DIMSCALE
 40
1.0
  9
$DIMASZ
 40
2.5
  9
$DIMEXO
 40
0.625
  9
$DIMDLI
 40
3.75
  9
$DIMRND
 40
0.0
  9
$DIMDLE
 40
0.0
  9
$DIMEXE
 40
1.25
  9
$DIMTP
 40
0.0
  9
$DIMTM
 40
0.0
  9
$DIMTXT
 40
2.5
  9
$DIMCEN
 40
2.5
  9
$DIMTSZ
 40
0.0
  9
$DIMTOL
 70
     0
  9
$DIMLIM
 70
     0
  9
$DIMTIH
 70
     0
  9
$DIMTOH
 70
     0
  9
$DIMSE1
 70
     0
  9
$DIMSE2
 70
     0
  9
$DIMTAD
 70
     1
  9
$DIMZIN
 70
     8
  9
$DIMBLK
  1

  9
$DIMASO
 70
     1
  9
$DIMSHO
 70
     1
  9
$DIMPOST
  1

  9
$DIMAPOST
  1

  9
$DIMALT
 70
     0
  9
$DIMALTD
 70
     3
  9
$DIMALTF
 40
0.03937007874016
  9
$DIMLFAC
 40
1.0
  9
$DIMTOFL
 70
     1
  9
$DIMTVP
 40
0.0
  9
$DIMTIX
 70
     0
  9
$DIMSOXD
 70
     0
  9
$DIMSAH
 70
     0
  9
$DIMBLK1
  1

  9
$DIMBLK2
  1

  9
$DIMSTYLE
  2
ISO-25
  9
$DIMCLRD
 70
     0
  9
$DIMCLRE
 70
     0
  9
$DIMCLRT
 70
     0
  9
$DIMTFAC
 40
1.0
  9
$DIMGAP
 40
0.625
  9
$DIMJUST
 70
     0
  9
$DIMSD1
 70
     0
  9
$DIMSD2
 70
     0
  9
$DIMTOLJ
 70
     0
  9
$DIMTZIN
 70
     8
  9
$DIMALTZ
 70
     0
  9
$DIMALTTZ
 70
     0
  9
$DIMUPT
 70
     0
  9
$DIMDEC
 70
     2
  9
$DIMTDEC
 70
     2
  9
$DIMALTU
 70
     2
  9
$DIMALTTD
 70
     3
  9
$DIMTXSTY
  7
Standard
  9
$DIMAUNIT
 70
     0
  9
$DIMADEC
 70
     0
  9
$DIMALTRND
 40
0.0
  9
$DIMAZIN
 70
     0
  9
$DIMDSEP
 70
    46
  9
$DIMATFIT
 70
     3
  9
$DIMFRAC
 70
     0
  9
$DIMLDRBLK
  1

  9
$DIMLUNIT
 70
     2
  9
$DIMLWD
 70
    -2
  9
$DIMLWE
 70
    -2
  9
$DIMTMOVE
 70
     0
  9
$LUNITS
 70
     2
  9
$LUPREC
 70
     4
  9
$SKETCHINC
 40
1.0
  9
$FILLETRAD
 40
10.0
  9
$AUNITS
 70
     0
  9
$AUPREC
 70
     0
  9
$MENU
  1
.
  9
$ELEVATION
 40
0.0
  9
$PELEVATION
 40
0.0
  9
$THICKNESS
 40
0.0
  9
$LIMCHECK
 70
     0
  9
$CHAMFERA
 40
10.0
  9
$CHAMFERB
 40
10.0
  9
$CHAMFERC
 40
20.0
  9
$CHAMFERD
 40
0.0
  9
$SKPOLY
 70
     0
  9
$TDCREATE
 40
2456478.795765833
  9
$TDUCREATE
 40
2456478.420765833
  9
$TDUPDATE
 40
2456486.395076516
  9
$TDUUPDATE
 40
2456486.020076516
  9
$TDINDWG
 40
0.0082981134
  9
$TDUSRTIMER
 40
0.0082977546
  9
$USRTIMER
 70
     1
  9
$ANGBASE
 50
0.0
  9
$ANGDIR
 70
     0
  9
$PDMODE
 70
     0
  9
$PDSIZE
 40
0.0
  9
$PLINEWID
 40
0.0
  9
$SPLFRAME
 70
     0
  9
$SPLINETYPE
 70
     6
  9
$SPLINESEGS
 70
     8
  9
$HANDSEED
  5
569
  9
$SURFTAB1
 70
     6
  9
$SURFTAB2
 70
     6
  9
$SURFTYPE
 70
     6
  9
$SURFU
 70
     6
  9
$SURFV
 70
     6
  9
$UCSBASE
  2

  9
$UCSNAME
  2

  9
$UCSORG
 10
0.0
 20
0.0
 30
0.0
  9
$UCSXDIR
 10
1.0
 20
0.0
 30
0.0
  9
$UCSYDIR
 10
0.0
 20
1.0
 30
0.0
  9
$UCSORTHOREF
  2

  9
$UCSORTHOVIEW
 70
     0
  9
$UCSORGTOP
 10
0.0
 20
0.0
 30
0.0
  9
$UCSORGBOTTOM
 10
0.0
 20
0.0
 30
0.0
  9
$UCSORGLEFT
 10
0.0
 20
0.0
 30
0.0
  9
$UCSORGRIGHT
 10
0.0
 20
0.0
 30
0.0
  9
$UCSORGFRONT
 10
0.0
 20
0.0
 30
0.0
  9
$UCSORGBACK
 10
0.0
 20
0.0
 30
0.0
  9
$PUCSBASE
  2

  9
$PUCSNAME
  2

  9
$PUCSORG
 10
0.0
 20
0.0
 30
0.0
  9
$PUCSXDIR
 10
1.0
 20
0.0
 30
0.0
  9
$PUCSYDIR
 10
0.0
 20
1.0
 30
0.0
  9
$PUCSORTHOREF
  2

  9
$PUCSORTHOVIEW
 70
     0
  9
$PUCSORGTOP
 10
0.0
 20
0.0
 30
0.0
  9
$PUCSORGBOTTOM
 10
0.0
 20
0.0
 30
0.0
  9
$PUCSORGLEFT
 10
0.0
 20
0.0
 30
0.0
  9
$PUCSORGRIGHT
 10
0.0
 20
0.0
 30
0.0
  9
$PUCSORGFRONT
 10
0.0
 20
0.0
 30
0.0
  9
$PUCSORGBACK
 10
0.0
 20
0.0
 30
0.0
  9
$USERI1
 70
     0
  9
$USERI2
 70
     0
  9
$USERI3
 70
     0
  9
$USERI4
 70
     0
  9
$USERI5
 70
     0
  9
$USERR1
 40
0.0
  9
$USERR2
 40
0.0
  9
$USERR3
 40
0.0
  9
$USERR4
 40
0.0
  9
$USERR5
 40
0.0
  9
$WORLDVIEW
 70
     1
  9
$SHADEDGE
 70
     3
  9
$SHADEDIF
 70
    70
  9
$TILEMODE
 70
     1
  9
$MAXACTVP
 70
    64
  9
$PINSBASE
 10
0.0
 20
0.0
 30
0.0
  9
$PLIMCHECK
 70
     0
  9
$PEXTMIN
 10
0.0
 20
0.0
 30
0.0
  9
$PEXTMAX
 10
0.0
 20
0.0
 30
0.0
  9
$PLIMMIN
 10
0.0
 20
0.0
  9
$PLIMMAX
 10
12.0
 20
9.0
  9
$UNITMODE
 70
     0
  9
$VISRETAIN
 70
     1
  9
$PLINEGEN
 70
     0
  9
$PSLTSCALE
 70
     1
  9
$TREEDEPTH
 70
  3020
  9
$CMLSTYLE
  2
Standard
  9
$CMLJUST
 70
     0
  9
$CMLSCALE
 40
20.0
  9
$PROXYGRAPHICS
 70
     1
  9
$MEASUREMENT
 70
     1
  9
$CELWEIGHT
370
    -1
  9
$ENDCAPS
280
     0
  9
$JOINSTYLE
280
     0
  9
$LWDISPLAY
290
     0
  9
$INSUNITS
 70
     4
  9
$HYPERLINKBASE
  1

  9
$STYLESHEET
  1

  9
$XEDIT
290
     1
  9
$CEPSNTYPE
380
     0
  9
$PSTYLEMODE
290
     1
  9
$FINGERPRINTGUID
  2
{8F96121B-A1FB-4EE5-906F-EBC398CEBEB1}
  9
$VERSIONGUID
  2
{DB8E9B2F-6771-47DA-AEE3-C30FC7763E38}
  9
$EXTNAMES
290
     1
  9
$PSVPSCALE
 40
0.0
  9
$OLESTARTUP
290
     0
  0
ENDSEC
  0
SECTION
  2
CLASSES
  0
CLASS
  1
ACDBDICTIONARYWDFLT
  2
AcDbDictionaryWithDefault
  3
AutoCAD 2000
 90
        0
280
     0
281
     0
  0
CLASS
  1
ACDBPLACEHOLDER
  2
AcDbPlaceHolder
  3
AutoCAD 2000
 90
        0
280
     0
281
     0
  0
CLASS
  1
LAYOUT
  2
AcDbLayout
  3
AutoCAD 2000
 90
        0
280
     0
281
     0
  0
ENDSEC
  0
SECTION
  2
TABLES
  0
TABLE
  2
VPORT
  5
8
330
0
100
AcDbSymbolTable
 70
     2
  0
VPORT
  5
568
330
8
100
AcDbSymbolTableRecord
100
AcDbViewportTableRecord
  2
*Active
 70
     0
 10
0.0
 20
0.0
 11
1.0
 21
1.0
 12
327.3050553419365
 22
157.2275731880382
 13
0.0
 23
0.0
 14
10.0
 24
10.0
 15
10.0
 25
10.0
 16
0.0
 26
0.0
 36
1.0
 17
0.0
 27
0.0
 37
0.0
 40
216.0810757843866
 41
1.781954887218044
 42
50.0
 43
0.0
 44
0.0
 50
0.0
 51
0.0
 71
     0
 72
   100
 73
     1
 74
     3
 75
     0
 76
     0
 77
     0
 78
     0
281
     0
 65
     1
110
0.0
120
0.0
130
0.0
111
1.0
121
0.0
131
0.0
112
0.0
122
1.0
132
0.0
 79
     0
146
0.0
  0
ENDTAB
  0
TABLE
  2
LTYPE
  5
5
330
0
100
AcDbSymbolTable
 70
     1
  0
LTYPE
  5
14
330
5
100
AcDbSymbolTableRecord
100
AcDbLinetypeTableRecord
  2
ByBlock
 70
     0
  3

 72
    65
 73
     0
 40
0.0
  0
LTYPE
  5
15
330
5
100
AcDbSymbolTableRecord
100
AcDbLinetypeTableRecord
  2
ByLayer
 70
     0
  3

 72
    65
 73
     0
 40
0.0
  0
LTYPE
  5
16
330
5
100
AcDbSymbolTableRecord
100
AcDbLinetypeTableRecord
  2
Continuous
 70
     0
  3
Solid line
 72
    65
 73
     0
 40
0.0
  0
ENDTAB
  0
TABLE
  2
LAYER
  5
2
330
0
100
AcDbSymbolTable
 70
     1
  0
LAYER
  5
10
330
2
100
AcDbSymbolTableRecord
100
AcDbLayerTableRecord
  2
0
 70
     0
 62
     7
  6
Continuous
370
    -3
390
F
  0
ENDTAB
  0
TABLE
  2
STYLE
  5
3
330
0
100
AcDbSymbolTable
 70
     2
  0
STYLE
  5
11
330
3
100
AcDbSymbolTableRecord
100
AcDbTextStyleTableRecord
  2
Standard
 70
     0
 40
0.0
 41
1.0
 50
0.0
 71
     0
 42
2.5
  3
txt
  4

  0
STYLE
  5
31
330
3
100
AcDbSymbolTableRecord
100
AcDbTextStyleTableRecord
  2
標準ﾃｷｽﾄ
 70
     0
 40
0.0
 41
1.0
 50
0.0
 71
     0
 42
2.75
  3
MS PGothic.ttf
  4

1001
ACAD
1000
ＭＳ Ｐゴシック
1071
    32802
  0
ENDTAB
  0
TABLE
  2
VIEW
  5
6
330
0
100
AcDbSymbolTable
 70
     0
  0
ENDTAB
  0
TABLE
  2
UCS
  5
7
330
0
100
AcDbSymbolTable
 70
     0
  0
ENDTAB
  0
TABLE
  2
APPID
  5
9
330
0
100
AcDbSymbolTable
 70
     2
  0
APPID
  5
12
330
9
100
AcDbSymbolTableRecord
100
AcDbRegAppTableRecord
  2
ACAD
 70
     0
  0
APPID
  5
33
330
9
100
AcDbSymbolTableRecord
100
AcDbRegAppTableRecord
  2
TCAD
 70
     0
  0
ENDTAB
  0
TABLE
  2
DIMSTYLE
  5
A
330
0
100
AcDbSymbolTable
 70
     2
100
AcDbDimStyleTable
 71
     1
340
27
  0
DIMSTYLE
105
27
330
A
100
AcDbSymbolTableRecord
100
AcDbDimStyleTableRecord
  2
ISO-25
 70
     0
 41
2.5
 42
0.625
 43
3.75
 44
1.25
 73
     0
 74
     0
 77
     1
 78
     8
140
2.5
141
2.5
143
0.03937007874016
147
0.625
171
     3
172
     1
271
     2
272
     2
274
     3
283
     0
284
     8
340
11
  0
DIMSTYLE
105
32
330
A
100
AcDbSymbolTableRecord
100
AcDbDimStyleTableRecord
  2
STANDARD
 70
     0
 41
3.0
 42
0.5
 43
7.5
 44
1.0
 45
0.01
 73
     0
 74
     0
 77
     1
 78
     8
140
2.75
143
1.0
147
0.5
148
0.0001
171
     4
172
     1
176
     7
177
     7
178
     7
274
     4
285
     8
340
31
341
2B
342
2B
  0
ENDTAB
  0
TABLE
  2
BLOCK_RECORD
  5
1
330
0
100
AcDbSymbolTable
 70
     1
  0
BLOCK_RECORD
  5
1F
330
1
100
AcDbSymbolTableRecord
100
AcDbBlockTableRecord
  2
*Model_Space
340
22
  0
BLOCK_RECORD
  5
52C
330
1
100
AcDbSymbolTableRecord
100
AcDbBlockTableRecord
  2
*Paper_Space
340
52D
  0
BLOCK_RECORD
  5
2B
330
1
100
AcDbSymbolTableRecord
100
AcDbBlockTableRecord
  2
_OPEN
340
0
  0
ENDTAB
  0
ENDSEC
  0
SECTION
  2
BLOCKS
  0
BLOCK
  5
20
330
1F
100
AcDbEntity
  8
0
100
AcDbBlockBegin
  2
*Model_Space
 70
     0
 10
0.0
 20
0.0
 30
0.0
  3
*Model_Space
  1

  0
ENDBLK
  5
21
330
1F
100
AcDbEntity
  8
0
100
AcDbBlockEnd
  0
BLOCK
  5
52E
330
52C
100
AcDbEntity
 67
     1
  8
0
100
AcDbBlockBegin
  2
*Paper_Space
 70
     0
 10
0.0
 20
0.0
 30
0.0
  3
*Paper_Space
  1

  0
ENDBLK
  5
52F
330
52C
100
AcDbEntity
 67
     1
  8
0
100
AcDbBlockEnd
  0
BLOCK
  5
2F
330
2B
100
AcDbEntity
  8
0
100
AcDbBlockBegin
  2
_OPEN
 70
     0
 10
0.0
 20
0.0
 30
0.0
  3
_OPEN
  1

  0
LINE
  5
2C
330
2B
100
AcDbEntity
  8
0
  6
ByBlock
 62
     0
100
AcDbLine
 10
-1.0
 20
0.166667
 30
0.0
 11
0.0
 21
0.0
 31
0.0
  0
LINE
  5
2D
330
2B
100
AcDbEntity
  8
0
  6
ByBlock
 62
     0
100
AcDbLine
 10
0.0
 20
0.0
 30
0.0
 11
-1.0
 21
-0.166667
 31
0.0
  0
LINE
  5
2E
330
2B
100
AcDbEntity
  8
0
  6
ByBlock
 62
     0
100
AcDbLine
 10
0.0
 20
0.0
 30
0.0
 11
-1.0
 21
0.0
 31
0.0
  0
ENDBLK
  5
30
330
2B
100
AcDbEntity
  8
0
100
AcDbBlockEnd
  0
ENDSEC
  0
SECTION
  2
ENTITIES
  0
LINE
  5
2B2
330
1F
100
AcDbEntity
  8
0
  6
Continuous
 62
     7
100
AcDbLine
 10
267.6245898483112
 20
197.7267078675019
 30
0.0
 11
360.6245898483111
 21
197.7267078675019
 31
0.0
  0
LINE
  5
2B3
330
1F
100
AcDbEntity
  8
0
  6
Continuous
 62
     7
100
AcDbLine
 10
267.6245898483112
 20
106.7267078675022
 30
0.0
 11
360.6245898483111
 21
106.7267078675022
 31
0.0
  0
LINE
  5
2B4
330
1F
100
AcDbEntity
  8
0
  6
Continuous
 62
     7
100
AcDbLine
 10
220.922196848311
 20
116.9267078675022
 30
0.0
 11
185.922196848311
 21
116.9267078675022
 31
0.0
  0
LINE
  5
2B5
330
1F
100
AcDbEntity
  8
0
  6
Continuous
 62
     7
100
AcDbLine
 10
185.922196848311
 20
126.9267078675022
 30
0.0
 11
220.922196848311
 21
126.9267078675022
 31
0.0
  0
LINE
  5
2B6
330
1F
100
AcDbEntity
  8
0
  6
Continuous
 62
     7
100
AcDbLine
 10
223.9221968483112
 20
128.4267078675022
 30
0.0
 11
182.922196848311
 21
128.4267078675022
 31
0.0
  0
LINE
  5
2B7
330
1F
100
AcDbEntity
  8
0
  6
Continuous
 62
     7
100
AcDbLine
 10
223.9221968483112
 20
129.2267078675022
 30
0.0
 11
182.922196848311
 21
129.2267078675022
 31
0.0
  0
LINE
  5
2B8
330
1F
100
AcDbEntity
  8
0
  6
Continuous
 62
     7
100
AcDbLine
 10
223.9221968483112
 20
115.4267078675022
 30
0.0
 11
182.922196848311
 21
115.4267078675022
 31
0.0
  0
LINE
  5
2B9
330
1F
100
AcDbEntity
  8
0
  6
Continuous
 62
     7
100
AcDbLine
 10
182.922196848311
 20
140.2267078675022
 30
0.0
 11
223.9221968483112
 21
140.2267078675022
 31
0.0
  0
LINE
  5
2BA
330
1F
100
AcDbEntity
  8
0
  6
Continuous
 62
     7
100
AcDbLine
 10
220.8221968483111
 20
142.7267078675022
 30
0.0
 11
186.022196848311
 21
142.7267078675022
 31
0.0
  0
LINE
  5
2BB
330
1F
100
AcDbEntity
  8
0
  6
Continuous
 62
     7
100
AcDbLine
 10
186.022196848311
 20
190.1267078675019
 30
0.0
 11
220.8221968483111
 21
190.1267078675019
 31
0.0
  0
LINE
  5
2BC
330
1F
100
AcDbEntity
  8
0
  6
Continuous
 62
     7
100
AcDbLine
 10
218.022196848311
 20
145.2267078675022
 30
0.0
 11
188.8221968483112
 21
145.2267078675022
 31
0.0
  0
LINE
  5
2BD
330
1F
100
AcDbEntity
  8
0
  6
Continuous
 62
     7
100
AcDbLine
 10
188.8221968483112
 20
151.426707867502
 30
0.0
 11
218.022196848311
 21
151.426707867502
 31
0.0
  0
LINE
  5
2BE
330
1F
100
AcDbEntity
  8
0
  6
Continuous
 62
     7
100
AcDbLine
 10
220.6221968483112
 20
143.9267078675021
 30
0.0
 11
186.2221968483112
 21
143.9267078675021
 31
0.0
  0
LINE
  5
2BF
330
1F
100
AcDbEntity
  8
0
  6
Continuous
 62
     7
100
AcDbLine
 10
186.2221968483112
 20
188.9267078675019
 30
0.0
 11
220.6221968483112
 21
188.9267078675019
 31
0.0
  0
LINE
  5
2C0
330
1F
100
AcDbEntity
  8
0
  6
Continuous
 62
     7
100
AcDbLine
 10
218.022196848311
 20
187.2267078675019
 30
0.0
 11
188.8221968483112
 21
187.2267078675019
 31
0.0
  0
LINE
  5
2C1
330
1F
100
AcDbEntity
  8
0
  6
Continuous
 62
     7
100
AcDbLine
 10
188.8221968483112
 20
171.9267078675021
 30
0.0
 11
218.022196848311
 21
171.9267078675021
 31
0.0
  0
LINE
  5
2C2
330
1F
100
AcDbEntity
  8
0
  6
Continuous
 62
     7
100
AcDbLine
 10
216.922196848311
 20
186.0267078675019
 30
0.0
 11
189.9221968483112
 21
186.0267078675019
 31
0.0
  0
LINE
  5
2C3
330
1F
100
AcDbEntity
  8
0
  6
Continuous
 62
     7
100
AcDbLine
 10
189.9221968483112
 20
175.8267078675021
 30
0.0
 11
216.922196848311
 21
175.8267078675021
 31
0.0
  0
LINE
  5
2C4
330
1F
100
AcDbEntity
  8
0
  6
Continuous
 62
     7
100
AcDbLine
 10
216.922196848311
 20
168.526707867502
 30
0.0
 11
189.9221968483112
 21
168.526707867502
 31
0.0
  0
LINE
  5
2C5
330
1F
100
AcDbEntity
  8
0
  6
Continuous
 62
     7
100
AcDbLine
 10
189.9221968483112
 20
158.3267078675021
 30
0.0
 11
216.922196848311
 21
158.3267078675021
 31
0.0
  0
LINE
  5
2C6
330
1F
100
AcDbEntity
  8
0
  6
Continuous
 62
     7
100
AcDbLine
 10
188.8221968483112
 20
154.426707867502
 30
0.0
 11
218.022196848311
 21
154.426707867502
 31
0.0
  0
LINE
  5
2C7
330
1F
100
AcDbEntity
  8
0
  6
Continuous
 62
     7
100
AcDbLine
 10
218.022196848311
 20
169.7267078675022
 30
0.0
 11
188.8221968483112
 21
169.7267078675022
 31
0.0
  0
LINE
  5
2C8
330
1F
100
AcDbEntity
  8
0
  6
Continuous
 62
     7
100
AcDbLine
 10
198.222196848311
 20
148.6267078675022
 30
0.0
 11
196.2221968483112
 21
148.6267078675022
 31
0.0
  0
LINE
  5
2C9
330
1F
100
AcDbEntity
  8
0
  6
Continuous
 62
     7
100
AcDbLine
 10
196.2221968483112
 20
150.2267078675022
 30
0.0
 11
198.222196848311
 21
150.2267078675022
 31
0.0
  0
LINE
  5
2CA
330
1F
100
AcDbEntity
  8
0
  6
Continuous
 62
     7
100
AcDbLine
 10
182.922196848311
 20
140.2267078675022
 30
0.0
 11
223.9221968483112
 21
140.2267078675022
 31
0.0
  0
LINE
  5
2CB
330
1F
100
AcDbEntity
  8
0
  6
Continuous
 62
     7
100
AcDbLine
 10
223.9221968483112
 20
107.8267078675022
 30
0.0
 11
182.922196848311
 21
107.8267078675022
 31
0.0
  0
LINE
  5
2CC
330
1F
100
AcDbEntity
  8
0
  6
Continuous
 62
     7
100
AcDbLine
 10
223.422196848311
 20
108.3267078675022
 30
0.0
 11
183.422196848311
 21
108.3267078675022
 31
0.0
  0
LINE
  5
2CD
330
1F
100
AcDbEntity
  8
0
  6
Continuous
 62
     7
100
AcDbLine
 10
223.422196848311
 20
114.0267078675022
 30
0.0
 11
183.422196848311
 21
114.0267078675022
 31
0.0
  0
LINE
  5
2CE
330
1F
100
AcDbEntity
  8
0
  6
Continuous
 62
     7
100
AcDbLine
 10
223.9221968483112
 20
114.5267078675022
 30
0.0
 11
182.922196848311
 21
114.5267078675022
 31
0.0
  0
LINE
  5
2CF
330
1F
100
AcDbEntity
  8
0
  6
Continuous
 62
     7
100
AcDbLine
 10
183.922196848311
 20
196.5267078675021
 30
0.0
 11
222.922196848311
 21
196.5267078675021
 31
0.0
  0
LINE
  5
2D0
330
1F
100
AcDbEntity
  8
0
  6
Continuous
 62
     7
100
AcDbLine
 10
224.7221968483112
 20
104.2267078675022
 30
0.0
 11
182.1221968483112
 21
104.2267078675022
 31
0.0
  0
LINE
  5
2D1
330
1F
100
AcDbEntity
  8
0
  6
Continuous
 62
     7
100
AcDbLine
 10
182.1221968483112
 20
200.2267078675019
 30
0.0
 11
224.7221968483112
 21
200.2267078675019
 31
0.0
  0
LINE
  5
2D2
330
1F
100
AcDbEntity
  8
0
  6
Continuous
 62
     7
100
AcDbLine
 10
185.022196848311
 20
143.7267078675022
 30
0.0
 11
185.022196848311
 21
189.1267078675021
 31
0.0
  0
LINE
  5
2D3
330
1F
100
AcDbEntity
  8
0
  6
Continuous
 62
     7
100
AcDbLine
 10
186.2221968483112
 20
143.9267078675021
 30
0.0
 11
186.2221968483112
 21
188.9267078675019
 31
0.0
  0
LINE
  5
2D4
330
1F
100
AcDbEntity
  8
0
  6
Continuous
 62
     7
100
AcDbLine
 10
188.3221968483112
 20
186.7267078675019
 30
0.0
 11
188.3221968483112
 21
172.4267078675021
 31
0.0
  0
LINE
  5
2D5
330
1F
100
AcDbEntity
  8
0
  6
Continuous
 62
     7
100
AcDbLine
 10
182.922196848311
 20
104.2267078675022
 30
0.0
 11
182.922196848311
 21
195.5267078675021
 31
0.0
  0
LINE
  5
2D6
330
1F
100
AcDbEntity
  8
0
  6
Continuous
 62
     7
100
AcDbLine
 10
179.422196848311
 20
106.9267078675022
 30
0.0
 11
179.422196848311
 21
197.5267078675021
 31
0.0
  0
ARC
  5
2D7
330
1F
100
AcDbEntity
  8
0
  6
Continuous
 62
     7
100
AcDbCircle
 10
185.9221964747735
 20
126.4267082410396
 30
0.0
 40
0.4999996264625655
100
AcDbArc
 50
89.99995719572096
 51
180.0000428042953
  0
LINE
  5
2D8
330
1F
100
AcDbEntity
  8
0
  6
Continuous
 62
     7
100
AcDbLine
 10
182.922196848311
 20
115.4267078675022
 30
0.0
 11
182.922196848311
 21
140.2267078675022
 31
0.0
  0
ARC
  5
2D9
330
1F
100
AcDbEntity
  8
0
  6
Continuous
 62
     7
100
AcDbCircle
 10
182.122194831208
 20
106.9267058503992
 30
0.0
 40
2.699997982897784
100
AcDbArc
 50
179.9999571957128
 51
270.0000428042871
  0
LINE
  5
2DA
330
1F
100
AcDbEntity
  8
0
  6
Continuous
 62
     7
100
AcDbLine
 10
183.422196848311
 20
108.3267078675022
 30
0.0
 11
183.422196848311
 21
114.0267078675022
 31
0.0
  0
LINE
  5
2DB
330
1F
100
AcDbEntity
  8
0
  6
Continuous
 62
     7
100
AcDbLine
 10
185.422196848311
 20
117.4267078675022
 30
0.0
 11
185.422196848311
 21
126.426707867502
 31
0.0
  0
ARC
  5
2DC
330
1F
100
AcDbEntity
  8
0
  6
Continuous
 62
     7
100
AcDbCircle
 10
185.9221964747735
 20
117.4267074939645
 30
0.0
 40
0.4999996264625085
100
AcDbArc
 50
179.9999571957079
 51
270.0000428042855
  0
LINE
  5
2DD
330
1F
100
AcDbEntity
  8
0
  6
Continuous
 62
     7
100
AcDbLine
 10
188.3221968483112
 20
145.726707867502
 30
0.0
 11
188.3221968483112
 21
150.9267078675021
 31
0.0
  0
LINE
  5
2DE
330
1F
100
AcDbEntity
  8
0
  6
Continuous
 62
     7
100
AcDbLine
 10
195.7221968483112
 20
149.1267078675022
 30
0.0
 11
195.7221968483112
 21
149.726707867502
 31
0.0
  0
LINE
  5
2DF
330
1F
100
AcDbEntity
  8
0
  6
Continuous
 62
     7
100
AcDbLine
 10
189.522196848311
 20
149.1267078675022
 30
0.0
 11
189.522196848311
 21
149.726707867502
 31
0.0
  0
LINE
  5
2E0
330
1F
100
AcDbEntity
  8
0
  6
Continuous
 62
     7
100
AcDbLine
 10
192.522196848311
 20
149.726707867502
 30
0.0
 11
192.522196848311
 21
149.1267078675022
 31
0.0
  0
ARC
  5
2E1
330
1F
100
AcDbEntity
  8
0
  6
Continuous
 62
     7
100
AcDbCircle
 10
188.8221964747735
 20
145.7267074939645
 30
0.0
 40
0.4999996264625655
100
AcDbArc
 50
179.9999571957144
 51
270.0000428042887
  0
ARC
  5
2E2
330
1F
100
AcDbEntity
  8
0
  6
Continuous
 62
     7
100
AcDbCircle
 10
186.022196101236
 20
143.7267071204269
 30
0.0
 40
0.9999992529250738
100
AcDbArc
 50
179.9999571957112
 51
270.0000428042855
  0
ARC
  5
2E3
330
1F
100
AcDbEntity
  8
0
  6
Continuous
 62
     7
100
AcDbCircle
 10
192.0221972218488
 20
149.1267074939644
 30
0.0
 40
0.4999996264625369
100
AcDbArc
 50
269.9999571957111
 51
0.0000428042855519
  0
ARC
  5
2E4
330
1F
100
AcDbEntity
  8
0
  6
Continuous
 62
     7
100
AcDbCircle
 10
190.0221964747736
 20
149.1267074939644
 30
0.0
 40
0.4999996264625085
100
AcDbArc
 50
179.9999571957079
 51
270.0000428042855
  0
LINE
  5
2E5
330
1F
100
AcDbEntity
  8
0
  6
Continuous
 62
     7
100
AcDbLine
 10
192.022196848311
 20
148.6267078675022
 30
0.0
 11
190.022196848311
 21
148.6267078675022
 31
0.0
  0
ARC
  5
2E6
330
1F
100
AcDbEntity
  8
0
  6
Continuous
 62
     7
100
AcDbCircle
 10
196.2221964747735
 20
149.1267074939644
 30
0.0
 40
0.4999996264625655
100
AcDbArc
 50
179.9999571957144
 51
270.0000428042887
  0
LINE
  5
2E7
330
1F
100
AcDbEntity
  8
0
  6
Continuous
 62
     7
100
AcDbLine
 10
190.752630848311
 20
162.9882588675021
 30
0.0
 11
190.277429848311
 21
160.2932598675019
 31
0.0
  0
LINE
  5
2E8
330
1F
100
AcDbEntity
  8
0
  6
Continuous
 62
     7
100
AcDbLine
 10
195.377608848311
 20
162.9882588675021
 30
0.0
 11
194.9098428483113
 21
160.290733867502
 31
0.0
  0
LINE
  5
2E9
330
1F
100
AcDbEntity
  8
0
  6
Continuous
 62
     7
100
AcDbLine
 10
194.4944778483112
 20
162.9882588675021
 30
0.0
 11
194.0192768483109
 21
160.2932588675022
 31
0.0
  0
LINE
  5
2EA
330
1F
100
AcDbEntity
  8
0
  6
Continuous
 62
     7
100
AcDbLine
 10
191.646206848311
 20
162.9882588675021
 30
0.0
 11
191.171004848311
 21
160.2932588675022
 31
0.0
  0
LINE
  5
2EB
330
1F
100
AcDbEntity
  8
0
  6
Continuous
 62
     7
100
AcDbLine
 10
189.422196848311
 20
168.026707867502
 30
0.0
 11
189.422196848311
 21
158.8267078675021
 31
0.0
  0
LINE
  5
2EC
330
1F
100
AcDbEntity
  8
0
  6
Continuous
 62
     7
100
AcDbLine
 10
188.3221968483112
 20
169.2267078675022
 30
0.0
 11
188.3221968483112
 21
154.9267078675021
 31
0.0
  0
ARC
  5
2ED
330
1F
100
AcDbEntity
  8
0
  6
Continuous
 62
     7
100
AcDbCircle
 10
188.8221964747735
 20
150.9267082410397
 30
0.0
 40
0.4999996264625939
100
AcDbArc
 50
89.99995719571769
 51
180.0000428042919
  0
ARC
  5
2EE
330
1F
100
AcDbEntity
  8
0
  6
Continuous
 62
     7
100
AcDbCircle
 10
188.8221964747735
 20
154.9267074939645
 30
0.0
 40
0.4999996264625085
100
AcDbArc
 50
179.9999571957175
 51
270.0000428042919
  0
ARC
  5
2EF
330
1F
100
AcDbEntity
  8
0
  6
Continuous
 62
     7
100
AcDbCircle
 10
192.0221972218488
 20
149.7267082410395
 30
0.0
 40
0.4999996264625655
100
AcDbArc
 50
359.9999571957143
 51
90.00004280428878
  0
ARC
  5
2F0
330
1F
100
AcDbEntity
  8
0
  6
Continuous
 62
     7
100
AcDbCircle
 10
190.0221964747736
 20
149.7267082410395
 30
0.0
 40
0.4999996264625085
100
AcDbArc
 50
89.99995719571442
 51
180.0000428042919
  0
LINE
  5
2F1
330
1F
100
AcDbEntity
  8
0
  6
Continuous
 62
     7
100
AcDbLine
 10
190.022196848311
 20
150.2267078675022
 30
0.0
 11
192.022196848311
 21
150.2267078675022
 31
0.0
  0
ARC
  5
2F2
330
1F
100
AcDbEntity
  8
0
  6
Continuous
 62
     7
100
AcDbCircle
 10
196.2221964747735
 20
149.7267082410395
 30
0.0
 40
0.4999996264625369
100
AcDbArc
 50
89.99995719571119
 51
180.0000428042855
  0
LINE
  5
2F3
330
1F
100
AcDbEntity
  8
0
  6
Continuous
 62
     7
100
AcDbLine
 10
191.171004848311
 20
160.2932588675022
 30
0.0
 11
194.0192768483109
 21
160.2932588675022
 31
0.0
  0
LINE
  5
2F4
330
1F
100
AcDbEntity
  8
0
  6
Continuous
 62
     7
100
AcDbLine
 10
191.015837848311
 20
159.4132588675021
 30
0.0
 11
193.864109848311
 21
159.4132588675021
 31
0.0
  0
LINE
  5
2F5
330
1F
100
AcDbEntity
  8
0
  6
Continuous
 62
     7
100
AcDbLine
 10
191.171004848311
 20
160.2932588675022
 30
0.0
 11
190.646633848311
 21
159.853259867502
 31
0.0
  0
LINE
  5
2F6
330
1F
100
AcDbEntity
  8
0
  6
Continuous
 62
     7
100
AcDbLine
 10
190.277429848311
 20
160.2932598675019
 30
0.0
 11
191.015837848311
 21
159.4132588675021
 31
0.0
  0
ARC
  5
2F7
330
1F
100
AcDbEntity
  8
0
  6
Continuous
 62
     7
100
AcDbCircle
 10
189.9221964747735
 20
158.8267074939643
 30
0.0
 40
0.4999996264625655
100
AcDbArc
 50
179.9999571957079
 51
270.0000428042855
  0
LINE
  5
2F8
330
1F
100
AcDbEntity
  8
0
  6
Continuous
 62
     7
100
AcDbLine
 10
194.0192768483109
 20
160.2932588675022
 30
0.0
 11
194.3884808483112
 21
159.8532588675022
 31
0.0
  0
LINE
  5
2F9
330
1F
100
AcDbEntity
  8
0
  6
Continuous
 62
     7
100
AcDbLine
 10
193.864109848311
 20
159.4132588675021
 30
0.0
 11
194.9098428483113
 21
160.290733867502
 31
0.0
  0
ARC
  5
2FD
330
1F
100
AcDbEntity
  8
0
  6
Continuous
 62
     7
100
AcDbCircle
 10
188.8221964747735
 20
172.4267074939644
 30
0.0
 40
0.4999996264625369
100
AcDbArc
 50
179.9999571957112
 51
270.0000428042887
  0
ARC
  5
2FE
330
1F
100
AcDbEntity
  8
0
  6
Continuous
 62
     7
100
AcDbCircle
 10
188.8221964747735
 20
169.2267082410396
 30
0.0
 40
0.4999996264625369
100
AcDbArc
 50
89.99995719571119
 51
180.0000428042888
  0
LINE
  5
2FF
330
1F
100
AcDbEntity
  8
0
  6
Continuous
 62
     7
100
AcDbLine
 10
196.0184228483109
 20
166.5632598675021
 30
0.0
 11
195.2800148483112
 21
167.4432588675021
 31
0.0
  0
LINE
  5
300
330
1F
100
AcDbEntity
  8
0
  6
Continuous
 62
     7
100
AcDbLine
 10
192.4317428483112
 20
167.4432588675021
 30
0.0
 11
191.382999848311
 21
166.5632598675021
 31
0.0
  0
LINE
  5
301
330
1F
100
AcDbEntity
  8
0
  6
Continuous
 62
     7
100
AcDbLine
 10
191.646206848311
 20
162.9882588675021
 30
0.0
 11
194.4944778483112
 21
162.9882588675021
 31
0.0
  0
LINE
  5
302
330
1F
100
AcDbEntity
  8
0
  6
Continuous
 62
     7
100
AcDbLine
 10
191.8013738483112
 20
163.8682588675021
 30
0.0
 11
194.6496458483109
 21
163.8682588675021
 31
0.0
  0
LINE
  5
303
330
1F
100
AcDbEntity
  8
0
  6
Continuous
 62
     7
100
AcDbLine
 10
192.276575848311
 20
166.563258867502
 30
0.0
 11
195.124846848311
 21
166.563258867502
 31
0.0
  0
LINE
  5
304
330
1F
100
AcDbEntity
  8
0
  6
Continuous
 62
     7
100
AcDbLine
 10
192.276575848311
 20
166.563258867502
 30
0.0
 11
191.9073708483112
 21
167.003258867502
 31
0.0
  0
LINE
  5
305
330
1F
100
AcDbEntity
  8
0
  6
Continuous
 62
     7
100
AcDbLine
 10
191.8013738483112
 20
163.8682588675021
 30
0.0
 11
192.276575848311
 21
166.563258867502
 31
0.0
  0
LINE
  5
306
330
1F
100
AcDbEntity
  8
0
  6
Continuous
 62
     7
100
AcDbLine
 10
190.9209798483112
 20
163.8682588675021
 30
0.0
 11
191.646206848311
 21
162.9882588675021
 31
0.0
  0
LINE
  5
307
330
1F
100
AcDbEntity
  8
0
  6
Continuous
 62
     7
100
AcDbLine
 10
191.8013738483112
 20
163.8682588675021
 30
0.0
 11
190.752630848311
 21
162.9882588675021
 31
0.0
  0
LINE
  5
308
330
1F
100
AcDbEntity
  8
0
  6
Continuous
 62
     7
100
AcDbLine
 10
191.382999848311
 20
166.5632598675021
 30
0.0
 11
190.9081958483112
 21
163.870512867502
 31
0.0
  0
LINE
  5
309
330
1F
100
AcDbEntity
  8
0
  6
Continuous
 62
     7
100
AcDbLine
 10
195.124846848311
 20
166.563258867502
 30
0.0
 11
195.6492188483109
 21
167.003258867502
 31
0.0
  0
LINE
  5
30A
330
1F
100
AcDbEntity
  8
0
  6
Continuous
 62
     7
100
AcDbLine
 10
194.6496458483109
 20
163.8682588675021
 30
0.0
 11
195.124846848311
 21
166.563258867502
 31
0.0
  0
LINE
  5
30B
330
1F
100
AcDbEntity
  8
0
  6
Continuous
 62
     7
100
AcDbLine
 10
194.6496458483109
 20
163.8682588675021
 30
0.0
 11
195.377608848311
 21
162.9882588675021
 31
0.0
  0
LINE
  5
30C
330
1F
100
AcDbEntity
  8
0
  6
Continuous
 62
     7
100
AcDbLine
 10
194.4944778483112
 20
162.9882588675021
 30
0.0
 11
195.5397168483109
 21
163.8682588675021
 31
0.0
  0
LINE
  5
30D
330
1F
100
AcDbEntity
  8
0
  6
Continuous
 62
     7
100
AcDbLine
 10
196.0184228483109
 20
166.5632598675021
 30
0.0
 11
195.5431158483112
 21
163.867659867502
 31
0.0
  0
LINE
  5
30E
330
1F
100
AcDbEntity
  8
0
  6
Continuous
 62
     7
100
AcDbLine
 10
192.4317428483112
 20
167.4432588675021
 30
0.0
 11
195.2800148483112
 21
167.4432588675021
 31
0.0
  0
ARC
  5
30F
330
1F
100
AcDbEntity
  8
0
  6
Continuous
 62
     7
100
AcDbCircle
 10
189.9221964747735
 20
168.0267082410396
 30
0.0
 40
0.4999996264625655
100
AcDbArc
 50
89.99995719571119
 51
180.0000428042855
  0
ARC
  5
310
330
1F
100
AcDbEntity
  8
0
  6
Continuous
 62
     7
100
AcDbCircle
 10
183.922196101236
 20
195.5267086145773
 30
0.0
 40
0.9999992529250738
100
AcDbArc
 50
89.99995719571442
 51
180.0000428042888
  0
LINE
  5
311
330
1F
100
AcDbEntity
  8
0
  6
Continuous
 62
     7
100
AcDbLine
 10
195.124846848311
 20
184.063258867502
 30
0.0
 11
195.6492188483109
 21
184.5032588675021
 31
0.0
  0
LINE
  5
312
330
1F
100
AcDbEntity
  8
0
  6
Continuous
 62
     7
100
AcDbLine
 10
192.276575848311
 20
184.063258867502
 30
0.0
 11
191.9073708483112
 21
184.5032588675021
 31
0.0
  0
LINE
  5
313
330
1F
100
AcDbEntity
  8
0
  6
Continuous
 62
     7
100
AcDbLine
 10
196.0184228483109
 20
184.063259867502
 30
0.0
 11
195.2800148483112
 21
184.9432588675019
 31
0.0
  0
LINE
  5
314
330
1F
100
AcDbEntity
  8
0
  6
Continuous
 62
     7
100
AcDbLine
 10
192.4317428483112
 20
184.9432588675019
 30
0.0
 11
191.382999848311
 21
184.063259867502
 31
0.0
  0
LINE
  5
315
330
1F
100
AcDbEntity
  8
0
  6
Continuous
 62
     7
100
AcDbLine
 10
189.422196848311
 20
185.5267078675019
 30
0.0
 11
189.422196848311
 21
176.3267078675021
 31
0.0
  0
LINE
  5
316
330
1F
100
AcDbEntity
  8
0
  6
Continuous
 62
     7
100
AcDbLine
 10
190.752630848311
 20
180.4882588675021
 30
0.0
 11
190.277429848311
 21
177.7932598675019
 31
0.0
  0
LINE
  5
317
330
1F
100
AcDbEntity
  8
0
  6
Continuous
 62
     7
100
AcDbLine
 10
195.377608848311
 20
180.4882588675021
 30
0.0
 11
194.9098428483113
 21
177.7907338675021
 31
0.0
  0
LINE
  5
318
330
1F
100
AcDbEntity
  8
0
  6
Continuous
 62
     7
100
AcDbLine
 10
194.4944778483112
 20
180.4882588675021
 30
0.0
 11
194.0192768483109
 21
177.7932588675021
 31
0.0
  0
LINE
  5
319
330
1F
100
AcDbEntity
  8
0
  6
Continuous
 62
     7
100
AcDbLine
 10
191.646206848311
 20
180.4882588675021
 30
0.0
 11
191.171004848311
 21
177.7932588675021
 31
0.0
  0
LINE
  5
31A
330
1F
100
AcDbEntity
  8
0
  6
Continuous
 62
     7
100
AcDbLine
 10
191.171004848311
 20
177.7932588675021
 30
0.0
 11
194.0192768483109
 21
177.7932588675021
 31
0.0
  0
LINE
  5
31B
330
1F
100
AcDbEntity
  8
0
  6
Continuous
 62
     7
100
AcDbLine
 10
191.015837848311
 20
176.9132588675019
 30
0.0
 11
193.864109848311
 21
176.9132588675019
 31
0.0
  0
LINE
  5
31C
330
1F
100
AcDbEntity
  8
0
  6
Continuous
 62
     7
100
AcDbLine
 10
191.171004848311
 20
177.7932588675021
 30
0.0
 11
190.646633848311
 21
177.3532598675019
 31
0.0
  0
LINE
  5
31D
330
1F
100
AcDbEntity
  8
0
  6
Continuous
 62
     7
100
AcDbLine
 10
190.277429848311
 20
177.7932598675019
 30
0.0
 11
191.015837848311
 21
176.9132588675019
 31
0.0
  0
ARC
  5
31E
330
1F
100
AcDbEntity
  8
0
  6
Continuous
 62
     7
100
AcDbCircle
 10
189.9221964747735
 20
176.3267074939645
 30
0.0
 40
0.4999996264625085
100
AcDbArc
 50
179.9999571957144
 51
270.0000428042919
  0
LINE
  5
31F
330
1F
100
AcDbEntity
  8
0
  6
Continuous
 62
     7
100
AcDbLine
 10
194.0192768483109
 20
177.7932588675021
 30
0.0
 11
194.3884808483112
 21
177.3532588675021
 31
0.0
  0
LINE
  5
320
330
1F
100
AcDbEntity
  8
0
  6
Continuous
 62
     7
100
AcDbLine
 10
193.864109848311
 20
176.9132588675019
 30
0.0
 11
194.9098428483113
 21
177.7907338675021
 31
0.0
  0
LINE
  5
324
330
1F
100
AcDbEntity
  8
0
  6
Continuous
 62
     7
100
AcDbLine
 10
191.646206848311
 20
180.4882588675021
 30
0.0
 11
194.4944778483112
 21
180.4882588675021
 31
0.0
  0
LINE
  5
325
330
1F
100
AcDbEntity
  8
0
  6
Continuous
 62
     7
100
AcDbLine
 10
191.8013738483112
 20
181.3682588675021
 30
0.0
 11
194.6496458483109
 21
181.3682588675021
 31
0.0
  0
LINE
  5
326
330
1F
100
AcDbEntity
  8
0
  6
Continuous
 62
     7
100
AcDbLine
 10
192.276575848311
 20
184.063258867502
 30
0.0
 11
195.124846848311
 21
184.063258867502
 31
0.0
  0
LINE
  5
327
330
1F
100
AcDbEntity
  8
0
  6
Continuous
 62
     7
100
AcDbLine
 10
191.8013738483112
 20
181.3682588675021
 30
0.0
 11
192.276575848311
 21
184.063258867502
 31
0.0
  0
LINE
  5
328
330
1F
100
AcDbEntity
  8
0
  6
Continuous
 62
     7
100
AcDbLine
 10
190.9209798483112
 20
181.3682588675021
 30
0.0
 11
191.646206848311
 21
180.4882588675021
 31
0.0
  0
LINE
  5
329
330
1F
100
AcDbEntity
  8
0
  6
Continuous
 62
     7
100
AcDbLine
 10
191.8013738483112
 20
181.3682588675021
 30
0.0
 11
190.752630848311
 21
180.4882588675021
 31
0.0
  0
LINE
  5
32A
330
1F
100
AcDbEntity
  8
0
  6
Continuous
 62
     7
100
AcDbLine
 10
191.382999848311
 20
184.063259867502
 30
0.0
 11
190.9081958483112
 21
181.3705128675021
 31
0.0
  0
LINE
  5
32B
330
1F
100
AcDbEntity
  8
0
  6
Continuous
 62
     7
100
AcDbLine
 10
194.6496458483109
 20
181.3682588675021
 30
0.0
 11
195.124846848311
 21
184.063258867502
 31
0.0
  0
LINE
  5
32C
330
1F
100
AcDbEntity
  8
0
  6
Continuous
 62
     7
100
AcDbLine
 10
194.6496458483109
 20
181.3682588675021
 30
0.0
 11
195.377608848311
 21
180.4882588675021
 31
0.0
  0
LINE
  5
32D
330
1F
100
AcDbEntity
  8
0
  6
Continuous
 62
     7
100
AcDbLine
 10
194.4944778483112
 20
180.4882588675021
 30
0.0
 11
195.5397168483109
 21
181.3682588675021
 31
0.0
  0
LINE
  5
32E
330
1F
100
AcDbEntity
  8
0
  6
Continuous
 62
     7
100
AcDbLine
 10
196.0184228483109
 20
184.063259867502
 30
0.0
 11
195.5431158483112
 21
181.3676598675019
 31
0.0
  0
ARC
  5
32F
330
1F
100
AcDbEntity
  8
0
  6
Continuous
 62
     7
100
AcDbCircle
 10
188.8221964747735
 20
186.7267082410395
 30
0.0
 40
0.4999996264625369
100
AcDbArc
 50
89.99995719571119
 51
180.0000428042888
  0
ARC
  5
330
330
1F
100
AcDbEntity
  8
0
  6
Continuous
 62
     7
100
AcDbCircle
 10
186.022196101236
 20
189.1267086145773
 30
0.0
 40
0.9999992529250167
100
AcDbArc
 50
89.99995719571119
 51
180.0000428042871
  0
LINE
  5
331
330
1F
100
AcDbEntity
  8
0
  6
Continuous
 62
     7
100
AcDbLine
 10
192.4317428483112
 20
184.9432588675019
 30
0.0
 11
195.2800148483112
 21
184.9432588675019
 31
0.0
  0
ARC
  5
332
330
1F
100
AcDbEntity
  8
0
  6
Continuous
 62
     7
100
AcDbCircle
 10
189.9221964747735
 20
185.5267082410394
 30
0.0
 40
0.4999996264625655
100
AcDbArc
 50
89.99995719571119
 51
180.0000428042855
  0
ARC
  5
333
330
1F
100
AcDbEntity
  8
0
  6
Continuous
 62
     7
100
AcDbCircle
 10
182.122194831208
 20
197.5267098846051
 30
0.0
 40
2.699997982897756
100
AcDbArc
 50
89.99995719571279
 51
180.0000428042871
  0
LINE
  5
334
330
1F
100
AcDbEntity
  8
0
  6
Continuous
 62
     7
100
AcDbLine
 10
267.6245898483112
 20
200.2267078675019
 30
0.0
 11
267.6245898483112
 21
104.2267078675022
 31
0.0
  0
LINE
  5
335
330
1F
100
AcDbEntity
  8
0
  6
Continuous
 62
     7
100
AcDbLine
 10
260.624589848311
 20
106.7267078675022
 30
0.0
 11
260.624589848311
 21
197.7267078675019
 31
0.0
  0
LINE
  5
336
330
1F
100
AcDbEntity
  8
0
  6
Continuous
 62
     7
100
AcDbLine
 10
265.6245898483112
 20
200.2267078675019
 30
0.0
 11
265.6245898483112
 21
104.2267078675022
 31
0.0
  0
LINE
  5
337
330
1F
100
AcDbEntity
  8
0
  6
Continuous
 62
     7
100
AcDbLine
 10
221.8221968483112
 20
189.1267078675021
 30
0.0
 11
221.8221968483112
 21
143.7267078675022
 31
0.0
  0
LINE
  5
338
330
1F
100
AcDbEntity
  8
0
  6
Continuous
 62
     7
100
AcDbLine
 10
220.6221968483112
 20
188.9267078675019
 30
0.0
 11
220.6221968483112
 21
143.9267078675021
 31
0.0
  0
LINE
  5
339
330
1F
100
AcDbEntity
  8
0
  6
Continuous
 62
     7
100
AcDbLine
 10
218.522196848311
 20
172.4267078675021
 30
0.0
 11
218.522196848311
 21
186.7267078675019
 31
0.0
  0
LINE
  5
33A
330
1F
100
AcDbEntity
  8
0
  6
Continuous
 62
     7
100
AcDbLine
 10
223.9221968483112
 20
195.5267078675021
 30
0.0
 11
223.9221968483112
 21
104.2267078675022
 31
0.0
  0
LINE
  5
33B
330
1F
100
AcDbEntity
  8
0
  6
Continuous
 62
     7
100
AcDbLine
 10
227.422196848311
 20
197.5267078675021
 30
0.0
 11
227.422196848311
 21
106.9267078675022
 31
0.0
  0
ARC
  5
33C
330
1F
100
AcDbEntity
  8
0
  6
Continuous
 62
     7
100
AcDbCircle
 10
263.1245879806233
 20
106.726705999814
 30
0.0
 40
2.49999813231274
100
AcDbArc
 50
179.9999571957128
 51
270.0000428042871
  0
ARC
  5
33D
330
1F
100
AcDbEntity
  8
0
  6
Continuous
 62
     7
100
AcDbCircle
 10
220.9221972218486
 20
126.4267082410396
 30
0.0
 40
0.4999996264625939
100
AcDbArc
 50
359.9999571957078
 51
90.0000428042823
  0
LINE
  5
33E
330
1F
100
AcDbEntity
  8
0
  6
Continuous
 62
     7
100
AcDbLine
 10
209.4221968483112
 20
126.9267078675022
 30
0.0
 11
209.4221968483112
 21
116.9267078675022
 31
0.0
  0
LINE
  5
33F
330
1F
100
AcDbEntity
  8
0
  6
Continuous
 62
     7
100
AcDbLine
 10
223.9221968483112
 20
140.2267078675022
 30
0.0
 11
223.9221968483112
 21
115.4267078675022
 31
0.0
  0
LINE
  5
340
330
1F
100
AcDbEntity
  8
0
  6
Continuous
 62
     7
100
AcDbLine
 10
197.4221968483112
 20
126.9267078675022
 30
0.0
 11
197.4221968483112
 21
116.9267078675022
 31
0.0
  0
LINE
  5
341
330
1F
100
AcDbEntity
  8
0
  6
Continuous
 62
     7
100
AcDbLine
 10
223.422196848311
 20
114.0267078675022
 30
0.0
 11
223.422196848311
 21
108.3267078675022
 31
0.0
  0
ARC
  5
342
330
1F
100
AcDbEntity
  8
0
  6
Continuous
 62
     7
100
AcDbCircle
 10
224.7221988654142
 20
106.9267058503992
 30
0.0
 40
2.699997982897784
100
AcDbArc
 50
269.9999571957111
 51
0.0000428042855519
  0
ARC
  5
343
330
1F
100
AcDbEntity
  8
0
  6
Continuous
 62
     7
100
AcDbCircle
 10
220.9221972218486
 20
117.4267074939645
 30
0.0
 40
0.4999996264625369
100
AcDbArc
 50
269.9999571957111
 51
0.0000428042855519
  0
LINE
  5
344
330
1F
100
AcDbEntity
  8
0
  6
Continuous
 62
     7
100
AcDbLine
 10
221.4221968483112
 20
126.426707867502
 30
0.0
 11
221.4221968483112
 21
117.4267078675022
 31
0.0
  0
LINE
  5
345
330
1F
100
AcDbEntity
  8
0
  6
Continuous
 62
     7
100
AcDbLine
 10
218.522196848311
 20
150.9267078675021
 30
0.0
 11
218.522196848311
 21
145.726707867502
 31
0.0
  0
LINE
  5
346
330
1F
100
AcDbEntity
  8
0
  6
Continuous
 62
     7
100
AcDbLine
 10
201.922196848311
 20
149.1267078675022
 30
0.0
 11
201.922196848311
 21
149.726707867502
 31
0.0
  0
LINE
  5
347
330
1F
100
AcDbEntity
  8
0
  6
Continuous
 62
     7
100
AcDbLine
 10
204.9221968483112
 20
149.726707867502
 30
0.0
 11
204.9221968483112
 21
149.1267078675022
 31
0.0
  0
LINE
  5
348
330
1F
100
AcDbEntity
  8
0
  6
Continuous
 62
     7
100
AcDbLine
 10
208.1221968483113
 20
149.1267078675022
 30
0.0
 11
208.1221968483113
 21
149.726707867502
 31
0.0
  0
LINE
  5
349
330
1F
100
AcDbEntity
  8
0
  6
Continuous
 62
     7
100
AcDbLine
 10
211.1221968483111
 20
149.726707867502
 30
0.0
 11
211.1221968483111
 21
149.1267078675022
 31
0.0
  0
LINE
  5
34A
330
1F
100
AcDbEntity
  8
0
  6
Continuous
 62
     7
100
AcDbLine
 10
214.322196848311
 20
149.1267078675022
 30
0.0
 11
214.322196848311
 21
149.726707867502
 31
0.0
  0
LINE
  5
34B
330
1F
100
AcDbEntity
  8
0
  6
Continuous
 62
     7
100
AcDbLine
 10
217.322196848311
 20
149.726707867502
 30
0.0
 11
217.322196848311
 21
149.1267078675022
 31
0.0
  0
LINE
  5
34C
330
1F
100
AcDbEntity
  8
0
  6
Continuous
 62
     7
100
AcDbLine
 10
198.7221968483112
 20
149.726707867502
 30
0.0
 11
198.7221968483112
 21
149.1267078675022
 31
0.0
  0
LINE
  5
34D
330
1F
100
AcDbEntity
  8
0
  6
Continuous
 62
     7
100
AcDbLine
 10
220.922196848311
 20
130.6267078675021
 30
0.0
 11
209.922196848311
 21
130.6267078675021
 31
0.0
  0
LINE
  5
34E
330
1F
100
AcDbEntity
  8
0
  6
Continuous
 62
     7
100
AcDbLine
 10
209.922196848311
 20
136.6267078675022
 30
0.0
 11
220.922196848311
 21
136.6267078675022
 31
0.0
  0
LINE
  5
34F
330
1F
100
AcDbEntity
  8
0
  6
Continuous
 62
     7
100
AcDbLine
 10
209.4221968483112
 20
131.1267078675022
 30
0.0
 11
209.4221968483112
 21
136.1267078675022
 31
0.0
  0
ARC
  5
350
330
1F
100
AcDbEntity
  8
0
  6
Continuous
 62
     7
100
AcDbCircle
 10
209.9221964747735
 20
131.1267074939644
 30
0.0
 40
0.4999996264626222
100
AcDbArc
 50
179.9999571957112
 51
270.0000428042855
  0
ARC
  5
351
330
1F
100
AcDbEntity
  8
0
  6
Continuous
 62
     7
100
AcDbCircle
 10
209.9221964747735
 20
136.1267082410396
 30
0.0
 40
0.4999996264625655
100
AcDbArc
 50
89.99995719570794
 51
180.0000428042855
  0
ARC
  5
352
330
1F
100
AcDbEntity
  8
0
  6
Continuous
 62
     7
100
AcDbCircle
 10
204.4221972218488
 20
149.1267074939644
 30
0.0
 40
0.4999996264625085
100
AcDbArc
 50
269.9999571957144
 51
0.0000428042920657
  0
ARC
  5
353
330
1F
100
AcDbEntity
  8
0
  6
Continuous
 62
     7
100
AcDbCircle
 10
198.2221972218488
 20
149.1267074939644
 30
0.0
 40
0.4999996264625369
100
AcDbArc
 50
269.9999571957111
 51
0.0000428042855519
  0
ARC
  5
354
330
1F
100
AcDbEntity
  8
0
  6
Continuous
 62
     7
100
AcDbCircle
 10
202.4221964747735
 20
149.1267074939644
 30
0.0
 40
0.4999996264625655
100
AcDbArc
 50
179.9999571957144
 51
270.0000428042887
  0
LINE
  5
355
330
1F
100
AcDbEntity
  8
0
  6
Continuous
 62
     7
100
AcDbLine
 10
204.422196848311
 20
148.6267078675022
 30
0.0
 11
202.422196848311
 21
148.6267078675022
 31
0.0
  0
LINE
  5
356
330
1F
100
AcDbEntity
  8
0
  6
Continuous
 62
     7
100
AcDbLine
 10
210.6221968483112
 20
148.6267078675022
 30
0.0
 11
208.6221968483112
 21
148.6267078675022
 31
0.0
  0
ARC
  5
357
330
1F
100
AcDbEntity
  8
0
  6
Continuous
 62
     7
100
AcDbCircle
 10
208.6221964747736
 20
149.1267074939644
 30
0.0
 40
0.4999996264625655
100
AcDbArc
 50
179.9999571957144
 51
270.0000428042887
  0
ARC
  5
358
330
1F
100
AcDbEntity
  8
0
  6
Continuous
 62
     7
100
AcDbCircle
 10
210.6221972218488
 20
149.1267074939644
 30
0.0
 40
0.4999996264625369
100
AcDbArc
 50
269.9999571957111
 51
0.0000428042855519
  0
ARC
  5
359
330
1F
100
AcDbEntity
  8
0
  6
Continuous
 62
     7
100
AcDbCircle
 10
220.9221972218486
 20
131.1267074939644
 30
0.0
 40
0.4999996264625939
100
AcDbArc
 50
269.9999571957174
 51
0.0000428042920657
  0
ARC
  5
35A
330
1F
100
AcDbEntity
  8
0
  6
Continuous
 62
     7
100
AcDbCircle
 10
220.9221972218486
 20
136.1267082410396
 30
0.0
 40
0.4999996264625655
100
AcDbArc
 50
359.9999571957143
 51
90.00004280428878
  0
LINE
  5
35B
330
1F
100
AcDbEntity
  8
0
  6
Continuous
 62
     7
100
AcDbLine
 10
221.4221968483112
 20
136.1267078675022
 30
0.0
 11
221.4221968483112
 21
131.1267078675022
 31
0.0
  0
ARC
  5
35C
330
1F
100
AcDbEntity
  8
0
  6
Continuous
 62
     7
100
AcDbCircle
 10
220.8221975953863
 20
143.7267071204269
 30
0.0
 40
0.9999992529251022
100
AcDbArc
 50
269.9999571957127
 51
0.0000428042871804
  0
ARC
  5
35D
330
1F
100
AcDbEntity
  8
0
  6
Continuous
 62
     7
100
AcDbCircle
 10
216.8221972218488
 20
149.1267074939644
 30
0.0
 40
0.4999996264625369
100
AcDbArc
 50
269.9999571957111
 51
0.0000428042855519
  0
ARC
  5
35E
330
1F
100
AcDbEntity
  8
0
  6
Continuous
 62
     7
100
AcDbCircle
 10
214.8221964747735
 20
149.1267074939644
 30
0.0
 40
0.4999996264625655
100
AcDbArc
 50
179.9999571957144
 51
270.0000428042887
  0
LINE
  5
35F
330
1F
100
AcDbEntity
  8
0
  6
Continuous
 62
     7
100
AcDbLine
 10
216.822196848311
 20
148.6267078675022
 30
0.0
 11
214.822196848311
 21
148.6267078675022
 31
0.0
  0
ARC
  5
360
330
1F
100
AcDbEntity
  8
0
  6
Continuous
 62
     7
100
AcDbCircle
 10
218.0221972218488
 20
145.7267074939645
 30
0.0
 40
0.4999996264625369
100
AcDbArc
 50
269.9999571957111
 51
0.0000428042855519
  0
LINE
  5
361
330
1F
100
AcDbEntity
  8
0
  6
Continuous
 62
     7
100
AcDbLine
 10
212.2712068483112
 20
162.9882588675021
 30
0.0
 11
215.1194778483112
 21
162.9882588675021
 31
0.0
  0
LINE
  5
362
330
1F
100
AcDbEntity
  8
0
  6
Continuous
 62
     7
100
AcDbLine
 10
212.4263738483112
 20
163.8682588675021
 30
0.0
 11
215.2746458483111
 21
163.8682588675021
 31
0.0
  0
LINE
  5
363
330
1F
100
AcDbEntity
  8
0
  6
Continuous
 62
     7
100
AcDbLine
 10
211.796004848311
 20
160.2932588675022
 30
0.0
 11
214.644276848311
 21
160.2932588675022
 31
0.0
  0
LINE
  5
364
330
1F
100
AcDbEntity
  8
0
  6
Continuous
 62
     7
100
AcDbLine
 10
212.9015758483109
 20
166.563258867502
 30
0.0
 11
215.749846848311
 21
166.563258867502
 31
0.0
  0
LINE
  5
365
330
1F
100
AcDbEntity
  8
0
  6
Continuous
 62
     7
100
AcDbLine
 10
213.056742848311
 20
167.4432588675021
 30
0.0
 11
215.9050148483112
 21
167.4432588675021
 31
0.0
  0
LINE
  5
366
330
1F
100
AcDbEntity
  8
0
  6
Continuous
 62
     7
100
AcDbLine
 10
211.640837848311
 20
159.4132588675021
 30
0.0
 11
214.489109848311
 21
159.4132588675021
 31
0.0
  0
LINE
  5
367
330
1F
100
AcDbEntity
  8
0
  6
Continuous
 62
     7
100
AcDbLine
 10
211.3776308483112
 20
162.9882588675021
 30
0.0
 11
210.902429848311
 21
160.2932598675019
 31
0.0
  0
LINE
  5
368
330
1F
100
AcDbEntity
  8
0
  6
Continuous
 62
     7
100
AcDbLine
 10
212.2712068483112
 20
162.9882588675021
 30
0.0
 11
211.796004848311
 21
160.2932588675022
 31
0.0
  0
LINE
  5
369
330
1F
100
AcDbEntity
  8
0
  6
Continuous
 62
     7
100
AcDbLine
 10
204.502630848311
 20
162.9882588675021
 30
0.0
 11
204.027429848311
 21
160.2932598675019
 31
0.0
  0
LINE
  5
36A
330
1F
100
AcDbEntity
  8
0
  6
Continuous
 62
     7
100
AcDbLine
 10
209.1276088483112
 20
162.9882588675021
 30
0.0
 11
208.6598428483112
 21
160.290733867502
 31
0.0
  0
LINE
  5
36B
330
1F
100
AcDbEntity
  8
0
  6
Continuous
 62
     7
100
AcDbLine
 10
208.244477848311
 20
162.9882588675021
 30
0.0
 11
207.7692768483112
 21
160.2932588675022
 31
0.0
  0
LINE
  5
36C
330
1F
100
AcDbEntity
  8
0
  6
Continuous
 62
     7
100
AcDbLine
 10
205.396206848311
 20
162.9882588675021
 30
0.0
 11
204.921004848311
 21
160.2932588675022
 31
0.0
  0
LINE
  5
36D
330
1F
100
AcDbEntity
  8
0
  6
Continuous
 62
     7
100
AcDbLine
 10
197.627630848311
 20
162.9882588675021
 30
0.0
 11
197.152429848311
 21
160.2932598675019
 31
0.0
  0
LINE
  5
36E
330
1F
100
AcDbEntity
  8
0
  6
Continuous
 62
     7
100
AcDbLine
 10
202.252608848311
 20
162.9882588675021
 30
0.0
 11
201.7848428483111
 21
160.290733867502
 31
0.0
  0
LINE
  5
36F
330
1F
100
AcDbEntity
  8
0
  6
Continuous
 62
     7
100
AcDbLine
 10
201.369477848311
 20
162.9882588675021
 30
0.0
 11
200.8942768483112
 21
160.2932588675022
 31
0.0
  0
LINE
  5
370
330
1F
100
AcDbEntity
  8
0
  6
Continuous
 62
     7
100
AcDbLine
 10
198.5212068483109
 20
162.9882588675021
 30
0.0
 11
198.046004848311
 21
160.2932588675022
 31
0.0
  0
LINE
  5
371
330
1F
100
AcDbEntity
  8
0
  6
Continuous
 62
     7
100
AcDbLine
 10
204.921004848311
 20
160.2932588675022
 30
0.0
 11
204.396633848311
 21
159.853259867502
 31
0.0
  0
LINE
  5
372
330
1F
100
AcDbEntity
  8
0
  6
Continuous
 62
     7
100
AcDbLine
 10
204.7658378483109
 20
159.4132588675021
 30
0.0
 11
207.6141098483112
 21
159.4132588675021
 31
0.0
  0
ARC
  5
373
330
1F
100
AcDbEntity
  8
0
  6
Continuous
 62
     7
100
AcDbCircle
 10
204.4221972218488
 20
149.7267082410395
 30
0.0
 40
0.4999996264625085
100
AcDbArc
 50
359.9999571957078
 51
90.00004280428553
  0
ARC
  5
374
330
1F
100
AcDbEntity
  8
0
  6
Continuous
 62
     7
100
AcDbCircle
 10
198.2221972218488
 20
149.7267082410395
 30
0.0
 40
0.4999996264625655
100
AcDbArc
 50
359.9999571957143
 51
90.00004280428878
  0
ARC
  5
375
330
1F
100
AcDbEntity
  8
0
  6
Continuous
 62
     7
100
AcDbCircle
 10
202.4221964747735
 20
149.7267082410395
 30
0.0
 40
0.4999996264625369
100
AcDbArc
 50
89.99995719571119
 51
180.0000428042855
  0
LINE
  5
376
330
1F
100
AcDbEntity
  8
0
  6
Continuous
 62
     7
100
AcDbLine
 10
202.422196848311
 20
150.2267078675022
 30
0.0
 11
204.422196848311
 21
150.2267078675022
 31
0.0
  0
LINE
  5
377
330
1F
100
AcDbEntity
  8
0
  6
Continuous
 62
     7
100
AcDbLine
 10
200.7391098483112
 20
159.4132588675021
 30
0.0
 11
201.7848428483111
 21
160.290733867502
 31
0.0
  0
LINE
  5
378
330
1F
100
AcDbEntity
  8
0
  6
Continuous
 62
     7
100
AcDbLine
 10
198.046004848311
 20
160.2932588675022
 30
0.0
 11
200.8942768483112
 21
160.2932588675022
 31
0.0
  0
LINE
  5
379
330
1F
100
AcDbEntity
  8
0
  6
Continuous
 62
     7
100
AcDbLine
 10
198.046004848311
 20
160.2932588675022
 30
0.0
 11
197.5216338483109
 21
159.853259867502
 31
0.0
  0
LINE
  5
37A
330
1F
100
AcDbEntity
  8
0
  6
Continuous
 62
     7
100
AcDbLine
 10
197.152429848311
 20
160.2932598675019
 30
0.0
 11
197.8908378483111
 21
159.4132588675021
 31
0.0
  0
LINE
  5
37B
330
1F
100
AcDbEntity
  8
0
  6
Continuous
 62
     7
100
AcDbLine
 10
197.8908378483111
 20
159.4132588675021
 30
0.0
 11
200.7391098483112
 21
159.4132588675021
 31
0.0
  0
LINE
  5
37C
330
1F
100
AcDbEntity
  8
0
  6
Continuous
 62
     7
100
AcDbLine
 10
204.027429848311
 20
160.2932598675019
 30
0.0
 11
204.7658378483109
 21
159.4132588675021
 31
0.0
  0
LINE
  5
37D
330
1F
100
AcDbEntity
  8
0
  6
Continuous
 62
     7
100
AcDbLine
 10
200.8942768483112
 20
160.2932588675022
 30
0.0
 11
201.263480848311
 21
159.8532588675022
 31
0.0
  0
LINE
  5
381
330
1F
100
AcDbEntity
  8
0
  6
Continuous
 62
     7
100
AcDbLine
 10
208.6221968483112
 20
150.2267078675022
 30
0.0
 11
210.6221968483112
 21
150.2267078675022
 31
0.0
  0
ARC
  5
382
330
1F
100
AcDbEntity
  8
0
  6
Continuous
 62
     7
100
AcDbCircle
 10
208.6221964747736
 20
149.7267082410395
 30
0.0
 40
0.4999996264625369
100
AcDbArc
 50
89.99995719571119
 51
180.0000428042855
  0
ARC
  5
383
330
1F
100
AcDbEntity
  8
0
  6
Continuous
 62
     7
100
AcDbCircle
 10
210.6221972218488
 20
149.7267082410395
 30
0.0
 40
0.4999996264625655
100
AcDbArc
 50
359.9999571957143
 51
90.00004280428878
  0
LINE
  5
385
330
1F
100
AcDbEntity
  8
0
  6
Continuous
 62
     7
100
AcDbLine
 10
207.7692768483112
 20
160.2932588675022
 30
0.0
 11
208.138480848311
 21
159.8532588675022
 31
0.0
  0
LINE
  5
386
330
1F
100
AcDbEntity
  8
0
  6
Continuous
 62
     7
100
AcDbLine
 10
207.6141098483112
 20
159.4132588675021
 30
0.0
 11
208.6598428483112
 21
160.290733867502
 31
0.0
  0
LINE
  5
387
330
1F
100
AcDbEntity
  8
0
  6
Continuous
 62
     7
100
AcDbLine
 10
204.921004848311
 20
160.2932588675022
 30
0.0
 11
207.7692768483112
 21
160.2932588675022
 31
0.0
  0
LINE
  5
388
330
1F
100
AcDbEntity
  8
0
  6
Continuous
 62
     7
100
AcDbLine
 10
211.796004848311
 20
160.2932588675022
 30
0.0
 11
211.2716338483112
 21
159.853259867502
 31
0.0
  0
LINE
  5
389
330
1F
100
AcDbEntity
  8
0
  6
Continuous
 62
     7
100
AcDbLine
 10
210.902429848311
 20
160.2932598675019
 30
0.0
 11
211.640837848311
 21
159.4132588675021
 31
0.0
  0
LINE
  5
38C
330
1F
100
AcDbEntity
  8
0
  6
Continuous
 62
     7
100
AcDbLine
 10
204.6709798483109
 20
163.8682588675021
 30
0.0
 11
205.396206848311
 21
162.9882588675021
 31
0.0
  0
LINE
  5
38D
330
1F
100
AcDbEntity
  8
0
  6
Continuous
 62
     7
100
AcDbLine
 10
205.551373848311
 20
163.8682588675021
 30
0.0
 11
204.502630848311
 21
162.9882588675021
 31
0.0
  0
LINE
  5
38E
330
1F
100
AcDbEntity
  8
0
  6
Continuous
 62
     7
100
AcDbLine
 10
205.132999848311
 20
166.5632598675021
 30
0.0
 11
204.6581958483112
 21
163.870512867502
 31
0.0
  0
LINE
  5
38F
330
1F
100
AcDbEntity
  8
0
  6
Continuous
 62
     7
100
AcDbLine
 10
202.8934228483112
 20
166.5632598675021
 30
0.0
 11
202.155014848311
 21
167.4432588675021
 31
0.0
  0
LINE
  5
390
330
1F
100
AcDbEntity
  8
0
  6
Continuous
 62
     7
100
AcDbLine
 10
199.3067428483112
 20
167.4432588675021
 30
0.0
 11
198.257999848311
 21
166.5632598675021
 31
0.0
  0
LINE
  5
391
330
1F
100
AcDbEntity
  8
0
  6
Continuous
 62
     7
100
AcDbLine
 10
198.5212068483109
 20
162.9882588675021
 30
0.0
 11
201.369477848311
 21
162.9882588675021
 31
0.0
  0
LINE
  5
392
330
1F
100
AcDbEntity
  8
0
  6
Continuous
 62
     7
100
AcDbLine
 10
198.676373848311
 20
163.8682588675021
 30
0.0
 11
201.524645848311
 21
163.8682588675021
 31
0.0
  0
LINE
  5
393
330
1F
100
AcDbEntity
  8
0
  6
Continuous
 62
     7
100
AcDbLine
 10
199.151575848311
 20
166.563258867502
 30
0.0
 11
201.9998468483112
 21
166.563258867502
 31
0.0
  0
LINE
  5
394
330
1F
100
AcDbEntity
  8
0
  6
Continuous
 62
     7
100
AcDbLine
 10
199.151575848311
 20
166.563258867502
 30
0.0
 11
198.782370848311
 21
167.003258867502
 31
0.0
  0
LINE
  5
395
330
1F
100
AcDbEntity
  8
0
  6
Continuous
 62
     7
100
AcDbLine
 10
198.676373848311
 20
163.8682588675021
 30
0.0
 11
199.151575848311
 21
166.563258867502
 31
0.0
  0
LINE
  5
396
330
1F
100
AcDbEntity
  8
0
  6
Continuous
 62
     7
100
AcDbLine
 10
197.7959798483109
 20
163.8682588675021
 30
0.0
 11
198.5212068483109
 21
162.9882588675021
 31
0.0
  0
LINE
  5
397
330
1F
100
AcDbEntity
  8
0
  6
Continuous
 62
     7
100
AcDbLine
 10
198.676373848311
 20
163.8682588675021
 30
0.0
 11
197.627630848311
 21
162.9882588675021
 31
0.0
  0
LINE
  5
398
330
1F
100
AcDbEntity
  8
0
  6
Continuous
 62
     7
100
AcDbLine
 10
198.257999848311
 20
166.5632598675021
 30
0.0
 11
197.7831958483112
 21
163.870512867502
 31
0.0
  0
LINE
  5
399
330
1F
100
AcDbEntity
  8
0
  6
Continuous
 62
     7
100
AcDbLine
 10
201.9998468483112
 20
166.563258867502
 30
0.0
 11
202.524218848311
 21
167.003258867502
 31
0.0
  0
LINE
  5
39A
330
1F
100
AcDbEntity
  8
0
  6
Continuous
 62
     7
100
AcDbLine
 10
201.524645848311
 20
163.8682588675021
 30
0.0
 11
201.9998468483112
 21
166.563258867502
 31
0.0
  0
LINE
  5
39B
330
1F
100
AcDbEntity
  8
0
  6
Continuous
 62
     7
100
AcDbLine
 10
201.524645848311
 20
163.8682588675021
 30
0.0
 11
202.252608848311
 21
162.9882588675021
 31
0.0
  0
LINE
  5
39C
330
1F
100
AcDbEntity
  8
0
  6
Continuous
 62
     7
100
AcDbLine
 10
201.369477848311
 20
162.9882588675021
 30
0.0
 11
202.4147168483112
 21
163.8682588675021
 31
0.0
  0
LINE
  5
39D
330
1F
100
AcDbEntity
  8
0
  6
Continuous
 62
     7
100
AcDbLine
 10
202.8934228483112
 20
166.5632598675021
 30
0.0
 11
202.4181158483111
 21
163.867659867502
 31
0.0
  0
LINE
  5
39E
330
1F
100
AcDbEntity
  8
0
  6
Continuous
 62
     7
100
AcDbLine
 10
199.3067428483112
 20
167.4432588675021
 30
0.0
 11
202.155014848311
 21
167.4432588675021
 31
0.0
  0
LINE
  5
39F
330
1F
100
AcDbEntity
  8
0
  6
Continuous
 62
     7
100
AcDbLine
 10
213.056742848311
 20
167.4432588675021
 30
0.0
 11
212.007999848311
 21
166.5632598675021
 31
0.0
  0
LINE
  5
3A0
330
1F
100
AcDbEntity
  8
0
  6
Continuous
 62
     7
100
AcDbLine
 10
209.7684228483112
 20
166.5632598675021
 30
0.0
 11
209.0300148483112
 21
167.4432588675021
 31
0.0
  0
LINE
  5
3A1
330
1F
100
AcDbEntity
  8
0
  6
Continuous
 62
     7
100
AcDbLine
 10
206.1817428483112
 20
167.4432588675021
 30
0.0
 11
205.132999848311
 21
166.5632598675021
 31
0.0
  0
LINE
  5
3A2
330
1F
100
AcDbEntity
  8
0
  6
Continuous
 62
     7
100
AcDbLine
 10
208.8748468483112
 20
166.563258867502
 30
0.0
 11
209.399218848311
 21
167.003258867502
 31
0.0
  0
LINE
  5
3A3
330
1F
100
AcDbEntity
  8
0
  6
Continuous
 62
     7
100
AcDbLine
 10
208.399645848311
 20
163.8682588675021
 30
0.0
 11
209.1276088483112
 21
162.9882588675021
 31
0.0
  0
LINE
  5
3A4
330
1F
100
AcDbEntity
  8
0
  6
Continuous
 62
     7
100
AcDbLine
 10
208.244477848311
 20
162.9882588675021
 30
0.0
 11
209.2897168483112
 21
163.8682588675021
 31
0.0
  0
LINE
  5
3A5
330
1F
100
AcDbEntity
  8
0
  6
Continuous
 62
     7
100
AcDbLine
 10
206.026575848311
 20
166.563258867502
 30
0.0
 11
205.657370848311
 21
167.003258867502
 31
0.0
  0
LINE
  5
3A6
330
1F
100
AcDbEntity
  8
0
  6
Continuous
 62
     7
100
AcDbLine
 10
205.551373848311
 20
163.8682588675021
 30
0.0
 11
206.026575848311
 21
166.563258867502
 31
0.0
  0
LINE
  5
3A7
330
1F
100
AcDbEntity
  8
0
  6
Continuous
 62
     7
100
AcDbLine
 10
208.399645848311
 20
163.8682588675021
 30
0.0
 11
208.8748468483112
 21
166.563258867502
 31
0.0
  0
LINE
  5
3A8
330
1F
100
AcDbEntity
  8
0
  6
Continuous
 62
     7
100
AcDbLine
 10
205.396206848311
 20
162.9882588675021
 30
0.0
 11
208.244477848311
 21
162.9882588675021
 31
0.0
  0
LINE
  5
3A9
330
1F
100
AcDbEntity
  8
0
  6
Continuous
 62
     7
100
AcDbLine
 10
205.551373848311
 20
163.8682588675021
 30
0.0
 11
208.399645848311
 21
163.8682588675021
 31
0.0
  0
LINE
  5
3AA
330
1F
100
AcDbEntity
  8
0
  6
Continuous
 62
     7
100
AcDbLine
 10
206.026575848311
 20
166.563258867502
 30
0.0
 11
208.8748468483112
 21
166.563258867502
 31
0.0
  0
LINE
  5
3AB
330
1F
100
AcDbEntity
  8
0
  6
Continuous
 62
     7
100
AcDbLine
 10
212.9015758483109
 20
166.563258867502
 30
0.0
 11
212.5323708483112
 21
167.003258867502
 31
0.0
  0
LINE
  5
3AC
330
1F
100
AcDbEntity
  8
0
  6
Continuous
 62
     7
100
AcDbLine
 10
212.4263738483112
 20
163.8682588675021
 30
0.0
 11
212.9015758483109
 21
166.563258867502
 31
0.0
  0
LINE
  5
3AD
330
1F
100
AcDbEntity
  8
0
  6
Continuous
 62
     7
100
AcDbLine
 10
211.5459798483112
 20
163.8682588675021
 30
0.0
 11
212.2712068483112
 21
162.9882588675021
 31
0.0
  0
LINE
  5
3AE
330
1F
100
AcDbEntity
  8
0
  6
Continuous
 62
     7
100
AcDbLine
 10
212.4263738483112
 20
163.8682588675021
 30
0.0
 11
211.3776308483112
 21
162.9882588675021
 31
0.0
  0
LINE
  5
3AF
330
1F
100
AcDbEntity
  8
0
  6
Continuous
 62
     7
100
AcDbLine
 10
212.007999848311
 20
166.5632598675021
 30
0.0
 11
211.5331958483112
 21
163.870512867502
 31
0.0
  0
LINE
  5
3B0
330
1F
100
AcDbEntity
  8
0
  6
Continuous
 62
     7
100
AcDbLine
 10
209.7684228483112
 20
166.5632598675021
 30
0.0
 11
209.2931158483112
 21
163.867659867502
 31
0.0
  0
LINE
  5
3B1
330
1F
100
AcDbEntity
  8
0
  6
Continuous
 62
     7
100
AcDbLine
 10
206.1817428483112
 20
167.4432588675021
 30
0.0
 11
209.0300148483112
 21
167.4432588675021
 31
0.0
  0
LINE
  5
3B2
330
1F
100
AcDbEntity
  8
0
  6
Continuous
 62
     7
100
AcDbLine
 10
216.002608848311
 20
162.9882588675021
 30
0.0
 11
215.5348428483113
 21
160.290733867502
 31
0.0
  0
LINE
  5
3B3
330
1F
100
AcDbEntity
  8
0
  6
Continuous
 62
     7
100
AcDbLine
 10
215.1194778483112
 20
162.9882588675021
 30
0.0
 11
214.644276848311
 21
160.2932588675022
 31
0.0
  0
LINE
  5
3B4
330
1F
100
AcDbEntity
  8
0
  6
Continuous
 62
     7
100
AcDbLine
 10
217.4221968483112
 20
158.8267078675021
 30
0.0
 11
217.4221968483112
 21
168.026707867502
 31
0.0
  0
LINE
  5
3B5
330
1F
100
AcDbEntity
  8
0
  6
Continuous
 62
     7
100
AcDbLine
 10
218.522196848311
 20
154.9267078675021
 30
0.0
 11
218.522196848311
 21
169.2267078675022
 31
0.0
  0
ARC
  5
3B6
330
1F
100
AcDbEntity
  8
0
  6
Continuous
 62
     7
100
AcDbCircle
 10
216.8221972218488
 20
149.7267082410395
 30
0.0
 40
0.4999996264625655
100
AcDbArc
 50
359.9999571957143
 51
90.00004280428878
  0
ARC
  5
3B7
330
1F
100
AcDbEntity
  8
0
  6
Continuous
 62
     7
100
AcDbCircle
 10
214.8221964747735
 20
149.7267082410395
 30
0.0
 40
0.4999996264625369
100
AcDbArc
 50
89.99995719571119
 51
180.0000428042855
  0
LINE
  5
3B8
330
1F
100
AcDbEntity
  8
0
  6
Continuous
 62
     7
100
AcDbLine
 10
214.822196848311
 20
150.2267078675022
 30
0.0
 11
216.822196848311
 21
150.2267078675022
 31
0.0
  0
ARC
  5
3B9
330
1F
100
AcDbEntity
  8
0
  6
Continuous
 62
     7
100
AcDbCircle
 10
218.0221972218488
 20
150.9267082410397
 30
0.0
 40
0.4999996264625939
100
AcDbArc
 50
359.9999571957078
 51
90.0000428042823
  0
ARC
  5
3BA
330
1F
100
AcDbEntity
  8
0
  6
Continuous
 62
     7
100
AcDbCircle
 10
218.0221972218489
 20
154.9267074939645
 30
0.0
 40
0.4999996264625085
100
AcDbArc
 50
269.9999571957079
 51
0.000042804282295
  0
ARC
  5
3BB
330
1F
100
AcDbEntity
  8
0
  6
Continuous
 62
     7
100
AcDbCircle
 10
216.9221972218488
 20
158.8267074939643
 30
0.0
 40
0.4999996264625655
100
AcDbArc
 50
269.9999571957174
 51
0.0000428042920657
  0
LINE
  5
3BC
330
1F
100
AcDbEntity
  8
0
  6
Continuous
 62
     7
100
AcDbLine
 10
214.644276848311
 20
160.2932588675022
 30
0.0
 11
215.0134808483112
 21
159.8532588675022
 31
0.0
  0
LINE
  5
3BD
330
1F
100
AcDbEntity
  8
0
  6
Continuous
 62
     7
100
AcDbLine
 10
214.489109848311
 20
159.4132588675021
 30
0.0
 11
215.5348428483113
 21
160.290733867502
 31
0.0
  0
LINE
  5
3C1
330
1F
100
AcDbEntity
  8
0
  6
Continuous
 62
     7
100
AcDbLine
 10
216.643422848311
 20
166.5632598675021
 30
0.0
 11
215.9050148483112
 21
167.4432588675021
 31
0.0
  0
LINE
  5
3C2
330
1F
100
AcDbEntity
  8
0
  6
Continuous
 62
     7
100
AcDbLine
 10
215.749846848311
 20
166.563258867502
 30
0.0
 11
216.2742188483111
 21
167.003258867502
 31
0.0
  0
LINE
  5
3C3
330
1F
100
AcDbEntity
  8
0
  6
Continuous
 62
     7
100
AcDbLine
 10
215.2746458483111
 20
163.8682588675021
 30
0.0
 11
215.749846848311
 21
166.563258867502
 31
0.0
  0
LINE
  5
3C4
330
1F
100
AcDbEntity
  8
0
  6
Continuous
 62
     7
100
AcDbLine
 10
215.2746458483111
 20
163.8682588675021
 30
0.0
 11
216.002608848311
 21
162.9882588675021
 31
0.0
  0
LINE
  5
3C5
330
1F
100
AcDbEntity
  8
0
  6
Continuous
 62
     7
100
AcDbLine
 10
215.1194778483112
 20
162.9882588675021
 30
0.0
 11
216.1647168483113
 21
163.8682588675021
 31
0.0
  0
LINE
  5
3C6
330
1F
100
AcDbEntity
  8
0
  6
Continuous
 62
     7
100
AcDbLine
 10
216.643422848311
 20
166.5632598675021
 30
0.0
 11
216.1681158483113
 21
163.867659867502
 31
0.0
  0
ARC
  5
3C7
330
1F
100
AcDbEntity
  8
0
  6
Continuous
 62
     7
100
AcDbCircle
 10
216.9221972218488
 20
168.0267082410397
 30
0.0
 40
0.4999996264625085
100
AcDbArc
 50
359.9999571957078
 51
90.00004280428553
  0
ARC
  5
3C8
330
1F
100
AcDbEntity
  8
0
  6
Continuous
 62
     7
100
AcDbCircle
 10
218.0221972218488
 20
172.4267074939644
 30
0.0
 40
0.4999996264625369
100
AcDbArc
 50
269.9999571957111
 51
0.0000428042888088
  0
ARC
  5
3C9
330
1F
100
AcDbEntity
  8
0
  6
Continuous
 62
     7
100
AcDbCircle
 10
218.0221972218488
 20
169.2267082410396
 30
0.0
 40
0.4999996264625369
100
AcDbArc
 50
359.9999571957112
 51
90.00004280428878
  0
LINE
  5
3CA
330
1F
100
AcDbEntity
  8
0
  6
Continuous
 62
     7
100
AcDbLine
 10
267.6245898483112
 20
104.2267078675022
 30
0.0
 11
265.6245898483112
 21
104.2267078675022
 31
0.0
  0
LINE
  5
3CB
330
1F
100
AcDbEntity
  8
0
  6
Continuous
 62
     7
100
AcDbLine
 10
265.6245898483112
 20
104.2267078675022
 30
0.0
 11
263.124589848311
 21
104.2267078675022
 31
0.0
  0
ARC
  5
3CC
330
1F
100
AcDbEntity
  8
0
  6
Continuous
 62
     7
100
AcDbCircle
 10
263.1245879806233
 20
197.7267097351901
 30
0.0
 40
2.49999813231274
100
AcDbArc
 50
89.99995719571279
 51
180.0000428042871
  0
ARC
  5
3CD
330
1F
100
AcDbEntity
  8
0
  6
Continuous
 62
     7
100
AcDbCircle
 10
222.9221975953862
 20
195.5267086145773
 30
0.0
 40
0.9999992529251022
100
AcDbArc
 50
359.9999571957126
 51
90.00004280428717
  0
LINE
  5
3CE
330
1F
100
AcDbEntity
  8
0
  6
Continuous
 62
     7
100
AcDbLine
 10
212.2712068483112
 20
180.4882588675021
 30
0.0
 11
215.1194778483112
 21
180.4882588675021
 31
0.0
  0
LINE
  5
3CF
330
1F
100
AcDbEntity
  8
0
  6
Continuous
 62
     7
100
AcDbLine
 10
212.4263738483112
 20
181.3682588675021
 30
0.0
 11
215.2746458483111
 21
181.3682588675021
 31
0.0
  0
LINE
  5
3D0
330
1F
100
AcDbEntity
  8
0
  6
Continuous
 62
     7
100
AcDbLine
 10
211.796004848311
 20
177.7932588675021
 30
0.0
 11
214.644276848311
 21
177.7932588675021
 31
0.0
  0
LINE
  5
3D1
330
1F
100
AcDbEntity
  8
0
  6
Continuous
 62
     7
100
AcDbLine
 10
212.9015758483109
 20
184.063258867502
 30
0.0
 11
215.749846848311
 21
184.063258867502
 31
0.0
  0
LINE
  5
3D2
330
1F
100
AcDbEntity
  8
0
  6
Continuous
 62
     7
100
AcDbLine
 10
213.056742848311
 20
184.9432588675019
 30
0.0
 11
215.9050148483112
 21
184.9432588675019
 31
0.0
  0
LINE
  5
3D3
330
1F
100
AcDbEntity
  8
0
  6
Continuous
 62
     7
100
AcDbLine
 10
211.640837848311
 20
176.9132588675019
 30
0.0
 11
214.489109848311
 21
176.9132588675019
 31
0.0
  0
LINE
  5
3D4
330
1F
100
AcDbEntity
  8
0
  6
Continuous
 62
     7
100
AcDbLine
 10
212.9015758483109
 20
184.063258867502
 30
0.0
 11
212.5323708483112
 21
184.5032588675021
 31
0.0
  0
LINE
  5
3D5
330
1F
100
AcDbEntity
  8
0
  6
Continuous
 62
     7
100
AcDbLine
 10
213.056742848311
 20
184.9432588675019
 30
0.0
 11
212.007999848311
 21
184.063259867502
 31
0.0
  0
LINE
  5
3D6
330
1F
100
AcDbEntity
  8
0
  6
Continuous
 62
     7
100
AcDbLine
 10
208.8748468483112
 20
184.063258867502
 30
0.0
 11
209.399218848311
 21
184.5032588675021
 31
0.0
  0
LINE
  5
3D7
330
1F
100
AcDbEntity
  8
0
  6
Continuous
 62
     7
100
AcDbLine
 10
206.026575848311
 20
184.063258867502
 30
0.0
 11
205.657370848311
 21
184.5032588675021
 31
0.0
  0
LINE
  5
3D8
330
1F
100
AcDbEntity
  8
0
  6
Continuous
 62
     7
100
AcDbLine
 10
209.7684228483112
 20
184.063259867502
 30
0.0
 11
209.0300148483112
 21
184.9432588675019
 31
0.0
  0
LINE
  5
3D9
330
1F
100
AcDbEntity
  8
0
  6
Continuous
 62
     7
100
AcDbLine
 10
206.1817428483112
 20
184.9432588675019
 30
0.0
 11
205.132999848311
 21
184.063259867502
 31
0.0
  0
LINE
  5
3DA
330
1F
100
AcDbEntity
  8
0
  6
Continuous
 62
     7
100
AcDbLine
 10
201.9998468483112
 20
184.063258867502
 30
0.0
 11
202.524218848311
 21
184.5032588675021
 31
0.0
  0
LINE
  5
3DB
330
1F
100
AcDbEntity
  8
0
  6
Continuous
 62
     7
100
AcDbLine
 10
199.151575848311
 20
184.063258867502
 30
0.0
 11
198.782370848311
 21
184.5032588675021
 31
0.0
  0
LINE
  5
3DC
330
1F
100
AcDbEntity
  8
0
  6
Continuous
 62
     7
100
AcDbLine
 10
202.8934228483112
 20
184.063259867502
 30
0.0
 11
202.155014848311
 21
184.9432588675019
 31
0.0
  0
LINE
  5
3DD
330
1F
100
AcDbEntity
  8
0
  6
Continuous
 62
     7
100
AcDbLine
 10
199.3067428483112
 20
184.9432588675019
 30
0.0
 11
198.257999848311
 21
184.063259867502
 31
0.0
  0
LINE
  5
3DE
330
1F
100
AcDbEntity
  8
0
  6
Continuous
 62
     7
100
AcDbLine
 10
204.921004848311
 20
177.7932588675021
 30
0.0
 11
204.396633848311
 21
177.3532598675019
 31
0.0
  0
LINE
  5
3DF
330
1F
100
AcDbEntity
  8
0
  6
Continuous
 62
     7
100
AcDbLine
 10
204.6709798483109
 20
181.3682588675021
 30
0.0
 11
205.396206848311
 21
180.4882588675021
 31
0.0
  0
LINE
  5
3E0
330
1F
100
AcDbEntity
  8
0
  6
Continuous
 62
     7
100
AcDbLine
 10
205.551373848311
 20
181.3682588675021
 30
0.0
 11
204.502630848311
 21
180.4882588675021
 31
0.0
  0
LINE
  5
3E1
330
1F
100
AcDbEntity
  8
0
  6
Continuous
 62
     7
100
AcDbLine
 10
204.7658378483109
 20
176.9132588675019
 30
0.0
 11
207.6141098483112
 21
176.9132588675019
 31
0.0
  0
LINE
  5
3E2
330
1F
100
AcDbEntity
  8
0
  6
Continuous
 62
     7
100
AcDbLine
 10
205.132999848311
 20
184.063259867502
 30
0.0
 11
204.6581958483112
 21
181.3705128675021
 31
0.0
  0
LINE
  5
3E3
330
1F
100
AcDbEntity
  8
0
  6
Continuous
 62
     7
100
AcDbLine
 10
204.502630848311
 20
180.4882588675021
 30
0.0
 11
204.027429848311
 21
177.7932598675019
 31
0.0
  0
LINE
  5
3E4
330
1F
100
AcDbEntity
  8
0
  6
Continuous
 62
     7
100
AcDbLine
 10
197.627630848311
 20
180.4882588675021
 30
0.0
 11
197.152429848311
 21
177.7932598675019
 31
0.0
  0
LINE
  5
3E5
330
1F
100
AcDbEntity
  8
0
  6
Continuous
 62
     7
100
AcDbLine
 10
202.252608848311
 20
180.4882588675021
 30
0.0
 11
201.7848428483111
 21
177.7907338675021
 31
0.0
  0
LINE
  5
3E6
330
1F
100
AcDbEntity
  8
0
  6
Continuous
 62
     7
100
AcDbLine
 10
201.369477848311
 20
180.4882588675021
 30
0.0
 11
200.8942768483112
 21
177.7932588675021
 31
0.0
  0
LINE
  5
3E7
330
1F
100
AcDbEntity
  8
0
  6
Continuous
 62
     7
100
AcDbLine
 10
198.5212068483109
 20
180.4882588675021
 30
0.0
 11
198.046004848311
 21
177.7932588675021
 31
0.0
  0
LINE
  5
3E8
330
1F
100
AcDbEntity
  8
0
  6
Continuous
 62
     7
100
AcDbLine
 10
200.7391098483112
 20
176.9132588675019
 30
0.0
 11
201.7848428483111
 21
177.7907338675021
 31
0.0
  0
LINE
  5
3E9
330
1F
100
AcDbEntity
  8
0
  6
Continuous
 62
     7
100
AcDbLine
 10
198.046004848311
 20
177.7932588675021
 30
0.0
 11
200.8942768483112
 21
177.7932588675021
 31
0.0
  0
LINE
  5
3EA
330
1F
100
AcDbEntity
  8
0
  6
Continuous
 62
     7
100
AcDbLine
 10
198.046004848311
 20
177.7932588675021
 30
0.0
 11
197.5216338483109
 21
177.3532598675019
 31
0.0
  0
LINE
  5
3EB
330
1F
100
AcDbEntity
  8
0
  6
Continuous
 62
     7
100
AcDbLine
 10
197.152429848311
 20
177.7932598675019
 30
0.0
 11
197.8908378483111
 21
176.9132588675019
 31
0.0
  0
LINE
  5
3EC
330
1F
100
AcDbEntity
  8
0
  6
Continuous
 62
     7
100
AcDbLine
 10
197.8908378483111
 20
176.9132588675019
 30
0.0
 11
200.7391098483112
 21
176.9132588675019
 31
0.0
  0
LINE
  5
3ED
330
1F
100
AcDbEntity
  8
0
  6
Continuous
 62
     7
100
AcDbLine
 10
204.027429848311
 20
177.7932598675019
 30
0.0
 11
204.7658378483109
 21
176.9132588675019
 31
0.0
  0
LINE
  5
3EE
330
1F
100
AcDbEntity
  8
0
  6
Continuous
 62
     7
100
AcDbLine
 10
200.8942768483112
 20
177.7932588675021
 30
0.0
 11
201.263480848311
 21
177.3532588675021
 31
0.0
  0
LINE
  5
3F2
330
1F
100
AcDbEntity
  8
0
  6
Continuous
 62
     7
100
AcDbLine
 10
198.5212068483109
 20
180.4882588675021
 30
0.0
 11
201.369477848311
 21
180.4882588675021
 31
0.0
  0
LINE
  5
3F3
330
1F
100
AcDbEntity
  8
0
  6
Continuous
 62
     7
100
AcDbLine
 10
198.676373848311
 20
181.3682588675021
 30
0.0
 11
201.524645848311
 21
181.3682588675021
 31
0.0
  0
LINE
  5
3F4
330
1F
100
AcDbEntity
  8
0
  6
Continuous
 62
     7
100
AcDbLine
 10
199.151575848311
 20
184.063258867502
 30
0.0
 11
201.9998468483112
 21
184.063258867502
 31
0.0
  0
LINE
  5
3F5
330
1F
100
AcDbEntity
  8
0
  6
Continuous
 62
     7
100
AcDbLine
 10
198.676373848311
 20
181.3682588675021
 30
0.0
 11
199.151575848311
 21
184.063258867502
 31
0.0
  0
LINE
  5
3F6
330
1F
100
AcDbEntity
  8
0
  6
Continuous
 62
     7
100
AcDbLine
 10
197.7959798483109
 20
181.3682588675021
 30
0.0
 11
198.5212068483109
 21
180.4882588675021
 31
0.0
  0
LINE
  5
3F7
330
1F
100
AcDbEntity
  8
0
  6
Continuous
 62
     7
100
AcDbLine
 10
198.676373848311
 20
181.3682588675021
 30
0.0
 11
197.627630848311
 21
180.4882588675021
 31
0.0
  0
LINE
  5
3F8
330
1F
100
AcDbEntity
  8
0
  6
Continuous
 62
     7
100
AcDbLine
 10
198.257999848311
 20
184.063259867502
 30
0.0
 11
197.7831958483112
 21
181.3705128675021
 31
0.0
  0
LINE
  5
3F9
330
1F
100
AcDbEntity
  8
0
  6
Continuous
 62
     7
100
AcDbLine
 10
201.524645848311
 20
181.3682588675021
 30
0.0
 11
201.9998468483112
 21
184.063258867502
 31
0.0
  0
LINE
  5
3FA
330
1F
100
AcDbEntity
  8
0
  6
Continuous
 62
     7
100
AcDbLine
 10
201.524645848311
 20
181.3682588675021
 30
0.0
 11
202.252608848311
 21
180.4882588675021
 31
0.0
  0
LINE
  5
3FB
330
1F
100
AcDbEntity
  8
0
  6
Continuous
 62
     7
100
AcDbLine
 10
201.369477848311
 20
180.4882588675021
 30
0.0
 11
202.4147168483112
 21
181.3682588675021
 31
0.0
  0
LINE
  5
3FC
330
1F
100
AcDbEntity
  8
0
  6
Continuous
 62
     7
100
AcDbLine
 10
202.8934228483112
 20
184.063259867502
 30
0.0
 11
202.4181158483111
 21
181.3676598675019
 31
0.0
  0
LINE
  5
3FD
330
1F
100
AcDbEntity
  8
0
  6
Continuous
 62
     7
100
AcDbLine
 10
211.3776308483112
 20
180.4882588675021
 30
0.0
 11
210.902429848311
 21
177.7932598675019
 31
0.0
  0
LINE
  5
3FE
330
1F
100
AcDbEntity
  8
0
  6
Continuous
 62
     7
100
AcDbLine
 10
212.2712068483112
 20
180.4882588675021
 30
0.0
 11
211.796004848311
 21
177.7932588675021
 31
0.0
  0
LINE
  5
3FF
330
1F
100
AcDbEntity
  8
0
  6
Continuous
 62
     7
100
AcDbLine
 10
209.1276088483112
 20
180.4882588675021
 30
0.0
 11
208.6598428483112
 21
177.7907338675021
 31
0.0
  0
LINE
  5
400
330
1F
100
AcDbEntity
  8
0
  6
Continuous
 62
     7
100
AcDbLine
 10
208.244477848311
 20
180.4882588675021
 30
0.0
 11
207.7692768483112
 21
177.7932588675021
 31
0.0
  0
LINE
  5
401
330
1F
100
AcDbEntity
  8
0
  6
Continuous
 62
     7
100
AcDbLine
 10
205.396206848311
 20
180.4882588675021
 30
0.0
 11
204.921004848311
 21
177.7932588675021
 31
0.0
  0
LINE
  5
403
330
1F
100
AcDbEntity
  8
0
  6
Continuous
 62
     7
100
AcDbLine
 10
207.7692768483112
 20
177.7932588675021
 30
0.0
 11
208.138480848311
 21
177.3532588675021
 31
0.0
  0
LINE
  5
404
330
1F
100
AcDbEntity
  8
0
  6
Continuous
 62
     7
100
AcDbLine
 10
207.6141098483112
 20
176.9132588675019
 30
0.0
 11
208.6598428483112
 21
177.7907338675021
 31
0.0
  0
LINE
  5
405
330
1F
100
AcDbEntity
  8
0
  6
Continuous
 62
     7
100
AcDbLine
 10
204.921004848311
 20
177.7932588675021
 30
0.0
 11
207.7692768483112
 21
177.7932588675021
 31
0.0
  0
LINE
  5
406
330
1F
100
AcDbEntity
  8
0
  6
Continuous
 62
     7
100
AcDbLine
 10
211.796004848311
 20
177.7932588675021
 30
0.0
 11
211.2716338483112
 21
177.3532598675019
 31
0.0
  0
LINE
  5
407
330
1F
100
AcDbEntity
  8
0
  6
Continuous
 62
     7
100
AcDbLine
 10
210.902429848311
 20
177.7932598675019
 30
0.0
 11
211.640837848311
 21
176.9132588675019
 31
0.0
  0
LINE
  5
40A
330
1F
100
AcDbEntity
  8
0
  6
Continuous
 62
     7
100
AcDbLine
 10
208.399645848311
 20
181.3682588675021
 30
0.0
 11
209.1276088483112
 21
180.4882588675021
 31
0.0
  0
LINE
  5
40B
330
1F
100
AcDbEntity
  8
0
  6
Continuous
 62
     7
100
AcDbLine
 10
208.244477848311
 20
180.4882588675021
 30
0.0
 11
209.2897168483112
 21
181.3682588675021
 31
0.0
  0
LINE
  5
40C
330
1F
100
AcDbEntity
  8
0
  6
Continuous
 62
     7
100
AcDbLine
 10
205.551373848311
 20
181.3682588675021
 30
0.0
 11
206.026575848311
 21
184.063258867502
 31
0.0
  0
LINE
  5
40D
330
1F
100
AcDbEntity
  8
0
  6
Continuous
 62
     7
100
AcDbLine
 10
208.399645848311
 20
181.3682588675021
 30
0.0
 11
208.8748468483112
 21
184.063258867502
 31
0.0
  0
LINE
  5
40E
330
1F
100
AcDbEntity
  8
0
  6
Continuous
 62
     7
100
AcDbLine
 10
205.396206848311
 20
180.4882588675021
 30
0.0
 11
208.244477848311
 21
180.4882588675021
 31
0.0
  0
LINE
  5
40F
330
1F
100
AcDbEntity
  8
0
  6
Continuous
 62
     7
100
AcDbLine
 10
205.551373848311
 20
181.3682588675021
 30
0.0
 11
208.399645848311
 21
181.3682588675021
 31
0.0
  0
LINE
  5
410
330
1F
100
AcDbEntity
  8
0
  6
Continuous
 62
     7
100
AcDbLine
 10
206.026575848311
 20
184.063258867502
 30
0.0
 11
208.8748468483112
 21
184.063258867502
 31
0.0
  0
LINE
  5
411
330
1F
100
AcDbEntity
  8
0
  6
Continuous
 62
     7
100
AcDbLine
 10
212.4263738483112
 20
181.3682588675021
 30
0.0
 11
212.9015758483109
 21
184.063258867502
 31
0.0
  0
LINE
  5
412
330
1F
100
AcDbEntity
  8
0
  6
Continuous
 62
     7
100
AcDbLine
 10
211.5459798483112
 20
181.3682588675021
 30
0.0
 11
212.2712068483112
 21
180.4882588675021
 31
0.0
  0
LINE
  5
413
330
1F
100
AcDbEntity
  8
0
  6
Continuous
 62
     7
100
AcDbLine
 10
212.4263738483112
 20
181.3682588675021
 30
0.0
 11
211.3776308483112
 21
180.4882588675021
 31
0.0
  0
LINE
  5
414
330
1F
100
AcDbEntity
  8
0
  6
Continuous
 62
     7
100
AcDbLine
 10
212.007999848311
 20
184.063259867502
 30
0.0
 11
211.5331958483112
 21
181.3705128675021
 31
0.0
  0
LINE
  5
415
330
1F
100
AcDbEntity
  8
0
  6
Continuous
 62
     7
100
AcDbLine
 10
209.7684228483112
 20
184.063259867502
 30
0.0
 11
209.2931158483112
 21
181.3676598675019
 31
0.0
  0
LINE
  5
416
330
1F
100
AcDbEntity
  8
0
  6
Continuous
 62
     7
100
AcDbLine
 10
199.3067428483112
 20
184.9432588675019
 30
0.0
 11
202.155014848311
 21
184.9432588675019
 31
0.0
  0
LINE
  5
417
330
1F
100
AcDbEntity
  8
0
  6
Continuous
 62
     7
100
AcDbLine
 10
206.1817428483112
 20
184.9432588675019
 30
0.0
 11
209.0300148483112
 21
184.9432588675019
 31
0.0
  0
LINE
  5
418
330
1F
100
AcDbEntity
  8
0
  6
Continuous
 62
     7
100
AcDbLine
 10
215.749846848311
 20
184.063258867502
 30
0.0
 11
216.2742188483111
 21
184.5032588675021
 31
0.0
  0
LINE
  5
419
330
1F
100
AcDbEntity
  8
0
  6
Continuous
 62
     7
100
AcDbLine
 10
216.643422848311
 20
184.063259867502
 30
0.0
 11
215.9050148483112
 21
184.9432588675019
 31
0.0
  0
LINE
  5
41A
330
1F
100
AcDbEntity
  8
0
  6
Continuous
 62
     7
100
AcDbLine
 10
217.4221968483112
 20
176.3267078675021
 30
0.0
 11
217.4221968483112
 21
185.5267078675019
 31
0.0
  0
LINE
  5
41B
330
1F
100
AcDbEntity
  8
0
  6
Continuous
 62
     7
100
AcDbLine
 10
216.002608848311
 20
180.4882588675021
 30
0.0
 11
215.5348428483113
 21
177.7907338675021
 31
0.0
  0
LINE
  5
41C
330
1F
100
AcDbEntity
  8
0
  6
Continuous
 62
     7
100
AcDbLine
 10
215.1194778483112
 20
180.4882588675021
 30
0.0
 11
214.644276848311
 21
177.7932588675021
 31
0.0
  0
ARC
  5
41D
330
1F
100
AcDbEntity
  8
0
  6
Continuous
 62
     7
100
AcDbCircle
 10
216.9221972218488
 20
176.3267074939645
 30
0.0
 40
0.4999996264625085
100
AcDbArc
 50
269.9999571957111
 51
0.0000428042855519
  0
LINE
  5
41E
330
1F
100
AcDbEntity
  8
0
  6
Continuous
 62
     7
100
AcDbLine
 10
214.644276848311
 20
177.7932588675021
 30
0.0
 11
215.0134808483112
 21
177.3532588675021
 31
0.0
  0
LINE
  5
41F
330
1F
100
AcDbEntity
  8
0
  6
Continuous
 62
     7
100
AcDbLine
 10
214.489109848311
 20
176.9132588675019
 30
0.0
 11
215.5348428483113
 21
177.7907338675021
 31
0.0
  0
LINE
  5
423
330
1F
100
AcDbEntity
  8
0
  6
Continuous
 62
     7
100
AcDbLine
 10
215.2746458483111
 20
181.3682588675021
 30
0.0
 11
215.749846848311
 21
184.063258867502
 31
0.0
  0
LINE
  5
424
330
1F
100
AcDbEntity
  8
0
  6
Continuous
 62
     7
100
AcDbLine
 10
215.2746458483111
 20
181.3682588675021
 30
0.0
 11
216.002608848311
 21
180.4882588675021
 31
0.0
  0
LINE
  5
425
330
1F
100
AcDbEntity
  8
0
  6
Continuous
 62
     7
100
AcDbLine
 10
215.1194778483112
 20
180.4882588675021
 30
0.0
 11
216.1647168483113
 21
181.3682588675021
 31
0.0
  0
LINE
  5
426
330
1F
100
AcDbEntity
  8
0
  6
Continuous
 62
     7
100
AcDbLine
 10
216.643422848311
 20
184.063259867502
 30
0.0
 11
216.1681158483113
 21
181.3676598675019
 31
0.0
  0
ARC
  5
427
330
1F
100
AcDbEntity
  8
0
  6
Continuous
 62
     7
100
AcDbCircle
 10
220.8221975953865
 20
189.1267086145773
 30
0.0
 40
0.9999992529250452
100
AcDbArc
 50
359.9999571957161
 51
90.00004280429044
  0
ARC
  5
428
330
1F
100
AcDbEntity
  8
0
  6
Continuous
 62
     7
100
AcDbCircle
 10
216.9221972218488
 20
185.5267082410394
 30
0.0
 40
0.4999996264625085
100
AcDbArc
 50
359.9999571957078
 51
90.00004280428553
  0
ARC
  5
429
330
1F
100
AcDbEntity
  8
0
  6
Continuous
 62
     7
100
AcDbCircle
 10
218.0221972218488
 20
186.7267082410395
 30
0.0
 40
0.4999996264625369
100
AcDbArc
 50
359.9999571957112
 51
90.00004280428878
  0
ARC
  5
42A
330
1F
100
AcDbEntity
  8
0
  6
Continuous
 62
     7
100
AcDbCircle
 10
224.7221988654142
 20
197.526709884605
 30
0.0
 40
2.699997982897784
100
AcDbArc
 50
359.9999571957143
 51
90.00004280428717
  0
LINE
  5
42B
330
1F
100
AcDbEntity
  8
0
  6
Continuous
 62
     7
100
AcDbLine
 10
265.6245898483112
 20
200.2267078675019
 30
0.0
 11
267.6245898483112
 21
200.2267078675019
 31
0.0
  0
LINE
  5
42C
330
1F
100
AcDbEntity
  8
0
  6
Continuous
 62
     7
100
AcDbLine
 10
263.124589848311
 20
200.2267078675019
 30
0.0
 11
265.6245898483112
 21
200.2267078675019
 31
0.0
  0
LINE
  5
42D
330
1F
100
AcDbEntity
  8
0
  6
Continuous
 62
     7
100
AcDbLine
 10
448.9221968483112
 20
110.7267078675022
 30
0.0
 11
461.9221968483111
 21
110.7267078675022
 31
0.0
  0
LINE
  5
42E
330
1F
100
AcDbEntity
  8
0
  6
Continuous
 62
     7
100
AcDbLine
 10
461.9221968483111
 20
112.2267078675022
 30
0.0
 11
448.9221968483112
 21
112.2267078675022
 31
0.0
  0
LINE
  5
42F
330
1F
100
AcDbEntity
  8
0
  6
Continuous
 62
     7
100
AcDbLine
 10
462.1221968483111
 20
120.2267078675022
 30
0.0
 11
446.7221968483111
 21
120.2267078675022
 31
0.0
  0
LINE
  5
430
330
1F
100
AcDbEntity
  8
0
  6
Continuous
 62
     7
100
AcDbLine
 10
446.7221968483111
 20
121.2267078675022
 30
0.0
 11
462.1221968483111
 21
121.2267078675022
 31
0.0
  0
LINE
  5
431
330
1F
100
AcDbEntity
  8
0
  6
Continuous
 62
     7
100
AcDbLine
 10
462.1221968483111
 20
129.2267078675022
 30
0.0
 11
446.7221968483111
 21
129.2267078675022
 31
0.0
  0
LINE
  5
432
330
1F
100
AcDbEntity
  8
0
  6
Continuous
 62
     7
100
AcDbLine
 10
446.7221968483111
 20
130.2267078675022
 30
0.0
 11
462.1221968483111
 21
130.2267078675022
 31
0.0
  0
LINE
  5
433
330
1F
100
AcDbEntity
  8
0
  6
Continuous
 62
     7
100
AcDbLine
 10
462.1221968483111
 20
138.226707867502
 30
0.0
 11
446.7221968483111
 21
138.226707867502
 31
0.0
  0
LINE
  5
434
330
1F
100
AcDbEntity
  8
0
  6
Continuous
 62
     7
100
AcDbLine
 10
446.7221968483111
 20
139.226707867502
 30
0.0
 11
462.1221968483111
 21
139.226707867502
 31
0.0
  0
LINE
  5
435
330
1F
100
AcDbEntity
  8
0
  6
Continuous
 62
     7
100
AcDbLine
 10
462.1221968483111
 20
147.2267078675022
 30
0.0
 11
446.7221968483111
 21
147.2267078675022
 31
0.0
  0
LINE
  5
436
330
1F
100
AcDbEntity
  8
0
  6
Continuous
 62
     7
100
AcDbLine
 10
446.7221968483111
 20
148.2267078675022
 30
0.0
 11
462.1221968483111
 21
148.2267078675022
 31
0.0
  0
LINE
  5
437
330
1F
100
AcDbEntity
  8
0
  6
Continuous
 62
     7
100
AcDbLine
 10
462.1221968483111
 20
156.2267078675022
 30
0.0
 11
446.7221968483111
 21
156.2267078675022
 31
0.0
  0
LINE
  5
438
330
1F
100
AcDbEntity
  8
0
  6
Continuous
 62
     7
100
AcDbLine
 10
446.7221968483111
 20
157.2267078675022
 30
0.0
 11
462.1221968483111
 21
157.2267078675022
 31
0.0
  0
LINE
  5
439
330
1F
100
AcDbEntity
  8
0
  6
Continuous
 62
     7
100
AcDbLine
 10
462.1221968483111
 20
165.2267078675022
 30
0.0
 11
446.7221968483111
 21
165.2267078675022
 31
0.0
  0
LINE
  5
43A
330
1F
100
AcDbEntity
  8
0
  6
Continuous
 62
     7
100
AcDbLine
 10
446.7221968483111
 20
166.226707867502
 30
0.0
 11
462.1221968483111
 21
166.226707867502
 31
0.0
  0
LINE
  5
43B
330
1F
100
AcDbEntity
  8
0
  6
Continuous
 62
     7
100
AcDbLine
 10
462.1221968483111
 20
174.2267078675019
 30
0.0
 11
446.7221968483111
 21
174.2267078675019
 31
0.0
  0
LINE
  5
43C
330
1F
100
AcDbEntity
  8
0
  6
Continuous
 62
     7
100
AcDbLine
 10
446.7221968483111
 20
175.2267078675019
 30
0.0
 11
462.1221968483111
 21
175.2267078675019
 31
0.0
  0
LINE
  5
43D
330
1F
100
AcDbEntity
  8
0
  6
Continuous
 62
     7
100
AcDbLine
 10
422.1221968483111
 20
200.2267078675019
 30
0.0
 11
464.7221968483111
 21
200.2267078675019
 31
0.0
  0
LINE
  5
43E
330
1F
100
AcDbEntity
  8
0
  6
Continuous
 62
     7
100
AcDbLine
 10
464.7221968483111
 20
104.2267078675022
 30
0.0
 11
422.1221968483111
 21
104.2267078675022
 31
0.0
  0
LINE
  5
43F
330
1F
100
AcDbEntity
  8
0
  6
Continuous
 62
     7
100
AcDbLine
 10
464.4221968483111
 20
106.7267078675022
 30
0.0
 11
422.4221968483111
 21
106.7267078675022
 31
0.0
  0
LINE
  5
440
330
1F
100
AcDbEntity
  8
0
  6
Continuous
 62
     7
100
AcDbLine
 10
422.4221968483111
 20
197.7267078675019
 30
0.0
 11
464.4221968483111
 21
197.7267078675019
 31
0.0
  0
LINE
  5
441
330
1F
100
AcDbEntity
  8
0
  6
Continuous
 62
     7
100
AcDbLine
 10
461.9221968483111
 20
192.2267078675019
 30
0.0
 11
446.9221968483111
 21
192.2267078675019
 31
0.0
  0
LINE
  5
442
330
1F
100
AcDbEntity
  8
0
  6
Continuous
 62
     7
100
AcDbLine
 10
446.9221968483111
 20
193.7267078675019
 30
0.0
 11
461.9221968483111
 21
193.7267078675019
 31
0.0
  0
LINE
  5
443
330
1F
100
AcDbEntity
  8
0
  6
Continuous
 62
     7
100
AcDbLine
 10
462.1221968483111
 20
183.2267078675019
 30
0.0
 11
446.7221968483111
 21
183.2267078675019
 31
0.0
  0
LINE
  5
444
330
1F
100
AcDbEntity
  8
0
  6
Continuous
 62
     7
100
AcDbLine
 10
446.7221968483111
 20
184.2267078675019
 30
0.0
 11
462.1221968483111
 21
184.2267078675019
 31
0.0
  0
LINE
  5
445
330
1F
100
AcDbEntity
  8
0
  6
Continuous
 62
     7
100
AcDbLine
 10
367.6245898483111
 20
193.7267078675019
 30
0.0
 11
367.6245898483111
 21
110.7267078675022
 31
0.0
  0
LINE
  5
446
330
1F
100
AcDbEntity
  8
0
  6
Continuous
 62
     7
100
AcDbLine
 10
360.6245898483111
 20
197.7267078675019
 30
0.0
 11
360.6245898483111
 21
106.7267078675022
 31
0.0
  0
LINE
  5
447
330
1F
100
AcDbEntity
  8
0
  6
Continuous
 62
     7
100
AcDbLine
 10
438.4221968483111
 20
192.726707867502
 30
0.0
 11
438.4221968483111
 21
111.7267078675022
 31
0.0
  0
LINE
  5
448
330
1F
100
AcDbEntity
  8
0
  6
Continuous
 62
     7
100
AcDbLine
 10
427.4221968483111
 20
173.7267078675019
 30
0.0
 11
427.4221968483111
 21
166.726707867502
 31
0.0
  0
LINE
  5
44B
330
1F
100
AcDbEntity
  8
0
  6
Continuous
 62
     7
100
AcDbLine
 10
419.4221968483111
 20
106.9267078675022
 30
0.0
 11
419.4221968483111
 21
197.5267078675021
 31
0.0
  0
LINE
  5
44C
330
1F
100
AcDbEntity
  8
0
  6
Continuous
 62
     7
100
AcDbLine
 10
421.4221968483111
 20
107.7267078675022
 30
0.0
 11
421.4221968483111
 21
196.7267078675019
 31
0.0
  0
LINE
  5
44D
330
1F
100
AcDbEntity
  8
0
  6
Continuous
 62
     7
100
AcDbLine
 10
367.6245898483111
 20
120.2267078675022
 30
0.0
 11
360.6245898483111
 21
120.2267078675022
 31
0.0
  0
LINE
  5
44E
330
1F
100
AcDbEntity
  8
0
  6
Continuous
 62
     7
100
AcDbLine
 10
367.6245898483111
 20
112.2267078675022
 30
0.0
 11
360.6245898483111
 21
112.2267078675022
 31
0.0
  0
LINE
  5
44F
330
1F
100
AcDbEntity
  8
0
  6
Continuous
 62
     7
100
AcDbLine
 10
367.6245898483111
 20
110.7267078675022
 30
0.0
 11
360.6245898483111
 21
110.7267078675022
 31
0.0
  0
LINE
  5
450
330
1F
100
AcDbEntity
  8
0
  6
Continuous
 62
     7
100
AcDbLine
 10
367.6245898483111
 20
121.2267078675022
 30
0.0
 11
360.6245898483111
 21
121.2267078675022
 31
0.0
  0
LINE
  5
451
330
1F
100
AcDbEntity
  8
0
  6
Continuous
 62
     7
100
AcDbLine
 10
367.6245898483111
 20
166.226707867502
 30
0.0
 11
360.6245898483111
 21
166.226707867502
 31
0.0
  0
LINE
  5
452
330
1F
100
AcDbEntity
  8
0
  6
Continuous
 62
     7
100
AcDbLine
 10
367.6245898483111
 20
157.2267078675022
 30
0.0
 11
360.6245898483111
 21
157.2267078675022
 31
0.0
  0
LINE
  5
453
330
1F
100
AcDbEntity
  8
0
  6
Continuous
 62
     7
100
AcDbLine
 10
367.6245898483111
 20
148.2267078675022
 30
0.0
 11
360.6245898483111
 21
148.2267078675022
 31
0.0
  0
LINE
  5
454
330
1F
100
AcDbEntity
  8
0
  6
Continuous
 62
     7
100
AcDbLine
 10
367.6245898483111
 20
139.226707867502
 30
0.0
 11
360.6245898483111
 21
139.226707867502
 31
0.0
  0
LINE
  5
455
330
1F
100
AcDbEntity
  8
0
  6
Continuous
 62
     7
100
AcDbLine
 10
367.6245898483111
 20
129.2267078675022
 30
0.0
 11
360.6245898483111
 21
129.2267078675022
 31
0.0
  0
LINE
  5
456
330
1F
100
AcDbEntity
  8
0
  6
Continuous
 62
     7
100
AcDbLine
 10
367.6245898483111
 20
130.2267078675022
 30
0.0
 11
360.6245898483111
 21
130.2267078675022
 31
0.0
  0
LINE
  5
457
330
1F
100
AcDbEntity
  8
0
  6
Continuous
 62
     7
100
AcDbLine
 10
367.6245898483111
 20
138.226707867502
 30
0.0
 11
360.6245898483111
 21
138.226707867502
 31
0.0
  0
LINE
  5
458
330
1F
100
AcDbEntity
  8
0
  6
Continuous
 62
     7
100
AcDbLine
 10
367.6245898483111
 20
147.2267078675022
 30
0.0
 11
360.6245898483111
 21
147.2267078675022
 31
0.0
  0
LINE
  5
459
330
1F
100
AcDbEntity
  8
0
  6
Continuous
 62
     7
100
AcDbLine
 10
367.6245898483111
 20
156.2267078675022
 30
0.0
 11
360.6245898483111
 21
156.2267078675022
 31
0.0
  0
LINE
  5
45A
330
1F
100
AcDbEntity
  8
0
  6
Continuous
 62
     7
100
AcDbLine
 10
367.6245898483111
 20
165.2267078675022
 30
0.0
 11
360.6245898483111
 21
165.2267078675022
 31
0.0
  0
LINE
  5
45F
330
1F
100
AcDbEntity
  8
0
  6
Continuous
 62
     7
100
AcDbLine
 10
436.9221968483111
 20
121.7267078675022
 30
0.0
 11
436.9221968483111
 21
128.726707867502
 31
0.0
  0
LINE
  5
460
330
1F
100
AcDbEntity
  8
0
  6
Continuous
 62
     7
100
AcDbLine
 10
437.4221968483111
 20
110.7267078675022
 30
0.0
 11
424.9221968483111
 21
110.7267078675022
 31
0.0
  0
LINE
  5
461
330
1F
100
AcDbEntity
  8
0
  6
Continuous
 62
     7
100
AcDbLine
 10
424.7221968483112
 20
121.2267078675022
 30
0.0
 11
436.4221968483112
 21
121.2267078675022
 31
0.0
  0
LINE
  5
462
330
1F
100
AcDbEntity
  8
0
  6
Continuous
 62
     7
100
AcDbLine
 10
436.4221968483112
 20
120.2267078675022
 30
0.0
 11
424.7221968483112
 21
120.2267078675022
 31
0.0
  0
LINE
  5
463
330
1F
100
AcDbEntity
  8
0
  6
Continuous
 62
     7
100
AcDbLine
 10
424.9221968483111
 20
112.2267078675022
 30
0.0
 11
436.4221968483112
 21
112.2267078675022
 31
0.0
  0
ARC
  5
464
330
1F
100
AcDbEntity
  8
0
  6
Continuous
 62
     7
100
AcDbCircle
 10
422.4221961012359
 20
107.726707120427
 30
0.0
 40
0.9999992529250951
100
AcDbArc
 50
179.9999571957128
 51
270.0000428042871
  0
ARC
  5
465
330
1F
100
AcDbEntity
  8
0
  6
Continuous
 62
     7
100
AcDbCircle
 10
422.1221948312082
 20
106.9267058503992
 30
0.0
 40
2.699997982897753
100
AcDbArc
 50
179.9999571957128
 51
270.0000428042871
  0
ARC
  5
466
330
1F
100
AcDbEntity
  8
0
  6
Continuous
 62
     7
100
AcDbCircle
 10
424.9221964747736
 20
111.2267074939645
 30
0.0
 40
0.4999996264625476
100
AcDbArc
 50
179.9999571957144
 51
270.0000428042871
  0
LINE
  5
467
330
1F
100
AcDbEntity
  8
0
  6
Continuous
 62
     7
100
AcDbLine
 10
424.4221968483111
 20
111.2267078675022
 30
0.0
 11
424.4221968483111
 21
111.7267078675022
 31
0.0
  0
ARC
  5
468
330
1F
100
AcDbEntity
  8
0
  6
Continuous
 62
     7
100
AcDbCircle
 10
424.9221964747736
 20
111.7267082410396
 30
0.0
 40
0.4999996264625655
100
AcDbArc
 50
89.99995719571279
 51
180.0000428042855
  0
LINE
  5
469
330
1F
100
AcDbEntity
  8
0
  6
Continuous
 62
     7
100
AcDbLine
 10
424.4221968483111
 20
120.5267078675022
 30
0.0
 11
424.4221968483111
 21
120.9267078675022
 31
0.0
  0
ARC
  5
46A
330
1F
100
AcDbEntity
  8
0
  6
Continuous
 62
     7
100
AcDbCircle
 10
424.7221966241886
 20
120.5267076433796
 30
0.0
 40
0.2999997758775221
100
AcDbArc
 50
179.9999571957144
 51
270.0000428042887
  0
ARC
  5
46B
330
1F
100
AcDbEntity
  8
0
  6
Continuous
 62
     7
100
AcDbCircle
 10
424.7221966241886
 20
120.9267080916247
 30
0.0
 40
0.2999997758775346
100
AcDbArc
 50
89.99995719571442
 51
180.0000428042855
  0
LINE
  5
46C
330
1F
100
AcDbEntity
  8
0
  6
Continuous
 62
     7
100
AcDbLine
 10
445.4221968483111
 20
106.7267078675022
 30
0.0
 11
441.4221968483111
 21
106.7267078675022
 31
0.0
  0
ARC
  5
46D
330
1F
100
AcDbEntity
  8
0
  6
Continuous
 62
     7
100
AcDbCircle
 10
443.4221968483111
 20
111.2267078675022
 30
0.0
 40
2.0
100
AcDbArc
 50
0.0
 51
180.0
  0
LINE
  5
46F
330
1F
100
AcDbEntity
  8
0
  6
Continuous
 62
     7
100
AcDbLine
 10
436.9221968483111
 20
112.7267078675022
 30
0.0
 11
436.9221968483111
 21
119.7267078675022
 31
0.0
  0
LINE
  5
470
330
1F
100
AcDbEntity
  8
0
  6
Continuous
 62
     7
100
AcDbLine
 10
441.4221968483111
 20
106.7267078675022
 30
0.0
 11
441.4221968483111
 21
111.2267078675022
 31
0.0
  0
LINE
  5
471
330
1F
100
AcDbEntity
  8
0
  6
Continuous
 62
     7
100
AcDbLine
 10
441.4221968483111
 20
106.7267078675022
 30
0.0
 11
441.4221968483111
 21
106.7267078675022
 31
0.0
  0
ARC
  5
472
330
1F
100
AcDbEntity
  8
0
  6
Continuous
 62
     7
100
AcDbCircle
 10
437.4221975953862
 20
111.726707120427
 30
0.0
 40
0.9999992529251022
100
AcDbArc
 50
269.9999571957127
 51
0.0000428042871804
  0
ARC
  5
473
330
1F
100
AcDbEntity
  8
0
  6
Continuous
 62
     7
100
AcDbCircle
 10
436.4221972218488
 20
112.7267074939646
 30
0.0
 40
0.4999996264625655
100
AcDbArc
 50
269.9999571957127
 51
0.0000428042855519
  0
LINE
  5
475
330
1F
100
AcDbEntity
  8
0
  6
Continuous
 62
     7
100
AcDbLine
 10
435.4221968483111
 20
116.2267078675022
 30
0.0
 11
435.4221968483111
 21
116.2267078675022
 31
0.0
  0
ARC
  5
476
330
1F
100
AcDbEntity
  8
0
  6
Continuous
 62
     7
100
AcDbCircle
 10
436.4221972218488
 20
119.7267082410397
 30
0.0
 40
0.4999996264625485
100
AcDbArc
 50
359.9999571957143
 51
90.00004280428717
  0
LINE
  5
477
330
1F
100
AcDbEntity
  8
0
  6
Continuous
 62
     7
100
AcDbLine
 10
435.4221968483111
 20
125.2267078675022
 30
0.0
 11
435.4221968483111
 21
125.2267078675022
 31
0.0
  0
ARC
  5
478
330
1F
100
AcDbEntity
  8
0
  6
Continuous
 62
     7
100
AcDbCircle
 10
436.4221972218488
 20
121.7267074939645
 30
0.0
 40
0.4999996264625655
100
AcDbArc
 50
269.9999571957127
 51
0.0000428042855519
  0
LINE
  5
47A
330
1F
100
AcDbEntity
  8
0
  6
Continuous
 62
     7
100
AcDbLine
 10
445.4221968483111
 20
111.2267078675022
 30
0.0
 11
445.4221968483111
 21
106.7267078675022
 31
0.0
  0
ARC
  5
47B
330
1F
100
AcDbEntity
  8
0
  6
Continuous
 62
     7
100
AcDbCircle
 10
448.9221964747736
 20
111.7267082410396
 30
0.0
 40
0.4999996264625476
100
AcDbArc
 50
89.99995719571279
 51
180.0000428042855
  0
LINE
  5
47C
330
1F
100
AcDbEntity
  8
0
  6
Continuous
 62
     7
100
AcDbLine
 10
448.4221968483111
 20
111.7267078675022
 30
0.0
 11
448.4221968483111
 21
111.2267078675022
 31
0.0
  0
ARC
  5
47D
330
1F
100
AcDbEntity
  8
0
  6
Continuous
 62
     7
100
AcDbCircle
 10
448.9221964747736
 20
111.2267074939645
 30
0.0
 40
0.4999996264625655
100
AcDbArc
 50
179.9999571957144
 51
270.0000428042871
  0
LINE
  5
47E
330
1F
100
AcDbEntity
  8
0
  6
Continuous
 62
     7
100
AcDbLine
 10
446.4221968483111
 20
120.5267078675022
 30
0.0
 11
446.4221968483111
 21
120.9267078675022
 31
0.0
  0
ARC
  5
47F
330
1F
100
AcDbEntity
  8
0
  6
Continuous
 62
     7
100
AcDbCircle
 10
446.7221966241885
 20
120.5267076433796
 30
0.0
 40
0.2999997758775221
100
AcDbArc
 50
179.9999571957144
 51
270.0000428042903
  0
ARC
  5
480
330
1F
100
AcDbEntity
  8
0
  6
Continuous
 62
     7
100
AcDbCircle
 10
446.7221966241885
 20
120.9267080916247
 30
0.0
 40
0.2999997758775399
100
AcDbArc
 50
89.99995719571279
 51
180.0000428042855
  0
LINE
  5
482
330
1F
100
AcDbEntity
  8
0
  6
Continuous
 62
     7
100
AcDbLine
 10
457.4221968483112
 20
116.2267078675022
 30
0.0
 11
457.4221968483112
 21
116.2267078675022
 31
0.0
  0
LINE
  5
483
330
1F
100
AcDbEntity
  8
0
  6
Continuous
 62
     7
100
AcDbLine
 10
457.4221968483112
 20
125.2267078675022
 30
0.0
 11
457.4221968483112
 21
125.2267078675022
 31
0.0
  0
LINE
  5
484
330
1F
100
AcDbEntity
  8
0
  6
Continuous
 62
     7
100
AcDbLine
 10
426.9221968483111
 20
166.226707867502
 30
0.0
 11
424.7221968483112
 21
166.226707867502
 31
0.0
  0
LINE
  5
485
330
1F
100
AcDbEntity
  8
0
  6
Continuous
 62
     7
100
AcDbLine
 10
436.4221968483112
 20
165.2267078675022
 30
0.0
 11
424.7221968483112
 21
165.2267078675022
 31
0.0
  0
LINE
  5
486
330
1F
100
AcDbEntity
  8
0
  6
Continuous
 62
     7
100
AcDbLine
 10
424.7221968483112
 20
157.2267078675022
 30
0.0
 11
436.4221968483112
 21
157.2267078675022
 31
0.0
  0
LINE
  5
487
330
1F
100
AcDbEntity
  8
0
  6
Continuous
 62
     7
100
AcDbLine
 10
436.4221968483112
 20
156.2267078675022
 30
0.0
 11
424.7221968483112
 21
156.2267078675022
 31
0.0
  0
LINE
  5
488
330
1F
100
AcDbEntity
  8
0
  6
Continuous
 62
     7
100
AcDbLine
 10
424.7221968483112
 20
148.2267078675022
 30
0.0
 11
436.4221968483112
 21
148.2267078675022
 31
0.0
  0
LINE
  5
489
330
1F
100
AcDbEntity
  8
0
  6
Continuous
 62
     7
100
AcDbLine
 10
436.4221968483112
 20
147.2267078675022
 30
0.0
 11
424.7221968483112
 21
147.2267078675022
 31
0.0
  0
LINE
  5
48A
330
1F
100
AcDbEntity
  8
0
  6
Continuous
 62
     7
100
AcDbLine
 10
424.7221968483112
 20
139.226707867502
 30
0.0
 11
436.4221968483112
 21
139.226707867502
 31
0.0
  0
LINE
  5
48B
330
1F
100
AcDbEntity
  8
0
  6
Continuous
 62
     7
100
AcDbLine
 10
436.4221968483112
 20
138.226707867502
 30
0.0
 11
424.7221968483112
 21
138.226707867502
 31
0.0
  0
LINE
  5
48C
330
1F
100
AcDbEntity
  8
0
  6
Continuous
 62
     7
100
AcDbLine
 10
424.7221968483112
 20
130.2267078675022
 30
0.0
 11
436.4221968483112
 21
130.2267078675022
 31
0.0
  0
LINE
  5
48D
330
1F
100
AcDbEntity
  8
0
  6
Continuous
 62
     7
100
AcDbLine
 10
436.4221968483112
 20
129.2267078675022
 30
0.0
 11
424.7221968483112
 21
129.2267078675022
 31
0.0
  0
ARC
  5
48E
330
1F
100
AcDbEntity
  8
0
  6
Continuous
 62
     7
100
AcDbCircle
 10
424.7221966241886
 20
129.9267080916244
 30
0.0
 40
0.2999997758775346
100
AcDbArc
 50
89.99995719571442
 51
180.0000428042855
  0
LINE
  5
48F
330
1F
100
AcDbEntity
  8
0
  6
Continuous
 62
     7
100
AcDbLine
 10
424.4221968483111
 20
129.5267078675022
 30
0.0
 11
424.4221968483111
 21
129.9267078675022
 31
0.0
  0
ARC
  5
490
330
1F
100
AcDbEntity
  8
0
  6
Continuous
 62
     7
100
AcDbCircle
 10
424.7221966241886
 20
129.5267076433795
 30
0.0
 40
0.2999997758775221
100
AcDbArc
 50
179.9999571957144
 51
270.0000428042887
  0
ARC
  5
491
330
1F
100
AcDbEntity
  8
0
  6
Continuous
 62
     7
100
AcDbCircle
 10
424.7221966241886
 20
138.9267080916247
 30
0.0
 40
0.2999997758775772
100
AcDbArc
 50
89.99995719572259
 51
180.0000428042953
  0
LINE
  5
492
330
1F
100
AcDbEntity
  8
0
  6
Continuous
 62
     7
100
AcDbLine
 10
424.4221968483111
 20
138.5267078675022
 30
0.0
 11
424.4221968483111
 21
138.9267078675019
 31
0.0
  0
ARC
  5
493
330
1F
100
AcDbEntity
  8
0
  6
Continuous
 62
     7
100
AcDbCircle
 10
424.7221966241886
 20
138.5267076433794
 30
0.0
 40
0.2999997758775221
100
AcDbArc
 50
179.9999571957144
 51
270.0000428042887
  0
ARC
  5
494
330
1F
100
AcDbEntity
  8
0
  6
Continuous
 62
     7
100
AcDbCircle
 10
424.7221966241886
 20
147.9267080916246
 30
0.0
 40
0.2999997758775346
100
AcDbArc
 50
89.99995719571442
 51
180.0000428042855
  0
LINE
  5
495
330
1F
100
AcDbEntity
  8
0
  6
Continuous
 62
     7
100
AcDbLine
 10
424.4221968483111
 20
147.5267078675021
 30
0.0
 11
424.4221968483111
 21
147.9267078675021
 31
0.0
  0
ARC
  5
496
330
1F
100
AcDbEntity
  8
0
  6
Continuous
 62
     7
100
AcDbCircle
 10
424.7221966241886
 20
147.5267076433794
 30
0.0
 40
0.2999997758775221
100
AcDbArc
 50
179.9999571957144
 51
270.0000428042887
  0
ARC
  5
497
330
1F
100
AcDbEntity
  8
0
  6
Continuous
 62
     7
100
AcDbCircle
 10
424.7221966241886
 20
156.9267080916245
 30
0.0
 40
0.299999775877563
100
AcDbArc
 50
89.99995719571932
 51
180.0000428042903
  0
LINE
  5
498
330
1F
100
AcDbEntity
  8
0
  6
Continuous
 62
     7
100
AcDbLine
 10
424.4221968483111
 20
156.526707867502
 30
0.0
 11
424.4221968483111
 21
156.9267078675021
 31
0.0
  0
ARC
  5
499
330
1F
100
AcDbEntity
  8
0
  6
Continuous
 62
     7
100
AcDbCircle
 10
424.7221966241886
 20
156.5267076433794
 30
0.0
 40
0.2999997758774937
100
AcDbArc
 50
179.9999571957258
 51
270.0000428042969
  0
ARC
  5
49A
330
1F
100
AcDbEntity
  8
0
  6
Continuous
 62
     7
100
AcDbCircle
 10
424.7221966241886
 20
165.5267076433794
 30
0.0
 40
0.2999997758774919
100
AcDbArc
 50
179.9999571957209
 51
270.0000428042935
  0
LINE
  5
49B
330
1F
100
AcDbEntity
  8
0
  6
Continuous
 62
     7
100
AcDbLine
 10
424.4221968483111
 20
165.9267078675019
 30
0.0
 11
424.4221968483111
 21
165.526707867502
 31
0.0
  0
ARC
  5
49C
330
1F
100
AcDbEntity
  8
0
  6
Continuous
 62
     7
100
AcDbCircle
 10
424.7221966241886
 20
165.9267080916245
 30
0.0
 40
0.2999997758775221
100
AcDbArc
 50
89.99995719571442
 51
180.0000428042903
  0
LINE
  5
49F
330
1F
100
AcDbEntity
  8
0
  6
Continuous
 62
     7
100
AcDbLine
 10
436.9221968483111
 20
148.726707867502
 30
0.0
 11
436.9221968483111
 21
155.7267078675022
 31
0.0
  0
ARC
  5
4A0
330
1F
100
AcDbEntity
  8
0
  6
Continuous
 62
     7
100
AcDbCircle
 10
436.4221972218488
 20
137.7267082410396
 30
0.0
 40
0.4999996264625485
100
AcDbArc
 50
359.9999571957143
 51
90.00004280428717
  0
LINE
  5
4A3
330
1F
100
AcDbEntity
  8
0
  6
Continuous
 62
     7
100
AcDbLine
 10
436.9221968483111
 20
130.7267078675022
 30
0.0
 11
436.9221968483111
 21
137.7267078675022
 31
0.0
  0
ARC
  5
4A4
330
1F
100
AcDbEntity
  8
0
  6
Continuous
 62
     7
100
AcDbCircle
 10
436.4221972218488
 20
130.7267074939646
 30
0.0
 40
0.4999996264625655
100
AcDbArc
 50
269.9999571957127
 51
0.0000428042855519
  0
ARC
  5
4A5
330
1F
100
AcDbEntity
  8
0
  6
Continuous
 62
     7
100
AcDbCircle
 10
436.4221972218488
 20
128.7267082410395
 30
0.0
 40
0.4999996264625485
100
AcDbArc
 50
359.9999571957143
 51
90.00004280428717
  0
LINE
  5
4A6
330
1F
100
AcDbEntity
  8
0
  6
Continuous
 62
     7
100
AcDbLine
 10
435.4221968483111
 20
134.226707867502
 30
0.0
 11
435.4221968483111
 21
134.226707867502
 31
0.0
  0
LINE
  5
4A9
330
1F
100
AcDbEntity
  8
0
  6
Continuous
 62
     7
100
AcDbLine
 10
436.9221968483111
 20
139.7267078675022
 30
0.0
 11
436.9221968483111
 21
146.726707867502
 31
0.0
  0
LINE
  5
4AA
330
1F
100
AcDbEntity
  8
0
  6
Continuous
 62
     7
100
AcDbLine
 10
435.4221968483111
 20
143.2267078675022
 30
0.0
 11
435.4221968483111
 21
143.2267078675022
 31
0.0
  0
ARC
  5
4AB
330
1F
100
AcDbEntity
  8
0
  6
Continuous
 62
     7
100
AcDbCircle
 10
436.4221972218488
 20
139.7267074939646
 30
0.0
 40
0.4999996264625655
100
AcDbArc
 50
269.9999571957127
 51
0.0000428042855519
  0
ARC
  5
4AC
330
1F
100
AcDbEntity
  8
0
  6
Continuous
 62
     7
100
AcDbCircle
 10
436.4221972218488
 20
148.7267074939645
 30
0.0
 40
0.4999996264625655
100
AcDbArc
 50
269.9999571957127
 51
0.0000428042855519
  0
ARC
  5
4AD
330
1F
100
AcDbEntity
  8
0
  6
Continuous
 62
     7
100
AcDbCircle
 10
436.4221972218488
 20
146.7267082410396
 30
0.0
 40
0.4999996264625485
100
AcDbArc
 50
359.9999571957143
 51
90.00004280428717
  0
ARC
  5
4AE
330
1F
100
AcDbEntity
  8
0
  6
Continuous
 62
     7
100
AcDbCircle
 10
446.7221966241885
 20
129.9267080916244
 30
0.0
 40
0.2999997758775399
100
AcDbArc
 50
89.99995719571279
 51
180.0000428042855
  0
LINE
  5
4AF
330
1F
100
AcDbEntity
  8
0
  6
Continuous
 62
     7
100
AcDbLine
 10
446.4221968483111
 20
129.5267078675022
 30
0.0
 11
446.4221968483111
 21
129.9267078675022
 31
0.0
  0
ARC
  5
4B0
330
1F
100
AcDbEntity
  8
0
  6
Continuous
 62
     7
100
AcDbCircle
 10
446.7221966241885
 20
129.5267076433795
 30
0.0
 40
0.2999997758775221
100
AcDbArc
 50
179.9999571957144
 51
270.0000428042903
  0
LINE
  5
4B3
330
1F
100
AcDbEntity
  8
0
  6
Continuous
 62
     7
100
AcDbLine
 10
457.4221968483112
 20
134.226707867502
 30
0.0
 11
457.4221968483112
 21
134.226707867502
 31
0.0
  0
ARC
  5
4B4
330
1F
100
AcDbEntity
  8
0
  6
Continuous
 62
     7
100
AcDbCircle
 10
446.7221966241885
 20
138.9267080916247
 30
0.0
 40
0.2999997758775825
100
AcDbArc
 50
89.99995719572096
 51
180.0000428042953
  0
LINE
  5
4B5
330
1F
100
AcDbEntity
  8
0
  6
Continuous
 62
     7
100
AcDbLine
 10
446.4221968483111
 20
138.5267078675022
 30
0.0
 11
446.4221968483111
 21
138.9267078675019
 31
0.0
  0
ARC
  5
4B6
330
1F
100
AcDbEntity
  8
0
  6
Continuous
 62
     7
100
AcDbCircle
 10
446.7221966241885
 20
138.5267076433794
 30
0.0
 40
0.2999997758775221
100
AcDbArc
 50
179.9999571957144
 51
270.0000428042903
  0
ARC
  5
4B7
330
1F
100
AcDbEntity
  8
0
  6
Continuous
 62
     7
100
AcDbCircle
 10
446.7221966241885
 20
147.9267080916246
 30
0.0
 40
0.2999997758775399
100
AcDbArc
 50
89.99995719571279
 51
180.0000428042855
  0
LINE
  5
4B8
330
1F
100
AcDbEntity
  8
0
  6
Continuous
 62
     7
100
AcDbLine
 10
446.4221968483111
 20
147.5267078675021
 30
0.0
 11
446.4221968483111
 21
147.9267078675021
 31
0.0
  0
ARC
  5
4B9
330
1F
100
AcDbEntity
  8
0
  6
Continuous
 62
     7
100
AcDbCircle
 10
446.7221966241885
 20
147.5267076433794
 30
0.0
 40
0.2999997758775221
100
AcDbArc
 50
179.9999571957144
 51
270.0000428042903
  0
LINE
  5
4BC
330
1F
100
AcDbEntity
  8
0
  6
Continuous
 62
     7
100
AcDbLine
 10
457.4221968483112
 20
143.2267078675022
 30
0.0
 11
457.4221968483112
 21
143.2267078675022
 31
0.0
  0
LINE
  5
4BF
330
1F
100
AcDbEntity
  8
0
  6
Continuous
 62
     7
100
AcDbLine
 10
436.9221968483111
 20
157.726707867502
 30
0.0
 11
436.9221968483111
 21
164.726707867502
 31
0.0
  0
LINE
  5
4C1
330
1F
100
AcDbEntity
  8
0
  6
Continuous
 62
     7
100
AcDbLine
 10
435.4221968483111
 20
152.2267078675022
 30
0.0
 11
435.4221968483111
 21
152.2267078675022
 31
0.0
  0
LINE
  5
4C2
330
1F
100
AcDbEntity
  8
0
  6
Continuous
 62
     7
100
AcDbLine
 10
435.4221968483111
 20
161.2267078675019
 30
0.0
 11
435.4221968483111
 21
161.2267078675019
 31
0.0
  0
ARC
  5
4C3
330
1F
100
AcDbEntity
  8
0
  6
Continuous
 62
     7
100
AcDbCircle
 10
436.4221972218488
 20
157.7267074939645
 30
0.0
 40
0.4999996264625369
100
AcDbArc
 50
269.9999571957095
 51
0.000042804282295
  0
ARC
  5
4C4
330
1F
100
AcDbEntity
  8
0
  6
Continuous
 62
     7
100
AcDbCircle
 10
436.4221972218488
 20
155.7267082410396
 30
0.0
 40
0.4999996264625485
100
AcDbArc
 50
359.9999571957143
 51
90.00004280428717
  0
ARC
  5
4C5
330
1F
100
AcDbEntity
  8
0
  6
Continuous
 62
     7
100
AcDbCircle
 10
426.9221972218486
 20
166.7267074939645
 30
0.0
 40
0.4999996264625476
100
AcDbArc
 50
269.9999571957127
 51
0.0000428042888088
  0
ARC
  5
4C6
330
1F
100
AcDbEntity
  8
0
  6
Continuous
 62
     7
100
AcDbCircle
 10
436.4221972218485
 20
164.7267082410396
 30
0.0
 40
0.4999996264625769
100
AcDbArc
 50
359.9999571957112
 51
90.00004280428392
  0
ARC
  5
4C9
330
1F
100
AcDbEntity
  8
0
  6
Continuous
 62
     7
100
AcDbCircle
 10
446.7221966241885
 20
156.9267080916245
 30
0.0
 40
0.2999997758775683
100
AcDbArc
 50
89.99995719571769
 51
180.0000428042903
  0
LINE
  5
4CA
330
1F
100
AcDbEntity
  8
0
  6
Continuous
 62
     7
100
AcDbLine
 10
446.4221968483111
 20
156.526707867502
 30
0.0
 11
446.4221968483111
 21
156.9267078675021
 31
0.0
  0
ARC
  5
4CB
330
1F
100
AcDbEntity
  8
0
  6
Continuous
 62
     7
100
AcDbCircle
 10
446.7221966241885
 20
156.5267076433794
 30
0.0
 40
0.2999997758774937
100
AcDbArc
 50
179.9999571957258
 51
270.0000428042985
  0
LINE
  5
4CD
330
1F
100
AcDbEntity
  8
0
  6
Continuous
 62
     7
100
AcDbLine
 10
457.4221968483112
 20
152.2267078675022
 30
0.0
 11
457.4221968483112
 21
152.2267078675022
 31
0.0
  0
LINE
  5
4CE
330
1F
100
AcDbEntity
  8
0
  6
Continuous
 62
     7
100
AcDbLine
 10
457.4221968483112
 20
161.2267078675019
 30
0.0
 11
457.4221968483112
 21
161.2267078675019
 31
0.0
  0
ARC
  5
4CF
330
1F
100
AcDbEntity
  8
0
  6
Continuous
 62
     7
100
AcDbCircle
 10
446.7221966241885
 20
165.9267080916245
 30
0.0
 40
0.2999997758775399
100
AcDbArc
 50
89.99995719571279
 51
180.0000428042903
  0
LINE
  5
4D0
330
1F
100
AcDbEntity
  8
0
  6
Continuous
 62
     7
100
AcDbLine
 10
446.4221968483111
 20
165.526707867502
 30
0.0
 11
446.4221968483111
 21
165.9267078675019
 31
0.0
  0
ARC
  5
4D1
330
1F
100
AcDbEntity
  8
0
  6
Continuous
 62
     7
100
AcDbCircle
 10
446.7221966241885
 20
165.5267076433794
 30
0.0
 40
0.2999997758774937
100
AcDbArc
 50
179.9999571957209
 51
270.0000428042953
  0
LINE
  5
4D2
330
1F
100
AcDbEntity
  8
0
  6
Continuous
 62
     7
100
AcDbLine
 10
457.4221968483112
 20
170.226707867502
 30
0.0
 11
457.4221968483112
 21
170.226707867502
 31
0.0
  0
LINE
  5
4D3
330
1F
100
AcDbEntity
  8
0
  6
Continuous
 62
     7
100
AcDbLine
 10
367.6245898483111
 20
193.7267078675019
 30
0.0
 11
360.6245898483111
 21
193.7267078675019
 31
0.0
  0
LINE
  5
4D4
330
1F
100
AcDbEntity
  8
0
  6
Continuous
 62
     7
100
AcDbLine
 10
367.6245898483111
 20
192.2267078675019
 30
0.0
 11
360.6245898483111
 21
192.2267078675019
 31
0.0
  0
LINE
  5
4D5
330
1F
100
AcDbEntity
  8
0
  6
Continuous
 62
     7
100
AcDbLine
 10
367.6245898483111
 20
183.2267078675019
 30
0.0
 11
360.6245898483111
 21
183.2267078675019
 31
0.0
  0
LINE
  5
4D6
330
1F
100
AcDbEntity
  8
0
  6
Continuous
 62
     7
100
AcDbLine
 10
367.6245898483111
 20
175.2267078675019
 30
0.0
 11
360.6245898483111
 21
175.2267078675019
 31
0.0
  0
LINE
  5
4D7
330
1F
100
AcDbEntity
  8
0
  6
Continuous
 62
     7
100
AcDbLine
 10
367.6245898483111
 20
174.2267078675019
 30
0.0
 11
360.6245898483111
 21
174.2267078675019
 31
0.0
  0
LINE
  5
4D8
330
1F
100
AcDbEntity
  8
0
  6
Continuous
 62
     7
100
AcDbLine
 10
367.6245898483111
 20
184.2267078675019
 30
0.0
 11
360.6245898483111
 21
184.2267078675019
 31
0.0
  0
LINE
  5
4D9
330
1F
100
AcDbEntity
  8
0
  6
Continuous
 62
     7
100
AcDbLine
 10
424.9221968483111
 20
193.7267078675019
 30
0.0
 11
437.4221968483111
 21
193.7267078675019
 31
0.0
  0
LINE
  5
4DA
330
1F
100
AcDbEntity
  8
0
  6
Continuous
 62
     7
100
AcDbLine
 10
424.7221968483112
 20
174.2267078675019
 30
0.0
 11
426.9221968483111
 21
174.2267078675019
 31
0.0
  0
LINE
  5
4DB
330
1F
100
AcDbEntity
  8
0
  6
Continuous
 62
     7
100
AcDbLine
 10
436.4221968483112
 20
175.2267078675019
 30
0.0
 11
424.7221968483112
 21
175.2267078675019
 31
0.0
  0
LINE
  5
4DC
330
1F
100
AcDbEntity
  8
0
  6
Continuous
 62
     7
100
AcDbLine
 10
424.7221968483112
 20
183.2267078675019
 30
0.0
 11
436.4221968483112
 21
183.2267078675019
 31
0.0
  0
LINE
  5
4DD
330
1F
100
AcDbEntity
  8
0
  6
Continuous
 62
     7
100
AcDbLine
 10
436.4221968483112
 20
184.2267078675019
 30
0.0
 11
424.7221968483112
 21
184.2267078675019
 31
0.0
  0
LINE
  5
4DE
330
1F
100
AcDbEntity
  8
0
  6
Continuous
 62
     7
100
AcDbLine
 10
424.9221968483111
 20
192.2267078675019
 30
0.0
 11
436.4221968483112
 21
192.2267078675019
 31
0.0
  0
ARC
  5
4DF
330
1F
100
AcDbEntity
  8
0
  6
Continuous
 62
     7
100
AcDbCircle
 10
424.7221966241886
 20
174.5267076433795
 30
0.0
 40
0.2999997758775204
100
AcDbArc
 50
179.9999571957144
 51
270.0000428042887
  0
LINE
  5
4E0
330
1F
100
AcDbEntity
  8
0
  6
Continuous
 62
     7
100
AcDbLine
 10
424.4221968483111
 20
174.9267078675021
 30
0.0
 11
424.4221968483111
 21
174.5267078675021
 31
0.0
  0
ARC
  5
4E1
330
1F
100
AcDbEntity
  8
0
  6
Continuous
 62
     7
100
AcDbCircle
 10
424.7221966241886
 20
174.9267080916245
 30
0.0
 40
0.2999997758775221
100
AcDbArc
 50
89.99995719571442
 51
180.0000428042903
  0
ARC
  5
4E2
330
1F
100
AcDbEntity
  8
0
  6
Continuous
 62
     7
100
AcDbCircle
 10
424.7221966241886
 20
183.5267076433795
 30
0.0
 40
0.2999997758775204
100
AcDbArc
 50
179.9999571957144
 51
270.0000428042887
  0
LINE
  5
4E3
330
1F
100
AcDbEntity
  8
0
  6
Continuous
 62
     7
100
AcDbLine
 10
424.4221968483111
 20
183.9267078675021
 30
0.0
 11
424.4221968483111
 21
183.5267078675019
 31
0.0
  0
ARC
  5
4E4
330
1F
100
AcDbEntity
  8
0
  6
Continuous
 62
     7
100
AcDbCircle
 10
424.7221966241886
 20
183.9267080916244
 30
0.0
 40
0.299999775877579
100
AcDbArc
 50
89.99995719571932
 51
180.0000428042903
  0
ARC
  5
4E5
330
1F
100
AcDbEntity
  8
0
  6
Continuous
 62
     7
100
AcDbCircle
 10
424.9221964747736
 20
193.2267082410395
 30
0.0
 40
0.4999996264625476
100
AcDbArc
 50
89.99995719571279
 51
180.0000428042888
  0
LINE
  5
4E6
330
1F
100
AcDbEntity
  8
0
  6
Continuous
 62
     7
100
AcDbLine
 10
424.4221968483111
 20
193.2267078675019
 30
0.0
 11
424.4221968483111
 21
192.726707867502
 31
0.0
  0
ARC
  5
4E7
330
1F
100
AcDbEntity
  8
0
  6
Continuous
 62
     7
100
AcDbCircle
 10
424.9221964747736
 20
192.7267074939645
 30
0.0
 40
0.4999996264625369
100
AcDbArc
 50
179.9999571957112
 51
270.0000428042871
  0
ARC
  5
4E8
330
1F
100
AcDbEntity
  8
0
  6
Continuous
 62
     7
100
AcDbCircle
 10
422.4221961012359
 20
196.7267086145773
 30
0.0
 40
0.9999992529250738
100
AcDbArc
 50
89.99995719571119
 51
180.0000428042855
  0
ARC
  5
4E9
330
1F
100
AcDbEntity
  8
0
  6
Continuous
 62
     7
100
AcDbCircle
 10
422.1221948312082
 20
197.5267098846051
 30
0.0
 40
2.699997982897756
100
AcDbArc
 50
89.99995719571279
 51
180.0000428042871
  0
ARC
  5
4EA
330
1F
100
AcDbEntity
  8
0
  6
Continuous
 62
     7
100
AcDbCircle
 10
436.4221972218488
 20
184.7267074939645
 30
0.0
 40
0.4999996264625369
100
AcDbArc
 50
269.9999571957095
 51
0.000042804282295
  0
ARC
  5
4ED
330
1F
100
AcDbEntity
  8
0
  6
Continuous
 62
     7
100
AcDbCircle
 10
426.9221972218486
 20
173.7267082410395
 30
0.0
 40
0.4999996264625369
100
AcDbArc
 50
359.9999571957177
 51
90.00004280429044
  0
LINE
  5
4EE
330
1F
100
AcDbEntity
  8
0
  6
Continuous
 62
     7
100
AcDbLine
 10
436.9221968483111
 20
182.7267078675019
 30
0.0
 11
436.9221968483111
 21
175.7267078675019
 31
0.0
  0
ARC
  5
4EF
330
1F
100
AcDbEntity
  8
0
  6
Continuous
 62
     7
100
AcDbCircle
 10
436.4221972218485
 20
175.7267074939645
 30
0.0
 40
0.4999996264625939
100
AcDbArc
 50
269.999957195716
 51
0.0000428042888088
  0
ARC
  5
4F0
330
1F
100
AcDbEntity
  8
0
  6
Continuous
 62
     7
100
AcDbCircle
 10
436.4221972218488
 20
182.7267082410395
 30
0.0
 40
0.4999996264625485
100
AcDbArc
 50
359.9999571957112
 51
90.00004280428717
  0
LINE
  5
4F1
330
1F
100
AcDbEntity
  8
0
  6
Continuous
 62
     7
100
AcDbLine
 10
435.4221968483111
 20
179.2267078675019
 30
0.0
 11
435.4221968483111
 21
179.2267078675019
 31
0.0
  0
LINE
  5
4F4
330
1F
100
AcDbEntity
  8
0
  6
Continuous
 62
     7
100
AcDbLine
 10
436.9221968483111
 20
191.7267078675019
 30
0.0
 11
436.9221968483111
 21
184.7267078675019
 31
0.0
  0
LINE
  5
4F5
330
1F
100
AcDbEntity
  8
0
  6
Continuous
 62
     7
100
AcDbLine
 10
435.4221968483111
 20
188.2267078675019
 30
0.0
 11
435.4221968483111
 21
188.2267078675019
 31
0.0
  0
ARC
  5
4F6
330
1F
100
AcDbEntity
  8
0
  6
Continuous
 62
     7
100
AcDbCircle
 10
437.4221975953862
 20
192.7267086145771
 30
0.0
 40
0.9999992529250738
100
AcDbArc
 50
359.9999571957143
 51
90.00004280428878
  0
ARC
  5
4F7
330
1F
100
AcDbEntity
  8
0
  6
Continuous
 62
     7
100
AcDbCircle
 10
436.4221972218485
 20
191.7267082410397
 30
0.0
 40
0.4999996264625769
100
AcDbArc
 50
359.9999571957112
 51
90.00004280428392
  0
ARC
  5
4F8
330
1F
100
AcDbEntity
  8
0
  6
Continuous
 62
     7
100
AcDbCircle
 10
446.7221966241885
 20
174.9267080916245
 30
0.0
 40
0.2999997758775399
100
AcDbArc
 50
89.99995719571279
 51
180.0000428042903
  0
LINE
  5
4F9
330
1F
100
AcDbEntity
  8
0
  6
Continuous
 62
     7
100
AcDbLine
 10
446.4221968483111
 20
174.5267078675021
 30
0.0
 11
446.4221968483111
 21
174.9267078675021
 31
0.0
  0
ARC
  5
4FA
330
1F
100
AcDbEntity
  8
0
  6
Continuous
 62
     7
100
AcDbCircle
 10
446.7221966241885
 20
174.5267076433795
 30
0.0
 40
0.2999997758775221
100
AcDbArc
 50
179.9999571957144
 51
270.0000428042903
  0
ARC
  5
4FB
330
1F
100
AcDbEntity
  8
0
  6
Continuous
 62
     7
100
AcDbCircle
 10
446.7221966241885
 20
183.9267080916244
 30
0.0
 40
0.2999997758775683
100
AcDbArc
 50
89.99995719571769
 51
180.0000428042903
  0
LINE
  5
4FC
330
1F
100
AcDbEntity
  8
0
  6
Continuous
 62
     7
100
AcDbLine
 10
446.4221968483111
 20
183.5267078675019
 30
0.0
 11
446.4221968483111
 21
183.9267078675021
 31
0.0
  0
ARC
  5
4FD
330
1F
100
AcDbEntity
  8
0
  6
Continuous
 62
     7
100
AcDbCircle
 10
446.7221966241885
 20
183.5267076433795
 30
0.0
 40
0.2999997758775221
100
AcDbArc
 50
179.9999571957144
 51
270.0000428042903
  0
LINE
  5
500
330
1F
100
AcDbEntity
  8
0
  6
Continuous
 62
     7
100
AcDbLine
 10
457.4221968483112
 20
179.2267078675019
 30
0.0
 11
457.4221968483112
 21
179.2267078675019
 31
0.0
  0
ARC
  5
501
330
1F
100
AcDbEntity
  8
0
  6
Continuous
 62
     7
100
AcDbCircle
 10
446.9221964747736
 20
193.2267082410395
 30
0.0
 40
0.4999996264625512
100
AcDbArc
 50
89.99995719571279
 51
180.0000428042888
  0
ARC
  5
502
330
1F
100
AcDbEntity
  8
0
  6
Continuous
 62
     7
100
AcDbCircle
 10
446.9221964747736
 20
192.7267074939645
 30
0.0
 40
0.4999996264625369
100
AcDbArc
 50
179.9999571957112
 51
270.0000428042871
  0
LINE
  5
503
330
1F
100
AcDbEntity
  8
0
  6
Continuous
 62
     7
100
AcDbLine
 10
446.4221968483111
 20
192.726707867502
 30
0.0
 11
446.4221968483111
 21
193.2267078675019
 31
0.0
  0
LINE
  5
506
330
1F
100
AcDbEntity
  8
0
  6
Continuous
 62
     7
100
AcDbLine
 10
457.4221968483112
 20
188.2267078675019
 30
0.0
 11
457.4221968483112
 21
188.2267078675019
 31
0.0
  0
LINE
  5
507
330
1F
100
AcDbEntity
  8
0
  6
Continuous
 62
     7
100
AcDbLine
 10
467.4221968483111
 20
197.5267078675021
 30
0.0
 11
467.4221968483111
 21
106.9267078675022
 31
0.0
  0
LINE
  5
508
330
1F
100
AcDbEntity
  8
0
  6
Continuous
 62
     7
100
AcDbLine
 10
465.4221968483112
 20
196.7267078675019
 30
0.0
 11
465.4221968483112
 21
107.7267078675022
 31
0.0
  0
ARC
  5
509
330
1F
100
AcDbEntity
  8
0
  6
Continuous
 62
     7
100
AcDbCircle
 10
464.7221988654142
 20
106.9267058503992
 30
0.0
 40
2.699997982897756
100
AcDbArc
 50
269.9999571957127
 51
0.0000428042871804
  0
ARC
  5
50A
330
1F
100
AcDbEntity
  8
0
  6
Continuous
 62
     7
100
AcDbCircle
 10
464.4221975953861
 20
107.726707120427
 30
0.0
 40
0.9999992529251022
100
AcDbArc
 50
269.9999571957127
 51
0.0000428042871804
  0
ARC
  5
50B
330
1F
100
AcDbEntity
  8
0
  6
Continuous
 62
     7
100
AcDbCircle
 10
461.9221972218488
 20
111.2267074939645
 30
0.0
 40
0.4999996264625476
100
AcDbArc
 50
269.9999571957127
 51
0.0000428042855519
  0
LINE
  5
50C
330
1F
100
AcDbEntity
  8
0
  6
Continuous
 62
     7
100
AcDbLine
 10
462.4221968483111
 20
111.2267078675022
 30
0.0
 11
462.4221968483111
 21
111.7267078675022
 31
0.0
  0
ARC
  5
50D
330
1F
100
AcDbEntity
  8
0
  6
Continuous
 62
     7
100
AcDbCircle
 10
461.9221972218488
 20
111.7267082410396
 30
0.0
 40
0.4999996264625655
100
AcDbArc
 50
359.9999571957143
 51
90.00004280428717
  0
LINE
  5
50E
330
1F
100
AcDbEntity
  8
0
  6
Continuous
 62
     7
100
AcDbLine
 10
462.4221968483111
 20
120.9267078675022
 30
0.0
 11
462.4221968483111
 21
120.5267078675022
 31
0.0
  0
ARC
  5
50F
330
1F
100
AcDbEntity
  8
0
  6
Continuous
 62
     7
100
AcDbCircle
 10
462.1221970724337
 20
120.5267076433796
 30
0.0
 40
0.2999997758775186
100
AcDbArc
 50
269.9999571957111
 51
0.0000428042855519
  0
ARC
  5
510
330
1F
100
AcDbEntity
  8
0
  6
Continuous
 62
     7
100
AcDbCircle
 10
462.1221970724337
 20
120.9267080916247
 30
0.0
 40
0.2999997758775506
100
AcDbArc
 50
359.9999571957143
 51
90.00004280428553
  0
ARC
  5
511
330
1F
100
AcDbEntity
  8
0
  6
Continuous
 62
     7
100
AcDbCircle
 10
462.1221970724337
 20
129.5267076433795
 30
0.0
 40
0.2999997758775186
100
AcDbArc
 50
269.9999571957111
 51
0.0000428042855519
  0
LINE
  5
512
330
1F
100
AcDbEntity
  8
0
  6
Continuous
 62
     7
100
AcDbLine
 10
462.4221968483111
 20
129.9267078675022
 30
0.0
 11
462.4221968483111
 21
129.5267078675022
 31
0.0
  0
ARC
  5
513
330
1F
100
AcDbEntity
  8
0
  6
Continuous
 62
     7
100
AcDbCircle
 10
462.1221970724337
 20
129.9267080916244
 30
0.0
 40
0.2999997758775506
100
AcDbArc
 50
359.9999571957143
 51
90.00004280428553
  0
ARC
  5
514
330
1F
100
AcDbEntity
  8
0
  6
Continuous
 62
     7
100
AcDbCircle
 10
462.1221970724337
 20
138.5267076433794
 30
0.0
 40
0.2999997758775186
100
AcDbArc
 50
269.9999571957111
 51
0.0000428042855519
  0
LINE
  5
515
330
1F
100
AcDbEntity
  8
0
  6
Continuous
 62
     7
100
AcDbLine
 10
462.4221968483111
 20
138.9267078675019
 30
0.0
 11
462.4221968483111
 21
138.5267078675022
 31
0.0
  0
ARC
  5
516
330
1F
100
AcDbEntity
  8
0
  6
Continuous
 62
     7
100
AcDbCircle
 10
462.1221970724337
 20
138.9267080916247
 30
0.0
 40
0.299999775877579
100
AcDbArc
 50
359.9999571957046
 51
90.0000428042774
  0
ARC
  5
517
330
1F
100
AcDbEntity
  8
0
  6
Continuous
 62
     7
100
AcDbCircle
 10
462.1221970724337
 20
147.5267076433794
 30
0.0
 40
0.2999997758775186
100
AcDbArc
 50
269.9999571957111
 51
0.0000428042855519
  0
LINE
  5
518
330
1F
100
AcDbEntity
  8
0
  6
Continuous
 62
     7
100
AcDbLine
 10
462.4221968483111
 20
147.9267078675021
 30
0.0
 11
462.4221968483111
 21
147.5267078675021
 31
0.0
  0
ARC
  5
519
330
1F
100
AcDbEntity
  8
0
  6
Continuous
 62
     7
100
AcDbCircle
 10
462.1221970724337
 20
147.9267080916246
 30
0.0
 40
0.2999997758775506
100
AcDbArc
 50
359.9999571957143
 51
90.00004280428553
  0
ARC
  5
51A
330
1F
100
AcDbEntity
  8
0
  6
Continuous
 62
     7
100
AcDbCircle
 10
462.1221970724337
 20
156.5267076433794
 30
0.0
 40
0.2999997758774759
100
AcDbArc
 50
269.999957195703
 51
0.0000428042741528
  0
LINE
  5
51B
330
1F
100
AcDbEntity
  8
0
  6
Continuous
 62
     7
100
AcDbLine
 10
462.4221968483111
 20
156.9267078675021
 30
0.0
 11
462.4221968483111
 21
156.526707867502
 31
0.0
  0
ARC
  5
51C
330
1F
100
AcDbEntity
  8
0
  6
Continuous
 62
     7
100
AcDbCircle
 10
462.1221970724337
 20
156.9267080916245
 30
0.0
 40
0.299999775877579
100
AcDbArc
 50
359.9999571957095
 51
90.00004280428067
  0
ARC
  5
51D
330
1F
100
AcDbEntity
  8
0
  6
Continuous
 62
     7
100
AcDbCircle
 10
462.1221970724337
 20
165.5267076433794
 30
0.0
 40
0.2999997758774902
100
AcDbArc
 50
269.9999571957046
 51
0.0000428042790381
  0
LINE
  5
51E
330
1F
100
AcDbEntity
  8
0
  6
Continuous
 62
     7
100
AcDbLine
 10
462.4221968483111
 20
165.9267078675019
 30
0.0
 11
462.4221968483111
 21
165.526707867502
 31
0.0
  0
ARC
  5
51F
330
1F
100
AcDbEntity
  8
0
  6
Continuous
 62
     7
100
AcDbCircle
 10
462.1221970724337
 20
165.9267080916245
 30
0.0
 40
0.2999997758775221
100
AcDbArc
 50
359.9999571957095
 51
90.00004280428553
  0
ARC
  5
520
330
1F
100
AcDbEntity
  8
0
  6
Continuous
 62
     7
100
AcDbCircle
 10
462.1221970724337
 20
174.5267076433795
 30
0.0
 40
0.2999997758775186
100
AcDbArc
 50
269.9999571957111
 51
0.0000428042855519
  0
LINE
  5
521
330
1F
100
AcDbEntity
  8
0
  6
Continuous
 62
     7
100
AcDbLine
 10
462.4221968483111
 20
174.9267078675021
 30
0.0
 11
462.4221968483111
 21
174.5267078675021
 31
0.0
  0
ARC
  5
522
330
1F
100
AcDbEntity
  8
0
  6
Continuous
 62
     7
100
AcDbCircle
 10
462.1221970724337
 20
174.9267080916245
 30
0.0
 40
0.2999997758775221
100
AcDbArc
 50
359.9999571957095
 51
90.00004280428553
  0
ARC
  5
523
330
1F
100
AcDbEntity
  8
0
  6
Continuous
 62
     7
100
AcDbCircle
 10
462.1221970724337
 20
183.5267076433795
 30
0.0
 40
0.2999997758775186
100
AcDbArc
 50
269.9999571957111
 51
0.0000428042855519
  0
LINE
  5
524
330
1F
100
AcDbEntity
  8
0
  6
Continuous
 62
     7
100
AcDbLine
 10
462.4221968483111
 20
183.9267078675021
 30
0.0
 11
462.4221968483111
 21
183.5267078675019
 31
0.0
  0
ARC
  5
525
330
1F
100
AcDbEntity
  8
0
  6
Continuous
 62
     7
100
AcDbCircle
 10
462.1221970724337
 20
183.9267080916244
 30
0.0
 40
0.299999775877579
100
AcDbArc
 50
359.9999571957095
 51
90.00004280428067
  0
ARC
  5
526
330
1F
100
AcDbEntity
  8
0
  6
Continuous
 62
     7
100
AcDbCircle
 10
461.9221972218488
 20
192.7267074939645
 30
0.0
 40
0.4999996264625476
100
AcDbArc
 50
269.9999571957127
 51
0.0000428042888088
  0
LINE
  5
527
330
1F
100
AcDbEntity
  8
0
  6
Continuous
 62
     7
100
AcDbLine
 10
462.4221968483111
 20
193.2267078675019
 30
0.0
 11
462.4221968483111
 21
192.726707867502
 31
0.0
  0
ARC
  5
528
330
1F
100
AcDbEntity
  8
0
  6
Continuous
 62
     7
100
AcDbCircle
 10
461.9221972218488
 20
193.2267082410395
 30
0.0
 40
0.4999996264625369
100
AcDbArc
 50
359.9999571957112
 51
90.00004280428717
  0
ARC
  5
529
330
1F
100
AcDbEntity
  8
0
  6
Continuous
 62
     7
100
AcDbCircle
 10
464.7221988654139
 20
197.5267098846051
 30
0.0
 40
2.699997982897777
100
AcDbArc
 50
359.9999571957126
 51
90.00004280428717
  0
ARC
  5
52A
330
1F
100
AcDbEntity
  8
0
  6
Continuous
 62
     7
100
AcDbCircle
 10
464.4221975953862
 20
196.7267086145773
 30
0.0
 40
0.9999992529250667
100
AcDbArc
 50
359.9999571957143
 51
90.00004280428878
  0
CIRCLE
  5
532
330
1F
100
AcDbEntity
  8
0
  6
Continuous
 62
     7
100
AcDbCircle
 10
454.4221964637773
 20
116.2267074829683
 30
0.0
 40
3.00000038453387
  0
CIRCLE
  5
533
330
1F
100
AcDbEntity
  8
0
  6
Continuous
 62
     7
100
AcDbCircle
 10
454.4221964637773
 20
125.2267074829682
 30
0.0
 40
3.00000038453387
  0
CIRCLE
  5
534
330
1F
100
AcDbEntity
  8
0
  6
Continuous
 62
     7
100
AcDbCircle
 10
454.4221964637773
 20
143.2267074829683
 30
0.0
 40
3.00000038453387
  0
LINE
  5
535
330
1F
100
AcDbEntity
  8
0
  6
Continuous
 62
     7
100
AcDbLine
 10
457.4221968483112
 20
143.2267078675022
 30
0.0
 11
457.4221968483112
 21
143.2267078675022
 31
0.0
  0
CIRCLE
  5
536
330
1F
100
AcDbEntity
  8
0
  6
Continuous
 62
     7
100
AcDbCircle
 10
454.4221964637773
 20
134.2267074829682
 30
0.0
 40
3.00000038453387
  0
LINE
  5
537
330
1F
100
AcDbEntity
  8
0
  6
Continuous
 62
     7
100
AcDbLine
 10
457.4221968483112
 20
134.226707867502
 30
0.0
 11
457.4221968483112
 21
134.226707867502
 31
0.0
  0
CIRCLE
  5
538
330
1F
100
AcDbEntity
  8
0
  6
Continuous
 62
     7
100
AcDbCircle
 10
454.4221990895366
 20
152.2267101087275
 30
0.0
 40
3.00000038453387
  0
CIRCLE
  5
539
330
1F
100
AcDbEntity
  8
0
  6
Continuous
 62
     7
100
AcDbCircle
 10
454.4221990895366
 20
161.2267101087276
 30
0.0
 40
3.00000038453387
  0
LINE
  5
53A
330
1F
100
AcDbEntity
  8
0
  6
Continuous
 62
     7
100
AcDbLine
 10
457.4221994740705
 20
161.2267104932615
 30
0.0
 11
457.4221994740705
 21
161.2267104932615
 31
0.0
  0
CIRCLE
  5
53B
330
1F
100
AcDbEntity
  8
0
  6
Continuous
 62
     7
100
AcDbCircle
 10
454.4221990895366
 20
170.2267101087275
 30
0.0
 40
3.00000038453387
  0
LINE
  5
53C
330
1F
100
AcDbEntity
  8
0
  6
Continuous
 62
     7
100
AcDbLine
 10
457.4221994740705
 20
170.2267104932615
 30
0.0
 11
457.4221994740705
 21
170.2267104932615
 31
0.0
  0
LINE
  5
53D
330
1F
100
AcDbEntity
  8
0
  6
Continuous
 62
     7
100
AcDbLine
 10
457.4221994740705
 20
170.2267104932615
 30
0.0
 11
457.4221994740705
 21
170.2267104932615
 31
0.0
  0
CIRCLE
  5
53E
330
1F
100
AcDbEntity
  8
0
  6
Continuous
 62
     7
100
AcDbCircle
 10
454.4221990895366
 20
179.2267101087276
 30
0.0
 40
3.00000038453387
  0
LINE
  5
53F
330
1F
100
AcDbEntity
  8
0
  6
Continuous
 62
     7
100
AcDbLine
 10
457.4221994740705
 20
179.2267104932616
 30
0.0
 11
457.4221994740705
 21
179.2267104932616
 31
0.0
  0
LINE
  5
540
330
1F
100
AcDbEntity
  8
0
  6
Continuous
 62
     7
100
AcDbLine
 10
457.4221994740705
 20
179.2267104932616
 30
0.0
 11
457.4221994740705
 21
179.2267104932616
 31
0.0
  0
CIRCLE
  5
541
330
1F
100
AcDbEntity
  8
0
  6
Continuous
 62
     7
100
AcDbCircle
 10
454.4221964637773
 20
188.226707482968
 30
0.0
 40
3.00000038453387
  0
LINE
  5
542
330
1F
100
AcDbEntity
  8
0
  6
Continuous
 62
     7
100
AcDbLine
 10
457.4221968483112
 20
188.226707867502
 30
0.0
 11
457.4221968483112
 21
188.226707867502
 31
0.0
  0
LINE
  5
543
330
1F
100
AcDbEntity
  8
0
  6
Continuous
 62
     7
100
AcDbLine
 10
457.4221968483112
 20
188.226707867502
 30
0.0
 11
457.4221968483112
 21
188.226707867502
 31
0.0
  0
LINE
  5
544
330
1F
100
AcDbEntity
  8
0
  6
Continuous
 62
     7
100
AcDbLine
 10
457.4221942225518
 20
188.2267052417427
 30
0.0
 11
457.4221942225518
 21
188.2267052417427
 31
0.0
  0
CIRCLE
  5
545
330
1F
100
AcDbEntity
  8
0
  6
Continuous
 62
     7
100
AcDbCircle
 10
432.4221964637771
 20
116.2267074829683
 30
0.0
 40
3.00000038453387
  0
LINE
  5
546
330
1F
100
AcDbEntity
  8
0
  6
Continuous
 62
     7
100
AcDbLine
 10
435.4221968483111
 20
116.2267078675022
 30
0.0
 11
435.4221968483111
 21
116.2267078675022
 31
0.0
  0
CIRCLE
  5
547
330
1F
100
AcDbEntity
  8
0
  6
Continuous
 62
     7
100
AcDbCircle
 10
432.4221964637771
 20
125.2267074829682
 30
0.0
 40
3.00000038453387
  0
LINE
  5
548
330
1F
100
AcDbEntity
  8
0
  6
Continuous
 62
     7
100
AcDbLine
 10
435.4221968483111
 20
125.2267078675022
 30
0.0
 11
435.4221968483111
 21
125.2267078675022
 31
0.0
  0
CIRCLE
  5
549
330
1F
100
AcDbEntity
  8
0
  6
Continuous
 62
     7
100
AcDbCircle
 10
432.4221964637771
 20
134.2267074829682
 30
0.0
 40
3.00000038453387
  0
LINE
  5
54A
330
1F
100
AcDbEntity
  8
0
  6
Continuous
 62
     7
100
AcDbLine
 10
435.4221968483111
 20
134.226707867502
 30
0.0
 11
435.4221968483111
 21
134.226707867502
 31
0.0
  0
LINE
  5
54B
330
1F
100
AcDbEntity
  8
0
  6
Continuous
 62
     7
100
AcDbLine
 10
435.4221968483111
 20
134.226707867502
 30
0.0
 11
435.4221968483111
 21
134.226707867502
 31
0.0
  0
CIRCLE
  5
54C
330
1F
100
AcDbEntity
  8
0
  6
Continuous
 62
     7
100
AcDbCircle
 10
432.4221964637771
 20
143.2267074829683
 30
0.0
 40
3.00000038453387
  0
CIRCLE
  5
54D
330
1F
100
AcDbEntity
  8
0
  6
Continuous
 62
     7
100
AcDbCircle
 10
432.4221990895368
 20
152.2267101087275
 30
0.0
 40
3.00000038453387
  0
CIRCLE
  5
54E
330
1F
100
AcDbEntity
  8
0
  6
Continuous
 62
     7
100
AcDbCircle
 10
432.4221990895368
 20
161.2267101087276
 30
0.0
 40
3.00000038453387
  0
CIRCLE
  5
54F
330
1F
100
AcDbEntity
  8
0
  6
Continuous
 62
     7
100
AcDbCircle
 10
432.4221990895368
 20
179.2267101087276
 30
0.0
 40
3.00000038453387
  0
CIRCLE
  5
550
330
1F
100
AcDbEntity
  8
0
  6
Continuous
 62
     7
100
AcDbCircle
 10
432.4221964637771
 20
188.226707482968
 30
0.0
 40
3.00000038453387
  0
CIRCLE
  5
55A
330
1F
100
AcDbEntity
  8
0
  6
Continuous
 62
     7
100
AcDbCircle
 10
195.6696722181136
 20
159.9082592373041
 30
0.0
 40
0.4949996301978632
  0
CIRCLE
  5
55B
330
1F
100
AcDbEntity
  8
0
  6
Continuous
 62
     7
100
AcDbCircle
 10
202.5446722181134
 20
159.9082592373041
 30
0.0
 40
0.4949996301979486
  0
CIRCLE
  5
55C
330
1F
100
AcDbEntity
  8
0
  6
Continuous
 62
     7
100
AcDbCircle
 10
209.4196722181135
 20
159.9082592373041
 30
0.0
 40
0.4949996301978348
  0
CIRCLE
  5
55D
330
1F
100
AcDbEntity
  8
0
  6
Continuous
 62
     7
100
AcDbCircle
 10
216.2946722181135
 20
159.9082592373041
 30
0.0
 40
0.4949996301978348
  0
CIRCLE
  5
55E
330
1F
100
AcDbEntity
  8
0
  6
Continuous
 62
     7
100
AcDbCircle
 10
195.6696722181136
 20
177.408259237304
 30
0.0
 40
0.4949996301979203
  0
CIRCLE
  5
55F
330
1F
100
AcDbEntity
  8
0
  6
Continuous
 62
     7
100
AcDbCircle
 10
202.5446722181134
 20
177.408259237304
 30
0.0
 40
0.4949996301979486
  0
CIRCLE
  5
560
330
1F
100
AcDbEntity
  8
0
  6
Continuous
 62
     7
100
AcDbCircle
 10
209.4196722181135
 20
177.408259237304
 30
0.0
 40
0.4949996301979203
  0
CIRCLE
  5
561
330
1F
100
AcDbEntity
  8
0
  6
Continuous
 62
     7
100
AcDbCircle
 10
216.2946722181135
 20
177.408259237304
 30
0.0
 40
0.4949996301978348
  0
ENDSEC
  0
SECTION
  2
OBJECTS
  0
DICTIONARY
  5
C
330
0
100
AcDbDictionary
281
     1
  3
ACAD_GROUP
350
D
  3
ACAD_LAYOUT
350
1A
  3
ACAD_MLINESTYLE
350
17
  3
ACAD_PLOTSETTINGS
350
19
  3
ACAD_PLOTSTYLENAME
350
E
  0
DICTIONARY
  5
D
102
{ACAD_REACTORS
330
C
102
}
330
C
100
AcDbDictionary
281
     1
  0
DICTIONARY
  5
1A
102
{ACAD_REACTORS
330
C
102
}
330
C
100
AcDbDictionary
281
     1
  3
Model
350
22
  3
ﾚｲｱｳﾄ1
350
52D
  0
DICTIONARY
  5
17
102
{ACAD_REACTORS
330
C
102
}
330
C
100
AcDbDictionary
281
     1
  3
Standard
350
18
  0
DICTIONARY
  5
19
102
{ACAD_REACTORS
330
C
102
}
330
C
100
AcDbDictionary
281
     1
  0
ACDBDICTIONARYWDFLT
  5
E
102
{ACAD_REACTORS
330
C
102
}
330
C
100
AcDbDictionary
281
     1
  3
Normal
350
F
100
AcDbDictionaryWithDefault
340
F
  0
LAYOUT
  5
22
102
{ACAD_REACTORS
330
1A
102
}
330
1A
100
AcDbPlotSettings
  1

  2
A2 Printer TG2 RPCS
  4

  6

 40
0.0
 41
0.0
 42
0.0
 43
0.0
 44
0.0
 45
0.0
 46
0.0
 47
0.0
 48
0.0
 49
0.0
140
0.0
141
0.0
142
1.0
143
1.0
 70
  1712
 72
     0
 73
     0
 74
     0
  7

 75
     0
147
1.0
148
0.0
149
0.0
100
AcDbLayout
  1
Model
 70
     1
 71
     0
 10
0.0
 20
0.0
 11
12.0
 21
9.0
 12
0.0
 22
0.0
 32
0.0
 14
0.0
 24
0.0
 34
0.0
 15
0.0
 25
0.0
 35
0.0
146
0.0
 13
0.0
 23
0.0
 33
0.0
 16
1.0
 26
0.0
 36
0.0
 17
0.0
 27
1.0
 37
0.0
 76
     0
330
1F
  0
LAYOUT
  5
52D
102
{ACAD_REACTORS
330
1A
102
}
330
1A
100
AcDbPlotSettings
  1

  2
A2 Printer TG2 RPCS
  4

  6

 40
0.0
 41
0.0
 42
0.0
 43
0.0
 44
0.0
 45
0.0
 46
0.0
 47
0.0
 48
0.0
 49
0.0
140
0.0
141
0.0
142
1.0
143
1.0
 70
   688
 72
     0
 73
     0
 74
     5
  7

 75
    16
147
1.0
148
0.0
149
0.0
100
AcDbLayout
  1
ﾚｲｱｳﾄ1
 70
     1
 71
     1
 10
0.0
 20
0.0
 11
12.0
 21
9.0
 12
0.0
 22
0.0
 32
0.0
 14
0.0
 24
0.0
 34
0.0
 15
0.0
 25
0.0
 35
0.0
146
0.0
 13
0.0
 23
0.0
 33
0.0
 16
1.0
 26
0.0
 36
0.0
 17
0.0
 27
1.0
 37
0.0
 76
     0
330
52C
  0
MLINESTYLE
  5
18
102
{ACAD_REACTORS
330
17
102
}
330
17
100
AcDbMlineStyle
  2
STANDARD
 70
     0
  3

 62
   256
 51
90.0
 52
90.0
 71
     2
 49
0.5
 62
   256
  6
BYLAYER
 49
-0.5
 62
   256
  6
BYLAYER
  0
ACDBPLACEHOLDER
  5
F
102
{ACAD_REACTORS
330
E
102
}
330
E
  0
ENDSEC
  0
EOF
