  0
SECTION
  2
HEADER
  9
$ACADVER
  1
AC1015
  9
$ACADMAINTVER
 70
     6
  9
$DWGCODEPAGE
  3
ANSI_1252
  9
$INSBASE
 10
0.0
 20
0.0
 30
0.0
  9
$EXTMIN
 10
0.0
 20
0.0
 30
0.0
  9
$EXTMAX
 10
743.563538
 20
577.471191
 30
2.0
  9
$LIMMIN
 10
0.0
 20
0.0
  9
$LIMMAX
 10
420.0
 20
297.0
  9
$ORTHOMODE
 70
     0
  9
$REGENMODE
 70
     1
  9
$FILLMODE
 70
     1
  9
$QTEXTMODE
 70
     0
  9
$MIRRTEXT
 70
     1
  9
$LTSCALE
 40
1.0
  9
$ATTMODE
 70
     1
  9
$TEXTSIZE
 40
2.5
  9
$TRACEWID
 40
1.0
  9
$TEXTSTYLE
  7
Standard
  9
$CLAYER
  8
0
  9
$CELTYPE
  6
ByLayer
  9
$CECOLOR
 62
   256
  9
$CELTSCALE
 40
1.0
  9
$DISPSILH
 70
     0
  9
$DIMSCALE
 40
1.0
  9
$DIMASZ
 40
2.5
  9
$DIMEXO
 40
0.625
  9
$DIMDLI
 40
3.75
  9
$DIMRND
 40
0.0
  9
$DIMDLE
 40
0.0
  9
$DIMEXE
 40
1.25
  9
$DIMTP
 40
0.0
  9
$DIMTM
 40
0.0
  9
$DIMTXT
 40
2.5
  9
$DIMCEN
 40
2.5
  9
$DIMTSZ
 40
0.0
  9
$DIMTOL
 70
     0
  9
$DIMLIM
 70
     0
  9
$DIMTIH
 70
     0
  9
$DIMTOH
 70
     0
  9
$DIMSE1
 70
     0
  9
$DIMSE2
 70
     0
  9
$DIMTAD
 70
     1
  9
$DIMZIN
 70
     8
  9
$DIMBLK
  1

  9
$DIMASO
 70
     1
  9
$DIMSHO
 70
     1
  9
$DIMPOST
  1

  9
$DIMAPOST
  1

  9
$DIMALT
 70
     0
  9
$DIMALTD
 70
     3
  9
$DIMALTF
 40
0.03937
  9
$DIMLFAC
 40
1.0
  9
$DIMTOFL
 70
     1
  9
$DIMTVP
 40
0.0
  9
$DIMTIX
 70
     0
  9
$DIMSOXD
 70
     0
  9
$DIMSAH
 70
     0
  9
$DIMBLK1
  1

  9
$DIMBLK2
  1

  9
$DIMSTYLE
  2
Standard
  9
$DIMCLRD
 70
     0
  9
$DIMCLRE
 70
     0
  9
$DIMCLRT
 70
     0
  9
$DIMTFAC
 40
1.0
  9
$DIMGAP
 40
0.625
  9
$DIMJUST
 70
     0
  9
$DIMSD1
 70
     0
  9
$DIMSD2
 70
     0
  9
$DIMTOLJ
 70
     0
  9
$DIMTZIN
 70
     8
  9
$DIMALTZ
 70
     0
  9
$DIMALTTZ
 70
     0
  9
$DIMUPT
 70
     0
  9
$DIMDEC
 70
     2
  9
$DIMTDEC
 70
     2
  9
$DIMALTU
 70
     2
  9
$DIMALTTD
 70
     3
  9
$DIMTXSTY
  7
Standard
  9
$DIMAUNIT
 70
     0
  9
$DIMADEC
 70
     0
  9
$DIMALTRND
 40
0.0
  9
$DIMAZIN
 70
     0
  9
$DIMDSEP
 70
    44
  9
$DIMATFIT
 70
     0
  9
$DIMFRAC
 70
     0
  9
$DIMLDRBLK
  1

  9
$DIMLUNIT
 70
     2
  9
$DIMLWD
 70
    -2
  9
$DIMLWE
 70
    -2
  9
$DIMTMOVE
 70
     0
  9
$LUNITS
 70
     2
  9
$LUPREC
 70
     4
  9
$SKETCHINC
 40
1.0
  9
$FILLETRAD
 40
2.5
  9
$AUNITS
 70
     0
  9
$AUPREC
 70
     0
  9
$MENU
  1
.
  9
$ELEVATION
 40
0.0
  9
$PELEVATION
 40
0.0
  9
$THICKNESS
 40
0.0
  9
$LIMCHECK
 70
     0
  9
$CHAMFERA
 40
2.5
  9
$CHAMFERB
 40
2.5
  9
$CHAMFERC
 40
0.0
  9
$CHAMFERD
 40
0.0
  9
$SKPOLY
 70
     0
  9
$TDCREATE
 40
2447893.375
  9
$TDUCREATE
 40
0.0
  9
$TDUPDATE
 40
2459513.557184873
  9
$TDUUPDATE
 40
2459513.182184873
  9
$TDINDWG
 40
0.0
  9
$TDUSRTIMER
 40
0.0
  9
$USRTIMER
 70
     1
  9
$ANGBASE
 50
0.0
  9
$ANGDIR
 70
     0
  9
$PDMODE
 70
     0
  9
$PDSIZE
 40
0.0
  9
$PLINEWID
 40
0.0
  9
$SPLFRAME
 70
     0
  9
$SPLINETYPE
 70
     6
  9
$SPLINESEGS
 70
     8
  9
$HANDSEED
  5
75B
  9
$SURFTAB1
 70
     6
  9
$SURFTAB2
 70
     6
  9
$SURFTYPE
 70
     6
  9
$SURFU
 70
     6
  9
$SURFV
 70
     6
  9
$UCSBASE
  2

  9
$UCSNAME
  2

  9
$UCSORG
 10
0.0
 20
0.0
 30
0.0
  9
$UCSXDIR
 10
1.0
 20
0.0
 30
0.0
  9
$UCSYDIR
 10
0.0
 20
1.0
 30
0.0
  9
$UCSORTHOREF
  2

  9
$UCSORTHOVIEW
 70
     1
  9
$UCSORGTOP
 10
0.0
 20
0.0
 30
0.0
  9
$UCSORGBOTTOM
 10
0.0
 20
0.0
 30
0.0
  9
$UCSORGLEFT
 10
0.0
 20
0.0
 30
0.0
  9
$UCSORGRIGHT
 10
0.0
 20
0.0
 30
0.0
  9
$UCSORGFRONT
 10
0.0
 20
0.0
 30
0.0
  9
$UCSORGBACK
 10
0.0
 20
0.0
 30
0.0
  9
$PUCSBASE
  2

  9
$PUCSNAME
  2

  9
$PUCSORG
 10
0.0
 20
0.0
 30
0.0
  9
$PUCSXDIR
 10
1.0
 20
0.0
 30
0.0
  9
$PUCSYDIR
 10
0.0
 20
1.0
 30
0.0
  9
$PUCSORTHOREF
  2

  9
$PUCSORTHOVIEW
 70
     0
  9
$PUCSORGTOP
 10
0.0
 20
0.0
 30
0.0
  9
$PUCSORGBOTTOM
 10
0.0
 20
0.0
 30
0.0
  9
$PUCSORGLEFT
 10
0.0
 20
0.0
 30
0.0
  9
$PUCSORGRIGHT
 10
0.0
 20
0.0
 30
0.0
  9
$PUCSORGFRONT
 10
0.0
 20
0.0
 30
0.0
  9
$PUCSORGBACK
 10
0.0
 20
0.0
 30
0.0
  9
$USERI1
 70
     0
  9
$USERI2
 70
     0
  9
$USERI3
 70
     0
  9
$USERI4
 70
     0
  9
$USERI5
 70
     0
  9
$USERR1
 40
0.0
  9
$USERR2
 40
0.0
  9
$USERR3
 40
0.0
  9
$USERR4
 40
0.0
  9
$USERR5
 40
0.0
  9
$WORLDVIEW
 70
     1
  9
$SHADEDGE
 70
     3
  9
$SHADEDIF
 70
    70
  9
$TILEMODE
 70
     1
  9
$MAXACTVP
 70
    64
  9
$PINSBASE
 10
0.0
 20
0.0
 30
0.0
  9
$PLIMCHECK
 70
     0
  9
$PEXTMIN
 10
0.0
 20
0.0
 30
0.0
  9
$PEXTMAX
 10
743.563538
 20
577.471191
 30
2.0
  9
$PLIMMIN
 10
0.0
 20
0.0
  9
$PLIMMAX
 10
420.0
 20
297.0
  9
$UNITMODE
 70
     0
  9
$VISRETAIN
 70
     0
  9
$PLINEGEN
 70
     0
  9
$PSLTSCALE
 70
     1
  9
$TREEDEPTH
 70
  3020
  9
$CMLSTYLE
  2
Standard
  9
$CMLJUST
 70
     0
  9
$CMLSCALE
 40
20.0
  9
$PROXYGRAPHICS
 70
     1
  9
$MEASUREMENT
 70
     1
  9
$CELWEIGHT
370
    -1
  9
$ENDCAPS
280
     0
  9
$JOINSTYLE
280
     0
  9
$LWDISPLAY
290
     0
  9
$INSUNITS
 70
     0
  9
$HYPERLINKBASE
  1

  9
$STYLESHEET
  1

  9
$XEDIT
290
     1
  9
$CEPSNTYPE
380
     0
  9
$PSTYLEMODE
290
     0
  9
$FINGERPRINTGUID
  2
{7E6784AB-6B11-4214-905F-EB1A286F2552}
  9
$VERSIONGUID
  2
{FAEB1C32-E019-11D5-929B-00C0DF256EC4}
  9
$EXTNAMES
290
     1
  9
$PSVPSCALE
 40
0.0
  9
$OLESTARTUP
290
     0
  0
ENDSEC
  0
SECTION
  2
CLASSES
  0
CLASS
  1
ACDBDICTIONARYWDFLT
  2
AcDbDictionaryWithDefault
  3
ObjectDBX Classes
 90
        0
280
     0
281
     0
  0
CLASS
  1
VISUALSTYLE
  2
AcDbVisualStyle
  3
ObjectDBX Classes
 90
     4095
280
     0
281
     0
  0
CLASS
  1
MATERIAL
  2
AcDbMaterial
  3
ObjectDBX Classes
 90
     1153
280
     0
281
     0
  0
CLASS
  1
SCALE
  2
AcDbScale
  3
ObjectDBX Classes
 90
     1153
280
     0
281
     0
  0
CLASS
  1
TABLESTYLE
  2
AcDbTableStyle
  3
ObjectDBX Classes
 90
     4095
280
     0
281
     0
  0
CLASS
  1
MLEADERSTYLE
  2
AcDbMLeaderStyle
  3
ACDB_MLEADERSTYLE_CLASS
 90
     4095
280
     0
281
     0
  0
CLASS
  1
SUN
  2
AcDbSun
  3
SCENEOE
 90
     1153
280
     0
281
     0
  0
CLASS
  1
ACDBPLACEHOLDER
  2
AcDbPlaceHolder
  3
ObjectDBX Classes
 90
        0
280
     0
281
     0
  0
CLASS
  1
LAYOUT
  2
AcDbLayout
  3
ObjectDBX Classes
 90
        0
280
     0
281
     0
  0
ENDSEC
  0
SECTION
  2
TABLES
  0
TABLE
  2
VPORT
  5
8
330
0
100
AcDbSymbolTable
 70
     1
  0
VPORT
  5
29
330
8
100
AcDbSymbolTableRecord
100
AcDbViewportTableRecord
  2
*Active
 70
     0
 10
0.0
 20
0.0
 11
1.0
 21
1.0
 12
10.429907
 22
4.5
 13
0.0
 23
0.0
 14
0.5
 24
0.5
 15
0.5
 25
0.5
 16
0.0
 26
0.0
 36
1.0
 17
0.0
 27
0.0
 37
0.0
 40
9.0
 41
1.972973
 42
50.0
 43
0.0
 44
0.0
 50
0.0
 51
0.0
 71
     0
 72
   100
 73
     1
 74
     3
 75
     0
 76
     0
 77
     0
 78
     0
281
     0
 65
     1
110
0.0
120
0.0
130
0.0
111
1.0
121
0.0
131
0.0
112
0.0
122
1.0
132
0.0
 79
     0
146
0.0
  0
ENDTAB
  0
TABLE
  2
LTYPE
  5
5
330
0
100
AcDbSymbolTable
 70
     2
  0
LTYPE
  5
14
330
5
100
AcDbSymbolTableRecord
100
AcDbLinetypeTableRecord
  2
ByBlock
 70
     0
  3

 72
    65
 73
     0
 40
0.0
  0
LTYPE
  5
15
330
5
100
AcDbSymbolTableRecord
100
AcDbLinetypeTableRecord
  2
ByLayer
 70
     0
  3

 72
    65
 73
     0
 40
0.0
  0
LTYPE
  5
16
330
5
100
AcDbSymbolTableRecord
100
AcDbLinetypeTableRecord
  2
Continuous
 70
     0
  3
Solid line
 72
    65
 73
     0
 40
0.0
  0
LTYPE
  5
6E
330
5
100
AcDbSymbolTableRecord
100
AcDbLinetypeTableRecord
  2
PHANTOM
 70
     0
  3
____________    ____    ____   _
 72
    65
 73
     6
 40
20.0
 49
10.0
 74
     0
 49
-2.0
 74
     0
 49
2.0
 74
     0
 49
-2.0
 74
     0
 49
2.0
 74
     0
 49
-2.0
 74
     0
  0
ENDTAB
  0
TABLE
  2
LAYER
  5
2
330
0
100
AcDbSymbolTable
 70
     1
  0
LAYER
  5
10
330
2
100
AcDbSymbolTableRecord
100
AcDbLayerTableRecord
  2
0
 70
     0
 62
     7
  6
Continuous
370
    -3
390
F
  0
ENDTAB
  0
TABLE
  2
STYLE
  5
3
330
0
100
AcDbSymbolTable
 70
     1
  0
STYLE
  5
11
330
3
100
AcDbSymbolTableRecord
100
AcDbTextStyleTableRecord
  2
Standard
 70
     0
 40
0.0
 41
1.0
 50
0.0
 71
     0
 42
2.5
  3
txt
  4

  0
ENDTAB
  0
TABLE
  2
VIEW
  5
6
330
0
100
AcDbSymbolTable
 70
     0
  0
ENDTAB
  0
TABLE
  2
UCS
  5
7
330
0
100
AcDbSymbolTable
 70
     0
  0
ENDTAB
  0
TABLE
  2
APPID
  5
9
330
0
100
AcDbSymbolTable
 70
     1
  0
APPID
  5
12
330
9
100
AcDbSymbolTableRecord
100
AcDbRegAppTableRecord
  2
ACAD
 70
     0
  0
ENDTAB
  0
TABLE
  2
DIMSTYLE
  5
A
330
0
100
AcDbSymbolTable
 70
     1
100
AcDbDimStyleTable
  0
DIMSTYLE
105
27
330
A
100
AcDbSymbolTableRecord
100
AcDbDimStyleTableRecord
  2
Standard
 70
     0
178
     0
340
11
  0
ENDTAB
  0
TABLE
  2
BLOCK_RECORD
  5
1
330
0
100
AcDbSymbolTable
 70
     1
  0
BLOCK_RECORD
  5
1F
330
1
100
AcDbSymbolTableRecord
100
AcDbBlockTableRecord
  2
*Model_Space
340
22
  0
BLOCK_RECORD
  5
1B
330
1
100
AcDbSymbolTableRecord
100
AcDbBlockTableRecord
  2
*Paper_Space
340
1E
  0
BLOCK_RECORD
  5
23
330
1
100
AcDbSymbolTableRecord
100
AcDbBlockTableRecord
  2
*Paper_Space0
340
26
  0
ENDTAB
  0
ENDSEC
  0
SECTION
  2
BLOCKS
  0
BLOCK
  5
20
330
1F
100
AcDbEntity
  8
0
100
AcDbBlockBegin
  2
*Model_Space
 70
     0
 10
0.0
 20
0.0
 30
0.0
  3
*Model_Space
  1

  0
ENDBLK
  5
21
330
1F
100
AcDbEntity
  8
0
100
AcDbBlockEnd
  0
BLOCK
  5
1C
330
1B
100
AcDbEntity
 67
     1
  8
0
100
AcDbBlockBegin
  2
*Paper_Space
 70
     0
 10
0.0
 20
0.0
 30
0.0
  3
*Paper_Space
  1

  0
ENDBLK
  5
1D
330
1B
100
AcDbEntity
 67
     1
  8
0
100
AcDbBlockEnd
  0
BLOCK
  5
24
330
23
100
AcDbEntity
  8
0
100
AcDbBlockBegin
  2
*Paper_Space0
 70
     0
 10
0.0
 20
0.0
 30
0.0
  3
*Paper_Space0
  1

  0
ENDBLK
  5
25
330
23
100
AcDbEntity
  8
0
100
AcDbBlockEnd
  0
ENDSEC
  0
SECTION
  2
ENTITIES
  0
LINE
  5
6F
330
1F
100
AcDbEntity
  8
0
 62
     7
370
    35
100
AcDbLine
 10
585.120728
 20
409.540161
 30
0.0
 11
585.120728
 21
433.940155
 31
0.0
  0
LINE
  5
70
330
1F
100
AcDbEntity
  8
0
 62
     7
370
    35
100
AcDbLine
 10
549.720703
 20
433.940155
 30
0.0
 11
549.720703
 21
409.540161
 31
0.0
  0
LINE
  5
71
330
1F
100
AcDbEntity
  8
0
 62
     7
370
    35
100
AcDbLine
 10
585.120728
 20
409.540161
 30
0.0
 11
549.720703
 21
409.540161
 31
0.0
  0
LINE
  5
72
330
1F
100
AcDbEntity
  8
0
 62
     7
370
    35
100
AcDbLine
 10
549.720703
 20
433.940155
 30
0.0
 11
585.120728
 21
433.940155
 31
0.0
  0
LINE
  5
73
330
1F
100
AcDbEntity
  8
0
 62
     7
370
    35
100
AcDbLine
 10
545.420715
 20
439.240173
 30
0.0
 11
589.420715
 21
439.240173
 31
0.0
  0
LINE
  5
74
330
1F
100
AcDbEntity
  8
0
 62
     7
370
    35
100
AcDbLine
 10
545.420715
 20
439.240173
 30
0.0
 11
545.420715
 21
407.240173
 31
0.0
  0
LINE
  5
75
330
1F
100
AcDbEntity
  8
0
 62
     7
370
    35
100
AcDbLine
 10
589.420715
 20
407.240173
 30
0.0
 11
545.420715
 21
407.240173
 31
0.0
  0
LINE
  5
76
330
1F
100
AcDbEntity
  8
0
 62
     7
370
    35
100
AcDbLine
 10
589.420715
 20
407.240173
 30
0.0
 11
589.420715
 21
439.240173
 31
0.0
  0
LINE
  5
77
330
1F
100
AcDbEntity
  8
0
 62
     7
370
    35
100
AcDbLine
 10
548.920715
 20
398.540161
 30
0.0
 11
554.720703
 21
398.540161
 31
0.0
  0
LINE
  5
78
330
1F
100
AcDbEntity
  8
0
 62
     7
370
    35
100
AcDbLine
 10
556.720703
 20
398.540161
 30
0.0
 11
562.520691
 21
398.540161
 31
0.0
  0
LINE
  5
79
330
1F
100
AcDbEntity
  8
0
 62
     7
370
    35
100
AcDbLine
 10
564.520691
 20
398.540161
 30
0.0
 11
570.320679
 21
398.540161
 31
0.0
  0
LINE
  5
7A
330
1F
100
AcDbEntity
  8
0
 62
     7
370
    35
100
AcDbLine
 10
572.320679
 20
398.540161
 30
0.0
 11
578.120728
 21
398.540161
 31
0.0
  0
LINE
  5
7B
330
1F
100
AcDbEntity
  8
0
 62
     7
370
    35
100
AcDbLine
 10
580.120728
 20
398.540161
 30
0.0
 11
585.920715
 21
398.540161
 31
0.0
  0
LINE
  5
7C
330
1F
100
AcDbEntity
  8
0
 62
     7
370
    35
100
AcDbLine
 10
585.920715
 20
405.540161
 30
0.0
 11
580.120728
 21
405.540161
 31
0.0
  0
LINE
  5
7D
330
1F
100
AcDbEntity
  8
0
 62
     7
370
    35
100
AcDbLine
 10
578.120728
 20
405.540161
 30
0.0
 11
572.320679
 21
405.540161
 31
0.0
  0
LINE
  5
7E
330
1F
100
AcDbEntity
  8
0
 62
     7
370
    35
100
AcDbLine
 10
570.320679
 20
405.540161
 30
0.0
 11
564.520691
 21
405.540161
 31
0.0
  0
LINE
  5
7F
330
1F
100
AcDbEntity
  8
0
 62
     7
370
    35
100
AcDbLine
 10
562.520691
 20
405.540161
 30
0.0
 11
556.720703
 21
405.540161
 31
0.0
  0
LINE
  5
80
330
1F
100
AcDbEntity
  8
0
 62
     7
370
    35
100
AcDbLine
 10
554.720703
 20
405.540161
 30
0.0
 11
548.920715
 21
405.540161
 31
0.0
  0
LINE
  5
81
330
1F
100
AcDbEntity
  8
0
 62
     7
370
    35
100
AcDbLine
 10
589.420715
 20
398.040161
 30
0.0
 11
545.420715
 21
398.040161
 31
0.0
  0
LINE
  5
82
330
1F
100
AcDbEntity
  8
0
 62
     7
370
    35
100
AcDbLine
 10
589.420715
 20
406.040161
 30
0.0
 11
545.420715
 21
406.040161
 31
0.0
  0
LINE
  5
83
330
1F
100
AcDbEntity
  8
0
 62
     7
370
    35
100
AcDbLine
 10
548.920715
 20
398.540161
 30
0.0
 11
548.920715
 21
405.540161
 31
0.0
  0
LINE
  5
84
330
1F
100
AcDbEntity
  8
0
 62
     7
370
    35
100
AcDbLine
 10
589.420715
 20
398.040161
 30
0.0
 11
589.420715
 21
406.040161
 31
0.0
  0
LINE
  5
85
330
1F
100
AcDbEntity
  8
0
 62
     7
370
    35
100
AcDbLine
 10
545.420715
 20
398.040161
 30
0.0
 11
545.420715
 21
406.040161
 31
0.0
  0
LINE
  5
86
330
1F
100
AcDbEntity
  8
0
 62
     7
370
    35
100
AcDbLine
 10
580.120728
 20
398.540161
 30
0.0
 11
580.120728
 21
405.540161
 31
0.0
  0
LINE
  5
87
330
1F
100
AcDbEntity
  8
0
 62
     7
370
    35
100
AcDbLine
 10
585.920715
 20
405.540161
 30
0.0
 11
585.920715
 21
398.540161
 31
0.0
  0
LINE
  5
88
330
1F
100
AcDbEntity
  8
0
 62
     7
370
    35
100
AcDbLine
 10
578.120728
 20
405.540161
 30
0.0
 11
578.120728
 21
398.540161
 31
0.0
  0
LINE
  5
89
330
1F
100
AcDbEntity
  8
0
 62
     7
370
    35
100
AcDbLine
 10
572.320679
 20
398.540161
 30
0.0
 11
572.320679
 21
405.540161
 31
0.0
  0
LINE
  5
8A
330
1F
100
AcDbEntity
  8
0
 62
     7
370
    35
100
AcDbLine
 10
570.320679
 20
405.540161
 30
0.0
 11
570.320679
 21
398.540161
 31
0.0
  0
LINE
  5
8B
330
1F
100
AcDbEntity
  8
0
 62
     7
370
    35
100
AcDbLine
 10
564.520691
 20
398.540161
 30
0.0
 11
564.520691
 21
405.540161
 31
0.0
  0
LINE
  5
8C
330
1F
100
AcDbEntity
  8
0
 62
     7
370
    35
100
AcDbLine
 10
562.520691
 20
405.540161
 30
0.0
 11
562.520691
 21
398.540161
 31
0.0
  0
LINE
  5
8D
330
1F
100
AcDbEntity
  8
0
 62
     7
370
    35
100
AcDbLine
 10
556.720703
 20
398.540161
 30
0.0
 11
556.720703
 21
405.540161
 31
0.0
  0
LINE
  5
8E
330
1F
100
AcDbEntity
  8
0
 62
     7
370
    35
100
AcDbLine
 10
554.720703
 20
405.540161
 30
0.0
 11
554.720703
 21
398.540161
 31
0.0
  0
LINE
  5
8F
330
1F
100
AcDbEntity
  8
0
 62
     7
370
    35
100
AcDbLine
 10
544.920715
 20
441.240173
 30
0.0
 11
589.920715
 21
441.240173
 31
0.0
  0
LINE
  5
90
330
1F
100
AcDbEntity
  8
0
 62
     7
370
    35
100
AcDbLine
 10
543.420715
 20
394.740173
 30
0.0
 11
543.420715
 21
439.740173
 31
0.0
  0
LINE
  5
91
330
1F
100
AcDbEntity
  8
0
 62
     7
370
    35
100
AcDbLine
 10
544.920715
 20
393.240173
 30
0.0
 11
589.920715
 21
393.240173
 31
0.0
  0
LINE
  5
92
330
1F
100
AcDbEntity
  8
0
 62
     7
370
    35
100
AcDbLine
 10
591.420715
 20
439.740173
 30
0.0
 11
591.420715
 21
394.740173
 31
0.0
  0
ARC
  5
93
330
1F
100
AcDbEntity
  8
0
 62
     7
370
    35
100
AcDbCircle
 10
589.920715
 20
439.740173
 30
0.0
 40
1.5
100
AcDbArc
 50
0.0
 51
90.000003
  0
ARC
  5
94
330
1F
100
AcDbEntity
  8
0
 62
     7
370
    35
100
AcDbCircle
 10
544.920715
 20
439.740173
 30
0.0
 40
1.5
100
AcDbArc
 50
90.000003
 51
180.000005
  0
ARC
  5
95
330
1F
100
AcDbEntity
  8
0
 62
     7
370
    35
100
AcDbCircle
 10
544.920715
 20
394.740173
 30
0.0
 40
1.5
100
AcDbArc
 50
180.000005
 51
269.999997
  0
ARC
  5
96
330
1F
100
AcDbEntity
  8
0
 62
     7
370
    35
100
AcDbCircle
 10
589.920715
 20
394.740173
 30
0.0
 40
1.5
100
AcDbArc
 50
269.999997
 51
360.0
  0
LINE
  5
97
330
1F
100
AcDbEntity
  8
0
 62
     7
370
    35
100
AcDbLine
 10
585.820679
 20
398.640167
 30
0.0
 11
585.820679
 21
405.440155
 31
0.0
  0
LINE
  5
98
330
1F
100
AcDbEntity
  8
0
 62
     7
370
    35
100
AcDbLine
 10
580.220703
 20
398.640167
 30
0.0
 11
580.220703
 21
405.440155
 31
0.0
  0
LINE
  5
99
330
1F
100
AcDbEntity
  8
0
 62
     7
370
    35
100
AcDbLine
 10
585.820679
 20
405.440155
 30
0.0
 11
585.920715
 21
405.440155
 31
0.0
  0
LINE
  5
9A
330
1F
100
AcDbEntity
  8
0
 62
     7
370
    35
100
AcDbLine
 10
585.820679
 20
398.640167
 30
0.0
 11
585.920715
 21
398.640167
 31
0.0
  0
LINE
  5
9B
330
1F
100
AcDbEntity
  8
0
 62
     7
370
    35
100
AcDbLine
 10
580.220703
 20
398.640167
 30
0.0
 11
580.120728
 21
398.640167
 31
0.0
  0
LINE
  5
9C
330
1F
100
AcDbEntity
  8
0
 62
     7
370
    35
100
AcDbLine
 10
580.220703
 20
398.640167
 30
0.0
 11
585.820679
 21
398.640167
 31
0.0
  0
LINE
  5
9D
330
1F
100
AcDbEntity
  8
0
 62
     7
370
    35
100
AcDbLine
 10
580.220703
 20
405.440155
 30
0.0
 11
585.820679
 21
405.440155
 31
0.0
  0
LINE
  5
9E
330
1F
100
AcDbEntity
  8
0
 62
     7
370
    35
100
AcDbLine
 10
580.220703
 20
405.440155
 30
0.0
 11
580.120728
 21
405.440155
 31
0.0
  0
LINE
  5
9F
330
1F
100
AcDbEntity
  8
0
 62
     7
370
    35
100
AcDbLine
 10
554.620728
 20
398.640167
 30
0.0
 11
554.620728
 21
405.440155
 31
0.0
  0
LINE
  5
A0
330
1F
100
AcDbEntity
  8
0
 62
     7
370
    35
100
AcDbLine
 10
549.020691
 20
398.640167
 30
0.0
 11
549.020691
 21
405.440155
 31
0.0
  0
LINE
  5
A1
330
1F
100
AcDbEntity
  8
0
 62
     7
370
    35
100
AcDbLine
 10
554.620728
 20
405.440155
 30
0.0
 11
554.720703
 21
405.440155
 31
0.0
  0
LINE
  5
A2
330
1F
100
AcDbEntity
  8
0
 62
     7
370
    35
100
AcDbLine
 10
554.620728
 20
398.640167
 30
0.0
 11
554.720703
 21
398.640167
 31
0.0
  0
LINE
  5
A3
330
1F
100
AcDbEntity
  8
0
 62
     7
370
    35
100
AcDbLine
 10
549.020691
 20
398.640167
 30
0.0
 11
548.920715
 21
398.640167
 31
0.0
  0
LINE
  5
A4
330
1F
100
AcDbEntity
  8
0
 62
     7
370
    35
100
AcDbLine
 10
549.020691
 20
398.640167
 30
0.0
 11
554.620728
 21
398.640167
 31
0.0
  0
LINE
  5
A5
330
1F
100
AcDbEntity
  8
0
 62
     7
370
    35
100
AcDbLine
 10
549.020691
 20
405.440155
 30
0.0
 11
554.620728
 21
405.440155
 31
0.0
  0
LINE
  5
A6
330
1F
100
AcDbEntity
  8
0
 62
     7
370
    35
100
AcDbLine
 10
549.020691
 20
405.440155
 30
0.0
 11
548.920715
 21
405.440155
 31
0.0
  0
LINE
  5
A7
330
1F
100
AcDbEntity
  8
0
 62
     7
370
    35
100
AcDbLine
 10
562.420715
 20
398.640167
 30
0.0
 11
562.420715
 21
405.440155
 31
0.0
  0
LINE
  5
A8
330
1F
100
AcDbEntity
  8
0
 62
     7
370
    35
100
AcDbLine
 10
556.820679
 20
398.640167
 30
0.0
 11
556.820679
 21
405.440155
 31
0.0
  0
LINE
  5
A9
330
1F
100
AcDbEntity
  8
0
 62
     7
370
    35
100
AcDbLine
 10
562.420715
 20
405.440155
 30
0.0
 11
562.520691
 21
405.440155
 31
0.0
  0
LINE
  5
AA
330
1F
100
AcDbEntity
  8
0
 62
     7
370
    35
100
AcDbLine
 10
562.420715
 20
398.640167
 30
0.0
 11
562.520691
 21
398.640167
 31
0.0
  0
LINE
  5
AB
330
1F
100
AcDbEntity
  8
0
 62
     7
370
    35
100
AcDbLine
 10
556.820679
 20
398.640167
 30
0.0
 11
556.720703
 21
398.640167
 31
0.0
  0
LINE
  5
AC
330
1F
100
AcDbEntity
  8
0
 62
     7
370
    35
100
AcDbLine
 10
556.820679
 20
398.640167
 30
0.0
 11
562.420715
 21
398.640167
 31
0.0
  0
LINE
  5
AD
330
1F
100
AcDbEntity
  8
0
 62
     7
370
    35
100
AcDbLine
 10
556.820679
 20
405.440155
 30
0.0
 11
562.420715
 21
405.440155
 31
0.0
  0
LINE
  5
AE
330
1F
100
AcDbEntity
  8
0
 62
     7
370
    35
100
AcDbLine
 10
556.820679
 20
405.440155
 30
0.0
 11
556.720703
 21
405.440155
 31
0.0
  0
LINE
  5
AF
330
1F
100
AcDbEntity
  8
0
 62
     7
370
    35
100
AcDbLine
 10
578.020691
 20
398.640167
 30
0.0
 11
578.020691
 21
405.440155
 31
0.0
  0
LINE
  5
B0
330
1F
100
AcDbEntity
  8
0
 62
     7
370
    35
100
AcDbLine
 10
572.420715
 20
398.640167
 30
0.0
 11
572.420715
 21
405.440155
 31
0.0
  0
LINE
  5
B1
330
1F
100
AcDbEntity
  8
0
 62
     7
370
    35
100
AcDbLine
 10
578.020691
 20
405.440155
 30
0.0
 11
578.120728
 21
405.440155
 31
0.0
  0
LINE
  5
B2
330
1F
100
AcDbEntity
  8
0
 62
     7
370
    35
100
AcDbLine
 10
578.020691
 20
398.640167
 30
0.0
 11
578.120728
 21
398.640167
 31
0.0
  0
LINE
  5
B3
330
1F
100
AcDbEntity
  8
0
 62
     7
370
    35
100
AcDbLine
 10
572.420715
 20
398.640167
 30
0.0
 11
572.320679
 21
398.640167
 31
0.0
  0
LINE
  5
B4
330
1F
100
AcDbEntity
  8
0
 62
     7
370
    35
100
AcDbLine
 10
572.420715
 20
398.640167
 30
0.0
 11
578.020691
 21
398.640167
 31
0.0
  0
LINE
  5
B5
330
1F
100
AcDbEntity
  8
0
 62
     7
370
    35
100
AcDbLine
 10
572.420715
 20
405.440155
 30
0.0
 11
578.020691
 21
405.440155
 31
0.0
  0
LINE
  5
B6
330
1F
100
AcDbEntity
  8
0
 62
     7
370
    35
100
AcDbLine
 10
572.420715
 20
405.440155
 30
0.0
 11
572.320679
 21
405.440155
 31
0.0
  0
LINE
  5
B7
330
1F
100
AcDbEntity
  8
0
 62
     7
370
    35
100
AcDbLine
 10
570.220703
 20
398.640167
 30
0.0
 11
570.220703
 21
405.440155
 31
0.0
  0
LINE
  5
B8
330
1F
100
AcDbEntity
  8
0
 62
     7
370
    35
100
AcDbLine
 10
564.620728
 20
398.640167
 30
0.0
 11
564.620728
 21
405.440155
 31
0.0
  0
LINE
  5
B9
330
1F
100
AcDbEntity
  8
0
 62
     7
370
    35
100
AcDbLine
 10
570.220703
 20
405.440155
 30
0.0
 11
570.320679
 21
405.440155
 31
0.0
  0
LINE
  5
BA
330
1F
100
AcDbEntity
  8
0
 62
     7
370
    35
100
AcDbLine
 10
570.220703
 20
398.640167
 30
0.0
 11
570.320679
 21
398.640167
 31
0.0
  0
LINE
  5
BB
330
1F
100
AcDbEntity
  8
0
 62
     7
370
    35
100
AcDbLine
 10
564.620728
 20
398.640167
 30
0.0
 11
564.520691
 21
398.640167
 31
0.0
  0
LINE
  5
BC
330
1F
100
AcDbEntity
  8
0
 62
     7
370
    35
100
AcDbLine
 10
564.620728
 20
398.640167
 30
0.0
 11
570.220703
 21
398.640167
 31
0.0
  0
LINE
  5
BD
330
1F
100
AcDbEntity
  8
0
 62
     7
370
    35
100
AcDbLine
 10
564.620728
 20
405.440155
 30
0.0
 11
570.220703
 21
405.440155
 31
0.0
  0
LINE
  5
BE
330
1F
100
AcDbEntity
  8
0
 62
     7
370
    35
100
AcDbLine
 10
564.620728
 20
405.440155
 30
0.0
 11
564.520691
 21
405.440155
 31
0.0
  0
LINE
  5
BF
330
1F
100
AcDbEntity
  8
0
 62
     7
370
    35
100
AcDbLine
 10
556.720642
 20
405.490173
 30
0.0
 11
556.920715
 21
405.490173
 31
0.0
  0
LINE
  5
C0
330
1F
100
AcDbEntity
  8
0
 62
     7
370
    35
100
AcDbLine
 10
578.120667
 20
405.490173
 30
0.0
 11
577.920715
 21
405.490173
 31
0.0
  0
ARC
  5
C1
330
1F
100
AcDbEntity
  8
0
 62
     7
370
    35
100
AcDbCircle
 10
589.920715
 20
394.740173
 30
0.0
 40
1.5
100
AcDbArc
 50
269.999997
 51
360.0
  0
LINE
  5
C2
330
1F
100
AcDbEntity
  8
0
 62
     7
370
    35
100
AcDbLine
 10
591.420715
 20
394.740173
 30
0.0
 11
591.420715
 21
439.740173
 31
0.0
  0
ARC
  5
C3
330
1F
100
AcDbEntity
  8
0
 62
     7
370
    35
100
AcDbCircle
 10
589.920715
 20
439.740173
 30
0.0
 40
1.5
100
AcDbArc
 50
0.0
 51
90.000003
  0
LINE
  5
C4
330
1F
100
AcDbEntity
  8
0
 62
     7
370
    35
100
AcDbLine
 10
544.920715
 20
441.240173
 30
0.0
 11
589.920715
 21
441.240173
 31
0.0
  0
ARC
  5
C5
330
1F
100
AcDbEntity
  8
0
 62
     7
370
    35
100
AcDbCircle
 10
544.920715
 20
439.740173
 30
0.0
 40
1.5
100
AcDbArc
 50
90.000003
 51
180.000005
  0
ARC
  5
C6
330
1F
100
AcDbEntity
  8
0
 62
     7
370
    35
100
AcDbCircle
 10
544.920715
 20
394.740173
 30
0.0
 40
1.5
100
AcDbArc
 50
180.000005
 51
269.999997
  0
LINE
  5
C7
330
1F
100
AcDbEntity
  8
0
 62
     7
370
    35
100
AcDbLine
 10
556.920715
 20
405.5401
 30
0.0
 11
556.920715
 21
405.440125
 31
0.0
  0
LINE
  5
C8
330
1F
100
AcDbEntity
  8
0
 62
     7
370
    35
100
AcDbLine
 10
557.920715
 20
405.5401
 30
0.0
 11
557.920715
 21
405.440125
 31
0.0
  0
LINE
  5
C9
330
1F
100
AcDbEntity
  8
0
 62
     7
370
    35
100
AcDbLine
 10
572.920715
 20
405.490173
 30
0.0
 11
572.920715
 21
405.440125
 31
0.0
  0
LINE
  5
CA
330
1F
100
AcDbEntity
  8
0
 62
     7
370
    35
100
AcDbLine
 10
573.420715
 20
405.490173
 30
0.0
 11
572.920715
 21
405.490173
 31
0.0
  0
LINE
  5
CB
330
1F
100
AcDbEntity
  8
0
 62
     7
370
    35
100
AcDbLine
 10
572.920715
 20
405.490173
 30
0.0
 11
572.920715
 21
405.5401
 31
0.0
  0
LINE
  5
CC
330
1F
100
AcDbEntity
  8
0
 62
     7
370
    35
100
AcDbLine
 10
549.770691
 20
409.790161
 30
0.0
 11
549.770691
 21
409.5401
 31
0.0
  0
LINE
  5
CD
330
1F
100
AcDbEntity
  8
0
 62
     7
370
    35
100
AcDbLine
 10
585.070679
 20
409.5401
 30
0.0
 11
585.070679
 21
409.790161
 31
0.0
  0
LINE
  5
CE
330
1F
100
AcDbEntity
  8
0
 62
     7
370
    35
100
AcDbLine
 10
557.920715
 20
398.5401
 30
0.0
 11
557.920715
 21
398.640106
 31
0.0
  0
LINE
  5
CF
330
1F
100
AcDbEntity
  8
0
 62
     7
370
    35
100
AcDbLine
 10
562.420715
 20
398.5401
 30
0.0
 11
562.420715
 21
398.640106
 31
0.0
  0
LINE
  5
D0
330
1F
100
AcDbEntity
  8
0
 62
     7
370
    35
100
AcDbLine
 10
576.920715
 20
398.5401
 30
0.0
 11
576.920715
 21
398.640106
 31
0.0
  0
LINE
  5
D1
330
1F
100
AcDbEntity
  8
0
 62
     7
370
    35
100
AcDbLine
 10
572.920715
 20
398.5401
 30
0.0
 11
572.920715
 21
398.640106
 31
0.0
  0
LINE
  5
D2
330
1F
100
AcDbEntity
  8
0
 62
     7
370
    35
100
AcDbLine
 10
556.920715
 20
398.640106
 30
0.0
 11
556.920715
 21
398.5401
 31
0.0
  0
LINE
  5
D3
330
1F
100
AcDbEntity
  8
0
 62
     7
370
    35
100
AcDbLine
 10
577.920715
 20
398.640106
 30
0.0
 11
577.920715
 21
398.5401
 31
0.0
  0
LINE
  5
D4
330
1F
100
AcDbEntity
  8
0
 62
     7
370
    35
100
AcDbLine
 10
573.420715
 20
398.640106
 30
0.0
 11
573.420715
 21
398.5401
 31
0.0
  0
LINE
  5
D5
330
1F
100
AcDbEntity
  8
0
  6
PHANTOM
 62
     4
 48
0.004549
370
    35
100
AcDbLine
 10
590.920715
 20
440.858185
 30
0.0
 11
590.920715
 21
441.040161
 31
0.0
  0
LINE
  5
D6
330
1F
100
AcDbEntity
  8
0
  6
PHANTOM
 62
     4
 48
0.070711
370
    35
100
AcDbLine
 10
590.920715
 20
441.040161
 30
0.0
 11
588.920715
 21
443.040161
 31
0.0
  0
LINE
  5
D7
330
1F
100
AcDbEntity
  8
0
  6
PHANTOM
 62
     4
 48
0.013356
370
    35
100
AcDbLine
 10
570.954956
 20
443.040161
 30
0.0
 11
570.420715
 21
443.040161
 31
0.0
  0
LINE
  5
D8
330
1F
100
AcDbEntity
  8
0
  6
PHANTOM
 62
     4
 48
0.365071
370
    35
100
AcDbLine
 10
585.5578
 20
443.040161
 30
0.0
 11
570.954956
 21
443.040161
 31
0.0
  0
LINE
  5
D9
330
1F
100
AcDbEntity
  8
0
  6
PHANTOM
 62
     4
 48
0.046573
370
    35
100
AcDbLine
 10
587.420715
 20
443.040161
 30
0.0
 11
585.5578
 21
443.040161
 31
0.0
  0
LINE
  5
DA
330
1F
100
AcDbEntity
  8
0
  6
PHANTOM
 62
     4
 48
0.0375
370
    35
100
AcDbLine
 10
587.420715
 20
443.040161
 30
0.0
 11
588.920715
 21
443.040161
 31
0.0
  0
LINE
  5
DB
330
1F
100
AcDbEntity
  8
0
  6
PHANTOM
 62
     4
 48
0.045
370
    35
100
AcDbLine
 10
588.920715
 20
441.240173
 30
0.0
 11
588.920715
 21
443.040161
 31
0.0
  0
LINE
  5
DC
330
1F
100
AcDbEntity
  8
0
  6
PHANTOM
 62
     4
 48
0.070711
370
    35
100
AcDbLine
 10
545.920715
 20
443.040161
 30
0.0
 11
543.920715
 21
441.040161
 31
0.0
  0
LINE
  5
DD
330
1F
100
AcDbEntity
  8
0
  6
PHANTOM
 62
     4
 48
0.1375
370
    35
100
AcDbLine
 10
546.420715
 20
443.040161
 30
0.0
 11
546.420715
 21
448.540161
 31
0.0
  0
LINE
  5
DE
330
1F
100
AcDbEntity
  8
0
  6
PHANTOM
 62
     4
 48
0.025
370
    35
100
AcDbLine
 10
546.420715
 20
449.540161
 30
0.0
 11
546.420715
 21
448.540161
 31
0.0
  0
LINE
  5
DF
330
1F
100
AcDbEntity
  8
0
  6
PHANTOM
 62
     4
 48
0.025
370
    35
100
AcDbLine
 10
588.420715
 20
449.540161
 30
0.0
 11
588.420715
 21
448.540161
 31
0.0
  0
LINE
  5
E0
330
1F
100
AcDbEntity
  8
0
  6
PHANTOM
 62
     4
 48
0.1375
370
    35
100
AcDbLine
 10
588.420715
 20
443.040161
 30
0.0
 11
588.420715
 21
448.540161
 31
0.0
  0
LINE
  5
E1
330
1F
100
AcDbEntity
  8
0
  6
PHANTOM
 62
     4
 48
0.0875
370
    35
100
AcDbLine
 10
570.420715
 20
446.540161
 30
0.0
 11
570.420715
 21
443.040161
 31
0.0
  0
LINE
  5
E2
330
1F
100
AcDbEntity
  8
0
  6
PHANTOM
 62
     4
 48
0.045
370
    35
100
AcDbLine
 10
587.420715
 20
441.240173
 30
0.0
 11
587.420715
 21
443.040161
 31
0.0
  0
LINE
  5
E3
330
1F
100
AcDbEntity
  8
0
  6
PHANTOM
 62
     4
 48
0.004549
370
    35
100
AcDbLine
 10
543.920715
 20
440.858185
 30
0.0
 11
543.920715
 21
441.040161
 31
0.0
  0
LINE
  5
E4
330
1F
100
AcDbEntity
  8
0
  6
PHANTOM
 62
     4
 48
0.0375
370
    35
100
AcDbLine
 10
545.920715
 20
443.040161
 30
0.0
 11
547.420715
 21
443.040161
 31
0.0
  0
LINE
  5
E5
330
1F
100
AcDbEntity
  8
0
  6
PHANTOM
 62
     4
 48
0.046571
370
    35
100
AcDbLine
 10
549.283569
 20
443.040161
 30
0.0
 11
547.420715
 21
443.040161
 31
0.0
  0
LINE
  5
E6
330
1F
100
AcDbEntity
  8
0
  6
PHANTOM
 62
     4
 48
0.365071
370
    35
100
AcDbLine
 10
549.283569
 20
443.040161
 30
0.0
 11
563.886414
 21
443.040161
 31
0.0
  0
LINE
  5
E7
330
1F
100
AcDbEntity
  8
0
  6
PHANTOM
 62
     4
 48
0.013358
370
    35
100
AcDbLine
 10
564.420715
 20
443.040161
 30
0.0
 11
563.886414
 21
443.040161
 31
0.0
  0
LINE
  5
E8
330
1F
100
AcDbEntity
  8
0
  6
PHANTOM
 62
     4
370
    35
100
AcDbLine
 10
567.420715
 20
449.540161
 30
0.0
 11
546.420715
 21
449.540161
 31
0.0
  0
LINE
  5
E9
330
1F
100
AcDbEntity
  8
0
  6
PHANTOM
 62
     4
370
    35
100
AcDbLine
 10
588.420715
 20
449.540161
 30
0.0
 11
567.420715
 21
449.540161
 31
0.0
  0
ARC
  5
EA
330
1F
100
AcDbEntity
  8
0
  6
PHANTOM
 62
     4
370
    35
100
AcDbCircle
 10
567.420715
 20
446.540161
 30
0.0
 40
3.0
100
AcDbArc
 50
360.0
 51
180.000005
  0
LINE
  5
EB
330
1F
100
AcDbEntity
  8
0
  6
PHANTOM
 62
     4
 48
0.004182
370
    35
100
AcDbLine
 10
564.420715
 20
442.872894
 30
0.0
 11
564.420715
 21
443.040161
 31
0.0
  0
LINE
  5
EC
330
1F
100
AcDbEntity
  8
0
  6
PHANTOM
 62
     4
 48
0.040818
370
    35
100
AcDbLine
 10
564.420715
 20
441.240173
 30
0.0
 11
564.420715
 21
442.872894
 31
0.0
  0
LINE
  5
ED
330
1F
100
AcDbEntity
  8
0
  6
PHANTOM
 62
     4
 48
0.040818
370
    35
100
AcDbLine
 10
570.420715
 20
441.240173
 30
0.0
 11
570.420715
 21
442.872894
 31
0.0
  0
LINE
  5
EE
330
1F
100
AcDbEntity
  8
0
  6
PHANTOM
 62
     4
 48
0.004182
370
    35
100
AcDbLine
 10
570.420715
 20
443.040161
 30
0.0
 11
570.420715
 21
442.872894
 31
0.0
  0
LINE
  5
EF
330
1F
100
AcDbEntity
  8
0
  6
PHANTOM
 62
     4
 48
0.0875
370
    35
100
AcDbLine
 10
564.420715
 20
443.040161
 30
0.0
 11
564.420715
 21
446.540161
 31
0.0
  0
CIRCLE
  5
F0
330
1F
100
AcDbEntity
  8
0
  6
PHANTOM
 62
     4
 48
0.083333
370
    35
100
AcDbCircle
 10
567.420715
 20
446.540161
 30
0.0
 40
1.25
  0
LINE
  5
F1
330
1F
100
AcDbEntity
  8
0
  6
PHANTOM
 62
     4
 48
0.028435
370
    35
100
AcDbLine
 10
571.558105
 20
443.040161
 30
0.0
 11
570.420715
 21
443.040161
 31
0.0
  0
LINE
  5
F2
330
1F
100
AcDbEntity
  8
0
  6
PHANTOM
 62
     4
 48
0.275104
370
    35
100
AcDbLine
 10
582.562256
 20
443.040161
 30
0.0
 11
571.558105
 21
443.040161
 31
0.0
  0
LINE
  5
F3
330
1F
100
AcDbEntity
  8
0
  6
PHANTOM
 62
     4
 48
0.096461
370
    35
100
AcDbLine
 10
586.420715
 20
443.040161
 30
0.0
 11
582.562256
 21
443.040161
 31
0.0
  0
LINE
  5
F4
330
1F
100
AcDbEntity
  8
0
  6
PHANTOM
 62
     4
 48
0.045
370
    35
100
AcDbLine
 10
547.420715
 20
441.240173
 30
0.0
 11
547.420715
 21
443.040161
 31
0.0
  0
LINE
  5
F5
330
1F
100
AcDbEntity
  8
0
  6
PHANTOM
 62
     4
 48
0.045
370
    35
100
AcDbLine
 10
545.920715
 20
441.240173
 30
0.0
 11
545.920715
 21
443.040161
 31
0.0
  0
LINE
  5
F6
330
1F
100
AcDbEntity
  8
0
  6
PHANTOM
 62
     4
 48
0.028436
370
    35
100
AcDbLine
 10
564.420715
 20
443.040161
 30
0.0
 11
563.283264
 21
443.040161
 31
0.0
  0
LINE
  5
F7
330
1F
100
AcDbEntity
  8
0
  6
PHANTOM
 62
     4
 48
0.045
370
    35
100
AcDbLine
 10
582.562256
 20
441.240173
 30
0.0
 11
582.562256
 21
443.040161
 31
0.0
  0
LINE
  5
F8
330
1F
100
AcDbEntity
  8
0
  6
PHANTOM
 62
     4
 48
0.045
370
    35
100
AcDbLine
 10
552.279175
 20
441.240173
 30
0.0
 11
552.279175
 21
443.040161
 31
0.0
  0
LINE
  5
F9
330
1F
100
AcDbEntity
  8
0
  6
PHANTOM
 62
     4
 48
0.096461
370
    35
100
AcDbLine
 10
552.279175
 20
443.040161
 30
0.0
 11
548.420715
 21
443.040161
 31
0.0
  0
LINE
  5
FA
330
1F
100
AcDbEntity
  8
0
  6
PHANTOM
 62
     4
 48
0.275102
370
    35
100
AcDbLine
 10
552.279175
 20
443.040161
 30
0.0
 11
563.283264
 21
443.040161
 31
0.0
  0
ARC
  5
FB
330
1F
100
AcDbEntity
  8
0
  6
PHANTOM
 62
     4
370
    35
100
AcDbCircle
 10
578.253662
 20
448.912811
 30
0.0
 40
0.7272927247921679
100
AcDbArc
 50
59.712765
 51
91.157576
  0
ARC
  5
FC
330
1F
100
AcDbEntity
  8
0
  6
PHANTOM
 62
     4
370
    35
100
AcDbCircle
 10
572.087769
 20
448.912811
 30
0.0
 40
0.7272927226974955
100
AcDbArc
 50
88.842422
 51
120.28724
  0
ARC
  5
FD
330
1F
100
AcDbEntity
  8
0
  6
PHANTOM
 62
     4
370
    35
100
AcDbCircle
 10
556.587769
 20
448.912811
 30
0.0
 40
0.7272927226976119
100
AcDbArc
 50
88.842422
 51
120.28724
  0
ARC
  5
FE
330
1F
100
AcDbEntity
  8
0
  6
PHANTOM
 62
     4
370
    35
100
AcDbCircle
 10
562.753662
 20
448.912811
 30
0.0
 40
0.7272927247932048
100
AcDbArc
 50
59.712765
 51
91.157576
  0
LINE
  5
FF
330
1F
100
AcDbEntity
  8
0
  6
PHANTOM
 62
     4
 48
0.045
370
    35
100
AcDbLine
 10
586.420715
 20
441.240173
 30
0.0
 11
586.420715
 21
443.040161
 31
0.0
  0
LINE
  5
100
330
1F
100
AcDbEntity
  8
0
  6
PHANTOM
 62
     4
 48
0.045
370
    35
100
AcDbLine
 10
548.420715
 20
441.240173
 30
0.0
 11
548.420715
 21
443.040161
 31
0.0
  0
LINE
  5
101
330
1F
100
AcDbEntity
  8
0
  6
PHANTOM
 62
     4
 48
0.153412
370
    35
100
AcDbLine
 10
572.102478
 20
449.640411
 30
0.0
 11
578.238953
 21
449.640411
 31
0.0
  0
LINE
  5
102
330
1F
100
AcDbEntity
  8
0
  6
PHANTOM
 62
     4
 48
0.153412
370
    35
100
AcDbLine
 10
556.602478
 20
449.640411
 30
0.0
 11
562.738953
 21
449.640411
 31
0.0
  0
LINE
  5
103
330
1F
100
AcDbEntity
  8
0
  6
PHANTOM
 62
     4
 48
0.017072
370
    35
100
AcDbLine
 10
543.920715
 20
393.622131
 30
0.0
 11
543.920715
 21
392.93924
 31
0.0
  0
LINE
  5
104
330
1F
100
AcDbEntity
  8
0
  6
PHANTOM
 62
     4
 48
0.070711
370
    35
100
AcDbLine
 10
543.920715
 20
392.93924
 30
0.0
 11
545.920715
 21
390.93924
 31
0.0
  0
LINE
  5
105
330
1F
100
AcDbEntity
  8
0
  6
PHANTOM
 62
     4
 48
0.025
370
    35
100
AcDbLine
 10
547.420715
 20
390.93924
 30
0.0
 11
548.420715
 21
390.93924
 31
0.0
  0
LINE
  5
106
330
1F
100
AcDbEntity
  8
0
  6
PHANTOM
 62
     4
 48
0.0375
370
    35
100
AcDbLine
 10
547.420715
 20
390.93924
 30
0.0
 11
545.920715
 21
390.93924
 31
0.0
  0
LINE
  5
107
330
1F
100
AcDbEntity
  8
0
  6
PHANTOM
 62
     4
 48
0.057523
370
    35
100
AcDbLine
 10
545.920715
 20
393.240173
 30
0.0
 11
545.920715
 21
390.93924
 31
0.0
  0
LINE
  5
108
330
1F
100
AcDbEntity
  8
0
  6
PHANTOM
 62
     4
 48
0.070711
370
    35
100
AcDbLine
 10
588.920715
 20
390.93924
 30
0.0
 11
590.920715
 21
392.93924
 31
0.0
  0
LINE
  5
109
330
1F
100
AcDbEntity
  8
0
  6
PHANTOM
 62
     4
 48
0.1375
370
    35
100
AcDbLine
 10
588.420715
 20
390.93924
 30
0.0
 11
588.420715
 21
385.43924
 31
0.0
  0
LINE
  5
10A
330
1F
100
AcDbEntity
  8
0
  6
PHANTOM
 62
     4
 48
0.025
370
    35
100
AcDbLine
 10
588.420715
 20
384.43924
 30
0.0
 11
588.420715
 21
385.43924
 31
0.0
  0
LINE
  5
10B
330
1F
100
AcDbEntity
  8
0
  6
PHANTOM
 62
     4
 48
0.025
370
    35
100
AcDbLine
 10
546.420715
 20
384.43924
 30
0.0
 11
546.420715
 21
385.43924
 31
0.0
  0
LINE
  5
10C
330
1F
100
AcDbEntity
  8
0
  6
PHANTOM
 62
     4
 48
0.1375
370
    35
100
AcDbLine
 10
546.420715
 20
390.93924
 30
0.0
 11
546.420715
 21
385.43924
 31
0.0
  0
LINE
  5
10D
330
1F
100
AcDbEntity
  8
0
  6
PHANTOM
 62
     4
 48
0.0875
370
    35
100
AcDbLine
 10
564.420715
 20
387.43924
 30
0.0
 11
564.420715
 21
390.93924
 31
0.0
  0
LINE
  5
10E
330
1F
100
AcDbEntity
  8
0
  6
PHANTOM
 62
     4
 48
0.057523
370
    35
100
AcDbLine
 10
547.420715
 20
393.240173
 30
0.0
 11
547.420715
 21
390.93924
 31
0.0
  0
LINE
  5
10F
330
1F
100
AcDbEntity
  8
0
  6
PHANTOM
 62
     4
 48
0.017072
370
    35
100
AcDbLine
 10
590.920715
 20
393.622131
 30
0.0
 11
590.920715
 21
392.93924
 31
0.0
  0
LINE
  5
110
330
1F
100
AcDbEntity
  8
0
  6
PHANTOM
 62
     4
 48
0.0375
370
    35
100
AcDbLine
 10
588.920715
 20
390.93924
 30
0.0
 11
587.420715
 21
390.93924
 31
0.0
  0
LINE
  5
111
330
1F
100
AcDbEntity
  8
0
  6
PHANTOM
 62
     4
 48
0.025002
370
    35
100
AcDbLine
 10
586.420654
 20
390.93924
 30
0.0
 11
587.420715
 21
390.93924
 31
0.0
  0
LINE
  5
112
330
1F
100
AcDbEntity
  8
0
  6
PHANTOM
 62
     4
370
    35
100
AcDbLine
 10
567.420715
 20
384.43924
 30
0.0
 11
588.420715
 21
384.43924
 31
0.0
  0
LINE
  5
113
330
1F
100
AcDbEntity
  8
0
  6
PHANTOM
 62
     4
370
    35
100
AcDbLine
 10
546.420715
 20
384.43924
 30
0.0
 11
567.420715
 21
384.43924
 31
0.0
  0
ARC
  5
114
330
1F
100
AcDbEntity
  8
0
  6
PHANTOM
 62
     4
370
    35
100
AcDbCircle
 10
567.420715
 20
387.43924
 30
0.0
 40
3.0
100
AcDbArc
 50
180.000005
 51
360.0
  0
LINE
  5
115
330
1F
100
AcDbEntity
  8
0
  6
PHANTOM
 62
     4
 48
0.004182
370
    35
100
AcDbLine
 10
570.420715
 20
391.106537
 30
0.0
 11
570.420715
 21
390.93924
 31
0.0
  0
LINE
  5
116
330
1F
100
AcDbEntity
  8
0
  6
PHANTOM
 62
     4
 48
0.053341
370
    35
100
AcDbLine
 10
570.420715
 20
393.240173
 30
0.0
 11
570.420715
 21
391.106537
 31
0.0
  0
LINE
  5
117
330
1F
100
AcDbEntity
  8
0
  6
PHANTOM
 62
     4
 48
0.053341
370
    35
100
AcDbLine
 10
564.420715
 20
393.240173
 30
0.0
 11
564.420715
 21
391.106537
 31
0.0
  0
LINE
  5
118
330
1F
100
AcDbEntity
  8
0
  6
PHANTOM
 62
     4
 48
0.004182
370
    35
100
AcDbLine
 10
564.420715
 20
390.93924
 30
0.0
 11
564.420715
 21
391.106537
 31
0.0
  0
LINE
  5
119
330
1F
100
AcDbEntity
  8
0
  6
PHANTOM
 62
     4
 48
0.0875
370
    35
100
AcDbLine
 10
570.420715
 20
390.93924
 30
0.0
 11
570.420715
 21
387.43924
 31
0.0
  0
CIRCLE
  5
11A
330
1F
100
AcDbEntity
  8
0
  6
PHANTOM
 62
     4
 48
0.083333
370
    35
100
AcDbCircle
 10
567.420715
 20
387.43924
 30
0.0
 40
1.25
  0
LINE
  5
11B
330
1F
100
AcDbEntity
  8
0
  6
PHANTOM
 62
     4
 48
0.028436
370
    35
100
AcDbLine
 10
563.283264
 20
390.93924
 30
0.0
 11
564.420715
 21
390.93924
 31
0.0
  0
LINE
  5
11C
330
1F
100
AcDbEntity
  8
0
  6
PHANTOM
 62
     4
 48
0.275102
370
    35
100
AcDbLine
 10
552.279175
 20
390.93924
 30
0.0
 11
563.283264
 21
390.93924
 31
0.0
  0
LINE
  5
11D
330
1F
100
AcDbEntity
  8
0
  6
PHANTOM
 62
     4
 48
0.096461
370
    35
100
AcDbLine
 10
548.420715
 20
390.93924
 30
0.0
 11
552.279175
 21
390.93924
 31
0.0
  0
LINE
  5
11E
330
1F
100
AcDbEntity
  8
0
  6
PHANTOM
 62
     4
 48
0.057523
370
    35
100
AcDbLine
 10
587.420715
 20
393.240173
 30
0.0
 11
587.420715
 21
390.93924
 31
0.0
  0
LINE
  5
11F
330
1F
100
AcDbEntity
  8
0
  6
PHANTOM
 62
     4
 48
0.057523
370
    35
100
AcDbLine
 10
588.920715
 20
393.240173
 30
0.0
 11
588.920715
 21
390.93924
 31
0.0
  0
LINE
  5
120
330
1F
100
AcDbEntity
  8
0
  6
PHANTOM
 62
     4
 48
0.028435
370
    35
100
AcDbLine
 10
570.420715
 20
390.93924
 30
0.0
 11
571.558105
 21
390.93924
 31
0.0
  0
LINE
  5
121
330
1F
100
AcDbEntity
  8
0
  6
PHANTOM
 62
     4
 48
0.057523
370
    35
100
AcDbLine
 10
552.279175
 20
393.240173
 30
0.0
 11
552.279175
 21
390.93924
 31
0.0
  0
LINE
  5
122
330
1F
100
AcDbEntity
  8
0
  6
PHANTOM
 62
     4
 48
0.057523
370
    35
100
AcDbLine
 10
582.562256
 20
393.240173
 30
0.0
 11
582.562256
 21
390.93924
 31
0.0
  0
LINE
  5
123
330
1F
100
AcDbEntity
  8
0
  6
PHANTOM
 62
     4
 48
0.096461
370
    35
100
AcDbLine
 10
582.562256
 20
390.93924
 30
0.0
 11
586.420715
 21
390.93924
 31
0.0
  0
LINE
  5
124
330
1F
100
AcDbEntity
  8
0
  6
PHANTOM
 62
     4
 48
0.275104
370
    35
100
AcDbLine
 10
582.562256
 20
390.93924
 30
0.0
 11
571.558105
 21
390.93924
 31
0.0
  0
ARC
  5
125
330
1F
100
AcDbEntity
  8
0
  6
PHANTOM
 62
     4
370
    35
100
AcDbCircle
 10
556.587769
 20
385.06662
 30
0.0
 40
0.7273089843926278
100
AcDbArc
 50
239.716885
 51
271.157312
  0
ARC
  5
126
330
1F
100
AcDbEntity
  8
0
  6
PHANTOM
 62
     4
370
    35
100
AcDbCircle
 10
562.753662
 20
385.06662
 30
0.0
 40
0.7273089864936364
100
AcDbArc
 50
268.84269
 51
300.28311
  0
ARC
  5
127
330
1F
100
AcDbEntity
  8
0
  6
PHANTOM
 62
     4
370
    35
100
AcDbCircle
 10
578.253662
 20
385.06662
 30
0.0
 40
0.7273089864889182
100
AcDbArc
 50
268.84269
 51
300.28311
  0
ARC
  5
128
330
1F
100
AcDbEntity
  8
0
  6
PHANTOM
 62
     4
370
    35
100
AcDbCircle
 10
572.087769
 20
385.06662
 30
0.0
 40
0.7273089843947422
100
AcDbArc
 50
239.716885
 51
271.157312
  0
LINE
  5
129
330
1F
100
AcDbEntity
  8
0
  6
PHANTOM
 62
     4
 48
0.057523
370
    35
100
AcDbLine
 10
548.420715
 20
393.240173
 30
0.0
 11
548.420715
 21
390.93924
 31
0.0
  0
LINE
  5
12A
330
1F
100
AcDbEntity
  8
0
  6
PHANTOM
 62
     4
 48
0.057523
370
    35
100
AcDbLine
 10
586.420715
 20
393.240173
 30
0.0
 11
586.420715
 21
390.93924
 31
0.0
  0
LINE
  5
12B
330
1F
100
AcDbEntity
  8
0
  6
PHANTOM
 62
     4
 48
0.153412
370
    35
100
AcDbLine
 10
562.738953
 20
384.33902
 30
0.0
 11
556.602478
 21
384.33902
 31
0.0
  0
LINE
  5
12C
330
1F
100
AcDbEntity
  8
0
  6
PHANTOM
 62
     4
 48
0.153412
370
    35
100
AcDbLine
 10
578.238953
 20
384.33902
 30
0.0
 11
572.102478
 21
384.33902
 31
0.0
  0
ELLIPSE
  5
12D
330
1F
100
AcDbEntity
  8
0
 62
     7
370
    35
100
AcDbEllipse
 10
583.692627
 20
406.739258
 30
0.0
 11
0.0
 21
-1.5
 31
0.0
210
0.0
220
0.0
230
1.0
 40
0.984808
 41
5.63878751046302
 42
5.759798840991398
  0
ELLIPSE
  5
12E
330
1F
100
AcDbEntity
  8
0
 62
     7
370
    35
100
AcDbEllipse
 10
583.692627
 20
406.739258
 30
0.0
 11
0.0
 21
-1.5
 31
0.0
210
0.0
220
0.0
230
1.0
 40
0.984808
 41
0.5234032124849062
 42
0.6443825195010198
  0
ELLIPSE
  5
12F
330
1F
100
AcDbEntity
  8
0
 62
     7
370
    35
100
AcDbEllipse
 10
583.100098
 20
406.739258
 30
0.0
 11
0.0
 21
-1.75
 31
0.0
210
0.0
220
0.0
230
1.0
 40
0.984808
 41
5.467356901781544
 42
5.549056478961953
  0
ELLIPSE
  5
130
330
1F
100
AcDbEntity
  8
0
 62
     7
370
    35
100
AcDbEllipse
 10
552.100098
 20
406.739258
 30
0.0
 11
0.0
 21
-1.75
 31
0.0
210
0.0
220
0.0
230
1.0
 40
0.984808
 41
5.467356901781182
 42
5.549056478962949
  0
ELLIPSE
  5
131
330
1F
100
AcDbEntity
  8
0
 62
     7
370
    35
100
AcDbEllipse
 10
552.692627
 20
406.739258
 30
0.0
 11
0.0
 21
-1.5
 31
0.0
210
0.0
220
0.0
230
1.0
 40
0.984808
 41
5.638787510458452
 42
5.759798840990509
  0
ELLIPSE
  5
132
330
1F
100
AcDbEntity
  8
0
 62
     7
370
    35
100
AcDbEllipse
 10
552.692627
 20
406.739258
 30
0.0
 11
0.0
 21
-1.5
 31
0.0
210
0.0
220
0.0
230
1.0
 40
0.984808
 41
0.5234032124853715
 42
0.6443825195012375
  0
LINE
  5
133
330
1F
100
AcDbEntity
  8
0
 62
     7
370
    35
100
AcDbLine
 10
550.307373
 20
405.440125
 30
0.0
 11
550.307373
 21
405.5401
 31
0.0
  0
ELLIPSE
  5
134
330
1F
100
AcDbEntity
  8
0
 62
     7
370
    35
100
AcDbEllipse
 10
569.192627
 20
406.739258
 30
0.0
 11
0.0
 21
-1.5
 31
0.0
210
0.0
220
0.0
230
1.0
 40
0.984808
 41
5.638787510459654
 42
5.759798840987756
  0
ELLIPSE
  5
135
330
1F
100
AcDbEntity
  8
0
 62
     7
370
    35
100
AcDbEllipse
 10
569.192627
 20
406.739258
 30
0.0
 11
0.0
 21
-1.5
 31
0.0
210
0.0
220
0.0
230
1.0
 40
0.984808
 41
0.5234032124831969
 42
0.6443825195011865
  0
ELLIPSE
  5
136
330
1F
100
AcDbEntity
  8
0
 62
     7
370
    35
100
AcDbEllipse
 10
568.600098
 20
406.739258
 30
0.0
 11
0.0
 21
-1.75
 31
0.0
210
0.0
220
0.0
230
1.0
 40
0.984808
 41
5.467356901782528
 42
5.549056478964352
  0
LINE
  5
137
330
1F
100
AcDbEntity
  8
0
 62
     7
370
    35
100
AcDbLine
 10
572.570679
 20
405.5401
 30
0.0
 11
572.570679
 21
405.440125
 31
0.0
  0
LINE
  5
138
330
1F
100
AcDbEntity
  8
0
 62
     7
370
    35
100
AcDbLine
 10
565.070679
 20
405.5401
 30
0.0
 11
565.070679
 21
405.440125
 31
0.0
  0
ELLIPSE
  5
139
330
1F
100
AcDbEntity
  8
0
 62
     7
370
    35
100
AcDbEllipse
 10
583.692627
 20
399.740173
 30
0.0
 11
0.0
 21
-1.5
 31
0.0
210
0.0
220
0.0
230
1.0
 40
0.984808
 41
5.535725070535221
 42
5.639782536803473
  0
ELLIPSE
  5
13A
330
1F
100
AcDbEntity
  8
0
 62
     7
370
    35
100
AcDbEllipse
 10
583.692627
 20
399.740173
 30
0.0
 11
0.0
 21
-1.5
 31
0.0
210
0.0
220
0.0
230
1.0
 40
0.984808
 41
0.6433876931069239
 42
0.7474697914112695
  0
ELLIPSE
  5
13B
330
1F
100
AcDbEntity
  8
0
 62
     7
370
    35
100
AcDbEllipse
 10
583.100098
 20
399.740173
 30
0.0
 11
0.0
 21
-1.75
 31
0.0
210
0.0
220
0.0
230
1.0
 40
0.984808
 41
5.39221811214717
 42
5.46805880239645
  0
ELLIPSE
  5
13C
330
1F
100
AcDbEntity
  8
0
 62
     7
370
    35
100
AcDbEllipse
 10
552.100098
 20
399.740173
 30
0.0
 11
0.0
 21
-1.75
 31
0.0
210
0.0
220
0.0
230
1.0
 40
0.984808
 41
5.392218112147773
 42
5.468058802397364
  0
ELLIPSE
  5
13D
330
1F
100
AcDbEntity
  8
0
 62
     7
370
    35
100
AcDbEllipse
 10
552.692627
 20
399.740173
 30
0.0
 11
0.0
 21
-1.5
 31
0.0
210
0.0
220
0.0
230
1.0
 40
0.984808
 41
5.535725070533521
 42
5.63978253680398
  0
ELLIPSE
  5
13E
330
1F
100
AcDbEntity
  8
0
 62
     7
370
    35
100
AcDbEllipse
 10
552.692627
 20
399.740173
 30
0.0
 11
0.0
 21
-1.5
 31
0.0
210
0.0
220
0.0
230
1.0
 40
0.984808
 41
0.6433876931078157
 42
0.747469791411942
  0
LINE
  5
13F
330
1F
100
AcDbEntity
  8
0
 62
     7
370
    35
100
AcDbLine
 10
550.307373
 20
398.5401
 30
0.0
 11
550.307373
 21
398.640106
 31
0.0
  0
ELLIPSE
  5
140
330
1F
100
AcDbEntity
  8
0
 62
     7
370
    35
100
AcDbEllipse
 10
569.192627
 20
399.740173
 30
0.0
 11
0.0
 21
-1.5
 31
0.0
210
0.0
220
0.0
230
1.0
 40
0.984808
 41
5.535725070534804
 42
5.639782536804463
  0
ELLIPSE
  5
141
330
1F
100
AcDbEntity
  8
0
 62
     7
370
    35
100
AcDbEllipse
 10
569.192627
 20
399.740173
 30
0.0
 11
0.0
 21
-1.5
 31
0.0
210
0.0
220
0.0
230
1.0
 40
0.984808
 41
0.6433876931071693
 42
0.747469791410108
  0
ELLIPSE
  5
142
330
1F
100
AcDbEntity
  8
0
 62
     7
370
    35
100
AcDbEllipse
 10
568.600098
 20
399.740173
 30
0.0
 11
0.0
 21
-1.75
 31
0.0
210
0.0
220
0.0
230
1.0
 40
0.984808
 41
5.392218112149157
 42
5.468058802398121
  0
LINE
  5
143
330
1F
100
AcDbEntity
  8
0
 62
     7
370
    35
100
AcDbLine
 10
572.570679
 20
398.640106
 30
0.0
 11
572.570679
 21
398.5401
 31
0.0
  0
LINE
  5
144
330
1F
100
AcDbEntity
  8
0
 62
     7
370
    35
100
AcDbLine
 10
565.070679
 20
398.640106
 30
0.0
 11
565.070679
 21
398.5401
 31
0.0
  0
LINE
  5
145
330
1F
100
AcDbEntity
  8
0
 62
     7
370
    35
100
AcDbLine
 10
640.563538
 20
439.740173
 30
0.0
 11
640.563538
 21
394.740173
 31
0.0
  0
ARC
  5
146
330
1F
100
AcDbEntity
  8
0
 62
     7
370
    35
100
AcDbCircle
 10
667.0802
 20
402.040161
 30
0.0
 40
26.81666666666679
100
AcDbArc
 50
171.421697
 51
188.578303
  0
ARC
  5
147
330
1F
100
AcDbEntity
  8
0
 62
     7
370
    35
100
AcDbCircle
 10
642.063538
 20
439.740173
 30
0.0
 40
1.5
100
AcDbArc
 50
90.000003
 51
180.000005
  0
ARC
  5
148
330
1F
100
AcDbEntity
  8
0
 62
     7
370
    35
100
AcDbCircle
 10
642.063538
 20
394.740173
 30
0.0
 40
1.5
100
AcDbArc
 50
180.000005
 51
269.999997
  0
LINE
  5
149
330
1F
100
AcDbEntity
  8
0
 62
     7
370
    35
100
AcDbLine
 10
644.563538
 20
441.240173
 30
0.0
 11
642.063538
 21
441.240173
 31
0.0
  0
LINE
  5
14A
330
1F
100
AcDbEntity
  8
0
 62
     7
370
    35
100
AcDbLine
 10
644.563538
 20
393.240173
 30
0.0
 11
642.063538
 21
393.240173
 31
0.0
  0
LINE
  5
14B
330
1F
100
AcDbEntity
  8
0
 62
     7
370
    35
100
AcDbLine
 10
644.563538
 20
394.740173
 30
0.0
 11
644.563538
 21
439.740173
 31
0.0
  0
LINE
  5
14C
330
1F
100
AcDbEntity
  8
0
 62
     7
370
    35
100
AcDbLine
 10
644.563538
 20
394.740173
 30
0.0
 11
644.563538
 21
393.240173
 31
0.0
  0
LINE
  5
14D
330
1F
100
AcDbEntity
  8
0
 62
     7
370
    35
100
AcDbLine
 10
644.563538
 20
441.240173
 30
0.0
 11
644.563538
 21
439.740173
 31
0.0
  0
LINE
  5
14E
330
1F
100
AcDbEntity
  8
0
 62
     7
370
    35
100
AcDbLine
 10
639.93396
 20
405.440155
 30
0.0
 11
640.479919
 21
405.440155
 31
0.0
  0
ARC
  5
14F
330
1F
100
AcDbEntity
  8
0
 62
     7
370
    35
100
AcDbCircle
 10
673.76355
 20
402.040161
 30
0.0
 40
34.0
100
AcDbArc
 50
174.260829
 51
185.739171
  0
LINE
  5
150
330
1F
100
AcDbEntity
  8
0
 62
     7
370
    35
100
AcDbLine
 10
640.479919
 20
398.640167
 30
0.0
 11
639.93396
 21
398.640167
 31
0.0
  0
LINE
  5
151
330
1F
100
AcDbEntity
  8
0
 62
     7
370
    35
100
AcDbLine
 10
648.563538
 20
394.940155
 30
0.0
 11
654.385864
 21
394.940155
 31
0.0
  0
LINE
  5
152
330
1F
100
AcDbEntity
  8
0
 62
     7
370
    35
100
AcDbLine
 10
666.385864
 20
394.940155
 30
0.0
 11
670.063538
 21
394.940155
 31
0.0
  0
LINE
  5
153
330
1F
100
AcDbEntity
  8
0
 62
     7
370
    35
100
AcDbLine
 10
670.063538
 20
394.940155
 30
0.0
 11
679.063538
 21
394.940155
 31
0.0
  0
LINE
  5
154
330
1F
100
AcDbEntity
  8
0
 62
     7
370
    35
100
AcDbLine
 10
679.063538
 20
394.940155
 30
0.0
 11
711.863525
 21
394.940155
 31
0.0
  0
LINE
  5
155
330
1F
100
AcDbEntity
  8
0
 62
     7
370
    35
100
AcDbLine
 10
728.563538
 20
423.790161
 30
0.0
 11
727.563538
 21
423.790161
 31
0.0
  0
LINE
  5
156
330
1F
100
AcDbEntity
  8
0
 62
     7
370
    35
100
AcDbLine
 10
727.563538
 20
423.790161
 30
0.0
 11
724.063538
 21
423.790161
 31
0.0
  0
LINE
  5
157
330
1F
100
AcDbEntity
  8
0
 62
     7
370
    35
100
AcDbLine
 10
727.563538
 20
424.690155
 30
0.0
 11
724.063538
 21
424.690155
 31
0.0
  0
LINE
  5
158
330
1F
100
AcDbEntity
  8
0
 62
     7
370
    35
100
AcDbLine
 10
727.563538
 20
424.690155
 30
0.0
 11
728.563538
 21
424.690155
 31
0.0
  0
LINE
  5
159
330
1F
100
AcDbEntity
  8
0
 62
     7
370
    35
100
AcDbLine
 10
728.563538
 20
409.790161
 30
0.0
 11
727.563538
 21
409.790161
 31
0.0
  0
LINE
  5
15A
330
1F
100
AcDbEntity
  8
0
 62
     7
370
    35
100
AcDbLine
 10
727.563538
 20
409.790161
 30
0.0
 11
724.063538
 21
409.790161
 31
0.0
  0
LINE
  5
15B
330
1F
100
AcDbEntity
  8
0
 62
     7
370
    35
100
AcDbLine
 10
727.563538
 20
410.690155
 30
0.0
 11
724.063538
 21
410.690155
 31
0.0
  0
LINE
  5
15C
330
1F
100
AcDbEntity
  8
0
 62
     7
370
    35
100
AcDbLine
 10
727.563538
 20
410.690155
 30
0.0
 11
728.563538
 21
410.690155
 31
0.0
  0
LINE
  5
15D
330
1F
100
AcDbEntity
  8
0
 62
     7
370
    35
100
AcDbLine
 10
652.563538
 20
438.240173
 30
0.0
 11
652.563538
 21
438.040161
 31
0.0
  0
LINE
  5
15E
330
1F
100
AcDbEntity
  8
0
 62
     7
370
    35
100
AcDbLine
 10
652.563538
 20
438.040161
 30
0.0
 11
652.063538
 21
437.290161
 31
0.0
  0
LINE
  5
15F
330
1F
100
AcDbEntity
  8
0
 62
     7
370
    35
100
AcDbLine
 10
679.063538
 20
438.040161
 30
0.0
 11
666.385864
 21
438.040161
 31
0.0
  0
LINE
  5
160
330
1F
100
AcDbEntity
  8
0
 62
     7
370
    35
100
AcDbLine
 10
654.385864
 20
438.040161
 30
0.0
 11
652.563538
 21
438.040161
 31
0.0
  0
LINE
  5
161
330
1F
100
AcDbEntity
  8
0
 62
     7
370
    35
100
AcDbLine
 10
670.063538
 20
439.540161
 30
0.0
 11
679.063538
 21
439.540161
 31
0.0
  0
LINE
  5
162
330
1F
100
AcDbEntity
  8
0
 62
     7
370
    35
100
AcDbLine
 10
644.563538
 20
394.740173
 30
0.0
 11
644.563538
 21
393.240173
 31
0.0
  0
LINE
  5
163
330
1F
100
AcDbEntity
  8
0
 62
     7
370
    35
100
AcDbLine
 10
644.563538
 20
394.740173
 30
0.0
 11
644.563538
 21
439.740173
 31
0.0
  0
LINE
  5
164
330
1F
100
AcDbEntity
  8
0
 62
     7
370
    35
100
AcDbLine
 10
644.563538
 20
441.240173
 30
0.0
 11
644.563538
 21
439.740173
 31
0.0
  0
LINE
  5
165
330
1F
100
AcDbEntity
  8
0
 62
     7
370
    35
100
AcDbLine
 10
725.012817
 20
432.190155
 30
0.0
 11
725.063538
 21
432.190155
 31
0.0
  0
LINE
  5
166
330
1F
100
AcDbEntity
  8
0
 62
     7
370
    35
100
AcDbLine
 10
725.563538
 20
431.690155
 30
0.0
 11
725.063538
 21
432.190155
 31
0.0
  0
LINE
  5
167
330
1F
100
AcDbEntity
  8
0
 62
     7
370
    35
100
AcDbLine
 10
728.563538
 20
402.790161
 30
0.0
 11
728.563538
 21
403.690155
 31
0.0
  0
LINE
  5
168
330
1F
100
AcDbEntity
  8
0
 62
     7
370
    35
100
AcDbLine
 10
725.013855
 20
404.190155
 30
0.0
 11
725.063538
 21
404.190155
 31
0.0
  0
LINE
  5
169
330
1F
100
AcDbEntity
  8
0
 62
     7
370
    35
100
AcDbLine
 10
725.063538
 20
404.190155
 30
0.0
 11
725.563538
 21
403.690155
 31
0.0
  0
LINE
  5
16A
330
1F
100
AcDbEntity
  8
0
 62
     7
370
    35
100
AcDbLine
 10
724.563538
 20
403.690155
 30
0.0
 11
724.563538
 21
404.039246
 31
0.0
  0
LINE
  5
16B
330
1F
100
AcDbEntity
  8
0
 62
     7
370
    35
100
AcDbLine
 10
724.563538
 20
409.43927
 30
0.0
 11
724.563538
 21
409.790161
 31
0.0
  0
LINE
  5
16C
330
1F
100
AcDbEntity
  8
0
 62
     7
370
    35
100
AcDbLine
 10
725.011658
 20
409.290161
 30
0.0
 11
725.063538
 21
409.290161
 31
0.0
  0
LINE
  5
16D
330
1F
100
AcDbEntity
  8
0
 62
     7
370
    35
100
AcDbLine
 10
725.563538
 20
409.790161
 30
0.0
 11
725.063538
 21
409.290161
 31
0.0
  0
LINE
  5
16E
330
1F
100
AcDbEntity
  8
0
 62
     7
370
    35
100
AcDbLine
 10
728.563538
 20
409.790161
 30
0.0
 11
728.563538
 21
410.690155
 31
0.0
  0
LINE
  5
16F
330
1F
100
AcDbEntity
  8
0
 62
     7
370
    35
100
AcDbLine
 10
725.012817
 20
411.190155
 30
0.0
 11
725.063538
 21
411.190155
 31
0.0
  0
LINE
  5
170
330
1F
100
AcDbEntity
  8
0
 62
     7
370
    35
100
AcDbLine
 10
725.063538
 20
411.190155
 30
0.0
 11
725.563538
 21
410.690155
 31
0.0
  0
LINE
  5
171
330
1F
100
AcDbEntity
  8
0
 62
     7
370
    35
100
AcDbLine
 10
724.563538
 20
410.690155
 30
0.0
 11
724.563538
 21
411.040161
 31
0.0
  0
LINE
  5
172
330
1F
100
AcDbEntity
  8
0
 62
     7
370
    35
100
AcDbLine
 10
724.563538
 20
416.440155
 30
0.0
 11
724.563538
 21
416.790161
 31
0.0
  0
LINE
  5
173
330
1F
100
AcDbEntity
  8
0
 62
     7
370
    35
100
AcDbLine
 10
725.012634
 20
416.290161
 30
0.0
 11
725.063538
 21
416.290161
 31
0.0
  0
LINE
  5
174
330
1F
100
AcDbEntity
  8
0
 62
     7
370
    35
100
AcDbLine
 10
725.563538
 20
416.790161
 30
0.0
 11
725.063538
 21
416.290161
 31
0.0
  0
LINE
  5
175
330
1F
100
AcDbEntity
  8
0
 62
     7
370
    35
100
AcDbLine
 10
728.563538
 20
416.790161
 30
0.0
 11
728.563538
 21
417.690155
 31
0.0
  0
LINE
  5
176
330
1F
100
AcDbEntity
  8
0
 62
     7
370
    35
100
AcDbLine
 10
725.012634
 20
418.190155
 30
0.0
 11
725.063538
 21
418.190155
 31
0.0
  0
LINE
  5
177
330
1F
100
AcDbEntity
  8
0
 62
     7
370
    35
100
AcDbLine
 10
725.063538
 20
418.190155
 30
0.0
 11
725.563538
 21
417.690155
 31
0.0
  0
LINE
  5
178
330
1F
100
AcDbEntity
  8
0
 62
     7
370
    35
100
AcDbLine
 10
724.563538
 20
417.690155
 30
0.0
 11
724.563538
 21
418.040314
 31
0.0
  0
LINE
  5
179
330
1F
100
AcDbEntity
  8
0
 62
     7
370
    35
100
AcDbLine
 10
724.563538
 20
423.440308
 30
0.0
 11
724.563538
 21
423.790161
 31
0.0
  0
LINE
  5
17A
330
1F
100
AcDbEntity
  8
0
 62
     7
370
    35
100
AcDbLine
 10
725.012817
 20
423.290161
 30
0.0
 11
725.063538
 21
423.290161
 31
0.0
  0
LINE
  5
17B
330
1F
100
AcDbEntity
  8
0
 62
     7
370
    35
100
AcDbLine
 10
725.563538
 20
423.790161
 30
0.0
 11
725.063538
 21
423.290161
 31
0.0
  0
LINE
  5
17C
330
1F
100
AcDbEntity
  8
0
 62
     7
370
    35
100
AcDbLine
 10
728.563538
 20
423.790161
 30
0.0
 11
728.563538
 21
424.690155
 31
0.0
  0
LINE
  5
17D
330
1F
100
AcDbEntity
  8
0
 62
     7
370
    35
100
AcDbLine
 10
725.012573
 20
425.190155
 30
0.0
 11
725.063538
 21
425.190155
 31
0.0
  0
LINE
  5
17E
330
1F
100
AcDbEntity
  8
0
 62
     7
370
    35
100
AcDbLine
 10
725.063538
 20
425.190155
 30
0.0
 11
725.563538
 21
424.690155
 31
0.0
  0
LINE
  5
17F
330
1F
100
AcDbEntity
  8
0
 62
     7
370
    35
100
AcDbLine
 10
724.563538
 20
424.690155
 30
0.0
 11
724.563538
 21
425.040405
 31
0.0
  0
LINE
  5
180
330
1F
100
AcDbEntity
  8
0
 62
     7
370
    35
100
AcDbLine
 10
724.563538
 20
430.440399
 30
0.0
 11
724.563538
 21
430.790161
 31
0.0
  0
LINE
  5
181
330
1F
100
AcDbEntity
  8
0
 62
     7
370
    35
100
AcDbLine
 10
725.012939
 20
430.290161
 30
0.0
 11
725.063538
 21
430.290161
 31
0.0
  0
LINE
  5
182
330
1F
100
AcDbEntity
  8
0
 62
     7
370
    35
100
AcDbLine
 10
725.563538
 20
430.790161
 30
0.0
 11
725.063538
 21
430.290161
 31
0.0
  0
LINE
  5
183
330
1F
100
AcDbEntity
  8
0
 62
     7
370
    35
100
AcDbLine
 10
728.563538
 20
430.790161
 30
0.0
 11
728.563538
 21
431.690155
 31
0.0
  0
LINE
  5
184
330
1F
100
AcDbEntity
  8
0
 62
     7
370
    35
100
AcDbLine
 10
724.563538
 20
431.690155
 30
0.0
 11
724.563538
 21
432.040161
 31
0.0
  0
LINE
  5
185
330
1F
100
AcDbEntity
  8
0
 62
     7
370
    35
100
AcDbLine
 10
724.563538
 20
437.440155
 30
0.0
 11
724.563538
 21
437.790161
 31
0.0
  0
LINE
  5
186
330
1F
100
AcDbEntity
  8
0
 62
     7
370
    35
100
AcDbLine
 10
725.012634
 20
437.290161
 30
0.0
 11
725.063538
 21
437.290161
 31
0.0
  0
LINE
  5
187
330
1F
100
AcDbEntity
  8
0
 62
     7
370
    35
100
AcDbLine
 10
725.063538
 20
437.290161
 30
0.0
 11
725.563538
 21
437.790161
 31
0.0
  0
LINE
  5
188
330
1F
100
AcDbEntity
  8
0
 62
     7
370
    35
100
AcDbLine
 10
728.563538
 20
437.790161
 30
0.0
 11
728.563538
 21
438.840179
 31
0.0
  0
LINE
  5
189
330
1F
100
AcDbEntity
  8
0
 62
     7
370
    35
100
AcDbLine
 10
653.563538
 20
435.740173
 30
0.0
 11
718.563538
 21
435.740173
 31
0.0
  0
LINE
  5
18A
330
1F
100
AcDbEntity
  8
0
 62
     7
370
    35
100
AcDbLine
 10
653.563538
 20
435.740173
 30
0.0
 11
653.563538
 21
398.740173
 31
0.0
  0
LINE
  5
18B
330
1F
100
AcDbEntity
  8
0
 62
     7
370
    35
100
AcDbLine
 10
718.563538
 20
398.740173
 30
0.0
 11
653.563538
 21
398.740173
 31
0.0
  0
LINE
  5
18C
330
1F
100
AcDbEntity
  8
0
 62
     7
370
    35
100
AcDbLine
 10
718.563538
 20
398.740173
 30
0.0
 11
718.563538
 21
435.740173
 31
0.0
  0
LINE
  5
18D
330
1F
100
AcDbEntity
  8
0
 62
     7
370
    35
100
AcDbLine
 10
670.063538
 20
439.540161
 30
0.0
 11
670.063538
 21
439.040161
 31
0.0
  0
LINE
  5
18E
330
1F
100
AcDbEntity
  8
0
 62
     7
370
    35
100
AcDbLine
 10
670.063538
 20
438.240173
 30
0.0
 11
670.063538
 21
439.040161
 31
0.0
  0
LINE
  5
18F
330
1F
100
AcDbEntity
  8
0
 62
     7
370
    35
100
AcDbLine
 10
670.063538
 20
438.240173
 30
0.0
 11
666.385864
 21
438.240173
 31
0.0
  0
LINE
  5
190
330
1F
100
AcDbEntity
  8
0
 62
     7
370
    35
100
AcDbLine
 10
654.385864
 20
438.240173
 30
0.0
 11
652.063538
 21
438.240173
 31
0.0
  0
LINE
  5
191
330
1F
100
AcDbEntity
  8
0
 62
     7
370
    35
100
AcDbLine
 10
652.063538
 20
438.240173
 30
0.0
 11
652.063538
 21
436.840179
 31
0.0
  0
LINE
  5
192
330
1F
100
AcDbEntity
  8
0
 62
     7
370
    35
100
AcDbLine
 10
679.063538
 20
436.840179
 30
0.0
 11
652.063538
 21
436.840179
 31
0.0
  0
LINE
  5
193
330
1F
100
AcDbEntity
  8
0
 62
     7
370
    35
100
AcDbLine
 10
679.063538
 20
436.840179
 30
0.0
 11
679.063538
 21
439.040161
 31
0.0
  0
LINE
  5
194
330
1F
100
AcDbEntity
  8
0
 62
     7
370
    35
100
AcDbLine
 10
679.063538
 20
439.540161
 30
0.0
 11
679.063538
 21
439.040161
 31
0.0
  0
LINE
  5
195
330
1F
100
AcDbEntity
  8
0
 62
     7
370
    35
100
AcDbLine
 10
711.863525
 20
439.540161
 30
0.0
 11
712.363525
 21
439.040161
 31
0.0
  0
LINE
  5
196
330
1F
100
AcDbEntity
  8
0
 62
     7
370
    35
100
AcDbLine
 10
679.063538
 20
439.540161
 30
0.0
 11
711.863525
 21
439.540161
 31
0.0
  0
LINE
  5
197
330
1F
100
AcDbEntity
  8
0
 62
     7
370
    35
100
AcDbLine
 10
728.563538
 20
437.790161
 30
0.0
 11
727.563538
 21
437.790161
 31
0.0
  0
LINE
  5
198
330
1F
100
AcDbEntity
  8
0
 62
     7
370
    35
100
AcDbLine
 10
728.543335
 20
438.840179
 30
0.0
 11
727.563538
 21
438.840179
 31
0.0
  0
LINE
  5
199
330
1F
100
AcDbEntity
  8
0
 62
     7
370
    35
100
AcDbLine
 10
723.563538
 20
437.290161
 30
0.0
 11
724.063538
 21
437.790161
 31
0.0
  0
LINE
  5
19A
330
1F
100
AcDbEntity
  8
0
 62
     7
370
    35
100
AcDbLine
 10
723.563538
 20
437.290161
 30
0.0
 11
722.063538
 21
437.290161
 31
0.0
  0
LINE
  5
19B
330
1F
100
AcDbEntity
  8
0
 62
     7
370
    35
100
AcDbLine
 10
722.063538
 20
437.290161
 30
0.0
 11
722.063538
 21
432.190155
 31
0.0
  0
LINE
  5
19C
330
1F
100
AcDbEntity
  8
0
 62
     7
370
    35
100
AcDbLine
 10
723.563538
 20
432.190155
 30
0.0
 11
722.063538
 21
432.190155
 31
0.0
  0
LINE
  5
19D
330
1F
100
AcDbEntity
  8
0
 62
     7
370
    35
100
AcDbLine
 10
723.563538
 20
432.190155
 30
0.0
 11
724.063538
 21
431.690155
 31
0.0
  0
LINE
  5
19E
330
1F
100
AcDbEntity
  8
0
 62
     7
370
    35
100
AcDbLine
 10
728.563538
 20
430.790161
 30
0.0
 11
727.563538
 21
430.790161
 31
0.0
  0
LINE
  5
19F
330
1F
100
AcDbEntity
  8
0
 62
     7
370
    35
100
AcDbLine
 10
727.563538
 20
431.690155
 30
0.0
 11
728.563538
 21
431.690155
 31
0.0
  0
LINE
  5
1A0
330
1F
100
AcDbEntity
  8
0
 62
     7
370
    35
100
AcDbLine
 10
723.563538
 20
430.290161
 30
0.0
 11
724.063538
 21
430.790161
 31
0.0
  0
LINE
  5
1A1
330
1F
100
AcDbEntity
  8
0
 62
     7
370
    35
100
AcDbLine
 10
723.563538
 20
430.290161
 30
0.0
 11
722.063538
 21
430.290161
 31
0.0
  0
LINE
  5
1A2
330
1F
100
AcDbEntity
  8
0
 62
     7
370
    35
100
AcDbLine
 10
722.063538
 20
430.290161
 30
0.0
 11
722.063538
 21
425.190155
 31
0.0
  0
LINE
  5
1A3
330
1F
100
AcDbEntity
  8
0
 62
     7
370
    35
100
AcDbLine
 10
723.563538
 20
425.190155
 30
0.0
 11
722.063538
 21
425.190155
 31
0.0
  0
LINE
  5
1A4
330
1F
100
AcDbEntity
  8
0
 62
     7
370
    35
100
AcDbLine
 10
723.563538
 20
425.190155
 30
0.0
 11
724.063538
 21
424.690155
 31
0.0
  0
LINE
  5
1A5
330
1F
100
AcDbEntity
  8
0
 62
     7
370
    35
100
AcDbLine
 10
723.563538
 20
423.290161
 30
0.0
 11
724.063538
 21
423.790161
 31
0.0
  0
LINE
  5
1A6
330
1F
100
AcDbEntity
  8
0
 62
     7
370
    35
100
AcDbLine
 10
723.563538
 20
423.290161
 30
0.0
 11
722.063538
 21
423.290161
 31
0.0
  0
LINE
  5
1A7
330
1F
100
AcDbEntity
  8
0
 62
     7
370
    35
100
AcDbLine
 10
722.063538
 20
423.290161
 30
0.0
 11
722.063538
 21
418.190155
 31
0.0
  0
LINE
  5
1A8
330
1F
100
AcDbEntity
  8
0
 62
     7
370
    35
100
AcDbLine
 10
723.563538
 20
418.190155
 30
0.0
 11
722.063538
 21
418.190155
 31
0.0
  0
LINE
  5
1A9
330
1F
100
AcDbEntity
  8
0
 62
     7
370
    35
100
AcDbLine
 10
723.563538
 20
418.190155
 30
0.0
 11
724.063538
 21
417.690155
 31
0.0
  0
LINE
  5
1AA
330
1F
100
AcDbEntity
  8
0
 62
     7
370
    35
100
AcDbLine
 10
728.563538
 20
416.790161
 30
0.0
 11
727.563538
 21
416.790161
 31
0.0
  0
LINE
  5
1AB
330
1F
100
AcDbEntity
  8
0
 62
     7
370
    35
100
AcDbLine
 10
727.563538
 20
417.690155
 30
0.0
 11
728.563538
 21
417.690155
 31
0.0
  0
LINE
  5
1AC
330
1F
100
AcDbEntity
  8
0
 62
     7
370
    35
100
AcDbLine
 10
723.563538
 20
416.290161
 30
0.0
 11
724.063538
 21
416.790161
 31
0.0
  0
LINE
  5
1AD
330
1F
100
AcDbEntity
  8
0
 62
     7
370
    35
100
AcDbLine
 10
723.563538
 20
416.290161
 30
0.0
 11
722.063538
 21
416.290161
 31
0.0
  0
LINE
  5
1AE
330
1F
100
AcDbEntity
  8
0
 62
     7
370
    35
100
AcDbLine
 10
722.063538
 20
416.290161
 30
0.0
 11
722.063538
 21
411.190155
 31
0.0
  0
LINE
  5
1AF
330
1F
100
AcDbEntity
  8
0
 62
     7
370
    35
100
AcDbLine
 10
723.563538
 20
411.190155
 30
0.0
 11
722.063538
 21
411.190155
 31
0.0
  0
LINE
  5
1B0
330
1F
100
AcDbEntity
  8
0
 62
     7
370
    35
100
AcDbLine
 10
723.563538
 20
411.190155
 30
0.0
 11
724.063538
 21
410.690155
 31
0.0
  0
LINE
  5
1B1
330
1F
100
AcDbEntity
  8
0
 62
     7
370
    35
100
AcDbLine
 10
723.563538
 20
409.290161
 30
0.0
 11
724.063538
 21
409.790161
 31
0.0
  0
LINE
  5
1B2
330
1F
100
AcDbEntity
  8
0
 62
     7
370
    35
100
AcDbLine
 10
723.563538
 20
409.290161
 30
0.0
 11
722.063538
 21
409.290161
 31
0.0
  0
LINE
  5
1B3
330
1F
100
AcDbEntity
  8
0
 62
     7
370
    35
100
AcDbLine
 10
722.063538
 20
409.290161
 30
0.0
 11
722.063538
 21
404.190155
 31
0.0
  0
LINE
  5
1B4
330
1F
100
AcDbEntity
  8
0
 62
     7
370
    35
100
AcDbLine
 10
723.563538
 20
404.190155
 30
0.0
 11
722.063538
 21
404.190155
 31
0.0
  0
LINE
  5
1B5
330
1F
100
AcDbEntity
  8
0
 62
     7
370
    35
100
AcDbLine
 10
723.563538
 20
404.190155
 30
0.0
 11
724.063538
 21
403.690155
 31
0.0
  0
LINE
  5
1B6
330
1F
100
AcDbEntity
  8
0
 62
     7
370
    35
100
AcDbLine
 10
728.563538
 20
402.790161
 30
0.0
 11
727.563538
 21
402.790161
 31
0.0
  0
LINE
  5
1B7
330
1F
100
AcDbEntity
  8
0
 62
     7
370
    35
100
AcDbLine
 10
727.563538
 20
403.690155
 30
0.0
 11
728.563538
 21
403.690155
 31
0.0
  0
LINE
  5
1B8
330
1F
100
AcDbEntity
  8
0
 62
     7
370
    35
100
AcDbLine
 10
723.563538
 20
402.290161
 30
0.0
 11
724.063538
 21
402.790161
 31
0.0
  0
LINE
  5
1B9
330
1F
100
AcDbEntity
  8
0
 62
     7
370
    35
100
AcDbLine
 10
723.563538
 20
402.290161
 30
0.0
 11
722.063538
 21
402.290161
 31
0.0
  0
LINE
  5
1BA
330
1F
100
AcDbEntity
  8
0
 62
     7
370
    35
100
AcDbLine
 10
723.563538
 20
397.190155
 30
0.0
 11
722.063538
 21
397.190155
 31
0.0
  0
LINE
  5
1BB
330
1F
100
AcDbEntity
  8
0
 62
     7
370
    35
100
AcDbLine
 10
652.063538
 20
396.240173
 30
0.0
 11
652.063538
 21
397.640167
 31
0.0
  0
LINE
  5
1BC
330
1F
100
AcDbEntity
  8
0
 62
     7
370
    35
100
AcDbLine
 10
725.563538
 20
402.790161
 30
0.0
 11
725.063538
 21
402.290161
 31
0.0
  0
LINE
  5
1BD
330
1F
100
AcDbEntity
  8
0
 62
     7
370
    35
100
AcDbLine
 10
727.563538
 20
438.840179
 30
0.0
 11
712.563538
 21
438.840179
 31
0.0
  0
LINE
  5
1BE
330
1F
100
AcDbEntity
  8
0
 62
     7
370
    35
100
AcDbLine
 10
712.363525
 20
439.040161
 30
0.0
 11
712.563538
 21
438.840179
 31
0.0
  0
LINE
  5
1BF
330
1F
100
AcDbEntity
  8
0
 62
     7
370
    35
100
AcDbLine
 10
725.012634
 20
402.290161
 30
0.0
 11
725.063538
 21
402.290161
 31
0.0
  0
LINE
  5
1C0
330
1F
100
AcDbEntity
  8
0
 62
     7
370
    35
100
AcDbLine
 10
725.012817
 20
397.190155
 30
0.0
 11
725.063538
 21
397.190155
 31
0.0
  0
LINE
  5
1C1
330
1F
100
AcDbEntity
  8
0
 62
     7
370
    35
100
AcDbLine
 10
727.563538
 20
395.640167
 30
0.0
 11
712.563538
 21
395.640167
 31
0.0
  0
LINE
  5
1C2
330
1F
100
AcDbEntity
  8
0
 62
     7
370
    35
100
AcDbLine
 10
728.563538
 20
395.640167
 30
0.0
 11
727.563538
 21
395.640167
 31
0.0
  0
LINE
  5
1C3
330
1F
100
AcDbEntity
  8
0
 62
     7
370
    35
100
AcDbLine
 10
679.063538
 20
397.640167
 30
0.0
 11
652.063538
 21
397.640167
 31
0.0
  0
LINE
  5
1C4
330
1F
100
AcDbEntity
  8
0
 62
     7
370
    35
100
AcDbLine
 10
652.563538
 20
396.440155
 30
0.0
 11
652.563538
 21
396.240173
 31
0.0
  0
LINE
  5
1C5
330
1F
100
AcDbEntity
  8
0
 62
     7
370
    35
100
AcDbLine
 10
652.563538
 20
396.440155
 30
0.0
 11
652.063538
 21
397.190155
 31
0.0
  0
LINE
  5
1C6
330
1F
100
AcDbEntity
  8
0
 62
     7
370
    35
100
AcDbLine
 10
654.385864
 20
396.440155
 30
0.0
 11
652.563538
 21
396.440155
 31
0.0
  0
LINE
  5
1C7
330
1F
100
AcDbEntity
  8
0
 62
     7
370
    35
100
AcDbLine
 10
679.063538
 20
396.440155
 30
0.0
 11
666.385864
 21
396.440155
 31
0.0
  0
LINE
  5
1C8
330
1F
100
AcDbEntity
  8
0
 62
     7
370
    35
100
AcDbLine
 10
654.385864
 20
396.240173
 30
0.0
 11
652.063538
 21
396.240173
 31
0.0
  0
LINE
  5
1C9
330
1F
100
AcDbEntity
  8
0
 62
     7
370
    35
100
AcDbLine
 10
670.063538
 20
396.240173
 30
0.0
 11
666.385864
 21
396.240173
 31
0.0
  0
LINE
  5
1CA
330
1F
100
AcDbEntity
  8
0
 62
     7
370
    35
100
AcDbLine
 10
648.563538
 20
439.540161
 30
0.0
 11
654.385864
 21
439.540161
 31
0.0
  0
LINE
  5
1CB
330
1F
100
AcDbEntity
  8
0
 62
     7
370
    35
100
AcDbLine
 10
666.385864
 20
439.540161
 30
0.0
 11
670.063538
 21
439.540161
 31
0.0
  0
LINE
  5
1CC
330
1F
100
AcDbEntity
  8
0
 62
     7
370
    35
100
AcDbLine
 10
644.563538
 20
441.240173
 30
0.0
 11
648.563538
 21
441.240173
 31
0.0
  0
LINE
  5
1CD
330
1F
100
AcDbEntity
  8
0
 62
     7
370
    35
100
AcDbLine
 10
648.563538
 20
441.240173
 30
0.0
 11
648.563538
 21
439.740173
 31
0.0
  0
LINE
  5
1CE
330
1F
100
AcDbEntity
  8
0
 62
     7
370
    35
100
AcDbLine
 10
648.563538
 20
394.740173
 30
0.0
 11
648.563538
 21
439.740173
 31
0.0
  0
LINE
  5
1CF
330
1F
100
AcDbEntity
  8
0
 62
     7
370
    35
100
AcDbLine
 10
648.563538
 20
394.740173
 30
0.0
 11
648.563538
 21
393.240173
 31
0.0
  0
LINE
  5
1D0
330
1F
100
AcDbEntity
  8
0
 62
     7
370
    35
100
AcDbLine
 10
644.563538
 20
393.240173
 30
0.0
 11
648.563538
 21
393.240173
 31
0.0
  0
LINE
  5
1D1
330
1F
100
AcDbEntity
  8
0
 62
     7
370
    35
100
AcDbLine
 10
727.563538
 20
431.690155
 30
0.0
 11
727.101685
 21
431.690155
 31
0.0
  0
LINE
  5
1D2
330
1F
100
AcDbEntity
  8
0
 62
     7
370
    35
100
AcDbLine
 10
725.563538
 20
431.690155
 30
0.0
 11
727.101685
 21
431.690155
 31
0.0
  0
LINE
  5
1D3
330
1F
100
AcDbEntity
  8
0
 62
     7
370
    35
100
AcDbLine
 10
724.063538
 20
431.690155
 30
0.0
 11
725.563538
 21
431.690155
 31
0.0
  0
LINE
  5
1D4
330
1F
100
AcDbEntity
  8
0
 62
     7
370
    35
100
AcDbLine
 10
727.563538
 20
402.790161
 30
0.0
 11
724.063538
 21
402.790161
 31
0.0
  0
LINE
  5
1D5
330
1F
100
AcDbEntity
  8
0
 62
     7
370
    35
100
AcDbLine
 10
727.563538
 20
403.690155
 30
0.0
 11
724.063538
 21
403.690155
 31
0.0
  0
LINE
  5
1D6
330
1F
100
AcDbEntity
  8
0
 62
     7
370
    35
100
AcDbLine
 10
727.563538
 20
416.790161
 30
0.0
 11
724.063538
 21
416.790161
 31
0.0
  0
LINE
  5
1D7
330
1F
100
AcDbEntity
  8
0
 62
     7
370
    35
100
AcDbLine
 10
727.563538
 20
417.690155
 30
0.0
 11
724.063538
 21
417.690155
 31
0.0
  0
LINE
  5
1D8
330
1F
100
AcDbEntity
  8
0
 62
     7
370
    35
100
AcDbLine
 10
727.563538
 20
430.790161
 30
0.0
 11
724.063538
 21
430.790161
 31
0.0
  0
LINE
  5
1D9
330
1F
100
AcDbEntity
  8
0
 62
     7
370
    35
100
AcDbLine
 10
727.101685
 20
437.790161
 30
0.0
 11
727.563538
 21
437.790161
 31
0.0
  0
LINE
  5
1DA
330
1F
100
AcDbEntity
  8
0
 62
     7
370
    35
100
AcDbLine
 10
727.101685
 20
437.790161
 30
0.0
 11
725.563538
 21
437.790161
 31
0.0
  0
LINE
  5
1DB
330
1F
100
AcDbEntity
  8
0
 62
     7
370
    35
100
AcDbLine
 10
725.563538
 20
437.790161
 30
0.0
 11
724.063538
 21
437.790161
 31
0.0
  0
LINE
  5
1DC
330
1F
100
AcDbEntity
  8
0
 62
     7
370
    35
100
AcDbLine
 10
724.563538
 20
396.690155
 30
0.0
 11
724.563538
 21
397.040161
 31
0.0
  0
LINE
  5
1DD
330
1F
100
AcDbEntity
  8
0
 62
     7
370
    35
100
AcDbLine
 10
724.563538
 20
402.440155
 30
0.0
 11
724.563538
 21
402.790161
 31
0.0
  0
LINE
  5
1DE
330
1F
100
AcDbEntity
  8
0
 62
     7
370
    35
100
AcDbLine
 10
722.063538
 20
402.290161
 30
0.0
 11
722.063538
 21
397.190155
 31
0.0
  0
LINE
  5
1DF
330
1F
100
AcDbEntity
  8
0
 62
     7
370
    35
100
AcDbLine
 10
723.563538
 20
397.190155
 30
0.0
 11
724.063538
 21
396.690155
 31
0.0
  0
LINE
  5
1E0
330
1F
100
AcDbEntity
  8
0
 62
     7
370
    35
100
AcDbLine
 10
670.063538
 20
396.240173
 30
0.0
 11
670.063538
 21
395.440155
 31
0.0
  0
LINE
  5
1E1
330
1F
100
AcDbEntity
  8
0
 62
     7
370
    35
100
AcDbLine
 10
679.063538
 20
397.640167
 30
0.0
 11
679.063538
 21
395.440155
 31
0.0
  0
LINE
  5
1E2
330
1F
100
AcDbEntity
  8
0
 62
     7
370
    35
100
AcDbLine
 10
712.363525
 20
395.440155
 30
0.0
 11
712.563538
 21
395.640167
 31
0.0
  0
LINE
  5
1E3
330
1F
100
AcDbEntity
  8
0
 62
     7
370
    35
100
AcDbLine
 10
724.063538
 20
396.690155
 30
0.0
 11
727.563538
 21
396.690155
 31
0.0
  0
LINE
  5
1E4
330
1F
100
AcDbEntity
  8
0
 62
     7
370
    35
100
AcDbLine
 10
728.563538
 20
395.640167
 30
0.0
 11
728.563538
 21
396.690155
 31
0.0
  0
LINE
  5
1E5
330
1F
100
AcDbEntity
  8
0
 62
     7
370
    35
100
AcDbLine
 10
727.563538
 20
396.690155
 30
0.0
 11
728.563538
 21
396.690155
 31
0.0
  0
LINE
  5
1E6
330
1F
100
AcDbEntity
  8
0
 62
     7
370
    35
100
AcDbLine
 10
725.063538
 20
397.190155
 30
0.0
 11
725.563538
 21
396.690155
 31
0.0
  0
LINE
  5
1E7
330
1F
100
AcDbEntity
  8
0
 62
     7
370
    35
100
AcDbLine
 10
711.863525
 20
394.940155
 30
0.0
 11
712.363525
 21
395.440155
 31
0.0
  0
LINE
  5
1E8
330
1F
100
AcDbEntity
  8
0
 62
     7
370
    35
100
AcDbLine
 10
679.063538
 20
395.440155
 30
0.0
 11
679.063538
 21
394.940155
 31
0.0
  0
LINE
  5
1E9
330
1F
100
AcDbEntity
  8
0
 62
     7
370
    35
100
AcDbLine
 10
670.063538
 20
395.440155
 30
0.0
 11
670.063538
 21
394.940155
 31
0.0
  0
LINE
  5
1EA
330
1F
100
AcDbEntity
  8
0
  6
PHANTOM
 62
     4
 48
0.0325
370
    35
100
AcDbLine
 10
728.563538
 20
438.840179
 30
0.0
 11
728.563538
 21
437.540161
 31
0.0
  0
LINE
  5
1EB
330
1F
100
AcDbEntity
  8
0
  6
PHANTOM
 62
     4
 48
0.0075
370
    35
100
AcDbLine
 10
728.563538
 20
437.540161
 30
0.0
 11
728.863525
 21
437.540161
 31
0.0
  0
LINE
  5
1EC
330
1F
100
AcDbEntity
  8
0
  6
PHANTOM
 62
     4
 48
0.060001
370
    35
100
AcDbLine
 10
731.26355
 20
437.540161
 30
0.0
 11
728.863525
 21
437.540161
 31
0.0
  0
LINE
  5
1ED
330
1F
100
AcDbEntity
  8
0
  6
PHANTOM
 62
     4
 48
0.0325
370
    35
100
AcDbLine
 10
731.563538
 20
438.840179
 30
0.0
 11
731.563538
 21
437.540161
 31
0.0
  0
LINE
  5
1EE
330
1F
100
AcDbEntity
  8
0
  6
PHANTOM
 62
     4
 48
0.0075
370
    35
100
AcDbLine
 10
731.26355
 20
437.540161
 30
0.0
 11
731.563538
 21
437.540161
 31
0.0
  0
LINE
  5
1EF
330
1F
100
AcDbEntity
  8
0
  6
PHANTOM
 62
     4
 48
0.0325
370
    35
100
AcDbLine
 10
728.563538
 20
395.640167
 30
0.0
 11
728.563538
 21
396.940155
 31
0.0
  0
LINE
  5
1F0
330
1F
100
AcDbEntity
  8
0
  6
PHANTOM
 62
     4
 48
0.0075
370
    35
100
AcDbLine
 10
728.863525
 20
396.940155
 30
0.0
 11
728.563538
 21
396.940155
 31
0.0
  0
LINE
  5
1F1
330
1F
100
AcDbEntity
  8
0
  6
PHANTOM
 62
     4
 48
0.0325
370
    35
100
AcDbLine
 10
731.563538
 20
395.640167
 30
0.0
 11
731.563538
 21
396.940155
 31
0.0
  0
LINE
  5
1F2
330
1F
100
AcDbEntity
  8
0
  6
PHANTOM
 62
     4
 48
0.060001
370
    35
100
AcDbLine
 10
731.26355
 20
396.940155
 30
0.0
 11
728.863525
 21
396.940155
 31
0.0
  0
LINE
  5
1F3
330
1F
100
AcDbEntity
  8
0
  6
PHANTOM
 62
     4
 48
0.0075
370
    35
100
AcDbLine
 10
731.563538
 20
396.940155
 30
0.0
 11
731.26355
 21
396.940155
 31
0.0
  0
LINE
  5
1F4
330
1F
100
AcDbEntity
  8
0
  6
PHANTOM
 62
     4
370
    35
100
AcDbLine
 10
728.76355
 20
437.540131
 30
0.0
 11
728.76355
 21
396.940155
 31
0.0
  0
LINE
  5
1F5
330
1F
100
AcDbEntity
  8
0
  6
PHANTOM
 62
     4
370
    35
100
AcDbLine
 10
714.26355
 20
438.840179
 30
0.0
 11
742.063538
 21
438.840179
 31
0.0
  0
LINE
  5
1F6
330
1F
100
AcDbEntity
  8
0
  6
PHANTOM
 62
     4
 48
0.02
370
    35
100
AcDbLine
 10
713.563538
 20
394.140167
 30
0.0
 11
713.563538
 21
394.940155
 31
0.0
  0
LINE
  5
1F7
330
1F
100
AcDbEntity
  8
0
  6
PHANTOM
 62
     4
 48
0.02
370
    35
100
AcDbLine
 10
713.563538
 20
439.540161
 30
0.0
 11
713.563538
 21
440.340179
 31
0.0
  0
ARC
  5
1F8
330
1F
100
AcDbEntity
  8
0
  6
PHANTOM
 62
     4
370
    35
100
AcDbCircle
 10
714.26355
 20
439.540161
 30
0.0
 40
0.7
100
AcDbArc
 50
180.000005
 51
269.999997
  0
LINE
  5
1F9
330
1F
100
AcDbEntity
  8
0
  6
PHANTOM
 62
     4
 48
0.024749
370
    35
100
AcDbLine
 10
714.26355
 20
439.640167
 30
0.0
 11
713.563538
 21
440.340179
 31
0.0
  0
LINE
  5
1FA
330
1F
100
AcDbEntity
  8
0
  6
PHANTOM
 62
     4
 48
0.0175
370
    35
100
AcDbLine
 10
742.063538
 20
394.840149
 30
0.0
 11
742.063538
 21
394.140167
 31
0.0
  0
LINE
  5
1FB
330
1F
100
AcDbEntity
  8
0
  6
PHANTOM
 62
     4
 48
0.02
370
    35
100
AcDbLine
 10
742.063538
 20
394.140167
 30
0.0
 11
742.863525
 21
394.140167
 31
0.0
  0
LINE
  5
1FC
330
1F
100
AcDbEntity
  8
0
  6
PHANTOM
 62
     4
 48
0.45
370
    35
100
AcDbLine
 10
713.563538
 20
394.140167
 30
0.0
 11
731.563538
 21
394.140167
 31
0.0
  0
LINE
  5
1FD
330
1F
100
AcDbEntity
  8
0
  6
PHANTOM
 62
     4
 48
0.2625
370
    35
100
AcDbLine
 10
731.563538
 20
394.140167
 30
0.0
 11
742.063538
 21
394.140167
 31
0.0
  0
LINE
  5
1FE
330
1F
100
AcDbEntity
  8
0
  6
PHANTOM
 62
     4
370
    35
100
AcDbLine
 10
743.563538
 20
394.840149
 30
0.0
 11
743.563538
 21
439.640167
 31
0.0
  0
LINE
  5
1FF
330
1F
100
AcDbEntity
  8
0
  6
PHANTOM
 62
     4
370
    35
100
AcDbLine
 10
742.063538
 20
394.840149
 30
0.0
 11
742.063538
 21
438.840179
 31
0.0
  0
LINE
  5
200
330
1F
100
AcDbEntity
  8
0
  6
PHANTOM
 62
     4
370
    35
100
AcDbLine
 10
713.563538
 20
440.340179
 30
0.0
 11
742.863525
 21
440.340179
 31
0.0
  0
ARC
  5
201
330
1F
100
AcDbEntity
  8
0
  6
PHANTOM
 62
     4
370
    35
100
AcDbCircle
 10
742.863525
 20
439.640167
 30
0.0
 40
0.6999999999999993
100
AcDbArc
 50
0.0
 51
90.000003
  0
ARC
  5
202
330
1F
100
AcDbEntity
  8
0
  6
PHANTOM
 62
     4
370
    35
100
AcDbCircle
 10
742.863525
 20
394.840149
 30
0.0
 40
0.6999999999999978
100
AcDbArc
 50
269.999997
 51
0.0
  0
LINE
  5
203
330
1F
100
AcDbEntity
  8
0
  6
PHANTOM
 62
     4
 48
0.075
370
    35
100
AcDbLine
 10
728.563538
 20
395.640167
 30
0.0
 11
731.563538
 21
395.640167
 31
0.0
  0
LINE
  5
204
330
1F
100
AcDbEntity
  8
0
  6
PHANTOM
 62
     4
 48
0.2625
370
    35
100
AcDbLine
 10
731.563538
 20
395.640167
 30
0.0
 11
742.063538
 21
395.640167
 31
0.0
  0
ARC
  5
205
330
1F
100
AcDbEntity
  8
0
  6
PHANTOM
 62
     4
370
    35
100
AcDbCircle
 10
714.26355
 20
394.940155
 30
0.0
 40
0.7
100
AcDbArc
 50
90.000003
 51
180.000005
  0
LINE
  5
206
330
1F
100
AcDbEntity
  8
0
  6
PHANTOM
 62
     4
 48
0.0625
370
    35
100
AcDbLine
 10
677.085876
 20
440.540161
 30
0.0
 11
677.085876
 21
443.040161
 31
0.0
  0
LINE
  5
207
330
1F
100
AcDbEntity
  8
0
  6
PHANTOM
 62
     4
 48
0.041609
370
    35
100
AcDbLine
 10
675.421509
 20
440.540161
 30
0.0
 11
677.085876
 21
440.540161
 31
0.0
  0
LINE
  5
208
330
1F
100
AcDbEntity
  8
0
  6
PHANTOM
 62
     4
 48
0.020628
370
    35
100
AcDbLine
 10
676.260742
 20
443.040161
 30
0.0
 11
677.085876
 21
443.040161
 31
0.0
  0
LINE
  5
209
330
1F
100
AcDbEntity
  8
0
  6
PHANTOM
 62
     4
 48
0.3
370
    35
100
AcDbLine
 10
654.385864
 20
441.040161
 30
0.0
 11
666.385864
 21
441.040161
 31
0.0
  0
LINE
  5
20A
330
1F
100
AcDbEntity
  8
0
  6
PHANTOM
 62
     4
 48
0.1
370
    35
100
AcDbLine
 10
654.385864
 20
437.040161
 30
0.0
 11
654.385864
 21
441.040161
 31
0.0
  0
LINE
  5
20B
330
1F
100
AcDbEntity
  8
0
  6
PHANTOM
 62
     4
 48
0.3
370
    35
100
AcDbLine
 10
666.385864
 20
437.040161
 30
0.0
 11
654.385864
 21
437.040161
 31
0.0
  0
LINE
  5
20C
330
1F
100
AcDbEntity
  8
0
  6
PHANTOM
 62
     4
 48
0.1
370
    35
100
AcDbLine
 10
666.385864
 20
437.040161
 30
0.0
 11
666.385864
 21
441.040161
 31
0.0
  0
LINE
  5
20D
330
1F
100
AcDbEntity
  8
0
  6
PHANTOM
 62
     4
 48
0.039999
370
    35
100
AcDbLine
 10
659.585876
 20
443.040161
 30
0.0
 11
661.185852
 21
443.040161
 31
0.0
  0
LINE
  5
20E
330
1F
100
AcDbEntity
  8
0
  6
PHANTOM
 62
     4
 48
0.0225
370
    35
100
AcDbLine
 10
659.585876
 20
442.140167
 30
0.0
 11
659.585876
 21
443.040161
 31
0.0
  0
LINE
  5
20F
330
1F
100
AcDbEntity
  8
0
  6
PHANTOM
 62
     4
 48
0.085001
370
    35
100
AcDbLine
 10
656.185852
 20
442.140167
 30
0.0
 11
659.585876
 21
442.140167
 31
0.0
  0
LINE
  5
210
330
1F
100
AcDbEntity
  8
0
  6
PHANTOM
 62
     4
 48
0.0225
370
    35
100
AcDbLine
 10
656.185852
 20
443.040161
 30
0.0
 11
656.185852
 21
442.140167
 31
0.0
  0
LINE
  5
211
330
1F
100
AcDbEntity
  8
0
  6
PHANTOM
 62
     4
 48
0.045
370
    35
100
AcDbLine
 10
654.385864
 20
443.040161
 30
0.0
 11
656.185852
 21
443.040161
 31
0.0
  0
LINE
  5
212
330
1F
100
AcDbEntity
  8
0
  6
PHANTOM
 62
     4
 48
0.05
370
    35
100
AcDbLine
 10
654.385864
 20
441.040161
 30
0.0
 11
654.385864
 21
443.040161
 31
0.0
  0
LINE
  5
213
330
1F
100
AcDbEntity
  8
0
  6
PHANTOM
 62
     4
 48
0.05
370
    35
100
AcDbLine
 10
666.385864
 20
441.040161
 30
0.0
 11
666.385864
 21
443.040161
 31
0.0
  0
LINE
  5
214
330
1F
100
AcDbEntity
  8
0
  6
PHANTOM
 62
     4
 48
0.045
370
    35
100
AcDbLine
 10
664.585876
 20
443.040161
 30
0.0
 11
666.385864
 21
443.040161
 31
0.0
  0
LINE
  5
215
330
1F
100
AcDbEntity
  8
0
  6
PHANTOM
 62
     4
 48
0.0225
370
    35
100
AcDbLine
 10
664.585876
 20
443.040161
 30
0.0
 11
664.585876
 21
442.140167
 31
0.0
  0
LINE
  5
216
330
1F
100
AcDbEntity
  8
0
  6
PHANTOM
 62
     4
 48
0.085001
370
    35
100
AcDbLine
 10
661.185852
 20
442.140167
 30
0.0
 11
664.585876
 21
442.140167
 31
0.0
  0
LINE
  5
217
330
1F
100
AcDbEntity
  8
0
  6
PHANTOM
 62
     4
 48
0.0225
370
    35
100
AcDbLine
 10
661.185852
 20
442.140167
 30
0.0
 11
661.185852
 21
443.040161
 31
0.0
  0
LINE
  5
218
330
1F
100
AcDbEntity
  8
0
  6
PHANTOM
 62
     4
 48
0.025
370
    35
100
AcDbLine
 10
653.385864
 20
443.040161
 30
0.0
 11
654.385864
 21
443.040161
 31
0.0
  0
LINE
  5
219
330
1F
100
AcDbEntity
  8
0
  6
PHANTOM
 62
     4
 48
0.0675
370
    35
100
AcDbLine
 10
658.885864
 20
443.040161
 30
0.0
 11
656.185852
 21
443.040161
 31
0.0
  0
LINE
  5
21A
330
1F
100
AcDbEntity
  8
0
  6
PHANTOM
 62
     4
 48
0.025
370
    35
100
AcDbLine
 10
653.385864
 20
439.840179
 30
0.0
 11
654.385864
 21
439.840179
 31
0.0
  0
LINE
  5
21B
330
1F
100
AcDbEntity
  8
0
  6
PHANTOM
 62
     4
 48
0.08
370
    35
100
AcDbLine
 10
653.385864
 20
439.840179
 30
0.0
 11
653.385864
 21
443.040161
 31
0.0
  0
LINE
  5
21C
330
1F
100
AcDbEntity
  8
0
  6
PHANTOM
 62
     4
 48
0.085001
370
    35
100
AcDbLine
 10
661.185852
 20
443.040161
 30
0.0
 11
664.585876
 21
443.040161
 31
0.0
  0
LINE
  5
21D
330
1F
100
AcDbEntity
  8
0
  6
PHANTOM
 62
     4
 48
0.0875
370
    35
100
AcDbLine
 10
662.385864
 20
446.540161
 30
0.0
 11
662.385864
 21
443.040161
 31
0.0
  0
LINE
  5
21E
330
1F
100
AcDbEntity
  8
0
  6
PHANTOM
 62
     4
 48
0.075
370
    35
100
AcDbLine
 10
662.385864
 20
449.540161
 30
0.0
 11
662.385864
 21
446.540161
 31
0.0
  0
LINE
  5
21F
330
1F
100
AcDbEntity
  8
0
  6
PHANTOM
 62
     4
 48
0.1375
370
    35
100
AcDbLine
 10
660.885864
 20
448.540161
 30
0.0
 11
660.885864
 21
443.040161
 31
0.0
  0
ARC
  5
220
330
1F
100
AcDbEntity
  8
0
  6
PHANTOM
 62
     4
370
    35
100
AcDbCircle
 10
659.885864
 20
448.540161
 30
0.0
 40
1.0
100
AcDbArc
 50
360.0
 51
179.999995
  0
LINE
  5
221
330
1F
100
AcDbEntity
  8
0
  6
PHANTOM
 62
     4
 48
0.1375
370
    35
100
AcDbLine
 10
658.885864
 20
443.040161
 30
0.0
 11
658.885864
 21
448.540161
 31
0.0
  0
LINE
  5
222
330
1F
100
AcDbEntity
  8
0
  6
PHANTOM
 62
     4
 48
0.0875
370
    35
100
AcDbLine
 10
653.385864
 20
446.540161
 30
0.0
 11
653.385864
 21
443.040161
 31
0.0
  0
LINE
  5
223
330
1F
100
AcDbEntity
  8
0
  6
PHANTOM
 62
     4
 48
0.012369
370
    35
100
AcDbLine
 10
657.885864
 20
443.040161
 30
0.0
 11
657.391113
 21
443.040161
 31
0.0
  0
LINE
  5
224
330
1F
100
AcDbEntity
  8
0
  6
PHANTOM
 62
     4
 48
0.00429
370
    35
100
AcDbLine
 10
673.48584
 20
439.540161
 30
0.0
 11
673.364502
 21
439.661499
 31
0.0
  0
ARC
  5
225
330
1F
100
AcDbEntity
  8
0
  6
PHANTOM
 62
     4
370
    35
100
AcDbCircle
 10
671.243225
 20
437.540161
 30
0.0
 40
3.0
100
AcDbArc
 50
45.000001
 51
90.000003
  0
LINE
  5
226
330
1F
100
AcDbEntity
  8
0
  6
PHANTOM
 62
     4
 48
0.121434
370
    35
100
AcDbLine
 10
671.243225
 20
440.540161
 30
0.0
 11
666.385864
 21
440.540161
 31
0.0
  0
LINE
  5
227
330
1F
100
AcDbEntity
  8
0
  6
PHANTOM
 62
     4
 48
0.0625
370
    35
100
AcDbLine
 10
659.885864
 20
449.540161
 30
0.0
 11
662.385864
 21
449.540161
 31
0.0
  0
LINE
  5
228
330
1F
100
AcDbEntity
  8
0
  6
PHANTOM
 62
     4
 48
0.075
370
    35
100
AcDbLine
 10
653.385864
 20
449.540161
 30
0.0
 11
653.385864
 21
446.540161
 31
0.0
  0
LINE
  5
229
330
1F
100
AcDbEntity
  8
0
  6
PHANTOM
 62
     4
 48
0.1625
370
    35
100
AcDbLine
 10
653.385864
 20
449.540161
 30
0.0
 11
659.885864
 21
449.540161
 31
0.0
  0
LINE
  5
22A
330
1F
100
AcDbEntity
  8
0
  6
PHANTOM
 62
     4
 48
0.099474
370
    35
100
AcDbLine
 10
655.364807
 20
443.040161
 30
0.0
 11
651.385864
 21
443.040161
 31
0.0
  0
LINE
  5
22B
330
1F
100
AcDbEntity
  8
0
  6
PHANTOM
 62
     4
 48
0.050658
370
    35
100
AcDbLine
 10
655.364807
 20
443.040161
 30
0.0
 11
657.391113
 21
443.040161
 31
0.0
  0
LINE
  5
22C
330
1F
100
AcDbEntity
  8
0
  6
PHANTOM
 62
     4
 48
0.075
370
    35
100
AcDbLine
 10
654.385864
 20
439.540161
 30
0.0
 11
651.385864
 21
439.540161
 31
0.0
  0
LINE
  5
22D
330
1F
100
AcDbEntity
  8
0
  6
PHANTOM
 62
     4
 48
0.052742
370
    35
100
AcDbLine
 10
675.589355
 20
441.040161
 30
0.0
 11
676.260742
 21
443.040161
 31
0.0
  0
LINE
  5
22E
330
1F
100
AcDbEntity
  8
0
  6
PHANTOM
 62
     4
 48
0.039556
370
    35
100
AcDbLine
 10
675.085876
 20
439.540161
 30
0.0
 11
675.589355
 21
441.040161
 31
0.0
  0
LINE
  5
22F
330
1F
100
AcDbEntity
  8
0
  6
PHANTOM
 62
     4
 48
0.139292
370
    35
100
AcDbLine
 10
676.260742
 20
443.040161
 30
0.0
 11
678.033875
 21
448.322174
 31
0.0
  0
LINE
  5
230
330
1F
100
AcDbEntity
  8
0
  6
PHANTOM
 62
     4
 48
0.052742
370
    35
100
AcDbLine
 10
676.260742
 20
443.040161
 30
0.0
 11
674.151062
 21
443.040161
 31
0.0
  0
LINE
  5
231
330
1F
100
AcDbEntity
  8
0
  6
PHANTOM
 62
     4
 48
0.156076
370
    35
100
AcDbLine
 10
674.151062
 20
443.040161
 30
0.0
 11
676.137817
 21
448.958649
 31
0.0
  0
ARC
  5
232
330
1F
100
AcDbEntity
  8
0
  6
PHANTOM
 62
     4
370
    35
100
AcDbCircle
 10
677.085876
 20
448.640411
 30
0.0
 40
1.0
100
AcDbArc
 50
341.443728
 51
161.443733
  0
ARC
  5
233
330
1F
100
AcDbEntity
  8
0
  6
PHANTOM
 62
     4
370
    35
100
AcDbCircle
 10
672.712769
 20
445.040161
 30
0.0
 40
2.000000000000002
100
AcDbArc
 50
269.999997
 51
341.443728
  0
LINE
  5
234
330
1F
100
AcDbEntity
  8
0
  6
PHANTOM
 62
     4
 48
0.049036
370
    35
100
AcDbLine
 10
670.751343
 20
443.040161
 30
0.0
 11
672.712769
 21
443.040161
 31
0.0
  0
LINE
  5
235
330
1F
100
AcDbEntity
  8
0
  6
PHANTOM
 62
     4
 48
0.109137
370
    35
100
AcDbLine
 10
666.385864
 20
443.040161
 30
0.0
 11
670.751343
 21
443.040161
 31
0.0
  0
LINE
  5
236
330
1F
100
AcDbEntity
  8
0
  6
PHANTOM
 62
     4
 48
0.052742
370
    35
100
AcDbLine
 10
674.151062
 20
443.040161
 30
0.0
 11
673.479675
 21
441.040161
 31
0.0
  0
LINE
  5
237
330
1F
100
AcDbEntity
  8
0
  6
PHANTOM
 62
     4
 48
0.0875
370
    35
100
AcDbLine
 10
651.385864
 20
439.540161
 30
0.0
 11
651.385864
 21
443.040161
 31
0.0
  0
LINE
  5
238
330
1F
100
AcDbEntity
  8
0
  6
PHANTOM
 62
     4
 48
0.0625
370
    35
100
AcDbLine
 10
677.085876
 20
390.93924
 30
0.0
 11
677.085876
 21
393.43924
 31
0.0
  0
LINE
  5
239
330
1F
100
AcDbEntity
  8
0
  6
PHANTOM
 62
     4
 48
0.041609
370
    35
100
AcDbLine
 10
675.421509
 20
393.43924
 30
0.0
 11
677.085876
 21
393.43924
 31
0.0
  0
LINE
  5
23A
330
1F
100
AcDbEntity
  8
0
  6
PHANTOM
 62
     4
 48
0.020628
370
    35
100
AcDbLine
 10
676.260742
 20
390.93924
 30
0.0
 11
677.085876
 21
390.93924
 31
0.0
  0
LINE
  5
23B
330
1F
100
AcDbEntity
  8
0
  6
PHANTOM
 62
     4
 48
0.1
370
    35
100
AcDbLine
 10
666.385864
 20
392.93924
 30
0.0
 11
666.385864
 21
396.93924
 31
0.0
  0
LINE
  5
23C
330
1F
100
AcDbEntity
  8
0
  6
PHANTOM
 62
     4
 48
0.05
370
    35
100
AcDbLine
 10
666.385864
 20
390.93924
 30
0.0
 11
666.385864
 21
392.93924
 31
0.0
  0
LINE
  5
23D
330
1F
100
AcDbEntity
  8
0
  6
PHANTOM
 62
     4
 48
0.0225
370
    35
100
AcDbLine
 10
659.585876
 20
390.93924
 30
0.0
 11
659.585876
 21
391.839233
 31
0.0
  0
LINE
  5
23E
330
1F
100
AcDbEntity
  8
0
  6
PHANTOM
 62
     4
 48
0.039999
370
    35
100
AcDbLine
 10
659.585876
 20
390.93924
 30
0.0
 11
661.185852
 21
390.93924
 31
0.0
  0
LINE
  5
23F
330
1F
100
AcDbEntity
  8
0
  6
PHANTOM
 62
     4
 48
0.0225
370
    35
100
AcDbLine
 10
661.185852
 20
390.93924
 30
0.0
 11
661.185852
 21
391.839233
 31
0.0
  0
LINE
  5
240
330
1F
100
AcDbEntity
  8
0
  6
PHANTOM
 62
     4
 48
0.085001
370
    35
100
AcDbLine
 10
661.185852
 20
391.839233
 30
0.0
 11
664.585876
 21
391.839233
 31
0.0
  0
LINE
  5
241
330
1F
100
AcDbEntity
  8
0
  6
PHANTOM
 62
     4
 48
0.0225
370
    35
100
AcDbLine
 10
664.585876
 20
390.93924
 30
0.0
 11
664.585876
 21
391.839233
 31
0.0
  0
LINE
  5
242
330
1F
100
AcDbEntity
  8
0
  6
PHANTOM
 62
     4
 48
0.045
370
    35
100
AcDbLine
 10
664.585876
 20
390.93924
 30
0.0
 11
666.385864
 21
390.93924
 31
0.0
  0
LINE
  5
243
330
1F
100
AcDbEntity
  8
0
  6
PHANTOM
 62
     4
 48
0.3
370
    35
100
AcDbLine
 10
654.385864
 20
392.93924
 30
0.0
 11
666.385864
 21
392.93924
 31
0.0
  0
LINE
  5
244
330
1F
100
AcDbEntity
  8
0
  6
PHANTOM
 62
     4
 48
0.05
370
    35
100
AcDbLine
 10
654.385864
 20
390.93924
 30
0.0
 11
654.385864
 21
392.93924
 31
0.0
  0
LINE
  5
245
330
1F
100
AcDbEntity
  8
0
  6
PHANTOM
 62
     4
 48
0.045
370
    35
100
AcDbLine
 10
656.185852
 20
390.93924
 30
0.0
 11
654.385864
 21
390.93924
 31
0.0
  0
LINE
  5
246
330
1F
100
AcDbEntity
  8
0
  6
PHANTOM
 62
     4
 48
0.0225
370
    35
100
AcDbLine
 10
656.185852
 20
390.93924
 30
0.0
 11
656.185852
 21
391.839233
 31
0.0
  0
LINE
  5
247
330
1F
100
AcDbEntity
  8
0
  6
PHANTOM
 62
     4
 48
0.085001
370
    35
100
AcDbLine
 10
656.185852
 20
391.839233
 30
0.0
 11
659.585876
 21
391.839233
 31
0.0
  0
LINE
  5
248
330
1F
100
AcDbEntity
  8
0
  6
PHANTOM
 62
     4
 48
0.085001
370
    35
100
AcDbLine
 10
661.185852
 20
390.93924
 30
0.0
 11
664.585876
 21
390.93924
 31
0.0
  0
LINE
  5
249
330
1F
100
AcDbEntity
  8
0
  6
PHANTOM
 62
     4
 48
0.0675
370
    35
100
AcDbLine
 10
658.885864
 20
390.93924
 30
0.0
 11
656.185852
 21
390.93924
 31
0.0
  0
LINE
  5
24A
330
1F
100
AcDbEntity
  8
0
  6
PHANTOM
 62
     4
 48
0.1375
370
    35
100
AcDbLine
 10
658.885864
 20
390.93924
 30
0.0
 11
658.885864
 21
385.43924
 31
0.0
  0
ARC
  5
24B
330
1F
100
AcDbEntity
  8
0
  6
PHANTOM
 62
     4
370
    35
100
AcDbCircle
 10
659.885864
 20
385.43924
 30
0.0
 40
1.0
100
AcDbArc
 50
180.000005
 51
0.0
  0
LINE
  5
24C
330
1F
100
AcDbEntity
  8
0
  6
PHANTOM
 62
     4
 48
0.1375
370
    35
100
AcDbLine
 10
660.885864
 20
385.43924
 30
0.0
 11
660.885864
 21
390.93924
 31
0.0
  0
LINE
  5
24D
330
1F
100
AcDbEntity
  8
0
  6
PHANTOM
 62
     4
 48
0.0875
370
    35
100
AcDbLine
 10
662.385864
 20
390.93924
 30
0.0
 11
662.385864
 21
387.43924
 31
0.0
  0
LINE
  5
24E
330
1F
100
AcDbEntity
  8
0
  6
PHANTOM
 62
     4
 48
0.075
370
    35
100
AcDbLine
 10
662.385864
 20
387.43924
 30
0.0
 11
662.385864
 21
384.43924
 31
0.0
  0
LINE
  5
24F
330
1F
100
AcDbEntity
  8
0
  6
PHANTOM
 62
     4
 48
0.012523
370
    35
100
AcDbLine
 10
675.085876
 20
394.940155
 30
0.0
 11
675.085876
 21
394.43924
 31
0.0
  0
LINE
  5
250
330
1F
100
AcDbEntity
  8
0
  6
PHANTOM
 62
     4
 48
0.021999
370
    35
100
AcDbLine
 10
673.986755
 20
394.940155
 30
0.0
 11
673.364502
 21
394.317932
 31
0.0
  0
ARC
  5
251
330
1F
100
AcDbEntity
  8
0
  6
PHANTOM
 62
     4
370
    35
100
AcDbCircle
 10
671.243225
 20
396.43924
 30
0.0
 40
3.0
100
AcDbArc
 50
269.999997
 51
314.999999
  0
LINE
  5
252
330
1F
100
AcDbEntity
  8
0
  6
PHANTOM
 62
     4
 48
0.121434
370
    35
100
AcDbLine
 10
671.243225
 20
393.43924
 30
0.0
 11
666.385864
 21
393.43924
 31
0.0
  0
LINE
  5
253
330
1F
100
AcDbEntity
  8
0
  6
PHANTOM
 62
     4
 48
0.025
370
    35
100
AcDbLine
 10
654.385864
 20
394.139252
 30
0.0
 11
653.385864
 21
394.139252
 31
0.0
  0
LINE
  5
254
330
1F
100
AcDbEntity
  8
0
  6
PHANTOM
 62
     4
 48
0.3
370
    35
100
AcDbLine
 10
666.385864
 20
396.93924
 30
0.0
 11
654.385864
 21
396.93924
 31
0.0
  0
LINE
  5
255
330
1F
100
AcDbEntity
  8
0
  6
PHANTOM
 62
     4
 48
0.1
370
    35
100
AcDbLine
 10
654.385864
 20
396.93924
 30
0.0
 11
654.385864
 21
392.93924
 31
0.0
  0
LINE
  5
256
330
1F
100
AcDbEntity
  8
0
  6
PHANTOM
 62
     4
 48
0.025
370
    35
100
AcDbLine
 10
654.385864
 20
390.93924
 30
0.0
 11
653.385864
 21
390.93924
 31
0.0
  0
LINE
  5
257
330
1F
100
AcDbEntity
  8
0
  6
PHANTOM
 62
     4
 48
0.0625
370
    35
100
AcDbLine
 10
659.885864
 20
384.43924
 30
0.0
 11
662.385864
 21
384.43924
 31
0.0
  0
LINE
  5
258
330
1F
100
AcDbEntity
  8
0
  6
PHANTOM
 62
     4
 48
0.1625
370
    35
100
AcDbLine
 10
653.385864
 20
384.43924
 30
0.0
 11
659.885864
 21
384.43924
 31
0.0
  0
LINE
  5
259
330
1F
100
AcDbEntity
  8
0
  6
PHANTOM
 62
     4
 48
0.075
370
    35
100
AcDbLine
 10
653.385864
 20
387.43924
 30
0.0
 11
653.385864
 21
384.43924
 31
0.0
  0
LINE
  5
25A
330
1F
100
AcDbEntity
  8
0
  6
PHANTOM
 62
     4
 48
0.0875
370
    35
100
AcDbLine
 10
653.385864
 20
390.93924
 30
0.0
 11
653.385864
 21
387.43924
 31
0.0
  0
LINE
  5
25B
330
1F
100
AcDbEntity
  8
0
  6
PHANTOM
 62
     4
 48
0.075
370
    35
100
AcDbLine
 10
651.385864
 20
394.43924
 30
0.0
 11
654.385864
 21
394.43924
 31
0.0
  0
LINE
  5
25C
330
1F
100
AcDbEntity
  8
0
  6
PHANTOM
 62
     4
 48
0.08
370
    35
100
AcDbLine
 10
653.385864
 20
394.139252
 30
0.0
 11
653.385864
 21
390.93924
 31
0.0
  0
LINE
  5
25D
330
1F
100
AcDbEntity
  8
0
  6
PHANTOM
 62
     4
 48
0.049995
370
    35
100
AcDbLine
 10
651.385864
 20
390.93924
 30
0.0
 11
653.385681
 21
390.93924
 31
0.0
  0
LINE
  5
25E
330
1F
100
AcDbEntity
  8
0
  6
PHANTOM
 62
     4
 48
0.052742
370
    35
100
AcDbLine
 10
676.260742
 20
390.93924
 30
0.0
 11
674.151062
 21
390.93924
 31
0.0
  0
LINE
  5
25F
330
1F
100
AcDbEntity
  8
0
  6
PHANTOM
 62
     4
 48
0.039556
370
    35
100
AcDbLine
 10
675.085876
 20
394.43924
 30
0.0
 11
675.589355
 21
392.93924
 31
0.0
  0
LINE
  5
260
330
1F
100
AcDbEntity
  8
0
  6
PHANTOM
 62
     4
 48
0.052742
370
    35
100
AcDbLine
 10
675.589355
 20
392.93924
 30
0.0
 11
676.260742
 21
390.93924
 31
0.0
  0
LINE
  5
261
330
1F
100
AcDbEntity
  8
0
  6
PHANTOM
 62
     4
 48
0.139291
370
    35
100
AcDbLine
 10
676.260742
 20
390.93924
 30
0.0
 11
678.033875
 21
385.657257
 31
0.0
  0
LINE
  5
262
330
1F
100
AcDbEntity
  8
0
  6
PHANTOM
 62
     4
 48
0.156076
370
    35
100
AcDbLine
 10
674.151062
 20
390.93924
 30
0.0
 11
676.137817
 21
385.020782
 31
0.0
  0
ARC
  5
263
330
1F
100
AcDbEntity
  8
0
  6
PHANTOM
 62
     4
370
    35
100
AcDbCircle
 10
677.085876
 20
385.33902
 30
0.0
 40
1.0
100
AcDbArc
 50
198.556267
 51
18.556272
  0
ARC
  5
264
330
1F
100
AcDbEntity
  8
0
  6
PHANTOM
 62
     4
370
    35
100
AcDbCircle
 10
672.712769
 20
388.93924
 30
0.0
 40
2.000000000000002
100
AcDbArc
 50
18.556272
 51
90.000003
  0
LINE
  5
265
330
1F
100
AcDbEntity
  8
0
  6
PHANTOM
 62
     4
 48
0.109137
370
    35
100
AcDbLine
 10
670.751343
 20
390.93924
 30
0.0
 11
666.385864
 21
390.93924
 31
0.0
  0
LINE
  5
266
330
1F
100
AcDbEntity
  8
0
  6
PHANTOM
 62
     4
 48
0.049036
370
    35
100
AcDbLine
 10
672.712769
 20
390.93924
 30
0.0
 11
670.751343
 21
390.93924
 31
0.0
  0
LINE
  5
267
330
1F
100
AcDbEntity
  8
0
  6
PHANTOM
 62
     4
 48
0.052742
370
    35
100
AcDbLine
 10
674.151062
 20
390.93924
 30
0.0
 11
673.479675
 21
392.93924
 31
0.0
  0
LINE
  5
268
330
1F
100
AcDbEntity
  8
0
  6
PHANTOM
 62
     4
 48
0.0875
370
    35
100
AcDbLine
 10
651.385864
 20
394.43924
 30
0.0
 11
651.385864
 21
390.93924
 31
0.0
  0
LINE
  5
269
330
1F
100
AcDbEntity
  8
0
 62
     7
370
    35
100
AcDbLine
 10
724.624451
 20
437.440155
 30
0.0
 11
723.713562
 21
437.440155
 31
0.0
  0
LINE
  5
26A
330
1F
100
AcDbEntity
  8
0
 62
     7
370
    35
100
AcDbLine
 10
724.624451
 20
432.040161
 30
0.0
 11
723.713501
 21
432.040161
 31
0.0
  0
POLYLINE
  5
26B
330
1F
100
AcDbEntity
  8
0
 62
     7
370
    35
100
AcDb2dPolyline
 66
     1
 10
0.0
 20
0.0
 30
0.0
  0
VERTEX
  5
26C
330
26B
100
AcDbEntity
  8
0
370
     0
100
AcDbVertex
100
AcDb2dVertex
 10
725.45752
 20
435.841675
 30
0.0
  0
VERTEX
  5
26D
330
26B
100
AcDbEntity
  8
0
370
     0
100
AcDbVertex
100
AcDb2dVertex
 10
725.506042
 20
434.634186
 30
0.0
  0
VERTEX
  5
26E
330
26B
100
AcDbEntity
  8
0
370
     0
100
AcDbVertex
100
AcDb2dVertex
 10
725.445496
 20
433.520264
 30
0.0
  0
VERTEX
  5
26F
330
26B
100
AcDbEntity
  8
0
370
     0
100
AcDbVertex
100
AcDb2dVertex
 10
725.338257
 20
432.856659
 30
0.0
  0
VERTEX
  5
270
330
26B
100
AcDbEntity
  8
0
370
     0
100
AcDbVertex
100
AcDb2dVertex
 10
725.219299
 20
432.485535
 30
0.0
  0
VERTEX
  5
271
330
26B
100
AcDbEntity
  8
0
370
     0
100
AcDbVertex
100
AcDb2dVertex
 10
725.068481
 20
432.245483
 30
0.0
  0
VERTEX
  5
272
330
26B
100
AcDbEntity
  8
0
370
     0
100
AcDbVertex
100
AcDb2dVertex
 10
724.866211
 20
432.094025
 30
0.0
  0
VERTEX
  5
273
330
26B
100
AcDbEntity
  8
0
370
     0
100
AcDbVertex
100
AcDb2dVertex
 10
724.624451
 20
432.040161
 30
0.0
  0
SEQEND
  5
274
330
26B
100
AcDbEntity
  8
0
 62
     7
370
    35
  0
POLYLINE
  5
275
330
1F
100
AcDbEntity
  8
0
 62
     7
370
    35
100
AcDb2dPolyline
 66
     1
 10
0.0
 20
0.0
 30
0.0
  0
VERTEX
  5
276
330
275
100
AcDbEntity
  8
0
370
     0
100
AcDbVertex
100
AcDb2dVertex
 10
725.45752
 20
435.841675
 30
0.0
  0
VERTEX
  5
277
330
275
100
AcDbEntity
  8
0
370
     0
100
AcDbVertex
100
AcDb2dVertex
 10
725.346985
 20
436.585724
 30
0.0
  0
VERTEX
  5
278
330
275
100
AcDbEntity
  8
0
370
     0
100
AcDbVertex
100
AcDb2dVertex
 10
725.229126
 20
436.972351
 30
0.0
  0
VERTEX
  5
279
330
275
100
AcDbEntity
  8
0
370
     0
100
AcDbVertex
100
AcDb2dVertex
 10
725.053528
 20
437.250916
 30
0.0
  0
VERTEX
  5
27A
330
275
100
AcDbEntity
  8
0
370
     0
100
AcDbVertex
100
AcDb2dVertex
 10
724.850708
 20
437.39328
 30
0.0
  0
VERTEX
  5
27B
330
275
100
AcDbEntity
  8
0
370
     0
100
AcDbVertex
100
AcDb2dVertex
 10
724.624451
 20
437.440155
 30
0.0
  0
SEQEND
  5
27C
330
275
100
AcDbEntity
  8
0
 62
     7
370
    35
  0
ELLIPSE
  5
27D
330
1F
100
AcDbEntity
  8
0
 62
     7
370
    35
100
AcDbEllipse
 10
721.867004
 20
434.740173
 30
0.0
 11
0.0
 21
2.149993896484375
 31
0.0
210
0.0
220
0.0
230
1.0
 40
0.173648
 41
4.159964283794297
 42
5.264813676965225
  0
LINE
  5
27E
330
1F
100
AcDbEntity
  8
0
 62
     7
370
    35
100
AcDbLine
 10
722.292419
 20
437.290161
 30
0.0
 11
722.387939
 21
436.740173
 31
0.0
  0
LINE
  5
27F
330
1F
100
AcDbEntity
  8
0
 62
     7
370
    35
100
AcDbLine
 10
723.668213
 20
436.740173
 30
0.0
 11
722.387939
 21
436.740173
 31
0.0
  0
LINE
  5
280
330
1F
100
AcDbEntity
  8
0
 62
     7
370
    35
100
AcDbLine
 10
723.57135
 20
437.297974
 30
0.0
 11
723.668213
 21
436.740173
 31
0.0
  0
LINE
  5
281
330
1F
100
AcDbEntity
  8
0
 62
     7
370
    35
100
AcDbLine
 10
722.387939
 20
432.740173
 30
0.0
 11
723.668213
 21
432.740173
 31
0.0
  0
LINE
  5
282
330
1F
100
AcDbEntity
  8
0
 62
     7
370
    35
100
AcDbLine
 10
723.668213
 20
436.740173
 30
0.0
 11
723.668213
 21
432.740173
 31
0.0
  0
LINE
  5
283
330
1F
100
AcDbEntity
  8
0
 62
     7
370
    35
100
AcDbLine
 10
722.387939
 20
436.740173
 30
0.0
 11
722.387939
 21
432.740173
 31
0.0
  0
LINE
  5
284
330
1F
100
AcDbEntity
  8
0
 62
     7
370
    35
100
AcDbLine
 10
722.292419
 20
432.190155
 30
0.0
 11
722.387939
 21
432.740173
 31
0.0
  0
LINE
  5
285
330
1F
100
AcDbEntity
  8
0
 62
     7
370
    35
100
AcDbLine
 10
723.57135
 20
432.182373
 30
0.0
 11
723.668213
 21
432.740173
 31
0.0
  0
LINE
  5
286
330
1F
100
AcDbEntity
  8
0
 62
     7
370
    35
100
AcDbLine
 10
722.184814
 20
432.190155
 30
0.0
 11
722.184814
 21
437.290161
 31
0.0
  0
LINE
  5
287
330
1F
100
AcDbEntity
  8
0
 62
     7
370
    35
100
AcDbLine
 10
724.624451
 20
430.440399
 30
0.0
 11
723.713806
 21
430.440399
 31
0.0
  0
LINE
  5
288
330
1F
100
AcDbEntity
  8
0
 62
     7
370
    35
100
AcDbLine
 10
724.624451
 20
425.040405
 30
0.0
 11
723.713257
 21
425.040405
 31
0.0
  0
POLYLINE
  5
289
330
1F
100
AcDbEntity
  8
0
 62
     7
370
    35
100
AcDb2dPolyline
 66
     1
 10
0.0
 20
0.0
 30
0.0
  0
VERTEX
  5
28A
330
289
100
AcDbEntity
  8
0
370
     0
100
AcDbVertex
100
AcDb2dVertex
 10
725.45752
 20
428.841919
 30
0.0
  0
VERTEX
  5
28B
330
289
100
AcDbEntity
  8
0
370
     0
100
AcDbVertex
100
AcDb2dVertex
 10
725.506042
 20
427.63443
 30
0.0
  0
VERTEX
  5
28C
330
289
100
AcDbEntity
  8
0
370
     0
100
AcDbVertex
100
AcDb2dVertex
 10
725.445496
 20
426.520508
 30
0.0
  0
VERTEX
  5
28D
330
289
100
AcDbEntity
  8
0
370
     0
100
AcDbVertex
100
AcDb2dVertex
 10
725.338257
 20
425.856903
 30
0.0
  0
VERTEX
  5
28E
330
289
100
AcDbEntity
  8
0
370
     0
100
AcDbVertex
100
AcDb2dVertex
 10
725.219299
 20
425.485748
 30
0.0
  0
VERTEX
  5
28F
330
289
100
AcDbEntity
  8
0
370
     0
100
AcDbVertex
100
AcDb2dVertex
 10
725.068481
 20
425.245728
 30
0.0
  0
VERTEX
  5
290
330
289
100
AcDbEntity
  8
0
370
     0
100
AcDbVertex
100
AcDb2dVertex
 10
724.866211
 20
425.094269
 30
0.0
  0
VERTEX
  5
291
330
289
100
AcDbEntity
  8
0
370
     0
100
AcDbVertex
100
AcDb2dVertex
 10
724.624451
 20
425.040405
 30
0.0
  0
SEQEND
  5
292
330
289
100
AcDbEntity
  8
0
 62
     7
370
    35
  0
POLYLINE
  5
293
330
1F
100
AcDbEntity
  8
0
 62
     7
370
    35
100
AcDb2dPolyline
 66
     1
 10
0.0
 20
0.0
 30
0.0
  0
VERTEX
  5
294
330
293
100
AcDbEntity
  8
0
370
     0
100
AcDbVertex
100
AcDb2dVertex
 10
725.45752
 20
428.841919
 30
0.0
  0
VERTEX
  5
295
330
293
100
AcDbEntity
  8
0
370
     0
100
AcDbVertex
100
AcDb2dVertex
 10
725.346985
 20
429.585968
 30
0.0
  0
VERTEX
  5
296
330
293
100
AcDbEntity
  8
0
370
     0
100
AcDbVertex
100
AcDb2dVertex
 10
725.229126
 20
429.972595
 30
0.0
  0
VERTEX
  5
297
330
293
100
AcDbEntity
  8
0
370
     0
100
AcDbVertex
100
AcDb2dVertex
 10
725.053528
 20
430.25116
 30
0.0
  0
VERTEX
  5
298
330
293
100
AcDbEntity
  8
0
370
     0
100
AcDbVertex
100
AcDb2dVertex
 10
724.850708
 20
430.393524
 30
0.0
  0
VERTEX
  5
299
330
293
100
AcDbEntity
  8
0
370
     0
100
AcDbVertex
100
AcDb2dVertex
 10
724.624451
 20
430.440399
 30
0.0
  0
SEQEND
  5
29A
330
293
100
AcDbEntity
  8
0
 62
     7
370
    35
  0
ELLIPSE
  5
29B
330
1F
100
AcDbEntity
  8
0
 62
     7
370
    35
100
AcDbEllipse
 10
721.867004
 20
427.740417
 30
0.0
 11
0.0
 21
2.149993896484375
 31
0.0
210
0.0
220
0.0
230
1.0
 40
0.173648
 41
4.159964283794299
 42
5.264813676965197
  0
LINE
  5
29C
330
1F
100
AcDbEntity
  8
0
 62
     7
370
    35
100
AcDbLine
 10
722.29248
 20
430.290161
 30
0.0
 11
722.387939
 21
429.740417
 31
0.0
  0
LINE
  5
29D
330
1F
100
AcDbEntity
  8
0
 62
     7
370
    35
100
AcDbLine
 10
723.668213
 20
429.740417
 30
0.0
 11
722.387939
 21
429.740417
 31
0.0
  0
LINE
  5
29E
330
1F
100
AcDbEntity
  8
0
 62
     7
370
    35
100
AcDbLine
 10
723.57135
 20
430.298004
 30
0.0
 11
723.668213
 21
429.740417
 31
0.0
  0
LINE
  5
29F
330
1F
100
AcDbEntity
  8
0
 62
     7
370
    35
100
AcDbLine
 10
722.387939
 20
425.740417
 30
0.0
 11
723.668213
 21
425.740417
 31
0.0
  0
LINE
  5
2A0
330
1F
100
AcDbEntity
  8
0
 62
     7
370
    35
100
AcDbLine
 10
723.668213
 20
429.740417
 30
0.0
 11
723.668213
 21
425.740417
 31
0.0
  0
LINE
  5
2A1
330
1F
100
AcDbEntity
  8
0
 62
     7
370
    35
100
AcDbLine
 10
722.387939
 20
429.740417
 30
0.0
 11
722.387939
 21
425.740417
 31
0.0
  0
LINE
  5
2A2
330
1F
100
AcDbEntity
  8
0
 62
     7
370
    35
100
AcDbLine
 10
722.292419
 20
425.190155
 30
0.0
 11
722.387939
 21
425.740417
 31
0.0
  0
LINE
  5
2A3
330
1F
100
AcDbEntity
  8
0
 62
     7
370
    35
100
AcDbLine
 10
723.571289
 20
425.182404
 30
0.0
 11
723.668213
 21
425.740417
 31
0.0
  0
LINE
  5
2A4
330
1F
100
AcDbEntity
  8
0
 62
     7
370
    35
100
AcDbLine
 10
722.184814
 20
425.190155
 30
0.0
 11
722.184814
 21
430.290161
 31
0.0
  0
LINE
  5
2A5
330
1F
100
AcDbEntity
  8
0
 62
     7
370
    35
100
AcDbLine
 10
724.624451
 20
423.440338
 30
0.0
 11
723.713684
 21
423.440338
 31
0.0
  0
LINE
  5
2A6
330
1F
100
AcDbEntity
  8
0
 62
     7
370
    35
100
AcDbLine
 10
724.624451
 20
418.040344
 30
0.0
 11
723.713379
 21
418.040344
 31
0.0
  0
POLYLINE
  5
2A7
330
1F
100
AcDbEntity
  8
0
 62
     7
370
    35
100
AcDb2dPolyline
 66
     1
 10
0.0
 20
0.0
 30
0.0
  0
VERTEX
  5
2A8
330
2A7
100
AcDbEntity
  8
0
370
     0
100
AcDbVertex
100
AcDb2dVertex
 10
725.45752
 20
421.841827
 30
0.0
  0
VERTEX
  5
2A9
330
2A7
100
AcDbEntity
  8
0
370
     0
100
AcDbVertex
100
AcDb2dVertex
 10
725.506042
 20
420.634338
 30
0.0
  0
VERTEX
  5
2AA
330
2A7
100
AcDbEntity
  8
0
370
     0
100
AcDbVertex
100
AcDb2dVertex
 10
725.445496
 20
419.520416
 30
0.0
  0
VERTEX
  5
2AB
330
2A7
100
AcDbEntity
  8
0
370
     0
100
AcDbVertex
100
AcDb2dVertex
 10
725.338257
 20
418.856842
 30
0.0
  0
VERTEX
  5
2AC
330
2A7
100
AcDbEntity
  8
0
370
     0
100
AcDbVertex
100
AcDb2dVertex
 10
725.219299
 20
418.485687
 30
0.0
  0
VERTEX
  5
2AD
330
2A7
100
AcDbEntity
  8
0
370
     0
100
AcDbVertex
100
AcDb2dVertex
 10
725.068481
 20
418.245667
 30
0.0
  0
VERTEX
  5
2AE
330
2A7
100
AcDbEntity
  8
0
370
     0
100
AcDbVertex
100
AcDb2dVertex
 10
724.866211
 20
418.094177
 30
0.0
  0
VERTEX
  5
2AF
330
2A7
100
AcDbEntity
  8
0
370
     0
100
AcDbVertex
100
AcDb2dVertex
 10
724.624451
 20
418.040344
 30
0.0
  0
SEQEND
  5
2B0
330
2A7
100
AcDbEntity
  8
0
 62
     7
370
    35
  0
POLYLINE
  5
2B1
330
1F
100
AcDbEntity
  8
0
 62
     7
370
    35
100
AcDb2dPolyline
 66
     1
 10
0.0
 20
0.0
 30
0.0
  0
VERTEX
  5
2B2
330
2B1
100
AcDbEntity
  8
0
370
     0
100
AcDbVertex
100
AcDb2dVertex
 10
725.45752
 20
421.841827
 30
0.0
  0
VERTEX
  5
2B3
330
2B1
100
AcDbEntity
  8
0
370
     0
100
AcDbVertex
100
AcDb2dVertex
 10
725.346985
 20
422.585876
 30
0.0
  0
VERTEX
  5
2B4
330
2B1
100
AcDbEntity
  8
0
370
     0
100
AcDbVertex
100
AcDb2dVertex
 10
725.229126
 20
422.972534
 30
0.0
  0
VERTEX
  5
2B5
330
2B1
100
AcDbEntity
  8
0
370
     0
100
AcDbVertex
100
AcDb2dVertex
 10
725.053528
 20
423.251068
 30
0.0
  0
VERTEX
  5
2B6
330
2B1
100
AcDbEntity
  8
0
370
     0
100
AcDbVertex
100
AcDb2dVertex
 10
724.850708
 20
423.393433
 30
0.0
  0
VERTEX
  5
2B7
330
2B1
100
AcDbEntity
  8
0
370
     0
100
AcDbVertex
100
AcDb2dVertex
 10
724.624451
 20
423.440338
 30
0.0
  0
SEQEND
  5
2B8
330
2B1
100
AcDbEntity
  8
0
 62
     7
370
    35
  0
ELLIPSE
  5
2B9
330
1F
100
AcDbEntity
  8
0
 62
     7
370
    35
100
AcDbEllipse
 10
721.867004
 20
420.740326
 30
0.0
 11
0.0
 21
2.149993896484375
 31
0.0
210
0.0
220
0.0
230
1.0
 40
0.173648
 41
4.159964283794338
 42
5.264813676965248
  0
LINE
  5
2BA
330
1F
100
AcDbEntity
  8
0
 62
     7
370
    35
100
AcDbLine
 10
722.29248
 20
423.290161
 30
0.0
 11
722.387939
 21
422.740326
 31
0.0
  0
LINE
  5
2BB
330
1F
100
AcDbEntity
  8
0
 62
     7
370
    35
100
AcDbLine
 10
723.668213
 20
422.740326
 30
0.0
 11
722.387939
 21
422.740326
 31
0.0
  0
LINE
  5
2BC
330
1F
100
AcDbEntity
  8
0
 62
     7
370
    35
100
AcDbLine
 10
723.57135
 20
423.297974
 30
0.0
 11
723.668213
 21
422.740326
 31
0.0
  0
LINE
  5
2BD
330
1F
100
AcDbEntity
  8
0
 62
     7
370
    35
100
AcDbLine
 10
722.387939
 20
418.740326
 30
0.0
 11
723.668213
 21
418.740326
 31
0.0
  0
LINE
  5
2BE
330
1F
100
AcDbEntity
  8
0
 62
     7
370
    35
100
AcDbLine
 10
723.668213
 20
422.740326
 30
0.0
 11
723.668213
 21
418.740326
 31
0.0
  0
LINE
  5
2BF
330
1F
100
AcDbEntity
  8
0
 62
     7
370
    35
100
AcDbLine
 10
722.387939
 20
422.740326
 30
0.0
 11
722.387939
 21
418.740326
 31
0.0
  0
LINE
  5
2C0
330
1F
100
AcDbEntity
  8
0
 62
     7
370
    35
100
AcDbLine
 10
722.292419
 20
418.190155
 30
0.0
 11
722.387939
 21
418.740326
 31
0.0
  0
LINE
  5
2C1
330
1F
100
AcDbEntity
  8
0
 62
     7
370
    35
100
AcDbLine
 10
723.571289
 20
418.182404
 30
0.0
 11
723.668213
 21
418.740326
 31
0.0
  0
LINE
  5
2C2
330
1F
100
AcDbEntity
  8
0
 62
     7
370
    35
100
AcDbLine
 10
722.184814
 20
418.190155
 30
0.0
 11
722.184814
 21
423.290161
 31
0.0
  0
LINE
  5
2C3
330
1F
100
AcDbEntity
  8
0
 62
     7
370
    35
100
AcDbLine
 10
724.624451
 20
416.440155
 30
0.0
 11
723.713562
 21
416.440155
 31
0.0
  0
LINE
  5
2C4
330
1F
100
AcDbEntity
  8
0
 62
     7
370
    35
100
AcDbLine
 10
724.624451
 20
411.040161
 30
0.0
 11
723.713501
 21
411.040161
 31
0.0
  0
POLYLINE
  5
2C5
330
1F
100
AcDbEntity
  8
0
 62
     7
370
    35
100
AcDb2dPolyline
 66
     1
 10
0.0
 20
0.0
 30
0.0
  0
VERTEX
  5
2C6
330
2C5
100
AcDbEntity
  8
0
370
     0
100
AcDbVertex
100
AcDb2dVertex
 10
725.45752
 20
414.841675
 30
0.0
  0
VERTEX
  5
2C7
330
2C5
100
AcDbEntity
  8
0
370
     0
100
AcDbVertex
100
AcDb2dVertex
 10
725.506042
 20
413.634186
 30
0.0
  0
VERTEX
  5
2C8
330
2C5
100
AcDbEntity
  8
0
370
     0
100
AcDbVertex
100
AcDb2dVertex
 10
725.445496
 20
412.520264
 30
0.0
  0
VERTEX
  5
2C9
330
2C5
100
AcDbEntity
  8
0
370
     0
100
AcDbVertex
100
AcDb2dVertex
 10
725.338257
 20
411.856659
 30
0.0
  0
VERTEX
  5
2CA
330
2C5
100
AcDbEntity
  8
0
370
     0
100
AcDbVertex
100
AcDb2dVertex
 10
725.219299
 20
411.485535
 30
0.0
  0
VERTEX
  5
2CB
330
2C5
100
AcDbEntity
  8
0
370
     0
100
AcDbVertex
100
AcDb2dVertex
 10
725.068481
 20
411.245483
 30
0.0
  0
VERTEX
  5
2CC
330
2C5
100
AcDbEntity
  8
0
370
     0
100
AcDbVertex
100
AcDb2dVertex
 10
724.866211
 20
411.094025
 30
0.0
  0
VERTEX
  5
2CD
330
2C5
100
AcDbEntity
  8
0
370
     0
100
AcDbVertex
100
AcDb2dVertex
 10
724.624451
 20
411.040161
 30
0.0
  0
SEQEND
  5
2CE
330
2C5
100
AcDbEntity
  8
0
 62
     7
370
    35
  0
POLYLINE
  5
2CF
330
1F
100
AcDbEntity
  8
0
 62
     7
370
    35
100
AcDb2dPolyline
 66
     1
 10
0.0
 20
0.0
 30
0.0
  0
VERTEX
  5
2D0
330
2CF
100
AcDbEntity
  8
0
370
     0
100
AcDbVertex
100
AcDb2dVertex
 10
725.45752
 20
414.841675
 30
0.0
  0
VERTEX
  5
2D1
330
2CF
100
AcDbEntity
  8
0
370
     0
100
AcDbVertex
100
AcDb2dVertex
 10
725.346985
 20
415.585724
 30
0.0
  0
VERTEX
  5
2D2
330
2CF
100
AcDbEntity
  8
0
370
     0
100
AcDbVertex
100
AcDb2dVertex
 10
725.229126
 20
415.972351
 30
0.0
  0
VERTEX
  5
2D3
330
2CF
100
AcDbEntity
  8
0
370
     0
100
AcDbVertex
100
AcDb2dVertex
 10
725.053528
 20
416.250916
 30
0.0
  0
VERTEX
  5
2D4
330
2CF
100
AcDbEntity
  8
0
370
     0
100
AcDbVertex
100
AcDb2dVertex
 10
724.850708
 20
416.39328
 30
0.0
  0
VERTEX
  5
2D5
330
2CF
100
AcDbEntity
  8
0
370
     0
100
AcDbVertex
100
AcDb2dVertex
 10
724.624451
 20
416.440155
 30
0.0
  0
SEQEND
  5
2D6
330
2CF
100
AcDbEntity
  8
0
 62
     7
370
    35
  0
ELLIPSE
  5
2D7
330
1F
100
AcDbEntity
  8
0
 62
     7
370
    35
100
AcDbEllipse
 10
721.867004
 20
413.740173
 30
0.0
 11
0.0
 21
2.149993896484375
 31
0.0
210
0.0
220
0.0
230
1.0
 40
0.173648
 41
4.1599642837943
 42
5.264813676965208
  0
LINE
  5
2D8
330
1F
100
AcDbEntity
  8
0
 62
     7
370
    35
100
AcDbLine
 10
722.292419
 20
416.290161
 30
0.0
 11
722.387939
 21
415.740173
 31
0.0
  0
LINE
  5
2D9
330
1F
100
AcDbEntity
  8
0
 62
     7
370
    35
100
AcDbLine
 10
723.668213
 20
415.740173
 30
0.0
 11
722.387939
 21
415.740173
 31
0.0
  0
LINE
  5
2DA
330
1F
100
AcDbEntity
  8
0
 62
     7
370
    35
100
AcDbLine
 10
723.57135
 20
416.297974
 30
0.0
 11
723.668213
 21
415.740173
 31
0.0
  0
LINE
  5
2DB
330
1F
100
AcDbEntity
  8
0
 62
     7
370
    35
100
AcDbLine
 10
722.387939
 20
411.740173
 30
0.0
 11
723.668213
 21
411.740173
 31
0.0
  0
LINE
  5
2DC
330
1F
100
AcDbEntity
  8
0
 62
     7
370
    35
100
AcDbLine
 10
723.668213
 20
415.740173
 30
0.0
 11
723.668213
 21
411.740173
 31
0.0
  0
LINE
  5
2DD
330
1F
100
AcDbEntity
  8
0
 62
     7
370
    35
100
AcDbLine
 10
722.387939
 20
415.740173
 30
0.0
 11
722.387939
 21
411.740173
 31
0.0
  0
LINE
  5
2DE
330
1F
100
AcDbEntity
  8
0
 62
     7
370
    35
100
AcDbLine
 10
722.292419
 20
411.190155
 30
0.0
 11
722.387939
 21
411.740173
 31
0.0
  0
LINE
  5
2DF
330
1F
100
AcDbEntity
  8
0
 62
     7
370
    35
100
AcDbLine
 10
723.57135
 20
411.182373
 30
0.0
 11
723.668213
 21
411.740173
 31
0.0
  0
LINE
  5
2E0
330
1F
100
AcDbEntity
  8
0
 62
     7
370
    35
100
AcDbLine
 10
722.184814
 20
411.190155
 30
0.0
 11
722.184814
 21
416.290161
 31
0.0
  0
LINE
  5
2E1
330
1F
100
AcDbEntity
  8
0
 62
     7
370
    35
100
AcDbLine
 10
724.624451
 20
409.43927
 30
0.0
 11
723.712646
 21
409.43927
 31
0.0
  0
LINE
  5
2E2
330
1F
100
AcDbEntity
  8
0
 62
     7
370
    35
100
AcDbLine
 10
724.624451
 20
404.039276
 30
0.0
 11
723.714417
 21
404.039276
 31
0.0
  0
POLYLINE
  5
2E3
330
1F
100
AcDbEntity
  8
0
 62
     7
370
    35
100
AcDb2dPolyline
 66
     1
 10
0.0
 20
0.0
 30
0.0
  0
VERTEX
  5
2E4
330
2E3
100
AcDbEntity
  8
0
370
     0
100
AcDbVertex
100
AcDb2dVertex
 10
725.45752
 20
407.840759
 30
0.0
  0
VERTEX
  5
2E5
330
2E3
100
AcDbEntity
  8
0
370
     0
100
AcDbVertex
100
AcDb2dVertex
 10
725.506042
 20
406.63327
 30
0.0
  0
VERTEX
  5
2E6
330
2E3
100
AcDbEntity
  8
0
370
     0
100
AcDbVertex
100
AcDb2dVertex
 10
725.445496
 20
405.519348
 30
0.0
  0
VERTEX
  5
2E7
330
2E3
100
AcDbEntity
  8
0
370
     0
100
AcDbVertex
100
AcDb2dVertex
 10
725.338257
 20
404.855774
 30
0.0
  0
VERTEX
  5
2E8
330
2E3
100
AcDbEntity
  8
0
370
     0
100
AcDbVertex
100
AcDb2dVertex
 10
725.219299
 20
404.484619
 30
0.0
  0
VERTEX
  5
2E9
330
2E3
100
AcDbEntity
  8
0
370
     0
100
AcDbVertex
100
AcDb2dVertex
 10
725.068481
 20
404.244598
 30
0.0
  0
VERTEX
  5
2EA
330
2E3
100
AcDbEntity
  8
0
370
     0
100
AcDbVertex
100
AcDb2dVertex
 10
724.866211
 20
404.09314
 30
0.0
  0
VERTEX
  5
2EB
330
2E3
100
AcDbEntity
  8
0
370
     0
100
AcDbVertex
100
AcDb2dVertex
 10
724.624451
 20
404.039276
 30
0.0
  0
SEQEND
  5
2EC
330
2E3
100
AcDbEntity
  8
0
 62
     7
370
    35
  0
POLYLINE
  5
2ED
330
1F
100
AcDbEntity
  8
0
 62
     7
370
    35
100
AcDb2dPolyline
 66
     1
 10
0.0
 20
0.0
 30
0.0
  0
VERTEX
  5
2EE
330
2ED
100
AcDbEntity
  8
0
370
     0
100
AcDbVertex
100
AcDb2dVertex
 10
725.45752
 20
407.840759
 30
0.0
  0
VERTEX
  5
2EF
330
2ED
100
AcDbEntity
  8
0
370
     0
100
AcDbVertex
100
AcDb2dVertex
 10
725.346985
 20
408.584839
 30
0.0
  0
VERTEX
  5
2F0
330
2ED
100
AcDbEntity
  8
0
370
     0
100
AcDbVertex
100
AcDb2dVertex
 10
725.229126
 20
408.971466
 30
0.0
  0
VERTEX
  5
2F1
330
2ED
100
AcDbEntity
  8
0
370
     0
100
AcDbVertex
100
AcDb2dVertex
 10
725.053528
 20
409.250031
 30
0.0
  0
VERTEX
  5
2F2
330
2ED
100
AcDbEntity
  8
0
370
     0
100
AcDbVertex
100
AcDb2dVertex
 10
724.850708
 20
409.392395
 30
0.0
  0
VERTEX
  5
2F3
330
2ED
100
AcDbEntity
  8
0
370
     0
100
AcDbVertex
100
AcDb2dVertex
 10
724.624451
 20
409.43927
 30
0.0
  0
SEQEND
  5
2F4
330
2ED
100
AcDbEntity
  8
0
 62
     7
370
    35
  0
ELLIPSE
  5
2F5
330
1F
100
AcDbEntity
  8
0
 62
     7
370
    35
100
AcDbEllipse
 10
721.867004
 20
406.739258
 30
0.0
 11
0.0
 21
2.149993896484375
 31
0.0
210
0.0
220
0.0
230
1.0
 40
0.173648
 41
4.159964283794322
 42
5.264813676965224
  0
LINE
  5
2F6
330
1F
100
AcDbEntity
  8
0
 62
     7
370
    35
100
AcDbLine
 10
722.292297
 20
409.290161
 30
0.0
 11
722.387939
 21
408.739258
 31
0.0
  0
LINE
  5
2F7
330
1F
100
AcDbEntity
  8
0
 62
     7
370
    35
100
AcDbLine
 10
723.668213
 20
408.739258
 30
0.0
 11
722.387939
 21
408.739258
 31
0.0
  0
LINE
  5
2F8
330
1F
100
AcDbEntity
  8
0
 62
     7
370
    35
100
AcDbLine
 10
723.571167
 20
409.297821
 30
0.0
 11
723.668213
 21
408.739258
 31
0.0
  0
LINE
  5
2F9
330
1F
100
AcDbEntity
  8
0
 62
     7
370
    35
100
AcDbLine
 10
722.387939
 20
404.739258
 30
0.0
 11
723.668213
 21
404.739258
 31
0.0
  0
LINE
  5
2FA
330
1F
100
AcDbEntity
  8
0
 62
     7
370
    35
100
AcDbLine
 10
723.668213
 20
408.739258
 30
0.0
 11
723.668213
 21
404.739258
 31
0.0
  0
LINE
  5
2FB
330
1F
100
AcDbEntity
  8
0
 62
     7
370
    35
100
AcDbLine
 10
722.387939
 20
408.739258
 30
0.0
 11
722.387939
 21
404.739258
 31
0.0
  0
LINE
  5
2FC
330
1F
100
AcDbEntity
  8
0
 62
     7
370
    35
100
AcDbLine
 10
722.292603
 20
404.190155
 30
0.0
 11
722.387939
 21
404.739258
 31
0.0
  0
LINE
  5
2FD
330
1F
100
AcDbEntity
  8
0
 62
     7
370
    35
100
AcDbLine
 10
723.571472
 20
404.18222
 30
0.0
 11
723.668213
 21
404.739258
 31
0.0
  0
LINE
  5
2FE
330
1F
100
AcDbEntity
  8
0
 62
     7
370
    35
100
AcDbLine
 10
722.184814
 20
404.190155
 30
0.0
 11
722.184814
 21
409.290161
 31
0.0
  0
LINE
  5
2FF
330
1F
100
AcDbEntity
  8
0
 62
     7
370
    35
100
AcDbLine
 10
724.624451
 20
402.440155
 30
0.0
 11
723.713562
 21
402.440155
 31
0.0
  0
LINE
  5
300
330
1F
100
AcDbEntity
  8
0
 62
     7
370
    35
100
AcDbLine
 10
724.624451
 20
397.040161
 30
0.0
 11
723.713501
 21
397.040161
 31
0.0
  0
POLYLINE
  5
301
330
1F
100
AcDbEntity
  8
0
 62
     7
370
    35
100
AcDb2dPolyline
 66
     1
 10
0.0
 20
0.0
 30
0.0
  0
VERTEX
  5
302
330
301
100
AcDbEntity
  8
0
370
     0
100
AcDbVertex
100
AcDb2dVertex
 10
725.45752
 20
400.841675
 30
0.0
  0
VERTEX
  5
303
330
301
100
AcDbEntity
  8
0
370
     0
100
AcDbVertex
100
AcDb2dVertex
 10
725.506042
 20
399.634186
 30
0.0
  0
VERTEX
  5
304
330
301
100
AcDbEntity
  8
0
370
     0
100
AcDbVertex
100
AcDb2dVertex
 10
725.445496
 20
398.520264
 30
0.0
  0
VERTEX
  5
305
330
301
100
AcDbEntity
  8
0
370
     0
100
AcDbVertex
100
AcDb2dVertex
 10
725.338257
 20
397.856659
 30
0.0
  0
VERTEX
  5
306
330
301
100
AcDbEntity
  8
0
370
     0
100
AcDbVertex
100
AcDb2dVertex
 10
725.219299
 20
397.485535
 30
0.0
  0
VERTEX
  5
307
330
301
100
AcDbEntity
  8
0
370
     0
100
AcDbVertex
100
AcDb2dVertex
 10
725.068481
 20
397.245483
 30
0.0
  0
VERTEX
  5
308
330
301
100
AcDbEntity
  8
0
370
     0
100
AcDbVertex
100
AcDb2dVertex
 10
724.866211
 20
397.094025
 30
0.0
  0
VERTEX
  5
309
330
301
100
AcDbEntity
  8
0
370
     0
100
AcDbVertex
100
AcDb2dVertex
 10
724.624451
 20
397.040161
 30
0.0
  0
SEQEND
  5
30A
330
301
100
AcDbEntity
  8
0
 62
     7
370
    35
  0
POLYLINE
  5
30B
330
1F
100
AcDbEntity
  8
0
 62
     7
370
    35
100
AcDb2dPolyline
 66
     1
 10
0.0
 20
0.0
 30
0.0
  0
VERTEX
  5
30C
330
30B
100
AcDbEntity
  8
0
370
     0
100
AcDbVertex
100
AcDb2dVertex
 10
725.45752
 20
400.841675
 30
0.0
  0
VERTEX
  5
30D
330
30B
100
AcDbEntity
  8
0
370
     0
100
AcDbVertex
100
AcDb2dVertex
 10
725.346985
 20
401.585724
 30
0.0
  0
VERTEX
  5
30E
330
30B
100
AcDbEntity
  8
0
370
     0
100
AcDbVertex
100
AcDb2dVertex
 10
725.229126
 20
401.972351
 30
0.0
  0
VERTEX
  5
30F
330
30B
100
AcDbEntity
  8
0
370
     0
100
AcDbVertex
100
AcDb2dVertex
 10
725.053528
 20
402.250916
 30
0.0
  0
VERTEX
  5
310
330
30B
100
AcDbEntity
  8
0
370
     0
100
AcDbVertex
100
AcDb2dVertex
 10
724.850708
 20
402.39328
 30
0.0
  0
VERTEX
  5
311
330
30B
100
AcDbEntity
  8
0
370
     0
100
AcDbVertex
100
AcDb2dVertex
 10
724.624451
 20
402.440155
 30
0.0
  0
SEQEND
  5
312
330
30B
100
AcDbEntity
  8
0
 62
     7
370
    35
  0
ELLIPSE
  5
313
330
1F
100
AcDbEntity
  8
0
 62
     7
370
    35
100
AcDbEllipse
 10
721.867004
 20
399.740173
 30
0.0
 11
0.0
 21
2.149993896484375
 31
0.0
210
0.0
220
0.0
230
1.0
 40
0.173648
 41
4.159964283794331
 42
5.26481367696522
  0
LINE
  5
314
330
1F
100
AcDbEntity
  8
0
 62
     7
370
    35
100
AcDbLine
 10
722.292419
 20
402.290161
 30
0.0
 11
722.387939
 21
401.740173
 31
0.0
  0
LINE
  5
315
330
1F
100
AcDbEntity
  8
0
 62
     7
370
    35
100
AcDbLine
 10
723.668213
 20
401.740173
 30
0.0
 11
722.387939
 21
401.740173
 31
0.0
  0
LINE
  5
316
330
1F
100
AcDbEntity
  8
0
 62
     7
370
    35
100
AcDbLine
 10
723.57135
 20
402.297974
 30
0.0
 11
723.668213
 21
401.740173
 31
0.0
  0
LINE
  5
317
330
1F
100
AcDbEntity
  8
0
 62
     7
370
    35
100
AcDbLine
 10
722.387939
 20
397.740173
 30
0.0
 11
723.668213
 21
397.740173
 31
0.0
  0
LINE
  5
318
330
1F
100
AcDbEntity
  8
0
 62
     7
370
    35
100
AcDbLine
 10
723.668213
 20
401.740173
 30
0.0
 11
723.668213
 21
397.740173
 31
0.0
  0
LINE
  5
319
330
1F
100
AcDbEntity
  8
0
 62
     7
370
    35
100
AcDbLine
 10
722.387939
 20
401.740173
 30
0.0
 11
722.387939
 21
397.740173
 31
0.0
  0
LINE
  5
31A
330
1F
100
AcDbEntity
  8
0
 62
     7
370
    35
100
AcDbLine
 10
722.292419
 20
397.190155
 30
0.0
 11
722.387939
 21
397.740173
 31
0.0
  0
LINE
  5
31B
330
1F
100
AcDbEntity
  8
0
 62
     7
370
    35
100
AcDbLine
 10
723.57135
 20
397.182373
 30
0.0
 11
723.668213
 21
397.740173
 31
0.0
  0
LINE
  5
31C
330
1F
100
AcDbEntity
  8
0
 62
     7
370
    35
100
AcDbLine
 10
722.184814
 20
397.190155
 30
0.0
 11
722.184814
 21
402.290161
 31
0.0
  0
LINE
  5
31D
330
1F
100
AcDbEntity
  8
0
 62
     7
370
    35
100
AcDbLine
 10
585.920715
 20
474.400604
 30
0.0
 11
580.120728
 21
474.400604
 31
0.0
  0
LINE
  5
31E
330
1F
100
AcDbEntity
  8
0
 62
     7
370
    35
100
AcDbLine
 10
578.120728
 20
474.400604
 30
0.0
 11
572.320679
 21
474.400604
 31
0.0
  0
LINE
  5
31F
330
1F
100
AcDbEntity
  8
0
 62
     7
370
    35
100
AcDbLine
 10
570.320679
 20
474.400604
 30
0.0
 11
564.520691
 21
474.400604
 31
0.0
  0
LINE
  5
320
330
1F
100
AcDbEntity
  8
0
 62
     7
370
    35
100
AcDbLine
 10
562.520691
 20
474.400604
 30
0.0
 11
556.720703
 21
474.400604
 31
0.0
  0
LINE
  5
321
330
1F
100
AcDbEntity
  8
0
 62
     7
370
    35
100
AcDbLine
 10
554.720703
 20
474.400604
 30
0.0
 11
548.920715
 21
474.400604
 31
0.0
  0
LINE
  5
322
330
1F
100
AcDbEntity
  8
0
 62
     7
370
    35
100
AcDbLine
 10
544.920715
 20
474.471222
 30
0.0
 11
589.920715
 21
474.471222
 31
0.0
  0
LINE
  5
323
330
1F
100
AcDbEntity
  8
0
 62
     7
370
    35
100
AcDbLine
 10
548.920715
 20
474.171234
 30
0.0
 11
548.920715
 21
474.400604
 31
0.0
  0
LINE
  5
324
330
1F
100
AcDbEntity
  8
0
 62
     7
370
    35
100
AcDbLine
 10
589.420715
 20
474.171234
 30
0.0
 11
589.420715
 21
474.471222
 31
0.0
  0
LINE
  5
325
330
1F
100
AcDbEntity
  8
0
 62
     7
370
    35
100
AcDbLine
 10
545.420715
 20
474.171234
 30
0.0
 11
545.420715
 21
474.471222
 31
0.0
  0
LINE
  5
326
330
1F
100
AcDbEntity
  8
0
 62
     7
370
    35
100
AcDbLine
 10
580.120728
 20
474.171234
 30
0.0
 11
580.120728
 21
474.400604
 31
0.0
  0
LINE
  5
327
330
1F
100
AcDbEntity
  8
0
 62
     7
370
    35
100
AcDbLine
 10
585.920715
 20
474.400604
 30
0.0
 11
585.920715
 21
474.171234
 31
0.0
  0
LINE
  5
328
330
1F
100
AcDbEntity
  8
0
 62
     7
370
    35
100
AcDbLine
 10
578.120728
 20
474.400604
 30
0.0
 11
578.120728
 21
474.171234
 31
0.0
  0
LINE
  5
329
330
1F
100
AcDbEntity
  8
0
 62
     7
370
    35
100
AcDbLine
 10
572.320679
 20
474.171234
 30
0.0
 11
572.320679
 21
474.400604
 31
0.0
  0
LINE
  5
32A
330
1F
100
AcDbEntity
  8
0
 62
     7
370
    35
100
AcDbLine
 10
570.320679
 20
474.400604
 30
0.0
 11
570.320679
 21
474.171234
 31
0.0
  0
LINE
  5
32B
330
1F
100
AcDbEntity
  8
0
 62
     7
370
    35
100
AcDbLine
 10
564.520691
 20
474.171234
 30
0.0
 11
564.520691
 21
474.400604
 31
0.0
  0
LINE
  5
32C
330
1F
100
AcDbEntity
  8
0
 62
     7
370
    35
100
AcDbLine
 10
562.520691
 20
474.400604
 30
0.0
 11
562.520691
 21
474.171234
 31
0.0
  0
LINE
  5
32D
330
1F
100
AcDbEntity
  8
0
 62
     7
370
    35
100
AcDbLine
 10
556.720703
 20
474.171234
 30
0.0
 11
556.720703
 21
474.400604
 31
0.0
  0
LINE
  5
32E
330
1F
100
AcDbEntity
  8
0
 62
     7
370
    35
100
AcDbLine
 10
554.720703
 20
474.400604
 30
0.0
 11
554.720703
 21
474.171234
 31
0.0
  0
ARC
  5
32F
330
1F
100
AcDbEntity
  8
0
 62
     7
370
    35
100
AcDbCircle
 10
544.920715
 20
475.971222
 30
0.0
 40
1.5
100
AcDbArc
 50
179.999995
 51
269.999997
  0
ARC
  5
330
330
1F
100
AcDbEntity
  8
0
 62
     7
370
    35
100
AcDbCircle
 10
589.920715
 20
475.971222
 30
0.0
 40
1.5
100
AcDbArc
 50
269.999997
 51
360.0
  0
LINE
  5
331
330
1F
100
AcDbEntity
  8
0
 62
     7
370
    35
100
AcDbLine
 10
566.420715
 20
478.471222
 30
0.0
 11
566.420715
 21
477.471222
 31
0.0
  0
LINE
  5
332
330
1F
100
AcDbEntity
  8
0
 62
     7
370
    35
100
AcDbLine
 10
568.420715
 20
477.471222
 30
0.0
 11
568.420715
 21
478.471222
 31
0.0
  0
LINE
  5
333
330
1F
100
AcDbEntity
  8
0
 62
     7
370
    35
100
AcDbLine
 10
557.420715
 20
477.471222
 30
0.0
 11
577.420715
 21
477.471222
 31
0.0
  0
LINE
  5
334
330
1F
100
AcDbEntity
  8
0
 62
     7
370
    35
100
AcDbLine
 10
557.420715
 20
478.471222
 30
0.0
 11
557.420715
 21
477.471222
 31
0.0
  0
LINE
  5
335
330
1F
100
AcDbEntity
  8
0
 62
     7
370
    35
100
AcDbLine
 10
544.920715
 20
478.471222
 30
0.0
 11
557.420715
 21
478.471222
 31
0.0
  0
LINE
  5
336
330
1F
100
AcDbEntity
  8
0
 62
     7
370
    35
100
AcDbLine
 10
577.420715
 20
478.471222
 30
0.0
 11
589.920715
 21
478.471222
 31
0.0
  0
LINE
  5
337
330
1F
100
AcDbEntity
  8
0
 62
     7
370
    35
100
AcDbLine
 10
577.420715
 20
478.471222
 30
0.0
 11
577.420715
 21
477.471222
 31
0.0
  0
LINE
  5
338
330
1F
100
AcDbEntity
  8
0
 62
     7
370
    35
100
AcDbLine
 10
543.420715
 20
478.471222
 30
0.0
 11
543.420715
 21
475.971222
 31
0.0
  0
LINE
  5
339
330
1F
100
AcDbEntity
  8
0
 62
     7
370
    35
100
AcDbLine
 10
591.420715
 20
478.471222
 30
0.0
 11
591.420715
 21
475.971222
 31
0.0
  0
LINE
  5
33A
330
1F
100
AcDbEntity
  8
0
 62
     7
370
    35
100
AcDbLine
 10
543.420715
 20
478.471222
 30
0.0
 11
544.920715
 21
478.471222
 31
0.0
  0
LINE
  5
33B
330
1F
100
AcDbEntity
  8
0
 62
     7
370
    35
100
AcDbLine
 10
558.920715
 20
477.471222
 30
0.0
 11
558.920715
 21
478.471222
 31
0.0
  0
LINE
  5
33C
330
1F
100
AcDbEntity
  8
0
 62
     7
370
    35
100
AcDbLine
 10
564.920715
 20
477.471222
 30
0.0
 11
564.920715
 21
478.471222
 31
0.0
  0
LINE
  5
33D
330
1F
100
AcDbEntity
  8
0
 62
     7
370
    35
100
AcDbLine
 10
569.920715
 20
477.471222
 30
0.0
 11
569.920715
 21
478.471222
 31
0.0
  0
LINE
  5
33E
330
1F
100
AcDbEntity
  8
0
 62
     7
370
    35
100
AcDbLine
 10
589.920715
 20
478.471222
 30
0.0
 11
591.420715
 21
478.471222
 31
0.0
  0
LINE
  5
33F
330
1F
100
AcDbEntity
  8
0
 62
     7
370
    35
100
AcDbLine
 10
575.920715
 20
477.471222
 30
0.0
 11
575.920715
 21
478.471222
 31
0.0
  0
LINE
  5
340
330
1F
100
AcDbEntity
  8
0
 62
     7
370
    35
100
AcDbLine
 10
563.920715
 20
481.571228
 30
0.0
 11
559.920715
 21
481.571228
 31
0.0
  0
LINE
  5
341
330
1F
100
AcDbEntity
  8
0
 62
     7
370
    35
100
AcDbLine
 10
574.920715
 20
481.571228
 30
0.0
 11
570.920715
 21
481.571228
 31
0.0
  0
LINE
  5
342
330
1F
100
AcDbEntity
  8
0
 62
     7
370
    35
100
AcDbLine
 10
563.920715
 20
481.571228
 30
0.0
 11
563.920715
 21
480.971222
 31
0.0
  0
LINE
  5
343
330
1F
100
AcDbEntity
  8
0
 62
     7
370
    35
100
AcDbLine
 10
559.920715
 20
481.571228
 30
0.0
 11
559.920715
 21
480.971222
 31
0.0
  0
LINE
  5
344
330
1F
100
AcDbEntity
  8
0
 62
     7
370
    35
100
AcDbLine
 10
559.920715
 20
480.971222
 30
0.0
 11
563.920715
 21
480.971222
 31
0.0
  0
LINE
  5
345
330
1F
100
AcDbEntity
  8
0
 62
     7
370
    35
100
AcDbLine
 10
559.920715
 20
480.971222
 30
0.0
 11
559.920715
 21
480.571228
 31
0.0
  0
LINE
  5
346
330
1F
100
AcDbEntity
  8
0
 62
     7
370
    35
100
AcDbLine
 10
563.920715
 20
480.571228
 30
0.0
 11
559.920715
 21
480.571228
 31
0.0
  0
LINE
  5
347
330
1F
100
AcDbEntity
  8
0
 62
     7
370
    35
100
AcDbLine
 10
563.920715
 20
480.971222
 30
0.0
 11
563.920715
 21
480.571228
 31
0.0
  0
LINE
  5
348
330
1F
100
AcDbEntity
  8
0
 62
     7
370
    35
100
AcDbLine
 10
574.920715
 20
481.571228
 30
0.0
 11
574.920715
 21
480.971222
 31
0.0
  0
LINE
  5
349
330
1F
100
AcDbEntity
  8
0
 62
     7
370
    35
100
AcDbLine
 10
570.920715
 20
481.571228
 30
0.0
 11
570.920715
 21
480.971222
 31
0.0
  0
LINE
  5
34A
330
1F
100
AcDbEntity
  8
0
 62
     7
370
    35
100
AcDbLine
 10
570.920715
 20
480.971222
 30
0.0
 11
574.920715
 21
480.971222
 31
0.0
  0
LINE
  5
34B
330
1F
100
AcDbEntity
  8
0
 62
     7
370
    35
100
AcDbLine
 10
570.920715
 20
480.971222
 30
0.0
 11
570.920715
 21
480.571228
 31
0.0
  0
LINE
  5
34C
330
1F
100
AcDbEntity
  8
0
 62
     7
370
    35
100
AcDbLine
 10
570.920715
 20
480.571228
 30
0.0
 11
574.920715
 21
480.571228
 31
0.0
  0
LINE
  5
34D
330
1F
100
AcDbEntity
  8
0
 62
     7
370
    35
100
AcDbLine
 10
574.920715
 20
480.971222
 30
0.0
 11
574.920715
 21
480.571228
 31
0.0
  0
LINE
  5
34E
330
1F
100
AcDbEntity
  8
0
 62
     7
370
    35
100
AcDbLine
 10
545.420715
 20
474.171234
 30
0.0
 11
548.920715
 21
474.171234
 31
0.0
  0
LINE
  5
34F
330
1F
100
AcDbEntity
  8
0
 62
     7
370
    35
100
AcDbLine
 10
554.720703
 20
474.171234
 30
0.0
 11
556.720703
 21
474.171234
 31
0.0
  0
LINE
  5
350
330
1F
100
AcDbEntity
  8
0
 62
     7
370
    35
100
AcDbLine
 10
562.520691
 20
474.171234
 30
0.0
 11
564.520691
 21
474.171234
 31
0.0
  0
LINE
  5
351
330
1F
100
AcDbEntity
  8
0
 62
     7
370
    35
100
AcDbLine
 10
570.320679
 20
474.171234
 30
0.0
 11
572.320679
 21
474.171234
 31
0.0
  0
LINE
  5
352
330
1F
100
AcDbEntity
  8
0
 62
     7
370
    35
100
AcDbLine
 10
578.120728
 20
474.171234
 30
0.0
 11
580.120728
 21
474.171234
 31
0.0
  0
LINE
  5
353
330
1F
100
AcDbEntity
  8
0
 62
     7
370
    35
100
AcDbLine
 10
585.920715
 20
474.171234
 30
0.0
 11
589.420715
 21
474.171234
 31
0.0
  0
LINE
  5
354
330
1F
100
AcDbEntity
  8
0
 62
     7
370
    35
100
AcDbLine
 10
585.820679
 20
473.841644
 30
0.0
 11
585.820679
 21
474.400604
 31
0.0
  0
LINE
  5
355
330
1F
100
AcDbEntity
  8
0
 62
     7
370
    35
100
AcDbLine
 10
585.820679
 20
473.671234
 30
0.0
 11
585.820679
 21
473.841644
 31
0.0
  0
LINE
  5
356
330
1F
100
AcDbEntity
  8
0
 62
     7
370
    35
100
AcDbLine
 10
580.220703
 20
473.841644
 30
0.0
 11
580.220703
 21
474.400604
 31
0.0
  0
LINE
  5
357
330
1F
100
AcDbEntity
  8
0
 62
     7
370
    35
100
AcDbLine
 10
580.220703
 20
473.671234
 30
0.0
 11
580.220703
 21
473.841644
 31
0.0
  0
LINE
  5
358
330
1F
100
AcDbEntity
  8
0
 62
     7
370
    35
100
AcDbLine
 10
580.220703
 20
473.841644
 30
0.0
 11
585.820679
 21
473.841644
 31
0.0
  0
LINE
  5
359
330
1F
100
AcDbEntity
  8
0
 62
     7
370
    35
100
AcDbLine
 10
585.520691
 20
473.671234
 30
0.0
 11
580.520691
 21
473.671234
 31
0.0
  0
LINE
  5
35A
330
1F
100
AcDbEntity
  8
0
 62
     7
370
    35
100
AcDbLine
 10
580.220703
 20
473.671234
 30
0.0
 11
580.520691
 21
473.671234
 31
0.0
  0
LINE
  5
35B
330
1F
100
AcDbEntity
  8
0
 62
     7
370
    35
100
AcDbLine
 10
585.520691
 20
473.671234
 30
0.0
 11
585.820679
 21
473.671234
 31
0.0
  0
LINE
  5
35C
330
1F
100
AcDbEntity
  8
0
 62
     7
370
    35
100
AcDbLine
 10
554.620728
 20
473.841644
 30
0.0
 11
554.620728
 21
474.400604
 31
0.0
  0
LINE
  5
35D
330
1F
100
AcDbEntity
  8
0
 62
     7
370
    35
100
AcDbLine
 10
554.620728
 20
473.671234
 30
0.0
 11
554.620728
 21
473.841644
 31
0.0
  0
LINE
  5
35E
330
1F
100
AcDbEntity
  8
0
 62
     7
370
    35
100
AcDbLine
 10
549.020691
 20
473.841644
 30
0.0
 11
549.020691
 21
474.400604
 31
0.0
  0
LINE
  5
35F
330
1F
100
AcDbEntity
  8
0
 62
     7
370
    35
100
AcDbLine
 10
549.020691
 20
473.671234
 30
0.0
 11
549.020691
 21
473.841644
 31
0.0
  0
LINE
  5
360
330
1F
100
AcDbEntity
  8
0
 62
     7
370
    35
100
AcDbLine
 10
549.020691
 20
473.841644
 30
0.0
 11
554.620728
 21
473.841644
 31
0.0
  0
LINE
  5
361
330
1F
100
AcDbEntity
  8
0
 62
     7
370
    35
100
AcDbLine
 10
554.320679
 20
473.671234
 30
0.0
 11
549.320679
 21
473.671234
 31
0.0
  0
LINE
  5
362
330
1F
100
AcDbEntity
  8
0
 62
     7
370
    35
100
AcDbLine
 10
549.020691
 20
473.671234
 30
0.0
 11
549.320679
 21
473.671234
 31
0.0
  0
LINE
  5
363
330
1F
100
AcDbEntity
  8
0
 62
     7
370
    35
100
AcDbLine
 10
554.320679
 20
473.671234
 30
0.0
 11
554.620728
 21
473.671234
 31
0.0
  0
LINE
  5
364
330
1F
100
AcDbEntity
  8
0
 62
     7
370
    35
100
AcDbLine
 10
562.420715
 20
473.841644
 30
0.0
 11
562.420715
 21
474.400604
 31
0.0
  0
LINE
  5
365
330
1F
100
AcDbEntity
  8
0
 62
     7
370
    35
100
AcDbLine
 10
562.420715
 20
473.671234
 30
0.0
 11
562.420715
 21
473.841644
 31
0.0
  0
LINE
  5
366
330
1F
100
AcDbEntity
  8
0
 62
     7
370
    35
100
AcDbLine
 10
556.820679
 20
473.841644
 30
0.0
 11
556.820679
 21
474.400604
 31
0.0
  0
LINE
  5
367
330
1F
100
AcDbEntity
  8
0
 62
     7
370
    35
100
AcDbLine
 10
556.820679
 20
473.671234
 30
0.0
 11
556.820679
 21
473.841644
 31
0.0
  0
LINE
  5
368
330
1F
100
AcDbEntity
  8
0
 62
     7
370
    35
100
AcDbLine
 10
556.820679
 20
473.841644
 30
0.0
 11
562.420715
 21
473.841644
 31
0.0
  0
LINE
  5
369
330
1F
100
AcDbEntity
  8
0
 62
     7
370
    35
100
AcDbLine
 10
562.120728
 20
473.671356
 30
0.0
 11
557.120728
 21
473.671356
 31
0.0
  0
LINE
  5
36A
330
1F
100
AcDbEntity
  8
0
 62
     7
370
    35
100
AcDbLine
 10
556.820679
 20
473.671234
 30
0.0
 11
557.120728
 21
473.671234
 31
0.0
  0
LINE
  5
36B
330
1F
100
AcDbEntity
  8
0
 62
     7
370
    35
100
AcDbLine
 10
562.120728
 20
473.671234
 30
0.0
 11
562.420715
 21
473.671234
 31
0.0
  0
LINE
  5
36C
330
1F
100
AcDbEntity
  8
0
 62
     7
370
    35
100
AcDbLine
 10
578.020691
 20
473.841644
 30
0.0
 11
578.020691
 21
474.400604
 31
0.0
  0
LINE
  5
36D
330
1F
100
AcDbEntity
  8
0
 62
     7
370
    35
100
AcDbLine
 10
578.020691
 20
473.671234
 30
0.0
 11
578.020691
 21
473.841644
 31
0.0
  0
LINE
  5
36E
330
1F
100
AcDbEntity
  8
0
 62
     7
370
    35
100
AcDbLine
 10
572.420715
 20
473.841644
 30
0.0
 11
572.420715
 21
474.400604
 31
0.0
  0
LINE
  5
36F
330
1F
100
AcDbEntity
  8
0
 62
     7
370
    35
100
AcDbLine
 10
572.420715
 20
473.671234
 30
0.0
 11
572.420715
 21
473.841644
 31
0.0
  0
LINE
  5
370
330
1F
100
AcDbEntity
  8
0
 62
     7
370
    35
100
AcDbLine
 10
572.420715
 20
473.841644
 30
0.0
 11
578.020691
 21
473.841644
 31
0.0
  0
ARC
  5
371
330
1F
100
AcDbEntity
  8
0
 62
     7
370
    35
100
AcDbCircle
 10
575.476685
 20
478.822815
 30
0.0
 40
5.15158274877218
100
AcDbArc
 50
270.002313
 51
273.584009
  0
ARC
  5
372
330
1F
100
AcDbEntity
  8
0
 62
     7
370
    35
100
AcDbCircle
 10
575.476868
 20
478.818451
 30
0.0
 40
5.147222179013254
100
AcDbArc
 50
267.147376
 51
270.000298
  0
ARC
  5
373
330
1F
100
AcDbEntity
  8
0
 62
     7
370
    35
100
AcDbCircle
 10
574.964722
 20
478.822815
 30
0.0
 40
5.151582748752001
100
AcDbArc
 50
266.415992
 51
269.997682
  0
ARC
  5
374
330
1F
100
AcDbEntity
  8
0
 62
     7
370
    35
100
AcDbCircle
 10
574.964539
 20
478.818451
 30
0.0
 40
5.147222179012022
100
AcDbArc
 50
269.999697
 51
272.852619
  0
ARC
  5
375
330
1F
100
AcDbEntity
  8
0
 62
     7
370
    35
100
AcDbCircle
 10
574.319214
 20
478.856506
 30
0.0
 40
5.185288099041432
100
AcDbArc
 50
270.01738
 51
278.446722
  0
ARC
  5
376
330
1F
100
AcDbEntity
  8
0
 62
     7
370
    35
100
AcDbCircle
 10
575.220703
 20
471.929443
 30
0.0
 40
1.803860543245169
100
AcDbArc
 50
85.554027
 51
94.445971
  0
ARC
  5
377
330
1F
100
AcDbEntity
  8
0
 62
     7
370
    35
100
AcDbCircle
 10
576.122192
 20
478.856506
 30
0.0
 40
5.185288099041432
100
AcDbArc
 50
261.55328
 51
269.982615
  0
LINE
  5
378
330
1F
100
AcDbEntity
  8
0
 62
     7
370
    35
100
AcDbLine
 10
575.220703
 20
473.733093
 30
0.0
 11
575.220703
 21
473.677612
 31
0.0
  0
LINE
  5
379
330
1F
100
AcDbEntity
  8
0
 62
     7
370
    35
100
AcDbLine
 10
572.420715
 20
473.671234
 30
0.0
 11
574.320801
 21
473.671234
 31
0.0
  0
LINE
  5
37A
330
1F
100
AcDbEntity
  8
0
 62
     7
370
    35
100
AcDbLine
 10
574.964478
 20
473.671234
 30
0.0
 11
575.476868
 21
473.671234
 31
0.0
  0
LINE
  5
37B
330
1F
100
AcDbEntity
  8
0
 62
     7
370
    35
100
AcDbLine
 10
576.120605
 20
473.671234
 30
0.0
 11
578.020691
 21
473.671234
 31
0.0
  0
LINE
  5
37C
330
1F
100
AcDbEntity
  8
0
 62
     7
370
    35
100
AcDbLine
 10
570.220703
 20
473.841644
 30
0.0
 11
570.220703
 21
474.400604
 31
0.0
  0
LINE
  5
37D
330
1F
100
AcDbEntity
  8
0
 62
     7
370
    35
100
AcDbLine
 10
570.220703
 20
473.671234
 30
0.0
 11
570.220703
 21
473.841644
 31
0.0
  0
LINE
  5
37E
330
1F
100
AcDbEntity
  8
0
 62
     7
370
    35
100
AcDbLine
 10
564.620728
 20
473.841644
 30
0.0
 11
564.620728
 21
474.400604
 31
0.0
  0
LINE
  5
37F
330
1F
100
AcDbEntity
  8
0
 62
     7
370
    35
100
AcDbLine
 10
564.620728
 20
473.671234
 30
0.0
 11
564.620728
 21
473.841644
 31
0.0
  0
LINE
  5
380
330
1F
100
AcDbEntity
  8
0
 62
     7
370
    35
100
AcDbLine
 10
564.620728
 20
473.841644
 30
0.0
 11
570.220703
 21
473.841644
 31
0.0
  0
ARC
  5
381
330
1F
100
AcDbEntity
  8
0
 62
     7
370
    35
100
AcDbCircle
 10
566.52063
 20
478.82193
 30
0.0
 40
5.150708013030393
100
AcDbArc
 50
270.001603
 51
273.584447
  0
ARC
  5
382
330
1F
100
AcDbEntity
  8
0
 62
     7
370
    35
100
AcDbCircle
 10
566.521973
 20
478.850098
 30
0.0
 40
5.178886744455086
100
AcDbArc
 50
262.217516
 51
269.986931
  0
LINE
  5
383
330
1F
100
AcDbEntity
  8
0
 62
     7
370
    35
100
AcDbLine
 10
566.464478
 20
473.718903
 30
0.0
 11
565.820679
 21
473.718903
 31
0.0
  0
ARC
  5
384
330
1F
100
AcDbEntity
  8
0
 62
     7
370
    35
100
AcDbCircle
 10
567.165771
 20
478.850464
 30
0.0
 40
5.179257677476423
100
AcDbArc
 50
262.217899
 51
269.985873
  0
ARC
  5
385
330
1F
100
AcDbEntity
  8
0
 62
     7
370
    35
100
AcDbCircle
 10
567.675598
 20
478.850464
 30
0.0
 40
5.179257677474197
100
AcDbArc
 50
270.014129
 51
277.782103
  0
LINE
  5
386
330
1F
100
AcDbEntity
  8
0
 62
     7
370
    35
100
AcDbLine
 10
569.020691
 20
473.718903
 30
0.0
 11
568.376953
 21
473.718903
 31
0.0
  0
ARC
  5
387
330
1F
100
AcDbEntity
  8
0
 62
     7
370
    35
100
AcDbCircle
 10
568.32074
 20
478.82193
 30
0.0
 40
5.150708013052347
100
AcDbArc
 50
266.415548
 51
269.998399
  0
ARC
  5
388
330
1F
100
AcDbEntity
  8
0
 62
     7
370
    35
100
AcDbCircle
 10
568.319397
 20
478.850098
 30
0.0
 40
5.178886744455086
100
AcDbArc
 50
270.01307
 51
277.782479
  0
LINE
  5
389
330
1F
100
AcDbEntity
  8
0
 62
     7
370
    35
100
AcDbLine
 10
564.620728
 20
473.671234
 30
0.0
 11
566.520813
 21
473.671234
 31
0.0
  0
LINE
  5
38A
330
1F
100
AcDbEntity
  8
0
 62
     7
370
    35
100
AcDbLine
 10
567.16449
 20
473.671234
 30
0.0
 11
567.67688
 21
473.671234
 31
0.0
  0
LINE
  5
38B
330
1F
100
AcDbEntity
  8
0
 62
     7
370
    35
100
AcDbLine
 10
568.320557
 20
473.671234
 30
0.0
 11
570.220703
 21
473.671234
 31
0.0
  0
LINE
  5
38C
330
1F
100
AcDbEntity
  8
0
 62
     7
370
    35
100
AcDbLine
 10
560.420715
 20
504.971222
 30
0.0
 11
561.120728
 21
504.971222
 31
0.0
  0
LINE
  5
38D
330
1F
100
AcDbEntity
  8
0
 62
     7
370
    35
100
AcDbLine
 10
573.720703
 20
504.971222
 30
0.0
 11
574.420715
 21
504.971222
 31
0.0
  0
LINE
  5
38E
330
1F
100
AcDbEntity
  8
0
 62
     7
370
    35
100
AcDbLine
 10
560.420715
 20
505.971222
 30
0.0
 11
561.120728
 21
505.971222
 31
0.0
  0
LINE
  5
38F
330
1F
100
AcDbEntity
  8
0
 62
     7
370
    35
100
AcDbLine
 10
573.720703
 20
505.971222
 30
0.0
 11
574.420715
 21
505.971222
 31
0.0
  0
LINE
  5
390
330
1F
100
AcDbEntity
  8
0
 62
     7
370
    35
100
AcDbLine
 10
560.420715
 20
506.971222
 30
0.0
 11
561.120728
 21
506.971222
 31
0.0
  0
LINE
  5
391
330
1F
100
AcDbEntity
  8
0
 62
     7
370
    35
100
AcDbLine
 10
573.720703
 20
506.971222
 30
0.0
 11
574.420715
 21
506.971222
 31
0.0
  0
LINE
  5
392
330
1F
100
AcDbEntity
  8
0
 62
     7
370
    35
100
AcDbLine
 10
563.420715
 20
510.971222
 30
0.0
 11
564.420715
 21
510.971222
 31
0.0
  0
LINE
  5
393
330
1F
100
AcDbEntity
  8
0
 62
     7
370
    35
100
AcDbLine
 10
570.420715
 20
510.971222
 30
0.0
 11
571.420715
 21
510.971222
 31
0.0
  0
LINE
  5
394
330
1F
100
AcDbEntity
  8
0
 62
     7
370
    35
100
AcDbLine
 10
563.414429
 20
511.971222
 30
0.0
 11
571.427002
 21
511.971222
 31
0.0
  0
LINE
  5
395
330
1F
100
AcDbEntity
  8
0
 62
     7
370
    35
100
AcDbLine
 10
560.420715
 20
512.971191
 30
0.0
 11
574.420715
 21
512.971191
 31
0.0
  0
LINE
  5
396
330
1F
100
AcDbEntity
  8
0
 62
     7
370
    35
100
AcDbLine
 10
560.420715
 20
513.971191
 30
0.0
 11
574.420715
 21
513.971191
 31
0.0
  0
LINE
  5
397
330
1F
100
AcDbEntity
  8
0
 62
     7
370
    35
100
AcDbLine
 10
560.420715
 20
514.971191
 30
0.0
 11
574.420715
 21
514.971191
 31
0.0
  0
LINE
  5
398
330
1F
100
AcDbEntity
  8
0
 62
     7
370
    35
100
AcDbLine
 10
560.420715
 20
515.971191
 30
0.0
 11
574.420715
 21
515.971191
 31
0.0
  0
LINE
  5
399
330
1F
100
AcDbEntity
  8
0
 62
     7
370
    35
100
AcDbLine
 10
561.120728
 20
516.971191
 30
0.0
 11
573.720703
 21
516.971191
 31
0.0
  0
LINE
  5
39A
330
1F
100
AcDbEntity
  8
0
 62
     7
370
    35
100
AcDbLine
 10
573.720703
 20
517.77124
 30
0.0
 11
561.120728
 21
517.77124
 31
0.0
  0
LINE
  5
39B
330
1F
100
AcDbEntity
  8
0
 62
     7
370
    35
100
AcDbLine
 10
561.120728
 20
519.971191
 30
0.0
 11
561.120728
 21
517.971191
 31
0.0
  0
LINE
  5
39C
330
1F
100
AcDbEntity
  8
0
 62
     7
370
    35
100
AcDbLine
 10
573.720703
 20
519.971191
 30
0.0
 11
573.720703
 21
523.971191
 31
0.0
  0
LINE
  5
39D
330
1F
100
AcDbEntity
  8
0
 62
     7
370
    35
100
AcDbLine
 10
561.120728
 20
519.971191
 30
0.0
 11
561.120728
 21
523.971191
 31
0.0
  0
LINE
  5
39E
330
1F
100
AcDbEntity
  8
0
 62
     7
370
    35
100
AcDbLine
 10
573.720703
 20
519.971191
 30
0.0
 11
573.720703
 21
517.971191
 31
0.0
  0
LINE
  5
39F
330
1F
100
AcDbEntity
  8
0
 62
     7
370
    35
100
AcDbLine
 10
589.420715
 20
512.971191
 30
0.0
 11
589.420715
 21
503.971222
 31
0.0
  0
LINE
  5
3A0
330
1F
100
AcDbEntity
  8
0
 62
     7
370
    35
100
AcDbLine
 10
545.420715
 20
512.971191
 30
0.0
 11
545.420715
 21
503.971222
 31
0.0
  0
LINE
  5
3A1
330
1F
100
AcDbEntity
  8
0
 62
     7
370
    35
100
AcDbLine
 10
561.120728
 20
523.971191
 30
0.0
 11
573.720703
 21
523.971191
 31
0.0
  0
LINE
  5
3A2
330
1F
100
AcDbEntity
  8
0
 62
     7
370
    35
100
AcDbLine
 10
573.720703
 20
517.971191
 30
0.0
 11
573.720703
 21
516.971191
 31
0.0
  0
LINE
  5
3A3
330
1F
100
AcDbEntity
  8
0
 62
     7
370
    35
100
AcDbLine
 10
574.420715
 20
515.971191
 30
0.0
 11
574.420715
 21
516.971191
 31
0.0
  0
LINE
  5
3A4
330
1F
100
AcDbEntity
  8
0
 62
     7
370
    35
100
AcDbLine
 10
574.420715
 20
514.971191
 30
0.0
 11
574.420715
 21
515.971191
 31
0.0
  0
LINE
  5
3A5
330
1F
100
AcDbEntity
  8
0
 62
     7
370
    35
100
AcDbLine
 10
574.420715
 20
513.971191
 30
0.0
 11
574.420715
 21
514.971191
 31
0.0
  0
LINE
  5
3A6
330
1F
100
AcDbEntity
  8
0
 62
     7
370
    35
100
AcDbLine
 10
574.420715
 20
512.971191
 30
0.0
 11
574.420715
 21
513.971191
 31
0.0
  0
LINE
  5
3A7
330
1F
100
AcDbEntity
  8
0
 62
     7
370
    35
100
AcDbLine
 10
574.420715
 20
511.99353
 30
0.0
 11
574.420715
 21
512.971191
 31
0.0
  0
LINE
  5
3A8
330
1F
100
AcDbEntity
  8
0
 62
     7
370
    35
100
AcDbLine
 10
574.420715
 20
506.971222
 30
0.0
 11
574.420715
 21
507.897583
 31
0.0
  0
LINE
  5
3A9
330
1F
100
AcDbEntity
  8
0
 62
     7
370
    35
100
AcDbLine
 10
574.420715
 20
505.971222
 30
0.0
 11
574.420715
 21
506.971222
 31
0.0
  0
LINE
  5
3AA
330
1F
100
AcDbEntity
  8
0
 62
     7
370
    35
100
AcDbLine
 10
574.420715
 20
504.971222
 30
0.0
 11
574.420715
 21
505.971222
 31
0.0
  0
LINE
  5
3AB
330
1F
100
AcDbEntity
  8
0
 62
     7
370
    35
100
AcDbLine
 10
574.420715
 20
503.971222
 30
0.0
 11
574.420715
 21
504.971222
 31
0.0
  0
LINE
  5
3AC
330
1F
100
AcDbEntity
  8
0
 62
     7
370
    35
100
AcDbLine
 10
560.420715
 20
503.971222
 30
0.0
 11
561.120728
 21
503.971222
 31
0.0
  0
LINE
  5
3AD
330
1F
100
AcDbEntity
  8
0
 62
     7
370
    35
100
AcDbLine
 10
563.228455
 20
503.971222
 30
0.0
 11
564.412964
 21
503.971222
 31
0.0
  0
LINE
  5
3AE
330
1F
100
AcDbEntity
  8
0
 62
     7
370
    35
100
AcDbLine
 10
566.828491
 20
503.971222
 30
0.0
 11
568.012939
 21
503.971222
 31
0.0
  0
LINE
  5
3AF
330
1F
100
AcDbEntity
  8
0
 62
     7
370
    35
100
AcDbLine
 10
570.428467
 20
503.971222
 30
0.0
 11
571.612915
 21
503.971222
 31
0.0
  0
LINE
  5
3B0
330
1F
100
AcDbEntity
  8
0
 62
     7
370
    35
100
AcDbLine
 10
573.720703
 20
503.971222
 30
0.0
 11
574.420715
 21
503.971222
 31
0.0
  0
LINE
  5
3B1
330
1F
100
AcDbEntity
  8
0
 62
     7
370
    35
100
AcDbLine
 10
560.420715
 20
503.971222
 30
0.0
 11
560.420715
 21
504.971222
 31
0.0
  0
LINE
  5
3B2
330
1F
100
AcDbEntity
  8
0
 62
     7
370
    35
100
AcDbLine
 10
560.420715
 20
504.971222
 30
0.0
 11
560.420715
 21
505.971222
 31
0.0
  0
LINE
  5
3B3
330
1F
100
AcDbEntity
  8
0
 62
     7
370
    35
100
AcDbLine
 10
560.420715
 20
505.971222
 30
0.0
 11
560.420715
 21
506.971222
 31
0.0
  0
LINE
  5
3B4
330
1F
100
AcDbEntity
  8
0
 62
     7
370
    35
100
AcDbLine
 10
560.420715
 20
506.971222
 30
0.0
 11
560.420715
 21
507.897583
 31
0.0
  0
LINE
  5
3B5
330
1F
100
AcDbEntity
  8
0
 62
     7
370
    35
100
AcDbLine
 10
560.420715
 20
511.99353
 30
0.0
 11
560.420715
 21
512.971191
 31
0.0
  0
LINE
  5
3B6
330
1F
100
AcDbEntity
  8
0
 62
     7
370
    35
100
AcDbLine
 10
560.420715
 20
512.971191
 30
0.0
 11
560.420715
 21
513.971191
 31
0.0
  0
LINE
  5
3B7
330
1F
100
AcDbEntity
  8
0
 62
     7
370
    35
100
AcDbLine
 10
560.420715
 20
513.971191
 30
0.0
 11
560.420715
 21
514.971191
 31
0.0
  0
LINE
  5
3B8
330
1F
100
AcDbEntity
  8
0
 62
     7
370
    35
100
AcDbLine
 10
560.420715
 20
514.971191
 30
0.0
 11
560.420715
 21
515.971191
 31
0.0
  0
LINE
  5
3B9
330
1F
100
AcDbEntity
  8
0
 62
     7
370
    35
100
AcDbLine
 10
560.420715
 20
515.971191
 30
0.0
 11
560.420715
 21
516.971191
 31
0.0
  0
LINE
  5
3BA
330
1F
100
AcDbEntity
  8
0
 62
     7
370
    35
100
AcDbLine
 10
573.720703
 20
516.971191
 30
0.0
 11
574.420715
 21
516.971191
 31
0.0
  0
LINE
  5
3BB
330
1F
100
AcDbEntity
  8
0
 62
     7
370
    35
100
AcDbLine
 10
560.420715
 20
516.971191
 30
0.0
 11
561.120728
 21
516.971191
 31
0.0
  0
LINE
  5
3BC
330
1F
100
AcDbEntity
  8
0
 62
     7
370
    35
100
AcDbLine
 10
561.120728
 20
517.971191
 30
0.0
 11
561.120728
 21
516.971191
 31
0.0
  0
LINE
  5
3BD
330
1F
100
AcDbEntity
  8
0
 62
     7
370
    35
100
AcDbLine
 10
546.220703
 20
503.971222
 30
0.0
 11
546.220703
 21
512.971191
 31
0.0
  0
LINE
  5
3BE
330
1F
100
AcDbEntity
  8
0
 62
     7
370
    35
100
AcDbLine
 10
588.620728
 20
503.971222
 30
0.0
 11
588.620728
 21
512.971191
 31
0.0
  0
LINE
  5
3BF
330
1F
100
AcDbEntity
  8
0
 62
     7
370
    35
100
AcDbLine
 10
559.420715
 20
481.371216
 30
0.0
 11
559.420715
 21
480.77121
 31
0.0
  0
ARC
  5
3C0
330
1F
100
AcDbEntity
  8
0
 62
     7
370
    35
100
AcDbCircle
 10
559.720703
 20
480.77121
 30
0.0
 40
0.2999999999999998
100
AcDbArc
 50
180.000005
 51
269.999997
  0
LINE
  5
3C1
330
1F
100
AcDbEntity
  8
0
 62
     7
370
    35
100
AcDbLine
 10
559.720703
 20
480.471222
 30
0.0
 11
564.120728
 21
480.471222
 31
0.0
  0
ARC
  5
3C2
330
1F
100
AcDbEntity
  8
0
 62
     7
370
    35
100
AcDbCircle
 10
564.120728
 20
480.77121
 30
0.0
 40
0.2999999999999998
100
AcDbArc
 50
269.999997
 51
360.0
  0
LINE
  5
3C3
330
1F
100
AcDbEntity
  8
0
 62
     7
370
    35
100
AcDbLine
 10
564.420715
 20
481.371216
 30
0.0
 11
564.420715
 21
480.77121
 31
0.0
  0
ARC
  5
3C4
330
1F
100
AcDbEntity
  8
0
 62
     7
370
    35
100
AcDbCircle
 10
564.120728
 20
481.371216
 30
0.0
 40
0.2999999999999998
100
AcDbArc
 50
0.0
 51
90.000003
  0
LINE
  5
3C5
330
1F
100
AcDbEntity
  8
0
 62
     7
370
    35
100
AcDbLine
 10
559.720703
 20
481.671234
 30
0.0
 11
564.120728
 21
481.671234
 31
0.0
  0
ARC
  5
3C6
330
1F
100
AcDbEntity
  8
0
 62
     7
370
    35
100
AcDbCircle
 10
559.720703
 20
481.371216
 30
0.0
 40
0.2999999999999998
100
AcDbArc
 50
90.000003
 51
180.000005
  0
LINE
  5
3C7
330
1F
100
AcDbEntity
  8
0
 62
     7
370
    35
100
AcDbLine
 10
570.720703
 20
481.671234
 30
0.0
 11
575.120728
 21
481.671234
 31
0.0
  0
ARC
  5
3C8
330
1F
100
AcDbEntity
  8
0
 62
     7
370
    35
100
AcDbCircle
 10
570.720703
 20
481.371216
 30
0.0
 40
0.2999999999999998
100
AcDbArc
 50
90.000003
 51
180.000005
  0
LINE
  5
3C9
330
1F
100
AcDbEntity
  8
0
 62
     7
370
    35
100
AcDbLine
 10
570.420715
 20
481.371216
 30
0.0
 11
570.420715
 21
480.77121
 31
0.0
  0
ARC
  5
3CA
330
1F
100
AcDbEntity
  8
0
 62
     7
370
    35
100
AcDbCircle
 10
570.720703
 20
480.77121
 30
0.0
 40
0.2999999999999998
100
AcDbArc
 50
180.000005
 51
269.999997
  0
LINE
  5
3CB
330
1F
100
AcDbEntity
  8
0
 62
     7
370
    35
100
AcDbLine
 10
570.720703
 20
480.471222
 30
0.0
 11
575.120728
 21
480.471222
 31
0.0
  0
ARC
  5
3CC
330
1F
100
AcDbEntity
  8
0
 62
     7
370
    35
100
AcDbCircle
 10
575.120728
 20
480.77121
 30
0.0
 40
0.2999999999999998
100
AcDbArc
 50
269.999997
 51
360.0
  0
LINE
  5
3CD
330
1F
100
AcDbEntity
  8
0
 62
     7
370
    35
100
AcDbLine
 10
575.420715
 20
481.371216
 30
0.0
 11
575.420715
 21
480.77121
 31
0.0
  0
ARC
  5
3CE
330
1F
100
AcDbEntity
  8
0
 62
     7
370
    35
100
AcDbCircle
 10
575.120728
 20
481.371216
 30
0.0
 40
0.2999999999999998
100
AcDbArc
 50
0.0
 51
90.000003
  0
LINE
  5
3CF
330
1F
100
AcDbEntity
  8
0
 62
     7
370
    35
100
AcDbLine
 10
589.920715
 20
478.471222
 30
0.0
 11
591.420715
 21
478.471222
 31
0.0
  0
LINE
  5
3D0
330
1F
100
AcDbEntity
  8
0
 62
     7
370
    35
100
AcDbLine
 10
544.920715
 20
478.471222
 30
0.0
 11
589.920715
 21
478.471222
 31
0.0
  0
LINE
  5
3D1
330
1F
100
AcDbEntity
  8
0
 62
     7
370
    35
100
AcDbLine
 10
543.420715
 20
478.471222
 30
0.0
 11
544.920715
 21
478.471222
 31
0.0
  0
LINE
  5
3D2
330
1F
100
AcDbEntity
  8
0
 62
     7
370
    35
100
AcDbLine
 10
589.220703
 20
503.971222
 30
0.0
 11
588.620728
 21
503.971222
 31
0.0
  0
LINE
  5
3D3
330
1F
100
AcDbEntity
  8
0
 62
     7
370
    35
100
AcDbLine
 10
589.220703
 20
503.971222
 30
0.0
 11
589.720703
 21
503.971222
 31
0.0
  0
LINE
  5
3D4
330
1F
100
AcDbEntity
  8
0
 62
     7
370
    35
100
AcDbLine
 10
589.720703
 20
512.971191
 30
0.0
 11
589.720703
 21
503.971222
 31
0.0
  0
LINE
  5
3D5
330
1F
100
AcDbEntity
  8
0
 62
     7
370
    35
100
AcDbLine
 10
589.220703
 20
512.971191
 30
0.0
 11
589.720703
 21
512.971191
 31
0.0
  0
LINE
  5
3D6
330
1F
100
AcDbEntity
  8
0
 62
     7
370
    35
100
AcDbLine
 10
589.220703
 20
512.971191
 30
0.0
 11
588.620728
 21
512.971191
 31
0.0
  0
LINE
  5
3D7
330
1F
100
AcDbEntity
  8
0
 62
     7
370
    35
100
AcDbLine
 10
589.720703
 20
512.971191
 30
0.0
 11
589.720703
 21
546.27124
 31
0.0
  0
ARC
  5
3D8
330
1F
100
AcDbEntity
  8
0
 62
     7
370
    35
100
AcDbCircle
 10
589.220703
 20
546.27124
 30
0.0
 40
0.4999991223469916
100
AcDbArc
 50
269.999922
 51
0.000028
  0
ARC
  5
3D9
330
1F
100
AcDbEntity
  8
0
 62
     7
370
    35
100
AcDbCircle
 10
588.720703
 20
561.471191
 30
0.0
 40
1.0
100
AcDbArc
 50
0.0
 51
78.463007
  0
ARC
  5
3DA
330
1F
100
AcDbEntity
  8
0
 62
     7
370
    35
100
AcDbCircle
 10
546.120728
 20
561.471191
 30
0.0
 40
1.0
100
AcDbArc
 50
101.53693
 51
180.000005
  0
LINE
  5
3DB
330
1F
100
AcDbEntity
  8
0
 62
     7
370
    35
100
AcDbLine
 10
545.120728
 20
561.471191
 30
0.0
 11
545.120728
 21
546.471191
 31
0.0
  0
LINE
  5
3DC
330
1F
100
AcDbEntity
  8
0
 62
     7
370
    35
100
AcDbLine
 10
545.120728
 20
546.471191
 30
0.0
 11
589.720703
 21
546.471191
 31
0.0
  0
LINE
  5
3DD
330
1F
100
AcDbEntity
  8
0
 62
     7
370
    35
100
AcDbLine
 10
589.720703
 20
561.471191
 30
0.0
 11
589.720703
 21
546.471191
 31
0.0
  0
LINE
  5
3DE
330
1F
100
AcDbEntity
  8
0
 62
     7
370
    35
100
AcDbLine
 10
589.720703
 20
546.27124
 30
0.0
 11
589.720703
 21
546.471191
 31
0.0
  0
LINE
  5
3DF
330
1F
100
AcDbEntity
  8
0
 62
     7
370
    35
100
AcDbLine
 10
545.120728
 20
546.27124
 30
0.0
 11
545.120728
 21
546.471191
 31
0.0
  0
ARC
  5
3E0
330
1F
100
AcDbEntity
  8
0
 62
     7
370
    35
100
AcDbCircle
 10
545.620728
 20
546.27124
 30
0.0
 40
0.4999991171542787
100
AcDbArc
 50
179.999978
 51
270.000073
  0
LINE
  5
3E1
330
1F
100
AcDbEntity
  8
0
 62
     7
370
    35
100
AcDbLine
 10
589.220703
 20
545.77124
 30
0.0
 11
545.620728
 21
545.77124
 31
0.0
  0
LINE
  5
3E2
330
1F
100
AcDbEntity
  8
0
 62
     7
370
    35
100
AcDbLine
 10
545.120728
 20
512.971191
 30
0.0
 11
545.120728
 21
546.27124
 31
0.0
  0
LINE
  5
3E3
330
1F
100
AcDbEntity
  8
0
 62
     7
370
    35
100
AcDbLine
 10
545.120728
 20
512.971191
 30
0.0
 11
545.620728
 21
512.971191
 31
0.0
  0
LINE
  5
3E4
330
1F
100
AcDbEntity
  8
0
 62
     7
370
    35
100
AcDbLine
 10
545.620728
 20
512.971191
 30
0.0
 11
546.220703
 21
512.971191
 31
0.0
  0
LINE
  5
3E5
330
1F
100
AcDbEntity
  8
0
 62
     7
370
    35
100
AcDbLine
 10
545.120728
 20
512.971191
 30
0.0
 11
545.120728
 21
503.971222
 31
0.0
  0
LINE
  5
3E6
330
1F
100
AcDbEntity
  8
0
 62
     7
370
    35
100
AcDbLine
 10
545.620728
 20
503.971222
 30
0.0
 11
546.220703
 21
503.971222
 31
0.0
  0
LINE
  5
3E7
330
1F
100
AcDbEntity
  8
0
 62
     7
370
    35
100
AcDbLine
 10
545.120728
 20
503.971222
 30
0.0
 11
545.620728
 21
503.971222
 31
0.0
  0
LINE
  5
3E8
330
1F
100
AcDbEntity
  8
0
 62
     7
370
    35
100
AcDbLine
 10
589.720703
 20
482.471222
 30
0.0
 11
589.720703
 21
488.293518
 31
0.0
  0
LINE
  5
3E9
330
1F
100
AcDbEntity
  8
0
 62
     7
370
    35
100
AcDbLine
 10
589.720703
 20
490.093536
 30
0.0
 11
589.720703
 21
493.49353
 31
0.0
  0
LINE
  5
3EA
330
1F
100
AcDbEntity
  8
0
 62
     7
370
    35
100
AcDbLine
 10
589.720703
 20
495.093536
 30
0.0
 11
589.720703
 21
498.49353
 31
0.0
  0
LINE
  5
3EB
330
1F
100
AcDbEntity
  8
0
 62
     7
370
    35
100
AcDbLine
 10
589.720703
 20
500.293518
 30
0.0
 11
589.720703
 21
503.971222
 31
0.0
  0
LINE
  5
3EC
330
1F
100
AcDbEntity
  8
0
 62
     7
370
    35
100
AcDbLine
 10
545.120728
 20
482.471222
 30
0.0
 11
545.120728
 21
488.293518
 31
0.0
  0
LINE
  5
3ED
330
1F
100
AcDbEntity
  8
0
 62
     7
370
    35
100
AcDbLine
 10
545.120728
 20
490.093536
 30
0.0
 11
545.120728
 21
493.49353
 31
0.0
  0
LINE
  5
3EE
330
1F
100
AcDbEntity
  8
0
 62
     7
370
    35
100
AcDbLine
 10
545.120728
 20
495.093536
 30
0.0
 11
545.120728
 21
498.49353
 31
0.0
  0
LINE
  5
3EF
330
1F
100
AcDbEntity
  8
0
 62
     7
370
    35
100
AcDbLine
 10
545.120728
 20
500.293518
 30
0.0
 11
545.120728
 21
503.971222
 31
0.0
  0
LINE
  5
3F0
330
1F
100
AcDbEntity
  8
0
 62
     7
370
    35
100
AcDbLine
 10
543.420715
 20
482.471222
 30
0.0
 11
544.920715
 21
482.471222
 31
0.0
  0
LINE
  5
3F1
330
1F
100
AcDbEntity
  8
0
 62
     7
370
    35
100
AcDbLine
 10
543.420715
 20
478.471222
 30
0.0
 11
543.420715
 21
482.471222
 31
0.0
  0
LINE
  5
3F2
330
1F
100
AcDbEntity
  8
0
 62
     7
370
    35
100
AcDbLine
 10
544.920715
 20
482.471222
 30
0.0
 11
589.920715
 21
482.471222
 31
0.0
  0
LINE
  5
3F3
330
1F
100
AcDbEntity
  8
0
 62
     7
370
    35
100
AcDbLine
 10
589.920715
 20
482.471222
 30
0.0
 11
591.420715
 21
482.471222
 31
0.0
  0
LINE
  5
3F4
330
1F
100
AcDbEntity
  8
0
 62
     7
370
    35
100
AcDbLine
 10
591.420715
 20
478.471222
 30
0.0
 11
591.420715
 21
482.471222
 31
0.0
  0
LINE
  5
3F5
330
1F
100
AcDbEntity
  8
0
  6
PHANTOM
 62
     4
 48
0.025
370
    35
100
AcDbLine
 10
585.920715
 20
575.971191
 30
0.0
 11
585.920715
 21
574.971191
 31
0.0
  0
LINE
  5
3F6
330
1F
100
AcDbEntity
  8
0
  6
PHANTOM
 62
     4
 48
0.46875
370
    35
100
AcDbLine
 10
585.920715
 20
574.971191
 30
0.0
 11
567.170715
 21
574.971191
 31
0.0
  0
ARC
  5
3F7
330
1F
100
AcDbEntity
  8
0
  6
PHANTOM
 62
     4
370
    35
100
AcDbCircle
 10
567.170715
 20
570.721191
 30
0.0
 40
4.25
100
AcDbArc
 50
90.000003
 51
166.391044
  0
LINE
  5
3F8
330
1F
100
AcDbEntity
  8
0
  6
PHANTOM
 62
     4
 48
0.02558
370
    35
100
AcDbLine
 10
563.040039
 20
571.721191
 30
0.0
 11
562.016846
 21
571.721191
 31
0.0
  0
ARC
  5
3F9
330
1F
100
AcDbEntity
  8
0
  6
PHANTOM
 62
     4
370
    35
100
AcDbCircle
 10
567.170715
 20
570.721191
 30
0.0
 40
5.25
100
AcDbArc
 50
90.000003
 51
169.019424
  0
ARC
  5
3FA
330
1F
100
AcDbEntity
  8
0
  6
PHANTOM
 62
     4
370
    35
100
AcDbCircle
 10
567.170715
 20
570.721191
 30
0.0
 40
5.25
100
AcDbArc
 50
190.980576
 51
269.999997
  0
LINE
  5
3FB
330
1F
100
AcDbEntity
  8
0
  6
PHANTOM
 62
     4
 48
0.02558
370
    35
100
AcDbLine
 10
562.016846
 20
569.721191
 30
0.0
 11
563.040039
 21
569.721191
 31
0.0
  0
ARC
  5
3FC
330
1F
100
AcDbEntity
  8
0
  6
PHANTOM
 62
     4
370
    35
100
AcDbCircle
 10
567.170715
 20
570.721191
 30
0.0
 40
4.25
100
AcDbArc
 50
193.608956
 51
269.999997
  0
LINE
  5
3FD
330
1F
100
AcDbEntity
  8
0
  6
PHANTOM
 62
     4
 48
0.46875
370
    35
100
AcDbLine
 10
567.170715
 20
566.471191
 30
0.0
 11
585.920715
 21
566.471191
 31
0.0
  0
LINE
  5
3FE
330
1F
100
AcDbEntity
  8
0
  6
PHANTOM
 62
     4
 48
0.025
370
    35
100
AcDbLine
 10
585.920715
 20
566.471191
 30
0.0
 11
585.920715
 21
565.471191
 31
0.0
  0
LINE
  5
3FF
330
1F
100
AcDbEntity
  8
0
  6
PHANTOM
 62
     4
 48
0.46875
370
    35
100
AcDbLine
 10
567.170715
 20
565.471191
 30
0.0
 11
585.920715
 21
565.471191
 31
0.0
  0
LINE
  5
400
330
1F
100
AcDbEntity
  8
0
  6
PHANTOM
 62
     4
370
    35
100
AcDbLine
 10
546.620728
 20
547.471191
 30
0.0
 11
588.220703
 21
547.471191
 31
0.0
  0
ARC
  5
401
330
1F
100
AcDbEntity
  8
0
  6
PHANTOM
 62
     4
370
    35
100
AcDbCircle
 10
588.220703
 20
548.171204
 30
0.0
 40
0.6999999999999993
100
AcDbArc
 50
269.999997
 51
360.0
  0
ARC
  5
402
330
1F
100
AcDbEntity
  8
0
  6
PHANTOM
 62
     4
370
    35
100
AcDbCircle
 10
557.920715
 20
565.471191
 30
0.0
 40
12.0
100
AcDbArc
 50
90.000003
 51
179.999995
  0
ARC
  5
403
330
1F
100
AcDbEntity
  8
0
  6
PHANTOM
 62
     4
370
    35
100
AcDbCircle
 10
546.620728
 20
548.171204
 30
0.0
 40
0.6999999999999993
100
AcDbArc
 50
180.000005
 51
269.999997
  0
LINE
  5
404
330
1F
100
AcDbEntity
  8
0
  6
PHANTOM
 62
     4
 48
0.4325
370
    35
100
AcDbLine
 10
545.920715
 20
548.171204
 30
0.0
 11
545.920715
 21
565.471191
 31
0.0
  0
LINE
  5
405
330
1F
100
AcDbEntity
  8
0
  6
PHANTOM
 62
     4
370
    35
100
AcDbLine
 10
557.920715
 20
577.471191
 30
0.0
 11
588.220703
 21
577.471191
 31
0.0
  0
LINE
  5
406
330
1F
100
AcDbEntity
  8
0
  6
PHANTOM
 62
     4
370
    35
100
AcDbLine
 10
588.920715
 20
548.171204
 30
0.0
 11
588.920715
 21
576.77124
 31
0.0
  0
LINE
  5
407
330
1F
100
AcDbEntity
  8
0
  6
PHANTOM
 62
     4
 48
0.46875
370
    35
100
AcDbLine
 10
585.920715
 20
575.971191
 30
0.0
 11
567.170715
 21
575.971191
 31
0.0
  0
ARC
  5
408
330
1F
100
AcDbEntity
  8
0
  6
PHANTOM
 62
     4
370
    35
100
AcDbCircle
 10
588.220703
 20
576.77124
 30
0.0
 40
0.6999999999999994
100
AcDbArc
 50
0.0
 51
90.000003
  0
ARC
  5
409
330
1F
100
AcDbEntity
  8
0
  6
PHANTOM
 62
     4
370
    35
100
AcDbCircle
 10
574.420715
 20
565.471191
 30
0.0
 40
10.5
100
AcDbArc
 50
167.646133
 51
174.078026
  0
ARC
  5
40A
330
1F
100
AcDbEntity
  8
0
  6
PHANTOM
 62
     4
370
    35
100
AcDbCircle
 10
574.420715
 20
565.471191
 30
0.0
 40
10.5
100
AcDbArc
 50
90.142269
 51
115.209186
  0
LINE
  5
40B
330
1F
100
AcDbEntity
  8
0
  6
PHANTOM
 62
     4
 48
0.15
370
    35
100
AcDbLine
 10
570.420715
 20
510.99353
 30
0.0
 11
564.420715
 21
510.99353
 31
0.0
  0
LINE
  5
40C
330
1F
100
AcDbEntity
  8
0
  6
PHANTOM
 62
     4
 48
0.020627
370
    35
100
AcDbLine
 10
570.420715
 20
510.168457
 30
0.0
 11
570.420715
 21
510.99353
 31
0.0
  0
LINE
  5
40D
330
1F
100
AcDbEntity
  8
0
  6
PHANTOM
 62
     4
 48
0.020627
370
    35
100
AcDbLine
 10
564.420715
 20
510.168457
 30
0.0
 11
564.420715
 21
510.99353
 31
0.0
  0
LINE
  5
40E
330
1F
100
AcDbEntity
  8
0
  6
PHANTOM
 62
     4
 48
0.3
370
    35
100
AcDbLine
 10
590.920715
 20
488.293518
 30
0.0
 11
590.920715
 21
500.293518
 31
0.0
  0
LINE
  5
40F
330
1F
100
AcDbEntity
  8
0
  6
PHANTOM
 62
     4
 48
0.04
370
    35
100
AcDbLine
 10
588.920715
 20
493.49353
 30
0.0
 11
588.920715
 21
495.093536
 31
0.0
  0
LINE
  5
410
330
1F
100
AcDbEntity
  8
0
  6
PHANTOM
 62
     4
 48
0.022499
370
    35
100
AcDbLine
 10
589.820679
 20
493.49353
 30
0.0
 11
588.920715
 21
493.49353
 31
0.0
  0
LINE
  5
411
330
1F
100
AcDbEntity
  8
0
  6
PHANTOM
 62
     4
 48
0.085
370
    35
100
AcDbLine
 10
589.820679
 20
490.093536
 30
0.0
 11
589.820679
 21
493.49353
 31
0.0
  0
LINE
  5
412
330
1F
100
AcDbEntity
  8
0
  6
PHANTOM
 62
     4
 48
0.022499
370
    35
100
AcDbLine
 10
588.920715
 20
490.093536
 30
0.0
 11
589.820679
 21
490.093536
 31
0.0
  0
LINE
  5
413
330
1F
100
AcDbEntity
  8
0
  6
PHANTOM
 62
     4
 48
0.045
370
    35
100
AcDbLine
 10
588.920715
 20
488.293518
 30
0.0
 11
588.920715
 21
490.093536
 31
0.0
  0
LINE
  5
414
330
1F
100
AcDbEntity
  8
0
  6
PHANTOM
 62
     4
 48
0.05
370
    35
100
AcDbLine
 10
590.920715
 20
488.293518
 30
0.0
 11
588.920715
 21
488.293518
 31
0.0
  0
LINE
  5
415
330
1F
100
AcDbEntity
  8
0
  6
PHANTOM
 62
     4
 48
0.05
370
    35
100
AcDbLine
 10
590.920715
 20
500.293518
 30
0.0
 11
588.920715
 21
500.293518
 31
0.0
  0
LINE
  5
416
330
1F
100
AcDbEntity
  8
0
  6
PHANTOM
 62
     4
 48
0.045
370
    35
100
AcDbLine
 10
588.920715
 20
498.49353
 30
0.0
 11
588.920715
 21
500.293518
 31
0.0
  0
LINE
  5
417
330
1F
100
AcDbEntity
  8
0
  6
PHANTOM
 62
     4
 48
0.022499
370
    35
100
AcDbLine
 10
588.920715
 20
498.49353
 30
0.0
 11
589.820679
 21
498.49353
 31
0.0
  0
LINE
  5
418
330
1F
100
AcDbEntity
  8
0
  6
PHANTOM
 62
     4
 48
0.085
370
    35
100
AcDbLine
 10
589.820679
 20
495.093536
 30
0.0
 11
589.820679
 21
498.49353
 31
0.0
  0
LINE
  5
419
330
1F
100
AcDbEntity
  8
0
  6
PHANTOM
 62
     4
 48
0.022499
370
    35
100
AcDbLine
 10
589.820679
 20
495.093536
 30
0.0
 11
588.920715
 21
495.093536
 31
0.0
  0
LINE
  5
41A
330
1F
100
AcDbEntity
  8
0
  6
PHANTOM
 62
     4
 48
0.075
370
    35
100
AcDbLine
 10
585.920715
 20
500.293518
 30
0.0
 11
588.920715
 21
500.293518
 31
0.0
  0
LINE
  5
41B
330
1F
100
AcDbEntity
  8
0
  6
PHANTOM
 62
     4
 48
0.0125
370
    35
100
AcDbLine
 10
588.920715
 20
495.093536
 30
0.0
 11
588.420715
 21
495.093536
 31
0.0
  0
LINE
  5
41C
330
1F
100
AcDbEntity
  8
0
  6
PHANTOM
 62
     4
 48
0.0125
370
    35
100
AcDbLine
 10
588.920715
 20
498.49353
 30
0.0
 11
588.420715
 21
498.49353
 31
0.0
  0
ARC
  5
41D
330
1F
100
AcDbEntity
  8
0
  6
PHANTOM
 62
     4
370
    35
100
AcDbCircle
 10
570.920715
 20
491.793518
 30
0.0
 40
0.5
100
AcDbArc
 50
86.06873
 51
261.683402
  0
LINE
  5
41E
330
1F
100
AcDbEntity
  8
0
  6
PHANTOM
 62
     4
 48
0.365932
370
    35
100
AcDbLine
 10
585.5578
 20
491.288818
 30
0.0
 11
570.954956
 21
492.292358
 31
0.0
  0
ARC
  5
41F
330
1F
100
AcDbEntity
  8
0
  6
PHANTOM
 62
     4
370
    35
100
AcDbCircle
 10
585.420715
 20
489.293518
 30
0.0
 40
2.0
100
AcDbArc
 50
0.0
 51
86.06873
  0
LINE
  5
420
330
1F
100
AcDbEntity
  8
0
  6
PHANTOM
 62
     4
 48
0.049999
370
    35
100
AcDbLine
 10
587.420715
 20
487.293549
 30
0.0
 11
587.420715
 21
489.293518
 31
0.0
  0
LINE
  5
421
330
1F
100
AcDbEntity
  8
0
  6
PHANTOM
 62
     4
 48
0.0375
370
    35
100
AcDbLine
 10
587.420715
 20
487.293549
 30
0.0
 11
588.920715
 21
487.293549
 31
0.0
  0
LINE
  5
422
330
1F
100
AcDbEntity
  8
0
  6
PHANTOM
 62
     4
 48
0.024999
370
    35
100
AcDbLine
 10
588.920715
 20
487.293549
 30
0.0
 11
588.920715
 21
488.293518
 31
0.0
  0
LINE
  5
423
330
1F
100
AcDbEntity
  8
0
  6
PHANTOM
 62
     4
 48
0.0125
370
    35
100
AcDbLine
 10
588.920715
 20
490.093536
 30
0.0
 11
588.420715
 21
490.093536
 31
0.0
  0
LINE
  5
424
330
1F
100
AcDbEntity
  8
0
  6
PHANTOM
 62
     4
 48
0.0675
370
    35
100
AcDbLine
 10
588.420715
 20
492.793518
 30
0.0
 11
588.420715
 21
490.093536
 31
0.0
  0
LINE
  5
425
330
1F
100
AcDbEntity
  8
0
  6
PHANTOM
 62
     4
 48
0.0125
370
    35
100
AcDbLine
 10
588.920715
 20
493.49353
 30
0.0
 11
588.420715
 21
493.49353
 31
0.0
  0
LINE
  5
426
330
1F
100
AcDbEntity
  8
0
  6
PHANTOM
 62
     4
 48
0.002499
370
    35
100
AcDbLine
 10
589.820679
 20
498.293518
 30
0.0
 11
589.720703
 21
498.293518
 31
0.0
  0
LINE
  5
427
330
1F
100
AcDbEntity
  8
0
  6
PHANTOM
 62
     4
 48
0.002499
370
    35
100
AcDbLine
 10
589.720703
 20
490.293518
 30
0.0
 11
589.820679
 21
490.293518
 31
0.0
  0
LINE
  5
428
330
1F
100
AcDbEntity
  8
0
  6
PHANTOM
 62
     4
 48
0.002499
370
    35
100
AcDbLine
 10
589.820679
 20
493.293518
 30
0.0
 11
589.720703
 21
493.293518
 31
0.0
  0
LINE
  5
429
330
1F
100
AcDbEntity
  8
0
  6
PHANTOM
 62
     4
 48
0.002499
370
    35
100
AcDbLine
 10
589.720703
 20
495.293518
 30
0.0
 11
589.820679
 21
495.293518
 31
0.0
  0
LINE
  5
42A
330
1F
100
AcDbEntity
  8
0
  6
PHANTOM
 62
     4
 48
0.075
370
    35
100
AcDbLine
 10
585.920715
 20
500.293518
 30
0.0
 11
585.920715
 21
497.293518
 31
0.0
  0
LINE
  5
42B
330
1F
100
AcDbEntity
  8
0
  6
PHANTOM
 62
     4
 48
0.085
370
    35
100
AcDbLine
 10
588.420715
 20
495.093536
 30
0.0
 11
588.420715
 21
498.49353
 31
0.0
  0
LINE
  5
42C
330
1F
100
AcDbEntity
  8
0
  6
PHANTOM
 62
     4
 48
0.002499
370
    35
100
AcDbLine
 10
589.720703
 20
495.793518
 30
0.0
 11
589.820679
 21
495.793518
 31
0.0
  0
LINE
  5
42D
330
1F
100
AcDbEntity
  8
0
  6
PHANTOM
 62
     4
 48
0.002499
370
    35
100
AcDbLine
 10
589.720703
 20
490.793518
 30
0.0
 11
589.820679
 21
490.793518
 31
0.0
  0
LINE
  5
42E
330
1F
100
AcDbEntity
  8
0
  6
PHANTOM
 62
     4
 48
0.255
370
    35
100
AcDbLine
 10
560.120728
 20
496.293518
 30
0.0
 11
549.920715
 21
496.293518
 31
0.0
  0
ARC
  5
42F
330
1F
100
AcDbEntity
  8
0
  6
PHANTOM
 62
     4
370
    35
100
AcDbCircle
 10
549.920715
 20
497.293518
 30
0.0
 40
1.0
100
AcDbArc
 50
180.000005
 51
269.999997
  0
LINE
  5
430
330
1F
100
AcDbEntity
  8
0
  6
PHANTOM
 62
     4
 48
0.075
370
    35
100
AcDbLine
 10
548.920715
 20
500.293518
 30
0.0
 11
548.920715
 21
497.293518
 31
0.0
  0
LINE
  5
431
330
1F
100
AcDbEntity
  8
0
  6
PHANTOM
 62
     4
 48
0.05
370
    35
100
AcDbLine
 10
545.920715
 20
500.293518
 30
0.0
 11
543.920715
 21
500.293518
 31
0.0
  0
LINE
  5
432
330
1F
100
AcDbEntity
  8
0
  6
PHANTOM
 62
     4
 48
0.075
370
    35
100
AcDbLine
 10
548.920715
 20
500.293518
 30
0.0
 11
545.920715
 21
500.293518
 31
0.0
  0
LINE
  5
433
330
1F
100
AcDbEntity
  8
0
  6
PHANTOM
 62
     4
 48
0.022501
370
    35
100
AcDbLine
 10
545.920715
 20
493.49353
 30
0.0
 11
545.020691
 21
493.49353
 31
0.0
  0
LINE
  5
434
330
1F
100
AcDbEntity
  8
0
  6
PHANTOM
 62
     4
 48
0.04
370
    35
100
AcDbLine
 10
545.920715
 20
493.49353
 30
0.0
 11
545.920715
 21
495.093536
 31
0.0
  0
LINE
  5
435
330
1F
100
AcDbEntity
  8
0
  6
PHANTOM
 62
     4
 48
0.022501
370
    35
100
AcDbLine
 10
545.920715
 20
495.093536
 30
0.0
 11
545.020691
 21
495.093536
 31
0.0
  0
LINE
  5
436
330
1F
100
AcDbEntity
  8
0
  6
PHANTOM
 62
     4
 48
0.085
370
    35
100
AcDbLine
 10
545.020691
 20
495.093536
 30
0.0
 11
545.020691
 21
498.49353
 31
0.0
  0
LINE
  5
437
330
1F
100
AcDbEntity
  8
0
  6
PHANTOM
 62
     4
 48
0.022501
370
    35
100
AcDbLine
 10
545.920715
 20
498.49353
 30
0.0
 11
545.020691
 21
498.49353
 31
0.0
  0
LINE
  5
438
330
1F
100
AcDbEntity
  8
0
  6
PHANTOM
 62
     4
 48
0.045
370
    35
100
AcDbLine
 10
545.920715
 20
498.49353
 30
0.0
 11
545.920715
 21
500.293518
 31
0.0
  0
LINE
  5
439
330
1F
100
AcDbEntity
  8
0
  6
PHANTOM
 62
     4
 48
0.3
370
    35
100
AcDbLine
 10
543.920715
 20
488.293518
 30
0.0
 11
543.920715
 21
500.293518
 31
0.0
  0
LINE
  5
43A
330
1F
100
AcDbEntity
  8
0
  6
PHANTOM
 62
     4
 48
0.05
370
    35
100
AcDbLine
 10
545.920715
 20
488.293518
 30
0.0
 11
543.920715
 21
488.293518
 31
0.0
  0
LINE
  5
43B
330
1F
100
AcDbEntity
  8
0
  6
PHANTOM
 62
     4
 48
0.045
370
    35
100
AcDbLine
 10
545.920715
 20
490.093536
 30
0.0
 11
545.920715
 21
488.293518
 31
0.0
  0
LINE
  5
43C
330
1F
100
AcDbEntity
  8
0
  6
PHANTOM
 62
     4
 48
0.022501
370
    35
100
AcDbLine
 10
545.920715
 20
490.093536
 30
0.0
 11
545.020691
 21
490.093536
 31
0.0
  0
LINE
  5
43D
330
1F
100
AcDbEntity
  8
0
  6
PHANTOM
 62
     4
 48
0.085
370
    35
100
AcDbLine
 10
545.020691
 20
490.093536
 30
0.0
 11
545.020691
 21
493.49353
 31
0.0
  0
LINE
  5
43E
330
1F
100
AcDbEntity
  8
0
  6
PHANTOM
 62
     4
 48
0.0125
370
    35
100
AcDbLine
 10
545.920715
 20
498.49353
 30
0.0
 11
546.420715
 21
498.49353
 31
0.0
  0
LINE
  5
43F
330
1F
100
AcDbEntity
  8
0
  6
PHANTOM
 62
     4
 48
0.085
370
    35
100
AcDbLine
 10
546.420715
 20
495.093536
 30
0.0
 11
546.420715
 21
498.49353
 31
0.0
  0
LINE
  5
440
330
1F
100
AcDbEntity
  8
0
  6
PHANTOM
 62
     4
 48
0.0125
370
    35
100
AcDbLine
 10
546.420715
 20
495.093536
 30
0.0
 11
545.920715
 21
495.093536
 31
0.0
  0
LINE
  5
441
330
1F
100
AcDbEntity
  8
0
  6
PHANTOM
 62
     4
 48
0.0125
370
    35
100
AcDbLine
 10
546.420715
 20
493.49353
 30
0.0
 11
545.920715
 21
493.49353
 31
0.0
  0
LINE
  5
442
330
1F
100
AcDbEntity
  8
0
  6
PHANTOM
 62
     4
 48
0.0675
370
    35
100
AcDbLine
 10
546.420715
 20
492.793518
 30
0.0
 11
546.420715
 21
490.093536
 31
0.0
  0
LINE
  5
443
330
1F
100
AcDbEntity
  8
0
  6
PHANTOM
 62
     4
 48
0.025
370
    35
100
AcDbLine
 10
546.420715
 20
493.793518
 30
0.0
 11
546.420715
 21
492.793518
 31
0.0
  0
LINE
  5
444
330
1F
100
AcDbEntity
  8
0
  6
PHANTOM
 62
     4
 48
0.025
370
    35
100
AcDbLine
 10
546.420715
 20
494.793518
 30
0.0
 11
546.420715
 21
493.793518
 31
0.0
  0
LINE
  5
445
330
1F
100
AcDbEntity
  8
0
  6
PHANTOM
 62
     4
 48
0.469098
370
    35
100
AcDbLine
 10
565.184631
 20
494.793518
 30
0.0
 11
546.420715
 21
494.793518
 31
0.0
  0
LINE
  5
446
330
1F
100
AcDbEntity
  8
0
  6
PHANTOM
 62
     4
 48
0.0375
370
    35
100
AcDbLine
 10
564.420715
 20
494.793518
 30
0.0
 11
564.420715
 21
496.293518
 31
0.0
  0
LINE
  5
447
330
1F
100
AcDbEntity
  8
0
  6
PHANTOM
 62
     4
 48
0.075
370
    35
100
AcDbLine
 10
567.420715
 20
496.293518
 30
0.0
 11
570.420715
 21
496.293518
 31
0.0
  0
LINE
  5
448
330
1F
100
AcDbEntity
  8
0
  6
PHANTOM
 62
     4
 48
0.075
370
    35
100
AcDbLine
 10
564.420715
 20
496.293518
 30
0.0
 11
567.420715
 21
496.293518
 31
0.0
  0
LINE
  5
449
330
1F
100
AcDbEntity
  8
0
  6
PHANTOM
 62
     4
 48
0.0375
370
    35
100
AcDbLine
 10
570.420715
 20
494.793518
 30
0.0
 11
570.420715
 21
496.293518
 31
0.0
  0
LINE
  5
44A
330
1F
100
AcDbEntity
  8
0
  6
PHANTOM
 62
     4
 48
0.469099
370
    35
100
AcDbLine
 10
588.420715
 20
494.793518
 30
0.0
 11
569.656738
 21
494.793518
 31
0.0
  0
LINE
  5
44B
330
1F
100
AcDbEntity
  8
0
  6
PHANTOM
 62
     4
 48
0.025
370
    35
100
AcDbLine
 10
588.420715
 20
494.793518
 30
0.0
 11
588.420715
 21
493.793518
 31
0.0
  0
LINE
  5
44C
330
1F
100
AcDbEntity
  8
0
  6
PHANTOM
 62
     4
 48
0.025
370
    35
100
AcDbLine
 10
588.420715
 20
493.793518
 30
0.0
 11
588.420715
 21
492.793518
 31
0.0
  0
ARC
  5
44D
330
1F
100
AcDbEntity
  8
0
  6
PHANTOM
 62
     4
370
    35
100
AcDbCircle
 10
584.920715
 20
497.293518
 30
0.0
 40
1.0
100
AcDbArc
 50
269.999997
 51
360.0
  0
LINE
  5
44E
330
1F
100
AcDbEntity
  8
0
  6
PHANTOM
 62
     4
 48
0.255
370
    35
100
AcDbLine
 10
574.720703
 20
496.293518
 30
0.0
 11
584.920715
 21
496.293518
 31
0.0
  0
ARC
  5
44F
330
1F
100
AcDbEntity
  8
0
  6
PHANTOM
 62
     4
370
    35
100
AcDbCircle
 10
567.420715
 20
503.293518
 30
0.0
 40
0.8999999999999999
100
AcDbArc
 50
0.0
 51
180.000005
  0
LINE
  5
450
330
1F
100
AcDbEntity
  8
0
  6
PHANTOM
 62
     4
 48
0.114999
370
    35
100
AcDbLine
 10
568.320679
 20
503.293518
 30
0.0
 11
568.320679
 21
498.693542
 31
0.0
  0
ARC
  5
451
330
1F
100
AcDbEntity
  8
0
  6
PHANTOM
 62
     4
370
    35
100
AcDbCircle
 10
567.420715
 20
498.693542
 30
0.0
 40
0.8999999999999969
100
AcDbArc
 50
180.000005
 51
360.0
  0
LINE
  5
452
330
1F
100
AcDbEntity
  8
0
  6
PHANTOM
 62
     4
 48
0.114999
370
    35
100
AcDbLine
 10
566.520691
 20
498.693542
 30
0.0
 11
566.520691
 21
503.293518
 31
0.0
  0
LINE
  5
453
330
1F
100
AcDbEntity
  8
0
  6
PHANTOM
 62
     4
 48
0.114999
370
    35
100
AcDbLine
 10
570.120728
 20
503.293518
 30
0.0
 11
570.120728
 21
498.693542
 31
0.0
  0
ARC
  5
454
330
1F
100
AcDbEntity
  8
0
  6
PHANTOM
 62
     4
370
    35
100
AcDbCircle
 10
571.020691
 20
503.293518
 30
0.0
 40
0.9000000000000012
100
AcDbArc
 50
360.0
 51
179.999995
  0
LINE
  5
455
330
1F
100
AcDbEntity
  8
0
  6
PHANTOM
 62
     4
 48
0.114999
370
    35
100
AcDbLine
 10
571.920715
 20
498.693542
 30
0.0
 11
571.920715
 21
503.293518
 31
0.0
  0
ARC
  5
456
330
1F
100
AcDbEntity
  8
0
  6
PHANTOM
 62
     4
370
    35
100
AcDbCircle
 10
571.020691
 20
498.693542
 30
0.0
 40
0.8999999999999997
100
AcDbArc
 50
180.000005
 51
0.0
  0
LINE
  5
457
330
1F
100
AcDbEntity
  8
0
  6
PHANTOM
 62
     4
 48
0.114999
370
    35
100
AcDbLine
 10
564.720703
 20
503.293518
 30
0.0
 11
564.720703
 21
498.693542
 31
0.0
  0
ARC
  5
458
330
1F
100
AcDbEntity
  8
0
  6
PHANTOM
 62
     4
370
    35
100
AcDbCircle
 10
563.820679
 20
498.693542
 30
0.0
 40
0.8999999999999997
100
AcDbArc
 50
180.000005
 51
0.0
  0
LINE
  5
459
330
1F
100
AcDbEntity
  8
0
  6
PHANTOM
 62
     4
 48
0.114999
370
    35
100
AcDbLine
 10
562.920715
 20
498.693542
 30
0.0
 11
562.920715
 21
503.293518
 31
0.0
  0
ARC
  5
45A
330
1F
100
AcDbEntity
  8
0
  6
PHANTOM
 62
     4
370
    35
100
AcDbCircle
 10
563.820679
 20
503.293518
 30
0.0
 40
0.9000000000000012
100
AcDbArc
 50
360.0
 51
179.999995
  0
LINE
  5
45B
330
1F
100
AcDbEntity
  8
0
  6
PHANTOM
 62
     4
 48
0.469099
370
    35
100
AcDbLine
 10
588.420715
 20
492.793518
 30
0.0
 11
569.656738
 21
492.793518
 31
0.0
  0
LINE
  5
45C
330
1F
100
AcDbEntity
  8
0
  6
PHANTOM
 62
     4
 48
0.137499
370
    35
100
AcDbLine
 10
570.420715
 20
487.293549
 30
0.0
 11
570.420715
 21
492.793518
 31
0.0
  0
LINE
  5
45D
330
1F
100
AcDbEntity
  8
0
  6
PHANTOM
 62
     4
 48
0.0125
370
    35
100
AcDbLine
 10
545.920715
 20
490.093536
 30
0.0
 11
546.420715
 21
490.093536
 31
0.0
  0
LINE
  5
45E
330
1F
100
AcDbEntity
  8
0
  6
PHANTOM
 62
     4
 48
0.024999
370
    35
100
AcDbLine
 10
545.920715
 20
488.293518
 30
0.0
 11
545.920715
 21
487.293549
 31
0.0
  0
LINE
  5
45F
330
1F
100
AcDbEntity
  8
0
  6
PHANTOM
 62
     4
 48
0.0375
370
    35
100
AcDbLine
 10
545.920715
 20
487.293549
 30
0.0
 11
547.420715
 21
487.293549
 31
0.0
  0
LINE
  5
460
330
1F
100
AcDbEntity
  8
0
  6
PHANTOM
 62
     4
 48
0.049999
370
    35
100
AcDbLine
 10
547.420715
 20
489.293518
 30
0.0
 11
547.420715
 21
487.293549
 31
0.0
  0
ARC
  5
461
330
1F
100
AcDbEntity
  8
0
  6
PHANTOM
 62
     4
370
    35
100
AcDbCircle
 10
549.420715
 20
489.293518
 30
0.0
 40
2.0
100
AcDbArc
 50
93.931275
 51
180.000005
  0
LINE
  5
462
330
1F
100
AcDbEntity
  8
0
  6
PHANTOM
 62
     4
 48
0.365932
370
    35
100
AcDbLine
 10
549.283569
 20
491.288818
 30
0.0
 11
563.886414
 21
492.292358
 31
0.0
  0
ARC
  5
463
330
1F
100
AcDbEntity
  8
0
  6
PHANTOM
 62
     4
370
    35
100
AcDbCircle
 10
563.920715
 20
491.793518
 30
0.0
 40
0.5
100
AcDbArc
 50
278.316593
 51
93.931275
  0
LINE
  5
464
330
1F
100
AcDbEntity
  8
0
  6
PHANTOM
 62
     4
 48
0.469098
370
    35
100
AcDbLine
 10
565.184631
 20
492.793518
 30
0.0
 11
546.420715
 21
492.793518
 31
0.0
  0
POLYLINE
  5
465
330
1F
100
AcDbEntity
  8
0
  6
PHANTOM
 62
     4
370
    35
100
AcDb2dPolyline
 66
     1
 10
0.0
 20
0.0
 30
0.0
  0
VERTEX
  5
466
330
465
100
AcDbEntity
  8
0
370
     0
100
AcDbVertex
100
AcDb2dVertex
 10
567.420715
 20
493.793518
 30
0.0
  0
VERTEX
  5
467
330
465
100
AcDbEntity
  8
0
370
     0
100
AcDbVertex
100
AcDb2dVertex
 10
566.709778
 20
493.389038
 30
0.0
  0
VERTEX
  5
468
330
465
100
AcDbEntity
  8
0
370
     0
100
AcDbVertex
100
AcDb2dVertex
 10
566.100952
 20
493.073608
 30
0.0
  0
VERTEX
  5
469
330
465
100
AcDbEntity
  8
0
370
     0
100
AcDbVertex
100
AcDb2dVertex
 10
565.802673
 20
492.943146
 30
0.0
  0
VERTEX
  5
46A
330
465
100
AcDbEntity
  8
0
370
     0
100
AcDbVertex
100
AcDb2dVertex
 10
565.367493
 20
492.811249
 30
0.0
  0
VERTEX
  5
46B
330
465
100
AcDbEntity
  8
0
370
     0
100
AcDbVertex
100
AcDb2dVertex
 10
565.184631
 20
492.793518
 30
0.0
  0
SEQEND
  5
46C
330
465
100
AcDbEntity
  8
0
  6
PHANTOM
 62
     4
370
    35
  0
POLYLINE
  5
46D
330
1F
100
AcDbEntity
  8
0
  6
PHANTOM
 62
     4
370
    35
100
AcDb2dPolyline
 66
     1
 10
0.0
 20
0.0
 30
0.0
  0
VERTEX
  5
46E
330
46D
100
AcDbEntity
  8
0
370
     0
100
AcDbVertex
100
AcDb2dVertex
 10
567.420715
 20
493.793518
 30
0.0
  0
VERTEX
  5
46F
330
46D
100
AcDbEntity
  8
0
370
     0
100
AcDbVertex
100
AcDb2dVertex
 10
566.709778
 20
494.198029
 30
0.0
  0
VERTEX
  5
470
330
46D
100
AcDbEntity
  8
0
370
     0
100
AcDbVertex
100
AcDb2dVertex
 10
566.100952
 20
494.513458
 30
0.0
  0
VERTEX
  5
471
330
46D
100
AcDbEntity
  8
0
370
     0
100
AcDbVertex
100
AcDb2dVertex
 10
565.802673
 20
494.643921
 30
0.0
  0
VERTEX
  5
472
330
46D
100
AcDbEntity
  8
0
370
     0
100
AcDbVertex
100
AcDb2dVertex
 10
565.367493
 20
494.775818
 30
0.0
  0
VERTEX
  5
473
330
46D
100
AcDbEntity
  8
0
370
     0
100
AcDbVertex
100
AcDb2dVertex
 10
565.184631
 20
494.793518
 30
0.0
  0
SEQEND
  5
474
330
46D
100
AcDbEntity
  8
0
  6
PHANTOM
 62
     4
370
    35
  0
POLYLINE
  5
475
330
1F
100
AcDbEntity
  8
0
  6
PHANTOM
 62
     4
370
    35
100
AcDb2dPolyline
 66
     1
 10
0.0
 20
0.0
 30
0.0
  0
VERTEX
  5
476
330
475
100
AcDbEntity
  8
0
370
     0
100
AcDbVertex
100
AcDb2dVertex
 10
567.420715
 20
493.793518
 30
0.0
  0
VERTEX
  5
477
330
475
100
AcDbEntity
  8
0
370
     0
100
AcDbVertex
100
AcDb2dVertex
 10
568.131653
 20
494.198029
 30
0.0
  0
VERTEX
  5
478
330
475
100
AcDbEntity
  8
0
370
     0
100
AcDbVertex
100
AcDb2dVertex
 10
568.740417
 20
494.513458
 30
0.0
  0
VERTEX
  5
479
330
475
100
AcDbEntity
  8
0
370
     0
100
AcDbVertex
100
AcDb2dVertex
 10
569.038757
 20
494.643921
 30
0.0
  0
VERTEX
  5
47A
330
475
100
AcDbEntity
  8
0
370
     0
100
AcDbVertex
100
AcDb2dVertex
 10
569.473877
 20
494.775818
 30
0.0
  0
VERTEX
  5
47B
330
475
100
AcDbEntity
  8
0
370
     0
100
AcDbVertex
100
AcDb2dVertex
 10
569.656738
 20
494.793518
 30
0.0
  0
SEQEND
  5
47C
330
475
100
AcDbEntity
  8
0
  6
PHANTOM
 62
     4
370
    35
  0
POLYLINE
  5
47D
330
1F
100
AcDbEntity
  8
0
  6
PHANTOM
 62
     4
370
    35
100
AcDb2dPolyline
 66
     1
 10
0.0
 20
0.0
 30
0.0
  0
VERTEX
  5
47E
330
47D
100
AcDbEntity
  8
0
370
     0
100
AcDbVertex
100
AcDb2dVertex
 10
567.420715
 20
493.793518
 30
0.0
  0
VERTEX
  5
47F
330
47D
100
AcDbEntity
  8
0
370
     0
100
AcDbVertex
100
AcDb2dVertex
 10
568.131653
 20
493.389038
 30
0.0
  0
VERTEX
  5
480
330
47D
100
AcDbEntity
  8
0
370
     0
100
AcDbVertex
100
AcDb2dVertex
 10
568.740417
 20
493.073608
 30
0.0
  0
VERTEX
  5
481
330
47D
100
AcDbEntity
  8
0
370
     0
100
AcDbVertex
100
AcDb2dVertex
 10
569.038757
 20
492.943146
 30
0.0
  0
VERTEX
  5
482
330
47D
100
AcDbEntity
  8
0
370
     0
100
AcDbVertex
100
AcDb2dVertex
 10
569.473877
 20
492.811249
 30
0.0
  0
VERTEX
  5
483
330
47D
100
AcDbEntity
  8
0
370
     0
100
AcDbVertex
100
AcDb2dVertex
 10
569.656738
 20
492.793518
 30
0.0
  0
SEQEND
  5
484
330
47D
100
AcDbEntity
  8
0
  6
PHANTOM
 62
     4
370
    35
  0
LINE
  5
485
330
1F
100
AcDbEntity
  8
0
  6
PHANTOM
 62
     4
 48
0.075
370
    35
100
AcDbLine
 10
567.420715
 20
487.293549
 30
0.0
 11
570.420715
 21
487.293549
 31
0.0
  0
LINE
  5
486
330
1F
100
AcDbEntity
  8
0
  6
PHANTOM
 62
     4
 48
0.075
370
    35
100
AcDbLine
 10
564.420715
 20
487.293549
 30
0.0
 11
567.420715
 21
487.293549
 31
0.0
  0
ARC
  5
487
330
1F
100
AcDbEntity
  8
0
  6
PHANTOM
 62
     4
370
    35
100
AcDbCircle
 10
571.413513
 20
487.173676
 30
0.0
 40
1.0
100
AcDbArc
 50
81.683407
 51
173.115898
  0
LINE
  5
488
330
1F
100
AcDbEntity
  8
0
  6
PHANTOM
 62
     4
 48
0.278027
370
    35
100
AcDbLine
 10
582.562256
 20
486.554565
 30
0.0
 11
571.558105
 21
488.163147
 31
0.0
  0
ARC
  5
489
330
1F
100
AcDbEntity
  8
0
  6
PHANTOM
 62
     4
370
    35
100
AcDbCircle
 10
584.420715
 20
487.293549
 30
0.0
 40
2.0
100
AcDbArc
 50
201.6834
 51
81.683407
  0
LINE
  5
48A
330
1F
100
AcDbEntity
  8
0
  6
PHANTOM
 62
     4
 48
0.350222
370
    35
100
AcDbLine
 10
584.709961
 20
489.272491
 30
0.0
 11
570.848389
 21
491.298798
 31
0.0
  0
LINE
  5
48B
330
1F
100
AcDbEntity
  8
0
  6
PHANTOM
 62
     4
 48
0.002501
370
    35
100
AcDbLine
 10
545.120728
 20
495.793518
 30
0.0
 11
545.020691
 21
495.793518
 31
0.0
  0
LINE
  5
48C
330
1F
100
AcDbEntity
  8
0
  6
PHANTOM
 62
     4
 48
0.002501
370
    35
100
AcDbLine
 10
545.120728
 20
495.293518
 30
0.0
 11
545.020691
 21
495.293518
 31
0.0
  0
LINE
  5
48D
330
1F
100
AcDbEntity
  8
0
  6
PHANTOM
 62
     4
 48
0.002501
370
    35
100
AcDbLine
 10
545.020691
 20
493.293518
 30
0.0
 11
545.120728
 21
493.293518
 31
0.0
  0
LINE
  5
48E
330
1F
100
AcDbEntity
  8
0
  6
PHANTOM
 62
     4
 48
0.002501
370
    35
100
AcDbLine
 10
545.020691
 20
490.793518
 30
0.0
 11
545.120728
 21
490.793518
 31
0.0
  0
LINE
  5
48F
330
1F
100
AcDbEntity
  8
0
  6
PHANTOM
 62
     4
 48
0.002501
370
    35
100
AcDbLine
 10
545.020691
 20
490.293518
 30
0.0
 11
545.120728
 21
490.293518
 31
0.0
  0
LINE
  5
490
330
1F
100
AcDbEntity
  8
0
  6
PHANTOM
 62
     4
 48
0.002501
370
    35
100
AcDbLine
 10
545.120728
 20
498.293518
 30
0.0
 11
545.020691
 21
498.293518
 31
0.0
  0
LINE
  5
491
330
1F
100
AcDbEntity
  8
0
  6
PHANTOM
 62
     4
 48
0.137499
370
    35
100
AcDbLine
 10
564.420715
 20
487.293549
 30
0.0
 11
564.420715
 21
492.793518
 31
0.0
  0
ARC
  5
492
330
1F
100
AcDbEntity
  8
0
  6
PHANTOM
 62
     4
370
    35
100
AcDbCircle
 10
563.427917
 20
487.173676
 30
0.0
 40
1.0
100
AcDbArc
 50
6.884102
 51
98.316598
  0
LINE
  5
493
330
1F
100
AcDbEntity
  8
0
  6
PHANTOM
 62
     4
 48
0.350224
370
    35
100
AcDbLine
 10
550.131409
 20
489.272491
 30
0.0
 11
563.993042
 21
491.298798
 31
0.0
  0
ARC
  5
494
330
1F
100
AcDbEntity
  8
0
  6
PHANTOM
 62
     4
370
    35
100
AcDbCircle
 10
550.420715
 20
487.293549
 30
0.0
 40
2.0
100
AcDbArc
 50
98.316598
 51
338.316595
  0
LINE
  5
495
330
1F
100
AcDbEntity
  8
0
  6
PHANTOM
 62
     4
 48
0.278026
370
    35
100
AcDbLine
 10
552.279175
 20
486.554565
 30
0.0
 11
563.283264
 21
488.163147
 31
0.0
  0
LINE
  5
496
330
1F
100
AcDbEntity
  8
0
  6
PHANTOM
 62
     4
 48
0.08
370
    35
100
AcDbLine
 10
555.920715
 20
508.058777
 30
0.0
 11
559.120728
 21
508.058777
 31
0.0
  0
ELLIPSE
  5
497
330
1F
100
AcDbEntity
  8
0
  6
PHANTOM
 62
     4
370
    35
100
AcDbEllipse
 10
564.420715
 20
510.50412
 30
0.0
 11
1.0
 21
0.0
 31
0.0
210
0.0
220
0.0
230
1.0
 40
0.335687
 41
3.141592653589793
 42
4.712378585765904
  0
ELLIPSE
  5
498
330
1F
100
AcDbEntity
  8
0
  6
PHANTOM
 62
     4
370
    35
100
AcDbEllipse
 10
570.420654
 20
510.50412
 30
0.0
 11
1.0
 21
0.0
 31
0.0
210
0.0
220
0.0
230
1.0
 40
0.335687
 41
4.7123989772239
 42
6.283185307179586
  0
LINE
  5
499
330
1F
100
AcDbEntity
  8
0
  6
PHANTOM
 62
     4
 48
0.08
370
    35
100
AcDbLine
 10
578.920715
 20
508.058777
 30
0.0
 11
575.720703
 21
508.058777
 31
0.0
  0
LINE
  5
49A
330
1F
100
AcDbEntity
  8
0
  6
PHANTOM
 62
     4
 48
0.049669
370
    35
100
AcDbLine
 10
555.920715
 20
508.058777
 30
0.0
 11
555.920715
 21
510.045532
 31
0.0
  0
LINE
  5
49B
330
1F
100
AcDbEntity
  8
0
  6
PHANTOM
 62
     4
 48
0.0474
370
    35
100
AcDbLine
 10
555.920715
 20
510.045532
 30
0.0
 11
555.920715
 21
511.941528
 31
0.0
  0
LINE
  5
49C
330
1F
100
AcDbEntity
  8
0
  6
PHANTOM
 62
     4
 48
0.049669
370
    35
100
AcDbLine
 10
578.920715
 20
508.058777
 30
0.0
 11
578.920715
 21
510.045532
 31
0.0
  0
LINE
  5
49D
330
1F
100
AcDbEntity
  8
0
  6
PHANTOM
 62
     4
 48
0.0474
370
    35
100
AcDbLine
 10
578.920715
 20
510.045532
 30
0.0
 11
578.920715
 21
511.941528
 31
0.0
  0
POLYLINE
  5
49E
330
1F
100
AcDbEntity
  8
0
  6
PHANTOM
 62
     4
370
    35
100
AcDb2dPolyline
 66
     1
 10
0.0
 20
0.0
 30
0.0
  0
VERTEX
  5
49F
330
49E
100
AcDbEntity
  8
0
370
     0
100
AcDbVertex
100
AcDb2dVertex
 10
577.920715
 20
511.311768
 30
0.0
  0
VERTEX
  5
4A0
330
49E
100
AcDbEntity
  8
0
370
     0
100
AcDbVertex
100
AcDb2dVertex
 10
578.187622
 20
511.04718
 30
0.0
  0
VERTEX
  5
4A1
330
49E
100
AcDbEntity
  8
0
370
     0
100
AcDbVertex
100
AcDb2dVertex
 10
578.679382
 20
510.481598
 30
0.0
  0
VERTEX
  5
4A2
330
49E
100
AcDbEntity
  8
0
370
     0
100
AcDbVertex
100
AcDb2dVertex
 10
578.852905
 20
510.224884
 30
0.0
  0
VERTEX
  5
4A3
330
49E
100
AcDbEntity
  8
0
370
     0
100
AcDbVertex
100
AcDb2dVertex
 10
578.905273
 20
510.115814
 30
0.0
  0
VERTEX
  5
4A4
330
49E
100
AcDbEntity
  8
0
370
     0
100
AcDbVertex
100
AcDb2dVertex
 10
578.920715
 20
510.045532
 30
0.0
  0
SEQEND
  5
4A5
330
49E
100
AcDbEntity
  8
0
  6
PHANTOM
 62
     4
370
    35
  0
POLYLINE
  5
4A6
330
1F
100
AcDbEntity
  8
0
  6
PHANTOM
 62
     4
370
    35
100
AcDb2dPolyline
 66
     1
 10
0.0
 20
0.0
 30
0.0
  0
VERTEX
  5
4A7
330
4A6
100
AcDbEntity
  8
0
370
     0
100
AcDbVertex
100
AcDb2dVertex
 10
577.920715
 20
511.311768
 30
0.0
  0
VERTEX
  5
4A8
330
4A6
100
AcDbEntity
  8
0
370
     0
100
AcDbVertex
100
AcDb2dVertex
 10
578.252869
 20
511.608612
 30
0.0
  0
VERTEX
  5
4A9
330
4A6
100
AcDbEntity
  8
0
370
     0
100
AcDbVertex
100
AcDb2dVertex
 10
578.652893
 20
511.904419
 30
0.0
  0
VERTEX
  5
4AA
330
4A6
100
AcDbEntity
  8
0
370
     0
100
AcDbVertex
100
AcDb2dVertex
 10
578.8172
 20
511.984436
 30
0.0
  0
VERTEX
  5
4AB
330
4A6
100
AcDbEntity
  8
0
370
     0
100
AcDbVertex
100
AcDb2dVertex
 10
578.868713
 20
511.99353
 30
0.0
  0
SEQEND
  5
4AC
330
4A6
100
AcDbEntity
  8
0
  6
PHANTOM
 62
     4
370
    35
  0
ARC
  5
4AD
330
1F
100
AcDbEntity
  8
0
  6
PHANTOM
 62
     4
370
    35
100
AcDbCircle
 10
578.874634
 20
511.947418
 30
0.0
 40
0.0462557085797486
100
AcDbArc
 50
352.734234
 51
97.285827
  0
POLYLINE
  5
4AE
330
1F
100
AcDbEntity
  8
0
  6
PHANTOM
 62
     4
370
    35
100
AcDb2dPolyline
 66
     1
 10
0.0
 20
0.0
 30
0.0
  0
VERTEX
  5
4AF
330
4AE
100
AcDbEntity
  8
0
370
     0
100
AcDbVertex
100
AcDb2dVertex
 10
572.420715
 20
511.311768
 30
0.0
  0
VERTEX
  5
4B0
330
4AE
100
AcDbEntity
  8
0
370
     0
100
AcDbVertex
100
AcDb2dVertex
 10
572.088501
 20
511.608612
 30
0.0
  0
VERTEX
  5
4B1
330
4AE
100
AcDbEntity
  8
0
370
     0
100
AcDbVertex
100
AcDb2dVertex
 10
571.688477
 20
511.904419
 30
0.0
  0
VERTEX
  5
4B2
330
4AE
100
AcDbEntity
  8
0
370
     0
100
AcDbVertex
100
AcDb2dVertex
 10
571.52417
 20
511.984436
 30
0.0
  0
VERTEX
  5
4B3
330
4AE
100
AcDbEntity
  8
0
370
     0
100
AcDbVertex
100
AcDb2dVertex
 10
571.472717
 20
511.99353
 30
0.0
  0
SEQEND
  5
4B4
330
4AE
100
AcDbEntity
  8
0
  6
PHANTOM
 62
     4
370
    35
  0
ARC
  5
4B5
330
1F
100
AcDbEntity
  8
0
  6
PHANTOM
 62
     4
370
    35
100
AcDbCircle
 10
571.466797
 20
511.947418
 30
0.0
 40
0.0462557085795748
100
AcDbArc
 50
82.714171
 51
187.265759
  0
POLYLINE
  5
4B6
330
1F
100
AcDbEntity
  8
0
  6
PHANTOM
 62
     4
370
    35
100
AcDb2dPolyline
 66
     1
 10
0.0
 20
0.0
 30
0.0
  0
VERTEX
  5
4B7
330
4B6
100
AcDbEntity
  8
0
370
     0
100
AcDbVertex
100
AcDb2dVertex
 10
572.420715
 20
511.311768
 30
0.0
  0
VERTEX
  5
4B8
330
4B6
100
AcDbEntity
  8
0
370
     0
100
AcDbVertex
100
AcDb2dVertex
 10
572.153809
 20
511.04718
 30
0.0
  0
VERTEX
  5
4B9
330
4B6
100
AcDbEntity
  8
0
370
     0
100
AcDbVertex
100
AcDb2dVertex
 10
571.661987
 20
510.481598
 30
0.0
  0
VERTEX
  5
4BA
330
4B6
100
AcDbEntity
  8
0
370
     0
100
AcDbVertex
100
AcDb2dVertex
 10
571.488464
 20
510.224884
 30
0.0
  0
VERTEX
  5
4BB
330
4B6
100
AcDbEntity
  8
0
370
     0
100
AcDbVertex
100
AcDb2dVertex
 10
571.436157
 20
510.115814
 30
0.0
  0
VERTEX
  5
4BC
330
4B6
100
AcDbEntity
  8
0
370
     0
100
AcDbVertex
100
AcDb2dVertex
 10
571.420715
 20
510.045532
 30
0.0
  0
SEQEND
  5
4BD
330
4B6
100
AcDbEntity
  8
0
  6
PHANTOM
 62
     4
370
    35
  0
POLYLINE
  5
4BE
330
1F
100
AcDbEntity
  8
0
  6
PHANTOM
 62
     4
370
    35
100
AcDb2dPolyline
 66
     1
 10
0.0
 20
0.0
 30
0.0
  0
VERTEX
  5
4BF
330
4BE
100
AcDbEntity
  8
0
370
     0
100
AcDbVertex
100
AcDb2dVertex
 10
556.920715
 20
511.311768
 30
0.0
  0
VERTEX
  5
4C0
330
4BE
100
AcDbEntity
  8
0
370
     0
100
AcDbVertex
100
AcDb2dVertex
 10
556.588501
 20
511.608612
 30
0.0
  0
VERTEX
  5
4C1
330
4BE
100
AcDbEntity
  8
0
370
     0
100
AcDbVertex
100
AcDb2dVertex
 10
556.188477
 20
511.904419
 30
0.0
  0
VERTEX
  5
4C2
330
4BE
100
AcDbEntity
  8
0
370
     0
100
AcDbVertex
100
AcDb2dVertex
 10
556.02417
 20
511.984436
 30
0.0
  0
VERTEX
  5
4C3
330
4BE
100
AcDbEntity
  8
0
370
     0
100
AcDbVertex
100
AcDb2dVertex
 10
555.972717
 20
511.99353
 30
0.0
  0
SEQEND
  5
4C4
330
4BE
100
AcDbEntity
  8
0
  6
PHANTOM
 62
     4
370
    35
  0
ARC
  5
4C5
330
1F
100
AcDbEntity
  8
0
  6
PHANTOM
 62
     4
370
    35
100
AcDbCircle
 10
555.966797
 20
511.947418
 30
0.0
 40
0.0462557085796731
100
AcDbArc
 50
82.714171
 51
187.265759
  0
POLYLINE
  5
4C6
330
1F
100
AcDbEntity
  8
0
  6
PHANTOM
 62
     4
370
    35
100
AcDb2dPolyline
 66
     1
 10
0.0
 20
0.0
 30
0.0
  0
VERTEX
  5
4C7
330
4C6
100
AcDbEntity
  8
0
370
     0
100
AcDbVertex
100
AcDb2dVertex
 10
556.920715
 20
511.311768
 30
0.0
  0
VERTEX
  5
4C8
330
4C6
100
AcDbEntity
  8
0
370
     0
100
AcDbVertex
100
AcDb2dVertex
 10
556.653809
 20
511.04718
 30
0.0
  0
VERTEX
  5
4C9
330
4C6
100
AcDbEntity
  8
0
370
     0
100
AcDbVertex
100
AcDb2dVertex
 10
556.161987
 20
510.481598
 30
0.0
  0
VERTEX
  5
4CA
330
4C6
100
AcDbEntity
  8
0
370
     0
100
AcDbVertex
100
AcDb2dVertex
 10
555.988464
 20
510.224884
 30
0.0
  0
VERTEX
  5
4CB
330
4C6
100
AcDbEntity
  8
0
370
     0
100
AcDbVertex
100
AcDb2dVertex
 10
555.936157
 20
510.115814
 30
0.0
  0
VERTEX
  5
4CC
330
4C6
100
AcDbEntity
  8
0
370
     0
100
AcDbVertex
100
AcDb2dVertex
 10
555.920715
 20
510.045532
 30
0.0
  0
SEQEND
  5
4CD
330
4C6
100
AcDbEntity
  8
0
  6
PHANTOM
 62
     4
370
    35
  0
POLYLINE
  5
4CE
330
1F
100
AcDbEntity
  8
0
  6
PHANTOM
 62
     4
370
    35
100
AcDb2dPolyline
 66
     1
 10
0.0
 20
0.0
 30
0.0
  0
VERTEX
  5
4CF
330
4CE
100
AcDbEntity
  8
0
370
     0
100
AcDbVertex
100
AcDb2dVertex
 10
562.420715
 20
511.311768
 30
0.0
  0
VERTEX
  5
4D0
330
4CE
100
AcDbEntity
  8
0
370
     0
100
AcDbVertex
100
AcDb2dVertex
 10
562.687622
 20
511.04718
 30
0.0
  0
VERTEX
  5
4D1
330
4CE
100
AcDbEntity
  8
0
370
     0
100
AcDbVertex
100
AcDb2dVertex
 10
563.179382
 20
510.481598
 30
0.0
  0
VERTEX
  5
4D2
330
4CE
100
AcDbEntity
  8
0
370
     0
100
AcDbVertex
100
AcDb2dVertex
 10
563.352905
 20
510.224884
 30
0.0
  0
VERTEX
  5
4D3
330
4CE
100
AcDbEntity
  8
0
370
     0
100
AcDbVertex
100
AcDb2dVertex
 10
563.405273
 20
510.115814
 30
0.0
  0
VERTEX
  5
4D4
330
4CE
100
AcDbEntity
  8
0
370
     0
100
AcDbVertex
100
AcDb2dVertex
 10
563.420715
 20
510.045532
 30
0.0
  0
SEQEND
  5
4D5
330
4CE
100
AcDbEntity
  8
0
  6
PHANTOM
 62
     4
370
    35
  0
POLYLINE
  5
4D6
330
1F
100
AcDbEntity
  8
0
  6
PHANTOM
 62
     4
370
    35
100
AcDb2dPolyline
 66
     1
 10
0.0
 20
0.0
 30
0.0
  0
VERTEX
  5
4D7
330
4D6
100
AcDbEntity
  8
0
370
     0
100
AcDbVertex
100
AcDb2dVertex
 10
562.420715
 20
511.311768
 30
0.0
  0
VERTEX
  5
4D8
330
4D6
100
AcDbEntity
  8
0
370
     0
100
AcDbVertex
100
AcDb2dVertex
 10
562.752869
 20
511.608612
 30
0.0
  0
VERTEX
  5
4D9
330
4D6
100
AcDbEntity
  8
0
370
     0
100
AcDbVertex
100
AcDb2dVertex
 10
563.152893
 20
511.904419
 30
0.0
  0
VERTEX
  5
4DA
330
4D6
100
AcDbEntity
  8
0
370
     0
100
AcDbVertex
100
AcDb2dVertex
 10
563.3172
 20
511.984436
 30
0.0
  0
VERTEX
  5
4DB
330
4D6
100
AcDbEntity
  8
0
370
     0
100
AcDbVertex
100
AcDb2dVertex
 10
563.368713
 20
511.99353
 30
0.0
  0
SEQEND
  5
4DC
330
4D6
100
AcDbEntity
  8
0
  6
PHANTOM
 62
     4
370
    35
  0
ARC
  5
4DD
330
1F
100
AcDbEntity
  8
0
  6
PHANTOM
 62
     4
370
    35
100
AcDbCircle
 10
563.374634
 20
511.947418
 30
0.0
 40
0.0462557085795932
100
AcDbArc
 50
352.734234
 51
97.285827
  0
LINE
  5
4DE
330
1F
100
AcDbEntity
  8
0
  6
PHANTOM
 62
     4
 48
0.0474
370
    35
100
AcDbLine
 10
571.420715
 20
510.045532
 30
0.0
 11
571.420715
 21
511.941528
 31
0.0
  0
LINE
  5
4DF
330
1F
100
AcDbEntity
  8
0
  6
PHANTOM
 62
     4
 48
0.0474
370
    35
100
AcDbLine
 10
563.420715
 20
511.941528
 30
0.0
 11
563.420715
 21
510.045532
 31
0.0
  0
ARC
  5
4E0
330
1F
100
AcDbEntity
  8
0
  6
PHANTOM
 62
     4
370
    35
100
AcDbCircle
 10
574.720703
 20
497.293518
 30
0.0
 40
1.0
100
AcDbArc
 50
180.000005
 51
269.999997
  0
ARC
  5
4E1
330
1F
100
AcDbEntity
  8
0
  6
PHANTOM
 62
     4
370
    35
100
AcDbCircle
 10
560.120728
 20
497.293518
 30
0.0
 40
1.0
100
AcDbArc
 50
269.999997
 51
360.0
  0
LINE
  5
4E2
330
1F
100
AcDbEntity
  8
0
  6
PHANTOM
 62
     4
 48
0.004099
370
    35
100
AcDbLine
 10
563.420715
 20
508.516479
 30
0.0
 11
563.420715
 21
508.352509
 31
0.0
  0
LINE
  5
4E3
330
1F
100
AcDbEntity
  8
0
  6
PHANTOM
 62
     4
 48
0.038226
370
    35
100
AcDbLine
 10
563.420715
 20
510.045532
 30
0.0
 11
563.420715
 21
508.516479
 31
0.0
  0
LINE
  5
4E4
330
1F
100
AcDbEntity
  8
0
  6
PHANTOM
 62
     4
 48
0.047401
370
    35
100
AcDbLine
 10
561.120728
 20
508.516479
 30
0.0
 11
561.120728
 21
506.620453
 31
0.0
  0
LINE
  5
4E5
330
1F
100
AcDbEntity
  8
0
  6
PHANTOM
 62
     4
 48
0.184138
370
    35
100
AcDbLine
 10
561.120728
 20
504.659027
 30
0.0
 11
561.120728
 21
497.293518
 31
0.0
  0
LINE
  5
4E6
330
1F
100
AcDbEntity
  8
0
  6
PHANTOM
 62
     4
 48
0.049036
370
    35
100
AcDbLine
 10
561.120728
 20
506.620453
 30
0.0
 11
561.120728
 21
504.659027
 31
0.0
  0
ELLIPSE
  5
4E7
330
1F
100
AcDbEntity
  8
0
  6
PHANTOM
 62
     4
370
    35
100
AcDbEllipse
 10
559.120667
 20
507.38739
 30
0.0
 11
2.000030517578125
 21
0.0
 31
0.0
210
0.0
220
0.0
230
1.0
 40
0.335687
 41
0.0
 42
1.570786312095983
  0
POLYLINE
  5
4E8
330
1F
100
AcDbEntity
  8
0
  6
PHANTOM
 62
     4
370
    35
100
AcDb2dPolyline
 66
     1
 10
0.0
 20
0.0
 30
0.0
  0
VERTEX
  5
4E9
330
4E8
100
AcDbEntity
  8
0
370
     0
100
AcDbVertex
100
AcDb2dVertex
 10
563.420715
 20
508.352509
 30
0.0
  0
VERTEX
  5
4EA
330
4E8
100
AcDbEntity
  8
0
370
     0
100
AcDbVertex
100
AcDb2dVertex
 10
563.455811
 20
508.171783
 30
0.0
  0
VERTEX
  5
4EB
330
4E8
100
AcDbEntity
  8
0
370
     0
100
AcDbVertex
100
AcDb2dVertex
 10
563.509827
 20
508.036407
 30
0.0
  0
VERTEX
  5
4EC
330
4E8
100
AcDbEntity
  8
0
370
     0
100
AcDbVertex
100
AcDb2dVertex
 10
563.661194
 20
507.75
 30
0.0
  0
VERTEX
  5
4ED
330
4E8
100
AcDbEntity
  8
0
370
     0
100
AcDbVertex
100
AcDb2dVertex
 10
563.892395
 20
507.382629
 30
0.0
  0
VERTEX
  5
4EE
330
4E8
100
AcDbEntity
  8
0
370
     0
100
AcDbVertex
100
AcDb2dVertex
 10
564.420715
 20
506.620453
 30
0.0
  0
SEQEND
  5
4EF
330
4E8
100
AcDbEntity
  8
0
  6
PHANTOM
 62
     4
370
    35
  0
LINE
  5
4F0
330
1F
100
AcDbEntity
  8
0
  6
PHANTOM
 62
     4
 48
0.004099
370
    35
100
AcDbLine
 10
571.420715
 20
508.352509
 30
0.0
 11
571.420715
 21
508.516479
 31
0.0
  0
LINE
  5
4F1
330
1F
100
AcDbEntity
  8
0
  6
PHANTOM
 62
     4
 48
0.038226
370
    35
100
AcDbLine
 10
571.420715
 20
510.045532
 30
0.0
 11
571.420715
 21
508.516479
 31
0.0
  0
LINE
  5
4F2
330
1F
100
AcDbEntity
  8
0
  6
PHANTOM
 62
     4
 48
0.047401
370
    35
100
AcDbLine
 10
573.720703
 20
506.620453
 30
0.0
 11
573.720703
 21
508.516479
 31
0.0
  0
LINE
  5
4F3
330
1F
100
AcDbEntity
  8
0
  6
PHANTOM
 62
     4
 48
0.049036
370
    35
100
AcDbLine
 10
573.720703
 20
504.659027
 30
0.0
 11
573.720703
 21
506.620453
 31
0.0
  0
LINE
  5
4F4
330
1F
100
AcDbEntity
  8
0
  6
PHANTOM
 62
     4
 48
0.184138
370
    35
100
AcDbLine
 10
573.720703
 20
497.293518
 30
0.0
 11
573.720703
 21
504.659027
 31
0.0
  0
ELLIPSE
  5
4F5
330
1F
100
AcDbEntity
  8
0
  6
PHANTOM
 62
     4
370
    35
100
AcDbEllipse
 10
575.720703
 20
507.38739
 30
0.0
 11
2.000030517578125
 21
0.0
 31
0.0
210
0.0
220
0.0
230
1.0
 40
0.335687
 41
1.570806737941909
 42
3.141592653589793
  0
POLYLINE
  5
4F6
330
1F
100
AcDbEntity
  8
0
  6
PHANTOM
 62
     4
370
    35
100
AcDb2dPolyline
 66
     1
 10
0.0
 20
0.0
 30
0.0
  0
VERTEX
  5
4F7
330
4F6
100
AcDbEntity
  8
0
370
     0
100
AcDbVertex
100
AcDb2dVertex
 10
571.420715
 20
508.352509
 30
0.0
  0
VERTEX
  5
4F8
330
4F6
100
AcDbEntity
  8
0
370
     0
100
AcDbVertex
100
AcDb2dVertex
 10
571.38562
 20
508.171783
 30
0.0
  0
VERTEX
  5
4F9
330
4F6
100
AcDbEntity
  8
0
370
     0
100
AcDbVertex
100
AcDb2dVertex
 10
571.331604
 20
508.036407
 30
0.0
  0
VERTEX
  5
4FA
330
4F6
100
AcDbEntity
  8
0
370
     0
100
AcDbVertex
100
AcDb2dVertex
 10
571.180176
 20
507.75
 30
0.0
  0
VERTEX
  5
4FB
330
4F6
100
AcDbEntity
  8
0
370
     0
100
AcDbVertex
100
AcDb2dVertex
 10
570.949036
 20
507.382629
 30
0.0
  0
VERTEX
  5
4FC
330
4F6
100
AcDbEntity
  8
0
370
     0
100
AcDbVertex
100
AcDb2dVertex
 10
570.420715
 20
506.620453
 30
0.0
  0
SEQEND
  5
4FD
330
4F6
100
AcDbEntity
  8
0
  6
PHANTOM
 62
     4
370
    35
  0
LINE
  5
4FE
330
1F
100
AcDbEntity
  8
0
  6
PHANTOM
 62
     4
 48
0.1849
370
    35
100
AcDbLine
 10
571.472717
 20
511.99353
 30
0.0
 11
578.868713
 21
511.99353
 31
0.0
  0
LINE
  5
4FF
330
1F
100
AcDbEntity
  8
0
  6
PHANTOM
 62
     4
 48
0.1849
370
    35
100
AcDbLine
 10
555.972717
 20
511.99353
 30
0.0
 11
563.368713
 21
511.99353
 31
0.0
  0
ARC
  5
500
330
1F
100
AcDbEntity
  8
0
  6
PHANTOM
 62
     4
370
    35
100
AcDbCircle
 10
555.966797
 20
511.947418
 30
0.0
 40
0.0462557085797396
100
AcDbArc
 50
82.714171
 51
187.265759
  0
ARC
  5
501
330
1F
100
AcDbEntity
  8
0
  6
PHANTOM
 62
     4
370
    35
100
AcDbCircle
 10
578.874634
 20
511.947418
 30
0.0
 40
0.0462557085796688
100
AcDbArc
 50
352.734234
 51
97.285827
  0
LINE
  5
502
330
1F
100
AcDbEntity
  8
0
  6
PHANTOM
 62
     4
 48
0.038699
370
    35
100
AcDbLine
 10
557.520691
 20
511.99353
 30
0.0
 11
555.972717
 21
511.99353
 31
0.0
  0
LINE
  5
503
330
1F
100
AcDbEntity
  8
0
  6
PHANTOM
 62
     4
 48
0.038701
370
    35
100
AcDbLine
 10
578.868713
 20
511.99353
 30
0.0
 11
577.320679
 21
511.99353
 31
0.0
  0
LINE
  5
504
330
1F
100
AcDbEntity
  8
0
 62
     7
370
    35
100
AcDbLine
 10
585.920715
 20
474.400604
 30
0.0
 11
580.120728
 21
474.400604
 31
0.0
  0
LINE
  5
505
330
1F
100
AcDbEntity
  8
0
 62
     7
370
    35
100
AcDbLine
 10
578.120728
 20
474.400604
 30
0.0
 11
572.320679
 21
474.400604
 31
0.0
  0
LINE
  5
506
330
1F
100
AcDbEntity
  8
0
 62
     7
370
    35
100
AcDbLine
 10
570.320679
 20
474.400604
 30
0.0
 11
564.520691
 21
474.400604
 31
0.0
  0
LINE
  5
507
330
1F
100
AcDbEntity
  8
0
 62
     7
370
    35
100
AcDbLine
 10
562.520691
 20
474.400604
 30
0.0
 11
556.720703
 21
474.400604
 31
0.0
  0
LINE
  5
508
330
1F
100
AcDbEntity
  8
0
 62
     7
370
    35
100
AcDbLine
 10
554.720703
 20
474.400604
 30
0.0
 11
548.920715
 21
474.400604
 31
0.0
  0
LINE
  5
509
330
1F
100
AcDbEntity
  8
0
 62
     7
370
    35
100
AcDbLine
 10
544.920715
 20
474.471222
 30
0.0
 11
589.920715
 21
474.471222
 31
0.0
  0
LINE
  5
50A
330
1F
100
AcDbEntity
  8
0
 62
     7
370
    35
100
AcDbLine
 10
548.920715
 20
474.171234
 30
0.0
 11
548.920715
 21
474.400604
 31
0.0
  0
LINE
  5
50B
330
1F
100
AcDbEntity
  8
0
 62
     7
370
    35
100
AcDbLine
 10
589.420715
 20
474.171234
 30
0.0
 11
589.420715
 21
474.471222
 31
0.0
  0
LINE
  5
50C
330
1F
100
AcDbEntity
  8
0
 62
     7
370
    35
100
AcDbLine
 10
545.420715
 20
474.171234
 30
0.0
 11
545.420715
 21
474.471222
 31
0.0
  0
LINE
  5
50D
330
1F
100
AcDbEntity
  8
0
 62
     7
370
    35
100
AcDbLine
 10
580.120728
 20
474.171234
 30
0.0
 11
580.120728
 21
474.400604
 31
0.0
  0
LINE
  5
50E
330
1F
100
AcDbEntity
  8
0
 62
     7
370
    35
100
AcDbLine
 10
585.920715
 20
474.400604
 30
0.0
 11
585.920715
 21
474.171234
 31
0.0
  0
LINE
  5
50F
330
1F
100
AcDbEntity
  8
0
 62
     7
370
    35
100
AcDbLine
 10
578.120728
 20
474.400604
 30
0.0
 11
578.120728
 21
474.171234
 31
0.0
  0
LINE
  5
510
330
1F
100
AcDbEntity
  8
0
 62
     7
370
    35
100
AcDbLine
 10
572.320679
 20
474.171234
 30
0.0
 11
572.320679
 21
474.400604
 31
0.0
  0
LINE
  5
511
330
1F
100
AcDbEntity
  8
0
 62
     7
370
    35
100
AcDbLine
 10
570.320679
 20
474.400604
 30
0.0
 11
570.320679
 21
474.171234
 31
0.0
  0
LINE
  5
512
330
1F
100
AcDbEntity
  8
0
 62
     7
370
    35
100
AcDbLine
 10
564.520691
 20
474.171234
 30
0.0
 11
564.520691
 21
474.400604
 31
0.0
  0
LINE
  5
513
330
1F
100
AcDbEntity
  8
0
 62
     7
370
    35
100
AcDbLine
 10
562.520691
 20
474.400604
 30
0.0
 11
562.520691
 21
474.171234
 31
0.0
  0
LINE
  5
514
330
1F
100
AcDbEntity
  8
0
 62
     7
370
    35
100
AcDbLine
 10
556.720703
 20
474.171234
 30
0.0
 11
556.720703
 21
474.400604
 31
0.0
  0
LINE
  5
515
330
1F
100
AcDbEntity
  8
0
 62
     7
370
    35
100
AcDbLine
 10
554.720703
 20
474.400604
 30
0.0
 11
554.720703
 21
474.171234
 31
0.0
  0
ARC
  5
516
330
1F
100
AcDbEntity
  8
0
 62
     7
370
    35
100
AcDbCircle
 10
544.920715
 20
475.971222
 30
0.0
 40
1.5
100
AcDbArc
 50
180.000009
 51
269.999997
  0
ARC
  5
517
330
1F
100
AcDbEntity
  8
0
 62
     7
370
    35
100
AcDbCircle
 10
589.920715
 20
475.971222
 30
0.0
 40
1.5
100
AcDbArc
 50
269.999997
 51
0.00001
  0
LINE
  5
518
330
1F
100
AcDbEntity
  8
0
 62
     7
370
    35
100
AcDbLine
 10
566.420715
 20
478.471222
 30
0.0
 11
566.420715
 21
477.471222
 31
0.0
  0
LINE
  5
519
330
1F
100
AcDbEntity
  8
0
 62
     7
370
    35
100
AcDbLine
 10
568.420715
 20
477.471222
 30
0.0
 11
568.420715
 21
478.471222
 31
0.0
  0
LINE
  5
51A
330
1F
100
AcDbEntity
  8
0
 62
     7
370
    35
100
AcDbLine
 10
557.420715
 20
477.471222
 30
0.0
 11
577.420715
 21
477.471222
 31
0.0
  0
LINE
  5
51B
330
1F
100
AcDbEntity
  8
0
 62
     7
370
    35
100
AcDbLine
 10
557.420715
 20
478.471222
 30
0.0
 11
557.420715
 21
477.471222
 31
0.0
  0
LINE
  5
51C
330
1F
100
AcDbEntity
  8
0
 62
     7
370
    35
100
AcDbLine
 10
544.920715
 20
478.471222
 30
0.0
 11
557.420715
 21
478.471222
 31
0.0
  0
LINE
  5
51D
330
1F
100
AcDbEntity
  8
0
 62
     7
370
    35
100
AcDbLine
 10
577.420715
 20
478.471222
 30
0.0
 11
589.920715
 21
478.471222
 31
0.0
  0
LINE
  5
51E
330
1F
100
AcDbEntity
  8
0
 62
     7
370
    35
100
AcDbLine
 10
577.420715
 20
478.471222
 30
0.0
 11
577.420715
 21
477.471222
 31
0.0
  0
LINE
  5
51F
330
1F
100
AcDbEntity
  8
0
 62
     7
370
    35
100
AcDbLine
 10
543.420715
 20
478.471222
 30
0.0
 11
543.420715
 21
475.971222
 31
0.0
  0
LINE
  5
520
330
1F
100
AcDbEntity
  8
0
 62
     7
370
    35
100
AcDbLine
 10
591.420715
 20
478.471222
 30
0.0
 11
591.420715
 21
475.971222
 31
0.0
  0
LINE
  5
521
330
1F
100
AcDbEntity
  8
0
 62
     7
370
    35
100
AcDbLine
 10
543.420715
 20
478.471222
 30
0.0
 11
544.920715
 21
478.471222
 31
0.0
  0
LINE
  5
522
330
1F
100
AcDbEntity
  8
0
 62
     7
370
    35
100
AcDbLine
 10
558.920715
 20
477.471222
 30
0.0
 11
558.920715
 21
478.471222
 31
0.0
  0
LINE
  5
523
330
1F
100
AcDbEntity
  8
0
 62
     7
370
    35
100
AcDbLine
 10
564.920715
 20
477.471222
 30
0.0
 11
564.920715
 21
478.471222
 31
0.0
  0
LINE
  5
524
330
1F
100
AcDbEntity
  8
0
 62
     7
370
    35
100
AcDbLine
 10
569.920715
 20
477.471222
 30
0.0
 11
569.920715
 21
478.471222
 31
0.0
  0
LINE
  5
525
330
1F
100
AcDbEntity
  8
0
 62
     7
370
    35
100
AcDbLine
 10
589.920715
 20
478.471222
 30
0.0
 11
591.420715
 21
478.471222
 31
0.0
  0
LINE
  5
526
330
1F
100
AcDbEntity
  8
0
 62
     7
370
    35
100
AcDbLine
 10
575.920715
 20
477.471222
 30
0.0
 11
575.920715
 21
478.471222
 31
0.0
  0
LINE
  5
527
330
1F
100
AcDbEntity
  8
0
 62
     7
370
    35
100
AcDbLine
 10
563.920715
 20
481.571228
 30
0.0
 11
559.920715
 21
481.571228
 31
0.0
  0
LINE
  5
528
330
1F
100
AcDbEntity
  8
0
 62
     7
370
    35
100
AcDbLine
 10
574.920715
 20
481.571228
 30
0.0
 11
570.920715
 21
481.571228
 31
0.0
  0
LINE
  5
529
330
1F
100
AcDbEntity
  8
0
 62
     7
370
    35
100
AcDbLine
 10
563.920715
 20
481.571228
 30
0.0
 11
563.920715
 21
480.971222
 31
0.0
  0
LINE
  5
52A
330
1F
100
AcDbEntity
  8
0
 62
     7
370
    35
100
AcDbLine
 10
559.920715
 20
481.571228
 30
0.0
 11
559.920715
 21
480.971222
 31
0.0
  0
LINE
  5
52B
330
1F
100
AcDbEntity
  8
0
 62
     7
370
    35
100
AcDbLine
 10
559.920715
 20
480.971222
 30
0.0
 11
563.920715
 21
480.971222
 31
0.0
  0
LINE
  5
52C
330
1F
100
AcDbEntity
  8
0
 62
     7
370
    35
100
AcDbLine
 10
559.920715
 20
480.971222
 30
0.0
 11
559.920715
 21
480.571228
 31
0.0
  0
LINE
  5
52D
330
1F
100
AcDbEntity
  8
0
 62
     7
370
    35
100
AcDbLine
 10
563.920715
 20
480.571228
 30
0.0
 11
559.920715
 21
480.571228
 31
0.0
  0
LINE
  5
52E
330
1F
100
AcDbEntity
  8
0
 62
     7
370
    35
100
AcDbLine
 10
563.920715
 20
480.971222
 30
0.0
 11
563.920715
 21
480.571228
 31
0.0
  0
LINE
  5
52F
330
1F
100
AcDbEntity
  8
0
 62
     7
370
    35
100
AcDbLine
 10
574.920715
 20
481.571228
 30
0.0
 11
574.920715
 21
480.971222
 31
0.0
  0
LINE
  5
530
330
1F
100
AcDbEntity
  8
0
 62
     7
370
    35
100
AcDbLine
 10
570.920715
 20
481.571228
 30
0.0
 11
570.920715
 21
480.971222
 31
0.0
  0
LINE
  5
531
330
1F
100
AcDbEntity
  8
0
 62
     7
370
    35
100
AcDbLine
 10
570.920715
 20
480.971222
 30
0.0
 11
574.920715
 21
480.971222
 31
0.0
  0
LINE
  5
532
330
1F
100
AcDbEntity
  8
0
 62
     7
370
    35
100
AcDbLine
 10
570.920715
 20
480.971222
 30
0.0
 11
570.920715
 21
480.571228
 31
0.0
  0
LINE
  5
533
330
1F
100
AcDbEntity
  8
0
 62
     7
370
    35
100
AcDbLine
 10
570.920715
 20
480.571228
 30
0.0
 11
574.920715
 21
480.571228
 31
0.0
  0
LINE
  5
534
330
1F
100
AcDbEntity
  8
0
 62
     7
370
    35
100
AcDbLine
 10
574.920715
 20
480.971222
 30
0.0
 11
574.920715
 21
480.571228
 31
0.0
  0
LINE
  5
535
330
1F
100
AcDbEntity
  8
0
 62
     7
370
    35
100
AcDbLine
 10
545.420715
 20
474.171234
 30
0.0
 11
548.920715
 21
474.171234
 31
0.0
  0
LINE
  5
536
330
1F
100
AcDbEntity
  8
0
 62
     7
370
    35
100
AcDbLine
 10
554.720703
 20
474.171234
 30
0.0
 11
556.720703
 21
474.171234
 31
0.0
  0
LINE
  5
537
330
1F
100
AcDbEntity
  8
0
 62
     7
370
    35
100
AcDbLine
 10
562.520691
 20
474.171234
 30
0.0
 11
564.520691
 21
474.171234
 31
0.0
  0
LINE
  5
538
330
1F
100
AcDbEntity
  8
0
 62
     7
370
    35
100
AcDbLine
 10
570.320679
 20
474.171234
 30
0.0
 11
572.320679
 21
474.171234
 31
0.0
  0
LINE
  5
539
330
1F
100
AcDbEntity
  8
0
 62
     7
370
    35
100
AcDbLine
 10
578.120728
 20
474.171234
 30
0.0
 11
580.120728
 21
474.171234
 31
0.0
  0
LINE
  5
53A
330
1F
100
AcDbEntity
  8
0
 62
     7
370
    35
100
AcDbLine
 10
585.920715
 20
474.171234
 30
0.0
 11
589.420715
 21
474.171234
 31
0.0
  0
LINE
  5
53B
330
1F
100
AcDbEntity
  8
0
 62
     7
370
    35
100
AcDbLine
 10
585.820679
 20
473.841644
 30
0.0
 11
585.820679
 21
474.400604
 31
0.0
  0
LINE
  5
53C
330
1F
100
AcDbEntity
  8
0
 62
     7
370
    35
100
AcDbLine
 10
585.820679
 20
473.671234
 30
0.0
 11
585.820679
 21
473.841644
 31
0.0
  0
LINE
  5
53D
330
1F
100
AcDbEntity
  8
0
 62
     7
370
    35
100
AcDbLine
 10
580.220703
 20
473.841644
 30
0.0
 11
580.220703
 21
474.400604
 31
0.0
  0
LINE
  5
53E
330
1F
100
AcDbEntity
  8
0
 62
     7
370
    35
100
AcDbLine
 10
580.220703
 20
473.671234
 30
0.0
 11
580.220703
 21
473.841644
 31
0.0
  0
LINE
  5
53F
330
1F
100
AcDbEntity
  8
0
 62
     7
370
    35
100
AcDbLine
 10
580.220703
 20
473.841644
 30
0.0
 11
585.820679
 21
473.841644
 31
0.0
  0
LINE
  5
540
330
1F
100
AcDbEntity
  8
0
 62
     7
370
    35
100
AcDbLine
 10
585.520691
 20
473.671234
 30
0.0
 11
580.520691
 21
473.671234
 31
0.0
  0
LINE
  5
541
330
1F
100
AcDbEntity
  8
0
 62
     7
370
    35
100
AcDbLine
 10
580.220703
 20
473.671234
 30
0.0
 11
580.520691
 21
473.671234
 31
0.0
  0
LINE
  5
542
330
1F
100
AcDbEntity
  8
0
 62
     7
370
    35
100
AcDbLine
 10
585.520691
 20
473.671234
 30
0.0
 11
585.820679
 21
473.671234
 31
0.0
  0
LINE
  5
543
330
1F
100
AcDbEntity
  8
0
 62
     7
370
    35
100
AcDbLine
 10
554.620728
 20
473.841644
 30
0.0
 11
554.620728
 21
474.400604
 31
0.0
  0
LINE
  5
544
330
1F
100
AcDbEntity
  8
0
 62
     7
370
    35
100
AcDbLine
 10
554.620728
 20
473.671234
 30
0.0
 11
554.620728
 21
473.841644
 31
0.0
  0
LINE
  5
545
330
1F
100
AcDbEntity
  8
0
 62
     7
370
    35
100
AcDbLine
 10
549.020691
 20
473.841644
 30
0.0
 11
549.020691
 21
474.400604
 31
0.0
  0
LINE
  5
546
330
1F
100
AcDbEntity
  8
0
 62
     7
370
    35
100
AcDbLine
 10
549.020691
 20
473.671234
 30
0.0
 11
549.020691
 21
473.841644
 31
0.0
  0
LINE
  5
547
330
1F
100
AcDbEntity
  8
0
 62
     7
370
    35
100
AcDbLine
 10
549.020691
 20
473.841644
 30
0.0
 11
554.620728
 21
473.841644
 31
0.0
  0
LINE
  5
548
330
1F
100
AcDbEntity
  8
0
 62
     7
370
    35
100
AcDbLine
 10
554.320679
 20
473.671234
 30
0.0
 11
549.320679
 21
473.671234
 31
0.0
  0
LINE
  5
549
330
1F
100
AcDbEntity
  8
0
 62
     7
370
    35
100
AcDbLine
 10
549.020691
 20
473.671234
 30
0.0
 11
549.320679
 21
473.671234
 31
0.0
  0
LINE
  5
54A
330
1F
100
AcDbEntity
  8
0
 62
     7
370
    35
100
AcDbLine
 10
554.320679
 20
473.671234
 30
0.0
 11
554.620728
 21
473.671234
 31
0.0
  0
LINE
  5
54B
330
1F
100
AcDbEntity
  8
0
 62
     7
370
    35
100
AcDbLine
 10
562.420715
 20
473.841644
 30
0.0
 11
562.420715
 21
474.400604
 31
0.0
  0
LINE
  5
54C
330
1F
100
AcDbEntity
  8
0
 62
     7
370
    35
100
AcDbLine
 10
562.420715
 20
473.671234
 30
0.0
 11
562.420715
 21
473.841644
 31
0.0
  0
LINE
  5
54D
330
1F
100
AcDbEntity
  8
0
 62
     7
370
    35
100
AcDbLine
 10
556.820679
 20
473.841644
 30
0.0
 11
556.820679
 21
474.400604
 31
0.0
  0
LINE
  5
54E
330
1F
100
AcDbEntity
  8
0
 62
     7
370
    35
100
AcDbLine
 10
556.820679
 20
473.671234
 30
0.0
 11
556.820679
 21
473.841644
 31
0.0
  0
LINE
  5
54F
330
1F
100
AcDbEntity
  8
0
 62
     7
370
    35
100
AcDbLine
 10
556.820679
 20
473.841644
 30
0.0
 11
562.420715
 21
473.841644
 31
0.0
  0
LINE
  5
550
330
1F
100
AcDbEntity
  8
0
 62
     7
370
    35
100
AcDbLine
 10
562.120728
 20
473.671356
 30
0.0
 11
557.120728
 21
473.671356
 31
0.0
  0
LINE
  5
551
330
1F
100
AcDbEntity
  8
0
 62
     7
370
    35
100
AcDbLine
 10
556.820679
 20
473.671234
 30
0.0
 11
557.120728
 21
473.671234
 31
0.0
  0
LINE
  5
552
330
1F
100
AcDbEntity
  8
0
 62
     7
370
    35
100
AcDbLine
 10
562.120728
 20
473.671234
 30
0.0
 11
562.420715
 21
473.671234
 31
0.0
  0
LINE
  5
553
330
1F
100
AcDbEntity
  8
0
 62
     7
370
    35
100
AcDbLine
 10
578.020691
 20
473.841644
 30
0.0
 11
578.020691
 21
474.400604
 31
0.0
  0
LINE
  5
554
330
1F
100
AcDbEntity
  8
0
 62
     7
370
    35
100
AcDbLine
 10
578.020691
 20
473.671234
 30
0.0
 11
578.020691
 21
473.841644
 31
0.0
  0
LINE
  5
555
330
1F
100
AcDbEntity
  8
0
 62
     7
370
    35
100
AcDbLine
 10
572.420715
 20
473.841644
 30
0.0
 11
572.420715
 21
474.400604
 31
0.0
  0
LINE
  5
556
330
1F
100
AcDbEntity
  8
0
 62
     7
370
    35
100
AcDbLine
 10
572.420715
 20
473.671234
 30
0.0
 11
572.420715
 21
473.841644
 31
0.0
  0
LINE
  5
557
330
1F
100
AcDbEntity
  8
0
 62
     7
370
    35
100
AcDbLine
 10
572.420715
 20
473.841644
 30
0.0
 11
578.020691
 21
473.841644
 31
0.0
  0
ARC
  5
558
330
1F
100
AcDbEntity
  8
0
 62
     7
370
    35
100
AcDbCircle
 10
575.476685
 20
478.822815
 30
0.0
 40
5.151582717895508
100
AcDbArc
 50
270.00232
 51
273.584016
  0
ARC
  5
559
330
1F
100
AcDbEntity
  8
0
 62
     7
370
    35
100
AcDbCircle
 10
575.476868
 20
478.818451
 30
0.0
 40
5.14722204208374
100
AcDbArc
 50
267.147383
 51
270.000298
  0
ARC
  5
55A
330
1F
100
AcDbEntity
  8
0
 62
     7
370
    35
100
AcDbCircle
 10
574.964722
 20
478.822815
 30
0.0
 40
5.151582717895508
100
AcDbArc
 50
266.415979
 51
269.997675
  0
ARC
  5
55B
330
1F
100
AcDbEntity
  8
0
 62
     7
370
    35
100
AcDbCircle
 10
574.964539
 20
478.818451
 30
0.0
 40
5.14722204208374
100
AcDbArc
 50
269.999697
 51
272.852612
  0
ARC
  5
55C
330
1F
100
AcDbEntity
  8
0
 62
     7
370
    35
100
AcDbCircle
 10
574.319214
 20
478.856506
 30
0.0
 40
5.185287952423096
100
AcDbArc
 50
270.017373
 51
278.446729
  0
ARC
  5
55D
330
1F
100
AcDbEntity
  8
0
 62
     7
370
    35
100
AcDbCircle
 10
575.220703
 20
471.929443
 30
0.0
 40
1.803860545158386
100
AcDbArc
 50
85.554027
 51
94.445971
  0
ARC
  5
55E
330
1F
100
AcDbEntity
  8
0
 62
     7
370
    35
100
AcDbCircle
 10
576.122192
 20
478.856506
 30
0.0
 40
5.185287952423096
100
AcDbArc
 50
261.553266
 51
269.982621
  0
LINE
  5
55F
330
1F
100
AcDbEntity
  8
0
 62
     7
370
    35
100
AcDbLine
 10
575.220703
 20
473.733093
 30
0.0
 11
575.220703
 21
473.677612
 31
0.0
  0
LINE
  5
560
330
1F
100
AcDbEntity
  8
0
 62
     7
370
    35
100
AcDbLine
 10
572.420715
 20
473.671234
 30
0.0
 11
574.320801
 21
473.671234
 31
0.0
  0
LINE
  5
561
330
1F
100
AcDbEntity
  8
0
 62
     7
370
    35
100
AcDbLine
 10
574.964478
 20
473.671234
 30
0.0
 11
575.476868
 21
473.671234
 31
0.0
  0
LINE
  5
562
330
1F
100
AcDbEntity
  8
0
 62
     7
370
    35
100
AcDbLine
 10
576.120605
 20
473.671234
 30
0.0
 11
578.020691
 21
473.671234
 31
0.0
  0
LINE
  5
563
330
1F
100
AcDbEntity
  8
0
 62
     7
370
    35
100
AcDbLine
 10
570.220703
 20
473.841644
 30
0.0
 11
570.220703
 21
474.400604
 31
0.0
  0
LINE
  5
564
330
1F
100
AcDbEntity
  8
0
 62
     7
370
    35
100
AcDbLine
 10
570.220703
 20
473.671234
 30
0.0
 11
570.220703
 21
473.841644
 31
0.0
  0
LINE
  5
565
330
1F
100
AcDbEntity
  8
0
 62
     7
370
    35
100
AcDbLine
 10
564.620728
 20
473.841644
 30
0.0
 11
564.620728
 21
474.400604
 31
0.0
  0
LINE
  5
566
330
1F
100
AcDbEntity
  8
0
 62
     7
370
    35
100
AcDbLine
 10
564.620728
 20
473.671234
 30
0.0
 11
564.620728
 21
473.841644
 31
0.0
  0
LINE
  5
567
330
1F
100
AcDbEntity
  8
0
 62
     7
370
    35
100
AcDbLine
 10
564.620728
 20
473.841644
 30
0.0
 11
570.220703
 21
473.841644
 31
0.0
  0
ARC
  5
568
330
1F
100
AcDbEntity
  8
0
 62
     7
370
    35
100
AcDbCircle
 10
566.52063
 20
478.82193
 30
0.0
 40
5.150708198547363
100
AcDbArc
 50
270.001609
 51
273.584453
  0
ARC
  5
569
330
1F
100
AcDbEntity
  8
0
 62
     7
370
    35
100
AcDbCircle
 10
566.521973
 20
478.850098
 30
0.0
 40
5.178886890411377
100
AcDbArc
 50
262.217516
 51
269.986938
  0
LINE
  5
56A
330
1F
100
AcDbEntity
  8
0
 62
     7
370
    35
100
AcDbLine
 10
566.464478
 20
473.718903
 30
0.0
 11
565.820679
 21
473.718903
 31
0.0
  0
ARC
  5
56B
330
1F
100
AcDbEntity
  8
0
 62
     7
370
    35
100
AcDbCircle
 10
567.165771
 20
478.850464
 30
0.0
 40
5.179257869720459
100
AcDbArc
 50
262.217899
 51
269.985873
  0
ARC
  5
56C
330
1F
100
AcDbEntity
  8
0
 62
     7
370
    35
100
AcDbCircle
 10
567.675598
 20
478.850464
 30
0.0
 40
5.179257869720459
100
AcDbArc
 50
270.014122
 51
277.782096
  0
LINE
  5
56D
330
1F
100
AcDbEntity
  8
0
 62
     7
370
    35
100
AcDbLine
 10
569.020691
 20
473.718903
 30
0.0
 11
568.376953
 21
473.718903
 31
0.0
  0
ARC
  5
56E
330
1F
100
AcDbEntity
  8
0
 62
     7
370
    35
100
AcDbCircle
 10
568.32074
 20
478.82193
 30
0.0
 40
5.150708198547363
100
AcDbArc
 50
266.415542
 51
269.998386
  0
ARC
  5
56F
330
1F
100
AcDbEntity
  8
0
 62
     7
370
    35
100
AcDbCircle
 10
568.319397
 20
478.850098
 30
0.0
 40
5.178886890411377
100
AcDbArc
 50
270.013057
 51
277.782479
  0
LINE
  5
570
330
1F
100
AcDbEntity
  8
0
 62
     7
370
    35
100
AcDbLine
 10
564.620728
 20
473.671234
 30
0.0
 11
566.520813
 21
473.671234
 31
0.0
  0
LINE
  5
571
330
1F
100
AcDbEntity
  8
0
 62
     7
370
    35
100
AcDbLine
 10
567.16449
 20
473.671234
 30
0.0
 11
567.67688
 21
473.671234
 31
0.0
  0
LINE
  5
572
330
1F
100
AcDbEntity
  8
0
 62
     7
370
    35
100
AcDbLine
 10
568.320557
 20
473.671234
 30
0.0
 11
570.220703
 21
473.671234
 31
0.0
  0
LINE
  5
573
330
1F
100
AcDbEntity
  8
0
 62
     7
370
    35
100
AcDbLine
 10
571.870728
 20
549.971191
 30
0.0
 11
576.970703
 21
549.971191
 31
0.0
  0
LINE
  5
574
330
1F
100
AcDbEntity
  8
0
 62
     7
370
    35
100
AcDbLine
 10
557.870728
 20
549.971191
 30
0.0
 11
562.970703
 21
549.971191
 31
0.0
  0
LINE
  5
575
330
1F
100
AcDbEntity
  8
0
 62
     7
370
    35
100
AcDbLine
 10
560.420715
 20
504.971222
 30
0.0
 11
574.420715
 21
504.971222
 31
0.0
  0
LINE
  5
576
330
1F
100
AcDbEntity
  8
0
 62
     7
370
    35
100
AcDbLine
 10
560.420715
 20
505.971222
 30
0.0
 11
574.420715
 21
505.971222
 31
0.0
  0
LINE
  5
577
330
1F
100
AcDbEntity
  8
0
 62
     7
370
    35
100
AcDbLine
 10
560.420715
 20
506.971222
 30
0.0
 11
574.420715
 21
506.971222
 31
0.0
  0
LINE
  5
578
330
1F
100
AcDbEntity
  8
0
 62
     7
370
    35
100
AcDbLine
 10
560.420715
 20
507.971222
 30
0.0
 11
574.420715
 21
507.971222
 31
0.0
  0
LINE
  5
579
330
1F
100
AcDbEntity
  8
0
 62
     7
370
    35
100
AcDbLine
 10
560.420715
 20
508.971222
 30
0.0
 11
574.420715
 21
508.971222
 31
0.0
  0
LINE
  5
57A
330
1F
100
AcDbEntity
  8
0
 62
     7
370
    35
100
AcDbLine
 10
560.420715
 20
509.971222
 30
0.0
 11
574.420715
 21
509.971222
 31
0.0
  0
LINE
  5
57B
330
1F
100
AcDbEntity
  8
0
 62
     7
370
    35
100
AcDbLine
 10
560.420715
 20
510.971222
 30
0.0
 11
574.420715
 21
510.971222
 31
0.0
  0
LINE
  5
57C
330
1F
100
AcDbEntity
  8
0
 62
     7
370
    35
100
AcDbLine
 10
560.420715
 20
511.971222
 30
0.0
 11
574.420715
 21
511.971222
 31
0.0
  0
LINE
  5
57D
330
1F
100
AcDbEntity
  8
0
 62
     7
370
    35
100
AcDbLine
 10
560.420715
 20
512.971191
 30
0.0
 11
574.420715
 21
512.971191
 31
0.0
  0
LINE
  5
57E
330
1F
100
AcDbEntity
  8
0
 62
     7
370
    35
100
AcDbLine
 10
560.420715
 20
513.971191
 30
0.0
 11
574.420715
 21
513.971191
 31
0.0
  0
LINE
  5
57F
330
1F
100
AcDbEntity
  8
0
 62
     7
370
    35
100
AcDbLine
 10
560.420715
 20
514.971191
 30
0.0
 11
574.420715
 21
514.971191
 31
0.0
  0
LINE
  5
580
330
1F
100
AcDbEntity
  8
0
 62
     7
370
    35
100
AcDbLine
 10
560.420715
 20
515.971191
 30
0.0
 11
574.420715
 21
515.971191
 31
0.0
  0
LINE
  5
581
330
1F
100
AcDbEntity
  8
0
 62
     7
370
    35
100
AcDbLine
 10
561.120728
 20
516.971191
 30
0.0
 11
573.720703
 21
516.971191
 31
0.0
  0
LINE
  5
582
330
1F
100
AcDbEntity
  8
0
 62
     7
370
    35
100
AcDbLine
 10
573.720703
 20
517.77124
 30
0.0
 11
561.120728
 21
517.77124
 31
0.0
  0
LINE
  5
583
330
1F
100
AcDbEntity
  8
0
 62
     7
370
    35
100
AcDbLine
 10
561.120728
 20
519.971191
 30
0.0
 11
561.120728
 21
517.971191
 31
0.0
  0
LINE
  5
584
330
1F
100
AcDbEntity
  8
0
 62
     7
370
    35
100
AcDbLine
 10
573.720703
 20
519.971191
 30
0.0
 11
573.720703
 21
523.971191
 31
0.0
  0
LINE
  5
585
330
1F
100
AcDbEntity
  8
0
 62
     7
370
    35
100
AcDbLine
 10
561.120728
 20
519.971191
 30
0.0
 11
561.120728
 21
523.971191
 31
0.0
  0
LINE
  5
586
330
1F
100
AcDbEntity
  8
0
 62
     7
370
    35
100
AcDbLine
 10
573.720703
 20
519.971191
 30
0.0
 11
573.720703
 21
517.971191
 31
0.0
  0
LINE
  5
587
330
1F
100
AcDbEntity
  8
0
 62
     7
370
    35
100
AcDbLine
 10
589.420715
 20
512.971191
 30
0.0
 11
589.420715
 21
503.971222
 31
0.0
  0
LINE
  5
588
330
1F
100
AcDbEntity
  8
0
 62
     7
370
    35
100
AcDbLine
 10
573.920715
 20
559.971191
 30
0.0
 11
560.920715
 21
559.971191
 31
0.0
  0
LINE
  5
589
330
1F
100
AcDbEntity
  8
0
 62
     7
370
    35
100
AcDbLine
 10
560.920715
 20
559.971191
 30
0.0
 11
560.920715
 21
554.971191
 31
0.0
  0
LINE
  5
58A
330
1F
100
AcDbEntity
  8
0
 62
     7
370
    35
100
AcDbLine
 10
560.920715
 20
554.971191
 30
0.0
 11
573.920715
 21
554.971191
 31
0.0
  0
LINE
  5
58B
330
1F
100
AcDbEntity
  8
0
 62
     7
370
    35
100
AcDbLine
 10
573.920715
 20
554.971191
 30
0.0
 11
573.920715
 21
559.971191
 31
0.0
  0
LINE
  5
58C
330
1F
100
AcDbEntity
  8
0
 62
     7
370
    35
100
AcDbLine
 10
575.520691
 20
559.971191
 30
0.0
 11
588.520691
 21
559.971191
 31
0.0
  0
LINE
  5
58D
330
1F
100
AcDbEntity
  8
0
 62
     7
370
    35
100
AcDbLine
 10
575.520691
 20
559.971191
 30
0.0
 11
575.520691
 21
554.971191
 31
0.0
  0
LINE
  5
58E
330
1F
100
AcDbEntity
  8
0
 62
     7
370
    35
100
AcDbLine
 10
588.520691
 20
554.971191
 30
0.0
 11
575.520691
 21
554.971191
 31
0.0
  0
LINE
  5
58F
330
1F
100
AcDbEntity
  8
0
 62
     7
370
    35
100
AcDbLine
 10
588.520691
 20
554.971191
 30
0.0
 11
588.520691
 21
559.971191
 31
0.0
  0
LINE
  5
590
330
1F
100
AcDbEntity
  8
0
 62
     7
370
    35
100
AcDbLine
 10
559.320679
 20
559.971191
 30
0.0
 11
559.320679
 21
554.971191
 31
0.0
  0
LINE
  5
591
330
1F
100
AcDbEntity
  8
0
 62
     7
370
    35
100
AcDbLine
 10
559.320679
 20
559.971191
 30
0.0
 11
546.320679
 21
559.971191
 31
0.0
  0
LINE
  5
592
330
1F
100
AcDbEntity
  8
0
 62
     7
370
    35
100
AcDbLine
 10
546.320679
 20
554.971191
 30
0.0
 11
546.320679
 21
559.971191
 31
0.0
  0
LINE
  5
593
330
1F
100
AcDbEntity
  8
0
 62
     7
370
    35
100
AcDbLine
 10
546.320679
 20
554.971191
 30
0.0
 11
559.320679
 21
554.971191
 31
0.0
  0
LINE
  5
594
330
1F
100
AcDbEntity
  8
0
 62
     7
370
    35
100
AcDbLine
 10
571.870728
 20
551.071228
 30
0.0
 11
576.970703
 21
551.071228
 31
0.0
  0
LINE
  5
595
330
1F
100
AcDbEntity
  8
0
 62
     7
370
    35
100
AcDbLine
 10
571.870728
 20
548.971191
 30
0.0
 11
571.870728
 21
551.071228
 31
0.0
  0
LINE
  5
596
330
1F
100
AcDbEntity
  8
0
 62
     7
370
    35
100
AcDbLine
 10
576.970703
 20
548.971191
 30
0.0
 11
571.870728
 21
548.971191
 31
0.0
  0
LINE
  5
597
330
1F
100
AcDbEntity
  8
0
 62
     7
370
    35
100
AcDbLine
 10
576.970703
 20
551.071228
 30
0.0
 11
576.970703
 21
548.971191
 31
0.0
  0
LINE
  5
598
330
1F
100
AcDbEntity
  8
0
 62
     7
370
    35
100
AcDbLine
 10
562.970703
 20
551.071228
 30
0.0
 11
557.870728
 21
551.071228
 31
0.0
  0
LINE
  5
599
330
1F
100
AcDbEntity
  8
0
 62
     7
370
    35
100
AcDbLine
 10
557.870728
 20
551.071228
 30
0.0
 11
557.870728
 21
548.971191
 31
0.0
  0
LINE
  5
59A
330
1F
100
AcDbEntity
  8
0
 62
     7
370
    35
100
AcDbLine
 10
557.870728
 20
548.971191
 30
0.0
 11
562.970703
 21
548.971191
 31
0.0
  0
LINE
  5
59B
330
1F
100
AcDbEntity
  8
0
 62
     7
370
    35
100
AcDbLine
 10
562.970703
 20
548.971191
 30
0.0
 11
562.970703
 21
551.071228
 31
0.0
  0
LINE
  5
59C
330
1F
100
AcDbEntity
  8
0
 62
     7
370
    35
100
AcDbLine
 10
545.420715
 20
512.971191
 30
0.0
 11
545.420715
 21
503.971222
 31
0.0
  0
LINE
  5
59D
330
1F
100
AcDbEntity
  8
0
 62
     7
370
    35
100
AcDbLine
 10
561.120728
 20
523.971191
 30
0.0
 11
573.720703
 21
523.971191
 31
0.0
  0
LINE
  5
59E
330
1F
100
AcDbEntity
  8
0
 62
     7
370
    35
100
AcDbLine
 10
573.720703
 20
517.971191
 30
0.0
 11
573.720703
 21
516.971191
 31
0.0
  0
LINE
  5
59F
330
1F
100
AcDbEntity
  8
0
 62
     7
370
    35
100
AcDbLine
 10
574.420715
 20
515.971191
 30
0.0
 11
574.420715
 21
516.971191
 31
0.0
  0
LINE
  5
5A0
330
1F
100
AcDbEntity
  8
0
 62
     7
370
    35
100
AcDbLine
 10
574.420715
 20
514.971191
 30
0.0
 11
574.420715
 21
515.971191
 31
0.0
  0
LINE
  5
5A1
330
1F
100
AcDbEntity
  8
0
 62
     7
370
    35
100
AcDbLine
 10
574.420715
 20
513.971191
 30
0.0
 11
574.420715
 21
514.971191
 31
0.0
  0
LINE
  5
5A2
330
1F
100
AcDbEntity
  8
0
 62
     7
370
    35
100
AcDbLine
 10
574.420715
 20
512.971191
 30
0.0
 11
574.420715
 21
513.971191
 31
0.0
  0
LINE
  5
5A3
330
1F
100
AcDbEntity
  8
0
 62
     7
370
    35
100
AcDbLine
 10
574.420715
 20
511.971222
 30
0.0
 11
574.420715
 21
512.971191
 31
0.0
  0
LINE
  5
5A4
330
1F
100
AcDbEntity
  8
0
 62
     7
370
    35
100
AcDbLine
 10
574.420715
 20
510.971222
 30
0.0
 11
574.420715
 21
511.971222
 31
0.0
  0
LINE
  5
5A5
330
1F
100
AcDbEntity
  8
0
 62
     7
370
    35
100
AcDbLine
 10
574.420715
 20
509.971222
 30
0.0
 11
574.420715
 21
510.971222
 31
0.0
  0
LINE
  5
5A6
330
1F
100
AcDbEntity
  8
0
 62
     7
370
    35
100
AcDbLine
 10
574.420715
 20
508.971222
 30
0.0
 11
574.420715
 21
509.971222
 31
0.0
  0
LINE
  5
5A7
330
1F
100
AcDbEntity
  8
0
 62
     7
370
    35
100
AcDbLine
 10
574.420715
 20
507.971222
 30
0.0
 11
574.420715
 21
508.971222
 31
0.0
  0
LINE
  5
5A8
330
1F
100
AcDbEntity
  8
0
 62
     7
370
    35
100
AcDbLine
 10
574.420715
 20
506.971222
 30
0.0
 11
574.420715
 21
507.971222
 31
0.0
  0
LINE
  5
5A9
330
1F
100
AcDbEntity
  8
0
 62
     7
370
    35
100
AcDbLine
 10
574.420715
 20
505.971222
 30
0.0
 11
574.420715
 21
506.971222
 31
0.0
  0
LINE
  5
5AA
330
1F
100
AcDbEntity
  8
0
 62
     7
370
    35
100
AcDbLine
 10
574.420715
 20
504.971222
 30
0.0
 11
574.420715
 21
505.971222
 31
0.0
  0
LINE
  5
5AB
330
1F
100
AcDbEntity
  8
0
 62
     7
370
    35
100
AcDbLine
 10
574.420715
 20
503.971222
 30
0.0
 11
574.420715
 21
504.971222
 31
0.0
  0
LINE
  5
5AC
330
1F
100
AcDbEntity
  8
0
 62
     7
370
    35
100
AcDbLine
 10
560.420715
 20
503.971222
 30
0.0
 11
574.420715
 21
503.971222
 31
0.0
  0
LINE
  5
5AD
330
1F
100
AcDbEntity
  8
0
 62
     7
370
    35
100
AcDbLine
 10
560.420715
 20
503.971222
 30
0.0
 11
560.420715
 21
504.971222
 31
0.0
  0
LINE
  5
5AE
330
1F
100
AcDbEntity
  8
0
 62
     7
370
    35
100
AcDbLine
 10
560.420715
 20
504.971222
 30
0.0
 11
560.420715
 21
505.971222
 31
0.0
  0
LINE
  5
5AF
330
1F
100
AcDbEntity
  8
0
 62
     7
370
    35
100
AcDbLine
 10
560.420715
 20
505.971222
 30
0.0
 11
560.420715
 21
506.971222
 31
0.0
  0
LINE
  5
5B0
330
1F
100
AcDbEntity
  8
0
 62
     7
370
    35
100
AcDbLine
 10
560.420715
 20
506.971222
 30
0.0
 11
560.420715
 21
507.971222
 31
0.0
  0
LINE
  5
5B1
330
1F
100
AcDbEntity
  8
0
 62
     7
370
    35
100
AcDbLine
 10
560.420715
 20
507.971222
 30
0.0
 11
560.420715
 21
508.971222
 31
0.0
  0
LINE
  5
5B2
330
1F
100
AcDbEntity
  8
0
 62
     7
370
    35
100
AcDbLine
 10
560.420715
 20
508.971222
 30
0.0
 11
560.420715
 21
509.971222
 31
0.0
  0
LINE
  5
5B3
330
1F
100
AcDbEntity
  8
0
 62
     7
370
    35
100
AcDbLine
 10
560.420715
 20
509.971222
 30
0.0
 11
560.420715
 21
510.971222
 31
0.0
  0
LINE
  5
5B4
330
1F
100
AcDbEntity
  8
0
 62
     7
370
    35
100
AcDbLine
 10
560.420715
 20
510.971222
 30
0.0
 11
560.420715
 21
511.971222
 31
0.0
  0
LINE
  5
5B5
330
1F
100
AcDbEntity
  8
0
 62
     7
370
    35
100
AcDbLine
 10
560.420715
 20
511.971222
 30
0.0
 11
560.420715
 21
512.971191
 31
0.0
  0
LINE
  5
5B6
330
1F
100
AcDbEntity
  8
0
 62
     7
370
    35
100
AcDbLine
 10
560.420715
 20
512.971191
 30
0.0
 11
560.420715
 21
513.971191
 31
0.0
  0
LINE
  5
5B7
330
1F
100
AcDbEntity
  8
0
 62
     7
370
    35
100
AcDbLine
 10
560.420715
 20
513.971191
 30
0.0
 11
560.420715
 21
514.971191
 31
0.0
  0
LINE
  5
5B8
330
1F
100
AcDbEntity
  8
0
 62
     7
370
    35
100
AcDbLine
 10
560.420715
 20
514.971191
 30
0.0
 11
560.420715
 21
515.971191
 31
0.0
  0
LINE
  5
5B9
330
1F
100
AcDbEntity
  8
0
 62
     7
370
    35
100
AcDbLine
 10
560.420715
 20
515.971191
 30
0.0
 11
560.420715
 21
516.971191
 31
0.0
  0
LINE
  5
5BA
330
1F
100
AcDbEntity
  8
0
 62
     7
370
    35
100
AcDbLine
 10
573.720703
 20
516.971191
 30
0.0
 11
574.420715
 21
516.971191
 31
0.0
  0
LINE
  5
5BB
330
1F
100
AcDbEntity
  8
0
 62
     7
370
    35
100
AcDbLine
 10
560.420715
 20
516.971191
 30
0.0
 11
561.120728
 21
516.971191
 31
0.0
  0
LINE
  5
5BC
330
1F
100
AcDbEntity
  8
0
 62
     7
370
    35
100
AcDbLine
 10
561.120728
 20
517.971191
 30
0.0
 11
561.120728
 21
516.971191
 31
0.0
  0
LINE
  5
5BD
330
1F
100
AcDbEntity
  8
0
 62
     7
370
    35
100
AcDbLine
 10
546.220703
 20
503.971222
 30
0.0
 11
546.220703
 21
512.971191
 31
0.0
  0
LINE
  5
5BE
330
1F
100
AcDbEntity
  8
0
 62
     7
370
    35
100
AcDbLine
 10
588.620728
 20
503.971222
 30
0.0
 11
588.620728
 21
512.971191
 31
0.0
  0
LINE
  5
5BF
330
1F
100
AcDbEntity
  8
0
 62
     7
370
    35
100
AcDbLine
 10
559.420715
 20
481.371216
 30
0.0
 11
559.420715
 21
480.77121
 31
0.0
  0
ARC
  5
5C0
330
1F
100
AcDbEntity
  8
0
 62
     7
370
    35
100
AcDbCircle
 10
559.720703
 20
480.77121
 30
0.0
 40
0.300000011920929
100
AcDbArc
 50
180.000009
 51
269.999997
  0
LINE
  5
5C1
330
1F
100
AcDbEntity
  8
0
 62
     7
370
    35
100
AcDbLine
 10
559.720703
 20
480.471222
 30
0.0
 11
564.120728
 21
480.471222
 31
0.0
  0
ARC
  5
5C2
330
1F
100
AcDbEntity
  8
0
 62
     7
370
    35
100
AcDbCircle
 10
564.120728
 20
480.77121
 30
0.0
 40
0.300000011920929
100
AcDbArc
 50
269.999997
 51
360.0
  0
LINE
  5
5C3
330
1F
100
AcDbEntity
  8
0
 62
     7
370
    35
100
AcDbLine
 10
564.420715
 20
481.371216
 30
0.0
 11
564.420715
 21
480.77121
 31
0.0
  0
ARC
  5
5C4
330
1F
100
AcDbEntity
  8
0
 62
     7
370
    35
100
AcDbCircle
 10
564.120728
 20
481.371216
 30
0.0
 40
0.300000011920929
100
AcDbArc
 50
0.0
 51
90.000003
  0
LINE
  5
5C5
330
1F
100
AcDbEntity
  8
0
 62
     7
370
    35
100
AcDbLine
 10
559.720703
 20
481.671234
 30
0.0
 11
564.120728
 21
481.671234
 31
0.0
  0
ARC
  5
5C6
330
1F
100
AcDbEntity
  8
0
 62
     7
370
    35
100
AcDbCircle
 10
559.720703
 20
481.371216
 30
0.0
 40
0.300000011920929
100
AcDbArc
 50
90.000003
 51
180.000009
  0
LINE
  5
5C7
330
1F
100
AcDbEntity
  8
0
 62
     7
370
    35
100
AcDbLine
 10
570.720703
 20
481.671234
 30
0.0
 11
575.120728
 21
481.671234
 31
0.0
  0
ARC
  5
5C8
330
1F
100
AcDbEntity
  8
0
 62
     7
370
    35
100
AcDbCircle
 10
570.720703
 20
481.371216
 30
0.0
 40
0.300000011920929
100
AcDbArc
 50
90.000003
 51
180.000009
  0
LINE
  5
5C9
330
1F
100
AcDbEntity
  8
0
 62
     7
370
    35
100
AcDbLine
 10
570.420715
 20
481.371216
 30
0.0
 11
570.420715
 21
480.77121
 31
0.0
  0
ARC
  5
5CA
330
1F
100
AcDbEntity
  8
0
 62
     7
370
    35
100
AcDbCircle
 10
570.720703
 20
480.77121
 30
0.0
 40
0.300000011920929
100
AcDbArc
 50
180.000009
 51
269.999997
  0
LINE
  5
5CB
330
1F
100
AcDbEntity
  8
0
 62
     7
370
    35
100
AcDbLine
 10
570.720703
 20
480.471222
 30
0.0
 11
575.120728
 21
480.471222
 31
0.0
  0
ARC
  5
5CC
330
1F
100
AcDbEntity
  8
0
 62
     7
370
    35
100
AcDbCircle
 10
575.120728
 20
480.77121
 30
0.0
 40
0.300000011920929
100
AcDbArc
 50
269.999997
 51
360.0
  0
LINE
  5
5CD
330
1F
100
AcDbEntity
  8
0
 62
     7
370
    35
100
AcDbLine
 10
575.420715
 20
481.371216
 30
0.0
 11
575.420715
 21
480.77121
 31
0.0
  0
ARC
  5
5CE
330
1F
100
AcDbEntity
  8
0
 62
     7
370
    35
100
AcDbCircle
 10
575.120728
 20
481.371216
 30
0.0
 40
0.300000011920929
100
AcDbArc
 50
0.0
 51
90.000003
  0
LINE
  5
5CF
330
1F
100
AcDbEntity
  8
0
 62
     7
370
    35
100
AcDbLine
 10
589.920715
 20
478.471222
 30
0.0
 11
591.420715
 21
478.471222
 31
0.0
  0
LINE
  5
5D0
330
1F
100
AcDbEntity
  8
0
 62
     7
370
    35
100
AcDbLine
 10
544.920715
 20
478.471222
 30
0.0
 11
589.920715
 21
478.471222
 31
0.0
  0
LINE
  5
5D1
330
1F
100
AcDbEntity
  8
0
 62
     7
370
    35
100
AcDbLine
 10
543.420715
 20
478.471222
 30
0.0
 11
544.920715
 21
478.471222
 31
0.0
  0
LINE
  5
5D2
330
1F
100
AcDbEntity
  8
0
 62
     7
370
    35
100
AcDbLine
 10
588.720703
 20
562.471191
 30
0.0
 11
546.120728
 21
562.471191
 31
0.0
  0
LINE
  5
5D3
330
1F
100
AcDbEntity
  8
0
 62
     7
370
    35
100
AcDbLine
 10
589.220703
 20
503.971222
 30
0.0
 11
588.620728
 21
503.971222
 31
0.0
  0
LINE
  5
5D4
330
1F
100
AcDbEntity
  8
0
 62
     7
370
    35
100
AcDbLine
 10
589.220703
 20
503.971222
 30
0.0
 11
589.720703
 21
503.971222
 31
0.0
  0
LINE
  5
5D5
330
1F
100
AcDbEntity
  8
0
 62
     7
370
    35
100
AcDbLine
 10
589.720703
 20
512.971191
 30
0.0
 11
589.720703
 21
503.971222
 31
0.0
  0
LINE
  5
5D6
330
1F
100
AcDbEntity
  8
0
 62
     7
370
    35
100
AcDbLine
 10
589.220703
 20
512.971191
 30
0.0
 11
589.720703
 21
512.971191
 31
0.0
  0
LINE
  5
5D7
330
1F
100
AcDbEntity
  8
0
 62
     7
370
    35
100
AcDbLine
 10
589.220703
 20
512.971191
 30
0.0
 11
588.620728
 21
512.971191
 31
0.0
  0
LINE
  5
5D8
330
1F
100
AcDbEntity
  8
0
 62
     7
370
    35
100
AcDbLine
 10
589.720703
 20
512.971191
 30
0.0
 11
589.720703
 21
546.27124
 31
0.0
  0
ARC
  5
5D9
330
1F
100
AcDbEntity
  8
0
 62
     7
370
    35
100
AcDbCircle
 10
589.220703
 20
546.27124
 30
0.0
 40
0.4999991357326508
100
AcDbArc
 50
269.999916
 51
0.000028
  0
ARC
  5
5DA
330
1F
100
AcDbEntity
  8
0
 62
     7
370
    35
100
AcDbCircle
 10
588.720703
 20
561.471191
 30
0.0
 40
1.0
100
AcDbArc
 50
0.0
 51
90.000003
  0
ARC
  5
5DB
330
1F
100
AcDbEntity
  8
0
 62
     7
370
    35
100
AcDbCircle
 10
546.120728
 20
561.471191
 30
0.0
 40
1.0
100
AcDbArc
 50
90.000003
 51
180.000009
  0
LINE
  5
5DC
330
1F
100
AcDbEntity
  8
0
 62
     7
370
    35
100
AcDbLine
 10
545.120728
 20
561.471191
 30
0.0
 11
545.120728
 21
546.471191
 31
0.0
  0
LINE
  5
5DD
330
1F
100
AcDbEntity
  8
0
 62
     7
370
    35
100
AcDbLine
 10
545.120728
 20
546.471191
 30
0.0
 11
589.720703
 21
546.471191
 31
0.0
  0
LINE
  5
5DE
330
1F
100
AcDbEntity
  8
0
 62
     7
370
    35
100
AcDbLine
 10
589.720703
 20
561.471191
 30
0.0
 11
589.720703
 21
546.471191
 31
0.0
  0
LINE
  5
5DF
330
1F
100
AcDbEntity
  8
0
 62
     7
370
    35
100
AcDbLine
 10
589.720703
 20
546.27124
 30
0.0
 11
589.720703
 21
546.471191
 31
0.0
  0
LINE
  5
5E0
330
1F
100
AcDbEntity
  8
0
 62
     7
370
    35
100
AcDbLine
 10
545.120728
 20
546.27124
 30
0.0
 11
545.120728
 21
546.471191
 31
0.0
  0
ARC
  5
5E1
330
1F
100
AcDbEntity
  8
0
 62
     7
370
    35
100
AcDbCircle
 10
545.620728
 20
546.27124
 30
0.0
 40
0.4999991059303284
100
AcDbArc
 50
179.999978
 51
270.000079
  0
LINE
  5
5E2
330
1F
100
AcDbEntity
  8
0
 62
     7
370
    35
100
AcDbLine
 10
589.220703
 20
545.77124
 30
0.0
 11
545.620728
 21
545.77124
 31
0.0
  0
LINE
  5
5E3
330
1F
100
AcDbEntity
  8
0
 62
     7
370
    35
100
AcDbLine
 10
545.120728
 20
512.971191
 30
0.0
 11
545.120728
 21
546.27124
 31
0.0
  0
LINE
  5
5E4
330
1F
100
AcDbEntity
  8
0
 62
     7
370
    35
100
AcDbLine
 10
545.120728
 20
512.971191
 30
0.0
 11
545.620728
 21
512.971191
 31
0.0
  0
LINE
  5
5E5
330
1F
100
AcDbEntity
  8
0
 62
     7
370
    35
100
AcDbLine
 10
545.620728
 20
512.971191
 30
0.0
 11
546.220703
 21
512.971191
 31
0.0
  0
LINE
  5
5E6
330
1F
100
AcDbEntity
  8
0
 62
     7
370
    35
100
AcDbLine
 10
545.120728
 20
512.971191
 30
0.0
 11
545.120728
 21
503.971222
 31
0.0
  0
LINE
  5
5E7
330
1F
100
AcDbEntity
  8
0
 62
     7
370
    35
100
AcDbLine
 10
545.620728
 20
503.971222
 30
0.0
 11
546.220703
 21
503.971222
 31
0.0
  0
LINE
  5
5E8
330
1F
100
AcDbEntity
  8
0
 62
     7
370
    35
100
AcDbLine
 10
545.120728
 20
503.971222
 30
0.0
 11
545.620728
 21
503.971222
 31
0.0
  0
LINE
  5
5E9
330
1F
100
AcDbEntity
  8
0
 62
     7
370
    35
100
AcDbLine
 10
589.720703
 20
482.471222
 30
0.0
 11
589.720703
 21
503.971222
 31
0.0
  0
LINE
  5
5EA
330
1F
100
AcDbEntity
  8
0
 62
     7
370
    35
100
AcDbLine
 10
545.120728
 20
482.471222
 30
0.0
 11
545.120728
 21
503.971222
 31
0.0
  0
LINE
  5
5EB
330
1F
100
AcDbEntity
  8
0
 62
     7
370
    35
100
AcDbLine
 10
543.420715
 20
482.471222
 30
0.0
 11
544.920715
 21
482.471222
 31
0.0
  0
LINE
  5
5EC
330
1F
100
AcDbEntity
  8
0
 62
     7
370
    35
100
AcDbLine
 10
543.420715
 20
478.471222
 30
0.0
 11
543.420715
 21
482.471222
 31
0.0
  0
LINE
  5
5ED
330
1F
100
AcDbEntity
  8
0
 62
     7
370
    35
100
AcDbLine
 10
544.920715
 20
482.471222
 30
0.0
 11
589.920715
 21
482.471222
 31
0.0
  0
LINE
  5
5EE
330
1F
100
AcDbEntity
  8
0
 62
     7
370
    35
100
AcDbLine
 10
589.920715
 20
482.471222
 30
0.0
 11
591.420715
 21
482.471222
 31
0.0
  0
LINE
  5
5EF
330
1F
100
AcDbEntity
  8
0
 62
     7
370
    35
100
AcDbLine
 10
591.420715
 20
478.471222
 30
0.0
 11
591.420715
 21
482.471222
 31
0.0
  0
LINE
  5
5F0
330
1F
100
AcDbEntity
  8
0
 62
     7
370
    35
100
AcDbLine
 10
640.563538
 20
439.740173
 30
0.0
 11
640.563538
 21
394.740173
 31
0.0
  0
ARC
  5
5F1
330
1F
100
AcDbEntity
  8
0
 62
     7
370
    35
100
AcDbCircle
 10
667.0802
 20
402.040161
 30
0.0
 40
26.8166675567627
100
AcDbArc
 50
171.421697
 51
188.578316
  0
ARC
  5
5F2
330
1F
100
AcDbEntity
  8
0
 62
     7
370
    35
100
AcDbCircle
 10
642.063538
 20
439.740173
 30
0.0
 40
1.5
100
AcDbArc
 50
90.000003
 51
180.000009
  0
ARC
  5
5F3
330
1F
100
AcDbEntity
  8
0
 62
     7
370
    35
100
AcDbCircle
 10
642.063538
 20
394.740173
 30
0.0
 40
1.5
100
AcDbArc
 50
180.000009
 51
269.999997
  0
LINE
  5
5F4
330
1F
100
AcDbEntity
  8
0
 62
     7
370
    35
100
AcDbLine
 10
644.563538
 20
441.240173
 30
0.0
 11
642.063538
 21
441.240173
 31
0.0
  0
LINE
  5
5F5
330
1F
100
AcDbEntity
  8
0
 62
     7
370
    35
100
AcDbLine
 10
644.563538
 20
393.240173
 30
0.0
 11
642.063538
 21
393.240173
 31
0.0
  0
LINE
  5
5F6
330
1F
100
AcDbEntity
  8
0
 62
     7
370
    35
100
AcDbLine
 10
644.563538
 20
394.740173
 30
0.0
 11
644.563538
 21
439.740173
 31
0.0
  0
LINE
  5
5F7
330
1F
100
AcDbEntity
  8
0
 62
     7
370
    35
100
AcDbLine
 10
644.563538
 20
394.740173
 30
0.0
 11
644.563538
 21
393.240173
 31
0.0
  0
LINE
  5
5F8
330
1F
100
AcDbEntity
  8
0
 62
     7
370
    35
100
AcDbLine
 10
644.563538
 20
441.240173
 30
0.0
 11
644.563538
 21
439.740173
 31
0.0
  0
LINE
  5
5F9
330
1F
100
AcDbEntity
  8
0
 62
     7
370
    35
100
AcDbLine
 10
639.93396
 20
405.440155
 30
0.0
 11
640.479919
 21
405.440155
 31
0.0
  0
ARC
  5
5FA
330
1F
100
AcDbEntity
  8
0
 62
     7
370
    35
100
AcDbCircle
 10
673.76355
 20
402.040161
 30
0.0
 40
34.0
100
AcDbArc
 50
174.260829
 51
185.739171
  0
LINE
  5
5FB
330
1F
100
AcDbEntity
  8
0
 62
     7
370
    35
100
AcDbLine
 10
640.479919
 20
398.640167
 30
0.0
 11
639.93396
 21
398.640167
 31
0.0
  0
LINE
  5
5FC
330
1F
100
AcDbEntity
  8
0
 62
     7
370
    35
100
AcDbLine
 10
648.563538
 20
394.940155
 30
0.0
 11
670.063538
 21
394.940155
 31
0.0
  0
LINE
  5
5FD
330
1F
100
AcDbEntity
  8
0
 62
     7
370
    35
100
AcDbLine
 10
670.063538
 20
394.940155
 30
0.0
 11
679.063538
 21
394.940155
 31
0.0
  0
LINE
  5
5FE
330
1F
100
AcDbEntity
  8
0
 62
     7
370
    35
100
AcDbLine
 10
679.063538
 20
394.940155
 30
0.0
 11
711.863525
 21
394.940155
 31
0.0
  0
LINE
  5
5FF
330
1F
100
AcDbEntity
  8
0
 62
     7
370
    35
100
AcDbLine
 10
728.563538
 20
423.790161
 30
0.0
 11
727.563538
 21
423.790161
 31
0.0
  0
LINE
  5
600
330
1F
100
AcDbEntity
  8
0
 62
     7
370
    35
100
AcDbLine
 10
727.563538
 20
423.790161
 30
0.0
 11
724.063538
 21
423.790161
 31
0.0
  0
LINE
  5
601
330
1F
100
AcDbEntity
  8
0
 62
     7
370
    35
100
AcDbLine
 10
727.563538
 20
424.690155
 30
0.0
 11
724.063538
 21
424.690155
 31
0.0
  0
LINE
  5
602
330
1F
100
AcDbEntity
  8
0
 62
     7
370
    35
100
AcDbLine
 10
727.563538
 20
424.690155
 30
0.0
 11
728.563538
 21
424.690155
 31
0.0
  0
LINE
  5
603
330
1F
100
AcDbEntity
  8
0
 62
     7
370
    35
100
AcDbLine
 10
728.563538
 20
409.790161
 30
0.0
 11
727.563538
 21
409.790161
 31
0.0
  0
LINE
  5
604
330
1F
100
AcDbEntity
  8
0
 62
     7
370
    35
100
AcDbLine
 10
727.563538
 20
409.790161
 30
0.0
 11
724.063538
 21
409.790161
 31
0.0
  0
LINE
  5
605
330
1F
100
AcDbEntity
  8
0
 62
     7
370
    35
100
AcDbLine
 10
727.563538
 20
410.690155
 30
0.0
 11
724.063538
 21
410.690155
 31
0.0
  0
LINE
  5
606
330
1F
100
AcDbEntity
  8
0
 62
     7
370
    35
100
AcDbLine
 10
727.563538
 20
410.690155
 30
0.0
 11
728.563538
 21
410.690155
 31
0.0
  0
LINE
  5
607
330
1F
100
AcDbEntity
  8
0
 62
     7
370
    35
100
AcDbLine
 10
652.563538
 20
438.240173
 30
0.0
 11
652.563538
 21
438.040161
 31
0.0
  0
LINE
  5
608
330
1F
100
AcDbEntity
  8
0
 62
     7
370
    35
100
AcDbLine
 10
652.563538
 20
438.040161
 30
0.0
 11
652.063538
 21
437.290161
 31
0.0
  0
LINE
  5
609
330
1F
100
AcDbEntity
  8
0
 62
     7
370
    35
100
AcDbLine
 10
679.063538
 20
438.040161
 30
0.0
 11
652.563538
 21
438.040161
 31
0.0
  0
LINE
  5
60A
330
1F
100
AcDbEntity
  8
0
 62
     7
370
    35
100
AcDbLine
 10
670.063538
 20
439.540161
 30
0.0
 11
679.063538
 21
439.540161
 31
0.0
  0
LINE
  5
60B
330
1F
100
AcDbEntity
  8
0
 62
     7
370
    35
100
AcDbLine
 10
644.563538
 20
394.740173
 30
0.0
 11
644.563538
 21
393.240173
 31
0.0
  0
LINE
  5
60C
330
1F
100
AcDbEntity
  8
0
 62
     7
370
    35
100
AcDbLine
 10
644.563538
 20
394.740173
 30
0.0
 11
644.563538
 21
439.740173
 31
0.0
  0
LINE
  5
60D
330
1F
100
AcDbEntity
  8
0
 62
     7
370
    35
100
AcDbLine
 10
644.563538
 20
441.240173
 30
0.0
 11
644.563538
 21
439.740173
 31
0.0
  0
LINE
  5
60E
330
1F
100
AcDbEntity
  8
0
 62
     7
370
    35
100
AcDbLine
 10
725.012817
 20
432.190155
 30
0.0
 11
725.063538
 21
432.190155
 31
0.0
  0
LINE
  5
60F
330
1F
100
AcDbEntity
  8
0
 62
     7
370
    35
100
AcDbLine
 10
725.563538
 20
431.690155
 30
0.0
 11
725.063538
 21
432.190155
 31
0.0
  0
LINE
  5
610
330
1F
100
AcDbEntity
  8
0
 62
     7
370
    35
100
AcDbLine
 10
728.563538
 20
402.790161
 30
0.0
 11
728.563538
 21
403.690155
 31
0.0
  0
LINE
  5
611
330
1F
100
AcDbEntity
  8
0
 62
     7
370
    35
100
AcDbLine
 10
725.013855
 20
404.190155
 30
0.0
 11
725.063538
 21
404.190155
 31
0.0
  0
LINE
  5
612
330
1F
100
AcDbEntity
  8
0
 62
     7
370
    35
100
AcDbLine
 10
725.063538
 20
404.190155
 30
0.0
 11
725.563538
 21
403.690155
 31
0.0
  0
LINE
  5
613
330
1F
100
AcDbEntity
  8
0
 62
     7
370
    35
100
AcDbLine
 10
724.563538
 20
403.690155
 30
0.0
 11
724.563538
 21
404.039246
 31
0.0
  0
LINE
  5
614
330
1F
100
AcDbEntity
  8
0
 62
     7
370
    35
100
AcDbLine
 10
724.563538
 20
409.43927
 30
0.0
 11
724.563538
 21
409.790161
 31
0.0
  0
LINE
  5
615
330
1F
100
AcDbEntity
  8
0
 62
     7
370
    35
100
AcDbLine
 10
725.011658
 20
409.290161
 30
0.0
 11
725.063538
 21
409.290161
 31
0.0
  0
LINE
  5
616
330
1F
100
AcDbEntity
  8
0
 62
     7
370
    35
100
AcDbLine
 10
725.563538
 20
409.790161
 30
0.0
 11
725.063538
 21
409.290161
 31
0.0
  0
LINE
  5
617
330
1F
100
AcDbEntity
  8
0
 62
     7
370
    35
100
AcDbLine
 10
728.563538
 20
409.790161
 30
0.0
 11
728.563538
 21
410.690155
 31
0.0
  0
LINE
  5
618
330
1F
100
AcDbEntity
  8
0
 62
     7
370
    35
100
AcDbLine
 10
725.012817
 20
411.190155
 30
0.0
 11
725.063538
 21
411.190155
 31
0.0
  0
LINE
  5
619
330
1F
100
AcDbEntity
  8
0
 62
     7
370
    35
100
AcDbLine
 10
725.063538
 20
411.190155
 30
0.0
 11
725.563538
 21
410.690155
 31
0.0
  0
LINE
  5
61A
330
1F
100
AcDbEntity
  8
0
 62
     7
370
    35
100
AcDbLine
 10
724.563538
 20
410.690155
 30
0.0
 11
724.563538
 21
411.040161
 31
0.0
  0
LINE
  5
61B
330
1F
100
AcDbEntity
  8
0
 62
     7
370
    35
100
AcDbLine
 10
724.563538
 20
416.440155
 30
0.0
 11
724.563538
 21
416.790161
 31
0.0
  0
LINE
  5
61C
330
1F
100
AcDbEntity
  8
0
 62
     7
370
    35
100
AcDbLine
 10
725.012634
 20
416.290161
 30
0.0
 11
725.063538
 21
416.290161
 31
0.0
  0
LINE
  5
61D
330
1F
100
AcDbEntity
  8
0
 62
     7
370
    35
100
AcDbLine
 10
725.563538
 20
416.790161
 30
0.0
 11
725.063538
 21
416.290161
 31
0.0
  0
LINE
  5
61E
330
1F
100
AcDbEntity
  8
0
 62
     7
370
    35
100
AcDbLine
 10
728.563538
 20
416.790161
 30
0.0
 11
728.563538
 21
417.690155
 31
0.0
  0
LINE
  5
61F
330
1F
100
AcDbEntity
  8
0
 62
     7
370
    35
100
AcDbLine
 10
725.012634
 20
418.190155
 30
0.0
 11
725.063538
 21
418.190155
 31
0.0
  0
LINE
  5
620
330
1F
100
AcDbEntity
  8
0
 62
     7
370
    35
100
AcDbLine
 10
725.063538
 20
418.190155
 30
0.0
 11
725.563538
 21
417.690155
 31
0.0
  0
LINE
  5
621
330
1F
100
AcDbEntity
  8
0
 62
     7
370
    35
100
AcDbLine
 10
724.563538
 20
417.690155
 30
0.0
 11
724.563538
 21
418.040314
 31
0.0
  0
LINE
  5
622
330
1F
100
AcDbEntity
  8
0
 62
     7
370
    35
100
AcDbLine
 10
724.563538
 20
423.440308
 30
0.0
 11
724.563538
 21
423.790161
 31
0.0
  0
LINE
  5
623
330
1F
100
AcDbEntity
  8
0
 62
     7
370
    35
100
AcDbLine
 10
725.012817
 20
423.290161
 30
0.0
 11
725.063538
 21
423.290161
 31
0.0
  0
LINE
  5
624
330
1F
100
AcDbEntity
  8
0
 62
     7
370
    35
100
AcDbLine
 10
725.563538
 20
423.790161
 30
0.0
 11
725.063538
 21
423.290161
 31
0.0
  0
LINE
  5
625
330
1F
100
AcDbEntity
  8
0
 62
     7
370
    35
100
AcDbLine
 10
728.563538
 20
423.790161
 30
0.0
 11
728.563538
 21
424.690155
 31
0.0
  0
LINE
  5
626
330
1F
100
AcDbEntity
  8
0
 62
     7
370
    35
100
AcDbLine
 10
725.012573
 20
425.190155
 30
0.0
 11
725.063538
 21
425.190155
 31
0.0
  0
LINE
  5
627
330
1F
100
AcDbEntity
  8
0
 62
     7
370
    35
100
AcDbLine
 10
725.063538
 20
425.190155
 30
0.0
 11
725.563538
 21
424.690155
 31
0.0
  0
LINE
  5
628
330
1F
100
AcDbEntity
  8
0
 62
     7
370
    35
100
AcDbLine
 10
724.563538
 20
424.690155
 30
0.0
 11
724.563538
 21
425.040405
 31
0.0
  0
LINE
  5
629
330
1F
100
AcDbEntity
  8
0
 62
     7
370
    35
100
AcDbLine
 10
724.563538
 20
430.440399
 30
0.0
 11
724.563538
 21
430.790161
 31
0.0
  0
LINE
  5
62A
330
1F
100
AcDbEntity
  8
0
 62
     7
370
    35
100
AcDbLine
 10
725.012939
 20
430.290161
 30
0.0
 11
725.063538
 21
430.290161
 31
0.0
  0
LINE
  5
62B
330
1F
100
AcDbEntity
  8
0
 62
     7
370
    35
100
AcDbLine
 10
725.563538
 20
430.790161
 30
0.0
 11
725.063538
 21
430.290161
 31
0.0
  0
LINE
  5
62C
330
1F
100
AcDbEntity
  8
0
 62
     7
370
    35
100
AcDbLine
 10
728.563538
 20
430.790161
 30
0.0
 11
728.563538
 21
431.690155
 31
0.0
  0
LINE
  5
62D
330
1F
100
AcDbEntity
  8
0
 62
     7
370
    35
100
AcDbLine
 10
724.563538
 20
431.690155
 30
0.0
 11
724.563538
 21
432.040161
 31
0.0
  0
LINE
  5
62E
330
1F
100
AcDbEntity
  8
0
 62
     7
370
    35
100
AcDbLine
 10
724.563538
 20
437.440155
 30
0.0
 11
724.563538
 21
437.790161
 31
0.0
  0
LINE
  5
62F
330
1F
100
AcDbEntity
  8
0
 62
     7
370
    35
100
AcDbLine
 10
725.012634
 20
437.290161
 30
0.0
 11
725.063538
 21
437.290161
 31
0.0
  0
LINE
  5
630
330
1F
100
AcDbEntity
  8
0
 62
     7
370
    35
100
AcDbLine
 10
725.063538
 20
437.290161
 30
0.0
 11
725.563538
 21
437.790161
 31
0.0
  0
LINE
  5
631
330
1F
100
AcDbEntity
  8
0
 62
     7
370
    35
100
AcDbLine
 10
728.563538
 20
437.790161
 30
0.0
 11
728.563538
 21
438.840179
 31
0.0
  0
LINE
  5
632
330
1F
100
AcDbEntity
  8
0
 62
     7
370
    35
100
AcDbLine
 10
653.563538
 20
435.740173
 30
0.0
 11
718.563538
 21
435.740173
 31
0.0
  0
LINE
  5
633
330
1F
100
AcDbEntity
  8
0
 62
     7
370
    35
100
AcDbLine
 10
653.563538
 20
435.740173
 30
0.0
 11
653.563538
 21
398.740173
 31
0.0
  0
LINE
  5
634
330
1F
100
AcDbEntity
  8
0
 62
     7
370
    35
100
AcDbLine
 10
718.563538
 20
398.740173
 30
0.0
 11
653.563538
 21
398.740173
 31
0.0
  0
LINE
  5
635
330
1F
100
AcDbEntity
  8
0
 62
     7
370
    35
100
AcDbLine
 10
718.563538
 20
398.740173
 30
0.0
 11
718.563538
 21
435.740173
 31
0.0
  0
LINE
  5
636
330
1F
100
AcDbEntity
  8
0
 62
     7
370
    35
100
AcDbLine
 10
670.063538
 20
439.540161
 30
0.0
 11
670.063538
 21
439.040161
 31
0.0
  0
LINE
  5
637
330
1F
100
AcDbEntity
  8
0
 62
     7
370
    35
100
AcDbLine
 10
670.063538
 20
438.240173
 30
0.0
 11
670.063538
 21
439.040161
 31
0.0
  0
LINE
  5
638
330
1F
100
AcDbEntity
  8
0
 62
     7
370
    35
100
AcDbLine
 10
670.063538
 20
438.240173
 30
0.0
 11
652.063538
 21
438.240173
 31
0.0
  0
LINE
  5
639
330
1F
100
AcDbEntity
  8
0
 62
     7
370
    35
100
AcDbLine
 10
652.063538
 20
438.240173
 30
0.0
 11
652.063538
 21
436.840179
 31
0.0
  0
LINE
  5
63A
330
1F
100
AcDbEntity
  8
0
 62
     7
370
    35
100
AcDbLine
 10
679.063538
 20
436.840179
 30
0.0
 11
652.063538
 21
436.840179
 31
0.0
  0
LINE
  5
63B
330
1F
100
AcDbEntity
  8
0
 62
     7
370
    35
100
AcDbLine
 10
679.063538
 20
436.840179
 30
0.0
 11
679.063538
 21
439.040161
 31
0.0
  0
LINE
  5
63C
330
1F
100
AcDbEntity
  8
0
 62
     7
370
    35
100
AcDbLine
 10
679.063538
 20
439.540161
 30
0.0
 11
679.063538
 21
439.040161
 31
0.0
  0
LINE
  5
63D
330
1F
100
AcDbEntity
  8
0
 62
     7
370
    35
100
AcDbLine
 10
711.863525
 20
439.540161
 30
0.0
 11
712.363525
 21
439.040161
 31
0.0
  0
LINE
  5
63E
330
1F
100
AcDbEntity
  8
0
 62
     7
370
    35
100
AcDbLine
 10
679.063538
 20
439.540161
 30
0.0
 11
711.863525
 21
439.540161
 31
0.0
  0
LINE
  5
63F
330
1F
100
AcDbEntity
  8
0
 62
     7
370
    35
100
AcDbLine
 10
728.563538
 20
437.790161
 30
0.0
 11
727.563538
 21
437.790161
 31
0.0
  0
LINE
  5
640
330
1F
100
AcDbEntity
  8
0
 62
     7
370
    35
100
AcDbLine
 10
728.563538
 20
438.840179
 30
0.0
 11
727.563538
 21
438.840179
 31
0.0
  0
LINE
  5
641
330
1F
100
AcDbEntity
  8
0
 62
     7
370
    35
100
AcDbLine
 10
723.563538
 20
437.290161
 30
0.0
 11
724.063538
 21
437.790161
 31
0.0
  0
LINE
  5
642
330
1F
100
AcDbEntity
  8
0
 62
     7
370
    35
100
AcDbLine
 10
723.563538
 20
437.290161
 30
0.0
 11
722.063538
 21
437.290161
 31
0.0
  0
LINE
  5
643
330
1F
100
AcDbEntity
  8
0
 62
     7
370
    35
100
AcDbLine
 10
722.063538
 20
437.290161
 30
0.0
 11
722.063538
 21
432.190155
 31
0.0
  0
LINE
  5
644
330
1F
100
AcDbEntity
  8
0
 62
     7
370
    35
100
AcDbLine
 10
723.563538
 20
432.190155
 30
0.0
 11
722.063538
 21
432.190155
 31
0.0
  0
LINE
  5
645
330
1F
100
AcDbEntity
  8
0
 62
     7
370
    35
100
AcDbLine
 10
723.563538
 20
432.190155
 30
0.0
 11
724.063538
 21
431.690155
 31
0.0
  0
LINE
  5
646
330
1F
100
AcDbEntity
  8
0
 62
     7
370
    35
100
AcDbLine
 10
728.563538
 20
430.790161
 30
0.0
 11
727.563538
 21
430.790161
 31
0.0
  0
LINE
  5
647
330
1F
100
AcDbEntity
  8
0
 62
     7
370
    35
100
AcDbLine
 10
727.563538
 20
431.690155
 30
0.0
 11
728.563538
 21
431.690155
 31
0.0
  0
LINE
  5
648
330
1F
100
AcDbEntity
  8
0
 62
     7
370
    35
100
AcDbLine
 10
723.563538
 20
430.290161
 30
0.0
 11
724.063538
 21
430.790161
 31
0.0
  0
LINE
  5
649
330
1F
100
AcDbEntity
  8
0
 62
     7
370
    35
100
AcDbLine
 10
723.563538
 20
430.290161
 30
0.0
 11
722.063538
 21
430.290161
 31
0.0
  0
LINE
  5
64A
330
1F
100
AcDbEntity
  8
0
 62
     7
370
    35
100
AcDbLine
 10
722.063538
 20
430.290161
 30
0.0
 11
722.063538
 21
425.190155
 31
0.0
  0
LINE
  5
64B
330
1F
100
AcDbEntity
  8
0
 62
     7
370
    35
100
AcDbLine
 10
723.563538
 20
425.190155
 30
0.0
 11
722.063538
 21
425.190155
 31
0.0
  0
LINE
  5
64C
330
1F
100
AcDbEntity
  8
0
 62
     7
370
    35
100
AcDbLine
 10
723.563538
 20
425.190155
 30
0.0
 11
724.063538
 21
424.690155
 31
0.0
  0
LINE
  5
64D
330
1F
100
AcDbEntity
  8
0
 62
     7
370
    35
100
AcDbLine
 10
723.563538
 20
423.290161
 30
0.0
 11
724.063538
 21
423.790161
 31
0.0
  0
LINE
  5
64E
330
1F
100
AcDbEntity
  8
0
 62
     7
370
    35
100
AcDbLine
 10
723.563538
 20
423.290161
 30
0.0
 11
722.063538
 21
423.290161
 31
0.0
  0
LINE
  5
64F
330
1F
100
AcDbEntity
  8
0
 62
     7
370
    35
100
AcDbLine
 10
722.063538
 20
423.290161
 30
0.0
 11
722.063538
 21
418.190155
 31
0.0
  0
LINE
  5
650
330
1F
100
AcDbEntity
  8
0
 62
     7
370
    35
100
AcDbLine
 10
723.563538
 20
418.190155
 30
0.0
 11
722.063538
 21
418.190155
 31
0.0
  0
LINE
  5
651
330
1F
100
AcDbEntity
  8
0
 62
     7
370
    35
100
AcDbLine
 10
723.563538
 20
418.190155
 30
0.0
 11
724.063538
 21
417.690155
 31
0.0
  0
LINE
  5
652
330
1F
100
AcDbEntity
  8
0
 62
     7
370
    35
100
AcDbLine
 10
728.563538
 20
416.790161
 30
0.0
 11
727.563538
 21
416.790161
 31
0.0
  0
LINE
  5
653
330
1F
100
AcDbEntity
  8
0
 62
     7
370
    35
100
AcDbLine
 10
727.563538
 20
417.690155
 30
0.0
 11
728.563538
 21
417.690155
 31
0.0
  0
LINE
  5
654
330
1F
100
AcDbEntity
  8
0
 62
     7
370
    35
100
AcDbLine
 10
723.563538
 20
416.290161
 30
0.0
 11
724.063538
 21
416.790161
 31
0.0
  0
LINE
  5
655
330
1F
100
AcDbEntity
  8
0
 62
     7
370
    35
100
AcDbLine
 10
723.563538
 20
416.290161
 30
0.0
 11
722.063538
 21
416.290161
 31
0.0
  0
LINE
  5
656
330
1F
100
AcDbEntity
  8
0
 62
     7
370
    35
100
AcDbLine
 10
722.063538
 20
416.290161
 30
0.0
 11
722.063538
 21
411.190155
 31
0.0
  0
LINE
  5
657
330
1F
100
AcDbEntity
  8
0
 62
     7
370
    35
100
AcDbLine
 10
723.563538
 20
411.190155
 30
0.0
 11
722.063538
 21
411.190155
 31
0.0
  0
LINE
  5
658
330
1F
100
AcDbEntity
  8
0
 62
     7
370
    35
100
AcDbLine
 10
723.563538
 20
411.190155
 30
0.0
 11
724.063538
 21
410.690155
 31
0.0
  0
LINE
  5
659
330
1F
100
AcDbEntity
  8
0
 62
     7
370
    35
100
AcDbLine
 10
723.563538
 20
409.290161
 30
0.0
 11
724.063538
 21
409.790161
 31
0.0
  0
LINE
  5
65A
330
1F
100
AcDbEntity
  8
0
 62
     7
370
    35
100
AcDbLine
 10
723.563538
 20
409.290161
 30
0.0
 11
722.063538
 21
409.290161
 31
0.0
  0
LINE
  5
65B
330
1F
100
AcDbEntity
  8
0
 62
     7
370
    35
100
AcDbLine
 10
722.063538
 20
409.290161
 30
0.0
 11
722.063538
 21
404.190155
 31
0.0
  0
LINE
  5
65C
330
1F
100
AcDbEntity
  8
0
 62
     7
370
    35
100
AcDbLine
 10
723.563538
 20
404.190155
 30
0.0
 11
722.063538
 21
404.190155
 31
0.0
  0
LINE
  5
65D
330
1F
100
AcDbEntity
  8
0
 62
     7
370
    35
100
AcDbLine
 10
723.563538
 20
404.190155
 30
0.0
 11
724.063538
 21
403.690155
 31
0.0
  0
LINE
  5
65E
330
1F
100
AcDbEntity
  8
0
 62
     7
370
    35
100
AcDbLine
 10
728.563538
 20
402.790161
 30
0.0
 11
727.563538
 21
402.790161
 31
0.0
  0
LINE
  5
65F
330
1F
100
AcDbEntity
  8
0
 62
     7
370
    35
100
AcDbLine
 10
727.563538
 20
403.690155
 30
0.0
 11
728.563538
 21
403.690155
 31
0.0
  0
LINE
  5
660
330
1F
100
AcDbEntity
  8
0
 62
     7
370
    35
100
AcDbLine
 10
723.563538
 20
402.290161
 30
0.0
 11
724.063538
 21
402.790161
 31
0.0
  0
LINE
  5
661
330
1F
100
AcDbEntity
  8
0
 62
     7
370
    35
100
AcDbLine
 10
723.563538
 20
402.290161
 30
0.0
 11
722.063538
 21
402.290161
 31
0.0
  0
LINE
  5
662
330
1F
100
AcDbEntity
  8
0
 62
     7
370
    35
100
AcDbLine
 10
723.563538
 20
397.190155
 30
0.0
 11
722.063538
 21
397.190155
 31
0.0
  0
LINE
  5
663
330
1F
100
AcDbEntity
  8
0
 62
     7
370
    35
100
AcDbLine
 10
652.063538
 20
396.240173
 30
0.0
 11
652.063538
 21
397.640167
 31
0.0
  0
LINE
  5
664
330
1F
100
AcDbEntity
  8
0
 62
     7
370
    35
100
AcDbLine
 10
725.563538
 20
402.790161
 30
0.0
 11
725.063538
 21
402.290161
 31
0.0
  0
LINE
  5
665
330
1F
100
AcDbEntity
  8
0
 62
     7
370
    35
100
AcDbLine
 10
727.563538
 20
438.840179
 30
0.0
 11
712.563538
 21
438.840179
 31
0.0
  0
LINE
  5
666
330
1F
100
AcDbEntity
  8
0
 62
     7
370
    35
100
AcDbLine
 10
712.363525
 20
439.040161
 30
0.0
 11
712.563538
 21
438.840179
 31
0.0
  0
LINE
  5
667
330
1F
100
AcDbEntity
  8
0
 62
     7
370
    35
100
AcDbLine
 10
725.012634
 20
402.290161
 30
0.0
 11
725.063538
 21
402.290161
 31
0.0
  0
LINE
  5
668
330
1F
100
AcDbEntity
  8
0
 62
     7
370
    35
100
AcDbLine
 10
725.012817
 20
397.190155
 30
0.0
 11
725.063538
 21
397.190155
 31
0.0
  0
LINE
  5
669
330
1F
100
AcDbEntity
  8
0
 62
     7
370
    35
100
AcDbLine
 10
727.563538
 20
395.640167
 30
0.0
 11
712.563538
 21
395.640167
 31
0.0
  0
LINE
  5
66A
330
1F
100
AcDbEntity
  8
0
 62
     7
370
    35
100
AcDbLine
 10
728.563538
 20
395.640167
 30
0.0
 11
727.563538
 21
395.640167
 31
0.0
  0
LINE
  5
66B
330
1F
100
AcDbEntity
  8
0
 62
     7
370
    35
100
AcDbLine
 10
679.063538
 20
397.640167
 30
0.0
 11
652.063538
 21
397.640167
 31
0.0
  0
LINE
  5
66C
330
1F
100
AcDbEntity
  8
0
 62
     7
370
    35
100
AcDbLine
 10
652.563538
 20
396.440155
 30
0.0
 11
652.563538
 21
396.240173
 31
0.0
  0
LINE
  5
66D
330
1F
100
AcDbEntity
  8
0
 62
     7
370
    35
100
AcDbLine
 10
652.563538
 20
396.440155
 30
0.0
 11
652.063538
 21
397.190155
 31
0.0
  0
LINE
  5
66E
330
1F
100
AcDbEntity
  8
0
 62
     7
370
    35
100
AcDbLine
 10
679.063538
 20
396.440155
 30
0.0
 11
652.563538
 21
396.440155
 31
0.0
  0
LINE
  5
66F
330
1F
100
AcDbEntity
  8
0
 62
     7
370
    35
100
AcDbLine
 10
670.063538
 20
396.240173
 30
0.0
 11
652.063538
 21
396.240173
 31
0.0
  0
LINE
  5
670
330
1F
100
AcDbEntity
  8
0
 62
     7
370
    35
100
AcDbLine
 10
648.563538
 20
439.540161
 30
0.0
 11
670.063538
 21
439.540161
 31
0.0
  0
LINE
  5
671
330
1F
100
AcDbEntity
  8
0
 62
     7
370
    35
100
AcDbLine
 10
644.563538
 20
441.240173
 30
0.0
 11
648.563538
 21
441.240173
 31
0.0
  0
LINE
  5
672
330
1F
100
AcDbEntity
  8
0
 62
     7
370
    35
100
AcDbLine
 10
648.563538
 20
441.240173
 30
0.0
 11
648.563538
 21
439.740173
 31
0.0
  0
LINE
  5
673
330
1F
100
AcDbEntity
  8
0
 62
     7
370
    35
100
AcDbLine
 10
648.563538
 20
394.740173
 30
0.0
 11
648.563538
 21
439.740173
 31
0.0
  0
LINE
  5
674
330
1F
100
AcDbEntity
  8
0
 62
     7
370
    35
100
AcDbLine
 10
648.563538
 20
394.740173
 30
0.0
 11
648.563538
 21
393.240173
 31
0.0
  0
LINE
  5
675
330
1F
100
AcDbEntity
  8
0
 62
     7
370
    35
100
AcDbLine
 10
644.563538
 20
393.240173
 30
0.0
 11
648.563538
 21
393.240173
 31
0.0
  0
LINE
  5
676
330
1F
100
AcDbEntity
  8
0
 62
     7
370
    35
100
AcDbLine
 10
727.563538
 20
431.690155
 30
0.0
 11
727.101685
 21
431.690155
 31
0.0
  0
LINE
  5
677
330
1F
100
AcDbEntity
  8
0
 62
     7
370
    35
100
AcDbLine
 10
725.563538
 20
431.690155
 30
0.0
 11
727.101685
 21
431.690155
 31
0.0
  0
LINE
  5
678
330
1F
100
AcDbEntity
  8
0
 62
     7
370
    35
100
AcDbLine
 10
724.063538
 20
431.690155
 30
0.0
 11
725.563538
 21
431.690155
 31
0.0
  0
LINE
  5
679
330
1F
100
AcDbEntity
  8
0
 62
     7
370
    35
100
AcDbLine
 10
727.563538
 20
402.790161
 30
0.0
 11
724.063538
 21
402.790161
 31
0.0
  0
LINE
  5
67A
330
1F
100
AcDbEntity
  8
0
 62
     7
370
    35
100
AcDbLine
 10
727.563538
 20
403.690155
 30
0.0
 11
724.063538
 21
403.690155
 31
0.0
  0
LINE
  5
67B
330
1F
100
AcDbEntity
  8
0
 62
     7
370
    35
100
AcDbLine
 10
727.563538
 20
416.790161
 30
0.0
 11
724.063538
 21
416.790161
 31
0.0
  0
LINE
  5
67C
330
1F
100
AcDbEntity
  8
0
 62
     7
370
    35
100
AcDbLine
 10
727.563538
 20
417.690155
 30
0.0
 11
724.063538
 21
417.690155
 31
0.0
  0
LINE
  5
67D
330
1F
100
AcDbEntity
  8
0
 62
     7
370
    35
100
AcDbLine
 10
727.563538
 20
430.790161
 30
0.0
 11
724.063538
 21
430.790161
 31
0.0
  0
LINE
  5
67E
330
1F
100
AcDbEntity
  8
0
 62
     7
370
    35
100
AcDbLine
 10
727.101685
 20
437.790161
 30
0.0
 11
727.563538
 21
437.790161
 31
0.0
  0
LINE
  5
67F
330
1F
100
AcDbEntity
  8
0
 62
     7
370
    35
100
AcDbLine
 10
727.101685
 20
437.790161
 30
0.0
 11
725.563538
 21
437.790161
 31
0.0
  0
LINE
  5
680
330
1F
100
AcDbEntity
  8
0
 62
     7
370
    35
100
AcDbLine
 10
725.563538
 20
437.790161
 30
0.0
 11
724.063538
 21
437.790161
 31
0.0
  0
LINE
  5
681
330
1F
100
AcDbEntity
  8
0
 62
     7
370
    35
100
AcDbLine
 10
724.563538
 20
396.690155
 30
0.0
 11
724.563538
 21
397.040161
 31
0.0
  0
LINE
  5
682
330
1F
100
AcDbEntity
  8
0
 62
     7
370
    35
100
AcDbLine
 10
724.563538
 20
402.440155
 30
0.0
 11
724.563538
 21
402.790161
 31
0.0
  0
LINE
  5
683
330
1F
100
AcDbEntity
  8
0
 62
     7
370
    35
100
AcDbLine
 10
722.063538
 20
402.290161
 30
0.0
 11
722.063538
 21
397.190155
 31
0.0
  0
LINE
  5
684
330
1F
100
AcDbEntity
  8
0
 62
     7
370
    35
100
AcDbLine
 10
723.563538
 20
397.190155
 30
0.0
 11
724.063538
 21
396.690155
 31
0.0
  0
LINE
  5
685
330
1F
100
AcDbEntity
  8
0
 62
     7
370
    35
100
AcDbLine
 10
670.063538
 20
396.240173
 30
0.0
 11
670.063538
 21
395.440155
 31
0.0
  0
LINE
  5
686
330
1F
100
AcDbEntity
  8
0
 62
     7
370
    35
100
AcDbLine
 10
679.063538
 20
397.640167
 30
0.0
 11
679.063538
 21
395.440155
 31
0.0
  0
LINE
  5
687
330
1F
100
AcDbEntity
  8
0
 62
     7
370
    35
100
AcDbLine
 10
712.363525
 20
395.440155
 30
0.0
 11
712.563538
 21
395.640167
 31
0.0
  0
LINE
  5
688
330
1F
100
AcDbEntity
  8
0
 62
     7
370
    35
100
AcDbLine
 10
724.063538
 20
396.690155
 30
0.0
 11
727.563538
 21
396.690155
 31
0.0
  0
LINE
  5
689
330
1F
100
AcDbEntity
  8
0
 62
     7
370
    35
100
AcDbLine
 10
728.563538
 20
395.640167
 30
0.0
 11
728.563538
 21
396.690155
 31
0.0
  0
LINE
  5
68A
330
1F
100
AcDbEntity
  8
0
 62
     7
370
    35
100
AcDbLine
 10
727.563538
 20
396.690155
 30
0.0
 11
728.563538
 21
396.690155
 31
0.0
  0
LINE
  5
68B
330
1F
100
AcDbEntity
  8
0
 62
     7
370
    35
100
AcDbLine
 10
725.063538
 20
397.190155
 30
0.0
 11
725.563538
 21
396.690155
 31
0.0
  0
LINE
  5
68C
330
1F
100
AcDbEntity
  8
0
 62
     7
370
    35
100
AcDbLine
 10
711.863525
 20
394.940155
 30
0.0
 11
712.363525
 21
395.440155
 31
0.0
  0
LINE
  5
68D
330
1F
100
AcDbEntity
  8
0
 62
     7
370
    35
100
AcDbLine
 10
679.063538
 20
395.440155
 30
0.0
 11
679.063538
 21
394.940155
 31
0.0
  0
LINE
  5
68E
330
1F
100
AcDbEntity
  8
0
 62
     7
370
    35
100
AcDbLine
 10
670.063538
 20
395.440155
 30
0.0
 11
670.063538
 21
394.940155
 31
0.0
  0
LINE
  5
68F
330
1F
100
AcDbEntity
  8
0
 62
     7
370
    35
100
AcDbLine
 10
724.624451
 20
437.440155
 30
0.0
 11
723.713562
 21
437.440155
 31
0.0
  0
LINE
  5
690
330
1F
100
AcDbEntity
  8
0
 62
     7
370
    35
100
AcDbLine
 10
724.624451
 20
432.040161
 30
0.0
 11
723.713501
 21
432.040161
 31
0.0
  0
POLYLINE
  5
691
330
1F
100
AcDbEntity
  8
0
 62
     7
370
    35
100
AcDb2dPolyline
 66
     1
 10
0.0
 20
0.0
 30
0.0
  0
VERTEX
  5
692
330
691
100
AcDbEntity
  8
0
370
     0
100
AcDbVertex
100
AcDb2dVertex
 10
725.45752
 20
435.841675
 30
0.0
  0
VERTEX
  5
693
330
691
100
AcDbEntity
  8
0
370
     0
100
AcDbVertex
100
AcDb2dVertex
 10
725.506042
 20
434.634186
 30
0.0
  0
VERTEX
  5
694
330
691
100
AcDbEntity
  8
0
370
     0
100
AcDbVertex
100
AcDb2dVertex
 10
725.445496
 20
433.520264
 30
0.0
  0
VERTEX
  5
695
330
691
100
AcDbEntity
  8
0
370
     0
100
AcDbVertex
100
AcDb2dVertex
 10
725.338257
 20
432.856659
 30
0.0
  0
VERTEX
  5
696
330
691
100
AcDbEntity
  8
0
370
     0
100
AcDbVertex
100
AcDb2dVertex
 10
725.219299
 20
432.485535
 30
0.0
  0
VERTEX
  5
697
330
691
100
AcDbEntity
  8
0
370
     0
100
AcDbVertex
100
AcDb2dVertex
 10
725.068481
 20
432.245483
 30
0.0
  0
VERTEX
  5
698
330
691
100
AcDbEntity
  8
0
370
     0
100
AcDbVertex
100
AcDb2dVertex
 10
724.866211
 20
432.094025
 30
0.0
  0
VERTEX
  5
699
330
691
100
AcDbEntity
  8
0
370
     0
100
AcDbVertex
100
AcDb2dVertex
 10
724.624451
 20
432.040161
 30
0.0
  0
SEQEND
  5
69A
330
691
100
AcDbEntity
  8
0
 62
     7
370
    35
  0
POLYLINE
  5
69B
330
1F
100
AcDbEntity
  8
0
 62
     7
370
    35
100
AcDb2dPolyline
 66
     1
 10
0.0
 20
0.0
 30
0.0
  0
VERTEX
  5
69C
330
69B
100
AcDbEntity
  8
0
370
     0
100
AcDbVertex
100
AcDb2dVertex
 10
725.45752
 20
435.841675
 30
0.0
  0
VERTEX
  5
69D
330
69B
100
AcDbEntity
  8
0
370
     0
100
AcDbVertex
100
AcDb2dVertex
 10
725.346985
 20
436.585724
 30
0.0
  0
VERTEX
  5
69E
330
69B
100
AcDbEntity
  8
0
370
     0
100
AcDbVertex
100
AcDb2dVertex
 10
725.229126
 20
436.972351
 30
0.0
  0
VERTEX
  5
69F
330
69B
100
AcDbEntity
  8
0
370
     0
100
AcDbVertex
100
AcDb2dVertex
 10
725.053528
 20
437.250916
 30
0.0
  0
VERTEX
  5
6A0
330
69B
100
AcDbEntity
  8
0
370
     0
100
AcDbVertex
100
AcDb2dVertex
 10
724.850708
 20
437.39328
 30
0.0
  0
VERTEX
  5
6A1
330
69B
100
AcDbEntity
  8
0
370
     0
100
AcDbVertex
100
AcDb2dVertex
 10
724.624451
 20
437.440155
 30
0.0
  0
SEQEND
  5
6A2
330
69B
100
AcDbEntity
  8
0
 62
     7
370
    35
  0
POLYLINE
  5
6A3
330
1F
100
AcDbEntity
  8
0
 62
     7
370
    35
100
AcDb2dPolyline
 66
     1
 10
0.0
 20
0.0
 30
0.0
  0
VERTEX
  5
6A4
330
6A3
100
AcDbEntity
  8
0
370
     0
100
AcDbVertex
100
AcDb2dVertex
 10
722.184814
 20
433.611938
 30
0.0
  0
VERTEX
  5
6A5
330
6A3
100
AcDbEntity
  8
0
370
     0
100
AcDbVertex
100
AcDb2dVertex
 10
722.240356
 20
434.740173
 30
0.0
  0
VERTEX
  5
6A6
330
6A3
100
AcDbEntity
  8
0
370
     0
100
AcDbVertex
100
AcDb2dVertex
 10
722.184814
 20
435.868378
 30
0.0
  0
SEQEND
  5
6A7
330
6A3
100
AcDbEntity
  8
0
 62
     7
370
    35
  0
LINE
  5
6A8
330
1F
100
AcDbEntity
  8
0
 62
     7
370
    35
100
AcDbLine
 10
722.292419
 20
437.290161
 30
0.0
 11
722.387939
 21
436.740173
 31
0.0
  0
LINE
  5
6A9
330
1F
100
AcDbEntity
  8
0
 62
     7
370
    35
100
AcDbLine
 10
723.668213
 20
436.740173
 30
0.0
 11
722.387939
 21
436.740173
 31
0.0
  0
LINE
  5
6AA
330
1F
100
AcDbEntity
  8
0
 62
     7
370
    35
100
AcDbLine
 10
723.57135
 20
437.297974
 30
0.0
 11
723.668213
 21
436.740173
 31
0.0
  0
LINE
  5
6AB
330
1F
100
AcDbEntity
  8
0
 62
     7
370
    35
100
AcDbLine
 10
722.387939
 20
432.740173
 30
0.0
 11
723.668213
 21
432.740173
 31
0.0
  0
LINE
  5
6AC
330
1F
100
AcDbEntity
  8
0
 62
     7
370
    35
100
AcDbLine
 10
723.668213
 20
436.740173
 30
0.0
 11
723.668213
 21
432.740173
 31
0.0
  0
LINE
  5
6AD
330
1F
100
AcDbEntity
  8
0
 62
     7
370
    35
100
AcDbLine
 10
722.387939
 20
436.740173
 30
0.0
 11
722.387939
 21
432.740173
 31
0.0
  0
LINE
  5
6AE
330
1F
100
AcDbEntity
  8
0
 62
     7
370
    35
100
AcDbLine
 10
722.292419
 20
432.190155
 30
0.0
 11
722.387939
 21
432.740173
 31
0.0
  0
LINE
  5
6AF
330
1F
100
AcDbEntity
  8
0
 62
     7
370
    35
100
AcDbLine
 10
723.57135
 20
432.182373
 30
0.0
 11
723.668213
 21
432.740173
 31
0.0
  0
LINE
  5
6B0
330
1F
100
AcDbEntity
  8
0
 62
     7
370
    35
100
AcDbLine
 10
722.184814
 20
432.190155
 30
0.0
 11
722.184814
 21
437.290161
 31
0.0
  0
LINE
  5
6B1
330
1F
100
AcDbEntity
  8
0
 62
     7
370
    35
100
AcDbLine
 10
724.624451
 20
430.440399
 30
0.0
 11
723.713806
 21
430.440399
 31
0.0
  0
LINE
  5
6B2
330
1F
100
AcDbEntity
  8
0
 62
     7
370
    35
100
AcDbLine
 10
724.624451
 20
425.040405
 30
0.0
 11
723.713257
 21
425.040405
 31
0.0
  0
POLYLINE
  5
6B3
330
1F
100
AcDbEntity
  8
0
 62
     7
370
    35
100
AcDb2dPolyline
 66
     1
 10
0.0
 20
0.0
 30
0.0
  0
VERTEX
  5
6B4
330
6B3
100
AcDbEntity
  8
0
370
     0
100
AcDbVertex
100
AcDb2dVertex
 10
725.45752
 20
428.841919
 30
0.0
  0
VERTEX
  5
6B5
330
6B3
100
AcDbEntity
  8
0
370
     0
100
AcDbVertex
100
AcDb2dVertex
 10
725.506042
 20
427.63443
 30
0.0
  0
VERTEX
  5
6B6
330
6B3
100
AcDbEntity
  8
0
370
     0
100
AcDbVertex
100
AcDb2dVertex
 10
725.445496
 20
426.520508
 30
0.0
  0
VERTEX
  5
6B7
330
6B3
100
AcDbEntity
  8
0
370
     0
100
AcDbVertex
100
AcDb2dVertex
 10
725.338257
 20
425.856903
 30
0.0
  0
VERTEX
  5
6B8
330
6B3
100
AcDbEntity
  8
0
370
     0
100
AcDbVertex
100
AcDb2dVertex
 10
725.219299
 20
425.485748
 30
0.0
  0
VERTEX
  5
6B9
330
6B3
100
AcDbEntity
  8
0
370
     0
100
AcDbVertex
100
AcDb2dVertex
 10
725.068481
 20
425.245728
 30
0.0
  0
VERTEX
  5
6BA
330
6B3
100
AcDbEntity
  8
0
370
     0
100
AcDbVertex
100
AcDb2dVertex
 10
724.866211
 20
425.094269
 30
0.0
  0
VERTEX
  5
6BB
330
6B3
100
AcDbEntity
  8
0
370
     0
100
AcDbVertex
100
AcDb2dVertex
 10
724.624451
 20
425.040405
 30
0.0
  0
SEQEND
  5
6BC
330
6B3
100
AcDbEntity
  8
0
 62
     7
370
    35
  0
POLYLINE
  5
6BD
330
1F
100
AcDbEntity
  8
0
 62
     7
370
    35
100
AcDb2dPolyline
 66
     1
 10
0.0
 20
0.0
 30
0.0
  0
VERTEX
  5
6BE
330
6BD
100
AcDbEntity
  8
0
370
     0
100
AcDbVertex
100
AcDb2dVertex
 10
725.45752
 20
428.841919
 30
0.0
  0
VERTEX
  5
6BF
330
6BD
100
AcDbEntity
  8
0
370
     0
100
AcDbVertex
100
AcDb2dVertex
 10
725.346985
 20
429.585968
 30
0.0
  0
VERTEX
  5
6C0
330
6BD
100
AcDbEntity
  8
0
370
     0
100
AcDbVertex
100
AcDb2dVertex
 10
725.229126
 20
429.972595
 30
0.0
  0
VERTEX
  5
6C1
330
6BD
100
AcDbEntity
  8
0
370
     0
100
AcDbVertex
100
AcDb2dVertex
 10
725.053528
 20
430.25116
 30
0.0
  0
VERTEX
  5
6C2
330
6BD
100
AcDbEntity
  8
0
370
     0
100
AcDbVertex
100
AcDb2dVertex
 10
724.850708
 20
430.393524
 30
0.0
  0
VERTEX
  5
6C3
330
6BD
100
AcDbEntity
  8
0
370
     0
100
AcDbVertex
100
AcDb2dVertex
 10
724.624451
 20
430.440399
 30
0.0
  0
SEQEND
  5
6C4
330
6BD
100
AcDbEntity
  8
0
 62
     7
370
    35
  0
POLYLINE
  5
6C5
330
1F
100
AcDbEntity
  8
0
 62
     7
370
    35
100
AcDb2dPolyline
 66
     1
 10
0.0
 20
0.0
 30
0.0
  0
VERTEX
  5
6C6
330
6C5
100
AcDbEntity
  8
0
370
     0
100
AcDbVertex
100
AcDb2dVertex
 10
722.184814
 20
426.612183
 30
0.0
  0
VERTEX
  5
6C7
330
6C5
100
AcDbEntity
  8
0
370
     0
100
AcDbVertex
100
AcDb2dVertex
 10
722.240356
 20
427.740417
 30
0.0
  0
VERTEX
  5
6C8
330
6C5
100
AcDbEntity
  8
0
370
     0
100
AcDbVertex
100
AcDb2dVertex
 10
722.184814
 20
428.868622
 30
0.0
  0
SEQEND
  5
6C9
330
6C5
100
AcDbEntity
  8
0
 62
     7
370
    35
  0
LINE
  5
6CA
330
1F
100
AcDbEntity
  8
0
 62
     7
370
    35
100
AcDbLine
 10
722.29248
 20
430.290161
 30
0.0
 11
722.387939
 21
429.740417
 31
0.0
  0
LINE
  5
6CB
330
1F
100
AcDbEntity
  8
0
 62
     7
370
    35
100
AcDbLine
 10
723.668213
 20
429.740417
 30
0.0
 11
722.387939
 21
429.740417
 31
0.0
  0
LINE
  5
6CC
330
1F
100
AcDbEntity
  8
0
 62
     7
370
    35
100
AcDbLine
 10
723.57135
 20
430.298004
 30
0.0
 11
723.668213
 21
429.740417
 31
0.0
  0
LINE
  5
6CD
330
1F
100
AcDbEntity
  8
0
 62
     7
370
    35
100
AcDbLine
 10
722.387939
 20
425.740417
 30
0.0
 11
723.668213
 21
425.740417
 31
0.0
  0
LINE
  5
6CE
330
1F
100
AcDbEntity
  8
0
 62
     7
370
    35
100
AcDbLine
 10
723.668213
 20
429.740417
 30
0.0
 11
723.668213
 21
425.740417
 31
0.0
  0
LINE
  5
6CF
330
1F
100
AcDbEntity
  8
0
 62
     7
370
    35
100
AcDbLine
 10
722.387939
 20
429.740417
 30
0.0
 11
722.387939
 21
425.740417
 31
0.0
  0
LINE
  5
6D0
330
1F
100
AcDbEntity
  8
0
 62
     7
370
    35
100
AcDbLine
 10
722.292419
 20
425.190155
 30
0.0
 11
722.387939
 21
425.740417
 31
0.0
  0
LINE
  5
6D1
330
1F
100
AcDbEntity
  8
0
 62
     7
370
    35
100
AcDbLine
 10
723.571289
 20
425.182404
 30
0.0
 11
723.668213
 21
425.740417
 31
0.0
  0
LINE
  5
6D2
330
1F
100
AcDbEntity
  8
0
 62
     7
370
    35
100
AcDbLine
 10
722.184814
 20
425.190155
 30
0.0
 11
722.184814
 21
430.290161
 31
0.0
  0
LINE
  5
6D3
330
1F
100
AcDbEntity
  8
0
 62
     7
370
    35
100
AcDbLine
 10
724.624451
 20
423.440338
 30
0.0
 11
723.713684
 21
423.440338
 31
0.0
  0
LINE
  5
6D4
330
1F
100
AcDbEntity
  8
0
 62
     7
370
    35
100
AcDbLine
 10
724.624451
 20
418.040344
 30
0.0
 11
723.713379
 21
418.040344
 31
0.0
  0
POLYLINE
  5
6D5
330
1F
100
AcDbEntity
  8
0
 62
     7
370
    35
100
AcDb2dPolyline
 66
     1
 10
0.0
 20
0.0
 30
0.0
  0
VERTEX
  5
6D6
330
6D5
100
AcDbEntity
  8
0
370
     0
100
AcDbVertex
100
AcDb2dVertex
 10
725.45752
 20
421.841827
 30
0.0
  0
VERTEX
  5
6D7
330
6D5
100
AcDbEntity
  8
0
370
     0
100
AcDbVertex
100
AcDb2dVertex
 10
725.506042
 20
420.634338
 30
0.0
  0
VERTEX
  5
6D8
330
6D5
100
AcDbEntity
  8
0
370
     0
100
AcDbVertex
100
AcDb2dVertex
 10
725.445496
 20
419.520416
 30
0.0
  0
VERTEX
  5
6D9
330
6D5
100
AcDbEntity
  8
0
370
     0
100
AcDbVertex
100
AcDb2dVertex
 10
725.338257
 20
418.856842
 30
0.0
  0
VERTEX
  5
6DA
330
6D5
100
AcDbEntity
  8
0
370
     0
100
AcDbVertex
100
AcDb2dVertex
 10
725.219299
 20
418.485687
 30
0.0
  0
VERTEX
  5
6DB
330
6D5
100
AcDbEntity
  8
0
370
     0
100
AcDbVertex
100
AcDb2dVertex
 10
725.068481
 20
418.245667
 30
0.0
  0
VERTEX
  5
6DC
330
6D5
100
AcDbEntity
  8
0
370
     0
100
AcDbVertex
100
AcDb2dVertex
 10
724.866211
 20
418.094177
 30
0.0
  0
VERTEX
  5
6DD
330
6D5
100
AcDbEntity
  8
0
370
     0
100
AcDbVertex
100
AcDb2dVertex
 10
724.624451
 20
418.040344
 30
0.0
  0
SEQEND
  5
6DE
330
6D5
100
AcDbEntity
  8
0
 62
     7
370
    35
  0
POLYLINE
  5
6DF
330
1F
100
AcDbEntity
  8
0
 62
     7
370
    35
100
AcDb2dPolyline
 66
     1
 10
0.0
 20
0.0
 30
0.0
  0
VERTEX
  5
6E0
330
6DF
100
AcDbEntity
  8
0
370
     0
100
AcDbVertex
100
AcDb2dVertex
 10
725.45752
 20
421.841827
 30
0.0
  0
VERTEX
  5
6E1
330
6DF
100
AcDbEntity
  8
0
370
     0
100
AcDbVertex
100
AcDb2dVertex
 10
725.346985
 20
422.585876
 30
0.0
  0
VERTEX
  5
6E2
330
6DF
100
AcDbEntity
  8
0
370
     0
100
AcDbVertex
100
AcDb2dVertex
 10
725.229126
 20
422.972534
 30
0.0
  0
VERTEX
  5
6E3
330
6DF
100
AcDbEntity
  8
0
370
     0
100
AcDbVertex
100
AcDb2dVertex
 10
725.053528
 20
423.251068
 30
0.0
  0
VERTEX
  5
6E4
330
6DF
100
AcDbEntity
  8
0
370
     0
100
AcDbVertex
100
AcDb2dVertex
 10
724.850708
 20
423.393433
 30
0.0
  0
VERTEX
  5
6E5
330
6DF
100
AcDbEntity
  8
0
370
     0
100
AcDbVertex
100
AcDb2dVertex
 10
724.624451
 20
423.440338
 30
0.0
  0
SEQEND
  5
6E6
330
6DF
100
AcDbEntity
  8
0
 62
     7
370
    35
  0
POLYLINE
  5
6E7
330
1F
100
AcDbEntity
  8
0
 62
     7
370
    35
100
AcDb2dPolyline
 66
     1
 10
0.0
 20
0.0
 30
0.0
  0
VERTEX
  5
6E8
330
6E7
100
AcDbEntity
  8
0
370
     0
100
AcDbVertex
100
AcDb2dVertex
 10
722.184814
 20
419.612122
 30
0.0
  0
VERTEX
  5
6E9
330
6E7
100
AcDbEntity
  8
0
370
     0
100
AcDbVertex
100
AcDb2dVertex
 10
722.240356
 20
420.740326
 30
0.0
  0
VERTEX
  5
6EA
330
6E7
100
AcDbEntity
  8
0
370
     0
100
AcDbVertex
100
AcDb2dVertex
 10
722.184814
 20
421.868561
 30
0.0
  0
SEQEND
  5
6EB
330
6E7
100
AcDbEntity
  8
0
 62
     7
370
    35
  0
LINE
  5
6EC
330
1F
100
AcDbEntity
  8
0
 62
     7
370
    35
100
AcDbLine
 10
722.29248
 20
423.290161
 30
0.0
 11
722.387939
 21
422.740326
 31
0.0
  0
LINE
  5
6ED
330
1F
100
AcDbEntity
  8
0
 62
     7
370
    35
100
AcDbLine
 10
723.668213
 20
422.740326
 30
0.0
 11
722.387939
 21
422.740326
 31
0.0
  0
LINE
  5
6EE
330
1F
100
AcDbEntity
  8
0
 62
     7
370
    35
100
AcDbLine
 10
723.57135
 20
423.297974
 30
0.0
 11
723.668213
 21
422.740326
 31
0.0
  0
LINE
  5
6EF
330
1F
100
AcDbEntity
  8
0
 62
     7
370
    35
100
AcDbLine
 10
722.387939
 20
418.740326
 30
0.0
 11
723.668213
 21
418.740326
 31
0.0
  0
LINE
  5
6F0
330
1F
100
AcDbEntity
  8
0
 62
     7
370
    35
100
AcDbLine
 10
723.668213
 20
422.740326
 30
0.0
 11
723.668213
 21
418.740326
 31
0.0
  0
LINE
  5
6F1
330
1F
100
AcDbEntity
  8
0
 62
     7
370
    35
100
AcDbLine
 10
722.387939
 20
422.740326
 30
0.0
 11
722.387939
 21
418.740326
 31
0.0
  0
LINE
  5
6F2
330
1F
100
AcDbEntity
  8
0
 62
     7
370
    35
100
AcDbLine
 10
722.292419
 20
418.190155
 30
0.0
 11
722.387939
 21
418.740326
 31
0.0
  0
LINE
  5
6F3
330
1F
100
AcDbEntity
  8
0
 62
     7
370
    35
100
AcDbLine
 10
723.571289
 20
418.182404
 30
0.0
 11
723.668213
 21
418.740326
 31
0.0
  0
LINE
  5
6F4
330
1F
100
AcDbEntity
  8
0
 62
     7
370
    35
100
AcDbLine
 10
722.184814
 20
418.190155
 30
0.0
 11
722.184814
 21
423.290161
 31
0.0
  0
LINE
  5
6F5
330
1F
100
AcDbEntity
  8
0
 62
     7
370
    35
100
AcDbLine
 10
724.624451
 20
416.440155
 30
0.0
 11
723.713562
 21
416.440155
 31
0.0
  0
LINE
  5
6F6
330
1F
100
AcDbEntity
  8
0
 62
     7
370
    35
100
AcDbLine
 10
724.624451
 20
411.040161
 30
0.0
 11
723.713501
 21
411.040161
 31
0.0
  0
POLYLINE
  5
6F7
330
1F
100
AcDbEntity
  8
0
 62
     7
370
    35
100
AcDb2dPolyline
 66
     1
 10
0.0
 20
0.0
 30
0.0
  0
VERTEX
  5
6F8
330
6F7
100
AcDbEntity
  8
0
370
     0
100
AcDbVertex
100
AcDb2dVertex
 10
725.45752
 20
414.841675
 30
0.0
  0
VERTEX
  5
6F9
330
6F7
100
AcDbEntity
  8
0
370
     0
100
AcDbVertex
100
AcDb2dVertex
 10
725.506042
 20
413.634186
 30
0.0
  0
VERTEX
  5
6FA
330
6F7
100
AcDbEntity
  8
0
370
     0
100
AcDbVertex
100
AcDb2dVertex
 10
725.445496
 20
412.520264
 30
0.0
  0
VERTEX
  5
6FB
330
6F7
100
AcDbEntity
  8
0
370
     0
100
AcDbVertex
100
AcDb2dVertex
 10
725.338257
 20
411.856659
 30
0.0
  0
VERTEX
  5
6FC
330
6F7
100
AcDbEntity
  8
0
370
     0
100
AcDbVertex
100
AcDb2dVertex
 10
725.219299
 20
411.485535
 30
0.0
  0
VERTEX
  5
6FD
330
6F7
100
AcDbEntity
  8
0
370
     0
100
AcDbVertex
100
AcDb2dVertex
 10
725.068481
 20
411.245483
 30
0.0
  0
VERTEX
  5
6FE
330
6F7
100
AcDbEntity
  8
0
370
     0
100
AcDbVertex
100
AcDb2dVertex
 10
724.866211
 20
411.094025
 30
0.0
  0
VERTEX
  5
6FF
330
6F7
100
AcDbEntity
  8
0
370
     0
100
AcDbVertex
100
AcDb2dVertex
 10
724.624451
 20
411.040161
 30
0.0
  0
SEQEND
  5
700
330
6F7
100
AcDbEntity
  8
0
 62
     7
370
    35
  0
POLYLINE
  5
701
330
1F
100
AcDbEntity
  8
0
 62
     7
370
    35
100
AcDb2dPolyline
 66
     1
 10
0.0
 20
0.0
 30
0.0
  0
VERTEX
  5
702
330
701
100
AcDbEntity
  8
0
370
     0
100
AcDbVertex
100
AcDb2dVertex
 10
725.45752
 20
414.841675
 30
0.0
  0
VERTEX
  5
703
330
701
100
AcDbEntity
  8
0
370
     0
100
AcDbVertex
100
AcDb2dVertex
 10
725.346985
 20
415.585724
 30
0.0
  0
VERTEX
  5
704
330
701
100
AcDbEntity
  8
0
370
     0
100
AcDbVertex
100
AcDb2dVertex
 10
725.229126
 20
415.972351
 30
0.0
  0
VERTEX
  5
705
330
701
100
AcDbEntity
  8
0
370
     0
100
AcDbVertex
100
AcDb2dVertex
 10
725.053528
 20
416.250916
 30
0.0
  0
VERTEX
  5
706
330
701
100
AcDbEntity
  8
0
370
     0
100
AcDbVertex
100
AcDb2dVertex
 10
724.850708
 20
416.39328
 30
0.0
  0
VERTEX
  5
707
330
701
100
AcDbEntity
  8
0
370
     0
100
AcDbVertex
100
AcDb2dVertex
 10
724.624451
 20
416.440155
 30
0.0
  0
SEQEND
  5
708
330
701
100
AcDbEntity
  8
0
 62
     7
370
    35
  0
POLYLINE
  5
709
330
1F
100
AcDbEntity
  8
0
 62
     7
370
    35
100
AcDb2dPolyline
 66
     1
 10
0.0
 20
0.0
 30
0.0
  0
VERTEX
  5
70A
330
709
100
AcDbEntity
  8
0
370
     0
100
AcDbVertex
100
AcDb2dVertex
 10
722.184814
 20
412.611938
 30
0.0
  0
VERTEX
  5
70B
330
709
100
AcDbEntity
  8
0
370
     0
100
AcDbVertex
100
AcDb2dVertex
 10
722.240356
 20
413.740173
 30
0.0
  0
VERTEX
  5
70C
330
709
100
AcDbEntity
  8
0
370
     0
100
AcDbVertex
100
AcDb2dVertex
 10
722.184814
 20
414.868378
 30
0.0
  0
SEQEND
  5
70D
330
709
100
AcDbEntity
  8
0
 62
     7
370
    35
  0
LINE
  5
70E
330
1F
100
AcDbEntity
  8
0
 62
     7
370
    35
100
AcDbLine
 10
722.292419
 20
416.290161
 30
0.0
 11
722.387939
 21
415.740173
 31
0.0
  0
LINE
  5
70F
330
1F
100
AcDbEntity
  8
0
 62
     7
370
    35
100
AcDbLine
 10
723.668213
 20
415.740173
 30
0.0
 11
722.387939
 21
415.740173
 31
0.0
  0
LINE
  5
710
330
1F
100
AcDbEntity
  8
0
 62
     7
370
    35
100
AcDbLine
 10
723.57135
 20
416.297974
 30
0.0
 11
723.668213
 21
415.740173
 31
0.0
  0
LINE
  5
711
330
1F
100
AcDbEntity
  8
0
 62
     7
370
    35
100
AcDbLine
 10
722.387939
 20
411.740173
 30
0.0
 11
723.668213
 21
411.740173
 31
0.0
  0
LINE
  5
712
330
1F
100
AcDbEntity
  8
0
 62
     7
370
    35
100
AcDbLine
 10
723.668213
 20
415.740173
 30
0.0
 11
723.668213
 21
411.740173
 31
0.0
  0
LINE
  5
713
330
1F
100
AcDbEntity
  8
0
 62
     7
370
    35
100
AcDbLine
 10
722.387939
 20
415.740173
 30
0.0
 11
722.387939
 21
411.740173
 31
0.0
  0
LINE
  5
714
330
1F
100
AcDbEntity
  8
0
 62
     7
370
    35
100
AcDbLine
 10
722.292419
 20
411.190155
 30
0.0
 11
722.387939
 21
411.740173
 31
0.0
  0
LINE
  5
715
330
1F
100
AcDbEntity
  8
0
 62
     7
370
    35
100
AcDbLine
 10
723.57135
 20
411.182373
 30
0.0
 11
723.668213
 21
411.740173
 31
0.0
  0
LINE
  5
716
330
1F
100
AcDbEntity
  8
0
 62
     7
370
    35
100
AcDbLine
 10
722.184814
 20
411.190155
 30
0.0
 11
722.184814
 21
416.290161
 31
0.0
  0
LINE
  5
717
330
1F
100
AcDbEntity
  8
0
 62
     7
370
    35
100
AcDbLine
 10
724.624451
 20
409.43927
 30
0.0
 11
723.712646
 21
409.43927
 31
0.0
  0
LINE
  5
718
330
1F
100
AcDbEntity
  8
0
 62
     7
370
    35
100
AcDbLine
 10
724.624451
 20
404.039276
 30
0.0
 11
723.714417
 21
404.039276
 31
0.0
  0
POLYLINE
  5
719
330
1F
100
AcDbEntity
  8
0
 62
     7
370
    35
100
AcDb2dPolyline
 66
     1
 10
0.0
 20
0.0
 30
0.0
  0
VERTEX
  5
71A
330
719
100
AcDbEntity
  8
0
370
     0
100
AcDbVertex
100
AcDb2dVertex
 10
725.45752
 20
407.840759
 30
0.0
  0
VERTEX
  5
71B
330
719
100
AcDbEntity
  8
0
370
     0
100
AcDbVertex
100
AcDb2dVertex
 10
725.506042
 20
406.63327
 30
0.0
  0
VERTEX
  5
71C
330
719
100
AcDbEntity
  8
0
370
     0
100
AcDbVertex
100
AcDb2dVertex
 10
725.445496
 20
405.519348
 30
0.0
  0
VERTEX
  5
71D
330
719
100
AcDbEntity
  8
0
370
     0
100
AcDbVertex
100
AcDb2dVertex
 10
725.338257
 20
404.855774
 30
0.0
  0
VERTEX
  5
71E
330
719
100
AcDbEntity
  8
0
370
     0
100
AcDbVertex
100
AcDb2dVertex
 10
725.219299
 20
404.484619
 30
0.0
  0
VERTEX
  5
71F
330
719
100
AcDbEntity
  8
0
370
     0
100
AcDbVertex
100
AcDb2dVertex
 10
725.068481
 20
404.244598
 30
0.0
  0
VERTEX
  5
720
330
719
100
AcDbEntity
  8
0
370
     0
100
AcDbVertex
100
AcDb2dVertex
 10
724.866211
 20
404.09314
 30
0.0
  0
VERTEX
  5
721
330
719
100
AcDbEntity
  8
0
370
     0
100
AcDbVertex
100
AcDb2dVertex
 10
724.624451
 20
404.039276
 30
0.0
  0
SEQEND
  5
722
330
719
100
AcDbEntity
  8
0
 62
     7
370
    35
  0
POLYLINE
  5
723
330
1F
100
AcDbEntity
  8
0
 62
     7
370
    35
100
AcDb2dPolyline
 66
     1
 10
0.0
 20
0.0
 30
0.0
  0
VERTEX
  5
724
330
723
100
AcDbEntity
  8
0
370
     0
100
AcDbVertex
100
AcDb2dVertex
 10
725.45752
 20
407.840759
 30
0.0
  0
VERTEX
  5
725
330
723
100
AcDbEntity
  8
0
370
     0
100
AcDbVertex
100
AcDb2dVertex
 10
725.346985
 20
408.584839
 30
0.0
  0
VERTEX
  5
726
330
723
100
AcDbEntity
  8
0
370
     0
100
AcDbVertex
100
AcDb2dVertex
 10
725.229126
 20
408.971466
 30
0.0
  0
VERTEX
  5
727
330
723
100
AcDbEntity
  8
0
370
     0
100
AcDbVertex
100
AcDb2dVertex
 10
725.053528
 20
409.250031
 30
0.0
  0
VERTEX
  5
728
330
723
100
AcDbEntity
  8
0
370
     0
100
AcDbVertex
100
AcDb2dVertex
 10
724.850708
 20
409.392395
 30
0.0
  0
VERTEX
  5
729
330
723
100
AcDbEntity
  8
0
370
     0
100
AcDbVertex
100
AcDb2dVertex
 10
724.624451
 20
409.43927
 30
0.0
  0
SEQEND
  5
72A
330
723
100
AcDbEntity
  8
0
 62
     7
370
    35
  0
POLYLINE
  5
72B
330
1F
100
AcDbEntity
  8
0
 62
     7
370
    35
100
AcDb2dPolyline
 66
     1
 10
0.0
 20
0.0
 30
0.0
  0
VERTEX
  5
72C
330
72B
100
AcDbEntity
  8
0
370
     0
100
AcDbVertex
100
AcDb2dVertex
 10
722.184814
 20
405.611053
 30
0.0
  0
VERTEX
  5
72D
330
72B
100
AcDbEntity
  8
0
370
     0
100
AcDbVertex
100
AcDb2dVertex
 10
722.240356
 20
406.739258
 30
0.0
  0
VERTEX
  5
72E
330
72B
100
AcDbEntity
  8
0
370
     0
100
AcDbVertex
100
AcDb2dVertex
 10
722.184814
 20
407.867493
 30
0.0
  0
SEQEND
  5
72F
330
72B
100
AcDbEntity
  8
0
 62
     7
370
    35
  0
LINE
  5
730
330
1F
100
AcDbEntity
  8
0
 62
     7
370
    35
100
AcDbLine
 10
722.292297
 20
409.290161
 30
0.0
 11
722.387939
 21
408.739258
 31
0.0
  0
LINE
  5
731
330
1F
100
AcDbEntity
  8
0
 62
     7
370
    35
100
AcDbLine
 10
723.668213
 20
408.739258
 30
0.0
 11
722.387939
 21
408.739258
 31
0.0
  0
LINE
  5
732
330
1F
100
AcDbEntity
  8
0
 62
     7
370
    35
100
AcDbLine
 10
723.571167
 20
409.297821
 30
0.0
 11
723.668213
 21
408.739258
 31
0.0
  0
LINE
  5
733
330
1F
100
AcDbEntity
  8
0
 62
     7
370
    35
100
AcDbLine
 10
722.387939
 20
404.739258
 30
0.0
 11
723.668213
 21
404.739258
 31
0.0
  0
LINE
  5
734
330
1F
100
AcDbEntity
  8
0
 62
     7
370
    35
100
AcDbLine
 10
723.668213
 20
408.739258
 30
0.0
 11
723.668213
 21
404.739258
 31
0.0
  0
LINE
  5
735
330
1F
100
AcDbEntity
  8
0
 62
     7
370
    35
100
AcDbLine
 10
722.387939
 20
408.739258
 30
0.0
 11
722.387939
 21
404.739258
 31
0.0
  0
LINE
  5
736
330
1F
100
AcDbEntity
  8
0
 62
     7
370
    35
100
AcDbLine
 10
722.292603
 20
404.190155
 30
0.0
 11
722.387939
 21
404.739258
 31
0.0
  0
LINE
  5
737
330
1F
100
AcDbEntity
  8
0
 62
     7
370
    35
100
AcDbLine
 10
723.571472
 20
404.18222
 30
0.0
 11
723.668213
 21
404.739258
 31
0.0
  0
LINE
  5
738
330
1F
100
AcDbEntity
  8
0
 62
     7
370
    35
100
AcDbLine
 10
722.184814
 20
404.190155
 30
0.0
 11
722.184814
 21
409.290161
 31
0.0
  0
LINE
  5
739
330
1F
100
AcDbEntity
  8
0
 62
     7
370
    35
100
AcDbLine
 10
724.624451
 20
402.440155
 30
0.0
 11
723.713562
 21
402.440155
 31
0.0
  0
LINE
  5
73A
330
1F
100
AcDbEntity
  8
0
 62
     7
370
    35
100
AcDbLine
 10
724.624451
 20
397.040161
 30
0.0
 11
723.713501
 21
397.040161
 31
0.0
  0
POLYLINE
  5
73B
330
1F
100
AcDbEntity
  8
0
 62
     7
370
    35
100
AcDb2dPolyline
 66
     1
 10
0.0
 20
0.0
 30
0.0
  0
VERTEX
  5
73C
330
73B
100
AcDbEntity
  8
0
370
     0
100
AcDbVertex
100
AcDb2dVertex
 10
725.45752
 20
400.841675
 30
0.0
  0
VERTEX
  5
73D
330
73B
100
AcDbEntity
  8
0
370
     0
100
AcDbVertex
100
AcDb2dVertex
 10
725.506042
 20
399.634186
 30
0.0
  0
VERTEX
  5
73E
330
73B
100
AcDbEntity
  8
0
370
     0
100
AcDbVertex
100
AcDb2dVertex
 10
725.445496
 20
398.520264
 30
0.0
  0
VERTEX
  5
73F
330
73B
100
AcDbEntity
  8
0
370
     0
100
AcDbVertex
100
AcDb2dVertex
 10
725.338257
 20
397.856659
 30
0.0
  0
VERTEX
  5
740
330
73B
100
AcDbEntity
  8
0
370
     0
100
AcDbVertex
100
AcDb2dVertex
 10
725.219299
 20
397.485535
 30
0.0
  0
VERTEX
  5
741
330
73B
100
AcDbEntity
  8
0
370
     0
100
AcDbVertex
100
AcDb2dVertex
 10
725.068481
 20
397.245483
 30
0.0
  0
VERTEX
  5
742
330
73B
100
AcDbEntity
  8
0
370
     0
100
AcDbVertex
100
AcDb2dVertex
 10
724.866211
 20
397.094025
 30
0.0
  0
VERTEX
  5
743
330
73B
100
AcDbEntity
  8
0
370
     0
100
AcDbVertex
100
AcDb2dVertex
 10
724.624451
 20
397.040161
 30
0.0
  0
SEQEND
  5
744
330
73B
100
AcDbEntity
  8
0
 62
     7
370
    35
  0
POLYLINE
  5
745
330
1F
100
AcDbEntity
  8
0
 62
     7
370
    35
100
AcDb2dPolyline
 66
     1
 10
0.0
 20
0.0
 30
0.0
  0
VERTEX
  5
746
330
745
100
AcDbEntity
  8
0
370
     0
100
AcDbVertex
100
AcDb2dVertex
 10
725.45752
 20
400.841675
 30
0.0
  0
VERTEX
  5
747
330
745
100
AcDbEntity
  8
0
370
     0
100
AcDbVertex
100
AcDb2dVertex
 10
725.346985
 20
401.585724
 30
0.0
  0
VERTEX
  5
748
330
745
100
AcDbEntity
  8
0
370
     0
100
AcDbVertex
100
AcDb2dVertex
 10
725.229126
 20
401.972351
 30
0.0
  0
VERTEX
  5
749
330
745
100
AcDbEntity
  8
0
370
     0
100
AcDbVertex
100
AcDb2dVertex
 10
725.053528
 20
402.250916
 30
0.0
  0
VERTEX
  5
74A
330
745
100
AcDbEntity
  8
0
370
     0
100
AcDbVertex
100
AcDb2dVertex
 10
724.850708
 20
402.39328
 30
0.0
  0
VERTEX
  5
74B
330
745
100
AcDbEntity
  8
0
370
     0
100
AcDbVertex
100
AcDb2dVertex
 10
724.624451
 20
402.440155
 30
0.0
  0
SEQEND
  5
74C
330
745
100
AcDbEntity
  8
0
 62
     7
370
    35
  0
POLYLINE
  5
74D
330
1F
100
AcDbEntity
  8
0
 62
     7
370
    35
100
AcDb2dPolyline
 66
     1
 10
0.0
 20
0.0
 30
0.0
  0
VERTEX
  5
74E
330
74D
100
AcDbEntity
  8
0
370
     0
100
AcDbVertex
100
AcDb2dVertex
 10
722.184814
 20
398.611938
 30
0.0
  0
VERTEX
  5
74F
330
74D
100
AcDbEntity
  8
0
370
     0
100
AcDbVertex
100
AcDb2dVertex
 10
722.240356
 20
399.740173
 30
0.0
  0
VERTEX
  5
750
330
74D
100
AcDbEntity
  8
0
370
     0
100
AcDbVertex
100
AcDb2dVertex
 10
722.184814
 20
400.868378
 30
0.0
  0
SEQEND
  5
751
330
74D
100
AcDbEntity
  8
0
 62
     7
370
    35
  0
LINE
  5
752
330
1F
100
AcDbEntity
  8
0
 62
     7
370
    35
100
AcDbLine
 10
722.292419
 20
402.290161
 30
0.0
 11
722.387939
 21
401.740173
 31
0.0
  0
LINE
  5
753
330
1F
100
AcDbEntity
  8
0
 62
     7
370
    35
100
AcDbLine
 10
723.668213
 20
401.740173
 30
0.0
 11
722.387939
 21
401.740173
 31
0.0
  0
LINE
  5
754
330
1F
100
AcDbEntity
  8
0
 62
     7
370
    35
100
AcDbLine
 10
723.57135
 20
402.297974
 30
0.0
 11
723.668213
 21
401.740173
 31
0.0
  0
LINE
  5
755
330
1F
100
AcDbEntity
  8
0
 62
     7
370
    35
100
AcDbLine
 10
722.387939
 20
397.740173
 30
0.0
 11
723.668213
 21
397.740173
 31
0.0
  0
LINE
  5
756
330
1F
100
AcDbEntity
  8
0
 62
     7
370
    35
100
AcDbLine
 10
723.668213
 20
401.740173
 30
0.0
 11
723.668213
 21
397.740173
 31
0.0
  0
LINE
  5
757
330
1F
100
AcDbEntity
  8
0
 62
     7
370
    35
100
AcDbLine
 10
722.387939
 20
401.740173
 30
0.0
 11
722.387939
 21
397.740173
 31
0.0
  0
LINE
  5
758
330
1F
100
AcDbEntity
  8
0
 62
     7
370
    35
100
AcDbLine
 10
722.292419
 20
397.190155
 30
0.0
 11
722.387939
 21
397.740173
 31
0.0
  0
LINE
  5
759
330
1F
100
AcDbEntity
  8
0
 62
     7
370
    35
100
AcDbLine
 10
723.57135
 20
397.182373
 30
0.0
 11
723.668213
 21
397.740173
 31
0.0
  0
LINE
  5
75A
330
1F
100
AcDbEntity
  8
0
 62
     7
370
    35
100
AcDbLine
 10
722.184814
 20
397.190155
 30
0.0
 11
722.184814
 21
402.290161
 31
0.0
  0
ENDSEC
  0
SECTION
  2
OBJECTS
  0
DICTIONARY
  5
C
330
0
100
AcDbDictionary
281
     1
  3
ACAD_GROUP
350
D
  3
ACAD_LAYOUT
350
1A
  3
ACAD_MLINESTYLE
350
17
  3
ACAD_PLOTSETTINGS
350
19
  3
ACAD_PLOTSTYLENAME
350
E
  3
ACAD_SCALELIST
350
47
  0
DICTIONARY
  5
D
102
{ACAD_REACTORS
330
C
102
}
330
C
100
AcDbDictionary
281
     1
  0
DICTIONARY
  5
1A
102
{ACAD_REACTORS
330
C
102
}
330
C
100
AcDbDictionary
281
     1
  3
Layout1
350
1E
  3
Layout2
350
26
  3
Model
350
22
  0
DICTIONARY
  5
17
102
{ACAD_REACTORS
330
C
102
}
330
C
100
AcDbDictionary
281
     1
  3
Standard
350
18
  0
DICTIONARY
  5
19
102
{ACAD_REACTORS
330
C
102
}
330
C
100
AcDbDictionary
281
     1
  0
ACDBDICTIONARYWDFLT
  5
E
102
{ACAD_REACTORS
330
C
102
}
330
C
100
AcDbDictionary
281
     1
  3
Normal
350
F
100
AcDbDictionaryWithDefault
340
F
  0
DICTIONARY
  5
47
102
{ACAD_REACTORS
330
C
102
}
330
C
100
AcDbDictionary
281
     1
  3
A0
350
48
  3
A1
350
49
  3
A2
350
4A
  3
A3
350
4B
  3
A4
350
4C
  3
A5
350
4D
  3
A6
350
4E
  3
A7
350
4F
  3
A8
350
50
  3
A9
350
51
  3
B0
350
52
  3
B1
350
53
  3
B2
350
54
  3
B3
350
55
  3
B4
350
56
  3
B5
350
57
  3
B6
350
58
  3
B7
350
59
  3
B8
350
5A
  3
B9
350
5B
  3
C0
350
5C
  3
C1
350
5D
  3
C2
350
5E
  3
C3
350
5F
  3
C4
350
60
  3
C5
350
61
  3
C6
350
62
  3
C7
350
63
  3
C8
350
64
  3
C9
350
65
  3
D0
350
66
  3
D1
350
67
  3
D2
350
68
  0
LAYOUT
  5
1E
102
{ACAD_REACTORS
330
1A
102
}
330
1A
100
AcDbPlotSettings
  1

  2
none_device
  4

  6

 40
0.0
 41
0.0
 42
0.0
 43
0.0
 44
0.0
 45
0.0
 46
0.0
 47
0.0
 48
0.0
 49
0.0
140
0.0
141
0.0
142
1.0
143
1.0
 70
  4784
 72
     0
 73
     0
 74
     5
  7

 75
    16
147
1.0
148
0.0
149
0.0
100
AcDbLayout
  1
Layout1
 70
     1
 71
     1
 10
0.0
 20
0.0
 11
420.0
 21
297.0
 12
0.0
 22
0.0
 32
0.0
 14
0.0
 24
0.0
 34
0.0
 15
743.563538
 25
577.471191
 35
2.0
146
0.0
 13
0.0
 23
0.0
 33
0.0
 16
1.0
 26
0.0
 36
0.0
 17
0.0
 27
1.0
 37
0.0
 76
     0
330
1B
  0
LAYOUT
  5
26
102
{ACAD_REACTORS
330
1A
102
}
330
1A
100
AcDbPlotSettings
  1

  2
none_device
  4

  6

 40
0.0
 41
0.0
 42
0.0
 43
0.0
 44
0.0
 45
0.0
 46
0.0
 47
0.0
 48
0.0
 49
0.0
140
0.0
141
0.0
142
1.0
143
1.0
 70
  4784
 72
     0
 73
     0
 74
     5
  7

 75
    16
147
1.0
148
0.0
149
0.0
100
AcDbLayout
  1
Layout2
 70
     1
 71
     2
 10
0.0
 20
0.0
 11
0.0
 21
0.0
 12
0.0
 22
0.0
 32
0.0
 14
0.0
 24
0.0
 34
0.0
 15
0.0
 25
0.0
 35
0.0
146
0.0
 13
0.0
 23
0.0
 33
0.0
 16
1.0
 26
0.0
 36
0.0
 17
0.0
 27
1.0
 37
0.0
 76
     0
330
23
  0
LAYOUT
  5
22
102
{ACAD_REACTORS
330
1A
102
}
330
1A
100
AcDbPlotSettings
  1

  2
none_device
  4
Letter_(8.50_x_11.00_Inches)
  6

 40
6.35
 41
6.35
 42
6.350005
 43
6.350005
 44
215.9
 45
279.4
 46
0.0
 47
0.0
 48
0.0
 49
0.0
140
0.0
141
0.0
142
1.0
143
1.0
 70
  5808
 72
     0
 73
     0
 74
     0
  7

 75
     0
147
1.0
148
0.0
149
0.0
100
AcDbLayout
  1
Model
 70
     1
 71
     0
 10
0.0
 20
0.0
 11
420.0
 21
297.0
 12
0.0
 22
0.0
 32
0.0
 14
0.0
 24
0.0
 34
0.0
 15
743.563538
 25
577.471191
 35
2.0
146
0.0
 13
0.0
 23
0.0
 33
0.0
 16
1.0
 26
0.0
 36
0.0
 17
0.0
 27
1.0
 37
0.0
 76
     0
330
1F
331
29
  0
MLINESTYLE
  5
18
102
{ACAD_REACTORS
330
17
102
}
330
17
100
AcDbMlineStyle
  2
Standard
 70
     0
  3

 62
   256
 51
90.0
 52
90.0
 71
     2
 49
0.5
 62
   256
  6
BYLAYER
 49
-0.5
 62
   256
  6
BYLAYER
  0
ACDBPLACEHOLDER
  5
F
102
{ACAD_REACTORS
330
E
102
}
330
E
  0
SCALE
  5
48
102
{ACAD_REACTORS
330
47
102
}
330
47
100
AcDbScale
 70
     0
300
1:1
140
1.0
141
1.0
290
     1
  0
SCALE
  5
49
102
{ACAD_REACTORS
330
47
102
}
330
47
100
AcDbScale
 70
     0
300
1:2
140
1.0
141
2.0
290
     0
  0
SCALE
  5
4A
102
{ACAD_REACTORS
330
47
102
}
330
47
100
AcDbScale
 70
     0
300
1:4
140
1.0
141
4.0
290
     0
  0
SCALE
  5
4B
102
{ACAD_REACTORS
330
47
102
}
330
47
100
AcDbScale
 70
     0
300
1:5
140
1.0
141
5.0
290
     0
  0
SCALE
  5
4C
102
{ACAD_REACTORS
330
47
102
}
330
47
100
AcDbScale
 70
     0
300
1:8
140
1.0
141
8.0
290
     0
  0
SCALE
  5
4D
102
{ACAD_REACTORS
330
47
102
}
330
47
100
AcDbScale
 70
     0
300
1:10
140
1.0
141
10.0
290
     0
  0
SCALE
  5
4E
102
{ACAD_REACTORS
330
47
102
}
330
47
100
AcDbScale
 70
     0
300
1:16
140
1.0
141
16.0
290
     0
  0
SCALE
  5
4F
102
{ACAD_REACTORS
330
47
102
}
330
47
100
AcDbScale
 70
     0
300
1:20
140
1.0
141
20.0
290
     0
  0
SCALE
  5
50
102
{ACAD_REACTORS
330
47
102
}
330
47
100
AcDbScale
 70
     0
300
1:30
140
1.0
141
30.0
290
     0
  0
SCALE
  5
51
102
{ACAD_REACTORS
330
47
102
}
330
47
100
AcDbScale
 70
     0
300
1:40
140
1.0
141
40.0
290
     0
  0
SCALE
  5
52
102
{ACAD_REACTORS
330
47
102
}
330
47
100
AcDbScale
 70
     0
300
1:50
140
1.0
141
50.0
290
     0
  0
SCALE
  5
53
102
{ACAD_REACTORS
330
47
102
}
330
47
100
AcDbScale
 70
     0
300
1:100
140
1.0
141
100.0
290
     0
  0
SCALE
  5
54
102
{ACAD_REACTORS
330
47
102
}
330
47
100
AcDbScale
 70
     0
300
2:1
140
2.0
141
1.0
290
     0
  0
SCALE
  5
55
102
{ACAD_REACTORS
330
47
102
}
330
47
100
AcDbScale
 70
     0
300
4:1
140
4.0
141
1.0
290
     0
  0
SCALE
  5
56
102
{ACAD_REACTORS
330
47
102
}
330
47
100
AcDbScale
 70
     0
300
8:1
140
8.0
141
1.0
290
     0
  0
SCALE
  5
57
102
{ACAD_REACTORS
330
47
102
}
330
47
100
AcDbScale
 70
     0
300
10:1
140
10.0
141
1.0
290
     0
  0
SCALE
  5
58
102
{ACAD_REACTORS
330
47
102
}
330
47
100
AcDbScale
 70
     0
300
100:1
140
100.0
141
1.0
290
     0
  0
SCALE
  5
59
102
{ACAD_REACTORS
330
47
102
}
330
47
100
AcDbScale
 70
     0
300
1/128" = 1'-0"
140
0.007812
141
12.0
290
     0
  0
SCALE
  5
5A
102
{ACAD_REACTORS
330
47
102
}
330
47
100
AcDbScale
 70
     0
300
1/64" = 1'-0"
140
0.015625
141
12.0
290
     0
  0
SCALE
  5
5B
102
{ACAD_REACTORS
330
47
102
}
330
47
100
AcDbScale
 70
     0
300
1/32" = 1'-0"
140
0.03125
141
12.0
290
     0
  0
SCALE
  5
5C
102
{ACAD_REACTORS
330
47
102
}
330
47
100
AcDbScale
 70
     0
300
1/16" = 1'-0"
140
0.0625
141
12.0
290
     0
  0
SCALE
  5
5D
102
{ACAD_REACTORS
330
47
102
}
330
47
100
AcDbScale
 70
     0
300
3/32" = 1'-0"
140
0.09375
141
12.0
290
     0
  0
SCALE
  5
5E
102
{ACAD_REACTORS
330
47
102
}
330
47
100
AcDbScale
 70
     0
300
1/8" = 1'-0"
140
0.125
141
12.0
290
     0
  0
SCALE
  5
5F
102
{ACAD_REACTORS
330
47
102
}
330
47
100
AcDbScale
 70
     0
300
3/16" = 1'-0"
140
0.1875
141
12.0
290
     0
  0
SCALE
  5
60
102
{ACAD_REACTORS
330
47
102
}
330
47
100
AcDbScale
 70
     0
300
1/4" = 1'-0"
140
0.25
141
12.0
290
     0
  0
SCALE
  5
61
102
{ACAD_REACTORS
330
47
102
}
330
47
100
AcDbScale
 70
     0
300
3/8" = 1'-0"
140
0.375
141
12.0
290
     0
  0
SCALE
  5
62
102
{ACAD_REACTORS
330
47
102
}
330
47
100
AcDbScale
 70
     0
300
1/2" = 1'-0"
140
0.5
141
12.0
290
     0
  0
SCALE
  5
63
102
{ACAD_REACTORS
330
47
102
}
330
47
100
AcDbScale
 70
     0
300
3/4" = 1'-0"
140
0.75
141
12.0
290
     0
  0
SCALE
  5
64
102
{ACAD_REACTORS
330
47
102
}
330
47
100
AcDbScale
 70
     0
300
1" = 1'-0"
140
1.0
141
12.0
290
     0
  0
SCALE
  5
65
102
{ACAD_REACTORS
330
47
102
}
330
47
100
AcDbScale
 70
     0
300
1-1/2" = 1'-0"
140
1.5
141
12.0
290
     0
  0
SCALE
  5
66
102
{ACAD_REACTORS
330
47
102
}
330
47
100
AcDbScale
 70
     0
300
3" = 1'-0"
140
3.0
141
12.0
290
     0
  0
SCALE
  5
67
102
{ACAD_REACTORS
330
47
102
}
330
47
100
AcDbScale
 70
     0
300
6" = 1'-0"
140
6.0
141
12.0
290
     0
  0
SCALE
  5
68
102
{ACAD_REACTORS
330
47
102
}
330
47
100
AcDbScale
 70
     0
300
1'-0" = 1'-0"
140
12.0
141
12.0
290
     0
  0
ENDSEC
  0
EOF
