  0
SECTION
  2
HEADER
  9
$ACADVER
  1
AC1015
  9
$ACADMAINTVER
 70
    10
  9
$DWGCODEPAGE
  3
ANSI_932
  9
$INSBASE
 10
0.0
 20
0.0
 30
0.0
  9
$EXTMIN
 10
56.11123762689676
 20
83.79360750345036
 30
0.0
  9
$EXTMAX
 10
675.3394422368404
 20
393.4596497375001
 30
0.0
  9
$LIMMIN
 10
0.0
 20
0.0
  9
$LIMMAX
 10
420.0
 20
297.0
  9
$ORTHOMODE
 70
     0
  9
$REGENMODE
 70
     1
  9
$FILLMODE
 70
     1
  9
$QTEXTMODE
 70
     0
  9
$MIRRTEXT
 70
     1
  9
$LTSCALE
 40
1.0
  9
$ATTMODE
 70
     1
  9
$TEXTSIZE
 40
0.0
  9
$TRACEWID
 40
1.0
  9
$TEXTSTYLE
  7
STANDARD
  9
$CLAYER
  8
0
  9
$CELTYPE
  6
BYLAYER
  9
$CECOLOR
 62
   256
  9
$CELTSCALE
 40
1.0
  9
$DISPSILH
 70
     0
  9
$DIMSCALE
 40
1.0
  9
$DIMASZ
 40
2.5
  9
$DIMEXO
 40
0.625
  9
$DIMDLI
 40
3.75
  9
$DIMRND
 40
0.0
  9
$DIMDLE
 40
0.0
  9
$DIMEXE
 40
1.25
  9
$DIMTP
 40
0.0
  9
$DIMTM
 40
0.0
  9
$DIMTXT
 40
2.5
  9
$DIMCEN
 40
2.5
  9
$DIMTSZ
 40
0.0
  9
$DIMTOL
 70
     0
  9
$DIMLIM
 70
     0
  9
$DIMTIH
 70
     0
  9
$DIMTOH
 70
     0
  9
$DIMSE1
 70
     0
  9
$DIMSE2
 70
     0
  9
$DIMTAD
 70
     1
  9
$DIMZIN
 70
     8
  9
$DIMBLK
  1

  9
$DIMASO
 70
     1
  9
$DIMSHO
 70
     1
  9
$DIMPOST
  1

  9
$DIMAPOST
  1

  9
$DIMALT
 70
     0
  9
$DIMALTD
 70
     3
  9
$DIMALTF
 40
0.03937
  9
$DIMLFAC
 40
1.0
  9
$DIMTOFL
 70
     1
  9
$DIMTVP
 40
0.0
  9
$DIMTIX
 70
     0
  9
$DIMSOXD
 70
     0
  9
$DIMSAH
 70
     0
  9
$DIMBLK1
  1

  9
$DIMBLK2
  1

  9
$DIMSTYLE
  2
STANDARD
  9
$DIMCLRD
 70
     0
  9
$DIMCLRE
 70
     0
  9
$DIMCLRT
 70
     0
  9
$DIMTFAC
 40
1.0
  9
$DIMGAP
 40
0.625
  9
$DIMJUST
 70
     0
  9
$DIMSD1
 70
     0
  9
$DIMSD2
 70
     0
  9
$DIMTOLJ
 70
     0
  9
$DIMTZIN
 70
     8
  9
$DIMALTZ
 70
     0
  9
$DIMALTTZ
 70
     0
  9
$DIMUPT
 70
     0
  9
$DIMDEC
 70
     2
  9
$DIMTDEC
 70
     2
  9
$DIMALTU
 70
     2
  9
$DIMALTTD
 70
     3
  9
$DIMTXSTY
  7
STANDARD
  9
$DIMAUNIT
 70
     0
  9
$DIMADEC
 70
     0
  9
$DIMALTRND
 40
0.0
  9
$DIMAZIN
 70
     0
  9
$DIMDSEP
 70
    46
  9
$DIMATFIT
 70
     3
  9
$DIMFRAC
 70
     0
  9
$DIMLDRBLK
  1

  9
$DIMLUNIT
 70
     2
  9
$DIMLWD
 70
    -2
  9
$DIMLWE
 70
    -2
  9
$DIMTMOVE
 70
     0
  9
$LUNITS
 70
     2
  9
$LUPREC
 70
     4
  9
$SKETCHINC
 40
1.0
  9
$FILLETRAD
 40
2.5
  9
$AUNITS
 70
     0
  9
$AUPREC
 70
     0
  9
$MENU
  1
.
  9
$ELEVATION
 40
0.0
  9
$PELEVATION
 40
0.0
  9
$THICKNESS
 40
0.0
  9
$LIMCHECK
 70
     0
  9
$CHAMFERA
 40
2.5
  9
$CHAMFERB
 40
2.5
  9
$CHAMFERC
 40
0.0
  9
$CHAMFERD
 40
0.0
  9
$SKPOLY
 70
     0
  9
$TDCREATE
 40
2312275.082375682
  9
$TDUCREATE
 40
2312274.707375682
  9
$TDUPDATE
 40
2456493.751680845
  9
$TDUUPDATE
 40
2456493.376680845
  9
$TDINDWG
 40
0.0619340509
  9
$TDUSRTIMER
 40
0.0619328009
  9
$USRTIMER
 70
     1
  9
$ANGBASE
 50
0.0
  9
$ANGDIR
 70
     0
  9
$PDMODE
 70
     0
  9
$PDSIZE
 40
0.0
  9
$PLINEWID
 40
0.0
  9
$SPLFRAME
 70
     0
  9
$SPLINETYPE
 70
     6
  9
$SPLINESEGS
 70
     8
  9
$HANDSEED
  5
3504
  9
$SURFTAB1
 70
     6
  9
$SURFTAB2
 70
     6
  9
$SURFTYPE
 70
     6
  9
$SURFU
 70
     6
  9
$SURFV
 70
     6
  9
$UCSBASE
  2

  9
$UCSNAME
  2

  9
$UCSORG
 10
0.0
 20
0.0
 30
0.0
  9
$UCSXDIR
 10
1.0
 20
0.0
 30
0.0
  9
$UCSYDIR
 10
0.0
 20
1.0
 30
0.0
  9
$UCSORTHOREF
  2

  9
$UCSORTHOVIEW
 70
     0
  9
$UCSORGTOP
 10
0.0
 20
0.0
 30
0.0
  9
$UCSORGBOTTOM
 10
0.0
 20
0.0
 30
0.0
  9
$UCSORGLEFT
 10
0.0
 20
0.0
 30
0.0
  9
$UCSORGRIGHT
 10
0.0
 20
0.0
 30
0.0
  9
$UCSORGFRONT
 10
0.0
 20
0.0
 30
0.0
  9
$UCSORGBACK
 10
0.0
 20
0.0
 30
0.0
  9
$PUCSBASE
  2

  9
$PUCSNAME
  2

  9
$PUCSORG
 10
0.0
 20
0.0
 30
0.0
  9
$PUCSXDIR
 10
1.0
 20
0.0
 30
0.0
  9
$PUCSYDIR
 10
0.0
 20
1.0
 30
0.0
  9
$PUCSORTHOREF
  2

  9
$PUCSORTHOVIEW
 70
     0
  9
$PUCSORGTOP
 10
0.0
 20
0.0
 30
0.0
  9
$PUCSORGBOTTOM
 10
0.0
 20
0.0
 30
0.0
  9
$PUCSORGLEFT
 10
0.0
 20
0.0
 30
0.0
  9
$PUCSORGRIGHT
 10
0.0
 20
0.0
 30
0.0
  9
$PUCSORGFRONT
 10
0.0
 20
0.0
 30
0.0
  9
$PUCSORGBACK
 10
0.0
 20
0.0
 30
0.0
  9
$USERI1
 70
     0
  9
$USERI2
 70
     0
  9
$USERI3
 70
     0
  9
$USERI4
 70
     0
  9
$USERI5
 70
     0
  9
$USERR1
 40
0.0
  9
$USERR2
 40
0.0
  9
$USERR3
 40
0.0
  9
$USERR4
 40
0.0
  9
$USERR5
 40
0.0
  9
$WORLDVIEW
 70
     1
  9
$SHADEDGE
 70
     3
  9
$SHADEDIF
 70
    70
  9
$TILEMODE
 70
     1
  9
$MAXACTVP
 70
    48
  9
$PINSBASE
 10
0.0
 20
0.0
 30
0.0
  9
$PLIMCHECK
 70
     0
  9
$PEXTMIN
 10
0.0
 20
0.0
 30
0.0
  9
$PEXTMAX
 10
401.4999999999998
 20
275.0
 30
2.0
  9
$PLIMMIN
 10
0.0
 20
0.0
  9
$PLIMMAX
 10
420.0
 20
297.0
  9
$UNITMODE
 70
     0
  9
$VISRETAIN
 70
     0
  9
$PLINEGEN
 70
     0
  9
$PSLTSCALE
 70
     1
  9
$TREEDEPTH
 70
  3020
  9
$CMLSTYLE
  2
STANDARD
  9
$CMLJUST
 70
     0
  9
$CMLSCALE
 40
20.0
  9
$PROXYGRAPHICS
 70
     1
  9
$MEASUREMENT
 70
     1
  9
$CELWEIGHT
370
    -1
  9
$ENDCAPS
280
     0
  9
$JOINSTYLE
280
     0
  9
$LWDISPLAY
290
     0
  9
$INSUNITS
 70
     0
  9
$HYPERLINKBASE
  1

  9
$STYLESHEET
  1

  9
$XEDIT
290
     1
  9
$CEPSNTYPE
380
     0
  9
$PSTYLEMODE
290
     1
  9
$FINGERPRINTGUID
  2
{4650C9B9-4982-4DBD-8679-5C028406DB75}
  9
$VERSIONGUID
  2
{5E5B7B6C-1131-4F27-A8BF-72DAEB3F30E8}
  9
$EXTNAMES
290
     1
  9
$PSVPSCALE
 40
0.0
  9
$OLESTARTUP
290
     0
  0
ENDSEC
  0
SECTION
  2
CLASSES
  0
CLASS
  1
LWPOLYLINE
  2
AcDbPolyline
  3
AutoCAD 2000
 90
    32768
280
     0
281
     1
  0
CLASS
  1
IMAGE
  2
AcDbRasterImage
  3
ISM
 90
    32895
280
     0
281
     1
  0
CLASS
  1
OLE2FRAME
  2
AcDbOle2Frame
  3
AutoCAD 2000
 90
    32768
280
     0
281
     1
  0
CLASS
  1
HATCH
  2
AcDbHatch
  3
AutoCAD 2000
 90
    32768
280
     0
281
     1
  0
CLASS
  1
DICTIONARYVAR
  2
AcDbDictionaryVar
  3
AutoCAD 2000
 90
    32768
280
     0
281
     0
  0
CLASS
  1
RASTERVARIABLES
  2
AcDbRasterVariables
  3
ISM
 90
    32768
280
     0
281
     0
  0
CLASS
  1
IMAGEDEF
  2
AcDbRasterImageDef
  3
ISM
 90
    32768
280
     0
281
     0
  0
CLASS
  1
IMAGEDEF_REACTOR
  2
AcDbRasterImageDefReactor
  3
ISM
 90
    32769
280
     0
281
     0
  0
CLASS
  1
IDBUFFER
  2
AcDbIdBuffer
  3
AutoCAD 2000
 90
    32768
280
     0
281
     0
  0
CLASS
  1
SPATIAL_FILTER
  2
AcDbSpatialFilter
  3
AutoCAD 2000
 90
    32768
280
     0
281
     0
  0
CLASS
  1
XRECORD
  2
AcDbXrecord
  3
AutoCAD 2000
 90
    32768
280
     0
281
     0
  0
CLASS
  1
SORTENTSTABLE
  2
AcDbSortentsTable
  3
AutoCAD 2000
 90
    32768
280
     0
281
     0
  0
CLASS
  1
LAYER_INDEX
  2
AcDbLayerIndex
  3
AutoCAD 2000
 90
    32768
280
     0
281
     0
  0
CLASS
  1
SPATIAL_INDEX
  2
AcDbSpatialIndex
  3
AutoCAD 2000
 90
    32768
280
     0
281
     0
  0
CLASS
  1
OBJECT_PTR
  2
CAseDLPNTableRecord
  3
"ASE-LPNTableRecord"
 90
    32769
280
     0
281
     0
  0
CLASS
  1
LAYOUT
  2
AcDbLayout
  3
AutoCAD 2000
 90
        0
280
     0
281
     0
  0
CLASS
  1
PLOTSETTINGS
  2
AcDbPlotSettings
  3
AutoCAD 2000
 90
    32768
280
     0
281
     0
  0
CLASS
  1
ACDBDICTIONARYWDFLT
  2
AcDbDictionaryWithDefault
  3
AutoCAD 2000
 90
        0
280
     0
281
     0
  0
CLASS
  1
ACDBPLACEHOLDER
  2
AcDbPlaceHolder
  3
AutoCAD 2000
 90
        0
280
     0
281
     0
  0
CLASS
  1
VBA_PROJECT
  2
AcDbVbaProject
  3
"acadvba"
 90
    32768
280
     0
281
     0
  0
CLASS
  1
WIPEOUT
  2
AcDbWipeout
  3
WipeOut|AutoCAD Express Tool|expresstools@autodesk.com
 90
    32895
280
     0
281
     1
  0
CLASS
  1
WIPEOUTVARIABLES
  2
AcDbWipeoutVariables
  3
WipeOut|AutoCAD Express Tool|expresstools@autodesk.com
 90
    32768
280
     0
281
     0
  0
CLASS
  1
RTEXT
  2
RText
  3
RText|AutoCAD Express Tool|expresstools@autodesk.com
 90
    32768
280
     0
281
     1
  0
CLASS
  1
ARCALIGNEDTEXT
  2
AcDbArcAlignedText
  3
ATEXT|AutoCAD Express Tool|expresstools@autodesk.com
 90
    32768
280
     0
281
     1
  0
ENDSEC
  0
SECTION
  2
TABLES
  0
TABLE
  2
VPORT
  5
7
330
0
100
AcDbSymbolTable
 70
     2
  0
VPORT
  5
3503
330
7
100
AcDbSymbolTableRecord
100
AcDbViewportTableRecord
  2
*Active
 70
     0
 10
0.0
 20
0.0
 11
1.0
 21
1.0
 12
361.2924332471263
 22
255.9503277056807
 13
0.0
 23
0.0
 14
1.0
 24
1.0
 15
0.0
 25
0.0
 16
0.0
 26
0.0
 36
1.0
 17
0.0
 27
0.0
 37
0.0
 40
427.2626076521658
 41
1.78095238095238
 42
50.0
 43
0.0
 44
0.0
 50
0.0
 51
0.0
 71
     0
 72
   100
 73
     1
 74
     1
 75
     0
 76
     0
 77
     0
 78
     0
281
     0
 65
     1
110
0.0
120
0.0
130
0.0
111
1.0
121
0.0
131
0.0
112
0.0
122
1.0
132
0.0
 79
     0
146
0.0
  0
ENDTAB
  0
TABLE
  2
LTYPE
  5
4
330
0
100
AcDbSymbolTable
 70
     2
  0
LTYPE
  5
11
330
4
100
AcDbSymbolTableRecord
100
AcDbLinetypeTableRecord
  2
BYBLOCK
 70
     0
  3

 72
    65
 73
     0
 40
0.0
  0
LTYPE
  5
12
330
4
100
AcDbSymbolTableRecord
100
AcDbLinetypeTableRecord
  2
BYLAYER
 70
     0
  3

 72
    65
 73
     0
 40
0.0
  0
LTYPE
  5
13
330
4
100
AcDbSymbolTableRecord
100
AcDbLinetypeTableRecord
  2
CONTINUOUS
 70
     0
  3
Solid line
 72
    65
 73
     0
 40
0.0
  0
LTYPE
  5
1D
330
4
100
AcDbSymbolTableRecord
100
AcDbLinetypeTableRecord
  2
DASHED
 70
     0
  3
__ __ __ __ __ __ __ __ __ __ __ __ __ __ __ __
 72
    65
 73
     2
 40
15.0
 49
12.0
 74
     0
 49
-3.0
 74
     0
  0
ENDTAB
  0
TABLE
  2
LAYER
  5
2
330
0
100
AcDbSymbolTable
 70
     1
  0
LAYER
  5
14
330
2
100
AcDbSymbolTableRecord
100
AcDbLayerTableRecord
  2
0
 70
     0
 62
     7
  6
CONTINUOUS
370
    -3
390
3498
  0
ENDTAB
  0
TABLE
  2
STYLE
  5
3
330
0
100
AcDbSymbolTable
 70
     1
  0
STYLE
  5
17
330
3
100
AcDbSymbolTableRecord
100
AcDbTextStyleTableRecord
  2
STANDARD
 70
     0
 40
0.0
 41
1.0
 50
0.0
 71
     0
 42
0.0
  3
txt
  4

  0
ENDTAB
  0
TABLE
  2
VIEW
  5
5
330
0
100
AcDbSymbolTable
 70
     0
  0
ENDTAB
  0
TABLE
  2
UCS
  5
6
330
0
100
AcDbSymbolTable
 70
     0
  0
ENDTAB
  0
TABLE
  2
APPID
  5
8
330
0
100
AcDbSymbolTable
 70
     1
  0
APPID
  5
16
330
8
100
AcDbSymbolTableRecord
100
AcDbRegAppTableRecord
  2
ACAD
 70
     0
  0
ENDTAB
  0
TABLE
  2
DIMSTYLE
  5
9
330
0
100
AcDbSymbolTable
 70
     1
100
AcDbDimStyleTable
 71
     1
340
18
  0
DIMSTYLE
105
18
330
9
100
AcDbSymbolTableRecord
100
AcDbDimStyleTableRecord
  2
STANDARD
 70
     0
340
17
  0
ENDTAB
  0
TABLE
  2
BLOCK_RECORD
  5
1
330
0
100
AcDbSymbolTable
 70
     0
  0
BLOCK_RECORD
  5
A
330
1
100
AcDbSymbolTableRecord
100
AcDbBlockTableRecord
  2
*MODEL_SPACE
340
349B
  0
BLOCK_RECORD
  5
B
330
1
100
AcDbSymbolTableRecord
100
AcDbBlockTableRecord
  2
*PAPER_SPACE
340
349C
  0
ENDTAB
  0
ENDSEC
  0
SECTION
  2
BLOCKS
  0
BLOCK
  5
D
330
A
100
AcDbEntity
  8
0
100
AcDbBlockBegin
  2
*MODEL_SPACE
 70
     0
 10
0.0
 20
0.0
 30
0.0
  3
*MODEL_SPACE
  1

  0
ENDBLK
  5
E
330
A
100
AcDbEntity
  8
0
100
AcDbBlockEnd
  0
BLOCK
  5
F
330
B
100
AcDbEntity
 67
     1
  8
0
100
AcDbBlockBegin
  2
*PAPER_SPACE
 70
     0
 10
0.0
 20
0.0
 30
0.0
  3
*PAPER_SPACE
  1

  0
ENDBLK
  5
10
330
B
100
AcDbEntity
 67
     1
  8
0
100
AcDbBlockEnd
  0
ENDSEC
  0
SECTION
  2
ENTITIES
  0
LINE
  5
29D9
330
A
100
AcDbEntity
  8
0
 62
     7
 48
0.025
100
AcDbLine
 10
56.71479099974335
 20
382.6596322625008
 30
0.0
 11
56.71479099974335
 21
384.6596321652786
 31
0.0
  0
LINE
  5
29DA
330
A
100
AcDbEntity
  8
0
 62
     7
 48
0.077265
100
AcDbLine
 10
64.21479063516004
 20
382.6596322625011
 30
0.0
 11
56.71479099974335
 21
382.6596322625008
 31
0.0
  0
LINE
  5
29DE
330
A
100
AcDbEntity
  8
0
 62
     7
 48
0.077265
100
AcDbLine
 10
64.21479063516002
 20
98.65966006805523
 30
0.0
 11
56.71479099974335
 21
98.65966006805523
 31
0.0
  0
LINE
  5
29E1
330
A
100
AcDbEntity
  8
0
 62
     7
 48
0.025
100
AcDbLine
 10
56.71479099974335
 20
98.65966006805523
 30
0.0
 11
56.71479099974335
 21
96.65966016527749
 31
0.0
  0
LINE
  5
29E3
330
A
100
AcDbEntity
  8
0
 62
     7
100
AcDbLine
 10
344.7147909997433
 20
96.65966016527749
 30
0.0
 11
344.7147909997433
 21
384.6596321652786
 31
0.0
  0
LINE
  5
29E5
330
A
100
AcDbEntity
  8
0
 62
     7
 48
0.077265
100
AcDbLine
 10
62.89595669926999
 20
384.6596321652786
 30
0.0
 11
56.71479099974335
 21
384.6596321652786
 31
0.0
  0
LINE
  5
29E6
330
A
100
AcDbEntity
  8
0
 62
     7
 48
0.070796
100
AcDbLine
 10
68.55966842395069
 20
384.6596321652786
 30
0.0
 11
62.89595669926999
 21
384.6596321652786
 31
0.0
  0
LINE
  5
29E7
330
A
100
AcDbEntity
  8
0
 62
     7
100
AcDbLine
 10
344.7147909997433
 20
384.6596321652786
 30
0.0
 11
68.55966842395069
 21
384.6596321652786
 31
0.0
  0
LINE
  5
29E9
330
A
100
AcDbEntity
  8
0
 62
     7
 48
0.025
100
AcDbLine
 10
62.89595669926999
 20
382.6596322625008
 30
0.0
 11
62.89595669926999
 21
384.6596321652786
 31
0.0
  0
LINE
  5
29EA
330
A
100
AcDbEntity
  8
0
 62
     7
 48
0.001554
100
AcDbLine
 10
68.55966842395069
 20
384.535334171321
 30
0.0
 11
68.55966842395069
 21
384.6596321652786
 31
0.0
  0
LINE
  5
29EC
330
A
100
AcDbEntity
  8
0
 62
     7
 48
0.025
100
AcDbLine
 10
62.89595669926999
 20
98.65966006805523
 30
0.0
 11
62.89595669926999
 21
96.65966016527749
 31
0.0
  0
LINE
  5
29EE
330
A
100
AcDbEntity
  8
0
 62
     7
 48
0.061722
100
AcDbLine
 10
67.83373245923924
 20
96.65966016527749
 30
0.0
 11
56.71479099974335
 21
96.65966016527749
 31
0.0
  0
LINE
  5
29F0
330
A
100
AcDbEntity
  8
0
 62
     7
100
AcDbLine
 10
310.3337806710423
 20
96.65966016527749
 30
0.0
 11
231.0957785228895
 21
96.65966016527749
 31
0.0
  0
LINE
  5
29F2
330
A
100
AcDbEntity
  8
0
 62
     7
 48
0.0125
100
AcDbLine
 10
344.7147909997433
 20
96.65966016527749
 30
0.0
 11
342.1022519076397
 21
96.65966016527749
 31
0.0
  0
LINE
  5
29F3
330
A
100
AcDbEntity
  8
0
 62
     7
 48
0.015
100
AcDbLine
 10
56.71479099974335
 20
382.6596322625008
 30
0.0
 11
56.71479099974335
 21
381.4596503208333
 31
0.0
  0
LINE
  5
29F4
330
A
100
AcDbEntity
  8
0
 62
     7
 48
0.015
100
AcDbLine
 10
58.52364291181304
 20
382.6596322625008
 30
0.0
 11
58.52364291181304
 21
381.4596503208333
 31
0.0
  0
LINE
  5
29F5
330
A
100
AcDbEntity
  8
0
 62
     7
 48
0.022611
100
AcDbLine
 10
56.71479099974335
 20
381.4596503208333
 30
0.0
 11
58.52364291181304
 21
381.4596503208333
 31
0.0
  0
LINE
  5
29F6
330
A
100
AcDbEntity
  8
0
 62
     7
 48
0.004891
100
AcDbLine
 10
58.9149388927917
 20
381.4596503208333
 30
0.0
 11
58.52364291181304
 21
381.4596503208333
 31
0.0
  0
LINE
  5
29F7
330
A
100
AcDbEntity
  8
0
 62
     7
 48
0.00375
100
AcDbLine
 10
61.71479075668779
 20
382.6596322625008
 30
0.0
 11
61.71479075668781
 21
381.0596563402776
 31
0.0
  0
LINE
  5
29F8
330
A
100
AcDbEntity
  8
0
 62
     7
 48
0.0025
100
AcDbLine
 10
61.51479276640992
 20
381.4596503208333
 30
0.0
 11
61.71479075668779
 21
381.4596503208333
 31
0.0
  0
LINE
  5
29F9
330
A
100
AcDbEntity
  8
0
  6
DASHED
 62
     4
 48
0.072501
100
AcDbLine
 10
301.714793090021
 20
384.6596001652801
 30
0.0
 11
301.714793090021
 21
390.4596498833335
 31
0.0
  0
LINE
  5
29FA
330
A
100
AcDbEntity
  8
0
  6
DASHED
 62
     4
 48
0.1068
100
AcDbLine
 10
293.7147934789098
 20
393.4596497374998
 30
0.0
 11
301.714793090021
 21
390.4596498833335
 31
0.0
  0
LINE
  5
29FB
330
A
100
AcDbEntity
  8
0
  6
DASHED
 62
     4
 48
0.110001
100
AcDbLine
 10
267.7147947427986
 20
393.4596497374998
 30
0.0
 11
267.7147947427986
 21
384.6596001652801
 31
0.0
  0
LINE
  5
29FD
330
A
100
AcDbEntity
  8
0
  6
DASHED
 62
     4
 48
0.110001
100
AcDbLine
 10
272.7147944997432
 20
393.4596497374998
 30
0.0
 11
272.7147944997432
 21
384.6596001652801
 31
0.0
  0
LINE
  5
29FE
330
A
100
AcDbEntity
  8
0
  6
DASHED
 62
     4
 48
0.110001
100
AcDbLine
 10
293.7147934789098
 20
384.6596001652801
 30
0.0
 11
293.7147934789098
 21
393.4596497374998
 31
0.0
  0
LINE
  5
29FF
330
A
100
AcDbEntity
  8
0
  6
DASHED
 62
     4
 48
0.2625
100
AcDbLine
 10
293.7147934789098
 20
393.4596497374998
 30
0.0
 11
267.7147947427986
 21
393.4596497374998
 31
0.0
  0
LINE
  5
2A00
330
A
100
AcDbEntity
  8
0
  6
DASHED
 62
     4
 48
0.1068
100
AcDbLine
 10
107.7147885205768
 20
393.4596497374998
 30
0.0
 11
99.71478890946571
 21
390.4596498833335
 31
0.0
  0
LINE
  5
2A01
330
A
100
AcDbEntity
  8
0
  6
DASHED
 62
     4
 48
0.072501
100
AcDbLine
 10
99.71478890946571
 20
384.6596001652801
 30
0.0
 11
99.71478890946571
 21
390.4596498833335
 31
0.0
  0
LINE
  5
2A02
330
A
100
AcDbEntity
  8
0
  6
DASHED
 62
     4
 48
0.110001
100
AcDbLine
 10
107.7147885205768
 20
384.6596001652801
 30
0.0
 11
107.7147885205768
 21
393.4596497374998
 31
0.0
  0
LINE
  5
2A03
330
A
100
AcDbEntity
  8
0
  6
DASHED
 62
     4
 48
0.110001
100
AcDbLine
 10
133.714801256687
 20
393.4596497374998
 30
0.0
 11
133.714801256687
 21
384.6596001652801
 31
0.0
  0
LINE
  5
2A04
330
A
100
AcDbEntity
  8
0
  6
DASHED
 62
     4
 48
0.110001
100
AcDbLine
 10
128.7148014997428
 20
393.4596497374998
 30
0.0
 11
128.7148014997428
 21
384.6596001652801
 31
0.0
  0
LINE
  5
2A06
330
A
100
AcDbEntity
  8
0
  6
DASHED
 62
     4
 48
0.2625
100
AcDbLine
 10
107.7147885205768
 20
393.4596497374998
 30
0.0
 11
133.714801256687
 21
393.4596497374998
 31
0.0
  0
LINE
  5
2A07
330
A
100
AcDbEntity
  8
0
  6
DASHED
 62
     4
 48
0.0825
100
AcDbLine
 10
141.7148008677983
 20
384.6596001652801
 30
0.0
 11
141.7148008677983
 21
391.2596378444451
 31
0.0
  0
LINE
  5
2A09
330
A
100
AcDbEntity
  8
0
  6
DASHED
 62
     4
 48
0.0825
100
AcDbLine
 10
259.7147951316876
 20
384.6596001652801
 30
0.0
 11
259.7147951316876
 21
391.2596378444451
 31
0.0
  0
LINE
  5
2A0A
330
A
100
AcDbEntity
  8
0
  6
DASHED
 62
     4
100
AcDbLine
 10
133.714801256687
 20
391.2596378444451
 30
0.0
 11
259.7147951316876
 21
391.2596378444451
 31
0.0
  0
LINE
  5
2A0B
330
A
100
AcDbEntity
  8
0
  6
DASHED
 62
     4
 48
0.1
100
AcDbLine
 10
259.7147951316876
 20
391.2596378444451
 30
0.0
 11
267.7147947427986
 21
391.2596378444451
 31
0.0
  0
LINE
  5
2A0C
330
A
100
AcDbEntity
  8
0
  6
DASHED
 62
     4
 48
0.206378
100
AcDbLine
 10
333.969887522065
 20
84.05965477777774
 30
0.0
 11
317.4596663246451
 21
84.05965477777774
 31
0.0
  0
LINE
  5
2A0D
330
A
100
AcDbEntity
  8
0
  6
DASHED
 62
     4
 48
0.143412
100
AcDbLine
 10
335.4441934503974
 20
85.28322671829855
 30
0.0
 11
337.5585413476166
 21
96.55964017013957
 31
0.0
  0
LINE
  5
2A0E
330
A
100
AcDbEntity
  8
0
  6
DASHED
 62
     4
 48
0.143411
100
AcDbLine
 10
315.9853623963126
 20
85.28322671829855
 30
0.0
 11
313.8710424990922
 21
96.55964017013957
 31
0.0
  0
LINE
  5
2A0F
330
A
100
AcDbEntity
  8
0
  6
DASHED
 62
     4
 48
0.243235
100
AcDbLine
 10
335.4441934503974
 20
85.28322671829855
 30
0.0
 11
315.9853623963126
 21
85.28322671829855
 31
0.0
  0
ARC
  5
2A10
330
A
100
AcDbEntity
  8
0
  6
DASHED
 62
     4
100
AcDbCircle
 10
317.4596663246451
 20
85.55965470486105
 30
0.0
 40
1.499999927083334
100
AcDbArc
 50
190.6196519999999
 51
270.000001
  0
ARC
  5
2A11
330
A
100
AcDbEntity
  8
0
  6
DASHED
 62
     4
100
AcDbCircle
 10
333.969887522065
 20
85.55965470486105
 30
0.0
 40
1.499999927083334
100
AcDbArc
 50
270.000001
 51
349.38035
  0
LINE
  5
2A12
330
A
100
AcDbEntity
  8
0
  6
DASHED
 62
     4
 48
0.206378
100
AcDbLine
 10
83.96989967484223
 20
84.05965477777774
 30
0.0
 11
67.45969247742177
 21
84.05965477777774
 31
0.0
  0
LINE
  5
2A13
330
A
100
AcDbEntity
  8
0
  6
DASHED
 62
     4
 48
0.143411
100
AcDbLine
 10
85.44421960317391
 20
85.28322671829855
 30
0.0
 11
87.55853950039448
 21
96.55964017013957
 31
0.0
  0
LINE
  5
2A14
330
A
100
AcDbEntity
  8
0
  6
DASHED
 62
     4
 48
0.144683
100
AcDbLine
 10
65.98537454908999
 20
85.28322671829855
 30
0.0
 11
63.85230265278095
 21
96.65963016527893
 31
0.0
  0
LINE
  5
2A15
330
A
100
AcDbEntity
  8
0
  6
DASHED
 62
     4
 48
0.243236
100
AcDbLine
 10
85.44421960317391
 20
85.28322671829855
 30
0.0
 11
65.98537454908999
 21
85.28322671829855
 31
0.0
  0
ARC
  5
2A16
330
A
100
AcDbEntity
  8
0
  6
DASHED
 62
     4
100
AcDbCircle
 10
67.45969247742177
 20
85.55965470486105
 30
0.0
 40
1.499999927083334
100
AcDbArc
 50
190.6196519999999
 51
270.000001
  0
ARC
  5
2A17
330
A
100
AcDbEntity
  8
0
  6
DASHED
 62
     4
100
AcDbCircle
 10
83.96989967484223
 20
85.55965470486105
 30
0.0
 40
1.499999927083334
100
AcDbArc
 50
270.000001
 51
349.38035
  0
LINE
  5
2A18
330
A
100
AcDbEntity
  8
0
 62
     7
 48
0.028632
100
AcDbLine
 10
344.7147909997433
 20
195.0596653819438
 30
0.0
 11
344.7147909997433
 21
192.7691374932889
 31
0.0
  0
LINE
  5
2A19
330
A
100
AcDbEntity
  8
0
 62
     7
 48
0.081369
100
AcDbLine
 10
344.7147909997433
 20
192.7691374932889
 30
0.0
 11
344.7147909997433
 21
186.2596478097223
 31
0.0
  0
LINE
  5
2A1A
330
A
100
AcDbEntity
  8
0
 62
     7
 48
0.025378
100
AcDbLine
 10
345.2147909754377
 20
194.5596654062492
 30
0.0
 11
345.2147909754377
 21
192.529391504943
 31
0.0
  0
LINE
  5
2A1B
330
A
100
AcDbEntity
  8
0
 62
     7
 48
0.072122
100
AcDbLine
 10
345.2147909754377
 20
192.529391504943
 30
0.0
 11
345.2147909754377
 21
186.7596477854166
 31
0.0
  0
ARC
  5
2A1C
330
A
100
AcDbEntity
  8
0
 62
     7
100
AcDbCircle
 10
344.7147909997433
 20
194.5596654062492
 30
0.0
 40
0.4999999756944458
100
AcDbArc
 50
0.0
 51
90.00000300000001
  0
ARC
  5
2A1D
330
A
100
AcDbEntity
  8
0
 62
     7
100
AcDbCircle
 10
344.7147909997433
 20
186.7596477854166
 30
0.0
 40
0.4999999756944458
100
AcDbArc
 50
269.9999969999999
 51
0.0
  0
LINE
  5
2A1E
330
A
100
AcDbEntity
  8
0
 62
     7
 48
0.072122
100
AcDbLine
 10
56.21479102404889
 20
188.7898896867243
 30
0.0
 11
56.21479102404889
 21
194.5596654062492
 31
0.0
  0
LINE
  5
2A1F
330
A
100
AcDbEntity
  8
0
 62
     7
 48
0.025378
100
AcDbLine
 10
56.21479102404889
 20
186.7596477854166
 30
0.0
 11
56.21479102404889
 21
188.7898896867243
 31
0.0
  0
ARC
  5
2A20
330
A
100
AcDbEntity
  8
0
 62
     7
100
AcDbCircle
 10
56.71479099974335
 20
194.5596654062492
 30
0.0
 40
0.4999999756944458
100
AcDbArc
 50
90.00000300000001
 51
180.000005
  0
ARC
  5
2A21
330
A
100
AcDbEntity
  8
0
 62
     7
100
AcDbCircle
 10
56.71479099974335
 20
186.7596477854166
 30
0.0
 40
0.4999999756944458
100
AcDbArc
 50
180.000005
 51
270.000001
  0
LINE
  5
2A23
330
A
100
AcDbEntity
  8
0
 62
     7
 48
0.004921
100
AcDbLine
 10
344.7147909997433
 20
381.0596563402776
 30
0.0
 11
344.3210850188818
 21
381.0596563402776
 31
0.0
  0
LINE
  5
2A24
330
A
100
AcDbEntity
  8
0
 62
     7
 48
0.041623
100
AcDbLine
 10
56.70960299999553
 20
381.0596563402776
 30
0.0
 11
64.21479063516001
 21
381.0596563402776
 31
0.0
  0
LINE
  5
2A26
330
A
100
AcDbEntity
  8
0
 62
     7
 48
0.036294
100
AcDbLine
 10
64.21479063516001
 20
381.0596563402776
 30
0.0
 11
64.21479063516002
 21
384.0400021953993
 31
0.0
  0
ARC
  5
2A31
330
A
100
AcDbEntity
  8
0
 62
     7
100
AcDbCircle
 10
64.82340260557471
 20
382.1364682879326
 30
0.0
 40
1.998453902852935
100
AcDbArc
 50
95.995003
 51
107.730006
  0
LINE
  5
2A32
330
A
100
AcDbEntity
  8
0
 62
     7
 48
0.036294
100
AcDbLine
 10
64.21479063516002
 20
97.07929214487869
 30
0.0
 11
64.21479063516002
 21
99.98279600373614
 31
0.0
  0
LINE
  5
2A33
330
A
100
AcDbEntity
  8
0
 62
     7
 48
0.000961
100
AcDbLine
 10
64.21479063516002
 20
100.059654
 30
0.0
 11
64.21479063516002
 21
99.98279600373614
 31
0.0
  0
LWPOLYLINE
  5
2A34
330
A
100
AcDbEntity
  8
0
 62
     7
100
AcDbPolyline
 90
        7
 70
     0
 43
0.0
 10
84.21478966293788
 20
115.5596532465277
 10
84.08743966912849
 20
115.4962532496097
 10
83.89929767827425
 20
115.3579932563305
 10
83.21800771139251
 20
114.7912812838788
 10
82.54555374408125
 20
114.1983113127039
 10
79.98405986859831
 20
111.8501354268514
 10
75.93175406558541
 20
108.0304936125284
  0
ARC
  5
2A3D
330
A
100
AcDbEntity
  8
0
 62
     7
100
AcDbCircle
 10
84.21498766292819
 20
117.0598511736014
 30
0.0
 40
1.500251927071087
100
AcDbArc
 50
180.007303
 51
269.992703
  0
LINE
  5
2A3E
330
A
100
AcDbEntity
  8
0
 62
     7
 48
0.134617
100
AcDbLine
 10
75.01822610999302
 20
109.5269235397855
 30
0.0
 11
82.7147897358545
 21
117.059653173611
 31
0.0
  0
LWPOLYLINE
  5
2A3F
330
A
100
AcDbEntity
  8
0
 62
     7
100
AcDbPolyline
 90
        5
 70
     0
 43
0.0
 10
75.93175406558541
 20
108.0304936125284
 10
75.55200808404527
 20
108.2910695998615
 10
75.26311409808872
 20
108.6500015824134
 10
75.08092410694515
 20
109.0720295618984
 10
75.01822610999302
 20
109.5269235397855
  0
LWPOLYLINE
  5
2A46
330
A
100
AcDbEntity
  8
0
 62
     7
100
AcDbPolyline
 90
        6
 70
     0
 43
0.0
 10
75.01822610999302
 20
371.5923708004928
 10
75.05866210802736
 20
371.9592527826583
 10
75.17801610222545
 20
372.3089847656573
 10
75.36865809295813
 20
372.6250547502928
 10
75.62253408061692
 20
372.8904067373939
 10
75.93175406558541
 20
373.0888007277497
  0
LINE
  5
2A4E
330
A
100
AcDbEntity
  8
0
 62
     7
 48
0.134617
100
AcDbLine
 10
82.7147897358545
 20
364.0596571666663
 30
0.0
 11
75.01822610999302
 21
371.5923708004928
 31
0.0
  0
ARC
  5
2A4F
330
A
100
AcDbEntity
  8
0
 62
     7
100
AcDbCircle
 10
84.21498766292819
 20
364.0594431666767
 30
0.0
 40
1.500251927071087
100
AcDbArc
 50
90.00729699999999
 51
179.992697
  0
LWPOLYLINE
  5
2A50
330
A
100
AcDbEntity
  8
0
 62
     7
100
AcDbPolyline
 90
        7
 70
     0
 43
0.0
 10
75.93175406558541
 20
373.0888307277483
 10
79.70889988197415
 20
369.5253849009712
 10
81.6224877889525
 20
367.7573489869175
 10
83.29111370783875
 20
366.2652530594498
 10
83.87610567940162
 20
365.779047083085
 10
84.08604966919609
 20
365.6241710906134
 10
84.21478966293788
 20
365.5596570937498
  0
ARC
  5
2A59
330
A
100
AcDbEntity
  8
0
 62
     7
100
AcDbCircle
 10
317.2146103365573
 20
364.0594431666767
 30
0.0
 40
1.500251927071087
100
AcDbArc
 50
0.0073
 51
89.992701
  0
LINE
  5
2A5A
330
A
100
AcDbEntity
  8
0
 62
     7
 48
0.134087
100
AcDbLine
 10
326.3491918925153
 20
371.5951188003593
 30
0.0
 11
318.7147922636321
 21
364.0596571666663
 31
0.0
  0
LWPOLYLINE
  5
2A5B
330
A
100
AcDbEntity
  8
0
 62
     7
100
AcDbPolyline
 90
        5
 70
     0
 43
0.0
 10
325.4385479367828
 20
373.0915167276177
 10
325.8170259183846
 20
372.8303787403119
 10
326.1049299043893
 20
372.4715527577549
 10
326.2865698955595
 20
372.0497987782568
 10
326.3491918925153
 20
371.5951188003593
  0
LWPOLYLINE
  5
2A62
330
A
100
AcDbEntity
  8
0
 62
     7
100
AcDbPolyline
 90
        7
 70
     0
 43
0.0
 10
317.2147923365489
 20
365.5596570937498
 10
317.3414403303921
 20
365.6226750906863
 10
317.5285143212982
 20
365.760737083975
 10
318.2042022884521
 20
366.3262270564861
 10
318.8704622560647
 20
366.9178410277268
 10
321.4139501324231
 20
369.2673589135141
 10
325.4385479367828
 20
373.0915467276162
  0
LWPOLYLINE
  5
2A6B
330
A
100
AcDbEntity
  8
0
 62
     7
100
AcDbPolyline
 90
        6
 70
     0
 43
0.0
 10
326.3491918925153
 20
109.524193539918
 10
326.3089078944736
 20
109.1579975577192
 10
326.1900739002502
 20
108.8086615747007
 10
326.0001319094836
 20
108.492637590063
 10
325.7469879217893
 20
108.2269216029797
 10
325.4385479367828
 20
108.0277776126604
  0
LINE
  5
2A73
330
A
100
AcDbEntity
  8
0
 62
     7
 48
0.134087
100
AcDbLine
 10
318.7147922636321
 20
117.059653173611
 30
0.0
 11
326.3491918925153
 21
109.524193539918
 31
0.0
  0
ARC
  5
2A74
330
A
100
AcDbEntity
  8
0
 62
     7
100
AcDbCircle
 10
317.2146103365573
 20
117.0598511736014
 30
0.0
 40
1.500251927071087
100
AcDbArc
 50
270.007299
 51
359.9927
  0
LWPOLYLINE
  5
2A75
330
A
100
AcDbEntity
  8
0
 62
     7
100
AcDbPolyline
 90
        7
 70
     0
 43
0.0
 10
325.4385479367828
 20
108.0277636126609
 10
321.4849961289693
 20
111.7846294300357
 10
318.9506322521676
 20
114.1289293160766
 10
317.7762863092538
 20
115.158423266032
 10
317.3700043290036
 20
115.4764772505709
 10
317.2424103352061
 20
115.5512452469362
 10
317.2147923365489
 20
115.5596532465277
  0
LINE
  5
2A7E
330
A
100
AcDbEntity
  8
0
 62
     7
 48
0.05251
100
AcDbLine
 10
64.61467661572109
 20
96.99529214896202
 30
0.0
 11
68.79282241261681
 21
96.55965417013888
 31
0.0
  0
ARC
  5
2A7F
330
A
100
AcDbEntity
  8
0
 62
     7
100
AcDbCircle
 10
64.82393660554873
 20
98.98546605221746
 30
0.0
 40
2.00113590272256
100
AcDbArc
 50
252.2790309999999
 51
263.997627
  0
LINE
  5
2A80
330
A
100
AcDbEntity
  8
0
 62
     7
100
AcDbLine
 10
344.4523090125028
 20
195.7539093481959
 30
0.0
 11
344.4523090125028
 21
285.3653849920823
 31
0.0
  0
LWPOLYLINE
  5
2A81
330
A
100
AcDbEntity
  8
0
 62
     7
100
AcDbPolyline
 90
        5
 70
     0
 43
0.0
 10
344.4523090125028
 20
285.3653849920823
 10
344.4753190113841
 20
286.3566569438956
 10
344.5383390083208
 20
287.0876749083596
 10
344.5776150064113
 20
287.2831108988596
 10
344.5985190053953
 20
287.3381948961818
  0
LINE
  5
2A88
330
A
100
AcDbEntity
  8
0
 62
     7
 48
0.003127
100
AcDbLine
 10
344.5985190053953
 20
287.3381948961818
 30
0.0
 11
344.7147909997433
 21
287.5596608854161
 31
0.0
  0
ARC
  5
2A8C
330
A
100
AcDbEntity
  8
0
 62
     7
100
AcDbCircle
 10
341.3374731639184
 20
99.54328202510142
 30
0.0
 40
2.983313854977798
100
AcDbArc
 50
269.9047639999999
 51
0.095237
  0
LINE
  5
2A8D
330
A
100
AcDbEntity
  8
0
 62
     7
 48
0.006393
100
AcDbLine
 10
344.3210850188818
 20
99.54824002486038
 30
0.0
 11
344.3210850188818
 21
100.059654
 31
0.0
  0
LINE
  5
2A8E
330
A
100
AcDbEntity
  8
0
 62
     7
 48
0.382721
100
AcDbLine
 10
310.714792652521
 20
96.55965417013888
 30
0.0
 11
341.3324971641603
 21
96.55965417013888
 31
0.0
  0
LINE
  5
2A8F
330
A
100
AcDbEntity
  8
0
 62
     7
100
AcDbLine
 10
344.7147909997433
 20
100.059654
 30
0.0
 11
344.7147909997433
 21
193.5596654548604
 31
0.0
  0
LINE
  5
2A90
330
A
100
AcDbEntity
  8
0
 62
     7
 48
0.003126
100
AcDbLine
 10
344.7147909997433
 20
193.5596654548604
 30
0.0
 11
344.5985190053953
 21
193.7811014440963
 31
0.0
  0
LWPOLYLINE
  5
2A91
330
A
100
AcDbEntity
  8
0
 62
     7
100
AcDbPolyline
 90
        5
 70
     0
 43
0.0
 10
344.5985190053953
 20
193.7811014440961
 10
344.5692530068181
 20
193.8671594399129
 10
344.5166710093741
 20
194.2042274235276
 10
344.4639970119347
 20
195.0349453831455
 10
344.4523090125028
 20
195.7539093481959
  0
LINE
  5
2A98
330
A
100
AcDbEntity
  8
0
 62
     7
100
AcDbLine
 10
82.7147897358545
 20
117.059653173611
 30
0.0
 11
82.7147897358545
 21
364.0596571666663
 31
0.0
  0
LINE
  5
2A99
330
A
100
AcDbEntity
  8
0
 62
     7
100
AcDbLine
 10
317.2147923365486
 20
365.5596570937498
 30
0.0
 11
84.21478966293788
 21
365.5596570937498
 31
0.0
  0
LINE
  5
2A9A
330
A
100
AcDbEntity
  8
0
 62
     7
100
AcDbLine
 10
318.7147922636321
 20
364.0596571666663
 30
0.0
 11
318.7147922636321
 21
117.059653173611
 31
0.0
  0
LINE
  5
2A9B
330
A
100
AcDbEntity
  8
0
 62
     7
100
AcDbLine
 10
84.21478966293788
 20
115.5596532465277
 30
0.0
 11
317.2147923365486
 21
115.5596532465277
 31
0.0
  0
LINE
  5
2A9C
330
A
100
AcDbEntity
  8
0
 62
     7
 48
0.019955
100
AcDbLine
 10
232.2589244663477
 20
96.96494415043728
 30
0.0
 11
230.7147965414097
 21
96.55965417013888
 31
0.0
  0
LWPOLYLINE
  5
2A9D
330
A
100
AcDbEntity
  8
0
 62
     7
100
AcDbPolyline
 90
        4
 70
     0
 43
0.0
 10
234.1562943741146
 20
97.08458814462126
 10
233.4170364100506
 20
97.07219814522357
 10
232.4651944563209
 20
97.00299814858745
 10
232.2589244663477
 20
96.96494415043728
  0
LINE
  5
2AA3
330
A
100
AcDbEntity
  8
0
 62
     7
100
AcDbLine
 10
307.2732648198173
 20
97.08458814462124
 30
0.0
 11
234.1562943741146
 21
97.08458814462124
 31
0.0
  0
LWPOLYLINE
  5
2AA4
330
A
100
AcDbEntity
  8
0
 62
     7
100
AcDbPolyline
 90
        3
 70
     0
 43
0.0
 10
309.1706347275843
 20
96.96494415043728
 10
308.6364247535528
 20
97.03762014690441
 10
307.2732648198173
 20
97.08458814462126
  0
LINE
  5
2AA9
330
A
100
AcDbEntity
  8
0
 62
     7
 48
0.019956
100
AcDbLine
 10
310.714792652521
 20
96.55965417013888
 30
0.0
 11
309.1706347275841
 21
96.96494415043728
 31
0.0
  0
ARC
  5
2AC0
330
A
100
AcDbEntity
  8
0
 62
     7
100
AcDbCircle
 10
341.3374731639184
 20
381.5760143151768
 30
0.0
 40
2.983311854977893
100
AcDbArc
 50
359.9047389999998
 51
90.095263
  0
LINE
  5
2AC2
330
A
100
AcDbEntity
  8
0
 62
     7
100
AcDbLine
 10
68.79282241261681
 20
96.55965417013888
 30
0.0
 11
230.7147965414097
 21
96.55965417013888
 31
0.0
  0
ARC
  5
2AC3
330
A
100
AcDbEntity
  8
0
 62
     7
100
AcDbCircle
 10
200.3349760182064
 20
-31909.52294197861
 30
0.0
 40
32017.79531957939
100
AcDbArc
 50
89.776129
 51
90.222619
  0
LINE
  5
2AC4
330
A
100
AcDbEntity
  8
0
 62
     7
100
AcDbLine
 10
326.3491918925153
 20
109.524193539918
 30
0.0
 11
326.3491918925153
 21
371.5951188003593
 31
0.0
  0
ARC
  5
2AC5
330
A
100
AcDbEntity
  8
0
 62
     7
100
AcDbCircle
 10
200.3359540181588
 20
32396.25323004613
 30
0.0
 40
32023.40664730662
100
AcDbArc
 50
269.777415
 51
270.2238299999998
  0
LINE
  5
2AC6
330
A
100
AcDbEntity
  8
0
 62
     7
100
AcDbLine
 10
75.01822610999302
 20
371.5923708004928
 30
0.0
 11
75.01822610999302
 21
109.5269235397855
 31
0.0
  0
LINE
  5
2AC7
330
A
100
AcDbEntity
  8
0
 62
     7
 48
0.022628
100
AcDbLine
 10
56.70951099999999
 20
100.059654
 30
0.0
 11
64.21479063516002
 21
100.059654
 31
0.0
  0
LINE
  5
2AC8
330
A
100
AcDbEntity
  8
0
 62
     7
 48
0.004921
100
AcDbLine
 10
344.3210850188818
 20
100.059654
 30
0.0
 11
344.7147909997433
 21
100.059654
 31
0.0
  0
LINE
  5
2AD4
330
A
100
AcDbEntity
  8
0
 62
     7
100
AcDbLine
 10
341.3324971641603
 20
384.5596561701386
 30
0.0
 11
68.79282241261681
 21
384.5596561701386
 31
0.0
  0
LINE
  5
2AD5
330
A
100
AcDbEntity
  8
0
 62
     7
 48
0.05251
100
AcDbLine
 10
64.61467661572109
 20
384.1240181913153
 30
0.0
 11
68.79282241261681
 21
384.5596561701386
 31
0.0
  0
LINE
  5
2ADD
330
A
100
AcDbEntity
  8
0
 62
     7
100
AcDbLine
 10
344.7147909997433
 20
287.5596608854161
 30
0.0
 11
344.7147909997433
 21
381.0596563402776
 31
0.0
  0
LINE
  5
2ADE
330
A
100
AcDbEntity
  8
0
 62
     7
 48
0.006393
100
AcDbLine
 10
344.3210850188818
 20
381.0596563402776
 30
0.0
 11
344.3210850188818
 21
381.571070315417
 31
0.0
  0
LINE
  5
2ADF
330
A
100
AcDbEntity
  8
0
 62
     7
100
AcDbLine
 10
56.70951099999999
 20
100.059654
 30
0.0
 11
56.70951099999999
 21
381.0596563402776
 31
0.0
  0
LINE
  5
2AE2
330
A
100
AcDbEntity
  8
0
 62
     7
 48
0.02
100
AcDbLine
 10
58.91480289279829
 20
382.6596322625008
 30
0.0
 11
58.91480289279829
 21
381.0596563402776
 31
0.0
  0
LINE
  5
2AE3
330
A
100
AcDbEntity
  8
0
 62
     7
 48
0.02
100
AcDbLine
 10
61.51479276640992
 20
382.6596322625008
 30
0.0
 11
61.51479276640992
 21
381.0596563402776
 31
0.0
  0
LINE
  5
2AEC
330
A
100
AcDbEntity
  8
0
 62
     7
 48
0.0175
100
AcDbLine
 10
57.70960295138442
 20
98.65966006805523
 30
0.0
 11
57.70960295138442
 21
100.059654
 31
0.0
  0
LINE
  5
2AED
330
A
100
AcDbEntity
  8
0
 62
     7
 48
0.0175
100
AcDbLine
 10
62.70960270832887
 20
98.65966006805523
 30
0.0
 11
62.70960270832887
 21
100.059654
 31
0.0
  0
ARC
  5
33CC
330
A
100
AcDbEntity
  8
0
 62
     7
100
AcDbCircle
 10
453.2962377214783
 20
383.6596322138898
 30
0.0
 40
0.9999999513888912
100
AcDbArc
 50
0.0
 51
90.00000300000001
  0
LINE
  5
33CF
330
A
100
AcDbEntity
  8
0
 62
     7
 48
0.125
100
AcDbLine
 10
452.2962377700896
 20
382.6596322625008
 30
0.0
 11
440.7962383291172
 21
382.6596322625008
 31
0.0
  0
LINE
  5
33D2
330
A
100
AcDbEntity
  8
0
 62
     7
 48
0.125
100
AcDbLine
 10
452.2962377700896
 20
98.65966006805523
 30
0.0
 11
440.7962383291172
 21
98.65966006805521
 31
0.0
  0
ARC
  5
33D3
330
A
100
AcDbEntity
  8
0
 62
     7
100
AcDbCircle
 10
453.2962377214783
 20
97.65966011666636
 30
0.0
 40
0.9999999513888912
100
AcDbArc
 50
270.000001
 51
0.00001
  0
LINE
  5
33D4
330
A
100
AcDbEntity
  8
0
 62
     7
 48
0.1375
100
AcDbLine
 10
453.2962377214783
 20
96.65966016527749
 30
0.0
 11
440.7962383291172
 21
96.65966016527749
 31
0.0
  0
LINE
  5
33D6
330
A
100
AcDbEntity
  8
0
 62
     7
100
AcDbLine
 10
452.2962377700896
 20
98.65966006805523
 30
0.0
 11
452.2962377700896
 21
382.6596322625008
 31
0.0
  0
LINE
  5
33D8
330
A
100
AcDbEntity
  8
0
 62
     7
 48
0.1375
100
AcDbLine
 10
453.2962377214783
 20
384.6596321652786
 30
0.0
 11
442.2962382562006
 21
384.6596321652786
 31
0.0
  0
LINE
  5
33DA
330
A
100
AcDbEntity
  8
0
 62
     7
 48
0.015628
100
AcDbLine
 10
434.5464826329249
 20
384.6596321652786
 30
0.0
 11
433.2962386937006
 21
384.6596321652786
 31
0.0
  0
LINE
  5
33DB
330
A
100
AcDbEntity
  8
0
 62
     7
 48
0.084372
100
AcDbLine
 10
441.2962383048117
 20
384.6596321652786
 30
0.0
 11
434.5464826329249
 21
384.6596321652786
 31
0.0
  0
LINE
  5
33DC
330
A
100
AcDbEntity
  8
0
 62
     7
 48
0.0125
100
AcDbLine
 10
442.2962382562006
 20
384.6596321652786
 30
0.0
 11
441.2962383048117
 21
384.6596321652786
 31
0.0
  0
LINE
  5
33DE
330
A
100
AcDbEntity
  8
0
 62
     7
 48
0.025
100
AcDbLine
 10
441.2962383048117
 20
382.6596322625008
 30
0.0
 11
441.2962383048117
 21
384.6596321652786
 31
0.0
  0
LINE
  5
33E1
330
A
100
AcDbEntity
  8
0
 62
     7
 48
0.063816
100
AcDbLine
 10
439.6517683847513
 20
96.65966016527749
 30
0.0
 11
433.2962386937006
 21
96.65966016527749
 31
0.0
  0
LINE
  5
33E3
330
A
100
AcDbEntity
  8
0
 62
     7
 48
0.025
100
AcDbLine
 10
441.2962383048117
 20
98.65966006805523
 30
0.0
 11
441.2962383048117
 21
96.65966016527749
 31
0.0
  0
LINE
  5
33E7
330
A
100
AcDbEntity
  8
0
 62
     7
 48
0.009451
100
AcDbLine
 10
433.2962386937006
 20
383.9035282020338
 30
0.0
 11
433.2962386937006
 21
384.6596321652786
 31
0.0
  0
LINE
  5
33E8
330
A
100
AcDbEntity
  8
0
 62
     7
 48
0.00695
100
AcDbLine
 10
433.2962386937006
 20
96.65966016527749
 30
0.0
 11
433.2962386937006
 21
97.21566013824968
 31
0.0
  0
LINE
  5
33E9
330
A
100
AcDbEntity
  8
0
 62
     7
100
AcDbLine
 10
674.2961969784247
 20
378.9596504423612
 30
0.0
 11
674.2961969784247
 21
137.2114921940075
 31
0.0
  0
LINE
  5
33EA
330
A
100
AcDbEntity
  8
0
 62
     7
 48
0.00625
100
AcDbLine
 10
674.2961969784247
 20
379.4596504180556
 30
0.0
 11
674.2961969784247
 21
378.9596504423612
 31
0.0
  0
ARC
  5
33EB
330
A
100
AcDbEntity
  8
0
 62
     7
100
AcDbCircle
 10
664.2961974645359
 20
137.2114921940075
 30
0.0
 40
9.999999513888912
100
AcDbArc
 50
303.6900709999998
 51
0.00001
  0
LINE
  5
33EC
330
A
100
AcDbEntity
  8
0
 62
     7
100
AcDbLine
 10
669.8431931948905
 20
128.8909985984763
 30
0.0
 11
631.8154850434596
 21
103.5391618308572
 31
0.0
  0
ARC
  5
33ED
330
A
100
AcDbEntity
  8
0
 62
     7
100
AcDbCircle
 10
626.2684893131051
 20
111.8596574263887
 30
0.0
 40
9.999999513888912
100
AcDbArc
 50
281.699322
 51
303.6900709999998
  0
LINE
  5
33EE
330
A
100
AcDbEntity
  8
0
 62
     7
100
AcDbLine
 10
586.2962012562026
 20
379.4596504180556
 30
0.0
 11
674.2961969784247
 21
379.4596504180556
 31
0.0
  0
LINE
  5
33F9
330
A
100
AcDbEntity
  8
0
  6
DASHED
 62
     4
 48
0.0375
100
AcDbLine
 10
532.2962038812023
 20
383.2596382333338
 30
0.0
 11
529.2962040270354
 21
383.2596382333338
 31
0.0
  0
LINE
  5
33FD
330
A
100
AcDbEntity
  8
0
  6
DASHED
 62
     4
 48
0.224999
100
AcDbLine
 10
511.2962649020326
 20
383.2596382333338
 30
0.0
 11
529.2962040270354
 21
383.2596382333338
 31
0.0
  0
LINE
  5
3402
330
A
100
AcDbEntity
  8
0
  6
DASHED
 62
     4
 48
0.037501
100
AcDbLine
 10
511.2962649020326
 20
383.2596382333338
 30
0.0
 11
508.2962050478686
 21
383.2596382333338
 31
0.0
  0
LINE
  5
3403
330
A
100
AcDbEntity
  8
0
 62
     7
100
AcDbLine
 10
586.2962012562026
 20
381.2596383305561
 30
0.0
 11
586.2962012562026
 21
150.0596515694445
 31
0.0
  0
LINE
  5
3404
330
A
100
AcDbEntity
  8
0
 62
     7
100
AcDbLine
 10
628.2961992145356
 20
108.0596536111109
 30
0.0
 11
586.2962012562026
 21
150.0596515694445
 31
0.0
  0
LINE
  5
3405
330
A
100
AcDbEntity
  8
0
 62
     7
 48
0.1
100
AcDbLine
 10
628.2961992145356
 20
108.0596536111109
 30
0.0
 11
628.2961992145356
 21
100.059654
 31
0.0
  0
LINE
  5
3406
330
A
100
AcDbEntity
  8
0
 62
     7
100
AcDbLine
 10
628.2961992145356
 20
100.059654
 30
0.0
 11
454.2962376728673
 21
100.059654
 31
0.0
  0
LINE
  5
3407
330
A
100
AcDbEntity
  8
0
 62
     7
100
AcDbLine
 10
454.2962376728673
 20
383.6596322138898
 30
0.0
 11
454.2962376728673
 21
97.65966029119926
 31
0.0
  0
LINE
  5
3408
330
A
100
AcDbEntity
  8
0
 62
     7
100
AcDbLine
 10
586.2962012562026
 20
381.2596383305561
 30
0.0
 11
454.2962376728673
 21
381.2596383305561
 31
0.0
  0
LINE
  5
3409
330
A
100
AcDbEntity
  8
0
 62
     7
 48
0.010001
100
AcDbLine
 10
628.2961992145356
 20
100.059654
 30
0.0
 11
629.0962471756447
 21
100.059654
 31
0.0
  0
LINE
  5
340A
330
A
100
AcDbEntity
  8
0
 62
     7
 48
0.027602
100
AcDbLine
 10
629.0962471756447
 20
102.2677998926595
 30
0.0
 11
629.0962471756447
 21
100.059654
 31
0.0
  0
LINE
  5
340C
330
A
100
AcDbEntity
  8
0
  6
DASHED
 62
     4
 48
0.0625
100
AcDbLine
 10
508.2962050478686
 20
383.2596382333338
 30
0.0
 11
503.2962052909243
 21
383.2596382333338
 31
0.0
  0
LINE
  5
340D
330
A
100
AcDbEntity
  8
0
  6
DASHED
 62
     4
 48
0.3
100
AcDbLine
 10
508.2962050478686
 20
383.2596382333338
 30
0.0
 11
532.2962038812023
 21
383.2596382333338
 31
0.0
  0
LINE
  5
340E
330
A
100
AcDbEntity
  8
0
  6
DASHED
 62
     4
 48
0.0625
100
AcDbLine
 10
537.2962036381465
 20
383.2596382333338
 30
0.0
 11
532.2962038812023
 21
383.2596382333338
 31
0.0
  0
LINE
  5
340F
330
A
100
AcDbEntity
  8
0
  6
DASHED
 62
     4
 48
0.025
100
AcDbLine
 10
537.2962036381465
 20
381.2596383305561
 30
0.0
 11
537.2962036381465
 21
383.2596382333338
 31
0.0
  0
LINE
  5
3410
330
A
100
AcDbEntity
  8
0
  6
DASHED
 62
     4
 48
0.025
100
AcDbLine
 10
503.2962052909243
 20
381.2596383305561
 30
0.0
 11
503.2962052909243
 21
383.2596382333338
 31
0.0
  0
LINE
  5
3411
330
A
100
AcDbEntity
  8
0
  6
DASHED
 62
     4
 48
0.025
100
AcDbLine
 10
508.2962050478686
 20
381.2596383305561
 30
0.0
 11
508.2962050478686
 21
383.2596382333338
 31
0.0
  0
LINE
  5
3412
330
A
100
AcDbEntity
  8
0
  6
DASHED
 62
     4
 48
0.3
100
AcDbLine
 10
503.2962052909243
 20
381.2596383305561
 30
0.0
 11
537.2962036381465
 21
381.2596383305561
 31
0.0
  0
LINE
  5
3413
330
A
100
AcDbEntity
  8
0
  6
DASHED
 62
     4
 48
0.025
100
AcDbLine
 10
532.2962038812023
 20
381.2596383305561
 30
0.0
 11
532.2962038812023
 21
383.2596382333338
 31
0.0
  0
LINE
  5
3416
330
A
100
AcDbEntity
  8
0
  6
DASHED
 62
     4
 48
0.10319
100
AcDbLine
 10
477.5513325424112
 20
84.05965477777774
 30
0.0
 11
461.0411413449901
 21
84.05965477777774
 31
0.0
  0
LINE
  5
3418
330
A
100
AcDbEntity
  8
0
  6
DASHED
 62
     4
 48
0.121617
100
AcDbLine
 10
479.0256364707437
 20
85.28322671829855
 30
0.0
 11
459.5668374166574
 21
85.28322671829855
 31
0.0
  0
LINE
  5
341A
330
A
100
AcDbEntity
  8
0
  6
DASHED
 62
     4
 48
0.187924
100
AcDbLine
 10
459.5668374166574
 20
85.28322671829855
 30
0.0
 11
456.796207551341
 21
100.059654
 31
0.0
  0
LINE
  5
341B
330
A
100
AcDbEntity
  8
0
  6
DASHED
 62
     4
 48
0.187924
100
AcDbLine
 10
479.0256364707437
 20
85.28322671829855
 30
0.0
 11
481.7962063360631
 21
100.059654
 31
0.0
  0
ARC
  5
341C
330
A
100
AcDbEntity
  8
0
  6
DASHED
 62
     4
100
AcDbCircle
 10
461.0411413449901
 20
85.55965470486105
 30
0.0
 40
1.499999927083334
100
AcDbArc
 50
190.619655
 51
269.9999969999999
  0
ARC
  5
341D
330
A
100
AcDbEntity
  8
0
  6
DASHED
 62
     4
100
AcDbCircle
 10
477.5513325424112
 20
85.55965470486105
 30
0.0
 40
1.499999927083334
100
AcDbArc
 50
269.9999969999999
 51
349.3803450000001
  0
LINE
  5
341F
330
A
100
AcDbEntity
  8
0
  6
DASHED
 62
     4
 48
0.103189
100
AcDbLine
 10
617.5513257368562
 20
84.05965477777774
 30
0.0
 11
601.0411345394349
 21
84.05965477777774
 31
0.0
  0
LINE
  5
3420
330
A
100
AcDbEntity
  8
0
  6
DASHED
 62
     4
 48
0.121617
100
AcDbLine
 10
619.0256296651885
 20
85.28322671829855
 30
0.0
 11
599.5668306111021
 21
85.28322671829855
 31
0.0
  0
LINE
  5
3422
330
A
100
AcDbEntity
  8
0
  6
DASHED
 62
     4
 48
0.187924
100
AcDbLine
 10
599.5668306111021
 20
85.28322671829855
 30
0.0
 11
596.7962007457852
 21
100.059654
 31
0.0
  0
LINE
  5
3423
330
A
100
AcDbEntity
  8
0
  6
DASHED
 62
     4
 48
0.187924
100
AcDbLine
 10
619.0256296651885
 20
85.28322671829855
 30
0.0
 11
621.7961995305077
 21
100.059654
 31
0.0
  0
ARC
  5
3424
330
A
100
AcDbEntity
  8
0
  6
DASHED
 62
     4
100
AcDbCircle
 10
601.0411345394349
 20
85.55965470486105
 30
0.0
 40
1.499999927083334
100
AcDbArc
 50
190.619655
 51
269.9999969999999
  0
ARC
  5
3425
330
A
100
AcDbEntity
  8
0
  6
DASHED
 62
     4
100
AcDbCircle
 10
617.5513257368562
 20
85.55965470486105
 30
0.0
 40
1.499999927083334
100
AcDbArc
 50
269.9999969999999
 51
349.3803450000001
  0
LINE
  5
3438
330
A
100
AcDbEntity
  8
0
 62
     7
 48
0.05625
100
AcDbLine
 10
450.7962378430062
 20
381.0596563402776
 30
0.0
 11
440.7962383291172
 21
381.0596563402776
 31
0.0
  0
LINE
  5
343C
330
A
100
AcDbEntity
  8
0
 62
     7
 48
0.044084
100
AcDbLine
 10
432.5220987313326
 20
383.8357482053288
 30
0.0
 11
436.0354045605467
 21
384.1431221903868
 31
0.0
  0
LWPOLYLINE
  5
3444
330
A
100
AcDbEntity
  8
0
 62
     7
100
AcDbPolyline
 90
        3
 70
     0
 43
0.0
 10
432.5797167285312
 20
373.0915167276177
 10
432.6024207274278
 20
372.6949107468972
 10
432.620578726545
 20
371.5951188003593
  0
LWPOLYLINE
  5
3449
330
A
100
AcDbEntity
  8
0
 62
     7
100
AcDbPolyline
 90
        3
 70
     0
 43
0.0
 10
432.620578726545
 20
109.524193539918
 10
432.6024207274278
 20
108.424583593371
 10
432.5797167285312
 20
108.0277776126604
  0
LINE
  5
344E
330
A
100
AcDbEntity
  8
0
 62
     7
100
AcDbLine
 10
442.2962382562006
 20
195.7539093481959
 30
0.0
 11
442.2962382562006
 21
285.3653849920823
 31
0.0
  0
ARC
  5
344F
330
A
100
AcDbEntity
  8
0
 62
     7
100
AcDbCircle
 10
444.296268158977
 20
285.3653849920823
 30
0.0
 40
2.000015902777004
100
AcDbArc
 50
99.46269
 51
179.999691
  0
LINE
  5
3450
330
A
100
AcDbEntity
  8
0
 62
     7
 48
0.076035
100
AcDbLine
 10
445.2962381103672
 20
287.5596608854161
 30
0.0
 11
451.2962378187006
 21
288.5596608368051
 31
0.0
  0
LINE
  5
3451
330
A
100
AcDbEntity
  8
0
 62
     7
 48
0.016839
100
AcDbLine
 10
443.9674421749614
 20
287.3381948961818
 30
0.0
 11
445.2962381103672
 21
287.5596608854161
 31
0.0
  0
LINE
  5
345F
330
A
100
AcDbEntity
  8
0
 62
     7
 48
0.006393
100
AcDbLine
 10
440.7962383291172
 20
96.55965417013888
 30
0.0
 11
440.7962383291172
 21
100.059654
 31
0.0
  0
LINE
  5
3460
330
A
100
AcDbEntity
  8
0
 62
     7
 48
0.008839
100
AcDbLine
 10
451.2962378187006
 20
100.5596539756942
 30
0.0
 11
450.7962378430062
 21
100.059654
 31
0.0
  0
LINE
  5
3462
330
A
100
AcDbEntity
  8
0
 62
     7
 48
0.076035
100
AcDbLine
 10
445.2962381103672
 20
193.5596654548604
 30
0.0
 11
451.2962378187006
 21
192.5596655034714
 31
0.0
  0
LINE
  5
3463
330
A
100
AcDbEntity
  8
0
 62
     7
100
AcDbLine
 10
445.2962381103672
 20
100.059654
 30
0.0
 11
445.2962381103672
 21
193.5596654548604
 31
0.0
  0
LINE
  5
3465
330
A
100
AcDbEntity
  8
0
 62
     7
 48
0.016839
100
AcDbLine
 10
445.2962381103672
 20
193.5596654548604
 30
0.0
 11
443.9674421749614
 21
193.7811014440963
 31
0.0
  0
ARC
  5
3466
330
A
100
AcDbEntity
  8
0
 62
     7
100
AcDbCircle
 10
444.296268158977
 20
195.7539393481944
 30
0.0
 40
2.000015902777004
100
AcDbArc
 50
180.0003369999999
 51
260.53733
  0
LINE
  5
346A
330
A
100
AcDbEntity
  8
0
 62
     7
100
AcDbLine
 10
451.2962378187006
 20
288.5596608368051
 30
0.0
 11
451.2962378187006
 21
380.5596563645829
 31
0.0
  0
LINE
  5
346B
330
A
100
AcDbEntity
  8
0
 62
     7
100
AcDbLine
 10
451.2962378187006
 20
288.5596608368051
 30
0.0
 11
451.2962378187006
 21
100.5596539756942
 31
0.0
  0
LINE
  5
346C
330
A
100
AcDbEntity
  8
0
 62
     7
 48
0.054019
100
AcDbLine
 10
436.4911845383907
 20
384.1830081884478
 30
0.0
 11
440.7962383291172
 21
384.5596561701386
 31
0.0
  0
LINE
  5
347A
330
A
100
AcDbEntity
  8
0
 62
     7
 48
0.044083
100
AcDbLine
 10
432.5222207313262
 20
97.28354613494969
 30
0.0
 11
440.7962383291172
 21
96.55965417013888
 31
0.0
  0
LINE
  5
347B
330
A
100
AcDbEntity
  8
0
 62
     7
 48
0.035088
100
AcDbLine
 10
429.7833288644667
 20
108.271827600797
 30
0.0
 11
432.5797167285312
 21
108.0277476126618
 31
0.0
  0
LINE
  5
347C
330
A
100
AcDbEntity
  8
0
 62
     7
100
AcDbLine
 10
432.620578726545
 20
109.524193539918
 30
0.0
 11
432.620578726545
 21
371.5951188003593
 31
0.0
  0
LINE
  5
347D
330
A
100
AcDbEntity
  8
0
 62
     7
 48
0.035088
100
AcDbLine
 10
429.7833288644667
 20
372.8474067394841
 30
0.0
 11
432.5797167285312
 21
373.0915467276161
 31
0.0
  0
LINE
  5
347F
330
A
100
AcDbEntity
  8
0
 62
     7
 48
0.05625
100
AcDbLine
 10
440.7962383291172
 20
100.059654
 30
0.0
 11
450.7962378430062
 21
100.059654
 31
0.0
  0
LINE
  5
3484
330
A
100
AcDbEntity
  8
0
 62
     7
 48
0.005719
100
AcDbLine
 10
436.0354045605467
 20
384.1431221903868
 30
0.0
 11
436.4911845383907
 21
384.1830081884478
 31
0.0
  0
LINE
  5
3485
330
A
100
AcDbEntity
  8
0
 62
     7
 48
0.008839
100
AcDbLine
 10
451.2962378187006
 20
380.5596563645829
 30
0.0
 11
450.7962378430062
 21
381.0596563402776
 31
0.0
  0
LINE
  5
3486
330
A
100
AcDbEntity
  8
0
 62
     7
100
AcDbLine
 10
445.2962381103672
 20
287.5596608854161
 30
0.0
 11
445.2962381103672
 21
381.0596563402776
 31
0.0
  0
LINE
  5
3487
330
A
100
AcDbEntity
  8
0
 62
     7
 48
0.006393
100
AcDbLine
 10
440.7962383291172
 20
381.0596563402776
 30
0.0
 11
440.7962383291172
 21
384.5596561701386
 31
0.0
  0
ARC
  5
3488
330
A
100
AcDbEntity
  8
0
 62
     7
100
AcDbCircle
 10
432.7835127186248
 20
380.8471923506055
 30
0.0
 40
2.99994185416949
100
AcDbArc
 50
94.99685300000001
 51
180.0007699999999
  0
LINE
  5
3489
330
A
100
AcDbEntity
  8
0
 62
     7
 48
0.053222
100
AcDbLine
 10
429.7832988644683
 20
108.271843600796
 30
0.0
 11
432.6204887265495
 21
111.4466014464678
 31
0.0
  0
LINE
  5
348A
330
A
100
AcDbEntity
  8
0
 62
     7
 48
0.053223
100
AcDbLine
 10
432.6204887265495
 20
369.6726928938103
 30
0.0
 11
429.7832688644701
 21
372.8474687394812
 31
0.0
  0
ARC
  5
348B
330
A
100
AcDbEntity
  8
0
 62
     7
100
AcDbCircle
 10
432.7835127186248
 20
100.2721019896725
 30
0.0
 40
2.99994185416949
100
AcDbArc
 50
179.9992259999999
 51
265.003116
  0
LINE
  5
348C
330
A
100
AcDbEntity
  8
0
 62
     7
 48
0.1
100
AcDbLine
 10
429.783574864455
 20
372.8471627394958
 30
0.0
 11
429.783574864455
 21
380.8471923506055
 31
0.0
  0
LINE
  5
348D
330
A
100
AcDbEntity
  8
0
 62
     7
 48
0.1
100
AcDbLine
 10
429.783574864455
 20
100.2721339896707
 30
0.0
 11
429.783574864455
 21
108.2721476007814
 31
0.0
  0
LINE
  5
34D2
330
A
100
AcDbEntity
  8
0
  6
DASHED
 62
     4
 48
0.3
100
AcDbLine
 10
532.2962038812023
 20
393.4596497375001
 30
0.0
 11
508.2962050478688
 21
393.4596497375001
 31
0.0
  0
LINE
  5
34D3
330
A
100
AcDbEntity
  8
0
  6
DASHED
 62
     4
 48
0.224999
100
AcDbLine
 10
529.2962040270356
 20
390.4596498833335
 30
0.0
 11
511.2962649020326
 21
390.4596498833335
 31
0.0
  0
LINE
  5
34D6
330
A
100
AcDbEntity
  8
0
  6
DASHED
 62
     4
 48
0.053034
100
AcDbLine
 10
508.2962050478688
 20
393.4596497375001
 30
0.0
 11
511.2962649020326
 21
390.4596498833335
 31
0.0
  0
LINE
  5
34D8
330
A
100
AcDbEntity
  8
0
  6
DASHED
 62
     4
 48
0.1275
100
AcDbLine
 10
508.2962050478688
 20
383.2596382333338
 30
0.0
 11
508.2962050478688
 21
393.4596497375001
 31
0.0
  0
LINE
  5
34D9
330
A
100
AcDbEntity
  8
0
  6
DASHED
 62
     4
 48
0.09
100
AcDbLine
 10
511.2962649020326
 20
383.2596382333338
 30
0.0
 11
511.2962649020326
 21
390.4596498833335
 31
0.0
  0
LINE
  5
34DB
330
A
100
AcDbEntity
  8
0
  6
DASHED
 62
     4
 48
0.053033
100
AcDbLine
 10
532.2962038812023
 20
393.4596497375001
 30
0.0
 11
529.2962040270356
 21
390.4596498833335
 31
0.0
  0
LINE
  5
34DC
330
A
100
AcDbEntity
  8
0
  6
DASHED
 62
     4
 48
0.1275
100
AcDbLine
 10
532.2962038812023
 20
393.4596497375001
 30
0.0
 11
532.2962038812023
 21
383.2596382333338
 31
0.0
  0
LINE
  5
34DE
330
A
100
AcDbEntity
  8
0
  6
DASHED
 62
     4
 48
0.09
100
AcDbLine
 10
529.2962040270356
 20
390.4596498833335
 30
0.0
 11
529.2962040270356
 21
383.2596382333338
 31
0.0
  0
VIEWPORT
  5
3492
330
B
100
AcDbEntity
 67
     1
  8
0
 62
     0
100
AcDbViewport
 10
0.0
 20
0.0
 30
0.0
 40
1000.0
 41
1000.0
 68
     1
 69
     1
 12
0.0
 22
0.0
 13
0.0
 23
0.0
 14
1.0
 24
1.0
 15
1.0
 25
1.0
 16
0.0
 26
0.0
 36
1.0
 17
0.0
 27
0.0
 37
0.0
 42
50.0
 43
0.0
 44
0.0
 45
1000.0
 50
0.0
 51
0.0
 72
   100
 90
    32800
  1

281
     0
 71
     1
 74
     0
110
0.0
120
0.0
130
0.0
111
1.0
121
0.0
131
0.0
112
0.0
122
1.0
132
0.0
 79
     0
146
0.0
  0
ENDSEC
  0
SECTION
  2
OBJECTS
  0
DICTIONARY
  5
19
330
0
100
AcDbDictionary
281
     1
  3
ACAD_GROUP
350
1A
  3
ACAD_LAYOUT
350
3499
  3
ACAD_MLINESTYLE
350
1B
  3
ACAD_PLOTSETTINGS
350
349A
  3
ACAD_PLOTSTYLENAME
350
3497
  0
DICTIONARY
  5
1A
102
{ACAD_REACTORS
330
19
102
}
330
19
100
AcDbDictionary
281
     1
  0
DICTIONARY
  5
3499
102
{ACAD_REACTORS
330
19
102
}
330
19
100
AcDbDictionary
281
     1
  3
Model
350
349B
  3
ﾚｲｱｳﾄ1
350
349C
  0
DICTIONARY
  5
1B
102
{ACAD_REACTORS
330
19
102
}
330
19
100
AcDbDictionary
281
     1
  3
STANDARD
350
1C
  0
DICTIONARY
  5
349A
102
{ACAD_REACTORS
330
19
102
}
330
19
100
AcDbDictionary
281
     1
  0
ACDBDICTIONARYWDFLT
  5
3497
102
{ACAD_REACTORS
330
19
102
}
330
19
100
AcDbDictionary
281
     1
  3
Normal
350
3498
100
AcDbDictionaryWithDefault
340
3498
  0
LAYOUT
  5
349B
102
{ACAD_REACTORS
330
3499
102
}
330
3499
100
AcDbPlotSettings
  1

  2
Canon iR-ADV C5030/5035 LIPSLX
  4

  6

 40
0.0
 41
0.0
 42
0.0
 43
0.0
 44
0.0
 45
0.0
 46
0.0
 47
0.0
 48
0.0
 49
0.0
140
0.0
141
0.0
142
1.0
143
1.0
 70
  1712
 72
     0
 73
     0
 74
     0
  7

 75
     0
147
1.0
148
0.0
149
0.0
100
AcDbLayout
  1
Model
 70
     1
 71
     0
 10
0.0
 20
0.0
 11
12.0
 21
9.0
 12
0.0
 22
0.0
 32
0.0
 14
0.0
 24
0.0
 34
0.0
 15
0.0
 25
0.0
 35
0.0
146
0.0
 13
0.0
 23
0.0
 33
0.0
 16
1.0
 26
0.0
 36
0.0
 17
0.0
 27
1.0
 37
0.0
 76
     0
330
A
  0
LAYOUT
  5
349C
102
{ACAD_REACTORS
330
3499
102
}
330
3499
100
AcDbPlotSettings
  1

  2
Canon iR-ADV C5030/5035 LIPSLX
  4

  6

 40
0.0
 41
0.0
 42
0.0
 43
0.0
 44
0.0
 45
0.0
 46
0.0
 47
0.0
 48
0.0
 49
0.0
140
0.0
141
0.0
142
1.0
143
1.0
 70
   688
 72
     0
 73
     0
 74
     5
  7

 75
    16
147
1.0
148
0.0
149
0.0
100
AcDbLayout
  1
ﾚｲｱｳﾄ1
 70
     1
 71
     1
 10
0.0
 20
0.0
 11
420.0
 21
297.0
 12
0.0
 22
0.0
 32
0.0
 14
0.0
 24
0.0
 34
0.0
 15
401.4999999999998
 25
275.0
 35
2.0
146
0.0
 13
0.0
 23
0.0
 33
0.0
 16
1.0
 26
0.0
 36
0.0
 17
0.0
 27
1.0
 37
0.0
 76
     0
330
B
331
3492
  0
MLINESTYLE
  5
1C
102
{ACAD_REACTORS
330
1B
102
}
330
1B
100
AcDbMlineStyle
  2
STANDARD
 70
     0
  3

 62
     0
 51
90.0
 52
90.0
 71
     2
 49
0.5
 62
   256
  6
BYLAYER
 49
-0.5
 62
   256
  6
BYLAYER
  0
ACDBPLACEHOLDER
  5
3498
102
{ACAD_REACTORS
330
3497
102
}
330
3497
  0
ENDSEC
  0
EOF
