  0
SECTION
  2
HEADER
  9
$ACADVER
  1
AC1015
  9
$ACADMAINTVER
 70
    10
  9
$DWGCODEPAGE
  3
ANSI_932
  9
$INSBASE
 10
0.0
 20
0.0
 30
0.0
  9
$EXTMIN
 10
11.67639100000011
 20
85.87631199999998
 30
0.0
  9
$EXTMAX
 10
397.82251
 20
234.876312
 30
0.0
  9
$LIMMIN
 10
0.0
 20
0.0
  9
$LIMMAX
 10
420.0
 20
297.0
  9
$ORTHOMODE
 70
     0
  9
$REGENMODE
 70
     1
  9
$FILLMODE
 70
     1
  9
$QTEXTMODE
 70
     0
  9
$MIRRTEXT
 70
     1
  9
$LTSCALE
 40
1.0
  9
$ATTMODE
 70
     1
  9
$TEXTSIZE
 40
0.0
  9
$TRACEWID
 40
1.0
  9
$TEXTSTYLE
  7
STANDARD
  9
$CLAYER
  8
0
  9
$CELTYPE
  6
CONTINUOUS
  9
$CECOLOR
 62
   256
  9
$CELTSCALE
 40
1.0
  9
$DISPSILH
 70
     0
  9
$DIMSCALE
 40
1.0
  9
$DIMASZ
 40
2.5
  9
$DIMEXO
 40
0.625
  9
$DIMDLI
 40
3.75
  9
$DIMRND
 40
0.0
  9
$DIMDLE
 40
0.0
  9
$DIMEXE
 40
1.25
  9
$DIMTP
 40
0.0
  9
$DIMTM
 40
0.0
  9
$DIMTXT
 40
2.5
  9
$DIMCEN
 40
2.5
  9
$DIMTSZ
 40
0.0
  9
$DIMTOL
 70
     0
  9
$DIMLIM
 70
     0
  9
$DIMTIH
 70
     0
  9
$DIMTOH
 70
     0
  9
$DIMSE1
 70
     0
  9
$DIMSE2
 70
     0
  9
$DIMTAD
 70
     1
  9
$DIMZIN
 70
     8
  9
$DIMBLK
  1

  9
$DIMASO
 70
     1
  9
$DIMSHO
 70
     1
  9
$DIMPOST
  1

  9
$DIMAPOST
  1

  9
$DIMALT
 70
     0
  9
$DIMALTD
 70
     3
  9
$DIMALTF
 40
0.03937
  9
$DIMLFAC
 40
1.0
  9
$DIMTOFL
 70
     1
  9
$DIMTVP
 40
0.0
  9
$DIMTIX
 70
     0
  9
$DIMSOXD
 70
     0
  9
$DIMSAH
 70
     0
  9
$DIMBLK1
  1

  9
$DIMBLK2
  1

  9
$DIMSTYLE
  2
STANDARD
  9
$DIMCLRD
 70
     0
  9
$DIMCLRE
 70
     0
  9
$DIMCLRT
 70
     0
  9
$DIMTFAC
 40
1.0
  9
$DIMGAP
 40
0.625
  9
$DIMJUST
 70
     0
  9
$DIMSD1
 70
     0
  9
$DIMSD2
 70
     0
  9
$DIMTOLJ
 70
     0
  9
$DIMTZIN
 70
     8
  9
$DIMALTZ
 70
     0
  9
$DIMALTTZ
 70
     0
  9
$DIMUPT
 70
     0
  9
$DIMDEC
 70
     2
  9
$DIMTDEC
 70
     2
  9
$DIMALTU
 70
     2
  9
$DIMALTTD
 70
     3
  9
$DIMTXSTY
  7
STANDARD
  9
$DIMAUNIT
 70
     0
  9
$DIMADEC
 70
     0
  9
$DIMALTRND
 40
0.0
  9
$DIMAZIN
 70
     0
  9
$DIMDSEP
 70
    46
  9
$DIMATFIT
 70
     3
  9
$DIMFRAC
 70
     0
  9
$DIMLDRBLK
  1

  9
$DIMLUNIT
 70
     2
  9
$DIMLWD
 70
    -2
  9
$DIMLWE
 70
    -2
  9
$DIMTMOVE
 70
     0
  9
$LUNITS
 70
     2
  9
$LUPREC
 70
     4
  9
$SKETCHINC
 40
1.0
  9
$FILLETRAD
 40
2.5
  9
$AUNITS
 70
     0
  9
$AUPREC
 70
     0
  9
$MENU
  1
.
  9
$ELEVATION
 40
0.0
  9
$PELEVATION
 40
0.0
  9
$THICKNESS
 40
0.0
  9
$LIMCHECK
 70
     0
  9
$CHAMFERA
 40
2.5
  9
$CHAMFERB
 40
2.5
  9
$CHAMFERC
 40
0.0
  9
$CHAMFERD
 40
0.0
  9
$SKPOLY
 70
     0
  9
$TDCREATE
 40
2312275.082375682
  9
$TDUCREATE
 40
2312274.707375682
  9
$TDUPDATE
 40
2456493.753187060
  9
$TDUUPDATE
 40
2456493.378187060
  9
$TDINDWG
 40
0.0834274190
  9
$TDUSRTIMER
 40
0.0834220139
  9
$USRTIMER
 70
     1
  9
$ANGBASE
 50
0.0
  9
$ANGDIR
 70
     0
  9
$PDMODE
 70
     0
  9
$PDSIZE
 40
0.0
  9
$PLINEWID
 40
0.0
  9
$SPLFRAME
 70
     0
  9
$SPLINETYPE
 70
     6
  9
$SPLINESEGS
 70
     8
  9
$HANDSEED
  5
359F
  9
$SURFTAB1
 70
     6
  9
$SURFTAB2
 70
     6
  9
$SURFTYPE
 70
     6
  9
$SURFU
 70
     6
  9
$SURFV
 70
     6
  9
$UCSBASE
  2

  9
$UCSNAME
  2

  9
$UCSORG
 10
0.0
 20
0.0
 30
0.0
  9
$UCSXDIR
 10
1.0
 20
0.0
 30
0.0
  9
$UCSYDIR
 10
0.0
 20
1.0
 30
0.0
  9
$UCSORTHOREF
  2

  9
$UCSORTHOVIEW
 70
     0
  9
$UCSORGTOP
 10
0.0
 20
0.0
 30
0.0
  9
$UCSORGBOTTOM
 10
0.0
 20
0.0
 30
0.0
  9
$UCSORGLEFT
 10
0.0
 20
0.0
 30
0.0
  9
$UCSORGRIGHT
 10
0.0
 20
0.0
 30
0.0
  9
$UCSORGFRONT
 10
0.0
 20
0.0
 30
0.0
  9
$UCSORGBACK
 10
0.0
 20
0.0
 30
0.0
  9
$PUCSBASE
  2

  9
$PUCSNAME
  2

  9
$PUCSORG
 10
0.0
 20
0.0
 30
0.0
  9
$PUCSXDIR
 10
1.0
 20
0.0
 30
0.0
  9
$PUCSYDIR
 10
0.0
 20
1.0
 30
0.0
  9
$PUCSORTHOREF
  2

  9
$PUCSORTHOVIEW
 70
     0
  9
$PUCSORGTOP
 10
0.0
 20
0.0
 30
0.0
  9
$PUCSORGBOTTOM
 10
0.0
 20
0.0
 30
0.0
  9
$PUCSORGLEFT
 10
0.0
 20
0.0
 30
0.0
  9
$PUCSORGRIGHT
 10
0.0
 20
0.0
 30
0.0
  9
$PUCSORGFRONT
 10
0.0
 20
0.0
 30
0.0
  9
$PUCSORGBACK
 10
0.0
 20
0.0
 30
0.0
  9
$USERI1
 70
     0
  9
$USERI2
 70
     0
  9
$USERI3
 70
     0
  9
$USERI4
 70
     0
  9
$USERI5
 70
     0
  9
$USERR1
 40
0.0
  9
$USERR2
 40
0.0
  9
$USERR3
 40
0.0
  9
$USERR4
 40
0.0
  9
$USERR5
 40
0.0
  9
$WORLDVIEW
 70
     1
  9
$SHADEDGE
 70
     3
  9
$SHADEDIF
 70
    70
  9
$TILEMODE
 70
     1
  9
$MAXACTVP
 70
    48
  9
$PINSBASE
 10
0.0
 20
0.0
 30
0.0
  9
$PLIMCHECK
 70
     0
  9
$PEXTMIN
 10
0.0
 20
0.0
 30
0.0
  9
$PEXTMAX
 10
0.0
 20
0.0
 30
0.0
  9
$PLIMMIN
 10
0.0
 20
0.0
  9
$PLIMMAX
 10
12.0
 20
9.0
  9
$UNITMODE
 70
     0
  9
$VISRETAIN
 70
     0
  9
$PLINEGEN
 70
     0
  9
$PSLTSCALE
 70
     1
  9
$TREEDEPTH
 70
  3020
  9
$CMLSTYLE
  2
STANDARD
  9
$CMLJUST
 70
     0
  9
$CMLSCALE
 40
20.0
  9
$PROXYGRAPHICS
 70
     1
  9
$MEASUREMENT
 70
     1
  9
$CELWEIGHT
370
    -1
  9
$ENDCAPS
280
     0
  9
$JOINSTYLE
280
     0
  9
$LWDISPLAY
290
     0
  9
$INSUNITS
 70
     0
  9
$HYPERLINKBASE
  1

  9
$STYLESHEET
  1

  9
$XEDIT
290
     1
  9
$CEPSNTYPE
380
     0
  9
$PSTYLEMODE
290
     1
  9
$FINGERPRINTGUID
  2
{B0D40552-8E67-474D-B8C6-F27EC026699D}
  9
$VERSIONGUID
  2
{574A0C31-B309-4A5E-BA25-F56B5DD9ABEF}
  9
$EXTNAMES
290
     1
  9
$PSVPSCALE
 40
0.0
  9
$OLESTARTUP
290
     0
  0
ENDSEC
  0
SECTION
  2
CLASSES
  0
CLASS
  1
LWPOLYLINE
  2
AcDbPolyline
  3
AutoCAD 2000
 90
    32768
280
     0
281
     1
  0
CLASS
  1
IMAGE
  2
AcDbRasterImage
  3
ISM
 90
    32895
280
     0
281
     1
  0
CLASS
  1
OLE2FRAME
  2
AcDbOle2Frame
  3
AutoCAD 2000
 90
    32768
280
     0
281
     1
  0
CLASS
  1
HATCH
  2
AcDbHatch
  3
AutoCAD 2000
 90
    32768
280
     0
281
     1
  0
CLASS
  1
DICTIONARYVAR
  2
AcDbDictionaryVar
  3
AutoCAD 2000
 90
    32768
280
     0
281
     0
  0
CLASS
  1
RASTERVARIABLES
  2
AcDbRasterVariables
  3
ISM
 90
    32768
280
     0
281
     0
  0
CLASS
  1
IMAGEDEF
  2
AcDbRasterImageDef
  3
ISM
 90
    32768
280
     0
281
     0
  0
CLASS
  1
IMAGEDEF_REACTOR
  2
AcDbRasterImageDefReactor
  3
ISM
 90
    32769
280
     0
281
     0
  0
CLASS
  1
IDBUFFER
  2
AcDbIdBuffer
  3
AutoCAD 2000
 90
    32768
280
     0
281
     0
  0
CLASS
  1
SPATIAL_FILTER
  2
AcDbSpatialFilter
  3
AutoCAD 2000
 90
    32768
280
     0
281
     0
  0
CLASS
  1
XRECORD
  2
AcDbXrecord
  3
AutoCAD 2000
 90
    32768
280
     0
281
     0
  0
CLASS
  1
SORTENTSTABLE
  2
AcDbSortentsTable
  3
AutoCAD 2000
 90
    32768
280
     0
281
     0
  0
CLASS
  1
LAYER_INDEX
  2
AcDbLayerIndex
  3
AutoCAD 2000
 90
    32768
280
     0
281
     0
  0
CLASS
  1
SPATIAL_INDEX
  2
AcDbSpatialIndex
  3
AutoCAD 2000
 90
    32768
280
     0
281
     0
  0
CLASS
  1
OBJECT_PTR
  2
CAseDLPNTableRecord
  3
"ASE-LPNTableRecord"
 90
    32769
280
     0
281
     0
  0
CLASS
  1
LAYOUT
  2
AcDbLayout
  3
AutoCAD 2000
 90
        0
280
     0
281
     0
  0
CLASS
  1
PLOTSETTINGS
  2
AcDbPlotSettings
  3
AutoCAD 2000
 90
    32768
280
     0
281
     0
  0
CLASS
  1
ACDBDICTIONARYWDFLT
  2
AcDbDictionaryWithDefault
  3
AutoCAD 2000
 90
        0
280
     0
281
     0
  0
CLASS
  1
ACDBPLACEHOLDER
  2
AcDbPlaceHolder
  3
AutoCAD 2000
 90
        0
280
     0
281
     0
  0
CLASS
  1
VBA_PROJECT
  2
AcDbVbaProject
  3
"acadvba"
 90
    32768
280
     0
281
     0
  0
CLASS
  1
WIPEOUT
  2
AcDbWipeout
  3
WipeOut|AutoCAD Express Tool|expresstools@autodesk.com
 90
    32895
280
     0
281
     1
  0
CLASS
  1
WIPEOUTVARIABLES
  2
AcDbWipeoutVariables
  3
WipeOut|AutoCAD Express Tool|expresstools@autodesk.com
 90
    32768
280
     0
281
     0
  0
CLASS
  1
RTEXT
  2
RText
  3
RText|AutoCAD Express Tool|expresstools@autodesk.com
 90
    32768
280
     0
281
     1
  0
CLASS
  1
ARCALIGNEDTEXT
  2
AcDbArcAlignedText
  3
ATEXT|AutoCAD Express Tool|expresstools@autodesk.com
 90
    32768
280
     0
281
     1
  0
ENDSEC
  0
SECTION
  2
TABLES
  0
TABLE
  2
VPORT
  5
7
330
0
100
AcDbSymbolTable
 70
     3
  0
VPORT
  5
359E
330
7
100
AcDbSymbolTableRecord
100
AcDbViewportTableRecord
  2
*Active
 70
     0
 10
0.0
 20
0.0
 11
1.0
 21
1.0
 12
208.0738809765798
 22
162.0014057717064
 13
0.0
 23
0.0
 14
1.0
 24
1.0
 15
0.0
 25
0.0
 16
0.0
 26
0.0
 36
1.0
 17
0.0
 27
0.0
 37
0.0
 40
275.8363110691191
 41
1.78095238095238
 42
50.0
 43
0.0
 44
0.0
 50
0.0
 51
0.0
 71
     0
 72
   100
 73
     1
 74
     1
 75
     0
 76
     0
 77
     0
 78
     0
281
     0
 65
     1
110
0.0
120
0.0
130
0.0
111
1.0
121
0.0
131
0.0
112
0.0
122
1.0
132
0.0
 79
     0
146
0.0
  0
ENDTAB
  0
TABLE
  2
LTYPE
  5
4
330
0
100
AcDbSymbolTable
 70
     2
  0
LTYPE
  5
11
330
4
100
AcDbSymbolTableRecord
100
AcDbLinetypeTableRecord
  2
BYBLOCK
 70
     0
  3

 72
    65
 73
     0
 40
0.0
  0
LTYPE
  5
12
330
4
100
AcDbSymbolTableRecord
100
AcDbLinetypeTableRecord
  2
BYLAYER
 70
     0
  3

 72
    65
 73
     0
 40
0.0
  0
LTYPE
  5
13
330
4
100
AcDbSymbolTableRecord
100
AcDbLinetypeTableRecord
  2
CONTINUOUS
 70
     0
  3
Solid line
 72
    65
 73
     0
 40
0.0
  0
LTYPE
  5
1D
330
4
100
AcDbSymbolTableRecord
100
AcDbLinetypeTableRecord
  2
DASHED
 70
     0
  3
__ __ __ __ __ __ __ __ __ __ __ __ __ __ __ __
 72
    65
 73
     2
 40
15.0
 49
12.0
 74
     0
 49
-3.0
 74
     0
  0
ENDTAB
  0
TABLE
  2
LAYER
  5
2
330
0
100
AcDbSymbolTable
 70
     1
  0
LAYER
  5
14
330
2
100
AcDbSymbolTableRecord
100
AcDbLayerTableRecord
  2
0
 70
     0
 62
     7
  6
CONTINUOUS
370
    -3
390
2F91
  0
ENDTAB
  0
TABLE
  2
STYLE
  5
3
330
0
100
AcDbSymbolTable
 70
     1
  0
STYLE
  5
17
330
3
100
AcDbSymbolTableRecord
100
AcDbTextStyleTableRecord
  2
STANDARD
 70
     0
 40
0.0
 41
1.0
 50
0.0
 71
     0
 42
0.0
  3
txt
  4

  0
ENDTAB
  0
TABLE
  2
VIEW
  5
5
330
0
100
AcDbSymbolTable
 70
     0
  0
ENDTAB
  0
TABLE
  2
UCS
  5
6
330
0
100
AcDbSymbolTable
 70
     0
  0
ENDTAB
  0
TABLE
  2
APPID
  5
8
330
0
100
AcDbSymbolTable
 70
     1
  0
APPID
  5
16
330
8
100
AcDbSymbolTableRecord
100
AcDbRegAppTableRecord
  2
ACAD
 70
     0
  0
ENDTAB
  0
TABLE
  2
DIMSTYLE
  5
9
330
0
100
AcDbSymbolTable
 70
     1
100
AcDbDimStyleTable
 71
     1
340
18
  0
DIMSTYLE
105
18
330
9
100
AcDbSymbolTableRecord
100
AcDbDimStyleTableRecord
  2
STANDARD
 70
     0
340
17
  0
ENDTAB
  0
TABLE
  2
BLOCK_RECORD
  5
1
330
0
100
AcDbSymbolTable
 70
     0
  0
BLOCK_RECORD
  5
A
330
1
100
AcDbSymbolTableRecord
100
AcDbBlockTableRecord
  2
*MODEL_SPACE
340
2F94
  0
BLOCK_RECORD
  5
3575
330
1
100
AcDbSymbolTableRecord
100
AcDbBlockTableRecord
  2
*Paper_Space
340
3576
  0
ENDTAB
  0
ENDSEC
  0
SECTION
  2
BLOCKS
  0
BLOCK
  5
D
330
A
100
AcDbEntity
  8
0
100
AcDbBlockBegin
  2
*MODEL_SPACE
 70
     0
 10
0.0
 20
0.0
 30
0.0
  3
*MODEL_SPACE
  1

  0
ENDBLK
  5
E
330
A
100
AcDbEntity
  8
0
100
AcDbBlockEnd
  0
BLOCK
  5
3577
330
3575
100
AcDbEntity
 67
     1
  8
0
100
AcDbBlockBegin
  2
*Paper_Space
 70
     0
 10
0.0
 20
0.0
 30
0.0
  3
*Paper_Space
  1

  0
ENDBLK
  5
3578
330
3575
100
AcDbEntity
 67
     1
  8
0
100
AcDbBlockEnd
  0
ENDSEC
  0
SECTION
  2
ENTITIES
  0
LINE
  5
2BF4
330
A
100
AcDbEntity
  8
0
 62
     7
100
AcDbLine
 10
377.82251
 20
164.376312
 30
0.0
 11
377.82251
 21
123.476311
 31
0.0
  0
LINE
  5
2BF5
330
A
100
AcDbEntity
  8
0
 62
     7
 48
0.359554
100
AcDbLine
 10
396.918518
 20
149.288574
 30
0.0
 11
394.031891
 21
163.378082
 31
0.0
  0
ARC
  5
2BF7
330
A
100
AcDbEntity
  8
0
 62
     7
100
AcDbCircle
 10
391.582764
 20
162.876312
 30
0.0
 40
2.5
100
AcDbArc
 50
11.578421
 51
90.00000300000001
  0
LINE
  5
2BF9
330
A
100
AcDbEntity
  8
0
 62
     7
 48
0.375
100
AcDbLine
 10
382.622498
 20
123.476311
 30
0.0
 11
382.622498
 21
164.376312
 31
0.0
  0
ARC
  5
2BFA
330
A
100
AcDbEntity
  8
0
 62
     7
100
AcDbCircle
 10
376.82251
 20
127.876312
 30
0.0
 40
1.0
100
AcDbArc
 50
270.000001
 51
360.0
  0
ARC
  5
2BFB
330
A
100
AcDbEntity
  8
0
 62
     7
100
AcDbCircle
 10
376.82251
 20
164.376312
 30
0.0
 40
1.0
100
AcDbArc
 50
0.0
 51
90.00000300000001
  0
LINE
  5
2BFF
330
A
100
AcDbEntity
  8
0
 62
     7
 48
0.17
100
AcDbLine
 10
376.82251
 20
165.376312
 30
0.0
 11
383.622498
 21
165.376312
 31
0.0
  0
LINE
  5
2C01
330
A
100
AcDbEntity
  8
0
 62
     7
 48
0.12
100
AcDbLine
 10
377.82251
 20
164.376312
 30
0.0
 11
382.622498
 21
164.376312
 31
0.0
  0
LINE
  5
2C02
330
A
100
AcDbEntity
  8
0
  6
DASHED
 62
     4
100
AcDbLine
 10
342.82251
 20
234.4749149999999
 30
0.0
 11
232.822495
 21
234.8588869999999
 31
0.0
  0
LINE
  5
2C03
330
A
100
AcDbEntity
  8
0
  6
DASHED
 62
     4
 48
0.150001
100
AcDbLine
 10
232.822495
 20
228.8588559999999
 30
0.0
 11
232.822495
 21
234.8588869999999
 31
0.0
  0
LINE
  5
2C04
330
A
100
AcDbEntity
  8
0
  6
DASHED
 62
     4
 48
0.150001
100
AcDbLine
 10
233.822495
 20
228.855377
 30
0.0
 11
233.822495
 21
234.8554079999999
 31
0.0
  0
LINE
  5
2C05
330
A
100
AcDbEntity
  8
0
  6
DASHED
 62
     4
 48
0.150001
100
AcDbLine
 10
238.322495
 20
228.8396609999999
 30
0.0
 11
238.322495
 21
234.839691
 31
0.0
  0
LINE
  5
2C06
330
A
100
AcDbEntity
  8
0
  6
DASHED
 62
     4
 48
0.150001
100
AcDbLine
 10
239.322495
 20
228.836166
 30
0.0
 11
239.322495
 21
234.836212
 31
0.0
  0
LINE
  5
2C07
330
A
100
AcDbEntity
  8
0
  6
DASHED
 62
     4
 48
0.150001
100
AcDbLine
 10
241.322495
 20
228.829193
 30
0.0
 11
241.322495
 21
234.829224
 31
0.0
  0
LINE
  5
2C08
330
A
100
AcDbEntity
  8
0
  6
DASHED
 62
     4
 48
0.150001
100
AcDbLine
 10
242.322495
 20
228.825699
 30
0.0
 11
242.322495
 21
234.825745
 31
0.0
  0
LINE
  5
2C09
330
A
100
AcDbEntity
  8
0
  6
DASHED
 62
     4
 48
0.150001
100
AcDbLine
 10
246.322495
 20
228.811737
 30
0.0
 11
246.322495
 21
234.811768
 31
0.0
  0
LINE
  5
2C0A
330
A
100
AcDbEntity
  8
0
  6
DASHED
 62
     4
 48
0.150001
100
AcDbLine
 10
247.322495
 20
228.808243
 30
0.0
 11
247.322495
 21
234.808289
 31
0.0
  0
LINE
  5
2C0B
330
A
100
AcDbEntity
  8
0
  6
DASHED
 62
     4
 48
0.150001
100
AcDbLine
 10
249.322495
 20
228.80127
 30
0.0
 11
249.322495
 21
234.8012999999999
 31
0.0
  0
LINE
  5
2C0C
330
A
100
AcDbEntity
  8
0
  6
DASHED
 62
     4
 48
0.150001
100
AcDbLine
 10
250.322495
 20
228.797775
 30
0.0
 11
250.322495
 21
234.7978059999999
 31
0.0
  0
LINE
  5
2C0D
330
A
100
AcDbEntity
  8
0
  6
DASHED
 62
     4
 48
0.150001
100
AcDbLine
 10
341.82251
 20
228.478378
 30
0.0
 11
341.82251
 21
234.478409
 31
0.0
  0
LINE
  5
2C0E
330
A
100
AcDbEntity
  8
0
  6
DASHED
 62
     4
 48
0.150001
100
AcDbLine
 10
342.82251
 20
228.4748839999999
 30
0.0
 11
342.82251
 21
234.4749149999999
 31
0.0
  0
LINE
  5
2C0F
330
A
100
AcDbEntity
  8
0
  6
DASHED
 62
     4
100
AcDbLine
 10
342.82251
 20
86.277702
 30
0.0
 11
232.822495
 21
85.89373
 31
0.0
  0
LINE
  5
2C10
330
A
100
AcDbEntity
  8
0
  6
DASHED
 62
     4
 48
0.150001
100
AcDbLine
 10
232.822495
 20
91.89376799999999
 30
0.0
 11
232.822495
 21
85.89373
 31
0.0
  0
LINE
  5
2C11
330
A
100
AcDbEntity
  8
0
  6
DASHED
 62
     4
 48
0.150001
100
AcDbLine
 10
233.822495
 20
91.89725499999999
 30
0.0
 11
233.822495
 21
85.897217
 31
0.0
  0
LINE
  5
2C12
330
A
100
AcDbEntity
  8
0
  6
DASHED
 62
     4
 48
0.150001
100
AcDbLine
 10
238.322495
 20
91.912964
 30
0.0
 11
238.322495
 21
85.912926
 31
0.0
  0
LINE
  5
2C13
330
A
100
AcDbEntity
  8
0
  6
DASHED
 62
     4
 48
0.150001
100
AcDbLine
 10
239.322495
 20
91.91645800000001
 30
0.0
 11
239.322495
 21
85.91642
 31
0.0
  0
LINE
  5
2C14
330
A
100
AcDbEntity
  8
0
  6
DASHED
 62
     4
 48
0.150001
100
AcDbLine
 10
241.322495
 20
91.923439
 30
0.0
 11
241.322495
 21
85.92340099999999
 31
0.0
  0
LINE
  5
2C15
330
A
100
AcDbEntity
  8
0
  6
DASHED
 62
     4
 48
0.150001
100
AcDbLine
 10
242.322495
 20
91.92692599999999
 30
0.0
 11
242.322495
 21
85.92688800000003
 31
0.0
  0
LINE
  5
2C16
330
A
100
AcDbEntity
  8
0
  6
DASHED
 62
     4
 48
0.150001
100
AcDbLine
 10
246.322495
 20
91.940887
 30
0.0
 11
246.322495
 21
85.94085699999999
 31
0.0
  0
LINE
  5
2C17
330
A
100
AcDbEntity
  8
0
  6
DASHED
 62
     4
 48
0.150001
100
AcDbLine
 10
247.322495
 20
91.94438199999998
 30
0.0
 11
247.322495
 21
85.944344
 31
0.0
  0
LINE
  5
2C18
330
A
100
AcDbEntity
  8
0
  6
DASHED
 62
     4
 48
0.150001
100
AcDbLine
 10
249.322495
 20
91.95136299999999
 30
0.0
 11
249.322495
 21
85.951324
 31
0.0
  0
LINE
  5
2C19
330
A
100
AcDbEntity
  8
0
  6
DASHED
 62
     4
 48
0.150001
100
AcDbLine
 10
250.322495
 20
91.954849
 30
0.0
 11
250.322495
 21
85.95481900000001
 31
0.0
  0
LINE
  5
2C1A
330
A
100
AcDbEntity
  8
0
  6
DASHED
 62
     4
 48
0.150001
100
AcDbLine
 10
341.82251
 20
92.27424599999999
 30
0.0
 11
341.82251
 21
86.27421600000003
 31
0.0
  0
LINE
  5
2C1B
330
A
100
AcDbEntity
  8
0
  6
DASHED
 62
     4
 48
0.150001
100
AcDbLine
 10
342.82251
 20
92.27774000000001
 30
0.0
 11
342.82251
 21
86.277702
 31
0.0
  0
LINE
  5
2C1C
330
A
100
AcDbEntity
  8
0
 62
     7
 48
0.0875
100
AcDbLine
 10
237.822495
 20
110.376312
 30
0.0
 11
237.822495
 21
106.876312
 31
0.0
  0
LINE
  5
2C1D
330
A
100
AcDbEntity
  8
0
 62
     7
 48
0.0875
100
AcDbLine
 10
237.822495
 20
104.3763119999999
 30
0.0
 11
237.822495
 21
100.876312
 31
0.0
  0
LINE
  5
2C1E
330
A
100
AcDbEntity
  8
0
 62
     7
100
AcDbLine
 10
355.122498
 20
92.320671
 30
0.0
 11
355.122498
 21
171.376312
 31
0.0
  0
LINE
  5
2C20
330
A
100
AcDbEntity
  8
0
 62
     7
100
AcDbLine
 10
355.122498
 20
171.376312
 30
0.0
 11
380.82251
 21
171.466019
 31
0.0
  0
LINE
  5
2C23
330
A
100
AcDbEntity
  8
0
 62
     7
100
AcDbLine
 10
380.82251
 20
228.342239
 30
0.0
 11
380.82251
 21
171.466019
 31
0.0
  0
LINE
  5
2C24
330
A
100
AcDbEntity
  8
0
 62
     7
 48
0.0875
100
AcDbLine
 10
228.822495
 20
106.876312
 30
0.0
 11
228.822495
 21
110.376312
 31
0.0
  0
LINE
  5
2C25
330
A
100
AcDbEntity
  8
0
 62
     7
 48
0.225
100
AcDbLine
 10
228.822495
 20
106.876312
 30
0.0
 11
237.822495
 21
106.876312
 31
0.0
  0
LINE
  5
2C26
330
A
100
AcDbEntity
  8
0
 62
     7
 48
0.225
100
AcDbLine
 10
237.822495
 20
110.376312
 30
0.0
 11
228.822495
 21
110.376312
 31
0.0
  0
LINE
  5
2C27
330
A
100
AcDbEntity
  8
0
 62
     7
 48
0.225
100
AcDbLine
 10
228.822495
 20
104.3763119999999
 30
0.0
 11
237.822495
 21
104.3763119999999
 31
0.0
  0
LINE
  5
2C28
330
A
100
AcDbEntity
  8
0
 62
     7
 48
0.0875
100
AcDbLine
 10
228.822495
 20
100.876312
 30
0.0
 11
228.822495
 21
104.3763119999999
 31
0.0
  0
LINE
  5
2C29
330
A
100
AcDbEntity
  8
0
 62
     7
 48
0.225
100
AcDbLine
 10
237.822495
 20
100.876312
 30
0.0
 11
228.822495
 21
100.876312
 31
0.0
  0
LINE
  5
2C2A
330
A
100
AcDbEntity
  8
0
 62
     7
100
AcDbLine
 10
355.122498
 20
92.320671
 30
0.0
 11
227.822495
 21
91.876312
 31
0.0
  0
LINE
  5
2C2C
330
A
100
AcDbEntity
  8
0
 62
     7
100
AcDbLine
 10
227.822495
 20
88.376312
 30
0.0
 11
227.822495
 21
232.376312
 31
0.0
  0
LINE
  5
2C2F
330
A
100
AcDbEntity
  8
0
 62
     7
100
AcDbLine
 10
380.82251
 20
228.342239
 30
0.0
 11
227.822495
 21
228.876312
 31
0.0
  0
LINE
  5
2C30
330
A
100
AcDbEntity
  8
0
 62
     7
 48
0.2875
100
AcDbLine
 10
227.822495
 20
231.376312
 30
0.0
 11
216.322495
 21
231.376312
 31
0.0
  0
LINE
  5
2C32
330
A
100
AcDbEntity
  8
0
 62
     7
100
AcDbLine
 10
216.322495
 20
88.376312
 30
0.0
 11
216.322495
 21
232.376312
 31
0.0
  0
LINE
  5
2C34
330
A
100
AcDbEntity
  8
0
 62
     7
 48
0.2875
100
AcDbLine
 10
227.822495
 20
89.376312
 30
0.0
 11
216.322495
 21
89.376312
 31
0.0
  0
LINE
  5
2C35
330
A
100
AcDbEntity
  8
0
 62
     7
 48
0.2875
100
AcDbLine
 10
227.822495
 20
232.376312
 30
0.0
 11
216.322495
 21
232.376312
 31
0.0
  0
LINE
  5
2C37
330
A
100
AcDbEntity
  8
0
 62
     7
 48
0.2875
100
AcDbLine
 10
227.822495
 20
88.376312
 30
0.0
 11
216.322495
 21
88.376312
 31
0.0
  0
LINE
  5
2C39
330
A
100
AcDbEntity
  8
0
 62
     7
 48
0.012519
100
AcDbLine
 10
215.8224029999999
 20
232.3500979999999
 30
0.0
 11
216.322495
 21
232.376312
 31
0.0
  0
LINE
  5
2C3C
330
A
100
AcDbEntity
  8
0
 62
     7
 48
0.214102
100
AcDbLine
 10
216.322495
 20
88.376312
 30
0.0
 11
207.770157
 21
88.824524
 31
0.0
  0
LINE
  5
2C3D
330
A
100
AcDbEntity
  8
0
 62
     7
 48
0.025034
100
AcDbLine
 10
206.770157
 20
88.87693
 30
0.0
 11
207.770157
 21
88.824524
 31
0.0
  0
ARC
  5
2C47
330
A
100
AcDbEntity
  8
0
 62
     7
100
AcDbCircle
 10
206.822479
 20
89.875526
 30
0.0
 40
0.9999689999999999
100
AcDbArc
 50
208.8154949999998
 51
267.000646
  0
LINE
  5
2C4B
330
A
100
AcDbEntity
  8
0
 62
     7
100
AcDbLine
 10
376.82251
 20
165.376312
 30
0.0
 11
355.122498
 21
165.376312
 31
0.0
  0
LINE
  5
2C50
330
A
100
AcDbEntity
  8
0
 62
     7
100
AcDbLine
 10
355.122498
 20
126.876312
 30
0.0
 11
376.82251
 21
126.876312
 31
0.0
  0
LINE
  5
2C53
330
A
100
AcDbEntity
  8
0
 62
     7
 48
0.025
100
AcDbLine
 10
356.1224979999998
 20
126.8762659999999
 30
0.0
 11
356.1224979999998
 21
125.8762659999999
 31
0.0
  0
ARC
  5
2C54
330
A
100
AcDbEntity
  8
0
 62
     7
100
AcDbCircle
 10
376.82251
 20
96.876312
 30
0.0
 40
1.0
100
AcDbArc
 50
270.000001
 51
0.00001
  0
ARC
  5
2C55
330
A
100
AcDbEntity
  8
0
 62
     7
100
AcDbCircle
 10
387.622498
 20
163.376312
 30
0.0
 40
2.0
100
AcDbArc
 50
89.94994399999999
 51
90.00000300000001
  0
LINE
  5
2C57
330
A
100
AcDbEntity
  8
0
 62
     7
100
AcDbLine
 10
355.1224979999998
 20
95.87631199999998
 30
0.0
 11
376.82251
 21
95.876312
 31
0.0
  0
LINE
  5
2C5D
330
A
100
AcDbEntity
  8
0
 62
     7
 48
0.1575
100
AcDbLine
 10
391.022491
 20
99.376312
 30
0.0
 11
397.82251
 21
99.376312
 31
0.0
  0
ARC
  5
2C5F
330
A
100
AcDbEntity
  8
0
 62
     7
100
AcDbCircle
 10
383.622498
 20
164.376312
 30
0.0
 40
1.0
100
AcDbArc
 50
90.00000300000001
 51
180.000005
  0
LINE
  5
2C61
330
A
100
AcDbEntity
  8
0
 62
     7
 48
0.112598
100
AcDbLine
 10
396.918518
 20
149.288574
 30
0.0
 11
397.82251
 21
144.876312
 31
0.0
  0
LINE
  5
2C62
330
A
100
AcDbEntity
  8
0
 62
     7
 48
0.199007
100
AcDbLine
 10
383.622498
 20
165.376312
 30
0.0
 11
391.582764
 21
165.376312
 31
0.0
  0
LINE
  5
2C66
330
A
100
AcDbEntity
  8
0
 62
     7
100
AcDbLine
 10
397.82251
 20
99.376312
 30
0.0
 11
397.82251
 21
144.876312
 31
0.0
  0
LINE
  5
2C67
330
A
100
AcDbEntity
  8
0
 62
     7
 48
0.336456
100
AcDbLine
 10
387.82251
 20
123.476311
 30
0.0
 11
387.82251
 21
110.0180509999999
 31
0.0
  0
LINE
  5
2C68
330
A
100
AcDbEntity
  8
0
 62
     7
100
AcDbLine
 10
387.82251
 20
123.476311
 30
0.0
 11
366.82251
 21
123.476311
 31
0.0
  0
LINE
  5
2C6A
330
A
100
AcDbEntity
  8
0
 62
     7
100
AcDbLine
 10
366.82251
 20
125.876312
 30
0.0
 11
366.82251
 21
96.876312
 31
0.0
  0
LINE
  5
2C6B
330
A
100
AcDbEntity
  8
0
 62
     7
 48
0.2925
100
AcDbLine
 10
355.122498
 20
96.876312
 30
0.0
 11
389.022491
 21
96.876312
 31
0.0
  0
LINE
  5
2C6C
330
A
100
AcDbEntity
  8
0
 62
     7
 48
0.2925
100
AcDbLine
 10
355.122498
 20
125.876312
 30
0.0
 11
366.82251
 21
125.876312
 31
0.0
  0
CIRCLE
  5
2C6D
330
A
100
AcDbEntity
  8
0
 62
     7
100
AcDbCircle
 10
383.82251
 20
119.476311
 30
0.0
 40
1.5
  0
CIRCLE
  5
2C6E
330
A
100
AcDbEntity
  8
0
 62
     7
100
AcDbCircle
 10
383.82251
 20
119.476311
 30
0.0
 40
1.199999999999999
  0
ARC
  5
2C6F
330
A
100
AcDbEntity
  8
0
 62
     7
100
AcDbCircle
 10
380.32251
 20
97.87631199999999
 30
0.0
 40
1.0
100
AcDbArc
 50
180.000005
 51
270.000001
  0
LINE
  5
2C70
330
A
100
AcDbEntity
  8
0
 62
     7
100
AcDbLine
 10
379.32251
 20
97.87631199999999
 30
0.0
 11
379.32251
 21
118.976311
 31
0.0
  0
ARC
  5
2C71
330
A
100
AcDbEntity
  8
0
 62
     7
100
AcDbCircle
 10
383.32251
 20
118.976311
 30
0.0
 40
4.0
100
AcDbArc
 50
90.00000300000001
 51
180.000005
  0
LINE
  5
2C72
330
A
100
AcDbEntity
  8
0
 62
     7
 48
0.08
100
AcDbLine
 10
383.32251
 20
122.976311
 30
0.0
 11
386.522491
 21
122.976311
 31
0.0
  0
ARC
  5
2C73
330
A
100
AcDbEntity
  8
0
 62
     7
100
AcDbCircle
 10
386.522491
 20
121.976311
 30
0.0
 40
1.0
100
AcDbArc
 50
0.0
 51
90.00000300000001
  0
LINE
  5
2C74
330
A
100
AcDbEntity
  8
0
 62
     7
 48
0.2875
100
AcDbLine
 10
387.522491
 20
121.976311
 30
0.0
 11
387.522491
 21
110.476311
 31
0.0
  0
ARC
  5
2C75
330
A
100
AcDbEntity
  8
0
 62
     7
100
AcDbCircle
 10
388.0224909999998
 20
110.476311
 30
0.0
 40
0.5
100
AcDbArc
 50
180.000005
 51
270.000001
  0
LINE
  5
2C76
330
A
100
AcDbEntity
  8
0
 62
     7
 48
0.1
100
AcDbLine
 10
385.32251
 20
115.476311
 30
0.0
 11
385.32251
 21
119.476311
 31
0.0
  0
ARC
  5
2C77
330
A
100
AcDbEntity
  8
0
 62
     7
100
AcDbCircle
 10
383.82251
 20
119.476311
 30
0.0
 40
1.5
100
AcDbArc
 50
0.0
 51
180.000005
  0
LINE
  5
2C78
330
A
100
AcDbEntity
  8
0
 62
     7
 48
0.1
100
AcDbLine
 10
382.32251
 20
119.476311
 30
0.0
 11
382.32251
 21
115.476311
 31
0.0
  0
ARC
  5
2C79
330
A
100
AcDbEntity
  8
0
 62
     7
100
AcDbCircle
 10
383.82251
 20
115.476311
 30
0.0
 40
1.5
100
AcDbArc
 50
180.000005
 51
360.0
  0
LINE
  5
2C7A
330
A
100
AcDbEntity
  8
0
 62
     7
 48
0.025
100
AcDbLine
 10
388.0224909999998
 20
109.976311
 30
0.0
 11
389.022491
 21
109.976311
 31
0.0
  0
LINE
  5
2C7B
330
A
100
AcDbEntity
  8
0
 62
     7
 48
0.3275
100
AcDbLine
 10
389.022491
 20
121.476311
 30
0.0
 11
389.022491
 21
96.876312
 31
0.0
  0
LINE
  5
2C7E
330
A
100
AcDbEntity
  8
0
 62
     7
 48
0.025
100
AcDbLine
 10
388.0224909999998
 20
110.476311
 30
0.0
 11
389.022491
 21
110.476311
 31
0.0
  0
LINE
  5
2C80
330
A
100
AcDbEntity
  8
0
 62
     7
 48
0.25
100
AcDbLine
 10
388.0224909999998
 20
121.476311
 30
0.0
 11
388.0224910087263
 21
109.976311
 31
0.0
  0
LINE
  5
2C82
330
A
100
AcDbEntity
  8
0
 62
     7
 48
0.025
100
AcDbLine
 10
388.0224909999998
 20
120.476311
 30
0.0
 11
389.022491
 21
120.476311
 31
0.0
  0
LINE
  5
2C83
330
A
100
AcDbEntity
  8
0
 62
     7
 48
0.025
100
AcDbLine
 10
388.0224909999998
 20
121.476311
 30
0.0
 11
389.022491
 21
121.476311
 31
0.0
  0
LINE
  5
2C88
330
A
100
AcDbEntity
  8
0
 62
     7
 48
0.127083
100
AcDbLine
 10
390.522491
 20
103.0263139999999
 30
0.0
 11
390.5224910087266
 21
97.72631099999999
 31
0.0
  0
LINE
  5
2C8A
330
A
100
AcDbEntity
  8
0
 62
     7
 48
0.103105
100
AcDbLine
 10
391.022491
 20
102.526314
 30
0.0
 11
391.022491
 21
98.22631100872664
 31
0.0
  0
LINE
  5
2C8C
330
A
100
AcDbEntity
  8
0
 62
     7
 48
0.0375
100
AcDbLine
 10
390.522491
 20
103.0263139999999
 30
0.0
 11
389.022491
 21
103.0263139999999
 31
0.0
  0
LINE
  5
2C8D
330
A
100
AcDbEntity
  8
0
 62
     7
 48
0.0375
100
AcDbLine
 10
390.522491
 20
97.72631099999999
 30
0.0
 11
389.022491
 21
97.72631099999999
 31
0.0
  0
ARC
  5
2C8E
330
A
100
AcDbEntity
  8
0
 62
     7
100
AcDbCircle
 10
390.522491
 20
102.526314
 30
0.0
 40
0.5
100
AcDbArc
 50
0.00001
 51
90.00000300000001
  0
ARC
  5
2C8F
330
A
100
AcDbEntity
  8
0
 62
     7
100
AcDbCircle
 10
390.522491
 20
98.226311
 30
0.0
 40
0.5
100
AcDbArc
 50
270.000001
 51
0.000001
  0
LINE
  5
2C95
330
A
100
AcDbEntity
  8
0
 62
     7
100
AcDbLine
 10
215.822495
 20
130.376312
 30
0.0
 11
215.822495
 21
88.87631199999999
 31
0.0
  0
LINE
  5
2C98
330
A
100
AcDbEntity
  8
0
 62
     7
 48
0.0125
100
AcDbLine
 10
216.322495
 20
130.376312
 30
0.0
 11
215.822495
 21
130.376312
 31
0.0
  0
LINE
  5
2C9B
330
A
100
AcDbEntity
  8
0
 62
     7
 48
0.0125
100
AcDbLine
 10
216.322495
 20
190.376312
 30
0.0
 11
215.822495
 21
190.376312
 31
0.0
  0
LINE
  5
2C9C
330
A
100
AcDbEntity
  8
0
 62
     7
100
AcDbLine
 10
215.822495
 20
190.376312
 30
0.0
 11
215.8224029999999
 21
232.3500979999999
 31
0.0
  0
LINE
  5
2C9F
330
A
100
AcDbEntity
  8
0
 62
     7
 48
0.181304
100
AcDbLine
 10
215.822495
 20
88.87631199999999
 30
0.0
 11
208.580261
 21
89.25585899999999
 31
0.0
  0
LINE
  5
2CA0
330
A
100
AcDbEntity
  8
0
 62
     7
 48
0.034234
100
AcDbLine
 10
207.2127839999999
 20
89.32753000000003
 30
0.0
 11
208.580261
 21
89.25585899999999
 31
0.0
  0
LINE
  5
2CA1
330
A
100
AcDbEntity
  8
0
 62
     7
 48
0.041904
100
AcDbLine
 10
205.53894
 20
89.415253
 30
0.0
 11
207.2127839999999
 21
89.32753000000003
 31
0.0
  0
ARC
  5
2CA9
330
A
100
AcDbEntity
  8
0
 62
     7
100
AcDbCircle
 10
215.322495
 20
143.376312
 30
0.0
 40
1.0
100
AcDbArc
 50
0.0
 51
90.00000300000001
  0
ARC
  5
2CAA
330
A
100
AcDbEntity
  8
0
 62
     7
100
AcDbCircle
 10
215.322495
 20
134.376312
 30
0.0
 40
1.0
100
AcDbArc
 50
0.0
 51
90.00000300000001
  0
LINE
  5
2CAB
330
A
100
AcDbEntity
  8
0
 62
     7
 48
0.1375
100
AcDbLine
 10
209.822495
 20
144.376312
 30
0.0
 11
215.322495
 21
144.376312
 31
0.0
  0
ARC
  5
2CAC
330
A
100
AcDbEntity
  8
0
 62
     7
100
AcDbCircle
 10
215.322495
 20
177.376312
 30
0.0
 40
1.0
100
AcDbArc
 50
270.000001
 51
360.0
  0
LINE
  5
2CAD
330
A
100
AcDbEntity
  8
0
 62
     7
 48
0.1375
100
AcDbLine
 10
209.822495
 20
176.376312
 30
0.0
 11
215.322495
 21
176.376312
 31
0.0
  0
ARC
  5
2CAE
330
A
100
AcDbEntity
  8
0
 62
     7
100
AcDbCircle
 10
209.822495
 20
175.376312
 30
0.0
 40
1.0
100
AcDbArc
 50
90.00000300000001
 51
180.000005
  0
ARC
  5
2CAF
330
A
100
AcDbEntity
  8
0
 62
     7
100
AcDbCircle
 10
209.822495
 20
145.376312
 30
0.0
 40
1.0
100
AcDbArc
 50
180.000005
 51
270.000001
  0
ARC
  5
2CB0
330
A
100
AcDbEntity
  8
0
 62
     7
100
AcDbCircle
 10
215.322495
 20
186.376312
 30
0.0
 40
1.0
100
AcDbArc
 50
270.000001
 51
360.0
  0
LINE
  5
2CB1
330
A
100
AcDbEntity
  8
0
 62
     7
 48
0.181304
100
AcDbLine
 10
215.822495
 20
232.376312
 30
0.0
 11
208.580261
 21
231.9967649999999
 31
0.0
  0
LINE
  5
2CBC
330
A
100
AcDbEntity
  8
0
 62
     7
 48
0.041904
100
AcDbLine
 10
205.53894
 20
231.837372
 30
0.0
 11
207.2127839999999
 21
231.925095
 31
0.0
  0
LINE
  5
2CBD
330
A
100
AcDbEntity
  8
0
 62
     7
 48
0.034234
100
AcDbLine
 10
207.2127839999999
 20
231.925095
 30
0.0
 11
208.580261
 21
231.9967649999999
 31
0.0
  0
LINE
  5
2CC6
330
A
100
AcDbEntity
  8
0
 62
     7
 48
0.056486
100
AcDbLine
 10
205.4730989999999
 20
225.508835
 30
0.0
 11
204.117447
 21
227.316376
 31
0.0
  0
LWPOLYLINE
  5
2CC7
330
A
100
AcDbEntity
  8
0
 62
     7
100
AcDbPolyline
 90
       28
 70
     0
 43
0.0
 10
205.4730989999999
 20
225.508835
 10
205.473694
 20
225.5080259999999
 10
205.474182
 20
225.507324
 10
205.474747
 20
225.5065
 10
205.475281
 20
225.5056759999999
 10
205.477448
 20
225.501984
 10
205.47963
 20
225.497711
 10
205.481796
 20
225.4928129999999
 10
205.483963
 20
225.487244
 10
205.48613
 20
225.4809569999999
 10
205.488281
 20
225.473877
 10
205.4904479999999
 20
225.4659119999999
 10
205.492599
 20
225.45697
 10
205.494751
 20
225.44696
 10
205.496887
 20
225.435699
 10
205.499023
 20
225.423096
 10
205.5011289999999
 20
225.408966
 10
205.5032039999999
 20
225.3930659999999
 10
205.505249
 20
225.375031
 10
205.507248
 20
225.3544919999999
 10
205.509186
 20
225.3309629999999
 10
205.5110319999999
 20
225.3037869999999
 10
205.5127559999998
 20
225.2721859999999
 10
205.5142519999999
 20
225.235596
 10
205.515427
 20
225.193497
 10
205.5161739999999
 20
225.1467289999999
 10
205.5163569999999
 20
225.1222229999999
 10
205.5164179999999
 20
225.097473
  0
LINE
  5
2CE5
330
A
100
AcDbEntity
  8
0
 62
     7
100
AcDbLine
 10
205.5164179999999
 20
95.655151
 30
0.0
 11
205.5164179999999
 21
225.097473
 31
0.0
  0
LWPOLYLINE
  5
2CE6
330
A
100
AcDbEntity
  8
0
 62
     7
100
AcDbPolyline
 90
       32
 70
     0
 43
0.0
 10
205.4730989999999
 20
95.24379000000001
 10
205.473694
 20
95.244598
 10
205.47403
 20
95.24507099999999
 10
205.474594
 20
95.24589500000001
 10
205.47496
 20
95.246452
 10
205.476807
 20
95.24949599999999
 10
205.478653
 20
95.25295300000001
 10
205.4805149999999
 20
95.25683599999998
 10
205.482361
 20
95.261185
 10
205.4842069999998
 20
95.266029
 10
205.486038
 20
95.27140799999999
 10
205.487885
 20
95.277367
 10
205.489731
 20
95.283943
 10
205.491562
 20
95.29121399999999
 10
205.493408
 20
95.29922500000001
 10
205.4952239999999
 20
95.30806699999999
 10
205.497055
 20
95.31781
 10
205.4988709999999
 20
95.328537
 10
205.5006559999999
 20
95.34036999999999
 10
205.502441
 20
95.35344700000001
 10
205.504181
 20
95.367958
 10
205.50592
 20
95.38413199999999
 10
205.5076139999999
 20
95.402237
 10
205.5092619999999
 20
95.42260699999999
 10
205.510834
 20
95.44561800000002
 10
205.512329
 20
95.47177899999999
 10
205.5136719999999
 20
95.501465
 10
205.5148159999999
 20
95.53511
 10
205.515701
 20
95.57250999999999
 10
205.516251
 20
95.613129
 10
205.5163879999999
 20
95.63405600000001
 10
205.5164179999999
 20
95.655151
  0
LINE
  5
2D08
330
A
100
AcDbEntity
  8
0
 62
     7
 48
0.056485
100
AcDbLine
 10
204.117447
 20
93.43625600000001
 30
0.0
 11
205.4730989999999
 21
95.24379000000001
 31
0.0
  0
LINE
  5
2D09
330
A
100
AcDbEntity
  8
0
 62
     7
 48
0.1125
100
AcDbLine
 10
215.322495
 20
185.376312
 30
0.0
 11
210.822495
 21
185.376312
 31
0.0
  0
ARC
  5
2D0A
330
A
100
AcDbEntity
  8
0
 62
     7
100
AcDbCircle
 10
210.822495
 20
183.376312
 30
0.0
 40
2.0
100
AcDbArc
 50
90.00000300000001
 51
180.000005
  0
LINE
  5
2D0B
330
A
100
AcDbEntity
  8
0
 62
     7
 48
0.175
100
AcDbLine
 10
208.8224949999999
 20
144.376312
 30
0.0
 11
208.8224949999999
 21
137.376312
 31
0.0
  0
LINE
  5
2D0C
330
A
100
AcDbEntity
  8
0
 62
     7
100
AcDbLine
 10
208.8224949999999
 20
176.376312
 30
0.0
 11
208.8224949999999
 21
144.376312
 31
0.0
  0
LINE
  5
2D0D
330
A
100
AcDbEntity
  8
0
 62
     7
 48
0.175
100
AcDbLine
 10
208.8224949999999
 20
183.376312
 30
0.0
 11
208.8224949999999
 21
176.376312
 31
0.0
  0
LINE
  5
2D0E
330
A
100
AcDbEntity
  8
0
 62
     7
 48
0.1125
100
AcDbLine
 10
215.322495
 20
135.376312
 30
0.0
 11
210.822495
 21
135.376312
 31
0.0
  0
ARC
  5
2D0F
330
A
100
AcDbEntity
  8
0
 62
     7
100
AcDbCircle
 10
210.822495
 20
137.376312
 30
0.0
 40
2.0
100
AcDbArc
 50
179.9999909999999
 51
270.000001
  0
ARC
  5
2D10
330
A
100
AcDbEntity
  8
0
 62
     7
100
AcDbCircle
 10
205.617447
 20
230.3394319999999
 30
0.0
 40
1.5
100
AcDbArc
 50
93.00001299999999
 51
180.000005
  0
ARC
  5
2D11
330
A
100
AcDbEntity
  8
0
 62
     7
100
AcDbCircle
 10
205.617447
 20
90.913193
 30
0.0
 40
1.5
100
AcDbArc
 50
179.9999909999999
 51
266.9999899999999
  0
LINE
  5
2D12
330
A
100
AcDbEntity
  8
0
 62
     7
 48
0.063077
100
AcDbLine
 10
204.117447
 20
90.913193
 30
0.0
 11
204.117447
 21
93.43625600000001
 31
0.0
  0
LINE
  5
2D13
330
A
100
AcDbEntity
  8
0
 62
     7
 48
0.075576
100
AcDbLine
 10
204.117447
 20
227.316376
 30
0.0
 11
204.117447
 21
230.3394319999999
 31
0.0
  0
LINE
  5
33EF
330
A
100
AcDbEntity
  8
0
 62
     7
100
AcDbLine
 10
11.67639100000011
 20
232.376312
 30
0.0
 11
11.67639100000011
 21
88.37631199999981
 31
0.0
  0
LINE
  5
33F0
330
A
100
AcDbEntity
  8
0
 62
     7
100
AcDbLine
 10
25.67639100000011
 20
223.376312
 30
0.0
 11
25.67639100000011
 21
97.37631199999984
 31
0.0
  0
LINE
  5
33F1
330
A
100
AcDbEntity
  8
0
 62
     7
100
AcDbLine
 10
141.6764070000001
 20
223.376312
 30
0.0
 11
141.6764070000001
 21
97.37631199999984
 31
0.0
  0
LINE
  5
33F2
330
A
100
AcDbEntity
  8
0
 62
     7
100
AcDbLine
 10
146.247849
 20
95.65515199999984
 30
0.0
 11
146.247849
 21
225.097474
 31
0.0
  0
LINE
  5
33F3
330
A
100
AcDbEntity
  8
0
 62
     7
100
AcDbLine
 10
21.10495100000016
 20
95.65515199999984
 30
0.0
 11
21.10495100000016
 21
225.097474
 31
0.0
  0
LINE
  5
33F6
330
A
100
AcDbEntity
  8
0
 62
     7
100
AcDbLine
 10
154.994461
 20
90.75381599999984
 30
0.0
 11
154.994461
 21
230.49881
 31
0.0
  0
LINE
  5
33F7
330
A
100
AcDbEntity
  8
0
 62
     7
 48
0.49375
100
AcDbLine
 10
155.632645
 20
130.3763119999997
 30
0.0
 11
155.6328228912921
 21
90.37153180621912
 31
0.0
  0
LINE
  5
33F8
330
A
100
AcDbEntity
  8
0
 62
     7
100
AcDbLine
 10
155.676407
 20
232.376312
 30
0.0
 11
155.676407
 21
88.37631199999981
 31
0.0
  0
LINE
  5
33FE
330
A
100
AcDbEntity
  8
0
 62
     7
100
AcDbLine
 10
140.4546349999999
 20
96.37631200000001
 30
0.0
 11
26.89814700000013
 21
96.37631200000001
 31
0.0
  0
ARC
  5
33FF
330
A
100
AcDbEntity
  8
0
 62
     7
100
AcDbCircle
 10
83.6763910000001
 20
1143.798981999998
 30
0.0
 40
1050.362669999999
100
AcDbArc
 50
266.6381270000008
 51
273.3618740000017
  0
ARC
  5
3401
330
A
100
AcDbEntity
  8
0
 62
     7
100
AcDbCircle
 10
83.67610099999993
 20
-26581.68368399998
 30
0.0
 40
26671.09961
100
AcDbArc
 50
89.85305100000058
 51
90.14092300000006
  0
LINE
  5
3402
330
A
100
AcDbEntity
  8
0
 62
     7
100
AcDbLine
 10
148.8090969999998
 20
89.243164
 30
0.0
 11
105.5436870000002
 21
89.243164
 31
0.0
  0
LINE
  5
3403
330
A
100
AcDbEntity
  8
0
 62
     7
100
AcDbLine
 10
155.676407
 20
88.37631199999981
 30
0.0
 11
22.47062700000005
 21
88.37631199999981
 31
0.0
  0
LINE
  5
3408
330
A
100
AcDbEntity
  8
0
 62
     7
100
AcDbLine
 10
102.8090969999999
 20
88.87631199999985
 30
0.0
 11
22.7592930000002
 21
88.87631199999985
 31
0.0
  0
LINE
  5
3409
330
A
100
AcDbEntity
  8
0
 62
     7
 48
0.061264
100
AcDbLine
 10
25.87600700000021
 20
96.77682600000006
 30
0.0
 11
21.10495100000016
 21
95.65515199999984
 31
0.0
  0
LINE
  5
340A
330
A
100
AcDbEntity
  8
0
 62
     7
 48
0.061856
100
AcDbLine
 10
26.89814700000013
 20
96.37631200000001
 30
0.0
 11
22.08097900000021
 21
95.24380600000004
 31
0.0
  0
LINE
  5
340D
330
A
100
AcDbEntity
  8
0
 62
     7
 48
0.075
100
AcDbLine
 10
11.67639100000011
 20
90.37631199999999
 30
0.0
 11
17.6763910000001
 21
90.37631199999999
 31
0.0
  0
LINE
  5
340F
330
A
100
AcDbEntity
  8
0
 62
     7
 48
0.069976
100
AcDbLine
 10
17.27445900000011
 20
88.37631199999981
 30
0.0
 11
11.67639100000011
 21
88.37631199999981
 31
0.0
  0
LINE
  5
3410
330
A
100
AcDbEntity
  8
0
 62
     7
 48
0.069976
100
AcDbLine
 10
17.27445900000011
 20
89.57632600000001
 30
0.0
 11
11.67639100000011
 21
89.57632600000001
 31
0.0
  0
LINE
  5
3411
330
A
100
AcDbEntity
  8
0
 62
     7
 48
0.01
100
AcDbLine
 10
12.17639100000011
 20
89.57632600000001
 30
0.0
 11
12.17639100000011
 21
90.37631199999999
 31
0.0
  0
LINE
  5
3417
330
A
100
AcDbEntity
  8
0
 62
     7
 48
0.015
100
AcDbLine
 10
11.67639100000011
 20
89.57632600000001
 30
0.0
 11
11.67639100000011
 21
88.37631199999981
 31
0.0
  0
LINE
  5
3419
330
A
100
AcDbEntity
  8
0
 62
     7
 48
0.01
100
AcDbLine
 10
17.17639100000011
 20
89.57632600000001
 30
0.0
 11
17.17639100000011
 21
90.37631199999999
 31
0.0
  0
LINE
  5
341A
330
A
100
AcDbEntity
  8
0
 62
     7
 48
0.00625
100
AcDbLine
 10
17.6763910000001
 20
90.87631199999984
 30
0.0
 11
17.6763910000001
 21
90.37631199999999
 31
0.0
  0
LINE
  5
341C
330
A
100
AcDbEntity
  8
0
 62
     7
 48
0.018726
100
AcDbLine
 10
18.07640100000017
 20
89.33456400000002
 30
0.0
 11
18.07640100000017
 21
90.87631199999984
 31
0.0
  0
LINE
  5
341D
330
A
100
AcDbEntity
  8
0
 62
     7
 48
0.058777
100
AcDbLine
 10
22.7592930000002
 20
88.87631199999985
 30
0.0
 11
18.07640100000017
 21
89.30139199999983
 31
0.0
  0
LINE
  5
341E
330
A
100
AcDbEntity
  8
0
 62
     7
 48
0.000415
100
AcDbLine
 10
18.07640100000017
 20
89.30139199999983
 30
0.0
 11
18.07640100000017
 21
89.33456400000002
 31
0.0
  0
LINE
  5
341F
330
A
100
AcDbEntity
  8
0
 62
     7
 48
0.015
100
AcDbLine
 10
17.27445900000011
 20
89.57632600000001
 30
0.0
 11
17.27445900000011
 21
88.37631199999981
 31
0.0
  0
LINE
  5
3420
330
A
100
AcDbEntity
  8
0
 62
     7
 48
0.064952
100
AcDbLine
 10
22.47062700000005
 20
88.37631199999981
 30
0.0
 11
17.27445900000011
 21
88.37631199999981
 31
0.0
  0
LINE
  5
3421
330
A
100
AcDbEntity
  8
0
 62
     7
 48
0.006577
100
AcDbLine
 10
22.47062700000005
 20
88.90249800000002
 30
0.0
 11
22.47062700000005
 21
88.37631199999981
 31
0.0
  0
LINE
  5
3422
330
A
100
AcDbEntity
  8
0
 62
     7
 48
0.010024
100
AcDbLine
 10
18.07640100000017
 20
89.57632600000001
 30
0.0
 11
17.27445900000011
 21
89.57632600000001
 31
0.0
  0
LWPOLYLINE
  5
3423
330
A
100
AcDbEntity
  8
0
 62
     7
100
AcDbPolyline
 90
        5
 70
     0
 43
0.0
 10
22.08097900000021
 20
95.24380600000004
 10
21.5193790000002
 20
95.32296800000002
 10
21.27998300000013
 20
95.41412400000004
 10
21.1584330000002
 20
95.51107800000002
 10
21.10495100000016
 20
95.65515199999984
  0
LINE
  5
342A
330
A
100
AcDbEntity
  8
0
 62
     7
 48
0.002772
100
AcDbLine
 10
26.67639100000011
 20
96.37631200000001
 30
0.0
 11
26.89814700000013
 21
96.37631200000001
 31
0.0
  0
ARC
  5
342B
330
A
100
AcDbEntity
  8
0
 62
     7
100
AcDbCircle
 10
26.67639100000011
 20
97.37631199999984
 30
0.0
 40
1.0
100
AcDbArc
 50
180.0000049999995
 51
269.9999730000012
  0
LWPOLYLINE
  5
343B
330
A
100
AcDbEntity
  8
0
 62
     7
100
AcDbPolyline
 90
        3
 70
     0
 43
0.0
 10
105.5436870000002
 20
89.243164
 10
104.888473
 20
89.23034800000001
 10
104.553727
 20
89.19818199999998
  0
LINE
  5
343C
330
A
100
AcDbEntity
  8
0
 62
     7
 48
0.010048
100
AcDbLine
 10
103.7990569999999
 20
88.92129599999984
 30
0.0
 11
104.553727
 21
89.19818199999998
 31
0.0
  0
LWPOLYLINE
  5
343D
330
A
100
AcDbEntity
  8
0
 62
     7
100
AcDbPolyline
 90
        3
 70
     0
 43
0.0
 10
102.8090969999999
 20
88.87631199999985
 10
103.4643089999996
 20
88.88913000000004
 10
103.7990569999999
 20
88.92129599999984
  0
LWPOLYLINE
  5
3445
330
A
100
AcDbEntity
  8
0
 62
     7
100
AcDbPolyline
 90
        5
 70
     0
 43
0.0
 10
153.5001669999996
 20
89.25585999999984
 10
153.461929
 20
89.26791400000004
 10
153.242783
 20
89.29348799999997
 10
152.3802029999995
 20
89.32513400000003
 10
152.0792389999999
 20
89.327546
  0
LINE
  5
3446
330
A
100
AcDbEntity
  8
0
 62
     7
 48
0.009233
100
AcDbLine
 10
154.1338050000002
 20
88.87631199999985
 30
0.0
 11
153.5001669999996
 21
89.25585999999984
 31
0.0
  0
LWPOLYLINE
  5
3447
330
A
100
AcDbEntity
  8
0
 62
     7
100
AcDbPolyline
 90
       10
 70
     0
 43
0.0
 10
153.5001669999996
 20
89.25585999999984
 10
153.7448889999999
 20
89.27719199999982
 10
153.9830169999999
 20
89.33841000000004
 10
154.2082669999999
 20
89.43795800000001
 10
154.414353
 20
89.57306
 10
154.5958409999999
 20
89.74026600000003
 10
154.7476650000001
 20
89.93487600000007
 10
154.8657390000002
 20
90.15176400000004
 10
154.9467929999998
 20
90.38497999999984
 10
154.994461
 20
90.75381599999984
  0
LINE
  5
3448
330
A
100
AcDbEntity
  8
0
 62
     7
 48
0.009299
100
AcDbLine
 10
155.632645
 20
90.37152200000006
 30
0.0
 11
154.994461
 21
90.75381599999984
 31
0.0
  0
LWPOLYLINE
  5
3449
330
A
100
AcDbEntity
  8
0
 62
     7
100
AcDbPolyline
 90
        3
 70
     0
 43
0.0
 10
150.553727
 20
88.92129599999984
 10
150.888505
 20
88.88913000000004
 10
151.5436870000002
 20
88.87631199999985
  0
LINE
  5
344A
330
A
100
AcDbEntity
  8
0
 62
     7
 48
0.010048
100
AcDbLine
 10
150.553727
 20
88.92129599999984
 30
0.0
 11
149.7990569999998
 21
89.19818199999998
 31
0.0
  0
LWPOLYLINE
  5
344B
330
A
100
AcDbEntity
  8
0
 62
     7
100
AcDbPolyline
 90
        3
 70
     0
 43
0.0
 10
149.7990569999998
 20
89.19818199999998
 10
149.464309
 20
89.23034800000001
 10
148.8090969999998
 20
89.243164
  0
LINE
  5
344C
330
A
100
AcDbEntity
  8
0
 62
     7
 48
0.032376
100
AcDbLine
 10
154.1338050000002
 20
88.87631199999985
 30
0.0
 11
151.5436870000002
 21
88.87631199999985
 31
0.0
  0
ARC
  5
344D
330
A
100
AcDbEntity
  8
0
 62
     7
100
AcDbCircle
 10
154.1374369999997
 20
90.37210200000002
 30
0.0
 40
1.495386
100
AcDbArc
 50
269.8603099999981
 51
359.9781530000001
  0
LINE
  5
3453
330
A
100
AcDbEntity
  8
0
 62
     7
 48
0.061856
100
AcDbLine
 10
145.2718050000002
 20
95.24380600000004
 30
0.0
 11
140.4546349999999
 21
96.37631200000001
 31
0.0
  0
LINE
  5
3454
330
A
100
AcDbEntity
  8
0
 62
     7
 48
0.061264
100
AcDbLine
 10
146.247849
 20
95.65515199999984
 30
0.0
 11
141.4767909999999
 21
96.77682600000006
 31
0.0
  0
ARC
  5
3455
330
A
100
AcDbEntity
  8
0
 62
     7
100
AcDbCircle
 10
140.6764070000001
 20
97.37631199999984
 30
0.0
 40
1.0
100
AcDbArc
 50
270.0000009999981
 51
0.0
  0
LINE
  5
3456
330
A
100
AcDbEntity
  8
0
 62
     7
 48
0.002772
100
AcDbLine
 10
140.4546349999999
 20
96.37631200000001
 30
0.0
 11
140.6764070000001
 21
96.37631200000001
 31
0.0
  0
LWPOLYLINE
  5
3457
330
A
100
AcDbEntity
  8
0
 62
     7
100
AcDbPolyline
 90
        5
 70
     0
 43
0.0
 10
145.2718050000002
 20
95.24380600000004
 10
145.8334190000002
 20
95.32296800000002
 10
146.0727989999999
 20
95.41412400000004
 10
146.194351
 20
95.51107800000002
 10
146.247849
 20
95.65515199999984
  0
LINE
  5
3468
330
A
100
AcDbEntity
  8
0
 62
     7
100
AcDbLine
 10
140.4546349999999
 20
224.3763119999998
 30
0.0
 11
26.89814700000013
 21
224.3763119999998
 31
0.0
  0
ARC
  5
3469
330
A
100
AcDbEntity
  8
0
 62
     7
100
AcDbCircle
 10
83.6763910000001
 20
-823.046294
 30
0.0
 40
1050.362669999999
100
AcDbArc
 50
86.63812899999987
 51
93.36186899999795
  0
ARC
  5
346B
330
A
100
AcDbEntity
  8
0
 62
     7
100
AcDbCircle
 10
83.67610099999993
 20
26902.93741
 30
0.0
 40
26671.09961
100
AcDbArc
 50
269.85908
 51
270.1469590000006
  0
LINE
  5
34F4
330
A
100
AcDbEntity
  8
0
 62
     7
 48
0.061856
100
AcDbLine
 10
26.89814700000013
 20
224.3763119999998
 30
0.0
 11
22.08097900000021
 21
225.50882
 31
0.0
  0
LINE
  5
34F5
330
A
100
AcDbEntity
  8
0
 62
     7
 48
0.061264
100
AcDbLine
 10
25.87600700000021
 20
223.9758
 30
0.0
 11
21.10495100000016
 21
225.097474
 31
0.0
  0
LINE
  5
34F6
330
A
100
AcDbEntity
  8
0
 62
     7
 48
0.058674
100
AcDbLine
 10
11.67639100000011
 20
229.8763119999999
 30
0.0
 11
18.07640100000017
 21
229.876312
 31
0.0
  0
LINE
  5
34F7
330
A
100
AcDbEntity
  8
0
 62
     7
 48
0.058674
100
AcDbLine
 10
12.17639100000011
 20
230.6762999999997
 30
0.0
 11
17.17639100000011
 21
230.6762999999997
 31
0.0
  0
LINE
  5
34F9
330
A
100
AcDbEntity
  8
0
 62
     7
 48
0.069976
100
AcDbLine
 10
11.67639100000011
 20
232.376312
 30
0.0
 11
155.676407
 21
232.376312
 31
0.0
  0
LINE
  5
34FA
330
A
100
AcDbEntity
  8
0
 62
     7
 48
0.069976
100
AcDbLine
 10
17.27445900000011
 20
231.1762999999998
 30
0.0
 11
11.67639100000011
 21
231.1762999999998
 31
0.0
  0
LINE
  5
34FB
330
A
100
AcDbEntity
  8
0
 62
     7
 48
0.00625
100
AcDbLine
 10
16.32640100000016
 20
231.1762999999998
 30
0.0
 11
16.32640100000016
 21
230.6762999999997
 31
0.0
  0
LINE
  5
34FC
330
A
100
AcDbEntity
  8
0
 62
     7
 48
0.00625
100
AcDbLine
 10
13.02638300000026
 20
231.1762999999998
 30
0.0
 11
13.02638300000026
 21
230.6762999999997
 31
0.0
  0
LINE
  5
34FD
330
A
100
AcDbEntity
  8
0
 62
     7
 48
0.01
100
AcDbLine
 10
12.17639100000011
 20
230.6762999999997
 30
0.0
 11
12.17639100000011
 21
229.876312
 31
0.0
  0
LINE
  5
3504
330
A
100
AcDbEntity
  8
0
 62
     7
 48
0.01
100
AcDbLine
 10
17.17639100000011
 20
230.6762999999997
 30
0.0
 11
17.17639100000011
 21
229.876312
 31
0.0
  0
LINE
  5
3507
330
A
100
AcDbEntity
  8
0
 62
     7
 48
0.018726
100
AcDbLine
 10
18.07640100000017
 20
229.876312
 30
0.0
 11
18.07640100000017
 21
231.9180599999997
 31
0.0
  0
LWPOLYLINE
  5
3508
330
A
100
AcDbEntity
  8
0
 62
     7
100
AcDbPolyline
 90
        5
 70
     0
 43
0.0
 10
22.08097900000021
 20
225.50882
 10
21.5193790000002
 20
225.429658
 10
21.27998300000013
 20
225.338502
 10
21.1584330000002
 20
225.2415479999998
 10
21.10495100000016
 20
225.097474
  0
LINE
  5
350A
330
A
100
AcDbEntity
  8
0
 62
     7
 48
0.000415
100
AcDbLine
 10
18.07640100000017
 20
231.9512339999997
 30
0.0
 11
18.07640100000017
 21
231.9180599999997
 31
0.0
  0
LINE
  5
350B
330
A
100
AcDbEntity
  8
0
 62
     7
 48
0.058777
100
AcDbLine
 10
22.7592930000002
 20
232.376312
 30
0.0
 11
18.07640100000017
 21
231.9512339999997
 31
0.0
  0
LINE
  5
350C
330
A
100
AcDbEntity
  8
0
 62
     7
 48
0.015
100
AcDbLine
 10
17.27445900000011
 20
231.1762999999998
 30
0.0
 11
17.27445900000011
 21
232.376312
 31
0.0
  0
LINE
  5
350D
330
A
100
AcDbEntity
  8
0
 62
     7
 48
0.000328
100
AcDbLine
 10
22.47062700000005
 20
232.3500979999999
 30
0.0
 11
22.47062700000005
 21
232.376312
 31
0.0
  0
LINE
  5
350E
330
A
100
AcDbEntity
  8
0
 62
     7
 48
0.064952
100
AcDbLine
 10
155.676407
 20
232.376312
 30
0.0
 11
17.27445900000011
 21
232.376312
 31
0.0
  0
LINE
  5
350F
330
A
100
AcDbEntity
  8
0
 62
     7
 48
0.010024
100
AcDbLine
 10
18.07640100000017
 20
231.1762999999998
 30
0.0
 11
17.27445900000011
 21
231.1762999999998
 31
0.0
  0
ARC
  5
3510
330
A
100
AcDbEntity
  8
0
 62
     7
100
AcDbCircle
 10
26.67639100000011
 20
223.376312
 30
0.0
 40
1.0
100
AcDbArc
 50
90.00000300000095
 51
180.0000049999995
  0
LINE
  5
3511
330
A
100
AcDbEntity
  8
0
 62
     7
 48
0.002772
100
AcDbLine
 10
26.67639100000011
 20
224.3763119999998
 30
0.0
 11
26.89814700000013
 21
224.3763119999998
 31
0.0
  0
LINE
  5
3512
330
A
100
AcDbEntity
  8
0
 62
     7
 48
0.49375
100
AcDbLine
 10
155.632645
 20
190.376312
 30
0.0
 11
155.632645
 21
230.881104
 31
0.0
  0
LINE
  5
3515
330
A
100
AcDbEntity
  8
0
 62
     7
 48
0.4
100
AcDbLine
 10
155.020217
 20
176.3763119999998
 30
0.0
 11
155.020217
 21
144.376312
 31
0.0
  0
LINE
  5
3519
330
A
100
AcDbEntity
  8
0
 62
     7
 48
0.0875
100
AcDbLine
 10
155.020217
 20
144.376312
 30
0.0
 11
155.020217
 21
137.376312
 31
0.0
  0
LWPOLYLINE
  5
351A
330
A
100
AcDbEntity
  8
0
 62
     7
100
AcDbPolyline
 90
        4
 70
     0
 43
0.0
 10
155.020217
 20
137.376312
 10
155.0714869999999
 20
135.962098
 10
155.1282510000002
 20
135.5285659999995
 10
155.1952050000001
 20
135.376312
  0
LINE
  5
351B
330
A
100
AcDbEntity
  8
0
 62
     7
 48
0.004921
100
AcDbLine
 10
155.5889130000001
 20
135.376312
 30
0.0
 11
155.1952050000001
 21
135.376312
 31
0.0
  0
LWPOLYLINE
  5
351C
330
A
100
AcDbEntity
  8
0
 62
     7
100
AcDbPolyline
 90
        4
 70
     0
 43
0.0
 10
155.676407
 20
134.376312
 10
155.6507729999998
 20
135.0834059999995
 10
155.6223909999999
 20
135.3002019999997
 10
155.5889130000001
 20
135.376312
  0
LINE
  5
351D
330
A
100
AcDbEntity
  8
0
 62
     7
 48
0.05
100
AcDbLine
 10
155.676407
 20
130.3763119999997
 30
0.0
 11
155.676407
 21
134.376312
 31
0.0
  0
LINE
  5
351E
330
A
100
AcDbEntity
  8
0
 62
     7
 48
0.000547
100
AcDbLine
 10
155.676407
 20
130.3763119999997
 30
0.0
 11
155.632645
 21
130.3763119999997
 31
0.0
  0
LINE
  5
3535
330
A
100
AcDbEntity
  8
0
 62
     7
 48
0.05
100
AcDbLine
 10
155.676407
 20
186.3763119999998
 30
0.0
 11
155.676407
 21
190.376312
 31
0.0
  0
LWPOLYLINE
  5
3536
330
A
100
AcDbEntity
  8
0
 62
     7
100
AcDbPolyline
 90
        8
 70
     0
 43
0.0
 10
155.5889130000001
 20
185.376312
 10
155.591049
 20
185.376618
 10
155.5931849999999
 20
185.377534
 10
155.5974889999999
 20
185.3811339999998
 10
155.6050570000001
 20
185.393494
 10
155.632675
 20
185.510408
 10
155.673417
 20
186.1177379999998
 10
155.676407
 20
186.3763119999998
  0
LINE
  5
3537
330
A
100
AcDbEntity
  8
0
 62
     7
 48
0.004921
100
AcDbLine
 10
155.5889130000001
 20
185.376312
 30
0.0
 11
155.1952050000001
 21
185.376312
 31
0.0
  0
LWPOLYLINE
  5
3538
330
A
100
AcDbEntity
  8
0
 62
     7
100
AcDbPolyline
 90
        8
 70
     0
 43
0.0
 10
155.1952050000001
 20
185.376312
 10
155.1898949999998
 20
185.3753979999998
 10
155.1847689999999
 20
185.372742
 10
155.1752469999998
 20
185.3632519999998
 10
155.157151
 20
185.328462
 10
155.1177830000001
 20
185.1698919999993
 10
155.0390769999999
 20
184.2791439999998
 10
155.020217
 20
183.376312
  0
LINE
  5
3539
330
A
100
AcDbEntity
  8
0
 62
     7
 48
0.0875
100
AcDbLine
 10
155.020217
 20
183.376312
 30
0.0
 11
155.020217
 21
176.3763119999998
 31
0.0
  0
LINE
  5
353A
330
A
100
AcDbEntity
  8
0
 62
     7
 48
0.000547
100
AcDbLine
 10
155.676407
 20
190.376312
 30
0.0
 11
155.632645
 21
190.376312
 31
0.0
  0
LINE
  5
353B
330
A
100
AcDbEntity
  8
0
 62
     7
 48
0.061264
100
AcDbLine
 10
146.247849
 20
225.097474
 30
0.0
 11
141.4767909999999
 21
223.9758
 31
0.0
  0
LINE
  5
353C
330
A
100
AcDbEntity
  8
0
 62
     7
 48
0.061856
100
AcDbLine
 10
145.2718050000002
 20
225.50882
 30
0.0
 11
140.4546349999999
 21
224.3763119999998
 31
0.0
  0
LINE
  5
353D
330
A
100
AcDbEntity
  8
0
 62
     7
 48
0.002772
100
AcDbLine
 10
140.4546349999999
 20
224.3763119999998
 30
0.0
 11
140.6764070000001
 21
224.3763119999998
 31
0.0
  0
ARC
  5
353E
330
A
100
AcDbEntity
  8
0
 62
     7
100
AcDbCircle
 10
140.6764070000001
 20
223.376312
 30
0.0
 40
1.0
100
AcDbArc
 50
0.0
 51
90.00000899999959
  0
LWPOLYLINE
  5
353F
330
A
100
AcDbEntity
  8
0
 62
     7
100
AcDbPolyline
 90
        5
 70
     0
 43
0.0
 10
145.2718050000002
 20
225.50882
 10
145.8334190000002
 20
225.429658
 10
146.0727989999999
 20
225.338502
 10
146.194351
 20
225.2415479999998
 10
146.247849
 20
225.097474
  0
LWPOLYLINE
  5
3542
330
A
100
AcDbEntity
  8
0
 62
     7
100
AcDbPolyline
 90
        4
 70
     0
 43
0.0
 10
152.0792389999999
 20
231.9250799999999
 10
153.0460050000001
 20
231.9469919999999
 10
153.359207
 20
231.9696959999999
 10
153.5001669999996
 20
231.9967659999998
  0
LWPOLYLINE
  5
3543
330
A
100
AcDbEntity
  8
0
 62
     7
100
AcDbPolyline
 90
       10
 70
     0
 43
0.0
 10
154.994461
 20
230.49881
 10
154.9731289999999
 20
230.744416
 10
154.9119110000001
 20
230.9833679999998
 10
154.8124229999999
 20
231.2093519999999
 10
154.6773830000001
 20
231.416046
 10
154.5104530000001
 20
231.5979319999998
 10
154.3161170000001
 20
231.7499999999999
 10
154.0997769999999
 20
231.8681339999998
 10
153.8672029999998
 20
231.9491879999998
 10
153.5001669999996
 20
231.9967659999998
  0
LINE
  5
3544
330
A
100
AcDbEntity
  8
0
 62
     7
 48
0.009233
100
AcDbLine
 10
154.1338050000002
 20
232.376312
 30
0.0
 11
153.5001669999996
 21
231.9967659999998
 31
0.0
  0
LINE
  5
3545
330
A
100
AcDbEntity
  8
0
 62
     7
 48
0.009299
100
AcDbLine
 10
155.632645
 20
230.881104
 30
0.0
 11
154.994461
 21
230.49881
 31
0.0
  0
ARC
  5
3547
330
A
100
AcDbEntity
  8
0
 62
     7
100
AcDbCircle
 10
154.1374369999997
 20
230.880524
 30
0.0
 40
1.495387999999999
100
AcDbArc
 50
0.0218920000003225
 51
90.13967299999919
  0
LINE
  5
3551
330
A
100
AcDbEntity
  8
0
  6
DASHED
 62
     4
100
AcDbLine
 10
113.6764070000001
 20
234.876312
 30
0.0
 11
53.6763990000002
 21
234.876312
 31
0.0
  0
LINE
  5
3552
330
A
100
AcDbEntity
  8
0
  6
DASHED
 62
     4
 48
0.0625
100
AcDbLine
 10
54.6763990000002
 20
234.876312
 30
0.0
 11
54.6763990000002
 21
232.376312
 31
0.0
  0
LINE
  5
3553
330
A
100
AcDbEntity
  8
0
  6
DASHED
 62
     4
 48
0.0625
100
AcDbLine
 10
53.6763990000002
 20
234.876312
 30
0.0
 11
53.6763990000002
 21
232.376312
 31
0.0
  0
LINE
  5
3554
330
A
100
AcDbEntity
  8
0
  6
DASHED
 62
     4
 48
0.0625
100
AcDbLine
 10
67.6763990000002
 20
234.876312
 30
0.0
 11
67.6763990000002
 21
232.376312
 31
0.0
  0
LINE
  5
3555
330
A
100
AcDbEntity
  8
0
  6
DASHED
 62
     4
 48
0.0625
100
AcDbLine
 10
68.6763990000002
 20
234.876312
 30
0.0
 11
68.6763990000002
 21
232.376312
 31
0.0
  0
LINE
  5
3556
330
A
100
AcDbEntity
  8
0
  6
DASHED
 62
     4
 48
0.0625
100
AcDbLine
 10
71.6763990000002
 20
234.876312
 30
0.0
 11
71.6763990000002
 21
232.376312
 31
0.0
  0
LINE
  5
3557
330
A
100
AcDbEntity
  8
0
  6
DASHED
 62
     4
 48
0.0625
100
AcDbLine
 10
70.6763990000002
 20
234.876312
 30
0.0
 11
70.6763990000002
 21
232.376312
 31
0.0
  0
LINE
  5
3558
330
A
100
AcDbEntity
  8
0
  6
DASHED
 62
     4
 48
0.0625
100
AcDbLine
 10
95.67639900000008
 20
234.876312
 30
0.0
 11
95.67639900000008
 21
232.376312
 31
0.0
  0
LINE
  5
3559
330
A
100
AcDbEntity
  8
0
  6
DASHED
 62
     4
 48
0.0625
100
AcDbLine
 10
96.67639900000008
 20
234.876312
 30
0.0
 11
96.67639900000008
 21
232.376312
 31
0.0
  0
LINE
  5
355A
330
A
100
AcDbEntity
  8
0
  6
DASHED
 62
     4
 48
0.0625
100
AcDbLine
 10
99.67639900000015
 20
234.876312
 30
0.0
 11
99.67639900000015
 21
232.376312
 31
0.0
  0
LINE
  5
355B
330
A
100
AcDbEntity
  8
0
  6
DASHED
 62
     4
 48
0.0625
100
AcDbLine
 10
98.67639900000007
 20
234.876312
 30
0.0
 11
98.67639900000007
 21
232.376312
 31
0.0
  0
LINE
  5
355C
330
A
100
AcDbEntity
  8
0
  6
DASHED
 62
     4
 48
0.0625
100
AcDbLine
 10
112.6764070000001
 20
234.876312
 30
0.0
 11
112.6764070000001
 21
232.376312
 31
0.0
  0
LINE
  5
355D
330
A
100
AcDbEntity
  8
0
  6
DASHED
 62
     4
 48
0.0625
100
AcDbLine
 10
113.6764070000001
 20
234.876312
 30
0.0
 11
113.6764070000001
 21
232.376312
 31
0.0
  0
LINE
  5
355E
330
A
100
AcDbEntity
  8
0
  6
DASHED
 62
     4
100
AcDbLine
 10
113.6764070000001
 20
85.87631199999998
 30
0.0
 11
53.6763990000002
 21
85.87631199999998
 31
0.0
  0
LINE
  5
355F
330
A
100
AcDbEntity
  8
0
  6
DASHED
 62
     4
 48
0.0625
100
AcDbLine
 10
54.6763990000002
 20
85.87631199999998
 30
0.0
 11
54.6763990000002
 21
88.37631199999998
 31
0.0
  0
LINE
  5
3560
330
A
100
AcDbEntity
  8
0
  6
DASHED
 62
     4
 48
0.0625
100
AcDbLine
 10
53.6763990000002
 20
85.87631199999998
 30
0.0
 11
53.6763990000002
 21
88.37631199999998
 31
0.0
  0
LINE
  5
3561
330
A
100
AcDbEntity
  8
0
  6
DASHED
 62
     4
 48
0.0625
100
AcDbLine
 10
67.6763990000002
 20
85.87631199999998
 30
0.0
 11
67.6763990000002
 21
88.37631199999998
 31
0.0
  0
LINE
  5
3562
330
A
100
AcDbEntity
  8
0
  6
DASHED
 62
     4
 48
0.0625
100
AcDbLine
 10
68.6763990000002
 20
85.87631199999998
 30
0.0
 11
68.6763990000002
 21
88.37631199999998
 31
0.0
  0
LINE
  5
3563
330
A
100
AcDbEntity
  8
0
  6
DASHED
 62
     4
 48
0.0625
100
AcDbLine
 10
71.6763990000002
 20
85.87631199999998
 30
0.0
 11
71.6763990000002
 21
88.37631199999998
 31
0.0
  0
LINE
  5
3564
330
A
100
AcDbEntity
  8
0
  6
DASHED
 62
     4
 48
0.0625
100
AcDbLine
 10
70.6763990000002
 20
85.87631199999998
 30
0.0
 11
70.6763990000002
 21
88.37631199999998
 31
0.0
  0
LINE
  5
3565
330
A
100
AcDbEntity
  8
0
  6
DASHED
 62
     4
 48
0.0625
100
AcDbLine
 10
95.67639900000008
 20
85.87631199999998
 30
0.0
 11
95.67639900000008
 21
88.37631199999998
 31
0.0
  0
LINE
  5
3566
330
A
100
AcDbEntity
  8
0
  6
DASHED
 62
     4
 48
0.0625
100
AcDbLine
 10
96.67639900000008
 20
85.87631199999998
 30
0.0
 11
96.67639900000008
 21
88.37631199999998
 31
0.0
  0
LINE
  5
3567
330
A
100
AcDbEntity
  8
0
  6
DASHED
 62
     4
 48
0.0625
100
AcDbLine
 10
99.67639900000015
 20
85.87631199999998
 30
0.0
 11
99.67639900000015
 21
88.37631199999998
 31
0.0
  0
LINE
  5
3568
330
A
100
AcDbEntity
  8
0
  6
DASHED
 62
     4
 48
0.0625
100
AcDbLine
 10
98.67639900000007
 20
85.87631199999998
 30
0.0
 11
98.67639900000007
 21
88.37631199999998
 31
0.0
  0
LWPOLYLINE
  5
3569
330
A
100
AcDbEntity
  8
0
 62
     7
100
AcDbPolyline
 90
       20
 70
     0
 43
0.0
 10
105.5436929999999
 20
89.243164
 10
105.4685130000001
 20
89.24301899999994
 10
105.393761
 20
89.24257699999998
 10
105.319855
 20
89.241837
 10
105.247223
 20
89.240814
 10
105.1762689999999
 20
89.23950200000001
 10
105.1074060000001
 20
89.23791499999998
 10
105.041008
 20
89.23606099999998
 10
104.9774630000001
 20
89.23395500000003
 10
104.917129
 20
89.231606
 10
104.8603440000001
 20
89.22901899999997
 10
104.8074190000001
 20
89.22621900000001
 10
104.7586670000002
 20
89.223221
 10
104.7143550000001
 20
89.22003899999998
 10
104.6747280000001
 20
89.21669800000001
 10
104.6400219999999
 20
89.21320300000003
 10
104.610412
 20
89.20957900000002
 10
104.5860820000001
 20
89.205856
 10
104.567154
 20
89.202042
 10
104.5537410000002
 20
89.19817399999997
  0
LINE
  5
356A
330
A
100
AcDbEntity
  8
0
 62
     7
 48
0.020097
100
AcDbLine
 10
103.7990570000002
 20
88.92130999999997
 30
0.0
 11
104.5537410000002
 21
89.19817399999997
 31
0.0
  0
LWPOLYLINE
  5
356B
330
A
100
AcDbEntity
  8
0
 62
     7
100
AcDbPolyline
 90
       20
 70
     0
 43
0.0
 10
103.7990570000002
 20
88.92130999999997
 10
103.7856439999996
 20
88.91743500000002
 10
103.766716
 20
88.91361999999999
 10
103.7423779999997
 20
88.909897
 10
103.712776
 20
88.906281
 10
103.678062
 20
88.902786
 10
103.638435
 20
88.89943700000003
 10
103.5941239999999
 20
88.89625500000002
 10
103.545372
 20
88.89325699999998
 10
103.492454
 20
88.890457
 10
103.4356689999996
 20
88.88787800000001
 10
103.3753279999999
 20
88.88552099999998
 10
103.3117830000001
 20
88.88341500000001
 10
103.245392
 20
88.88156100000003
 10
103.1765209999999
 20
88.87997400000001
 10
103.1055680000002
 20
88.87866999999998
 10
103.0329360000002
 20
88.87763999999998
 10
102.9590380000001
 20
88.87690699999996
 10
102.8842849999999
 20
88.87645699999998
 10
102.809105
 20
88.87631199999999
  0
LINE
  5
356C
330
A
100
AcDbEntity
  8
0
  6
DASHED
 62
     4
 48
0.0625
100
AcDbLine
 10
112.6764070000001
 20
85.87631199999998
 30
0.0
 11
112.6764070000001
 21
88.37631199999998
 31
0.0
  0
LINE
  5
356D
330
A
100
AcDbEntity
  8
0
  6
DASHED
 62
     4
 48
0.0625
100
AcDbLine
 10
113.6764070000001
 20
85.87631199999998
 30
0.0
 11
113.6764070000001
 21
88.37631199999998
 31
0.0
  0
LINE
  5
3585
330
A
100
AcDbEntity
  8
0
 62
     7
100
AcDbLine
 10
14.52821300000016
 20
90.87631199999984
 30
0.0
 11
14.52821300000016
 21
229.8763119999999
 31
0.0
  0
LINE
  5
3586
330
A
100
AcDbEntity
  8
0
 62
     7
 48
0.044352
100
AcDbLine
 10
14.52821300000016
 20
90.87631199999984
 30
0.0
 11
18.07640100000017
 21
90.87631199999984
 31
0.0
  0
ENDSEC
  0
SECTION
  2
OBJECTS
  0
DICTIONARY
  5
19
330
0
100
AcDbDictionary
281
     1
  3
ACAD_GROUP
350
1A
  3
ACAD_LAYOUT
350
2F92
  3
ACAD_MLINESTYLE
350
1B
  3
ACAD_PLOTSETTINGS
350
2F93
  3
ACAD_PLOTSTYLENAME
350
2F90
  0
DICTIONARY
  5
1A
102
{ACAD_REACTORS
330
19
102
}
330
19
100
AcDbDictionary
281
     1
  0
DICTIONARY
  5
2F92
102
{ACAD_REACTORS
330
19
102
}
330
19
100
AcDbDictionary
281
     1
  3
Model
350
2F94
  3
ﾚｲｱｳﾄ1
350
3576
  0
DICTIONARY
  5
1B
102
{ACAD_REACTORS
330
19
102
}
330
19
100
AcDbDictionary
281
     1
  3
STANDARD
350
1C
  0
DICTIONARY
  5
2F93
102
{ACAD_REACTORS
330
19
102
}
330
19
100
AcDbDictionary
281
     1
  0
ACDBDICTIONARYWDFLT
  5
2F90
102
{ACAD_REACTORS
330
19
102
}
330
19
100
AcDbDictionary
281
     1
  3
Normal
350
2F91
100
AcDbDictionaryWithDefault
340
2F91
  0
LAYOUT
  5
2F94
102
{ACAD_REACTORS
330
2F92
102
}
330
2F92
100
AcDbPlotSettings
  1

  2
Canon iR-ADV C5030/5035 LIPSLX
  4

  6

 40
0.0
 41
0.0
 42
0.0
 43
0.0
 44
0.0
 45
0.0
 46
0.0
 47
0.0
 48
0.0
 49
0.0
140
0.0
141
0.0
142
1.0
143
1.0
 70
  1712
 72
     0
 73
     0
 74
     0
  7

 75
     0
147
1.0
148
0.0
149
0.0
100
AcDbLayout
  1
Model
 70
     1
 71
     0
 10
0.0
 20
0.0
 11
12.0
 21
9.0
 12
0.0
 22
0.0
 32
0.0
 14
0.0
 24
0.0
 34
0.0
 15
0.0
 25
0.0
 35
0.0
146
0.0
 13
0.0
 23
0.0
 33
0.0
 16
1.0
 26
0.0
 36
0.0
 17
0.0
 27
1.0
 37
0.0
 76
     0
330
A
  0
LAYOUT
  5
3576
102
{ACAD_REACTORS
330
2F92
102
}
330
2F92
100
AcDbPlotSettings
  1

  2
A2 Printer TG2 RPCS
  4

  6

 40
0.0
 41
0.0
 42
0.0
 43
0.0
 44
0.0
 45
0.0
 46
0.0
 47
0.0
 48
0.0
 49
0.0
140
0.0
141
0.0
142
1.0
143
1.0
 70
   688
 72
     0
 73
     0
 74
     5
  7

 75
    16
147
1.0
148
0.0
149
0.0
100
AcDbLayout
  1
ﾚｲｱｳﾄ1
 70
     1
 71
     1
 10
0.0
 20
0.0
 11
12.0
 21
9.0
 12
0.0
 22
0.0
 32
0.0
 14
0.0
 24
0.0
 34
0.0
 15
0.0
 25
0.0
 35
0.0
146
0.0
 13
0.0
 23
0.0
 33
0.0
 16
1.0
 26
0.0
 36
0.0
 17
0.0
 27
1.0
 37
0.0
 76
     0
330
3575
  0
MLINESTYLE
  5
1C
102
{ACAD_REACTORS
330
1B
102
}
330
1B
100
AcDbMlineStyle
  2
STANDARD
 70
     0
  3

 62
     0
 51
90.0
 52
90.0
 71
     2
 49
0.5
 62
   256
  6
BYLAYER
 49
-0.5
 62
   256
  6
BYLAYER
  0
ACDBPLACEHOLDER
  5
2F91
102
{ACAD_REACTORS
330
2F90
102
}
330
2F90
  0
ENDSEC
  0
EOF
