  0
SECTION
  2
HEADER
  9
$ACADVER
  1
AC1015
  9
$ACADMAINTVER
 70
    10
  9
$DWGCODEPAGE
  3
ANSI_932
  9
$INSBASE
 10
0.0
 20
0.0
 30
0.0
  9
$EXTMIN
 10
21.99383929813021
 20
-130.1317646756759
 30
0.0
  9
$EXTMAX
 10
408.1399582981301
 20
30.35689212258173
 30
0.0
  9
$LIMMIN
 10
0.0
 20
0.0
  9
$LIMMAX
 10
420.0
 20
297.0
  9
$ORTHOMODE
 70
     0
  9
$REGENMODE
 70
     1
  9
$FILLMODE
 70
     1
  9
$QTEXTMODE
 70
     0
  9
$MIRRTEXT
 70
     1
  9
$LTSCALE
 40
1.0
  9
$ATTMODE
 70
     1
  9
$TEXTSIZE
 40
0.0
  9
$TRACEWID
 40
1.0
  9
$TEXTSTYLE
  7
STANDARD
  9
$CLAYER
  8
0
  9
$CELTYPE
  6
BYLAYER
  9
$CECOLOR
 62
   256
  9
$CELTSCALE
 40
1.0
  9
$DISPSILH
 70
     0
  9
$DIMSCALE
 40
1.0
  9
$DIMASZ
 40
2.5
  9
$DIMEXO
 40
0.625
  9
$DIMDLI
 40
3.75
  9
$DIMRND
 40
0.0
  9
$DIMDLE
 40
0.0
  9
$DIMEXE
 40
1.25
  9
$DIMTP
 40
0.0
  9
$DIMTM
 40
0.0
  9
$DIMTXT
 40
2.5
  9
$DIMCEN
 40
2.5
  9
$DIMTSZ
 40
0.0
  9
$DIMTOL
 70
     0
  9
$DIMLIM
 70
     0
  9
$DIMTIH
 70
     0
  9
$DIMTOH
 70
     0
  9
$DIMSE1
 70
     0
  9
$DIMSE2
 70
     0
  9
$DIMTAD
 70
     1
  9
$DIMZIN
 70
     8
  9
$DIMBLK
  1

  9
$DIMASO
 70
     1
  9
$DIMSHO
 70
     1
  9
$DIMPOST
  1

  9
$DIMAPOST
  1

  9
$DIMALT
 70
     0
  9
$DIMALTD
 70
     3
  9
$DIMALTF
 40
0.03937
  9
$DIMLFAC
 40
1.0
  9
$DIMTOFL
 70
     1
  9
$DIMTVP
 40
0.0
  9
$DIMTIX
 70
     0
  9
$DIMSOXD
 70
     0
  9
$DIMSAH
 70
     0
  9
$DIMBLK1
  1

  9
$DIMBLK2
  1

  9
$DIMSTYLE
  2
STANDARD
  9
$DIMCLRD
 70
     0
  9
$DIMCLRE
 70
     0
  9
$DIMCLRT
 70
     0
  9
$DIMTFAC
 40
1.0
  9
$DIMGAP
 40
0.625
  9
$DIMJUST
 70
     0
  9
$DIMSD1
 70
     0
  9
$DIMSD2
 70
     0
  9
$DIMTOLJ
 70
     0
  9
$DIMTZIN
 70
     8
  9
$DIMALTZ
 70
     0
  9
$DIMALTTZ
 70
     0
  9
$DIMUPT
 70
     0
  9
$DIMDEC
 70
     2
  9
$DIMTDEC
 70
     2
  9
$DIMALTU
 70
     2
  9
$DIMALTTD
 70
     3
  9
$DIMTXSTY
  7
STANDARD
  9
$DIMAUNIT
 70
     0
  9
$DIMADEC
 70
     0
  9
$DIMALTRND
 40
0.0
  9
$DIMAZIN
 70
     0
  9
$DIMDSEP
 70
    46
  9
$DIMATFIT
 70
     3
  9
$DIMFRAC
 70
     0
  9
$DIMLDRBLK
  1

  9
$DIMLUNIT
 70
     2
  9
$DIMLWD
 70
    -2
  9
$DIMLWE
 70
    -2
  9
$DIMTMOVE
 70
     0
  9
$LUNITS
 70
     2
  9
$LUPREC
 70
     4
  9
$SKETCHINC
 40
1.0
  9
$FILLETRAD
 40
2.5
  9
$AUNITS
 70
     0
  9
$AUPREC
 70
     0
  9
$MENU
  1
.
  9
$ELEVATION
 40
0.0
  9
$PELEVATION
 40
0.0
  9
$THICKNESS
 40
0.0
  9
$LIMCHECK
 70
     0
  9
$CHAMFERA
 40
2.5
  9
$CHAMFERB
 40
2.5
  9
$CHAMFERC
 40
0.0
  9
$CHAMFERD
 40
0.0
  9
$SKPOLY
 70
     0
  9
$TDCREATE
 40
2312275.082421388
  9
$TDUCREATE
 40
2312274.707421388
  9
$TDUPDATE
 40
2456493.753848206
  9
$TDUUPDATE
 40
2456493.378848206
  9
$TDINDWG
 40
0.0072041435
  9
$TDUSRTIMER
 40
0.0072030556
  9
$USRTIMER
 70
     1
  9
$ANGBASE
 50
0.0
  9
$ANGDIR
 70
     0
  9
$PDMODE
 70
     0
  9
$PDSIZE
 40
0.0
  9
$PLINEWID
 40
0.0
  9
$SPLFRAME
 70
     0
  9
$SPLINETYPE
 70
     6
  9
$SPLINESEGS
 70
     8
  9
$HANDSEED
  5
3C5E
  9
$SURFTAB1
 70
     6
  9
$SURFTAB2
 70
     6
  9
$SURFTYPE
 70
     6
  9
$SURFU
 70
     6
  9
$SURFV
 70
     6
  9
$UCSBASE
  2

  9
$UCSNAME
  2

  9
$UCSORG
 10
0.0
 20
0.0
 30
0.0
  9
$UCSXDIR
 10
1.0
 20
0.0
 30
0.0
  9
$UCSYDIR
 10
0.0
 20
1.0
 30
0.0
  9
$UCSORTHOREF
  2

  9
$UCSORTHOVIEW
 70
     0
  9
$UCSORGTOP
 10
0.0
 20
0.0
 30
0.0
  9
$UCSORGBOTTOM
 10
0.0
 20
0.0
 30
0.0
  9
$UCSORGLEFT
 10
0.0
 20
0.0
 30
0.0
  9
$UCSORGRIGHT
 10
0.0
 20
0.0
 30
0.0
  9
$UCSORGFRONT
 10
0.0
 20
0.0
 30
0.0
  9
$UCSORGBACK
 10
0.0
 20
0.0
 30
0.0
  9
$PUCSBASE
  2

  9
$PUCSNAME
  2

  9
$PUCSORG
 10
0.0
 20
0.0
 30
0.0
  9
$PUCSXDIR
 10
1.0
 20
0.0
 30
0.0
  9
$PUCSYDIR
 10
0.0
 20
1.0
 30
0.0
  9
$PUCSORTHOREF
  2

  9
$PUCSORTHOVIEW
 70
     0
  9
$PUCSORGTOP
 10
0.0
 20
0.0
 30
0.0
  9
$PUCSORGBOTTOM
 10
0.0
 20
0.0
 30
0.0
  9
$PUCSORGLEFT
 10
0.0
 20
0.0
 30
0.0
  9
$PUCSORGRIGHT
 10
0.0
 20
0.0
 30
0.0
  9
$PUCSORGFRONT
 10
0.0
 20
0.0
 30
0.0
  9
$PUCSORGBACK
 10
0.0
 20
0.0
 30
0.0
  9
$USERI1
 70
     0
  9
$USERI2
 70
     0
  9
$USERI3
 70
     0
  9
$USERI4
 70
     0
  9
$USERI5
 70
     0
  9
$USERR1
 40
0.0
  9
$USERR2
 40
0.0
  9
$USERR3
 40
0.0
  9
$USERR4
 40
0.0
  9
$USERR5
 40
0.0
  9
$WORLDVIEW
 70
     1
  9
$SHADEDGE
 70
     3
  9
$SHADEDIF
 70
    70
  9
$TILEMODE
 70
     1
  9
$MAXACTVP
 70
    48
  9
$PINSBASE
 10
0.0
 20
0.0
 30
0.0
  9
$PLIMCHECK
 70
     0
  9
$PEXTMIN
 10
0.0
 20
0.0
 30
0.0
  9
$PEXTMAX
 10
401.4999999999998
 20
275.0
 30
2.0
  9
$PLIMMIN
 10
0.0
 20
0.0
  9
$PLIMMAX
 10
420.0
 20
297.0
  9
$UNITMODE
 70
     0
  9
$VISRETAIN
 70
     0
  9
$PLINEGEN
 70
     0
  9
$PSLTSCALE
 70
     1
  9
$TREEDEPTH
 70
  3020
  9
$CMLSTYLE
  2
STANDARD
  9
$CMLJUST
 70
     0
  9
$CMLSCALE
 40
20.0
  9
$PROXYGRAPHICS
 70
     1
  9
$MEASUREMENT
 70
     1
  9
$CELWEIGHT
370
    -1
  9
$ENDCAPS
280
     0
  9
$JOINSTYLE
280
     0
  9
$LWDISPLAY
290
     0
  9
$INSUNITS
 70
     0
  9
$HYPERLINKBASE
  1

  9
$STYLESHEET
  1

  9
$XEDIT
290
     1
  9
$CEPSNTYPE
380
     0
  9
$PSTYLEMODE
290
     1
  9
$FINGERPRINTGUID
  2
{9672EDF3-FCB5-487E-AE94-D16B74FD075A}
  9
$VERSIONGUID
  2
{CFC63654-B59A-45A0-B6FD-A82CF0093C5B}
  9
$EXTNAMES
290
     1
  9
$PSVPSCALE
 40
0.0
  9
$OLESTARTUP
290
     0
  0
ENDSEC
  0
SECTION
  2
CLASSES
  0
CLASS
  1
LWPOLYLINE
  2
AcDbPolyline
  3
AutoCAD 2000
 90
    32768
280
     0
281
     1
  0
CLASS
  1
IMAGE
  2
AcDbRasterImage
  3
ISM
 90
    32895
280
     0
281
     1
  0
CLASS
  1
OLE2FRAME
  2
AcDbOle2Frame
  3
AutoCAD 2000
 90
    32768
280
     0
281
     1
  0
CLASS
  1
HATCH
  2
AcDbHatch
  3
AutoCAD 2000
 90
    32768
280
     0
281
     1
  0
CLASS
  1
DICTIONARYVAR
  2
AcDbDictionaryVar
  3
AutoCAD 2000
 90
    32768
280
     0
281
     0
  0
CLASS
  1
RASTERVARIABLES
  2
AcDbRasterVariables
  3
ISM
 90
    32768
280
     0
281
     0
  0
CLASS
  1
IMAGEDEF
  2
AcDbRasterImageDef
  3
ISM
 90
    32768
280
     0
281
     0
  0
CLASS
  1
IMAGEDEF_REACTOR
  2
AcDbRasterImageDefReactor
  3
ISM
 90
    32769
280
     0
281
     0
  0
CLASS
  1
IDBUFFER
  2
AcDbIdBuffer
  3
AutoCAD 2000
 90
    32768
280
     0
281
     0
  0
CLASS
  1
SPATIAL_FILTER
  2
AcDbSpatialFilter
  3
AutoCAD 2000
 90
    32768
280
     0
281
     0
  0
CLASS
  1
XRECORD
  2
AcDbXrecord
  3
AutoCAD 2000
 90
    32768
280
     0
281
     0
  0
CLASS
  1
SORTENTSTABLE
  2
AcDbSortentsTable
  3
AutoCAD 2000
 90
    32768
280
     0
281
     0
  0
CLASS
  1
LAYER_INDEX
  2
AcDbLayerIndex
  3
AutoCAD 2000
 90
    32768
280
     0
281
     0
  0
CLASS
  1
SPATIAL_INDEX
  2
AcDbSpatialIndex
  3
AutoCAD 2000
 90
    32768
280
     0
281
     0
  0
CLASS
  1
OBJECT_PTR
  2
CAseDLPNTableRecord
  3
"ASE-LPNTableRecord"
 90
    32769
280
     0
281
     0
  0
CLASS
  1
LAYOUT
  2
AcDbLayout
  3
AutoCAD 2000
 90
        0
280
     0
281
     0
  0
CLASS
  1
PLOTSETTINGS
  2
AcDbPlotSettings
  3
AutoCAD 2000
 90
    32768
280
     0
281
     0
  0
CLASS
  1
ACDBDICTIONARYWDFLT
  2
AcDbDictionaryWithDefault
  3
AutoCAD 2000
 90
        0
280
     0
281
     0
  0
CLASS
  1
ACDBPLACEHOLDER
  2
AcDbPlaceHolder
  3
AutoCAD 2000
 90
        0
280
     0
281
     0
  0
CLASS
  1
VBA_PROJECT
  2
AcDbVbaProject
  3
"acadvba"
 90
    32768
280
     0
281
     0
  0
CLASS
  1
WIPEOUT
  2
AcDbWipeout
  3
WipeOut|AutoCAD Express Tool|expresstools@autodesk.com
 90
    32895
280
     0
281
     1
  0
CLASS
  1
WIPEOUTVARIABLES
  2
AcDbWipeoutVariables
  3
WipeOut|AutoCAD Express Tool|expresstools@autodesk.com
 90
    32768
280
     0
281
     0
  0
CLASS
  1
RTEXT
  2
RText
  3
RText|AutoCAD Express Tool|expresstools@autodesk.com
 90
    32768
280
     0
281
     1
  0
CLASS
  1
ARCALIGNEDTEXT
  2
AcDbArcAlignedText
  3
ATEXT|AutoCAD Express Tool|expresstools@autodesk.com
 90
    32768
280
     0
281
     1
  0
ENDSEC
  0
SECTION
  2
TABLES
  0
TABLE
  2
VPORT
  5
7
330
0
100
AcDbSymbolTable
 70
     2
  0
VPORT
  5
3C5D
330
7
100
AcDbSymbolTableRecord
100
AcDbViewportTableRecord
  2
*Active
 70
     0
 10
0.0
 20
0.0
 11
1.0
 21
1.0
 12
201.9868524401508
 22
-65.54387489318236
 13
0.0
 23
0.0
 14
1.0
 24
1.0
 15
0.0
 25
0.0
 16
0.0
 26
0.0
 36
1.0
 17
0.0
 27
0.0
 37
0.0
 40
298.5599288317631
 41
1.78095238095238
 42
50.0
 43
0.0
 44
0.0
 50
0.0
 51
0.0
 71
     0
 72
   100
 73
     1
 74
     1
 75
     0
 76
     0
 77
     0
 78
     0
281
     0
 65
     1
110
0.0
120
0.0
130
0.0
111
1.0
121
0.0
131
0.0
112
0.0
122
1.0
132
0.0
 79
     0
146
0.0
  0
ENDTAB
  0
TABLE
  2
LTYPE
  5
4
330
0
100
AcDbSymbolTable
 70
     2
  0
LTYPE
  5
11
330
4
100
AcDbSymbolTableRecord
100
AcDbLinetypeTableRecord
  2
BYBLOCK
 70
     0
  3

 72
    65
 73
     0
 40
0.0
  0
LTYPE
  5
12
330
4
100
AcDbSymbolTableRecord
100
AcDbLinetypeTableRecord
  2
BYLAYER
 70
     0
  3

 72
    65
 73
     0
 40
0.0
  0
LTYPE
  5
13
330
4
100
AcDbSymbolTableRecord
100
AcDbLinetypeTableRecord
  2
CONTINUOUS
 70
     0
  3
Solid line
 72
    65
 73
     0
 40
0.0
  0
LTYPE
  5
1D
330
4
100
AcDbSymbolTableRecord
100
AcDbLinetypeTableRecord
  2
DASHED
 70
     0
  3
__ __ __ __ __ __ __ __ __ __ __ __ __ __ __ __
 72
    65
 73
     2
 40
15.0
 49
12.0
 74
     0
 49
-3.0
 74
     0
  0
ENDTAB
  0
TABLE
  2
LAYER
  5
2
330
0
100
AcDbSymbolTable
 70
     1
  0
LAYER
  5
14
330
2
100
AcDbSymbolTableRecord
100
AcDbLayerTableRecord
  2
0
 70
     0
 62
     7
  6
CONTINUOUS
370
    -3
390
39F1
  0
ENDTAB
  0
TABLE
  2
STYLE
  5
3
330
0
100
AcDbSymbolTable
 70
     1
  0
STYLE
  5
17
330
3
100
AcDbSymbolTableRecord
100
AcDbTextStyleTableRecord
  2
STANDARD
 70
     0
 40
0.0
 41
1.0
 50
0.0
 71
     0
 42
0.0
  3
txt
  4

  0
ENDTAB
  0
TABLE
  2
VIEW
  5
5
330
0
100
AcDbSymbolTable
 70
     0
  0
ENDTAB
  0
TABLE
  2
UCS
  5
6
330
0
100
AcDbSymbolTable
 70
     0
  0
ENDTAB
  0
TABLE
  2
APPID
  5
8
330
0
100
AcDbSymbolTable
 70
     1
  0
APPID
  5
16
330
8
100
AcDbSymbolTableRecord
100
AcDbRegAppTableRecord
  2
ACAD
 70
     0
  0
ENDTAB
  0
TABLE
  2
DIMSTYLE
  5
9
330
0
100
AcDbSymbolTable
 70
     1
100
AcDbDimStyleTable
 71
     1
340
18
  0
DIMSTYLE
105
18
330
9
100
AcDbSymbolTableRecord
100
AcDbDimStyleTableRecord
  2
STANDARD
 70
     0
340
17
  0
ENDTAB
  0
TABLE
  2
BLOCK_RECORD
  5
1
330
0
100
AcDbSymbolTable
 70
     0
  0
BLOCK_RECORD
  5
A
330
1
100
AcDbSymbolTableRecord
100
AcDbBlockTableRecord
  2
*MODEL_SPACE
340
39F4
  0
BLOCK_RECORD
  5
B
330
1
100
AcDbSymbolTableRecord
100
AcDbBlockTableRecord
  2
*PAPER_SPACE
340
39F5
  0
ENDTAB
  0
ENDSEC
  0
SECTION
  2
BLOCKS
  0
BLOCK
  5
D
330
A
100
AcDbEntity
  8
0
100
AcDbBlockBegin
  2
*MODEL_SPACE
 70
     0
 10
0.0
 20
0.0
 30
0.0
  3
*MODEL_SPACE
  1

  0
ENDBLK
  5
E
330
A
100
AcDbEntity
  8
0
100
AcDbBlockEnd
  0
BLOCK
  5
F
330
B
100
AcDbEntity
 67
     1
  8
0
100
AcDbBlockBegin
  2
*PAPER_SPACE
 70
     0
 10
0.0
 20
0.0
 30
0.0
  3
*PAPER_SPACE
  1

  0
ENDBLK
  5
10
330
B
100
AcDbEntity
 67
     1
  8
0
100
AcDbBlockEnd
  0
ENDSEC
  0
SECTION
  2
ENTITIES
  0
ARC
  5
3B21
330
A
100
AcDbEntity
  8
0
 62
     7
100
AcDbCircle
 10
221.1399432981301
 20
-76.55850767567598
 30
0.0
 40
2.0
100
AcDbArc
 50
179.9999909999987
 51
270.000001
  0
ARC
  5
3B22
330
A
100
AcDbEntity
  8
0
 62
     7
100
AcDbCircle
 10
221.1399432981301
 20
-30.558507675676
 30
0.0
 40
2.0
100
AcDbArc
 50
90.00000299999992
 51
180.0000049999988
  0
LINE
  5
3B23
330
A
100
AcDbEntity
  8
0
 62
     7
 48
0.181304
100
AcDbLine
 10
226.13994329813
 20
18.441492324324
 30
0.0
 11
218.8977092981301
 21
18.0619453243239
 31
0.0
  0
LINE
  5
3B24
330
A
100
AcDbEntity
  8
0
 62
     7
 48
0.1375
100
AcDbLine
 10
220.13994329813
 20
-37.55850767567599
 30
0.0
 11
225.6399432981301
 21
-37.55850767567599
 31
0.0
  0
LINE
  5
3B25
330
A
100
AcDbEntity
  8
0
 62
     7
 48
0.1375
100
AcDbLine
 10
220.13994329813
 20
-69.558507675676
 30
0.0
 11
225.6399432981301
 21
-69.558507675676
 31
0.0
  0
LINE
  5
3B26
330
A
100
AcDbEntity
  8
0
 62
     7
 48
0.181304
100
AcDbLine
 10
226.13994329813
 20
-125.0585076756759
 30
0.0
 11
218.8977092981301
 21
-124.678960675676
 31
0.0
  0
LINE
  5
3B27
330
A
100
AcDbEntity
  8
0
 62
     7
 48
0.214102
100
AcDbLine
 10
226.6399432981301
 20
-125.558507675676
 30
0.0
 11
218.0876052981301
 21
-125.1102956756759
 31
0.0
  0
LINE
  5
3B28
330
A
100
AcDbEntity
  8
0
 62
     7
100
AcDbLine
 10
24.84566129813027
 20
-123.058507675676
 30
0.0
 11
24.84566129813027
 21
15.94149232432391
 31
0.0
  0
LINE
  5
3B29
330
A
100
AcDbEntity
  8
0
 62
     7
 48
0.4
100
AcDbLine
 10
165.3376652981299
 20
-37.55850767567618
 30
0.0
 11
165.3376652981299
 21
-69.558507675676
 31
0.0
  0
LINE
  5
3B2A
330
A
100
AcDbEntity
  8
0
 62
     7
100
AcDbLine
 10
165.99385529813
 20
18.441492324324
 30
0.0
 11
165.99385529813
 21
-125.5585076756762
 31
0.0
  0
LINE
  5
3B2B
330
A
100
AcDbEntity
  8
0
 62
     7
100
AcDbLine
 10
165.3119092981301
 20
-123.1810036756761
 30
0.0
 11
165.3119092981301
 21
16.56399032432401
 31
0.0
  0
LINE
  5
3B2C
330
A
100
AcDbEntity
  8
0
 62
     7
100
AcDbLine
 10
31.42239929813026
 20
-118.2796676756761
 30
0.0
 11
31.42239929813026
 21
11.16265432432401
 31
0.0
  0
LINE
  5
3B2D
330
A
100
AcDbEntity
  8
0
 62
     7
100
AcDbLine
 10
156.5652972981301
 20
-118.2796676756761
 30
0.0
 11
156.5652972981301
 21
11.16265432432401
 31
0.0
  0
LINE
  5
3B2E
330
A
100
AcDbEntity
  8
0
 62
     7
100
AcDbLine
 10
151.9938552981302
 20
9.441492324324002
 30
0.0
 11
151.9938552981302
 21
-116.5585076756761
 31
0.0
  0
LINE
  5
3B2F
330
A
100
AcDbEntity
  8
0
 62
     7
100
AcDbLine
 10
35.99383929813021
 20
9.441492324324002
 30
0.0
 11
35.99383929813021
 21
-116.5585076756761
 31
0.0
  0
LINE
  5
3B30
330
A
100
AcDbEntity
  8
0
 62
     7
100
AcDbLine
 10
21.99383929813021
 20
18.441492324324
 30
0.0
 11
21.99383929813021
 21
-125.5585076756762
 31
0.0
  0
LINE
  5
3B31
330
A
100
AcDbEntity
  8
0
 62
     7
100
AcDbLine
 10
219.1399432981299
 20
-37.55850767567599
 30
0.0
 11
219.1399432981299
 21
-69.558507675676
 31
0.0
  0
LINE
  5
3B32
330
A
100
AcDbEntity
  8
0
 62
     7
100
AcDbLine
 10
215.83386629813
 20
-118.279668675676
 30
0.0
 11
215.83386629813
 21
11.16265332432399
 31
0.0
  0
LINE
  5
3B34
330
A
100
AcDbEntity
  8
0
 62
     7
100
AcDbLine
 10
113.1265452981299
 20
-125.0585076756761
 30
0.0
 11
33.0767412981303
 21
-125.0585076756761
 31
0.0
  0
LINE
  5
3B35
330
A
100
AcDbEntity
  8
0
 62
     7
100
AcDbLine
 10
165.99385529813
 20
-125.5585076756762
 30
0.0
 11
32.78807529813015
 21
-125.5585076756762
 31
0.0
  0
ARC
  5
3B36
330
A
100
AcDbEntity
  8
0
 62
     7
100
AcDbCircle
 10
93.99354929813005
 20
-26795.61850367565
 30
0.0
 40
26671.09961
100
AcDbArc
 50
89.85305100000058
 51
90.14092300000006
  0
ARC
  5
3B37
330
A
100
AcDbEntity
  8
0
 62
     7
100
AcDbCircle
 10
93.99383929813021
 20
929.8641623243218
 30
0.0
 40
1050.362669999999
100
AcDbArc
 50
266.6381270000008
 51
273.3618740000017
  0
LINE
  5
3B38
330
A
100
AcDbEntity
  8
0
 62
     7
100
AcDbLine
 10
150.7720832981299
 20
-117.5585076756759
 30
0.0
 11
37.21559529813022
 21
-117.5585076756759
 31
0.0
  0
LINE
  5
3B39
330
A
100
AcDbEntity
  8
0
 62
     7
 48
0.069976
100
AcDbLine
 10
27.59190729813021
 20
-124.3584936756759
 30
0.0
 11
21.99383929813021
 21
-124.3584936756759
 31
0.0
  0
LINE
  5
3B3A
330
A
100
AcDbEntity
  8
0
 62
     7
 48
0.069976
100
AcDbLine
 10
27.59190729813021
 20
-125.5585076756762
 30
0.0
 11
21.99383929813021
 21
-125.5585076756762
 31
0.0
  0
LINE
  5
3B3B
330
A
100
AcDbEntity
  8
0
 62
     7
 48
0.075
100
AcDbLine
 10
21.99383929813021
 20
-123.5585076756759
 30
0.0
 11
27.9938392981302
 21
-123.5585076756759
 31
0.0
  0
LINE
  5
3B3C
330
A
100
AcDbEntity
  8
0
 62
     7
 48
0.015
100
AcDbLine
 10
21.99383929813021
 20
-124.3584936756759
 30
0.0
 11
21.99383929813021
 21
-125.5585076756762
 31
0.0
  0
LINE
  5
3B3D
330
A
100
AcDbEntity
  8
0
 62
     7
 48
0.01
100
AcDbLine
 10
22.49383929813021
 20
-124.3584936756759
 30
0.0
 11
22.49383929813021
 21
-123.5585076756759
 31
0.0
  0
LINE
  5
3B3E
330
A
100
AcDbEntity
  8
0
 62
     7
 48
0.018726
100
AcDbLine
 10
28.39384929813027
 20
-124.600255675676
 30
0.0
 11
28.39384929813027
 21
-123.058507675676
 31
0.0
  0
LINE
  5
3B3F
330
A
100
AcDbEntity
  8
0
 62
     7
 48
0.00625
100
AcDbLine
 10
27.9938392981302
 20
-123.058507675676
 30
0.0
 11
27.9938392981302
 21
-123.5585076756759
 31
0.0
  0
LINE
  5
3B40
330
A
100
AcDbEntity
  8
0
 62
     7
 48
0.064952
100
AcDbLine
 10
32.78807529813015
 20
-125.5585076756762
 30
0.0
 11
27.59190729813021
 21
-125.5585076756762
 31
0.0
  0
LINE
  5
3B41
330
A
100
AcDbEntity
  8
0
 62
     7
 48
0.058777
100
AcDbLine
 10
33.0767412981303
 20
-125.0585076756761
 30
0.0
 11
28.39384929813027
 21
-124.6334276756762
 31
0.0
  0
LINE
  5
3B42
330
A
100
AcDbEntity
  8
0
 62
     7
 48
0.01
100
AcDbLine
 10
27.49383929813021
 20
-124.3584936756759
 30
0.0
 11
27.49383929813021
 21
-123.5585076756759
 31
0.0
  0
LINE
  5
3B43
330
A
100
AcDbEntity
  8
0
 62
     7
 48
0.010024
100
AcDbLine
 10
28.39384929813027
 20
-124.3584936756759
 30
0.0
 11
27.59190729813021
 21
-124.3584936756759
 31
0.0
  0
LINE
  5
3B44
330
A
100
AcDbEntity
  8
0
 62
     7
 48
0.015
100
AcDbLine
 10
27.59190729813021
 20
-124.3584936756759
 30
0.0
 11
27.59190729813021
 21
-125.5585076756762
 31
0.0
  0
LINE
  5
3B45
330
A
100
AcDbEntity
  8
0
 62
     7
 48
0.000415
100
AcDbLine
 10
28.39384929813027
 20
-124.6334276756762
 30
0.0
 11
28.39384929813027
 21
-124.600255675676
 31
0.0
  0
LINE
  5
3B46
330
A
100
AcDbEntity
  8
0
 62
     7
 48
0.006577
100
AcDbLine
 10
32.78807529813015
 20
-125.0323216756759
 30
0.0
 11
32.78807529813015
 21
-125.5585076756762
 31
0.0
  0
LWPOLYLINE
  5
3B47
330
A
100
AcDbEntity
  8
0
 62
     7
100
AcDbPolyline
 90
        5
 70
     0
 43
0.0
 10
32.3984272981303
 20
-118.6910136756759
 10
31.8368272981303
 20
-118.611851675676
 10
31.59743129813023
 20
-118.5206956756759
 10
31.4758812981303
 20
-118.4237416756759
 10
31.42239929813026
 20
-118.2796676756761
  0
LINE
  5
3B48
330
A
100
AcDbEntity
  8
0
 62
     7
 48
0.061264
100
AcDbLine
 10
36.19345529813031
 20
-117.1579936756759
 30
0.0
 11
31.42239929813026
 21
-118.2796676756761
 31
0.0
  0
LINE
  5
3B49
330
A
100
AcDbEntity
  8
0
 62
     7
 48
0.044352
100
AcDbLine
 10
24.84566129813027
 20
-123.058507675676
 30
0.0
 11
28.39384929813027
 21
-123.058507675676
 31
0.0
  0
ARC
  5
3B4A
330
A
100
AcDbEntity
  8
0
 62
     7
100
AcDbCircle
 10
36.99383929813021
 20
-116.5585076756761
 30
0.0
 40
1.0
100
AcDbArc
 50
180.0000049999988
 51
269.9999730000012
  0
LINE
  5
3B4B
330
A
100
AcDbEntity
  8
0
 62
     7
 48
0.061856
100
AcDbLine
 10
37.21559529813022
 20
-117.5585076756759
 30
0.0
 11
32.3984272981303
 21
-118.6910136756759
 31
0.0
  0
LINE
  5
3B4C
330
A
100
AcDbEntity
  8
0
 62
     7
 48
0.002772
100
AcDbLine
 10
36.99383929813021
 20
-117.5585076756759
 30
0.0
 11
37.21559529813022
 21
-117.5585076756759
 31
0.0
  0
LINE
  5
3B53
330
A
100
AcDbEntity
  8
0
 62
     7
 48
0.061264
100
AcDbLine
 10
156.5652972981301
 20
-118.2796676756761
 30
0.0
 11
151.79423929813
 21
-117.1579936756759
 31
0.0
  0
LINE
  5
3B54
330
A
100
AcDbEntity
  8
0
 62
     7
 48
0.061856
100
AcDbLine
 10
155.5892532981303
 20
-118.6910136756759
 30
0.0
 11
150.7720832981299
 21
-117.5585076756759
 31
0.0
  0
LINE
  5
3B55
330
A
100
AcDbEntity
  8
0
 62
     7
100
AcDbLine
 10
159.1265452981299
 20
-124.691655675676
 30
0.0
 11
115.8611352981303
 21
-124.691655675676
 31
0.0
  0
LWPOLYLINE
  5
3B56
330
A
100
AcDbEntity
  8
0
 62
     7
100
AcDbPolyline
 90
       20
 70
     0
 43
0.0
 10
114.1165052981303
 20
-125.013509675676
 10
114.1030922981297
 20
-125.0173846756759
 10
114.08416429813
 20
-125.0211996756759
 10
114.0598262981297
 20
-125.024922675676
 10
114.0302242981301
 20
-125.028538675676
 10
113.9955102981301
 20
-125.032033675676
 10
113.95588329813
 20
-125.0353826756759
 10
113.91157229813
 20
-125.0385646756759
 10
113.86282029813
 20
-125.041562675676
 10
113.8099022981301
 20
-125.044362675676
 10
113.7531172981298
 20
-125.046941675676
 10
113.6927762981299
 20
-125.049298675676
 10
113.6292312981302
 20
-125.0514046756759
 10
113.5628402981301
 20
-125.0532586756759
 10
113.49396929813
 20
-125.0548456756759
 10
113.4230162981303
 20
-125.0561496756759
 10
113.3503842981303
 20
-125.057179675676
 10
113.2764862981302
 20
-125.057912675676
 10
113.2017332981299
 20
-125.058362675676
 10
113.12655329813
 20
-125.0585076756759
  0
LWPOLYLINE
  5
3B57
330
A
100
AcDbEntity
  8
0
 62
     7
100
AcDbPolyline
 90
        3
 70
     0
 43
0.0
 10
113.1265452981299
 20
-125.0585076756761
 10
113.7817572981297
 20
-125.0456896756759
 10
114.1165052981299
 20
-125.0135236756761
  0
LINE
  5
3B5C
330
A
100
AcDbEntity
  8
0
 62
     7
 48
0.020097
100
AcDbLine
 10
114.1165052981303
 20
-125.013509675676
 30
0.0
 11
114.8711892981303
 21
-124.7366456756759
 31
0.0
  0
LWPOLYLINE
  5
3B5D
330
A
100
AcDbEntity
  8
0
 62
     7
100
AcDbPolyline
 90
       20
 70
     0
 43
0.0
 10
115.8611412981299
 20
-124.691655675676
 10
115.7859612981302
 20
-124.691800675676
 10
115.71120929813
 20
-124.692242675676
 10
115.63730329813
 20
-124.692982675676
 10
115.5646712981301
 20
-124.6940056756759
 10
115.49371729813
 20
-124.6953176756759
 10
115.4248542981302
 20
-124.696904675676
 10
115.35845629813
 20
-124.698758675676
 10
115.2949112981302
 20
-124.7008646756759
 10
115.23457729813
 20
-124.703213675676
 10
115.1777922981302
 20
-124.705800675676
 10
115.1248672981302
 20
-124.7086006756759
 10
115.0761152981303
 20
-124.711598675676
 10
115.0318032981302
 20
-124.714780675676
 10
114.9921762981302
 20
-124.7181216756759
 10
114.9574702981299
 20
-124.7216166756759
 10
114.92786029813
 20
-124.7252406756759
 10
114.90353029813
 20
-124.728963675676
 10
114.88460229813
 20
-124.732777675676
 10
114.8711892981303
 20
-124.7366456756759
  0
LINE
  5
3B5E
330
A
100
AcDbEntity
  8
0
 62
     7
 48
0.010048
100
AcDbLine
 10
114.1165052981299
 20
-125.0135236756761
 30
0.0
 11
114.87117529813
 21
-124.736637675676
 31
0.0
  0
LWPOLYLINE
  5
3B5F
330
A
100
AcDbEntity
  8
0
 62
     7
100
AcDbPolyline
 90
        3
 70
     0
 43
0.0
 10
115.8611352981303
 20
-124.691655675676
 10
115.20592129813
 20
-124.7044716756759
 10
114.87117529813
 20
-124.736637675676
  0
ARC
  5
3B62
330
A
100
AcDbEntity
  8
0
 62
     7
100
AcDbCircle
 10
150.9938552981302
 20
-116.5585076756761
 30
0.0
 40
1.0
100
AcDbArc
 50
270.0000009999978
 51
0.0
  0
LINE
  5
3B63
330
A
100
AcDbEntity
  8
0
 62
     7
 48
0.002772
100
AcDbLine
 10
150.7720832981299
 20
-117.5585076756759
 30
0.0
 11
150.9938552981302
 21
-117.5585076756759
 31
0.0
  0
LINE
  5
3B64
330
A
100
AcDbEntity
  8
0
 62
     7
 48
0.49375
100
AcDbLine
 10
165.9500932981301
 20
-83.55850767567632
 30
0.0
 11
165.9502711894221
 21
-123.5632878694568
 31
0.0
  0
LINE
  5
3B65
330
A
100
AcDbEntity
  8
0
 62
     7
 48
0.009299
100
AcDbLine
 10
165.9500932981301
 20
-123.5632976756759
 30
0.0
 11
165.3119092981301
 21
-123.1810036756761
 31
0.0
  0
LWPOLYLINE
  5
3B66
330
A
100
AcDbEntity
  8
0
 62
     7
100
AcDbPolyline
 90
       10
 70
     0
 43
0.0
 10
163.8176152981299
 20
-124.6789596756761
 10
164.0623372981299
 20
-124.6576276756762
 10
164.30046529813
 20
-124.5964096756759
 10
164.52571529813
 20
-124.4968616756759
 10
164.73180129813
 20
-124.3617596756759
 10
164.91328929813
 20
-124.1945536756759
 10
165.0651132981302
 20
-123.9999436756759
 10
165.1831872981301
 20
-123.7830556756759
 10
165.2642412981298
 20
-123.549839675676
 10
165.3119092981301
 20
-123.1810036756761
  0
LINE
  5
3B67
330
A
100
AcDbEntity
  8
0
 62
     7
 48
0.032376
100
AcDbLine
 10
164.4512532981303
 20
-125.0585076756761
 30
0.0
 11
161.8611352981303
 21
-125.0585076756761
 31
0.0
  0
LWPOLYLINE
  5
3B68
330
A
100
AcDbEntity
  8
0
 62
     7
100
AcDbPolyline
 90
        5
 70
     0
 43
0.0
 10
163.8176152981299
 20
-124.6789596756761
 10
163.7793772981301
 20
-124.6669056756759
 10
163.5602312981301
 20
-124.6413316756759
 10
162.6976512981295
 20
-124.6096856756759
 10
162.3966872981299
 20
-124.607273675676
  0
LWPOLYLINE
  5
3B69
330
A
100
AcDbEntity
  8
0
 62
     7
100
AcDbPolyline
 90
        3
 70
     0
 43
0.0
 10
160.1165052981299
 20
-124.736637675676
 10
159.78175729813
 20
-124.7044716756759
 10
159.1265452981299
 20
-124.691655675676
  0
LINE
  5
3B6A
330
A
100
AcDbEntity
  8
0
 62
     7
 48
0.010048
100
AcDbLine
 10
160.87117529813
 20
-125.0135236756761
 30
0.0
 11
160.1165052981299
 21
-124.736637675676
 31
0.0
  0
LWPOLYLINE
  5
3B6B
330
A
100
AcDbEntity
  8
0
 62
     7
100
AcDbPolyline
 90
        3
 70
     0
 43
0.0
 10
160.87117529813
 20
-125.0135236756761
 10
161.20595329813
 20
-125.0456896756759
 10
161.8611352981303
 20
-125.0585076756761
  0
ARC
  5
3B6C
330
A
100
AcDbEntity
  8
0
 62
     7
100
AcDbCircle
 10
164.4548852981299
 20
-123.5627176756759
 30
0.0
 40
1.495386
100
AcDbArc
 50
269.8603099999981
 51
359.9781530000001
  0
LINE
  5
3B6D
330
A
100
AcDbEntity
  8
0
 62
     7
 48
0.009233
100
AcDbLine
 10
164.4512532981303
 20
-125.0585076756761
 30
0.0
 11
163.8176152981299
 21
-124.6789596756761
 31
0.0
  0
LWPOLYLINE
  5
3B6E
330
A
100
AcDbEntity
  8
0
 62
     7
100
AcDbPolyline
 90
        5
 70
     0
 43
0.0
 10
155.5892532981303
 20
-118.6910136756759
 10
156.1508672981303
 20
-118.611851675676
 10
156.39024729813
 20
-118.5206956756759
 10
156.51179929813
 20
-118.4237416756759
 10
156.5652972981301
 20
-118.2796676756761
  0
ARC
  5
3B6F
330
A
100
AcDbEntity
  8
0
 62
     7
100
AcDbCircle
 10
215.9348952981301
 20
-123.0216266756759
 30
0.0
 40
1.5
100
AcDbArc
 50
179.9999909999987
 51
266.9999899999996
  0
LINE
  5
3B70
330
A
100
AcDbEntity
  8
0
 62
     7
 48
0.041904
100
AcDbLine
 10
215.85638829813
 20
-124.519566675676
 30
0.0
 11
217.5302322981299
 21
-124.6072896756759
 31
0.0
  0
ARC
  5
3B71
330
A
100
AcDbEntity
  8
0
 62
     7
100
AcDbCircle
 10
217.1399272981301
 20
-124.059293675676
 30
0.0
 40
0.9999689999999999
100
AcDbArc
 50
208.8154949999994
 51
267.0006459999999
  0
LINE
  5
3B72
330
A
100
AcDbEntity
  8
0
 62
     7
 48
0.034234
100
AcDbLine
 10
217.5302322981299
 20
-124.6072896756759
 30
0.0
 11
218.8977092981301
 21
-124.678960675676
 31
0.0
  0
LINE
  5
3B73
330
A
100
AcDbEntity
  8
0
 62
     7
 48
0.025034
100
AcDbLine
 10
217.0876052981301
 20
-125.057889675676
 30
0.0
 11
218.0876052981301
 21
-125.1102956756759
 31
0.0
  0
LINE
  5
3B74
330
A
100
AcDbEntity
  8
0
 62
     7
 48
0.063077
100
AcDbLine
 10
214.43489529813
 20
-123.0216266756759
 30
0.0
 11
214.43489529813
 21
-120.4985636756759
 31
0.0
  0
LINE
  5
3B75
330
A
100
AcDbEntity
  8
0
 62
     7
 48
0.056485
100
AcDbLine
 10
214.43489529813
 20
-120.4985636756759
 30
0.0
 11
215.79054729813
 21
-118.691029675676
 31
0.0
  0
LWPOLYLINE
  5
3B76
330
A
100
AcDbEntity
  8
0
 62
     7
100
AcDbPolyline
 90
       32
 70
     0
 43
0.0
 10
215.79054729813
 20
-118.691029675676
 10
215.7911422981301
 20
-118.6902216756759
 10
215.7914782981301
 20
-118.689748675676
 10
215.79204229813
 20
-118.6889246756759
 10
215.7924082981301
 20
-118.688367675676
 10
215.79425529813
 20
-118.685323675676
 10
215.7961012981301
 20
-118.681866675676
 10
215.7979632981299
 20
-118.677983675676
 10
215.79980929813
 20
-118.6736346756759
 10
215.8016552981298
 20
-118.668790675676
 10
215.8034862981299
 20
-118.663411675676
 10
215.80533329813
 20
-118.657452675676
 10
215.8071792981301
 20
-118.6508766756759
 10
215.8090102981301
 20
-118.6436056756759
 10
215.8108562981301
 20
-118.635594675676
 10
215.8126722981299
 20
-118.6267526756759
 10
215.8145032981301
 20
-118.617009675676
 10
215.8163192981299
 20
-118.606282675676
 10
215.81810429813
 20
-118.594449675676
 10
215.81988929813
 20
-118.581372675676
 10
215.8216292981301
 20
-118.566861675676
 10
215.82336829813
 20
-118.550687675676
 10
215.82506229813
 20
-118.5325826756759
 10
215.8267102981299
 20
-118.5122126756759
 10
215.8282822981301
 20
-118.4892016756758
 10
215.8297772981299
 20
-118.4630406756759
 10
215.83112029813
 20
-118.4333546756759
 10
215.8322642981299
 20
-118.399709675676
 10
215.8331492981301
 20
-118.362309675676
 10
215.83369929813
 20
-118.3216906756759
 10
215.83383629813
 20
-118.300763675676
 10
215.83386629813
 20
-118.279668675676
  0
LWPOLYLINE
  5
3B77
330
A
100
AcDbEntity
  8
0
 62
     7
100
AcDbPolyline
 90
        4
 70
     0
 43
0.0
 10
165.3376652981299
 20
-76.55850767567598
 10
165.38893529813
 20
-77.97272167567601
 10
165.4456992981303
 20
-78.40625367567631
 10
165.5126532981301
 20
-78.55850767567599
  0
LINE
  5
3B78
330
A
100
AcDbEntity
  8
0
 62
     7
 48
0.05
100
AcDbLine
 10
165.99385529813
 20
-83.55850767567632
 30
0.0
 11
165.99385529813
 21
-79.558507675676
 31
0.0
  0
LINE
  5
3B79
330
A
100
AcDbEntity
  8
0
 62
     7
 48
0.000547
100
AcDbLine
 10
165.99385529813
 20
-83.55850767567632
 30
0.0
 11
165.9500932981301
 21
-83.55850767567632
 31
0.0
  0
LWPOLYLINE
  5
3B7A
330
A
100
AcDbEntity
  8
0
 62
     7
100
AcDbPolyline
 90
        4
 70
     0
 43
0.0
 10
165.99385529813
 20
-79.558507675676
 10
165.96822129813
 20
-78.8514136756765
 10
165.93983929813
 20
-78.63461767567632
 10
165.9063612981301
 20
-78.55850767567599
  0
LINE
  5
3B7B
330
A
100
AcDbEntity
  8
0
 62
     7
 48
0.004921
100
AcDbLine
 10
165.9063612981301
 20
-78.55850767567599
 30
0.0
 11
165.5126532981301
 21
-78.55850767567599
 31
0.0
  0
LINE
  5
3B7C
330
A
100
AcDbEntity
  8
0
 62
     7
 48
0.0875
100
AcDbLine
 10
165.3376652981299
 20
-69.558507675676
 30
0.0
 11
165.3376652981299
 21
-76.55850767567598
 31
0.0
  0
LINE
  5
3B7D
330
A
100
AcDbEntity
  8
0
 62
     7
 48
0.175
100
AcDbLine
 10
219.1399432981299
 20
-69.558507675676
 30
0.0
 11
219.1399432981299
 21
-76.55850767567598
 31
0.0
  0
ARC
  5
3B7E
330
A
100
AcDbEntity
  8
0
 62
     7
100
AcDbCircle
 10
220.13994329813
 20
-68.55850767567599
 30
0.0
 40
1.0
100
AcDbArc
 50
180.0000049999988
 51
270.000001
  0
LINE
  5
3B80
330
A
100
AcDbEntity
  8
0
 62
     7
 48
0.064952
100
AcDbLine
 10
165.99385529813
 20
18.441492324324
 30
0.0
 11
27.59190729813021
 21
18.441492324324
 31
0.0
  0
LINE
  5
3B81
330
A
100
AcDbEntity
  8
0
 62
     7
 48
0.069976
100
AcDbLine
 10
21.99383929813021
 20
18.441492324324
 30
0.0
 11
165.99385529813
 21
18.441492324324
 31
0.0
  0
ARC
  5
3B82
330
A
100
AcDbEntity
  8
0
 62
     7
100
AcDbCircle
 10
93.99354929813005
 20
26689.00259032431
 30
0.0
 40
26671.09961
100
AcDbArc
 50
269.85908
 51
270.1469590000005
  0
ARC
  5
3B83
330
A
100
AcDbEntity
  8
0
 62
     7
100
AcDbCircle
 10
93.99383929813021
 20
-1036.981113675675
 30
0.0
 40
1050.362669999999
100
AcDbArc
 50
86.63812899999987
 51
93.36186899999795
  0
LINE
  5
3B84
330
A
100
AcDbEntity
  8
0
 62
     7
100
AcDbLine
 10
150.7720832981299
 20
10.4414923243238
 30
0.0
 11
37.21559529813022
 21
10.4414923243238
 31
0.0
  0
LINE
  5
3B85
330
A
100
AcDbEntity
  8
0
 62
     7
 48
0.069976
100
AcDbLine
 10
27.59190729813021
 20
17.24148032432379
 30
0.0
 11
21.99383929813021
 21
17.24148032432379
 31
0.0
  0
LINE
  5
3B86
330
A
100
AcDbEntity
  8
0
 62
     7
 48
0.058674
100
AcDbLine
 10
22.49383929813021
 20
16.74148032432367
 30
0.0
 11
27.49383929813021
 21
16.74148032432367
 31
0.0
  0
LINE
  5
3B87
330
A
100
AcDbEntity
  8
0
 62
     7
 48
0.058674
100
AcDbLine
 10
21.99383929813021
 20
15.94149232432391
 30
0.0
 11
28.39384929813027
 21
15.941492324324
 31
0.0
  0
LINE
  5
3B88
330
A
100
AcDbEntity
  8
0
 62
     7
 48
0.01
100
AcDbLine
 10
22.49383929813021
 20
16.74148032432367
 30
0.0
 11
22.49383929813021
 21
15.941492324324
 31
0.0
  0
LINE
  5
3B89
330
A
100
AcDbEntity
  8
0
 62
     7
 48
0.00625
100
AcDbLine
 10
23.34383129813036
 20
17.24148032432379
 30
0.0
 11
23.34383129813036
 21
16.74148032432367
 31
0.0
  0
LWPOLYLINE
  5
3B8A
330
A
100
AcDbEntity
  8
0
 62
     7
100
AcDbPolyline
 90
        5
 70
     0
 43
0.0
 10
32.3984272981303
 20
11.574000324324
 10
31.8368272981303
 20
11.494838324324
 10
31.59743129813023
 20
11.40368232432398
 10
31.4758812981303
 20
11.30672832432377
 10
31.42239929813026
 20
11.16265432432401
  0
LINE
  5
3B8B
330
A
100
AcDbEntity
  8
0
 62
     7
 48
0.061264
100
AcDbLine
 10
36.19345529813031
 20
10.04098032432398
 30
0.0
 11
31.42239929813026
 21
11.16265432432401
 31
0.0
  0
ARC
  5
3B8C
330
A
100
AcDbEntity
  8
0
 62
     7
100
AcDbCircle
 10
36.99383929813021
 20
9.441492324324002
 30
0.0
 40
1.0
100
AcDbArc
 50
90.00000300000095
 51
180.0000049999988
  0
LINE
  5
3B8D
330
A
100
AcDbEntity
  8
0
 62
     7
 48
0.061856
100
AcDbLine
 10
37.21559529813022
 20
10.4414923243238
 30
0.0
 11
32.3984272981303
 21
11.574000324324
 31
0.0
  0
LINE
  5
3B8E
330
A
100
AcDbEntity
  8
0
 62
     7
 48
0.002772
100
AcDbLine
 10
36.99383929813021
 20
10.4414923243238
 30
0.0
 11
37.21559529813022
 21
10.4414923243238
 31
0.0
  0
LINE
  5
3B8F
330
A
100
AcDbEntity
  8
0
 62
     7
 48
0.058777
100
AcDbLine
 10
33.0767412981303
 20
18.441492324324
 30
0.0
 11
28.39384929813027
 21
18.01641432432367
 31
0.0
  0
LINE
  5
3B90
330
A
100
AcDbEntity
  8
0
 62
     7
 48
0.01
100
AcDbLine
 10
27.49383929813021
 20
16.74148032432367
 30
0.0
 11
27.49383929813021
 21
15.941492324324
 31
0.0
  0
LINE
  5
3B91
330
A
100
AcDbEntity
  8
0
 62
     7
 48
0.00625
100
AcDbLine
 10
26.64384929813026
 20
17.24148032432379
 30
0.0
 11
26.64384929813026
 21
16.74148032432367
 31
0.0
  0
LINE
  5
3B92
330
A
100
AcDbEntity
  8
0
 62
     7
 48
0.010024
100
AcDbLine
 10
28.39384929813027
 20
17.24148032432379
 30
0.0
 11
27.59190729813021
 21
17.24148032432379
 31
0.0
  0
LINE
  5
3B93
330
A
100
AcDbEntity
  8
0
 62
     7
 48
0.015
100
AcDbLine
 10
27.59190729813021
 20
17.24148032432379
 30
0.0
 11
27.59190729813021
 21
18.441492324324
 31
0.0
  0
LINE
  5
3B94
330
A
100
AcDbEntity
  8
0
 62
     7
 48
0.000415
100
AcDbLine
 10
28.39384929813027
 20
18.01641432432367
 30
0.0
 11
28.39384929813027
 21
17.98324032432367
 31
0.0
  0
LINE
  5
3B95
330
A
100
AcDbEntity
  8
0
 62
     7
 48
0.018726
100
AcDbLine
 10
28.39384929813027
 20
15.941492324324
 30
0.0
 11
28.39384929813027
 21
17.98324032432367
 31
0.0
  0
LINE
  5
3B96
330
A
100
AcDbEntity
  8
0
 62
     7
 48
0.000328
100
AcDbLine
 10
32.78807529813015
 20
18.41527832432389
 30
0.0
 11
32.78807529813015
 21
18.441492324324
 31
0.0
  0
LINE
  5
3B9D
330
A
100
AcDbEntity
  8
0
 62
     7
 48
0.061856
100
AcDbLine
 10
155.5892532981303
 20
11.574000324324
 30
0.0
 11
150.7720832981299
 21
10.4414923243238
 31
0.0
  0
LINE
  5
3B9E
330
A
100
AcDbEntity
  8
0
 62
     7
 48
0.061264
100
AcDbLine
 10
156.5652972981301
 20
11.16265432432401
 30
0.0
 11
151.79423929813
 21
10.04098032432398
 31
0.0
  0
ARC
  5
3BA5
330
A
100
AcDbEntity
  8
0
 62
     7
100
AcDbCircle
 10
150.9938552981302
 20
9.441492324324002
 30
0.0
 40
1.0
100
AcDbArc
 50
0.0
 51
90.00000899999959
  0
LINE
  5
3BA6
330
A
100
AcDbEntity
  8
0
 62
     7
 48
0.002772
100
AcDbLine
 10
150.7720832981299
 20
10.4414923243238
 30
0.0
 11
150.9938552981302
 21
10.4414923243238
 31
0.0
  0
LINE
  5
3BA7
330
A
100
AcDbEntity
  8
0
 62
     7
 48
0.49375
100
AcDbLine
 10
165.9500932981301
 20
-23.55850767567598
 30
0.0
 11
165.9500932981301
 21
16.94628432432398
 31
0.0
  0
LINE
  5
3BA8
330
A
100
AcDbEntity
  8
0
 62
     7
 48
0.0875
100
AcDbLine
 10
165.3376652981299
 20
-30.558507675676
 30
0.0
 11
165.3376652981299
 21
-37.55850767567618
 31
0.0
  0
LINE
  5
3BA9
330
A
100
AcDbEntity
  8
0
 62
     7
 48
0.05
100
AcDbLine
 10
165.99385529813
 20
-27.55850767567619
 30
0.0
 11
165.99385529813
 21
-23.55850767567598
 31
0.0
  0
LWPOLYLINE
  5
3BAA
330
A
100
AcDbEntity
  8
0
 62
     7
100
AcDbPolyline
 90
        8
 70
     0
 43
0.0
 10
165.5126532981301
 20
-28.55850767567599
 10
165.5073432981299
 20
-28.55942167567619
 10
165.50221729813
 20
-28.56207767567602
 10
165.4926952981298
 20
-28.57156767567619
 10
165.4745992981301
 20
-28.60635767567599
 10
165.4352312981302
 20
-28.76492767567651
 10
165.35652529813
 20
-29.65567567567621
 10
165.3376652981299
 20
-30.558507675676
  0
LINE
  5
3BAB
330
A
100
AcDbEntity
  8
0
 62
     7
 48
0.004921
100
AcDbLine
 10
165.9063612981301
 20
-28.55850767567599
 30
0.0
 11
165.5126532981301
 21
-28.55850767567599
 31
0.0
  0
LWPOLYLINE
  5
3BAC
330
A
100
AcDbEntity
  8
0
 62
     7
100
AcDbPolyline
 90
        8
 70
     0
 43
0.0
 10
165.9063612981301
 20
-28.55850767567599
 10
165.9084972981301
 20
-28.558201675676
 10
165.91063329813
 20
-28.55728567567601
 10
165.9149372981299
 20
-28.55368567567619
 10
165.9225052981301
 20
-28.54132567567599
 10
165.95012329813
 20
-28.42441167567598
 10
165.9908652981299
 20
-27.8170816756762
 10
165.99385529813
 20
-27.55850767567619
  0
LINE
  5
3BAD
330
A
100
AcDbEntity
  8
0
 62
     7
 48
0.000547
100
AcDbLine
 10
165.99385529813
 20
-23.55850767567598
 30
0.0
 11
165.9500932981301
 21
-23.55850767567598
 31
0.0
  0
LINE
  5
3BAE
330
A
100
AcDbEntity
  8
0
 62
     7
 48
0.175
100
AcDbLine
 10
219.1399432981299
 20
-30.558507675676
 30
0.0
 11
219.1399432981299
 21
-37.55850767567599
 31
0.0
  0
ARC
  5
3BAF
330
A
100
AcDbEntity
  8
0
 62
     7
100
AcDbCircle
 10
220.13994329813
 20
-38.55850767567599
 30
0.0
 40
1.0
100
AcDbArc
 50
90.00000299999992
 51
180.0000049999988
  0
LWPOLYLINE
  5
3BB0
330
A
100
AcDbEntity
  8
0
 62
     7
100
AcDbPolyline
 90
        5
 70
     0
 43
0.0
 10
155.5892532981303
 20
11.574000324324
 10
156.1508672981303
 20
11.494838324324
 10
156.39024729813
 20
11.40368232432398
 10
156.51179929813
 20
11.30672832432377
 10
156.5652972981301
 20
11.16265432432401
  0
LWPOLYLINE
  5
3BB1
330
A
100
AcDbEntity
  8
0
 62
     7
100
AcDbPolyline
 90
        4
 70
     0
 43
0.0
 10
162.3966872981299
 20
17.99026032432391
 10
163.3634532981302
 20
18.01217232432392
 10
163.6766552981301
 20
18.03487632432389
 10
163.8176152981299
 20
18.06194632432379
  0
ARC
  5
3BB2
330
A
100
AcDbEntity
  8
0
 62
     7
100
AcDbCircle
 10
164.4548852981299
 20
16.94570432432399
 30
0.0
 40
1.495387999999999
100
AcDbArc
 50
0.0218919999995082
 51
90.13967299999919
  0
LINE
  5
3BB3
330
A
100
AcDbEntity
  8
0
 62
     7
 48
0.009299
100
AcDbLine
 10
165.9500932981301
 20
16.94628432432398
 30
0.0
 11
165.3119092981301
 21
16.56399032432401
 31
0.0
  0
LINE
  5
3BB4
330
A
100
AcDbEntity
  8
0
 62
     7
 48
0.009233
100
AcDbLine
 10
164.4512532981303
 20
18.441492324324
 30
0.0
 11
163.8176152981299
 21
18.06194632432379
 31
0.0
  0
LWPOLYLINE
  5
3BB5
330
A
100
AcDbEntity
  8
0
 62
     7
100
AcDbPolyline
 90
       10
 70
     0
 43
0.0
 10
165.3119092981301
 20
16.56399032432401
 10
165.2905772981299
 20
16.80959632432399
 10
165.2293592981301
 20
17.0485483243238
 10
165.1298712981299
 20
17.2745323243239
 10
164.9948312981301
 20
17.48122632432398
 10
164.8279012981302
 20
17.66311232432379
 10
164.6335652981301
 20
17.81518032432389
 10
164.41722529813
 20
17.93331432432379
 10
164.1846512981298
 20
18.0143683243238
 10
163.8176152981299
 20
18.06194632432379
  0
LINE
  5
3BB6
330
A
100
AcDbEntity
  8
0
 62
     7
 48
0.075576
100
AcDbLine
 10
214.43489529813
 20
13.38155632432398
 30
0.0
 11
214.43489529813
 21
16.40461232432391
 31
0.0
  0
LWPOLYLINE
  5
3BB7
330
A
100
AcDbEntity
  8
0
 62
     7
100
AcDbPolyline
 90
       28
 70
     0
 43
0.0
 10
215.79054729813
 20
11.57401532432399
 10
215.7911422981301
 20
11.5732063243239
 10
215.7916302981301
 20
11.572504324324
 10
215.79219529813
 20
11.57168032432397
 10
215.79272929813
 20
11.57085632432391
 10
215.7948962981301
 20
11.56716432432398
 10
215.7970782981301
 20
11.56289132432397
 10
215.7992442981301
 20
11.5579933243239
 10
215.8014112981299
 20
11.55242432432399
 10
215.8035782981301
 20
11.54613732432391
 10
215.80572929813
 20
11.539057324324
 10
215.80789629813
 20
11.5310923243239
 10
215.8100472981301
 20
11.522150324324
 10
215.8121992981301
 20
11.512140324324
 10
215.8143352981301
 20
11.500879324324
 10
215.8164712981299
 20
11.48827632432397
 10
215.81857729813
 20
11.474146324324
 10
215.8206522981299
 20
11.45824632432389
 10
215.8226972981299
 20
11.44021132432399
 10
215.8246962981301
 20
11.41967232432391
 10
215.82663429813
 20
11.39614332432389
 10
215.8284802981299
 20
11.36896732432389
 10
215.8302042981298
 20
11.3373663243239
 10
215.8317002981299
 20
11.30077632432397
 10
215.83287529813
 20
11.25867732432399
 10
215.8336222981299
 20
11.21190932432391
 10
215.8338052981299
 20
11.18740332432391
 10
215.83386629813
 20
11.16265332432399
  0
LINE
  5
3BB8
330
A
100
AcDbEntity
  8
0
 62
     7
 48
0.056486
100
AcDbLine
 10
215.79054729813
 20
11.57401532432399
 30
0.0
 11
214.43489529813
 21
13.38155632432398
 31
0.0
  0
LINE
  5
3BB9
330
A
100
AcDbEntity
  8
0
 62
     7
 48
0.041904
100
AcDbLine
 10
215.85638829813
 20
17.90255232432399
 30
0.0
 11
217.5302322981299
 21
17.99027532432401
 31
0.0
  0
ARC
  5
3BBA
330
A
100
AcDbEntity
  8
0
 62
     7
100
AcDbCircle
 10
215.9348952981301
 20
16.40461232432391
 30
0.0
 40
1.5
100
AcDbArc
 50
93.00001299999994
 51
180.0000049999988
  0
LINE
  5
3BBB
330
A
100
AcDbEntity
  8
0
 62
     7
 48
0.034234
100
AcDbLine
 10
217.5302322981299
 20
17.99027532432401
 30
0.0
 11
218.8977092981301
 21
18.0619453243239
 31
0.0
  0
LINE
  5
3BBC
330
A
100
AcDbEntity
  8
0
 62
     7
 48
0.112598
100
AcDbLine
 10
407.2359662981301
 20
-64.646245675676
 30
0.0
 11
408.1399582981301
 21
-69.05850767567599
 31
0.0
  0
LINE
  5
3BBD
330
A
100
AcDbEntity
  8
0
 62
     7
100
AcDbLine
 10
226.6399432981301
 20
-125.558507675676
 30
0.0
 11
226.6399432981301
 21
18.441492324324
 31
0.0
  0
LINE
  5
3BBE
330
A
100
AcDbEntity
  8
0
 62
     7
100
AcDbLine
 10
238.1399432981301
 20
-125.558507675676
 30
0.0
 11
238.1399432981301
 21
18.441492324324
 31
0.0
  0
LINE
  5
3BBF
330
A
100
AcDbEntity
  8
0
 62
     7
100
AcDbLine
 10
365.4399462981301
 20
-121.614148675676
 30
0.0
 11
365.4399462981301
 21
-42.558507675676
 31
0.0
  0
LINE
  5
3BC0
330
A
100
AcDbEntity
  8
0
 62
     7
 48
0.375
100
AcDbLine
 10
392.9399462981301
 20
-90.45850867567599
 30
0.0
 11
392.9399462981301
 21
-49.558507675676
 31
0.0
  0
LINE
  5
3BC1
330
A
100
AcDbEntity
  8
0
 62
     7
100
AcDbLine
 10
388.1399582981301
 20
-49.558507675676
 30
0.0
 11
388.1399582981301
 21
-90.45850867567599
 31
0.0
  0
LINE
  5
3BC2
330
A
100
AcDbEntity
  8
0
 62
     7
100
AcDbLine
 10
365.4399462981301
 20
-121.614148675676
 30
0.0
 11
238.1399432981301
 21
-122.058507675676
 31
0.0
  0
LINE
  5
3BC4
330
A
100
AcDbEntity
  8
0
 62
     7
100
AcDbLine
 10
226.13994329813
 20
-83.558507675676
 30
0.0
 11
226.13994329813
 21
-125.0585076756759
 31
0.0
  0
LINE
  5
3BC5
330
A
100
AcDbEntity
  8
0
 62
     7
 48
0.0875
100
AcDbLine
 10
239.1399432981301
 20
-113.058507675676
 30
0.0
 11
239.1399432981301
 21
-109.558507675676
 31
0.0
  0
LINE
  5
3BC6
330
A
100
AcDbEntity
  8
0
 62
     7
 48
0.0875
100
AcDbLine
 10
248.1399432981301
 20
-109.558507675676
 30
0.0
 11
248.1399432981301
 21
-113.058507675676
 31
0.0
  0
LINE
  5
3BC7
330
A
100
AcDbEntity
  8
0
 62
     7
 48
0.2875
100
AcDbLine
 10
238.1399432981301
 20
-125.558507675676
 30
0.0
 11
226.6399432981301
 21
-125.558507675676
 31
0.0
  0
LINE
  5
3BC8
330
A
100
AcDbEntity
  8
0
 62
     7
 48
0.2875
100
AcDbLine
 10
238.1399432981301
 20
-124.558507675676
 30
0.0
 11
226.6399432981301
 21
-124.558507675676
 31
0.0
  0
LINE
  5
3BCF
330
A
100
AcDbEntity
  8
0
 62
     7
 48
0.225
100
AcDbLine
 10
248.1399432981301
 20
-113.058507675676
 30
0.0
 11
239.1399432981301
 21
-113.058507675676
 31
0.0
  0
LINE
  5
3BD5
330
A
100
AcDbEntity
  8
0
 62
     7
 48
0.225
100
AcDbLine
 10
239.1399432981301
 20
-109.558507675676
 30
0.0
 11
248.1399432981301
 21
-109.558507675676
 31
0.0
  0
LINE
  5
3BD6
330
A
100
AcDbEntity
  8
0
 62
     7
 48
0.225
100
AcDbLine
 10
248.1399432981301
 20
-103.558507675676
 30
0.0
 11
239.1399432981301
 21
-103.558507675676
 31
0.0
  0
LINE
  5
3BD7
330
A
100
AcDbEntity
  8
0
 62
     7
 48
0.225
100
AcDbLine
 10
239.1399432981301
 20
-107.0585076756759
 30
0.0
 11
248.1399432981301
 21
-107.0585076756759
 31
0.0
  0
LINE
  5
3BD8
330
A
100
AcDbEntity
  8
0
 62
     7
 48
0.0875
100
AcDbLine
 10
239.1399432981301
 20
-107.0585076756759
 30
0.0
 11
239.1399432981301
 21
-103.558507675676
 31
0.0
  0
LINE
  5
3BD9
330
A
100
AcDbEntity
  8
0
 62
     7
 48
0.0875
100
AcDbLine
 10
248.1399432981301
 20
-103.558507675676
 30
0.0
 11
248.1399432981301
 21
-107.0585076756759
 31
0.0
  0
LINE
  5
3BDA
330
A
100
AcDbEntity
  8
0
 62
     7
 48
0.1
100
AcDbLine
 10
226.6399432981301
 20
-83.558507675676
 30
0.0
 11
226.6399432981301
 21
-79.558507675676
 31
0.0
  0
LINE
  5
3BDB
330
A
100
AcDbEntity
  8
0
 62
     7
 48
0.0125
100
AcDbLine
 10
226.6399432981301
 20
-83.558507675676
 30
0.0
 11
226.13994329813
 21
-83.558507675676
 31
0.0
  0
LINE
  5
3BDC
330
A
100
AcDbEntity
  8
0
 62
     7
 48
0.1125
100
AcDbLine
 10
225.6399432981301
 20
-78.55850767567599
 30
0.0
 11
221.1399432981301
 21
-78.55850767567599
 31
0.0
  0
ARC
  5
3BDD
330
A
100
AcDbEntity
  8
0
 62
     7
100
AcDbCircle
 10
225.6399432981301
 20
-79.558507675676
 30
0.0
 40
1.0
100
AcDbArc
 50
0.0
 51
90.00000299999992
  0
ARC
  5
3BDE
330
A
100
AcDbEntity
  8
0
 62
     7
100
AcDbCircle
 10
225.6399432981301
 20
-70.558507675676
 30
0.0
 40
1.0
100
AcDbArc
 50
0.0
 51
90.00000299999992
  0
LINE
  5
3BDF
330
A
100
AcDbEntity
  8
0
 62
     7
 48
0.103105
100
AcDbLine
 10
401.3399392981301
 20
-111.4085056756759
 30
0.0
 11
401.3399392981301
 21
-115.7085086669492
 31
0.0
  0
LINE
  5
3BE0
330
A
100
AcDbEntity
  8
0
 62
     7
 48
0.127083
100
AcDbLine
 10
400.8399392981301
 20
-110.908505675676
 30
0.0
 11
400.8399393068566
 21
-116.208508675676
 31
0.0
  0
LINE
  5
3BE1
330
A
100
AcDbEntity
  8
0
 62
     7
 48
0.3275
100
AcDbLine
 10
399.3399392981299
 20
-92.458508675676
 30
0.0
 11
399.3399392981299
 21
-117.058507675676
 31
0.0
  0
LINE
  5
3BE2
330
A
100
AcDbEntity
  8
0
 62
     7
100
AcDbLine
 10
389.6399582981301
 20
-116.058507675676
 30
0.0
 11
389.6399582981301
 21
-94.958508675676
 31
0.0
  0
LINE
  5
3BE3
330
A
100
AcDbEntity
  8
0
 62
     7
100
AcDbLine
 10
377.1399582981301
 20
-88.058507675676
 30
0.0
 11
377.1399582981301
 21
-117.058507675676
 31
0.0
  0
LINE
  5
3BE4
330
A
100
AcDbEntity
  8
0
 62
     7
100
AcDbLine
 10
408.1399582981301
 20
-114.5585076756759
 30
0.0
 11
408.1399582981301
 21
-69.05850767567599
 31
0.0
  0
LINE
  5
3BE5
330
A
100
AcDbEntity
  8
0
 62
     7
 48
0.2925
100
AcDbLine
 10
365.4399462981301
 20
-117.058507675676
 30
0.0
 11
399.3399392981299
 21
-117.058507675676
 31
0.0
  0
LINE
  5
3BE6
330
A
100
AcDbEntity
  8
0
 62
     7
100
AcDbLine
 10
365.4399462981298
 20
-118.058507675676
 30
0.0
 11
387.1399582981301
 21
-118.058507675676
 31
0.0
  0
LINE
  5
3BE9
330
A
100
AcDbEntity
  8
0
 62
     7
 48
0.0375
100
AcDbLine
 10
400.8399392981301
 20
-116.208508675676
 30
0.0
 11
399.3399392981299
 21
-116.208508675676
 31
0.0
  0
ARC
  5
3BEA
330
A
100
AcDbEntity
  8
0
 62
     7
100
AcDbCircle
 10
387.1399582981301
 20
-117.058507675676
 30
0.0
 40
1.0
100
AcDbArc
 50
270.000001
 51
0.0000100000010064
  0
ARC
  5
3BEB
330
A
100
AcDbEntity
  8
0
 62
     7
100
AcDbCircle
 10
390.6399582981301
 20
-116.058507675676
 30
0.0
 40
1.0
100
AcDbArc
 50
180.0000049999988
 51
270.000001
  0
LINE
  5
3BEC
330
A
100
AcDbEntity
  8
0
 62
     7
 48
0.1575
100
AcDbLine
 10
401.3399392981301
 20
-114.5585076756759
 30
0.0
 11
408.1399582981301
 21
-114.5585076756759
 31
0.0
  0
ARC
  5
3BED
330
A
100
AcDbEntity
  8
0
 62
     7
100
AcDbCircle
 10
400.8399392981301
 20
-115.708508675676
 30
0.0
 40
0.5
100
AcDbArc
 50
270.000001
 51
0.000000999999775
  0
LINE
  5
3BEE
330
A
100
AcDbEntity
  8
0
 62
     7
100
AcDbLine
 10
398.1399582981301
 20
-90.45850867567599
 30
0.0
 11
377.1399582981301
 21
-90.45850867567599
 31
0.0
  0
LINE
  5
3BEF
330
A
100
AcDbEntity
  8
0
 62
     7
100
AcDbLine
 10
365.4399462981301
 20
-87.058507675676
 30
0.0
 11
387.1399582981301
 21
-87.058507675676
 31
0.0
  0
LINE
  5
3BF0
330
A
100
AcDbEntity
  8
0
 62
     7
 48
0.2925
100
AcDbLine
 10
365.4399462981301
 20
-88.058507675676
 30
0.0
 11
377.1399582981301
 21
-88.058507675676
 31
0.0
  0
LINE
  5
3BF1
330
A
100
AcDbEntity
  8
0
 62
     7
 48
0.025
100
AcDbLine
 10
366.4399462981299
 20
-87.05855367567613
 30
0.0
 11
366.4399462981299
 21
-88.05855367567613
 31
0.0
  0
LINE
  5
3BF2
330
A
100
AcDbEntity
  8
0
 62
     7
 48
0.0375
100
AcDbLine
 10
400.8399392981301
 20
-110.908505675676
 30
0.0
 11
399.3399392981299
 21
-110.908505675676
 31
0.0
  0
LINE
  5
3BF3
330
A
100
AcDbEntity
  8
0
 62
     7
 48
0.25
100
AcDbLine
 10
398.3399392981299
 20
-92.458508675676
 30
0.0
 11
398.3399393068563
 21
-103.9585086756759
 31
0.0
  0
LINE
  5
3BF4
330
A
100
AcDbEntity
  8
0
 62
     7
 48
0.2875
100
AcDbLine
 10
397.8399392981301
 20
-91.958508675676
 30
0.0
 11
397.8399392981301
 21
-103.458508675676
 31
0.0
  0
LINE
  5
3BF5
330
A
100
AcDbEntity
  8
0
 62
     7
 48
0.336456
100
AcDbLine
 10
398.1399582981301
 20
-90.45850867567599
 30
0.0
 11
398.1399582981301
 21
-103.916768675676
 31
0.0
  0
LINE
  5
3BF6
330
A
100
AcDbEntity
  8
0
 62
     7
 48
0.025
100
AcDbLine
 10
398.3399392981299
 20
-103.458508675676
 30
0.0
 11
399.3399392981299
 21
-103.458508675676
 31
0.0
  0
LINE
  5
3BF7
330
A
100
AcDbEntity
  8
0
 62
     7
 48
0.025
100
AcDbLine
 10
398.3399392981299
 20
-103.9585086756759
 30
0.0
 11
399.3399392981299
 21
-103.9585086756759
 31
0.0
  0
ARC
  5
3BF8
330
A
100
AcDbEntity
  8
0
 62
     7
100
AcDbCircle
 10
398.3399392981299
 20
-103.458508675676
 30
0.0
 40
0.5
100
AcDbArc
 50
180.0000049999988
 51
270.000001
  0
ARC
  5
3BF9
330
A
100
AcDbEntity
  8
0
 62
     7
100
AcDbCircle
 10
393.6399582981301
 20
-94.958508675676
 30
0.0
 40
4.0
100
AcDbArc
 50
90.00000299999992
 51
180.0000049999988
  0
ARC
  5
3BFA
330
A
100
AcDbEntity
  8
0
 62
     7
100
AcDbCircle
 10
394.1399582981301
 20
-94.458508675676
 30
0.0
 40
1.5
100
AcDbArc
 50
0.0
 51
180.0000049999988
  0
CIRCLE
  5
3BFB
330
A
100
AcDbEntity
  8
0
 62
     7
100
AcDbCircle
 10
394.1399582981301
 20
-94.458508675676
 30
0.0
 40
1.199999999999999
  0
CIRCLE
  5
3BFC
330
A
100
AcDbEntity
  8
0
 62
     7
100
AcDbCircle
 10
394.1399582981301
 20
-94.458508675676
 30
0.0
 40
1.5
  0
ARC
  5
3BFD
330
A
100
AcDbEntity
  8
0
 62
     7
100
AcDbCircle
 10
394.1399582981301
 20
-98.458508675676
 30
0.0
 40
1.5
100
AcDbArc
 50
180.0000049999988
 51
0.0
  0
LINE
  5
3BFE
330
A
100
AcDbEntity
  8
0
 62
     7
 48
0.1
100
AcDbLine
 10
392.6399582981301
 20
-94.458508675676
 30
0.0
 11
392.6399582981301
 21
-98.458508675676
 31
0.0
  0
LINE
  5
3BFF
330
A
100
AcDbEntity
  8
0
 62
     7
 48
0.1
100
AcDbLine
 10
395.6399582981301
 20
-98.458508675676
 30
0.0
 11
395.6399582981301
 21
-94.458508675676
 31
0.0
  0
LINE
  5
3C00
330
A
100
AcDbEntity
  8
0
 62
     7
 48
0.08
100
AcDbLine
 10
393.6399582981301
 20
-90.958508675676
 30
0.0
 11
396.8399392981299
 21
-90.958508675676
 31
0.0
  0
LINE
  5
3C01
330
A
100
AcDbEntity
  8
0
 62
     7
 48
0.025
100
AcDbLine
 10
398.3399392981299
 20
-92.458508675676
 30
0.0
 11
399.3399392981299
 21
-92.458508675676
 31
0.0
  0
LINE
  5
3C02
330
A
100
AcDbEntity
  8
0
 62
     7
 48
0.025
100
AcDbLine
 10
398.3399392981299
 20
-93.458508675676
 30
0.0
 11
399.3399392981299
 21
-93.458508675676
 31
0.0
  0
ARC
  5
3C03
330
A
100
AcDbEntity
  8
0
 62
     7
100
AcDbCircle
 10
396.8399392981299
 20
-91.958508675676
 30
0.0
 40
1.0
100
AcDbArc
 50
0.0
 51
90.00000299999992
  0
ARC
  5
3C04
330
A
100
AcDbEntity
  8
0
 62
     7
100
AcDbCircle
 10
400.8399392981301
 20
-111.4085056756759
 30
0.0
 40
0.5
100
AcDbArc
 50
0.0000100000010064
 51
90.00000299999992
  0
ARC
  5
3C05
330
A
100
AcDbEntity
  8
0
 62
     7
100
AcDbCircle
 10
387.1399582981301
 20
-86.058507675676
 30
0.0
 40
1.0
100
AcDbArc
 50
270.000001
 51
0.0
  0
LINE
  5
3C06
330
A
100
AcDbEntity
  8
0
 62
     7
100
AcDbLine
 10
391.1399582981301
 20
14.40741932432399
 30
0.0
 11
238.1399432981301
 21
14.941492324324
 31
0.0
  0
LINE
  5
3C08
330
A
100
AcDbEntity
  8
0
 62
     7
100
AcDbLine
 10
226.13994329813
 20
-23.55850767567598
 30
0.0
 11
226.1398512981299
 21
18.41527832432389
 31
0.0
  0
ARC
  5
3C09
330
A
100
AcDbEntity
  8
0
 62
     7
100
AcDbCircle
 10
225.6399432981301
 20
-36.55850767567599
 30
0.0
 40
1.0
100
AcDbArc
 50
270.000001
 51
0.0
  0
LINE
  5
3C0A
330
A
100
AcDbEntity
  8
0
 62
     7
 48
0.1
100
AcDbLine
 10
226.6399432981301
 20
-27.55850767567598
 30
0.0
 11
226.6399432981301
 21
-23.55850767567598
 31
0.0
  0
LINE
  5
3C0B
330
A
100
AcDbEntity
  8
0
 62
     7
 48
0.1125
100
AcDbLine
 10
225.6399432981301
 20
-28.55850767567599
 30
0.0
 11
221.1399432981301
 21
-28.55850767567599
 31
0.0
  0
ARC
  5
3C0C
330
A
100
AcDbEntity
  8
0
 62
     7
100
AcDbCircle
 10
225.6399432981301
 20
-27.55850767567598
 30
0.0
 40
1.0
100
AcDbArc
 50
270.000001
 51
0.0
  0
LINE
  5
3C0D
330
A
100
AcDbEntity
  8
0
 62
     7
 48
0.0125
100
AcDbLine
 10
226.6399432981301
 20
-23.55850767567598
 30
0.0
 11
226.13994329813
 21
-23.55850767567598
 31
0.0
  0
LINE
  5
3C0E
330
A
100
AcDbEntity
  8
0
 62
     7
 48
0.2875
100
AcDbLine
 10
238.1399432981301
 20
18.441492324324
 30
0.0
 11
226.6399432981301
 21
18.441492324324
 31
0.0
  0
LINE
  5
3C0F
330
A
100
AcDbEntity
  8
0
 62
     7
 48
0.2875
100
AcDbLine
 10
238.1399432981301
 20
17.44149232432399
 30
0.0
 11
226.6399432981301
 21
17.44149232432399
 31
0.0
  0
LINE
  5
3C10
330
A
100
AcDbEntity
  8
0
 62
     7
 48
0.012519
100
AcDbLine
 10
226.1398512981299
 20
18.41527832432389
 30
0.0
 11
226.6399432981301
 21
18.441492324324
 31
0.0
  0
LINE
  5
3C1B
330
A
100
AcDbEntity
  8
0
 62
     7
100
AcDbLine
 10
391.1399582981301
 20
14.40741932432399
 30
0.0
 11
391.1399582981301
 21
-42.46880067567602
 31
0.0
  0
LINE
  5
3C1C
330
A
100
AcDbEntity
  8
0
 62
     7
100
AcDbLine
 10
387.1399582981301
 20
-48.55850767567599
 30
0.0
 11
365.4399462981301
 21
-48.55850767567599
 31
0.0
  0
LINE
  5
3C1D
330
A
100
AcDbEntity
  8
0
 62
     7
100
AcDbLine
 10
365.4399462981301
 20
-42.558507675676
 30
0.0
 11
391.1399582981301
 21
-42.46880067567602
 31
0.0
  0
LINE
  5
3C1E
330
A
100
AcDbEntity
  8
0
 62
     7
 48
0.199007
100
AcDbLine
 10
393.9399462981301
 20
-48.55850767567599
 30
0.0
 11
401.9002122981301
 21
-48.55850767567599
 31
0.0
  0
LINE
  5
3C1F
330
A
100
AcDbEntity
  8
0
 62
     7
 48
0.12
100
AcDbLine
 10
388.1399582981301
 20
-49.558507675676
 30
0.0
 11
392.9399462981301
 21
-49.558507675676
 31
0.0
  0
LINE
  5
3C20
330
A
100
AcDbEntity
  8
0
 62
     7
 48
0.17
100
AcDbLine
 10
387.1399582981301
 20
-48.55850767567599
 30
0.0
 11
393.9399462981301
 21
-48.55850767567599
 31
0.0
  0
ARC
  5
3C21
330
A
100
AcDbEntity
  8
0
 62
     7
100
AcDbCircle
 10
387.1399582981301
 20
-49.558507675676
 30
0.0
 40
1.0
100
AcDbArc
 50
0.0
 51
90.00000299999992
  0
ARC
  5
3C22
330
A
100
AcDbEntity
  8
0
 62
     7
100
AcDbCircle
 10
393.9399462981301
 20
-49.558507675676
 30
0.0
 40
1.0
100
AcDbArc
 50
90.00000299999992
 51
180.0000049999988
  0
ARC
  5
3C23
330
A
100
AcDbEntity
  8
0
 62
     7
100
AcDbCircle
 10
397.9399462981301
 20
-50.558507675676
 30
0.0
 40
2.0
100
AcDbArc
 50
89.94994400000001
 51
90.00000299999992
  0
LINE
  5
3C24
330
A
100
AcDbEntity
  8
0
 62
     7
 48
0.359554
100
AcDbLine
 10
407.2359662981301
 20
-64.646245675676
 30
0.0
 11
404.3493392981301
 21
-50.55673767567601
 31
0.0
  0
ARC
  5
3C25
330
A
100
AcDbEntity
  8
0
 62
     7
100
AcDbCircle
 10
401.9002122981301
 20
-51.05850767567599
 30
0.0
 40
2.5
100
AcDbArc
 50
11.57842099999986
 51
90.00000299999992
  0
ARC
  5
3C28
330
A
100
AcDbEntity
  8
0
  6
DASHED
 62
     4
100
AcDbCircle
 10
355.1399582981299
 20
-121.7582596756759
 30
0.0
 40
8.0
100
AcDbArc
 50
180.199993
 51
0.2
  0
ARC
  5
3C29
330
A
100
AcDbEntity
  8
0
  6
DASHED
 62
     4
100
AcDbCircle
 10
248.1399582981301
 20
-122.1317646756759
 30
0.0
 40
8.0
100
AcDbArc
 50
180.199993
 51
0.2
  0
LINE
  5
3C2A
330
A
100
AcDbEntity
  8
0
  6
DASHED
 62
     4
100
AcDbLine
 10
391.1399582981301
 20
21.60746332432397
 30
0.0
 11
235.1399582981301
 21
22.15200332432397
 31
0.0
  0
LINE
  5
3C2B
330
A
100
AcDbEntity
  8
0
  6
DASHED
 62
     4
 48
0.174914
100
AcDbLine
 10
235.1399582981301
 20
22.15200332432397
 30
0.0
 11
235.1399582981301
 21
29.14855532432397
 31
0.0
  0
LINE
  5
3C2C
330
A
100
AcDbEntity
  8
0
  6
DASHED
 62
     4
 48
0.112501
100
AcDbLine
 10
239.6399582981301
 20
20.93629032432397
 30
0.0
 11
235.1399582981301
 21
20.95199132432394
 31
0.0
  0
LINE
  5
3C2D
330
A
100
AcDbEntity
  8
0
  6
DASHED
 62
     4
 48
0.03
100
AcDbLine
 10
235.1399582981301
 20
22.15200332432397
 30
0.0
 11
235.1399582981301
 21
20.95199132432394
 31
0.0
  0
LINE
  5
3C2E
330
A
100
AcDbEntity
  8
0
  6
DASHED
 62
     4
 48
0.167501
100
AcDbLine
 10
239.6399582981301
 20
15.43625932432388
 30
0.0
 11
239.6399582981301
 21
22.13630232432386
 31
0.0
  0
LINE
  5
3C2F
330
A
100
AcDbEntity
  8
0
  6
DASHED
 62
     4
100
AcDbLine
 10
260.14345329813
 20
30.06478432432388
 30
0.0
 11
236.14345329813
 21
30.14855532432398
 31
0.0
  0
ARC
  5
3C30
330
A
100
AcDbEntity
  8
0
  6
DASHED
 62
     4
100
AcDbCircle
 10
236.1399582981301
 20
29.14855532432397
 30
0.0
 40
1.0
100
AcDbArc
 50
89.80000099999998
 51
180.000005
  0
LINE
  5
3C31
330
A
100
AcDbEntity
  8
0
  6
DASHED
 62
     4
100
AcDbLine
 10
364.1434682981301
 20
29.70174732432397
 30
0.0
 11
262.1434532981301
 21
30.05779532432395
 31
0.0
  0
LINE
  5
3C32
330
A
100
AcDbEntity
  8
0
  6
DASHED
 62
     4
 48
0.172645
100
AcDbLine
 10
261.1399582981301
 20
22.15200332432397
 30
0.0
 11
261.1399582981301
 21
29.05779532432386
 31
0.0
  0
ARC
  5
3C33
330
A
100
AcDbEntity
  8
0
  6
DASHED
 62
     4
100
AcDbCircle
 10
262.1399582981301
 20
29.05779532432386
 30
0.0
 40
1.0
100
AcDbArc
 50
89.80000099999998
 51
180.000005
  0
ARC
  5
3C34
330
A
100
AcDbEntity
  8
0
  6
DASHED
 62
     4
100
AcDbCircle
 10
260.1399582981301
 20
29.06478432432395
 30
0.0
 40
1.0
100
AcDbArc
 50
0.0
 51
89.80000099999998
  0
LINE
  5
3C35
330
A
100
AcDbEntity
  8
0
  6
DASHED
 62
     4
100
AcDbLine
 10
391.1399582981301
 20
14.90742032432388
 30
0.0
 11
239.6399582981301
 21
15.43625932432388
 31
0.0
  0
LINE
  5
3C36
330
A
100
AcDbEntity
  8
0
  6
DASHED
 62
     4
 48
0.177183
100
AcDbLine
 10
365.1399582981298
 20
21.60746332432397
 30
0.0
 11
365.1399582981298
 21
28.69477432432395
 31
0.0
  0
LINE
  5
3C37
330
A
100
AcDbEntity
  8
0
  6
DASHED
 62
     4
 48
0.175088
100
AcDbLine
 10
391.1399582981301
 20
21.60746332432397
 30
0.0
 11
391.1399582981301
 21
28.61098832432398
 31
0.0
  0
LINE
  5
3C38
330
A
100
AcDbEntity
  8
0
  6
DASHED
 62
     4
 48
0.180001
100
AcDbLine
 10
391.1399582981301
 20
14.40742032432396
 30
0.0
 11
391.1399582981301
 21
21.60746332432397
 31
0.0
  0
LINE
  5
3C39
330
A
100
AcDbEntity
  8
0
  6
DASHED
 62
     4
100
AcDbLine
 10
390.1434682981301
 20
29.61098832432398
 30
0.0
 11
366.1434682981301
 21
29.69475832432387
 31
0.0
  0
ARC
  5
3C3A
330
A
100
AcDbEntity
  8
0
  6
DASHED
 62
     4
100
AcDbCircle
 10
364.1399582981301
 20
28.70174732432388
 30
0.0
 40
1.0
100
AcDbArc
 50
0.0
 51
89.80000099999998
  0
ARC
  5
3C3B
330
A
100
AcDbEntity
  8
0
  6
DASHED
 62
     4
100
AcDbCircle
 10
366.1399582981301
 20
28.69477432432395
 30
0.0
 40
1.0
100
AcDbArc
 50
89.80000099999998
 51
180.000005
  0
ARC
  5
3C3C
330
A
100
AcDbEntity
  8
0
  6
DASHED
 62
     4
100
AcDbCircle
 10
390.1399582981298
 20
28.61098832432398
 30
0.0
 40
1.0
100
AcDbArc
 50
0.0
 51
89.80000099999998
  0
LINE
  5
3C3D
330
A
100
AcDbEntity
  8
0
  6
DASHED
 62
     4
100
AcDbLine
 10
124.10129329813
 20
22.1414903243241
 30
0.0
 11
63.70129929813018
 21
22.1414903243241
 31
0.0
  0
LINE
  5
3C3E
330
A
100
AcDbEntity
  8
0
  6
DASHED
 62
     4
100
AcDbLine
 10
123.9012962981302
 20
20.94149332432401
 30
0.0
 11
63.90129629813019
 21
20.94149332432401
 31
0.0
  0
ARC
  5
3C3F
330
A
100
AcDbEntity
  8
0
  6
DASHED
 62
     4
100
AcDbCircle
 10
63.70129929813018
 20
21.14149032432401
 30
0.0
 40
1.0
100
AcDbArc
 50
90.00000300000001
 51
180.000005
  0
LINE
  5
3C40
330
A
100
AcDbEntity
  8
0
  6
DASHED
 62
     4
 48
0.0675
100
AcDbLine
 10
62.70129929813021
 20
21.14149032432401
 30
0.0
 11
62.70129929813021
 21
18.44149332432411
 31
0.0
  0
LINE
  5
3C41
330
A
100
AcDbEntity
  8
0
  6
DASHED
 62
     4
 48
0.0625
100
AcDbLine
 10
64.90129629813019
 20
20.94149332432401
 30
0.0
 11
64.90129629813019
 21
18.44149332432411
 31
0.0
  0
LINE
  5
3C42
330
A
100
AcDbEntity
  8
0
  6
DASHED
 62
     4
 48
0.0625
100
AcDbLine
 10
63.90129629813019
 20
20.94149332432401
 30
0.0
 11
63.90129629813019
 21
18.44149332432411
 31
0.0
  0
LINE
  5
3C43
330
A
100
AcDbEntity
  8
0
  6
DASHED
 62
     4
 48
0.175
100
AcDbLine
 10
103.9012962457702
 20
29.14149032432405
 30
0.0
 11
103.9012962457702
 21
22.14149032432402
 31
0.0
  0
LINE
  5
3C44
330
A
100
AcDbEntity
  8
0
  6
DASHED
 62
     4
 48
0.175
100
AcDbLine
 10
83.90129624577033
 20
29.14149032432405
 30
0.0
 11
83.90129624577033
 21
22.14149032432402
 31
0.0
  0
LINE
  5
3C45
330
A
100
AcDbEntity
  8
0
  6
DASHED
 62
     4
 48
0.0625
100
AcDbLine
 10
77.90129629813019
 20
20.94149332432401
 30
0.0
 11
77.90129629813019
 21
18.44149332432411
 31
0.0
  0
LINE
  5
3C46
330
A
100
AcDbEntity
  8
0
  6
DASHED
 62
     4
 48
0.0625
100
AcDbLine
 10
78.90129629813016
 20
20.94149332432401
 30
0.0
 11
78.90129629813016
 21
18.44149332432411
 31
0.0
  0
LINE
  5
3C47
330
A
100
AcDbEntity
  8
0
  6
DASHED
 62
     4
 48
0.0625
100
AcDbLine
 10
81.9012962981302
 20
20.94149332432401
 30
0.0
 11
81.9012962981302
 21
18.44149332432411
 31
0.0
  0
LINE
  5
3C48
330
A
100
AcDbEntity
  8
0
  6
DASHED
 62
     4
 48
0.0625
100
AcDbLine
 10
80.90129629813018
 20
20.94149332432401
 30
0.0
 11
80.90129629813018
 21
18.44149332432411
 31
0.0
  0
LINE
  5
3C49
330
A
100
AcDbEntity
  8
0
  6
DASHED
 62
     4
 48
0.0625
100
AcDbLine
 10
105.9012962981302
 20
20.94149332432401
 30
0.0
 11
105.9012962981302
 21
18.44149332432411
 31
0.0
  0
LINE
  5
3C4A
330
A
100
AcDbEntity
  8
0
  6
DASHED
 62
     4
 48
0.0625
100
AcDbLine
 10
106.9012962981302
 20
20.94149332432401
 30
0.0
 11
106.9012962981302
 21
18.44149332432411
 31
0.0
  0
LINE
  5
3C4B
330
A
100
AcDbEntity
  8
0
  6
DASHED
 62
     4
 48
0.0625
100
AcDbLine
 10
109.9012962981302
 20
20.94149332432401
 30
0.0
 11
109.9012962981302
 21
18.44149332432411
 31
0.0
  0
LINE
  5
3C4C
330
A
100
AcDbEntity
  8
0
  6
DASHED
 62
     4
 48
0.0625
100
AcDbLine
 10
108.9012962981302
 20
20.94149332432401
 30
0.0
 11
108.9012962981302
 21
18.44149332432411
 31
0.0
  0
LINE
  5
3C4D
330
A
100
AcDbEntity
  8
0
  6
DASHED
 62
     4
 48
0.0625
100
AcDbLine
 10
122.9012962981302
 20
20.94149332432401
 30
0.0
 11
122.9012962981302
 21
18.44149332432411
 31
0.0
  0
LINE
  5
3C4E
330
A
100
AcDbEntity
  8
0
  6
DASHED
 62
     4
 48
0.0625
100
AcDbLine
 10
123.9012962981302
 20
20.94149332432401
 30
0.0
 11
123.9012962981302
 21
18.44149332432411
 31
0.0
  0
ARC
  5
3C4F
330
A
100
AcDbEntity
  8
0
  6
DASHED
 62
     4
100
AcDbCircle
 10
124.10129329813
 20
21.14149032432401
 30
0.0
 40
1.0
100
AcDbArc
 50
0.0
 51
90.00000300000001
  0
LINE
  5
3C50
330
A
100
AcDbEntity
  8
0
  6
DASHED
 62
     4
 48
0.0675
100
AcDbLine
 10
125.1012932981302
 20
21.14149032432401
 30
0.0
 11
125.1012932981302
 21
18.44149332432411
 31
0.0
  0
ARC
  5
3C51
330
A
100
AcDbEntity
  8
0
  6
DASHED
 62
     4
100
AcDbCircle
 10
102.9012962457702
 20
29.14149032432405
 30
0.0
 40
1.0
100
AcDbArc
 50
0.0
 51
90.00000300000015
  0
LINE
  5
3C52
330
A
100
AcDbEntity
  8
0
  6
DASHED
 62
     4
 48
0.45
100
AcDbLine
 10
102.9012962457702
 20
30.14149032432404
 30
0.0
 11
84.90129624577033
 21
30.14149032432404
 31
0.0
  0
ARC
  5
3C53
330
A
100
AcDbEntity
  8
0
  6
DASHED
 62
     4
100
AcDbCircle
 10
84.90129624577033
 20
29.14149032432405
 30
0.0
 40
1.0
100
AcDbArc
 50
90.00000300000015
 51
180.0000050000005
  0
ARC
  5
3C54
330
A
100
AcDbEntity
  8
0
  6
DASHED
 62
     4
100
AcDbCircle
 10
38.90129629813019
 20
-122.0585066756757
 30
0.0
 40
8.0
100
AcDbArc
 50
205.944477
 51
334.0555089999998
  0
ARC
  5
3C55
330
A
100
AcDbEntity
  8
0
  6
DASHED
 62
     4
100
AcDbCircle
 10
148.9012962981301
 20
-122.0585066756757
 30
0.0
 40
8.0
100
AcDbArc
 50
205.944477
 51
334.0555089999998
  0
VIEWPORT
  5
39EB
330
B
100
AcDbEntity
 67
     1
  8
0
 62
     0
100
AcDbViewport
 10
0.0
 20
0.0
 30
0.0
 40
1000.0
 41
1000.0
 68
     1
 69
     1
 12
0.0
 22
0.0
 13
0.0
 23
0.0
 14
1.0
 24
1.0
 15
1.0
 25
1.0
 16
0.0
 26
0.0
 36
1.0
 17
0.0
 27
0.0
 37
0.0
 42
50.0
 43
0.0
 44
0.0
 45
1000.0
 50
0.0
 51
0.0
 72
   100
 90
    32800
  1

281
     0
 71
     1
 74
     0
110
0.0
120
0.0
130
0.0
111
1.0
121
0.0
131
0.0
112
0.0
122
1.0
132
0.0
 79
     0
146
0.0
  0
ENDSEC
  0
SECTION
  2
OBJECTS
  0
DICTIONARY
  5
19
330
0
100
AcDbDictionary
281
     1
  3
ACAD_GROUP
350
1A
  3
ACAD_LAYOUT
350
39F2
  3
ACAD_MLINESTYLE
350
1B
  3
ACAD_PLOTSETTINGS
350
39F3
  3
ACAD_PLOTSTYLENAME
350
39F0
  0
DICTIONARY
  5
1A
102
{ACAD_REACTORS
330
19
102
}
330
19
100
AcDbDictionary
281
     1
  0
DICTIONARY
  5
39F2
102
{ACAD_REACTORS
330
19
102
}
330
19
100
AcDbDictionary
281
     1
  3
Model
350
39F4
  3
ﾚｲｱｳﾄ1
350
39F5
  0
DICTIONARY
  5
1B
102
{ACAD_REACTORS
330
19
102
}
330
19
100
AcDbDictionary
281
     1
  3
STANDARD
350
1C
  0
DICTIONARY
  5
39F3
102
{ACAD_REACTORS
330
19
102
}
330
19
100
AcDbDictionary
281
     1
  0
ACDBDICTIONARYWDFLT
  5
39F0
102
{ACAD_REACTORS
330
19
102
}
330
19
100
AcDbDictionary
281
     1
  3
Normal
350
39F1
100
AcDbDictionaryWithDefault
340
39F1
  0
LAYOUT
  5
39F4
102
{ACAD_REACTORS
330
39F2
102
}
330
39F2
100
AcDbPlotSettings
  1

  2
Canon iR-ADV C5030/5035 LIPSLX
  4

  6

 40
0.0
 41
0.0
 42
0.0
 43
0.0
 44
0.0
 45
0.0
 46
0.0
 47
0.0
 48
0.0
 49
0.0
140
0.0
141
0.0
142
1.0
143
1.0
 70
  1712
 72
     0
 73
     0
 74
     0
  7

 75
     0
147
1.0
148
0.0
149
0.0
100
AcDbLayout
  1
Model
 70
     1
 71
     0
 10
0.0
 20
0.0
 11
12.0
 21
9.0
 12
0.0
 22
0.0
 32
0.0
 14
0.0
 24
0.0
 34
0.0
 15
0.0
 25
0.0
 35
0.0
146
0.0
 13
0.0
 23
0.0
 33
0.0
 16
1.0
 26
0.0
 36
0.0
 17
0.0
 27
1.0
 37
0.0
 76
     0
330
A
  0
LAYOUT
  5
39F5
102
{ACAD_REACTORS
330
39F2
102
}
330
39F2
100
AcDbPlotSettings
  1

  2
Canon iR-ADV C5030/5035 LIPSLX
  4

  6

 40
0.0
 41
0.0
 42
0.0
 43
0.0
 44
0.0
 45
0.0
 46
0.0
 47
0.0
 48
0.0
 49
0.0
140
0.0
141
0.0
142
1.0
143
1.0
 70
   688
 72
     0
 73
     0
 74
     5
  7

 75
    16
147
1.0
148
0.0
149
0.0
100
AcDbLayout
  1
ﾚｲｱｳﾄ1
 70
     1
 71
     1
 10
0.0
 20
0.0
 11
420.0
 21
297.0
 12
0.0
 22
0.0
 32
0.0
 14
0.0
 24
0.0
 34
0.0
 15
401.4999999999998
 25
275.0
 35
2.0
146
0.0
 13
0.0
 23
0.0
 33
0.0
 16
1.0
 26
0.0
 36
0.0
 17
0.0
 27
1.0
 37
0.0
 76
     0
330
B
331
39EB
  0
MLINESTYLE
  5
1C
102
{ACAD_REACTORS
330
1B
102
}
330
1B
100
AcDbMlineStyle
  2
STANDARD
 70
     0
  3

 62
     0
 51
90.0
 52
90.0
 71
     2
 49
0.5
 62
   256
  6
BYLAYER
 49
-0.5
 62
   256
  6
BYLAYER
  0
ACDBPLACEHOLDER
  5
39F1
102
{ACAD_REACTORS
330
39F0
102
}
330
39F0
  0
ENDSEC
  0
EOF
