  0
SECTION
  2
HEADER
  9
$ACADVER
  1
AC1015
  9
$ACADMAINTVER
 70
    10
  9
$DWGCODEPAGE
  3
ANSI_932
  9
$INSBASE
 10
0.0
 20
0.0
 30
0.0
  9
$EXTMIN
 10
16.93947996866736
 20
299.7711353809583
 30
0.0
  9
$EXTMAX
 10
403.4228404323863
 20
448.7711353809585
 30
0.0
  9
$LIMMIN
 10
0.0
 20
0.0
  9
$LIMMAX
 10
420.0
 20
297.0
  9
$ORTHOMODE
 70
     0
  9
$REGENMODE
 70
     1
  9
$FILLMODE
 70
     1
  9
$QTEXTMODE
 70
     0
  9
$MIRRTEXT
 70
     1
  9
$LTSCALE
 40
1.0
  9
$ATTMODE
 70
     1
  9
$TEXTSIZE
 40
0.0
  9
$TRACEWID
 40
1.0
  9
$TEXTSTYLE
  7
STANDARD
  9
$CLAYER
  8
0
  9
$CELTYPE
  6
BYLAYER
  9
$CECOLOR
 62
   256
  9
$CELTSCALE
 40
1.0
  9
$DISPSILH
 70
     0
  9
$DIMSCALE
 40
1.0
  9
$DIMASZ
 40
2.5
  9
$DIMEXO
 40
0.625
  9
$DIMDLI
 40
3.75
  9
$DIMRND
 40
0.0
  9
$DIMDLE
 40
0.0
  9
$DIMEXE
 40
1.25
  9
$DIMTP
 40
0.0
  9
$DIMTM
 40
0.0
  9
$DIMTXT
 40
2.5
  9
$DIMCEN
 40
2.5
  9
$DIMTSZ
 40
0.0
  9
$DIMTOL
 70
     0
  9
$DIMLIM
 70
     0
  9
$DIMTIH
 70
     0
  9
$DIMTOH
 70
     0
  9
$DIMSE1
 70
     0
  9
$DIMSE2
 70
     0
  9
$DIMTAD
 70
     1
  9
$DIMZIN
 70
     8
  9
$DIMBLK
  1

  9
$DIMASO
 70
     1
  9
$DIMSHO
 70
     1
  9
$DIMPOST
  1

  9
$DIMAPOST
  1

  9
$DIMALT
 70
     0
  9
$DIMALTD
 70
     3
  9
$DIMALTF
 40
0.03937
  9
$DIMLFAC
 40
1.0
  9
$DIMTOFL
 70
     1
  9
$DIMTVP
 40
0.0
  9
$DIMTIX
 70
     0
  9
$DIMSOXD
 70
     0
  9
$DIMSAH
 70
     0
  9
$DIMBLK1
  1

  9
$DIMBLK2
  1

  9
$DIMSTYLE
  2
STANDARD
  9
$DIMCLRD
 70
     0
  9
$DIMCLRE
 70
     0
  9
$DIMCLRT
 70
     0
  9
$DIMTFAC
 40
1.0
  9
$DIMGAP
 40
0.625
  9
$DIMJUST
 70
     0
  9
$DIMSD1
 70
     0
  9
$DIMSD2
 70
     0
  9
$DIMTOLJ
 70
     0
  9
$DIMTZIN
 70
     8
  9
$DIMALTZ
 70
     0
  9
$DIMALTTZ
 70
     0
  9
$DIMUPT
 70
     0
  9
$DIMDEC
 70
     2
  9
$DIMTDEC
 70
     2
  9
$DIMALTU
 70
     2
  9
$DIMALTTD
 70
     3
  9
$DIMTXSTY
  7
STANDARD
  9
$DIMAUNIT
 70
     0
  9
$DIMADEC
 70
     0
  9
$DIMALTRND
 40
0.0
  9
$DIMAZIN
 70
     0
  9
$DIMDSEP
 70
    46
  9
$DIMATFIT
 70
     3
  9
$DIMFRAC
 70
     0
  9
$DIMLDRBLK
  1

  9
$DIMLUNIT
 70
     2
  9
$DIMLWD
 70
    -2
  9
$DIMLWE
 70
    -2
  9
$DIMTMOVE
 70
     0
  9
$LUNITS
 70
     2
  9
$LUPREC
 70
     4
  9
$SKETCHINC
 40
1.0
  9
$FILLETRAD
 40
2.5
  9
$AUNITS
 70
     0
  9
$AUPREC
 70
     0
  9
$MENU
  1
.
  9
$ELEVATION
 40
0.0
  9
$PELEVATION
 40
0.0
  9
$THICKNESS
 40
0.0
  9
$LIMCHECK
 70
     0
  9
$CHAMFERA
 40
2.5
  9
$CHAMFERB
 40
2.5
  9
$CHAMFERC
 40
0.0
  9
$CHAMFERD
 40
0.0
  9
$SKPOLY
 70
     0
  9
$TDCREATE
 40
2312275.082421388
  9
$TDUCREATE
 40
2312274.707421388
  9
$TDUPDATE
 40
2456493.754360197
  9
$TDUUPDATE
 40
2456493.379360196
  9
$TDINDWG
 40
0.0153994560
  9
$TDUSRTIMER
 40
0.0153990856
  9
$USRTIMER
 70
     1
  9
$ANGBASE
 50
0.0
  9
$ANGDIR
 70
     0
  9
$PDMODE
 70
     0
  9
$PDSIZE
 40
0.0
  9
$PLINEWID
 40
0.0
  9
$SPLFRAME
 70
     0
  9
$SPLINETYPE
 70
     6
  9
$SPLINESEGS
 70
     8
  9
$HANDSEED
  5
3647
  9
$SURFTAB1
 70
     6
  9
$SURFTAB2
 70
     6
  9
$SURFTYPE
 70
     6
  9
$SURFU
 70
     6
  9
$SURFV
 70
     6
  9
$UCSBASE
  2

  9
$UCSNAME
  2

  9
$UCSORG
 10
0.0
 20
0.0
 30
0.0
  9
$UCSXDIR
 10
1.0
 20
0.0
 30
0.0
  9
$UCSYDIR
 10
0.0
 20
1.0
 30
0.0
  9
$UCSORTHOREF
  2

  9
$UCSORTHOVIEW
 70
     0
  9
$UCSORGTOP
 10
0.0
 20
0.0
 30
0.0
  9
$UCSORGBOTTOM
 10
0.0
 20
0.0
 30
0.0
  9
$UCSORGLEFT
 10
0.0
 20
0.0
 30
0.0
  9
$UCSORGRIGHT
 10
0.0
 20
0.0
 30
0.0
  9
$UCSORGFRONT
 10
0.0
 20
0.0
 30
0.0
  9
$UCSORGBACK
 10
0.0
 20
0.0
 30
0.0
  9
$PUCSBASE
  2

  9
$PUCSNAME
  2

  9
$PUCSORG
 10
0.0
 20
0.0
 30
0.0
  9
$PUCSXDIR
 10
1.0
 20
0.0
 30
0.0
  9
$PUCSYDIR
 10
0.0
 20
1.0
 30
0.0
  9
$PUCSORTHOREF
  2

  9
$PUCSORTHOVIEW
 70
     0
  9
$PUCSORGTOP
 10
0.0
 20
0.0
 30
0.0
  9
$PUCSORGBOTTOM
 10
0.0
 20
0.0
 30
0.0
  9
$PUCSORGLEFT
 10
0.0
 20
0.0
 30
0.0
  9
$PUCSORGRIGHT
 10
0.0
 20
0.0
 30
0.0
  9
$PUCSORGFRONT
 10
0.0
 20
0.0
 30
0.0
  9
$PUCSORGBACK
 10
0.0
 20
0.0
 30
0.0
  9
$USERI1
 70
     0
  9
$USERI2
 70
     0
  9
$USERI3
 70
     0
  9
$USERI4
 70
     0
  9
$USERI5
 70
     0
  9
$USERR1
 40
0.0
  9
$USERR2
 40
0.0
  9
$USERR3
 40
0.0
  9
$USERR4
 40
0.0
  9
$USERR5
 40
0.0
  9
$WORLDVIEW
 70
     1
  9
$SHADEDGE
 70
     3
  9
$SHADEDIF
 70
    70
  9
$TILEMODE
 70
     1
  9
$MAXACTVP
 70
    48
  9
$PINSBASE
 10
0.0
 20
0.0
 30
0.0
  9
$PLIMCHECK
 70
     0
  9
$PEXTMIN
 10
0.0
 20
0.0
 30
0.0
  9
$PEXTMAX
 10
401.4999999999998
 20
275.0
 30
2.0
  9
$PLIMMIN
 10
0.0
 20
0.0
  9
$PLIMMAX
 10
420.0
 20
297.0
  9
$UNITMODE
 70
     0
  9
$VISRETAIN
 70
     0
  9
$PLINEGEN
 70
     0
  9
$PSLTSCALE
 70
     1
  9
$TREEDEPTH
 70
  3020
  9
$CMLSTYLE
  2
STANDARD
  9
$CMLJUST
 70
     0
  9
$CMLSCALE
 40
20.0
  9
$PROXYGRAPHICS
 70
     1
  9
$MEASUREMENT
 70
     1
  9
$CELWEIGHT
370
    -1
  9
$ENDCAPS
280
     0
  9
$JOINSTYLE
280
     0
  9
$LWDISPLAY
290
     0
  9
$INSUNITS
 70
     0
  9
$HYPERLINKBASE
  1

  9
$STYLESHEET
  1

  9
$XEDIT
290
     1
  9
$CEPSNTYPE
380
     0
  9
$PSTYLEMODE
290
     1
  9
$FINGERPRINTGUID
  2
{C67829F0-803D-45AD-B361-5A72F961EB9B}
  9
$VERSIONGUID
  2
{E1E7CA05-86C6-45D4-AF9B-703FBAE3D5A0}
  9
$EXTNAMES
290
     1
  9
$PSVPSCALE
 40
0.0
  9
$OLESTARTUP
290
     0
  0
ENDSEC
  0
SECTION
  2
CLASSES
  0
CLASS
  1
LWPOLYLINE
  2
AcDbPolyline
  3
AutoCAD 2000
 90
    32768
280
     0
281
     1
  0
CLASS
  1
IMAGE
  2
AcDbRasterImage
  3
ISM
 90
    32895
280
     0
281
     1
  0
CLASS
  1
OLE2FRAME
  2
AcDbOle2Frame
  3
AutoCAD 2000
 90
    32768
280
     0
281
     1
  0
CLASS
  1
HATCH
  2
AcDbHatch
  3
AutoCAD 2000
 90
    32768
280
     0
281
     1
  0
CLASS
  1
DICTIONARYVAR
  2
AcDbDictionaryVar
  3
AutoCAD 2000
 90
    32768
280
     0
281
     0
  0
CLASS
  1
RASTERVARIABLES
  2
AcDbRasterVariables
  3
ISM
 90
    32768
280
     0
281
     0
  0
CLASS
  1
IMAGEDEF
  2
AcDbRasterImageDef
  3
ISM
 90
    32768
280
     0
281
     0
  0
CLASS
  1
IMAGEDEF_REACTOR
  2
AcDbRasterImageDefReactor
  3
ISM
 90
    32769
280
     0
281
     0
  0
CLASS
  1
IDBUFFER
  2
AcDbIdBuffer
  3
AutoCAD 2000
 90
    32768
280
     0
281
     0
  0
CLASS
  1
SPATIAL_FILTER
  2
AcDbSpatialFilter
  3
AutoCAD 2000
 90
    32768
280
     0
281
     0
  0
CLASS
  1
XRECORD
  2
AcDbXrecord
  3
AutoCAD 2000
 90
    32768
280
     0
281
     0
  0
CLASS
  1
SORTENTSTABLE
  2
AcDbSortentsTable
  3
AutoCAD 2000
 90
    32768
280
     0
281
     0
  0
CLASS
  1
LAYER_INDEX
  2
AcDbLayerIndex
  3
AutoCAD 2000
 90
    32768
280
     0
281
     0
  0
CLASS
  1
SPATIAL_INDEX
  2
AcDbSpatialIndex
  3
AutoCAD 2000
 90
    32768
280
     0
281
     0
  0
CLASS
  1
OBJECT_PTR
  2
CAseDLPNTableRecord
  3
"ASE-LPNTableRecord"
 90
    32769
280
     0
281
     0
  0
CLASS
  1
LAYOUT
  2
AcDbLayout
  3
AutoCAD 2000
 90
        0
280
     0
281
     0
  0
CLASS
  1
PLOTSETTINGS
  2
AcDbPlotSettings
  3
AutoCAD 2000
 90
    32768
280
     0
281
     0
  0
CLASS
  1
ACDBDICTIONARYWDFLT
  2
AcDbDictionaryWithDefault
  3
AutoCAD 2000
 90
        0
280
     0
281
     0
  0
CLASS
  1
ACDBPLACEHOLDER
  2
AcDbPlaceHolder
  3
AutoCAD 2000
 90
        0
280
     0
281
     0
  0
CLASS
  1
VBA_PROJECT
  2
AcDbVbaProject
  3
"acadvba"
 90
    32768
280
     0
281
     0
  0
CLASS
  1
WIPEOUT
  2
AcDbWipeout
  3
WipeOut|AutoCAD Express Tool|expresstools@autodesk.com
 90
    32895
280
     0
281
     1
  0
CLASS
  1
WIPEOUTVARIABLES
  2
AcDbWipeoutVariables
  3
WipeOut|AutoCAD Express Tool|expresstools@autodesk.com
 90
    32768
280
     0
281
     0
  0
CLASS
  1
RTEXT
  2
RText
  3
RText|AutoCAD Express Tool|expresstools@autodesk.com
 90
    32768
280
     0
281
     1
  0
CLASS
  1
ARCALIGNEDTEXT
  2
AcDbArcAlignedText
  3
ATEXT|AutoCAD Express Tool|expresstools@autodesk.com
 90
    32768
280
     0
281
     1
  0
ENDSEC
  0
SECTION
  2
TABLES
  0
TABLE
  2
VPORT
  5
7
330
0
100
AcDbSymbolTable
 70
     2
  0
VPORT
  5
3646
330
7
100
AcDbSymbolTableRecord
100
AcDbViewportTableRecord
  2
*Active
 70
     0
 10
0.0
 20
0.0
 11
1.0
 21
1.0
 12
212.9604393370327
 22
378.002186830717
 13
0.0
 23
0.0
 14
1.0
 24
1.0
 15
0.0
 25
0.0
 16
0.0
 26
0.0
 36
1.0
 17
0.0
 27
0.0
 37
0.0
 40
230.675171641079
 41
1.78095238095238
 42
50.0
 43
0.0
 44
0.0
 50
0.0
 51
0.0
 71
     0
 72
   100
 73
     1
 74
     1
 75
     0
 76
     0
 77
     0
 78
     0
281
     0
 65
     1
110
0.0
120
0.0
130
0.0
111
1.0
121
0.0
131
0.0
112
0.0
122
1.0
132
0.0
 79
     0
146
0.0
  0
ENDTAB
  0
TABLE
  2
LTYPE
  5
4
330
0
100
AcDbSymbolTable
 70
     8
  0
LTYPE
  5
11
330
4
100
AcDbSymbolTableRecord
100
AcDbLinetypeTableRecord
  2
BYBLOCK
 70
     0
  3

 72
    65
 73
     0
 40
0.0
  0
LTYPE
  5
12
330
4
100
AcDbSymbolTableRecord
100
AcDbLinetypeTableRecord
  2
BYLAYER
 70
     0
  3

 72
    65
 73
     0
 40
0.0
  0
LTYPE
  5
13
330
4
100
AcDbSymbolTableRecord
100
AcDbLinetypeTableRecord
  2
CONTINUOUS
 70
     0
  3
Solid line
 72
    65
 73
     0
 40
0.0
  0
LTYPE
  5
1D
330
4
100
AcDbSymbolTableRecord
100
AcDbLinetypeTableRecord
  2
DASHED
 70
     0
  3
__ __ __ __ __ __ __ __ __ __ __ __ __ __ __ __
 72
    65
 73
     2
 40
15.0
 49
12.0
 74
     0
 49
-3.0
 74
     0
  0
ENDTAB
  0
TABLE
  2
LAYER
  5
2
330
0
100
AcDbSymbolTable
 70
     1
  0
LAYER
  5
14
330
2
100
AcDbSymbolTableRecord
100
AcDbLayerTableRecord
  2
0
 70
     0
 62
     7
  6
CONTINUOUS
370
    -3
390
31AC
  0
ENDTAB
  0
TABLE
  2
STYLE
  5
3
330
0
100
AcDbSymbolTable
 70
     1
  0
STYLE
  5
17
330
3
100
AcDbSymbolTableRecord
100
AcDbTextStyleTableRecord
  2
STANDARD
 70
     0
 40
0.0
 41
1.0
 50
0.0
 71
     0
 42
0.0
  3
txt
  4

  0
ENDTAB
  0
TABLE
  2
VIEW
  5
5
330
0
100
AcDbSymbolTable
 70
     0
  0
ENDTAB
  0
TABLE
  2
UCS
  5
6
330
0
100
AcDbSymbolTable
 70
     0
  0
ENDTAB
  0
TABLE
  2
APPID
  5
8
330
0
100
AcDbSymbolTable
 70
     1
  0
APPID
  5
16
330
8
100
AcDbSymbolTableRecord
100
AcDbRegAppTableRecord
  2
ACAD
 70
     0
  0
ENDTAB
  0
TABLE
  2
DIMSTYLE
  5
9
330
0
100
AcDbSymbolTable
 70
     1
100
AcDbDimStyleTable
 71
     1
340
18
  0
DIMSTYLE
105
18
330
9
100
AcDbSymbolTableRecord
100
AcDbDimStyleTableRecord
  2
STANDARD
 70
     0
340
17
  0
ENDTAB
  0
TABLE
  2
BLOCK_RECORD
  5
1
330
0
100
AcDbSymbolTable
 70
     0
  0
BLOCK_RECORD
  5
A
330
1
100
AcDbSymbolTableRecord
100
AcDbBlockTableRecord
  2
*MODEL_SPACE
340
31AF
  0
BLOCK_RECORD
  5
B
330
1
100
AcDbSymbolTableRecord
100
AcDbBlockTableRecord
  2
*PAPER_SPACE
340
31B0
  0
ENDTAB
  0
ENDSEC
  0
SECTION
  2
BLOCKS
  0
BLOCK
  5
D
330
A
100
AcDbEntity
  8
0
100
AcDbBlockBegin
  2
*MODEL_SPACE
 70
     0
 10
0.0
 20
0.0
 30
0.0
  3
*MODEL_SPACE
  1

  0
ENDBLK
  5
E
330
A
100
AcDbEntity
  8
0
100
AcDbBlockEnd
  0
BLOCK
  5
F
330
B
100
AcDbEntity
 67
     1
  8
0
100
AcDbBlockBegin
  2
*PAPER_SPACE
 70
     0
 10
0.0
 20
0.0
 30
0.0
  3
*PAPER_SPACE
  1

  0
ENDBLK
  5
10
330
B
100
AcDbEntity
 67
     1
  8
0
100
AcDbBlockEnd
  0
ENDSEC
  0
SECTION
  2
ENTITIES
  0
ARC
  5
32FB
330
A
100
AcDbEntity
  8
0
 62
     7
100
AcDbCircle
 10
216.0855839686671
 20
351.2711353809584
 30
0.0
 40
2.0
100
AcDbArc
 50
179.9999910000003
 51
270.000001
  0
ARC
  5
32FC
330
A
100
AcDbEntity
  8
0
 62
     7
100
AcDbCircle
 10
216.0855839686671
 20
397.2711353809584
 30
0.0
 40
2.0
100
AcDbArc
 50
90.00000299999992
 51
180.0000050000005
  0
LINE
  5
32FD
330
A
100
AcDbEntity
  8
0
 62
     7
 48
0.181304
100
AcDbLine
 10
221.0855839686673
 20
446.2711353809583
 30
0.0
 11
213.8433499686672
 21
445.8915883809583
 31
0.0
  0
LINE
  5
32FE
330
A
100
AcDbEntity
  8
0
 62
     7
 48
0.1375
100
AcDbLine
 10
215.0855839686673
 20
390.2711353809584
 30
0.0
 11
220.5855839686673
 21
390.2711353809584
 31
0.0
  0
LINE
  5
32FF
330
A
100
AcDbEntity
  8
0
 62
     7
 48
0.1375
100
AcDbLine
 10
215.0855839686673
 20
358.2711353809584
 30
0.0
 11
220.5855839686673
 21
358.2711353809584
 31
0.0
  0
LINE
  5
3300
330
A
100
AcDbEntity
  8
0
 62
     7
 48
0.181304
100
AcDbLine
 10
221.0855839686673
 20
302.7711353809585
 30
0.0
 11
213.8433499686672
 21
303.1506823809585
 31
0.0
  0
LINE
  5
3301
330
A
100
AcDbEntity
  8
0
 62
     7
 48
0.214102
100
AcDbLine
 10
221.5855839686671
 20
302.2711353809585
 30
0.0
 11
213.0332459686671
 21
302.7193473809585
 31
0.0
  0
LINE
  5
330B
330
A
100
AcDbEntity
  8
0
 62
     7
100
AcDbLine
 10
214.0855839686671
 20
390.2711353809584
 30
0.0
 11
214.0855839686671
 21
358.2711353809584
 31
0.0
  0
LINE
  5
330C
330
A
100
AcDbEntity
  8
0
 62
     7
100
AcDbLine
 10
210.779506968667
 20
309.5499743809585
 30
0.0
 11
210.779506968667
 21
438.9922963809586
 31
0.0
  0
ARC
  5
3357
330
A
100
AcDbEntity
  8
0
 62
     7
100
AcDbCircle
 10
210.8805359686671
 20
304.8080163809585
 30
0.0
 40
1.5
100
AcDbArc
 50
179.9999910000003
 51
266.9999899999999
  0
LINE
  5
3358
330
A
100
AcDbEntity
  8
0
 62
     7
 48
0.041904
100
AcDbLine
 10
210.8020289686671
 20
303.3100763809585
 30
0.0
 11
212.4758729686671
 21
303.2223533809585
 31
0.0
  0
ARC
  5
3359
330
A
100
AcDbEntity
  8
0
 62
     7
100
AcDbCircle
 10
212.0855679686671
 20
303.7703493809585
 30
0.0
 40
0.9999689999999999
100
AcDbArc
 50
208.8154949999994
 51
267.0006459999995
  0
LINE
  5
335A
330
A
100
AcDbEntity
  8
0
 62
     7
 48
0.034234
100
AcDbLine
 10
212.4758729686671
 20
303.2223533809585
 30
0.0
 11
213.8433499686672
 21
303.1506823809585
 31
0.0
  0
LINE
  5
335B
330
A
100
AcDbEntity
  8
0
 62
     7
 48
0.025034
100
AcDbLine
 10
212.0332459686671
 20
302.7717533809584
 30
0.0
 11
213.0332459686671
 21
302.7193473809585
 31
0.0
  0
LINE
  5
335C
330
A
100
AcDbEntity
  8
0
 62
     7
 48
0.063077
100
AcDbLine
 10
209.3805359686671
 20
304.8080163809585
 30
0.0
 11
209.3805359686671
 21
307.3310793809584
 31
0.0
  0
LINE
  5
335D
330
A
100
AcDbEntity
  8
0
 62
     7
 48
0.056485
100
AcDbLine
 10
209.3805359686671
 20
307.3310793809584
 30
0.0
 11
210.7361879686671
 21
309.1386133809585
 31
0.0
  0
LWPOLYLINE
  5
335E
330
A
100
AcDbEntity
  8
0
 62
     7
100
AcDbPolyline
 90
       32
 70
     0
 43
0.0
 10
210.7361879686671
 20
309.1386133809585
 10
210.7367829686671
 20
309.1394213809585
 10
210.7371189686671
 20
309.1398943809585
 10
210.7376829686671
 20
309.1407183809585
 10
210.7380489686671
 20
309.1412753809585
 10
210.739895968667
 20
309.1443193809585
 10
210.7417419686671
 20
309.1477763809585
 10
210.7436039686671
 20
309.1516593809584
 10
210.7454499686671
 20
309.1560083809584
 10
210.747295968667
 20
309.1608523809585
 10
210.7491269686671
 20
309.1662313809584
 10
210.7509739686669
 20
309.1721903809585
 10
210.7528199686671
 20
309.1787663809585
 10
210.7546509686673
 20
309.1860373809585
 10
210.756496968667
 20
309.1940483809585
 10
210.7583129686672
 20
309.2028903809585
 10
210.760143968667
 20
309.2126333809583
 10
210.7619599686672
 20
309.2233603809585
 10
210.763744968667
 20
309.2351933809585
 10
210.7655299686669
 20
309.2482703809585
 10
210.7672699686673
 20
309.2627813809585
 10
210.7690089686669
 20
309.2789553809585
 10
210.7707029686671
 20
309.2970603809585
 10
210.7723509686671
 20
309.3174303809585
 10
210.7739229686671
 20
309.3404413809585
 10
210.7754179686671
 20
309.3666023809585
 10
210.7767609686669
 20
309.3962883809585
 10
210.7779049686671
 20
309.4299333809585
 10
210.7787899686671
 20
309.4673333809585
 10
210.779339968667
 20
309.5079523809585
 10
210.7794769686671
 20
309.5288793809585
 10
210.779506968667
 20
309.5499743809585
  0
LINE
  5
3365
330
A
100
AcDbEntity
  8
0
 62
     7
 48
0.175
100
AcDbLine
 10
214.0855839686671
 20
358.2711353809584
 30
0.0
 11
214.0855839686671
 21
351.2711353809584
 31
0.0
  0
ARC
  5
3366
330
A
100
AcDbEntity
  8
0
 62
     7
100
AcDbCircle
 10
215.0855839686673
 20
359.2711353809584
 30
0.0
 40
1.0
100
AcDbArc
 50
180.0000050000005
 51
270.000001
  0
LINE
  5
33A2
330
A
100
AcDbEntity
  8
0
 62
     7
 48
0.175
100
AcDbLine
 10
214.0855839686671
 20
397.2711353809584
 30
0.0
 11
214.0855839686671
 21
390.2711353809584
 31
0.0
  0
ARC
  5
33A3
330
A
100
AcDbEntity
  8
0
 62
     7
100
AcDbCircle
 10
215.0855839686673
 20
389.2711353809584
 30
0.0
 40
1.0
100
AcDbArc
 50
90.00000299999992
 51
180.0000050000005
  0
LINE
  5
33B0
330
A
100
AcDbEntity
  8
0
 62
     7
 48
0.075576
100
AcDbLine
 10
209.3805359686671
 20
441.2111993809585
 30
0.0
 11
209.3805359686671
 21
444.2342553809583
 31
0.0
  0
LWPOLYLINE
  5
33B1
330
A
100
AcDbEntity
  8
0
 62
     7
100
AcDbPolyline
 90
       28
 70
     0
 43
0.0
 10
210.7361879686671
 20
439.4036583809584
 10
210.7367829686671
 20
439.4028493809583
 10
210.7372709686671
 20
439.4021473809583
 10
210.7378359686669
 20
439.4013233809585
 10
210.7383699686671
 20
439.4004993809584
 10
210.7405369686671
 20
439.3968073809585
 10
210.7427189686672
 20
439.3925343809583
 10
210.7448849686671
 20
439.3876363809583
 10
210.7470519686672
 20
439.3820673809583
 10
210.7492189686669
 20
439.3757803809585
 10
210.7513699686671
 20
439.3687003809585
 10
210.753536968667
 20
439.3607353809584
 10
210.7556879686671
 20
439.3517933809585
 10
210.7578399686671
 20
439.3417833809585
 10
210.759975968667
 20
439.3305223809583
 10
210.7621119686671
 20
439.3179193809585
 10
210.7642179686672
 20
439.3037893809585
 10
210.7662929686672
 20
439.2878893809585
 10
210.7683379686672
 20
439.2698543809586
 10
210.770336968667
 20
439.2493153809584
 10
210.7722749686671
 20
439.2257863809584
 10
210.7741209686671
 20
439.1986103809585
 10
210.775844968667
 20
439.1670093809584
 10
210.7773409686671
 20
439.1304193809585
 10
210.7785159686672
 20
439.0883203809583
 10
210.7792629686672
 20
439.0415523809584
 10
210.7794459686672
 20
439.0170463809583
 10
210.779506968667
 20
438.9922963809586
  0
LINE
  5
33B2
330
A
100
AcDbEntity
  8
0
 62
     7
 48
0.056486
100
AcDbLine
 10
210.7361879686671
 20
439.4036583809584
 30
0.0
 11
209.3805359686671
 21
441.2111993809585
 31
0.0
  0
LINE
  5
33B3
330
A
100
AcDbEntity
  8
0
 62
     7
 48
0.041904
100
AcDbLine
 10
210.8020289686671
 20
445.7321953809585
 30
0.0
 11
212.4758729686671
 21
445.8199183809584
 31
0.0
  0
ARC
  5
33B4
330
A
100
AcDbEntity
  8
0
 62
     7
100
AcDbCircle
 10
210.8805359686671
 20
444.2342553809583
 30
0.0
 40
1.5
100
AcDbArc
 50
93.00001299999987
 51
180.0000050000005
  0
LINE
  5
33B5
330
A
100
AcDbEntity
  8
0
 62
     7
 48
0.034234
100
AcDbLine
 10
212.4758729686671
 20
445.8199183809584
 30
0.0
 11
213.8433499686672
 21
445.8915883809583
 31
0.0
  0
LINE
  5
33B9
330
A
100
AcDbEntity
  8
0
 62
     7
100
AcDbLine
 10
221.5855839686671
 20
302.2711353809585
 30
0.0
 11
221.5855839686671
 21
446.2711353809583
 31
0.0
  0
LINE
  5
33BA
330
A
100
AcDbEntity
  8
0
 62
     7
100
AcDbLine
 10
233.0855839686673
 20
303.2711353809585
 30
0.0
 11
233.0855839686673
 21
446.2711353809583
 31
0.0
  0
LINE
  5
33BB
330
A
100
AcDbEntity
  8
0
 62
     7
100
AcDbLine
 10
360.3855869686672
 20
306.2154943809585
 30
0.0
 11
360.3855869686672
 21
385.2711353809585
 31
0.0
  0
LINE
  5
33BE
330
A
100
AcDbEntity
  8
0
 62
     7
100
AcDbLine
 10
360.3855869686672
 20
306.2154943809585
 30
0.0
 11
233.0855839686673
 21
305.7711353809585
 31
0.0
  0
LINE
  5
33BF
330
A
100
AcDbEntity
  8
0
  6
DASHED
 62
     4
100
AcDbLine
 10
348.0855989686673
 20
300.1725253809585
 30
0.0
 11
238.0855839686673
 21
299.7885533809585
 31
0.0
  0
LINE
  5
33C0
330
A
100
AcDbEntity
  8
0
 62
     7
100
AcDbLine
 10
221.0855839686673
 20
344.2711353809584
 30
0.0
 11
221.0855839686673
 21
302.7711353809585
 31
0.0
  0
LINE
  5
33C1
330
A
100
AcDbEntity
  8
0
 62
     7
 48
0.0875
100
AcDbLine
 10
234.0855839686671
 20
314.7711353809585
 30
0.0
 11
234.0855839686671
 21
318.2711353809583
 31
0.0
  0
LINE
  5
33C2
330
A
100
AcDbEntity
  8
0
 62
     7
 48
0.0875
100
AcDbLine
 10
243.0855839686671
 20
318.2711353809583
 30
0.0
 11
243.0855839686671
 21
314.7711353809585
 31
0.0
  0
LINE
  5
33C3
330
A
100
AcDbEntity
  8
0
 62
     7
 48
0.2875
100
AcDbLine
 10
233.0855839686673
 20
302.2711353809585
 30
0.0
 11
221.5855839686671
 21
302.2711353809585
 31
0.0
  0
LINE
  5
33C4
330
A
100
AcDbEntity
  8
0
 62
     7
 48
0.2875
100
AcDbLine
 10
233.0855839686673
 20
303.2711353809585
 30
0.0
 11
221.5855839686671
 21
303.2711353809585
 31
0.0
  0
LINE
  5
33C5
330
A
100
AcDbEntity
  8
0
  6
DASHED
 62
     4
 48
0.150001
100
AcDbLine
 10
247.5855839686671
 20
305.8217493809585
 30
0.0
 11
247.5855839686671
 21
299.8217113809585
 31
0.0
  0
LINE
  5
33C6
330
A
100
AcDbEntity
  8
0
  6
DASHED
 62
     4
 48
0.150001
100
AcDbLine
 10
246.5855839686671
 20
305.8182623809585
 30
0.0
 11
246.5855839686671
 21
299.8182243809583
 31
0.0
  0
LINE
  5
33C7
330
A
100
AcDbEntity
  8
0
  6
DASHED
 62
     4
 48
0.150001
100
AcDbLine
 10
244.5855839686671
 20
305.8112813809585
 30
0.0
 11
244.5855839686671
 21
299.8112433809584
 31
0.0
  0
LINE
  5
33C8
330
A
100
AcDbEntity
  8
0
  6
DASHED
 62
     4
 48
0.150001
100
AcDbLine
 10
243.5855839686673
 20
305.8077873809585
 30
0.0
 11
243.5855839686673
 21
299.8077493809585
 31
0.0
  0
LINE
  5
33C9
330
A
100
AcDbEntity
  8
0
  6
DASHED
 62
     4
 48
0.150001
100
AcDbLine
 10
239.0855839686671
 20
305.7920783809585
 30
0.0
 11
239.0855839686671
 21
299.7920403809585
 31
0.0
  0
LINE
  5
33CA
330
A
100
AcDbEntity
  8
0
  6
DASHED
 62
     4
 48
0.150001
100
AcDbLine
 10
238.0855839686673
 20
305.7885913809585
 30
0.0
 11
238.0855839686673
 21
299.7885533809585
 31
0.0
  0
LINE
  5
33CB
330
A
100
AcDbEntity
  8
0
 62
     7
 48
0.025
100
AcDbLine
 10
233.0855839686673
 20
303.2711353809585
 30
0.0
 11
233.0855839686673
 21
302.2711353809585
 31
0.0
  0
LINE
  5
33CC
330
A
100
AcDbEntity
  8
0
 62
     7
 48
0.225
100
AcDbLine
 10
243.0855839686671
 20
314.7711353809585
 30
0.0
 11
234.0855839686671
 21
314.7711353809585
 31
0.0
  0
LINE
  5
33CE
330
A
100
AcDbEntity
  8
0
  6
DASHED
 62
     4
 48
0.150001
100
AcDbLine
 10
255.5855839686671
 20
305.8496723809585
 30
0.0
 11
255.5855839686671
 21
299.8496423809585
 31
0.0
  0
LINE
  5
33CF
330
A
100
AcDbEntity
  8
0
  6
DASHED
 62
     4
 48
0.150001
100
AcDbLine
 10
254.5855839686673
 20
305.8461863809585
 30
0.0
 11
254.5855839686673
 21
299.8461473809585
 31
0.0
  0
LINE
  5
33D0
330
A
100
AcDbEntity
  8
0
  6
DASHED
 62
     4
 48
0.150001
100
AcDbLine
 10
252.5855839686673
 20
305.8392053809585
 30
0.0
 11
252.5855839686673
 21
299.8391673809585
 31
0.0
  0
LINE
  5
33D1
330
A
100
AcDbEntity
  8
0
  6
DASHED
 62
     4
 48
0.150001
100
AcDbLine
 10
251.5855839686671
 20
305.8357103809585
 30
0.0
 11
251.5855839686671
 21
299.8356803809585
 31
0.0
  0
LINE
  5
33D2
330
A
100
AcDbEntity
  8
0
 62
     7
 48
0.225
100
AcDbLine
 10
234.0855839686671
 20
318.2711353809583
 30
0.0
 11
243.0855839686671
 21
318.2711353809583
 31
0.0
  0
LINE
  5
33D3
330
A
100
AcDbEntity
  8
0
 62
     7
 48
0.225
100
AcDbLine
 10
243.0855839686671
 20
324.2711353809585
 30
0.0
 11
234.0855839686671
 21
324.2711353809585
 31
0.0
  0
LINE
  5
33D4
330
A
100
AcDbEntity
  8
0
 62
     7
 48
0.225
100
AcDbLine
 10
234.0855839686671
 20
320.7711353809585
 30
0.0
 11
243.0855839686671
 21
320.7711353809585
 31
0.0
  0
LINE
  5
33D5
330
A
100
AcDbEntity
  8
0
 62
     7
 48
0.0875
100
AcDbLine
 10
234.0855839686671
 20
320.7711353809585
 30
0.0
 11
234.0855839686671
 21
324.2711353809585
 31
0.0
  0
LINE
  5
33D6
330
A
100
AcDbEntity
  8
0
 62
     7
 48
0.0875
100
AcDbLine
 10
243.0855839686671
 20
324.2711353809585
 30
0.0
 11
243.0855839686671
 21
320.7711353809585
 31
0.0
  0
LINE
  5
33D7
330
A
100
AcDbEntity
  8
0
 62
     7
 48
0.1
100
AcDbLine
 10
221.5855839686671
 20
344.2711353809584
 30
0.0
 11
221.5855839686671
 21
348.2711353809584
 31
0.0
  0
LINE
  5
33D8
330
A
100
AcDbEntity
  8
0
 62
     7
 48
0.0125
100
AcDbLine
 10
221.5855839686671
 20
344.2711353809584
 30
0.0
 11
221.0855839686673
 21
344.2711353809584
 31
0.0
  0
LINE
  5
33D9
330
A
100
AcDbEntity
  8
0
 62
     7
 48
0.1125
100
AcDbLine
 10
220.5855839686673
 20
349.2711353809584
 30
0.0
 11
216.0855839686671
 21
349.2711353809584
 31
0.0
  0
ARC
  5
33DA
330
A
100
AcDbEntity
  8
0
 62
     7
100
AcDbCircle
 10
220.5855839686673
 20
348.2711353809584
 30
0.0
 40
1.0
100
AcDbArc
 50
0.0
 51
90.00000299999992
  0
ARC
  5
33DB
330
A
100
AcDbEntity
  8
0
 62
     7
100
AcDbCircle
 10
220.5855839686673
 20
357.2711353809584
 30
0.0
 40
1.0
100
AcDbArc
 50
0.0
 51
90.00000299999992
  0
LINE
  5
33E6
330
A
100
AcDbEntity
  8
0
  6
DASHED
 62
     4
 48
0.150001
100
AcDbLine
 10
348.0855989686673
 20
306.1725633809585
 30
0.0
 11
348.0855989686673
 21
300.1725253809585
 31
0.0
  0
LINE
  5
33E7
330
A
100
AcDbEntity
  8
0
  6
DASHED
 62
     4
 48
0.150001
100
AcDbLine
 10
347.0855989686672
 20
306.1690693809585
 30
0.0
 11
347.0855989686672
 21
300.1690393809585
 31
0.0
  0
LINE
  5
33F8
330
A
100
AcDbEntity
  8
0
 62
     7
 48
0.025
100
AcDbLine
 10
361.3855869686671
 20
340.7710893809583
 30
0.0
 11
361.3855869686671
 21
339.7710893809583
 31
0.0
  0
LINE
  5
3411
330
A
100
AcDbEntity
  8
0
 62
     7
100
AcDbLine
 10
386.0855989686672
 20
442.2370623809585
 30
0.0
 11
233.0855839686673
 21
442.7711353809583
 31
0.0
  0
LINE
  5
3412
330
A
100
AcDbEntity
  8
0
  6
DASHED
 62
     4
100
AcDbLine
 10
348.0855989686673
 20
448.3697383809583
 30
0.0
 11
238.0855839686673
 21
448.7537103809584
 31
0.0
  0
LINE
  5
3413
330
A
100
AcDbEntity
  8
0
 62
     7
100
AcDbLine
 10
221.0855839686673
 20
404.2711353809584
 30
0.0
 11
221.0854919686672
 21
446.2449213809584
 31
0.0
  0
ARC
  5
3414
330
A
100
AcDbEntity
  8
0
 62
     7
100
AcDbCircle
 10
220.5855839686673
 20
391.2711353809584
 30
0.0
 40
1.0
100
AcDbArc
 50
270.000001
 51
0.0
  0
LINE
  5
3415
330
A
100
AcDbEntity
  8
0
 62
     7
 48
0.1
100
AcDbLine
 10
221.5855839686671
 20
400.2711353809583
 30
0.0
 11
221.5855839686671
 21
404.2711353809584
 31
0.0
  0
LINE
  5
3416
330
A
100
AcDbEntity
  8
0
 62
     7
 48
0.1125
100
AcDbLine
 10
220.5855839686673
 20
399.2711353809584
 30
0.0
 11
216.0855839686671
 21
399.2711353809584
 31
0.0
  0
ARC
  5
3417
330
A
100
AcDbEntity
  8
0
 62
     7
100
AcDbCircle
 10
220.5855839686673
 20
400.2711353809583
 30
0.0
 40
1.0
100
AcDbArc
 50
270.000001
 51
0.0
  0
LINE
  5
3418
330
A
100
AcDbEntity
  8
0
 62
     7
 48
0.0125
100
AcDbLine
 10
221.5855839686671
 20
404.2711353809584
 30
0.0
 11
221.0855839686673
 21
404.2711353809584
 31
0.0
  0
LINE
  5
3419
330
A
100
AcDbEntity
  8
0
 62
     7
 48
0.2875
100
AcDbLine
 10
233.0855839686673
 20
446.2711353809583
 30
0.0
 11
221.5855839686671
 21
446.2711353809583
 31
0.0
  0
LINE
  5
341B
330
A
100
AcDbEntity
  8
0
 62
     7
 48
0.012519
100
AcDbLine
 10
221.0854919686672
 20
446.2449213809584
 30
0.0
 11
221.5855839686671
 21
446.2711353809583
 31
0.0
  0
LINE
  5
341C
330
A
100
AcDbEntity
  8
0
  6
DASHED
 62
     4
 48
0.150001
100
AcDbLine
 10
247.5855839686671
 20
442.7205223809584
 30
0.0
 11
247.5855839686671
 21
448.7205683809584
 31
0.0
  0
LINE
  5
341D
330
A
100
AcDbEntity
  8
0
  6
DASHED
 62
     4
 48
0.150001
100
AcDbLine
 10
246.5855839686671
 20
442.7240163809583
 30
0.0
 11
246.5855839686671
 21
448.7240473809585
 31
0.0
  0
LINE
  5
341E
330
A
100
AcDbEntity
  8
0
  6
DASHED
 62
     4
 48
0.150001
100
AcDbLine
 10
244.5855839686671
 20
442.7309893809584
 30
0.0
 11
244.5855839686671
 21
448.7310353809585
 31
0.0
  0
LINE
  5
341F
330
A
100
AcDbEntity
  8
0
  6
DASHED
 62
     4
 48
0.150001
100
AcDbLine
 10
243.5855839686673
 20
442.7344843809584
 30
0.0
 11
243.5855839686673
 21
448.7345143809585
 31
0.0
  0
LINE
  5
3420
330
A
100
AcDbEntity
  8
0
  6
DASHED
 62
     4
 48
0.150001
100
AcDbLine
 10
239.0855839686671
 20
442.7502003809585
 30
0.0
 11
239.0855839686671
 21
448.7502313809583
 31
0.0
  0
LINE
  5
3421
330
A
100
AcDbEntity
  8
0
  6
DASHED
 62
     4
 48
0.150001
100
AcDbLine
 10
238.0855839686673
 20
442.7536793809585
 30
0.0
 11
238.0855839686673
 21
448.7537103809584
 31
0.0
  0
LINE
  5
3423
330
A
100
AcDbEntity
  8
0
  6
DASHED
 62
     4
 48
0.150001
100
AcDbLine
 10
255.5855839686671
 20
442.6925983809584
 30
0.0
 11
255.5855839686671
 21
448.6926293809585
 31
0.0
  0
LINE
  5
3424
330
A
100
AcDbEntity
  8
0
  6
DASHED
 62
     4
 48
0.150001
100
AcDbLine
 10
254.5855839686673
 20
442.6960933809586
 30
0.0
 11
254.5855839686673
 21
448.6961233809585
 31
0.0
  0
LINE
  5
3425
330
A
100
AcDbEntity
  8
0
  6
DASHED
 62
     4
 48
0.150001
100
AcDbLine
 10
252.5855839686673
 20
442.7030663809585
 30
0.0
 11
252.5855839686673
 21
448.7031123809584
 31
0.0
  0
LINE
  5
3426
330
A
100
AcDbEntity
  8
0
  6
DASHED
 62
     4
 48
0.150001
100
AcDbLine
 10
251.5855839686671
 20
442.7065603809585
 30
0.0
 11
251.5855839686671
 21
448.7065913809583
 31
0.0
  0
LINE
  5
3427
330
A
100
AcDbEntity
  8
0
 62
     7
100
AcDbLine
 10
386.0855989686672
 20
442.2370623809585
 30
0.0
 11
386.0855989686672
 21
385.3608423809585
 31
0.0
  0
LINE
  5
3429
330
A
100
AcDbEntity
  8
0
 62
     7
100
AcDbLine
 10
360.3855869686672
 20
385.2711353809585
 30
0.0
 11
386.0855989686672
 21
385.3608423809585
 31
0.0
  0
LINE
  5
3435
330
A
100
AcDbEntity
  8
0
  6
DASHED
 62
     4
 48
0.150001
100
AcDbLine
 10
348.0855989686673
 20
442.3697073809583
 30
0.0
 11
348.0855989686673
 21
448.3697383809583
 31
0.0
  0
LINE
  5
3436
330
A
100
AcDbEntity
  8
0
  6
DASHED
 62
     4
 48
0.150001
100
AcDbLine
 10
347.0855989686672
 20
442.3732013809583
 30
0.0
 11
347.0855989686672
 21
448.3732323809585
 31
0.0
  0
LINE
  5
349D
330
A
100
AcDbEntity
  8
0
 62
     7
 48
0.110329
100
AcDbLine
 10
402.1988487520948
 20
363.0950340991763
 30
0.0
 11
403.0845693952768
 21
358.7717743431876
 31
0.0
  0
LINE
  5
349F
330
A
100
AcDbEntity
  8
0
 62
     7
100
AcDbLine
 10
387.8849238946558
 20
337.3722503362917
 30
0.0
 11
387.8849238946558
 21
363.2716658401673
 31
0.0
  0
LINE
  5
34A4
330
A
100
AcDbEntity
  8
0
 62
     7
100
AcDbLine
 10
372.0853168605259
 20
339.7722324670498
 30
0.0
 11
372.0853168605259
 21
310.7729317087343
 31
0.0
  0
LINE
  5
34A5
330
A
100
AcDbEntity
  8
0
 62
     7
100
AcDbLine
 10
384.585015463248
 20
311.7729075969521
 30
0.0
 11
384.585015463248
 21
332.8723968383954
 31
0.0
  0
LINE
  5
34A6
330
A
100
AcDbEntity
  8
0
 62
     7
 48
0.3275
100
AcDbLine
 10
394.2847935786709
 20
335.3723365589396
 30
0.0
 11
394.2847935786709
 21
310.7729317087343
 31
0.0
  0
LINE
  5
34A8
330
A
100
AcDbEntity
  8
0
 62
     7
 48
0.127083
100
AcDbLine
 10
395.7847574109976
 20
316.9227844212495
 30
0.0
 11
395.7847574109976
 21
311.6229092137676
 31
0.0
  0
LINE
  5
34A9
330
A
100
AcDbEntity
  8
0
 62
     7
 48
0.103105
100
AcDbLine
 10
396.2847453551065
 20
316.4227964771407
 30
0.0
 11
396.2847453551065
 21
312.1228971666031
 31
0.0
  0
LINE
  5
34AA
330
A
100
AcDbEntity
  8
0
 62
     7
100
AcDbLine
 10
360.3855869686672
 20
309.7729558205166
 30
0.0
 11
382.0850757427036
 21
309.7729558205166
 31
0.0
  0
LINE
  5
34AC
330
A
100
AcDbEntity
  8
0
 62
     7
 48
0.2925
100
AcDbLine
 10
360.3855869686672
 20
310.7729317087343
 30
0.0
 11
394.2847935786709
 21
310.7729317087343
 31
0.0
  0
ARC
  5
34AF
330
A
100
AcDbEntity
  8
0
 62
     7
100
AcDbCircle
 10
395.7847574109976
 20
312.1228971578766
 30
0.0
 40
0.4999879441088872
100
AcDbArc
 50
270.000001
 51
0.000001
  0
ARC
  5
34B1
330
A
100
AcDbEntity
  8
0
 62
     7
100
AcDbCircle
 10
382.0850757427036
 20
310.7729317087343
 30
0.0
 40
0.9999758882177742
100
AcDbArc
 50
270.000001
 51
0.00001
  0
ARC
  5
34B2
330
A
100
AcDbEntity
  8
0
 62
     7
100
AcDbCircle
 10
385.5849913514658
 20
311.7729075969521
 30
0.0
 40
0.9999758882177742
100
AcDbArc
 50
180.000005
 51
270.000001
  0
LINE
  5
34B5
330
A
100
AcDbEntity
  8
0
 62
     7
 48
0.0375
100
AcDbLine
 10
395.7847574109976
 20
311.6229092137676
 30
0.0
 11
394.2847935786709
 21
311.6229092137676
 31
0.0
  0
LINE
  5
34B8
330
A
100
AcDbEntity
  8
0
 62
     7
100
AcDbLine
 10
360.3855869686672
 20
340.7722083552676
 30
0.0
 11
383.8850203592376
 21
340.7722083552676
 31
0.0
  0
LINE
  5
34B9
330
A
100
AcDbEntity
  8
0
 62
     7
100
AcDbLine
 10
393.0848105130991
 20
337.3722883353753
 30
0.0
 11
372.0853168605259
 21
337.3722883353753
 31
0.0
  0
LINE
  5
34BA
330
A
100
AcDbEntity
  8
0
 62
     7
 48
0.2925
100
AcDbLine
 10
360.3855869686672
 20
339.7722324670498
 30
0.0
 11
372.0853168605259
 21
339.7722324670498
 31
0.0
  0
LINE
  5
34BE
330
A
100
AcDbEntity
  8
0
 62
     7
 48
0.025
100
AcDbLine
 10
361.3855628568848
 20
340.7721623563766
 30
0.0
 11
361.3855628568848
 21
339.7721864681587
 31
0.0
  0
LINE
  5
34BF
330
A
100
AcDbEntity
  8
0
 62
     7
100
AcDbLine
 10
403.0845693952768
 20
313.2728714292789
 30
0.0
 11
403.0845693952768
 21
358.7717743431876
 31
0.0
  0
LINE
  5
34C1
330
A
100
AcDbEntity
  8
0
 62
     7
 48
0.336456
100
AcDbLine
 10
393.0848105130991
 20
337.3722883353753
 30
0.0
 11
393.0848105130991
 21
323.9143538379855
 31
0.0
  0
ARC
  5
34C2
330
A
100
AcDbEntity
  8
0
 62
     7
100
AcDbCircle
 10
388.5849190161191
 20
332.8723968383954
 30
0.0
 40
3.999903552871096
100
AcDbArc
 50
90.00000300000001
 51
180.000005
  0
ARC
  5
34C3
330
A
100
AcDbEntity
  8
0
 62
     7
100
AcDbCircle
 10
391.7848538581265
 20
335.8723245030486
 30
0.0
 40
0.9999758882177742
100
AcDbArc
 50
0.0
 51
90.00000300000001
  0
ARC
  5
34C4
330
A
100
AcDbEntity
  8
0
 62
     7
100
AcDbCircle
 10
395.7847574109976
 20
316.4227964771407
 30
0.0
 40
0.4999879441088872
100
AcDbArc
 50
0.00001
 51
90.00000300000001
  0
ARC
  5
34C5
330
A
100
AcDbEntity
  8
0
 62
     7
100
AcDbCircle
 10
393.2848176904531
 20
324.3726017885443
 30
0.0
 40
0.4999879441088872
100
AcDbArc
 50
180.000005
 51
270.000001
  0
LINE
  5
34C8
330
A
100
AcDbEntity
  8
0
 62
     7
 48
0.0375
100
AcDbLine
 10
395.7847574109976
 20
316.9227844212495
 30
0.0
 11
394.2847935786709
 21
316.9227844212495
 31
0.0
  0
LINE
  5
34C9
330
A
100
AcDbEntity
  8
0
 62
     7
 48
0.025
100
AcDbLine
 10
393.2848176904531
 20
323.8726138444353
 30
0.0
 11
394.2847935786709
 21
323.8726138444353
 31
0.0
  0
CIRCLE
  5
34CA
330
A
100
AcDbEntity
  8
0
 62
     7
100
AcDbCircle
 10
389.0849069602279
 20
333.3723847825041
 30
0.0
 40
1.499963832326659
  0
CIRCLE
  5
34CB
330
A
100
AcDbEntity
  8
0
 62
     7
100
AcDbCircle
 10
389.0849069602279
 20
333.3723847825041
 30
0.0
 40
1.199971065861327
  0
ARC
  5
34CC
330
A
100
AcDbEntity
  8
0
 62
     7
100
AcDbCircle
 10
389.0849069602279
 20
333.3723847825041
 30
0.0
 40
1.499963832326659
100
AcDbArc
 50
0.0
 51
180.000005
  0
ARC
  5
34CD
330
A
100
AcDbEntity
  8
0
 62
     7
100
AcDbCircle
 10
389.0849069602279
 20
329.3724812296331
 30
0.0
 40
1.499963832326659
100
AcDbArc
 50
180.000005
 51
0.0
  0
LINE
  5
34CE
330
A
100
AcDbEntity
  8
0
 62
     7
 48
0.1
100
AcDbLine
 10
387.5849431279013
 20
333.3723847825041
 30
0.0
 11
387.5849431279013
 21
329.3724812296331
 31
0.0
  0
LINE
  5
34CF
330
A
100
AcDbEntity
  8
0
 62
     7
 48
0.2875
100
AcDbLine
 10
392.7848297463443
 20
335.8723245030486
 30
0.0
 11
392.7848297463443
 21
324.3726017885443
 31
0.0
  0
LINE
  5
34D0
330
A
100
AcDbEntity
  8
0
 62
     7
 48
0.1
100
AcDbLine
 10
390.5848707925546
 20
329.3724812296331
 30
0.0
 11
390.5848707925546
 21
333.3723847825041
 31
0.0
  0
LINE
  5
34D1
330
A
100
AcDbEntity
  8
0
 62
     7
 48
0.25
100
AcDbLine
 10
393.2848176904531
 20
335.3723365589398
 30
0.0
 11
393.2848176991796
 21
323.8726138444353
 31
0.0
  0
LINE
  5
34D3
330
A
100
AcDbEntity
  8
0
 62
     7
 48
0.025
100
AcDbLine
 10
393.2848176904531
 20
324.3726017885443
 30
0.0
 11
394.2847935786709
 21
324.3726017885443
 31
0.0
  0
LINE
  5
34D4
330
A
100
AcDbEntity
  8
0
 62
     7
 48
0.025
100
AcDbLine
 10
393.2848176904531
 20
334.372360670722
 30
0.0
 11
394.2847935786709
 21
334.372360670722
 31
0.0
  0
LINE
  5
34D5
330
A
100
AcDbEntity
  8
0
 62
     7
 48
0.025
100
AcDbLine
 10
393.2848176904531
 20
335.3723365589396
 30
0.0
 11
394.2847935786709
 21
335.3723365589396
 31
0.0
  0
LINE
  5
34D8
330
A
100
AcDbEntity
  8
0
 62
     7
 48
0.1575
100
AcDbLine
 10
396.2847453551065
 20
313.2728714292789
 30
0.0
 11
403.0845693952768
 21
313.2728714292789
 31
0.0
  0
LINE
  5
34DA
330
A
100
AcDbEntity
  8
0
 62
     7
 48
0.376705
100
AcDbLine
 10
384.8849962300025
 20
341.7721842434853
 30
0.0
 11
384.8849962300025
 21
361.2717142382606
 31
0.0
  0
ARC
  5
34DC
330
A
100
AcDbEntity
  8
0
 62
     7
100
AcDbCircle
 10
383.8850203417849
 20
341.7721842434853
 30
0.0
 40
0.9999758882177742
100
AcDbArc
 50
270.000001
 51
0.0
  0
LINE
  5
34E1
330
A
100
AcDbEntity
  8
0
 62
     7
 48
0.08
100
AcDbLine
 10
388.5849190161191
 20
336.8723003912663
 30
0.0
 11
391.7848538581265
 21
336.8723003912663
 31
0.0
  0
LINE
  5
34E3
330
A
100
AcDbEntity
  8
0
 62
     7
100
AcDbLine
 10
382.0850757427036
 20
379.2712800516518
 30
0.0
 11
360.3855869686672
 21
379.2712800516518
 31
0.0
  0
LINE
  5
34E9
330
A
100
AcDbEntity
  8
0
 62
     7
 48
0.199007
100
AcDbLine
 10
388.2849381970056
 20
379.2712800516518
 30
0.0
 11
396.8449738466736
 21
379.2712800516518
 31
0.0
  0
LINE
  5
34EA
330
A
100
AcDbEntity
  8
0
 62
     7
 48
0.310001
100
AcDbLine
 10
383.885020341785
 20
363.2716658401673
 30
0.0
 11
399.2846730197598
 21
363.2716658401673
 31
0.0
  0
LINE
  5
34EB
330
A
100
AcDbEntity
  8
0
 62
     7
 48
0.310001
100
AcDbLine
 10
399.2846730197598
 20
378.2713041634341
 30
0.0
 11
383.8850203417848
 21
378.2713041634341
 31
0.0
  0
LINE
  5
34EC
330
A
100
AcDbEntity
  8
0
 62
     7
 48
0.222501
100
AcDbLine
 10
402.2846006844131
 20
369.2715211694741
 30
0.0
 11
393.3847912798535
 21
369.2715211694741
 31
0.0
  0
LINE
  5
34ED
330
A
100
AcDbEntity
  8
0
 62
     7
 48
0.222501
100
AcDbLine
 10
402.2846006844131
 20
372.2714488341275
 30
0.0
 11
393.3847912798535
 21
372.2714488341275
 31
0.0
  0
LINE
  5
34EE
330
A
100
AcDbEntity
  8
0
 62
     7
 48
0.3
100
AcDbLine
 10
384.1850311078161
 20
376.7713403311073
 30
0.0
 11
384.1850311078161
 21
364.7716296724942
 31
0.0
  0
LINE
  5
34EF
330
A
100
AcDbEntity
  8
0
 62
     7
 48
0.25
100
AcDbLine
 10
393.3847912798535
 20
365.7716055607119
 30
0.0
 11
393.3847912798535
 21
375.7713644428897
 31
0.0
  0
LINE
  5
34F0
330
A
100
AcDbEntity
  8
0
 62
     7
 48
0.3
100
AcDbLine
 10
383.8850203417849
 20
364.7716296724942
 30
0.0
 11
383.8850203417849
 21
376.7713403311073
 31
0.0
  0
LINE
  5
34F2
330
A
100
AcDbEntity
  8
0
 62
     7
 48
0.072887
100
AcDbLine
 10
386.8849480064381
 20
363.2716658401673
 30
0.0
 11
388.3849118387648
 21
365.7716055607119
 31
0.0
  0
LINE
  5
34F6
330
A
100
AcDbEntity
  8
0
 62
     7
 48
0.0375
100
AcDbLine
 10
383.8850203417849
 20
364.7716296724942
 30
0.0
 11
383.8850202894263
 21
362.2716899519496
 31
0.0
  0
LINE
  5
34F7
330
A
100
AcDbEntity
  8
0
 62
     7
 48
0.0075
100
AcDbLine
 10
384.1850311078161
 20
364.7716296724942
 30
0.0
 11
383.8850203417849
 21
364.7716296724942
 31
0.0
  0
ARC
  5
34F9
330
A
100
AcDbEntity
  8
0
 62
     7
100
AcDbCircle
 10
383.8850203417849
 20
361.2717140637318
 30
0.0
 40
0.9999758882177742
100
AcDbArc
 50
0.00001
 51
90.00000300000001
  0
LINE
  5
34FE
330
A
100
AcDbEntity
  8
0
 62
     7
 48
0.125
100
AcDbLine
 10
388.3849118387648
 20
365.7716055607119
 30
0.0
 11
393.3847912798535
 21
365.7716055607119
 31
0.0
  0
ARC
  5
34FF
330
A
100
AcDbEntity
  8
0
 62
     7
100
AcDbCircle
 10
388.2849382493643
 20
378.2713041634341
 30
0.0
 40
0.9999758882177742
100
AcDbArc
 50
90.00000300000001
 51
180.000005
  0
LINE
  5
3501
330
A
100
AcDbEntity
  8
0
 62
     7
 48
0.072887
100
AcDbLine
 10
388.3849118387648
 20
375.7713644428897
 30
0.0
 11
386.8849480064381
 21
378.2713041634341
 31
0.0
  0
ARC
  5
3503
330
A
100
AcDbEntity
  8
0
 62
     7
100
AcDbCircle
 10
382.885044453567
 20
378.2713041634341
 30
0.0
 40
0.9999758882177742
100
AcDbArc
 50
0.0
 51
90.00000300000001
  0
LINE
  5
3505
330
A
100
AcDbEntity
  8
0
 62
     7
 48
0.02
100
AcDbLine
 10
382.0850757427036
 20
379.2712800516518
 30
0.0
 11
382.885044453567
 21
379.2712800516518
 31
0.0
  0
LINE
  5
3508
330
A
100
AcDbEntity
  8
0
 62
     7
 48
0.0075
100
AcDbLine
 10
383.8850203417849
 20
376.7713403311073
 30
0.0
 11
384.1850311078161
 21
376.7713403311073
 31
0.0
  0
LINE
  5
3509
330
A
100
AcDbEntity
  8
0
 62
     7
 48
0.0375
100
AcDbLine
 10
383.8850203417849
 20
378.2713041634341
 30
0.0
 11
383.8850203417849
 21
376.7713403311073
 31
0.0
  0
LINE
  5
350A
330
A
100
AcDbEntity
  8
0
 62
     7
 48
0.125
100
AcDbLine
 10
393.3847912798535
 20
375.7713644428897
 30
0.0
 11
388.3849118387648
 21
375.7713644428897
 31
0.0
  0
LINE
  5
350F
330
A
100
AcDbEntity
  8
0
 62
     7
 48
0.053852
100
AcDbLine
 10
399.2846730197598
 20
363.2716658401673
 30
0.0
 11
400.0846417306234
 21
365.271617616603
 31
0.0
  0
LINE
  5
3511
330
A
100
AcDbEntity
  8
0
 62
     7
 48
0.044685
100
AcDbLine
 10
400.0846417306234
 20
365.271617616603
 30
0.0
 11
401.4679703753002
 21
364.1397939075478
 31
0.0
  0
LINE
  5
3512
330
A
100
AcDbEntity
  8
0
 62
     7
 48
0.027979
100
AcDbLine
 10
400.1846453193005
 20
364.9767487265888
 30
0.0
 11
400.8321217071146
 21
364.0639287368363
 31
0.0
  0
LINE
  5
3513
330
A
100
AcDbEntity
  8
0
 62
     7
 48
0.022238
100
AcDbLine
 10
399.7570736290644
 20
364.1967685337549
 30
0.0
 11
400.1846453193005
 21
364.9767487265888
 31
0.0
  0
ARC
  5
3514
330
A
100
AcDbEntity
  8
0
 62
     7
100
AcDbCircle
 10
401.4846019742732
 20
364.5267625768183
 30
0.0
 40
1.599961421148438
100
AcDbArc
 50
215.3482819999999
 51
0.0
  0
LINE
  5
3515
330
A
100
AcDbEntity
  8
0
 62
     7
 48
0.018258
100
AcDbLine
 10
399.7570736290644
 20
364.1967685337549
 30
0.0
 11
400.1796104407032
 21
363.6011098964926
 31
0.0
  0
LINE
  5
3516
330
A
100
AcDbEntity
  8
0
 62
     7
 48
0.003489
100
AcDbLine
 10
401.9981085924146
 20
364.0746244789368
 30
0.0
 11
402.0261229169232
 21
363.9379247750897
 31
0.0
  0
ARC
  5
3518
330
A
100
AcDbEntity
  8
0
 62
     7
100
AcDbCircle
 10
401.7846127403043
 20
364.5267625768183
 30
0.0
 40
0.4999879441088872
100
AcDbArc
 50
230.710594
 51
0.0
  0
ARC
  5
3519
330
A
100
AcDbEntity
  8
0
 62
     7
100
AcDbCircle
 10
401.4846019742732
 20
364.5267625768183
 30
0.0
 40
0.7999807105742196
100
AcDbArc
 50
215.3482819999999
 51
0.0
  0
LINE
  5
351A
330
A
100
AcDbEntity
  8
0
 62
     7
 48
0.053852
100
AcDbLine
 10
400.0846417306234
 20
376.2713523869986
 30
0.0
 11
399.2846730197598
 21
378.2713041634341
 31
0.0
  0
LINE
  5
351B
330
A
100
AcDbEntity
  8
0
 62
     7
 48
0.044685
100
AcDbLine
 10
401.4679703753002
 20
377.4031760960537
 30
0.0
 11
400.0846417306234
 21
376.2713523869986
 31
0.0
  0
LINE
  5
351C
330
A
100
AcDbEntity
  8
0
 62
     7
 48
0.118622
100
AcDbLine
 10
402.2846006844131
 20
372.2714488341275
 30
0.0
 11
402.2846006844131
 21
377.016207426783
 31
0.0
  0
LINE
  5
351D
330
A
100
AcDbEntity
  8
0
 62
     7
 48
0.15625
100
AcDbLine
 10
403.0845633954215
 20
364.5267625768183
 30
0.0
 11
403.0845693952768
 21
377.0264611795407
 31
0.0
  0
LINE
  5
351E
330
A
100
AcDbEntity
  8
0
 62
     7
 48
0.15625
100
AcDbLine
 10
402.2846006844131
 20
364.5267625768183
 30
0.0
 11
402.2846006844131
 21
377.0264611795407
 31
0.0
  0
ARC
  5
351F
330
A
100
AcDbEntity
  8
0
 62
     7
100
AcDbCircle
 10
401.4846019742732
 20
377.0264611795407
 30
0.0
 40
1.599961421148438
100
AcDbArc
 50
0.00001
 51
144.6517129999999
  0
LINE
  5
3520
330
A
100
AcDbEntity
  8
0
 62
     7
 48
0.027979
100
AcDbLine
 10
400.1846453193005
 20
376.5764600301322
 30
0.0
 11
400.8321217071146
 21
377.4892790199086
 31
0.0
  0
ARC
  5
3522
330
A
100
AcDbEntity
  8
0
 62
     7
100
AcDbCircle
 10
396.8449738466736
 20
376.7713403311073
 30
0.0
 40
2.499939720544435
100
AcDbArc
 50
36.868588
 51
90.00000300000001
  0
LINE
  5
3524
330
A
100
AcDbEntity
  8
0
 62
     7
 48
0.018258
100
AcDbLine
 10
399.7570736290644
 20
377.3564552226042
 30
0.0
 11
400.1796104407032
 21
377.9520978602525
 31
0.0
  0
LINE
  5
3525
330
A
100
AcDbEntity
  8
0
 62
     7
 48
0.022238
100
AcDbLine
 10
399.7570736290644
 20
377.3564552226042
 30
0.0
 11
400.1846453193005
 21
376.5764600301322
 31
0.0
  0
ARC
  5
3526
330
A
100
AcDbEntity
  8
0
 62
     7
100
AcDbCircle
 10
401.7846127403043
 20
377.016207426783
 30
0.0
 40
0.4999879441088872
100
AcDbArc
 50
0.00001
 51
129.2894009999999
  0
ARC
  5
3527
330
A
100
AcDbEntity
  8
0
 62
     7
100
AcDbCircle
 10
401.4846019742732
 20
377.0264611795407
 30
0.0
 40
0.7999807105742196
100
AcDbArc
 50
0.0
 51
144.6517129999999
  0
LINE
  5
35B7
330
A
100
AcDbEntity
  8
0
 62
     7
100
AcDbLine
 10
19.79130196866745
 20
304.7711353809582
 30
0.0
 11
19.79130196866745
 21
443.7711353809583
 31
0.0
  0
LINE
  5
35B8
330
A
100
AcDbEntity
  8
0
 62
     7
 48
0.4
100
AcDbLine
 10
160.283305968667
 20
390.2711353809582
 30
0.0
 11
160.283305968667
 21
358.2711353809584
 31
0.0
  0
LINE
  5
35B9
330
A
100
AcDbEntity
  8
0
 62
     7
100
AcDbLine
 10
160.939495968667
 20
446.2711353809583
 30
0.0
 11
160.939495968667
 21
302.2711353809581
 31
0.0
  0
LINE
  5
35BA
330
A
100
AcDbEntity
  8
0
 62
     7
100
AcDbLine
 10
160.2575499686671
 20
304.6486393809581
 30
0.0
 11
160.2575499686671
 21
444.3936333809584
 31
0.0
  0
LINE
  5
35BB
330
A
100
AcDbEntity
  8
0
 62
     7
100
AcDbLine
 10
26.36803996866743
 20
309.5499753809582
 30
0.0
 11
26.36803996866743
 21
438.9922973809584
 31
0.0
  0
LINE
  5
35BC
330
A
100
AcDbEntity
  8
0
 62
     7
100
AcDbLine
 10
151.5109379686671
 20
309.5499753809582
 30
0.0
 11
151.5109379686671
 21
438.9922973809584
 31
0.0
  0
LINE
  5
35BD
330
A
100
AcDbEntity
  8
0
 62
     7
100
AcDbLine
 10
146.9394959686673
 20
437.2711353809584
 30
0.0
 11
146.9394959686673
 21
311.2711353809582
 31
0.0
  0
LINE
  5
35BE
330
A
100
AcDbEntity
  8
0
 62
     7
100
AcDbLine
 10
30.93947996866736
 20
437.2711353809584
 30
0.0
 11
30.93947996866736
 21
311.2711353809582
 31
0.0
  0
LINE
  5
35BF
330
A
100
AcDbEntity
  8
0
 62
     7
100
AcDbLine
 10
16.93947996866736
 20
446.2711353809583
 30
0.0
 11
16.93947996866736
 21
302.2711353809581
 31
0.0
  0
LINE
  5
35C0
330
A
100
AcDbEntity
  8
0
 62
     7
 48
0.064952
100
AcDbLine
 10
27.73371596866732
 20
302.2711353809581
 30
0.0
 11
22.53754796866738
 21
302.2711353809581
 31
0.0
  0
LINE
  5
35C1
330
A
100
AcDbEntity
  8
0
 62
     7
 48
0.058777
100
AcDbLine
 10
28.02238196866746
 20
302.7711353809582
 30
0.0
 11
23.33948996866742
 21
303.1962153809581
 31
0.0
  0
ARC
  5
35C2
330
A
100
AcDbEntity
  8
0
 62
     7
100
AcDbCircle
 10
88.93918996866721
 20
-26367.78886061901
 30
0.0
 40
26671.09961
100
AcDbArc
 50
89.85305100000058
 51
90.14092300000006
  0
LINE
  5
35C3
330
A
100
AcDbEntity
  8
0
 62
     7
 48
0.018726
100
AcDbLine
 10
23.33948996866742
 20
303.2293873809583
 30
0.0
 11
23.33948996866742
 21
304.7711353809582
 31
0.0
  0
LINE
  5
35C4
330
A
100
AcDbEntity
  8
0
 62
     7
 48
0.00625
100
AcDbLine
 10
22.93947996866736
 20
304.7711353809582
 30
0.0
 11
22.93947996866736
 21
304.2711353809583
 31
0.0
  0
LINE
  5
35C5
330
A
100
AcDbEntity
  8
0
 62
     7
 48
0.069976
100
AcDbLine
 10
22.53754796866738
 20
303.4711493809583
 30
0.0
 11
16.93947996866736
 21
303.4711493809583
 31
0.0
  0
LINE
  5
35C6
330
A
100
AcDbEntity
  8
0
 62
     7
 48
0.069976
100
AcDbLine
 10
22.53754796866738
 20
302.2711353809581
 30
0.0
 11
16.93947996866736
 21
302.2711353809581
 31
0.0
  0
LINE
  5
35C7
330
A
100
AcDbEntity
  8
0
 62
     7
 48
0.075
100
AcDbLine
 10
16.93947996866736
 20
304.2711353809583
 30
0.0
 11
22.93947996866736
 21
304.2711353809583
 31
0.0
  0
LINE
  5
35C8
330
A
100
AcDbEntity
  8
0
 62
     7
 48
0.015
100
AcDbLine
 10
16.93947996866736
 20
303.4711493809583
 30
0.0
 11
16.93947996866736
 21
302.2711353809581
 31
0.0
  0
LINE
  5
35C9
330
A
100
AcDbEntity
  8
0
 62
     7
 48
0.01
100
AcDbLine
 10
17.43947996866736
 20
303.4711493809583
 30
0.0
 11
17.43947996866736
 21
304.2711353809583
 31
0.0
  0
LINE
  5
35CA
330
A
100
AcDbEntity
  8
0
 62
     7
 48
0.010024
100
AcDbLine
 10
23.33948996866742
 20
303.4711493809583
 30
0.0
 11
22.53754796866738
 21
303.4711493809583
 31
0.0
  0
LINE
  5
35CB
330
A
100
AcDbEntity
  8
0
 62
     7
 48
0.015
100
AcDbLine
 10
22.53754796866738
 20
303.4711493809583
 30
0.0
 11
22.53754796866738
 21
302.2711353809581
 31
0.0
  0
LINE
  5
35CC
330
A
100
AcDbEntity
  8
0
 62
     7
 48
0.000415
100
AcDbLine
 10
23.33948996866742
 20
303.1962153809581
 30
0.0
 11
23.33948996866742
 21
303.2293873809583
 31
0.0
  0
LINE
  5
35CD
330
A
100
AcDbEntity
  8
0
 62
     7
 48
0.01
100
AcDbLine
 10
22.43947996866736
 20
303.4711493809583
 30
0.0
 11
22.43947996866736
 21
304.2711353809583
 31
0.0
  0
LINE
  5
35CE
330
A
100
AcDbEntity
  8
0
 62
     7
 48
0.044352
100
AcDbLine
 10
19.79130196866745
 20
304.7711353809582
 30
0.0
 11
23.33948996866742
 21
304.7711353809582
 31
0.0
  0
LINE
  5
35CF
330
A
100
AcDbEntity
  8
0
  6
DASHED
 62
     4
100
AcDbLine
 10
118.9394959686673
 20
299.7711353809583
 30
0.0
 11
58.93948796866744
 21
299.7711353809583
 31
0.0
  0
LINE
  5
35D0
330
A
100
AcDbEntity
  8
0
 62
     7
100
AcDbLine
 10
108.0721859686669
 20
302.7711353809582
 30
0.0
 11
28.02238196866746
 21
302.7711353809582
 31
0.0
  0
LINE
  5
35D1
330
A
100
AcDbEntity
  8
0
 62
     7
100
AcDbLine
 10
160.939495968667
 20
302.2711353809581
 30
0.0
 11
27.73371596866732
 21
302.2711353809581
 31
0.0
  0
ARC
  5
35D2
330
A
100
AcDbEntity
  8
0
 62
     7
100
AcDbCircle
 10
88.93947996866737
 20
1357.693805380956
 30
0.0
 40
1050.362669999999
100
AcDbArc
 50
266.6381270000008
 51
273.3618740000017
  0
LINE
  5
35D3
330
A
100
AcDbEntity
  8
0
 62
     7
100
AcDbLine
 10
145.717723968667
 20
310.2711353809583
 30
0.0
 11
32.1612359686674
 21
310.2711353809583
 31
0.0
  0
LINE
  5
35D4
330
A
100
AcDbEntity
  8
0
 62
     7
 48
0.006577
100
AcDbLine
 10
27.73371596866732
 20
302.7973213809583
 30
0.0
 11
27.73371596866732
 21
302.2711353809581
 31
0.0
  0
ARC
  5
35D5
330
A
100
AcDbEntity
  8
0
 62
     7
100
AcDbCircle
 10
31.93947996866736
 20
311.2711353809582
 30
0.0
 40
1.0
100
AcDbArc
 50
180.0000050000005
 51
269.9999730000012
  0
LINE
  5
35D6
330
A
100
AcDbEntity
  8
0
 62
     7
 48
0.061856
100
AcDbLine
 10
32.1612359686674
 20
310.2711353809583
 30
0.0
 11
27.34406796866747
 21
309.1386293809583
 31
0.0
  0
LINE
  5
35D7
330
A
100
AcDbEntity
  8
0
 62
     7
 48
0.061264
100
AcDbLine
 10
31.13909596866747
 20
310.6716493809585
 30
0.0
 11
26.36803996866743
 21
309.5499753809582
 31
0.0
  0
LWPOLYLINE
  5
35D8
330
A
100
AcDbEntity
  8
0
 62
     7
100
AcDbPolyline
 90
        5
 70
     0
 43
0.0
 10
27.34406796866747
 20
309.1386293809583
 10
26.78246796866746
 20
309.2177913809583
 10
26.54307196866739
 20
309.3089473809583
 10
26.42152196866746
 20
309.4059013809583
 10
26.36803996866742
 20
309.5499753809582
  0
LINE
  5
35D9
330
A
100
AcDbEntity
  8
0
 62
     7
 48
0.002772
100
AcDbLine
 10
31.93947996866736
 20
310.2711353809583
 30
0.0
 11
32.1612359686674
 21
310.2711353809583
 31
0.0
  0
LINE
  5
35DA
330
A
100
AcDbEntity
  8
0
  6
DASHED
 62
     4
 48
0.0625
100
AcDbLine
 10
58.93948796866744
 20
299.7711353809583
 30
0.0
 11
58.93948796866744
 21
302.2711353809583
 31
0.0
  0
LINE
  5
35DB
330
A
100
AcDbEntity
  8
0
  6
DASHED
 62
     4
 48
0.0625
100
AcDbLine
 10
59.93948796866746
 20
299.7711353809583
 30
0.0
 11
59.93948796866746
 21
302.2711353809583
 31
0.0
  0
LINE
  5
35DC
330
A
100
AcDbEntity
  8
0
  6
DASHED
 62
     4
 48
0.0625
100
AcDbLine
 10
75.93948796866745
 20
299.7711353809583
 30
0.0
 11
75.93948796866745
 21
302.2711353809583
 31
0.0
  0
LINE
  5
35DD
330
A
100
AcDbEntity
  8
0
  6
DASHED
 62
     4
 48
0.0625
100
AcDbLine
 10
76.93948796866745
 20
299.7711353809583
 30
0.0
 11
76.93948796866745
 21
302.2711353809583
 31
0.0
  0
LINE
  5
35DE
330
A
100
AcDbEntity
  8
0
  6
DASHED
 62
     4
 48
0.0625
100
AcDbLine
 10
73.93948796866744
 20
299.7711353809583
 30
0.0
 11
73.93948796866744
 21
302.2711353809583
 31
0.0
  0
LINE
  5
35DF
330
A
100
AcDbEntity
  8
0
  6
DASHED
 62
     4
 48
0.0625
100
AcDbLine
 10
72.93948796866747
 20
299.7711353809583
 30
0.0
 11
72.93948796866747
 21
302.2711353809583
 31
0.0
  0
LINE
  5
35E0
330
A
100
AcDbEntity
  8
0
  6
DASHED
 62
     4
 48
0.0625
100
AcDbLine
 10
100.9394879686672
 20
299.7711353809583
 30
0.0
 11
100.9394879686672
 21
302.2711353809583
 31
0.0
  0
LINE
  5
35E1
330
A
100
AcDbEntity
  8
0
 62
     7
 48
0.49375
100
AcDbLine
 10
160.895733968667
 20
344.271135380958
 30
0.0
 11
160.8959118599593
 21
304.2663551871775
 31
0.0
  0
LINE
  5
35E2
330
A
100
AcDbEntity
  8
0
 62
     7
100
AcDbLine
 10
154.0721859686668
 20
303.1379873809583
 30
0.0
 11
110.8067759686674
 21
303.1379873809583
 31
0.0
  0
LINE
  5
35E3
330
A
100
AcDbEntity
  8
0
  6
DASHED
 62
     4
 48
0.0625
100
AcDbLine
 10
103.9394879686672
 20
299.7711353809583
 30
0.0
 11
103.9394879686672
 21
302.2711353809583
 31
0.0
  0
LINE
  5
35E4
330
A
100
AcDbEntity
  8
0
  6
DASHED
 62
     4
 48
0.0625
100
AcDbLine
 10
104.9394879686674
 20
299.7711353809583
 30
0.0
 11
104.9394879686674
 21
302.2711353809583
 31
0.0
  0
LINE
  5
35E5
330
A
100
AcDbEntity
  8
0
  6
DASHED
 62
     4
 48
0.0625
100
AcDbLine
 10
101.9394879686672
 20
299.7711353809583
 30
0.0
 11
101.9394879686672
 21
302.2711353809583
 31
0.0
  0
LWPOLYLINE
  5
35E6
330
A
100
AcDbEntity
  8
0
 62
     7
100
AcDbPolyline
 90
       20
 70
     0
 43
0.0
 10
109.0621459686674
 20
302.8161333809583
 10
109.048732968667
 20
302.8122583809583
 10
109.0298049686672
 20
302.8084433809583
 10
109.0054669686667
 20
302.8047203809583
 10
108.9758649686672
 20
302.8011043809583
 10
108.9411509686672
 20
302.7976093809582
 10
108.9015239686672
 20
302.7942603809583
 10
108.857212968667
 20
302.7910783809583
 10
108.8084609686672
 20
302.7880803809583
 10
108.7555429686672
 20
302.7852803809583
 10
108.698757968667
 20
302.7827013809583
 10
108.6384169686669
 20
302.7803443809583
 10
108.5748719686673
 20
302.7782383809583
 10
108.5084809686672
 20
302.7763843809583
 10
108.439609968667
 20
302.7747973809583
 10
108.3686569686674
 20
302.7734933809583
 10
108.2960249686674
 20
302.7724633809583
 10
108.2221269686673
 20
302.7717303809584
 10
108.1473739686672
 20
302.7712803809583
 10
108.0721939686672
 20
302.7711353809583
  0
LINE
  5
35E7
330
A
100
AcDbEntity
  8
0
 62
     7
 48
0.020097
100
AcDbLine
 10
109.0621459686674
 20
302.8161333809583
 30
0.0
 11
109.8168299686674
 21
303.0929973809583
 31
0.0
  0
LWPOLYLINE
  5
35E8
330
A
100
AcDbEntity
  8
0
 62
     7
100
AcDbPolyline
 90
       20
 70
     0
 43
0.0
 10
110.8067819686672
 20
303.1379873809583
 10
110.7316019686672
 20
303.1378423809583
 10
110.6568499686672
 20
303.1374003809583
 10
110.5829439686672
 20
303.1366603809583
 10
110.5103119686672
 20
303.1356373809583
 10
110.439357968667
 20
303.1343253809584
 10
110.3704949686673
 20
303.1327383809582
 10
110.3040969686672
 20
303.1308843809583
 10
110.2405519686671
 20
303.1287783809583
 10
110.1802179686672
 20
303.1264293809583
 10
110.1234329686673
 20
303.1238423809583
 10
110.0705079686673
 20
303.1210423809584
 10
110.0217559686674
 20
303.1180443809583
 10
109.9774439686673
 20
303.1148623809583
 10
109.9378169686672
 20
303.1115213809584
 10
109.903110968667
 20
303.1080263809584
 10
109.8735009686672
 20
303.1044023809584
 10
109.8491709686671
 20
303.1006793809583
 10
109.8302429686672
 20
303.0968653809583
 10
109.8168299686674
 20
303.0929973809583
  0
LWPOLYLINE
  5
35E9
330
A
100
AcDbEntity
  8
0
 62
     7
100
AcDbPolyline
 90
        3
 70
     0
 43
0.0
 10
108.0721859686669
 20
302.7711353809582
 10
108.7273979686669
 20
302.7839533809583
 10
109.0621459686669
 20
302.8161193809582
  0
LINE
  5
35EA
330
A
100
AcDbEntity
  8
0
 62
     7
 48
0.010048
100
AcDbLine
 10
109.0621459686669
 20
302.8161193809582
 30
0.0
 11
109.816815968667
 21
303.0930053809583
 31
0.0
  0
LWPOLYLINE
  5
35EB
330
A
100
AcDbEntity
  8
0
 62
     7
100
AcDbPolyline
 90
        3
 70
     0
 43
0.0
 10
110.8067759686674
 20
303.1379873809583
 10
110.151561968667
 20
303.1251713809583
 10
109.816815968667
 20
303.0930053809583
  0
LINE
  5
35EC
330
A
100
AcDbEntity
  8
0
  6
DASHED
 62
     4
 48
0.0625
100
AcDbLine
 10
118.9394959686673
 20
299.7711353809583
 30
0.0
 11
118.9394959686673
 21
302.2711353809583
 31
0.0
  0
LINE
  5
35ED
330
A
100
AcDbEntity
  8
0
  6
DASHED
 62
     4
 48
0.0625
100
AcDbLine
 10
117.9394959686673
 20
299.7711353809583
 30
0.0
 11
117.9394959686673
 21
302.2711353809583
 31
0.0
  0
ARC
  5
35EE
330
A
100
AcDbEntity
  8
0
 62
     7
100
AcDbCircle
 10
159.4005259686673
 20
304.2669253809583
 30
0.0
 40
1.495386
100
AcDbArc
 50
269.8603099999981
 51
359.9781529999983
  0
LWPOLYLINE
  5
35EF
330
A
100
AcDbEntity
  8
0
 62
     7
100
AcDbPolyline
 90
       10
 70
     0
 43
0.0
 10
158.763255968667
 20
303.1506833809582
 10
159.0079779686671
 20
303.1720153809581
 10
159.2461059686669
 20
303.2332333809583
 10
159.4713559686671
 20
303.3327813809583
 10
159.6774419686671
 20
303.4678833809583
 10
159.8589299686671
 20
303.6350893809583
 10
160.0107539686673
 20
303.8296993809585
 10
160.1288279686674
 20
304.0465873809583
 10
160.2098819686669
 20
304.2798033809583
 10
160.2575499686671
 20
304.6486393809581
  0
LWPOLYLINE
  5
35F0
330
A
100
AcDbEntity
  8
0
 62
     7
100
AcDbPolyline
 90
        3
 70
     0
 43
0.0
 10
155.0621459686668
 20
303.0930053809583
 10
154.727397968667
 20
303.1251713809583
 10
154.0721859686668
 20
303.1379873809583
  0
LINE
  5
35F1
330
A
100
AcDbEntity
  8
0
 62
     7
 48
0.032376
100
AcDbLine
 10
159.3968939686674
 20
302.7711353809582
 30
0.0
 11
156.8067759686674
 21
302.7711353809582
 31
0.0
  0
LINE
  5
35F2
330
A
100
AcDbEntity
  8
0
 62
     7
 48
0.010048
100
AcDbLine
 10
155.8168159686671
 20
302.8161193809582
 30
0.0
 11
155.0621459686668
 21
303.0930053809583
 31
0.0
  0
LWPOLYLINE
  5
35F3
330
A
100
AcDbEntity
  8
0
 62
     7
100
AcDbPolyline
 90
        3
 70
     0
 43
0.0
 10
155.8168159686671
 20
302.8161193809582
 10
156.1515939686671
 20
302.7839533809583
 10
156.8067759686674
 20
302.7711353809582
  0
LINE
  5
35F4
330
A
100
AcDbEntity
  8
0
 62
     7
 48
0.009233
100
AcDbLine
 10
159.3968939686674
 20
302.7711353809582
 30
0.0
 11
158.763255968667
 21
303.1506833809582
 31
0.0
  0
LWPOLYLINE
  5
35F5
330
A
100
AcDbEntity
  8
0
 62
     7
100
AcDbPolyline
 90
        5
 70
     0
 43
0.0
 10
158.763255968667
 20
303.1506833809582
 10
158.725017968667
 20
303.1627373809584
 10
158.5058719686671
 20
303.1883113809583
 10
157.6432919686668
 20
303.2199573809585
 10
157.342327968667
 20
303.2223693809583
  0
LINE
  5
35F6
330
A
100
AcDbEntity
  8
0
 62
     7
 48
0.061264
100
AcDbLine
 10
151.5109379686671
 20
309.5499753809582
 30
0.0
 11
146.7398799686669
 21
310.6716493809585
 31
0.0
  0
LINE
  5
35F7
330
A
100
AcDbEntity
  8
0
 62
     7
 48
0.061856
100
AcDbLine
 10
150.5348939686674
 20
309.1386293809583
 30
0.0
 11
145.717723968667
 21
310.2711353809583
 31
0.0
  0
ARC
  5
35F8
330
A
100
AcDbEntity
  8
0
 62
     7
100
AcDbCircle
 10
145.9394959686673
 20
311.2711353809582
 30
0.0
 40
1.0
100
AcDbArc
 50
270.0000009999981
 51
0.0
  0
LINE
  5
35F9
330
A
100
AcDbEntity
  8
0
 62
     7
 48
0.002772
100
AcDbLine
 10
145.717723968667
 20
310.2711353809583
 30
0.0
 11
145.9394959686673
 21
310.2711353809583
 31
0.0
  0
LWPOLYLINE
  5
35FA
330
A
100
AcDbEntity
  8
0
 62
     7
100
AcDbPolyline
 90
        5
 70
     0
 43
0.0
 10
150.5348939686674
 20
309.1386293809583
 10
151.0965079686674
 20
309.2177913809583
 10
151.3358879686671
 20
309.3089473809583
 10
151.4574399686673
 20
309.4059013809583
 10
151.5109379686671
 20
309.5499753809582
  0
LINE
  5
35FB
330
A
100
AcDbEntity
  8
0
 62
     7
 48
0.009299
100
AcDbLine
 10
160.895733968667
 20
304.2663453809585
 30
0.0
 11
160.2575499686671
 21
304.6486393809581
 31
0.0
  0
LWPOLYLINE
  5
35FC
330
A
100
AcDbEntity
  8
0
 62
     7
100
AcDbPolyline
 90
        4
 70
     0
 43
0.0
 10
160.283305968667
 20
351.2711353809584
 10
160.334575968667
 20
349.8569213809584
 10
160.3913399686674
 20
349.4233893809583
 10
160.4582939686673
 20
349.2711353809584
  0
LINE
  5
35FD
330
A
100
AcDbEntity
  8
0
 62
     7
 48
0.05
100
AcDbLine
 10
160.939495968667
 20
344.271135380958
 30
0.0
 11
160.939495968667
 21
348.2711353809584
 31
0.0
  0
LINE
  5
35FE
330
A
100
AcDbEntity
  8
0
 62
     7
 48
0.000547
100
AcDbLine
 10
160.939495968667
 20
344.271135380958
 30
0.0
 11
160.895733968667
 21
344.271135380958
 31
0.0
  0
LWPOLYLINE
  5
35FF
330
A
100
AcDbEntity
  8
0
 62
     7
100
AcDbPolyline
 90
        4
 70
     0
 43
0.0
 10
160.939495968667
 20
348.2711353809584
 10
160.9138619686673
 20
348.9782293809581
 10
160.8854799686669
 20
349.1950253809581
 10
160.8520019686673
 20
349.2711353809584
  0
LINE
  5
3600
330
A
100
AcDbEntity
  8
0
 62
     7
 48
0.004921
100
AcDbLine
 10
160.8520019686673
 20
349.2711353809584
 30
0.0
 11
160.4582939686673
 21
349.2711353809584
 31
0.0
  0
LINE
  5
3601
330
A
100
AcDbEntity
  8
0
 62
     7
 48
0.0875
100
AcDbLine
 10
160.283305968667
 20
358.2711353809584
 30
0.0
 11
160.283305968667
 21
351.2711353809584
 31
0.0
  0
LINE
  5
3602
330
A
100
AcDbEntity
  8
0
 62
     7
 48
0.058777
100
AcDbLine
 10
28.02238196866746
 20
446.2711353809583
 30
0.0
 11
23.33948996866742
 21
445.846057380958
 31
0.0
  0
LINE
  5
3603
330
A
100
AcDbEntity
  8
0
 62
     7
 48
0.069976
100
AcDbLine
 10
16.93947996866736
 20
446.2711353809583
 30
0.0
 11
160.939495968667
 21
446.2711353809583
 31
0.0
  0
LINE
  5
3604
330
A
100
AcDbEntity
  8
0
 62
     7
 48
0.064952
100
AcDbLine
 10
160.939495968667
 20
446.2711353809583
 30
0.0
 11
22.53754796866738
 21
446.2711353809583
 31
0.0
  0
ARC
  5
3605
330
A
100
AcDbEntity
  8
0
 62
     7
100
AcDbCircle
 10
88.93918996866721
 20
27116.83223338095
 30
0.0
 40
26671.09961
100
AcDbArc
 50
269.85908
 51
270.1469590000006
  0
LINE
  5
3606
330
A
100
AcDbEntity
  8
0
 62
     7
 48
0.069976
100
AcDbLine
 10
22.53754796866738
 20
445.0711233809581
 30
0.0
 11
16.93947996866736
 21
445.0711233809581
 31
0.0
  0
LINE
  5
3607
330
A
100
AcDbEntity
  8
0
 62
     7
 48
0.058674
100
AcDbLine
 10
17.43947996866736
 20
444.5711233809581
 30
0.0
 11
22.43947996866736
 21
444.5711233809581
 31
0.0
  0
LINE
  5
3608
330
A
100
AcDbEntity
  8
0
 62
     7
 48
0.058674
100
AcDbLine
 10
16.93947996866736
 20
443.7711353809583
 30
0.0
 11
23.33948996866742
 21
443.7711353809584
 31
0.0
  0
LINE
  5
3609
330
A
100
AcDbEntity
  8
0
 62
     7
 48
0.01
100
AcDbLine
 10
17.43947996866736
 20
444.5711233809581
 30
0.0
 11
17.43947996866736
 21
443.7711353809584
 31
0.0
  0
LINE
  5
360A
330
A
100
AcDbEntity
  8
0
 62
     7
 48
0.00625
100
AcDbLine
 10
18.28947196866752
 20
445.0711233809581
 30
0.0
 11
18.28947196866752
 21
444.5711233809581
 31
0.0
  0
LINE
  5
360B
330
A
100
AcDbEntity
  8
0
 62
     7
 48
0.010024
100
AcDbLine
 10
23.33948996866742
 20
445.0711233809581
 30
0.0
 11
22.53754796866738
 21
445.0711233809581
 31
0.0
  0
LINE
  5
360C
330
A
100
AcDbEntity
  8
0
 62
     7
 48
0.015
100
AcDbLine
 10
22.53754796866738
 20
445.0711233809581
 30
0.0
 11
22.53754796866738
 21
446.2711353809583
 31
0.0
  0
LINE
  5
360D
330
A
100
AcDbEntity
  8
0
 62
     7
 48
0.000415
100
AcDbLine
 10
23.33948996866742
 20
445.846057380958
 30
0.0
 11
23.33948996866742
 21
445.8128833809579
 31
0.0
  0
LINE
  5
360E
330
A
100
AcDbEntity
  8
0
 62
     7
 48
0.018726
100
AcDbLine
 10
23.33948996866742
 20
443.7711353809584
 30
0.0
 11
23.33948996866742
 21
445.8128833809579
 31
0.0
  0
LINE
  5
360F
330
A
100
AcDbEntity
  8
0
 62
     7
 48
0.01
100
AcDbLine
 10
22.43947996866736
 20
444.5711233809581
 30
0.0
 11
22.43947996866736
 21
443.7711353809584
 31
0.0
  0
LINE
  5
3610
330
A
100
AcDbEntity
  8
0
 62
     7
 48
0.00625
100
AcDbLine
 10
21.58948996866743
 20
445.0711233809581
 30
0.0
 11
21.58948996866743
 21
444.5711233809581
 31
0.0
  0
LINE
  5
3611
330
A
100
AcDbEntity
  8
0
  6
DASHED
 62
     4
100
AcDbLine
 10
118.9394959686673
 20
448.7711353809585
 30
0.0
 11
58.93948796866744
 21
448.7711353809585
 31
0.0
  0
ARC
  5
3612
330
A
100
AcDbEntity
  8
0
 62
     7
100
AcDbCircle
 10
88.93947996866737
 20
-609.1514706190415
 30
0.0
 40
1050.362669999999
100
AcDbArc
 50
86.63812899999994
 51
93.36186899999795
  0
LINE
  5
3613
330
A
100
AcDbEntity
  8
0
 62
     7
100
AcDbLine
 10
145.717723968667
 20
438.2711353809582
 30
0.0
 11
32.1612359686674
 21
438.2711353809582
 31
0.0
  0
ARC
  5
3614
330
A
100
AcDbEntity
  8
0
 62
     7
100
AcDbCircle
 10
31.93947996866736
 20
437.2711353809584
 30
0.0
 40
1.0
100
AcDbArc
 50
90.00000300000095
 51
180.0000050000005
  0
LINE
  5
3615
330
A
100
AcDbEntity
  8
0
 62
     7
 48
0.061264
100
AcDbLine
 10
31.13909596866747
 20
437.8706233809584
 30
0.0
 11
26.36803996866743
 21
438.9922973809584
 31
0.0
  0
LINE
  5
3616
330
A
100
AcDbEntity
  8
0
 62
     7
 48
0.061856
100
AcDbLine
 10
32.1612359686674
 20
438.2711353809582
 30
0.0
 11
27.34406796866747
 21
439.4036433809583
 31
0.0
  0
LWPOLYLINE
  5
3617
330
A
100
AcDbEntity
  8
0
 62
     7
100
AcDbPolyline
 90
        5
 70
     0
 43
0.0
 10
27.34406796866747
 20
439.4036433809583
 10
26.78246796866746
 20
439.3244813809584
 10
26.54307196866739
 20
439.2333253809582
 10
26.42152196866746
 20
439.1363713809581
 10
26.36803996866742
 20
438.9922973809584
  0
LINE
  5
3618
330
A
100
AcDbEntity
  8
0
 62
     7
 48
0.002772
100
AcDbLine
 10
31.93947996866736
 20
438.2711353809582
 30
0.0
 11
32.1612359686674
 21
438.2711353809582
 31
0.0
  0
LINE
  5
3619
330
A
100
AcDbEntity
  8
0
 62
     7
 48
0.000328
100
AcDbLine
 10
27.73371596866732
 20
446.2449213809583
 30
0.0
 11
27.73371596866732
 21
446.2711353809583
 31
0.0
  0
LINE
  5
361A
330
A
100
AcDbEntity
  8
0
  6
DASHED
 62
     4
 48
0.0625
100
AcDbLine
 10
58.93948796866744
 20
448.7711353809585
 30
0.0
 11
58.93948796866744
 21
446.2711353809583
 31
0.0
  0
LINE
  5
361B
330
A
100
AcDbEntity
  8
0
  6
DASHED
 62
     4
 48
0.0625
100
AcDbLine
 10
59.93948796866746
 20
448.7711353809585
 30
0.0
 11
59.93948796866746
 21
446.2711353809583
 31
0.0
  0
LINE
  5
361C
330
A
100
AcDbEntity
  8
0
  6
DASHED
 62
     4
 48
0.0625
100
AcDbLine
 10
75.93948796866745
 20
448.7711353809585
 30
0.0
 11
75.93948796866745
 21
446.2711353809583
 31
0.0
  0
LINE
  5
361D
330
A
100
AcDbEntity
  8
0
  6
DASHED
 62
     4
 48
0.0625
100
AcDbLine
 10
76.93948796866745
 20
448.7711353809585
 30
0.0
 11
76.93948796866745
 21
446.2711353809583
 31
0.0
  0
LINE
  5
361E
330
A
100
AcDbEntity
  8
0
  6
DASHED
 62
     4
 48
0.0625
100
AcDbLine
 10
73.93948796866744
 20
448.7711353809585
 30
0.0
 11
73.93948796866744
 21
446.2711353809583
 31
0.0
  0
LINE
  5
361F
330
A
100
AcDbEntity
  8
0
  6
DASHED
 62
     4
 48
0.0625
100
AcDbLine
 10
72.93948796866747
 20
448.7711353809585
 30
0.0
 11
72.93948796866747
 21
446.2711353809583
 31
0.0
  0
LINE
  5
3620
330
A
100
AcDbEntity
  8
0
  6
DASHED
 62
     4
 48
0.0625
100
AcDbLine
 10
100.9394879686672
 20
448.7711353809585
 30
0.0
 11
100.9394879686672
 21
446.2711353809583
 31
0.0
  0
LINE
  5
3621
330
A
100
AcDbEntity
  8
0
 62
     7
 48
0.49375
100
AcDbLine
 10
160.895733968667
 20
404.2711353809584
 30
0.0
 11
160.895733968667
 21
444.7759273809584
 31
0.0
  0
LINE
  5
3622
330
A
100
AcDbEntity
  8
0
 62
     7
 48
0.0875
100
AcDbLine
 10
160.283305968667
 20
397.2711353809584
 30
0.0
 11
160.283305968667
 21
390.2711353809582
 31
0.0
  0
LINE
  5
3623
330
A
100
AcDbEntity
  8
0
 62
     7
 48
0.05
100
AcDbLine
 10
160.939495968667
 20
400.2711353809582
 30
0.0
 11
160.939495968667
 21
404.2711353809584
 31
0.0
  0
LWPOLYLINE
  5
3624
330
A
100
AcDbEntity
  8
0
 62
     7
100
AcDbPolyline
 90
        8
 70
     0
 43
0.0
 10
160.4582939686673
 20
399.2711353809584
 10
160.452983968667
 20
399.2702213809581
 10
160.447857968667
 20
399.2675653809584
 10
160.438335968667
 20
399.2580753809582
 10
160.4202399686671
 20
399.2232853809584
 10
160.3808719686673
 20
399.0647153809581
 10
160.302165968667
 20
398.1739673809581
 10
160.283305968667
 20
397.2711353809584
  0
LINE
  5
3625
330
A
100
AcDbEntity
  8
0
 62
     7
 48
0.004921
100
AcDbLine
 10
160.8520019686673
 20
399.2711353809584
 30
0.0
 11
160.4582939686673
 21
399.2711353809584
 31
0.0
  0
LWPOLYLINE
  5
3626
330
A
100
AcDbEntity
  8
0
 62
     7
100
AcDbPolyline
 90
        8
 70
     0
 43
0.0
 10
160.8520019686673
 20
399.2711353809584
 10
160.8541379686671
 20
399.2714413809583
 10
160.8562739686671
 20
399.2723573809584
 10
160.8605779686669
 20
399.2759573809582
 10
160.8681459686673
 20
399.2883173809584
 10
160.895763968667
 20
399.4052313809584
 10
160.936505968667
 20
400.0125613809581
 10
160.939495968667
 20
400.2711353809582
  0
LINE
  5
3627
330
A
100
AcDbEntity
  8
0
 62
     7
 48
0.000547
100
AcDbLine
 10
160.939495968667
 20
404.2711353809584
 30
0.0
 11
160.895733968667
 21
404.2711353809584
 31
0.0
  0
LINE
  5
3628
330
A
100
AcDbEntity
  8
0
  6
DASHED
 62
     4
 48
0.0625
100
AcDbLine
 10
103.9394879686672
 20
448.7711353809585
 30
0.0
 11
103.9394879686672
 21
446.2711353809583
 31
0.0
  0
LINE
  5
3629
330
A
100
AcDbEntity
  8
0
  6
DASHED
 62
     4
 48
0.0625
100
AcDbLine
 10
104.9394879686674
 20
448.7711353809585
 30
0.0
 11
104.9394879686674
 21
446.2711353809583
 31
0.0
  0
LINE
  5
362A
330
A
100
AcDbEntity
  8
0
  6
DASHED
 62
     4
 48
0.0625
100
AcDbLine
 10
101.9394879686672
 20
448.7711353809585
 30
0.0
 11
101.9394879686672
 21
446.2711353809583
 31
0.0
  0
LINE
  5
362B
330
A
100
AcDbEntity
  8
0
  6
DASHED
 62
     4
 48
0.0625
100
AcDbLine
 10
118.9394959686673
 20
448.7711353809585
 30
0.0
 11
118.9394959686673
 21
446.2711353809583
 31
0.0
  0
LINE
  5
362C
330
A
100
AcDbEntity
  8
0
  6
DASHED
 62
     4
 48
0.0625
100
AcDbLine
 10
117.9394959686673
 20
448.7711353809585
 30
0.0
 11
117.9394959686673
 21
446.2711353809583
 31
0.0
  0
ARC
  5
362D
330
A
100
AcDbEntity
  8
0
 62
     7
100
AcDbCircle
 10
159.4005259686673
 20
444.7753473809584
 30
0.0
 40
1.495387999999999
100
AcDbArc
 50
0.0218919999995082
 51
90.13967299999919
  0
LWPOLYLINE
  5
362E
330
A
100
AcDbEntity
  8
0
 62
     7
100
AcDbPolyline
 90
       10
 70
     0
 43
0.0
 10
160.2575499686671
 20
444.3936333809584
 10
160.236217968667
 20
444.6392393809584
 10
160.1749999686673
 20
444.8781913809582
 10
160.075511968667
 20
445.1041753809583
 10
159.9404719686673
 20
445.3108693809584
 10
159.7735419686673
 20
445.492755380958
 10
159.5792059686671
 20
445.6448233809584
 10
159.362865968667
 20
445.7629573809581
 10
159.130291968667
 20
445.844011380958
 10
158.763255968667
 20
445.8915893809582
  0
LINE
  5
362F
330
A
100
AcDbEntity
  8
0
 62
     7
 48
0.061856
100
AcDbLine
 10
150.5348939686674
 20
439.4036433809583
 30
0.0
 11
145.717723968667
 21
438.2711353809582
 31
0.0
  0
LINE
  5
3630
330
A
100
AcDbEntity
  8
0
 62
     7
 48
0.061264
100
AcDbLine
 10
151.5109379686671
 20
438.9922973809584
 30
0.0
 11
146.7398799686669
 21
437.8706233809584
 31
0.0
  0
ARC
  5
3631
330
A
100
AcDbEntity
  8
0
 62
     7
100
AcDbCircle
 10
145.9394959686673
 20
437.2711353809584
 30
0.0
 40
1.0
100
AcDbArc
 50
0.0
 51
90.00000899999959
  0
LINE
  5
3632
330
A
100
AcDbEntity
  8
0
 62
     7
 48
0.002772
100
AcDbLine
 10
145.717723968667
 20
438.2711353809582
 30
0.0
 11
145.9394959686673
 21
438.2711353809582
 31
0.0
  0
LWPOLYLINE
  5
3633
330
A
100
AcDbEntity
  8
0
 62
     7
100
AcDbPolyline
 90
        5
 70
     0
 43
0.0
 10
150.5348939686674
 20
439.4036433809583
 10
151.0965079686674
 20
439.3244813809584
 10
151.3358879686671
 20
439.2333253809582
 10
151.4574399686673
 20
439.1363713809581
 10
151.5109379686671
 20
438.9922973809584
  0
LINE
  5
3634
330
A
100
AcDbEntity
  8
0
 62
     7
 48
0.009233
100
AcDbLine
 10
159.3968939686674
 20
446.2711353809583
 30
0.0
 11
158.763255968667
 21
445.8915893809582
 31
0.0
  0
LWPOLYLINE
  5
3635
330
A
100
AcDbEntity
  8
0
 62
     7
100
AcDbPolyline
 90
        4
 70
     0
 43
0.0
 10
157.342327968667
 20
445.8199033809584
 10
158.3090939686673
 20
445.8418153809583
 10
158.622295968667
 20
445.8645193809584
 10
158.763255968667
 20
445.8915893809582
  0
LINE
  5
3636
330
A
100
AcDbEntity
  8
0
 62
     7
 48
0.009299
100
AcDbLine
 10
160.895733968667
 20
444.7759273809584
 30
0.0
 11
160.2575499686671
 21
444.3936333809584
 31
0.0
  0
VIEWPORT
  5
31A6
330
B
100
AcDbEntity
 67
     1
  8
0
 62
     0
100
AcDbViewport
 10
0.0
 20
0.0
 30
0.0
 40
1000.0
 41
1000.0
 68
     1
 69
     1
 12
0.0
 22
0.0
 13
0.0
 23
0.0
 14
1.0
 24
1.0
 15
1.0
 25
1.0
 16
0.0
 26
0.0
 36
1.0
 17
0.0
 27
0.0
 37
0.0
 42
50.0
 43
0.0
 44
0.0
 45
1000.0
 50
0.0
 51
0.0
 72
   100
 90
    32800
  1

281
     0
 71
     1
 74
     0
110
0.0
120
0.0
130
0.0
111
1.0
121
0.0
131
0.0
112
0.0
122
1.0
132
0.0
 79
     0
146
0.0
  0
ENDSEC
  0
SECTION
  2
OBJECTS
  0
DICTIONARY
  5
19
330
0
100
AcDbDictionary
281
     1
  3
ACAD_GROUP
350
1A
  3
ACAD_LAYOUT
350
31AD
  3
ACAD_MLINESTYLE
350
1B
  3
ACAD_PLOTSETTINGS
350
31AE
  3
ACAD_PLOTSTYLENAME
350
31AB
  0
DICTIONARY
  5
1A
102
{ACAD_REACTORS
330
19
102
}
330
19
100
AcDbDictionary
281
     1
  0
DICTIONARY
  5
31AD
102
{ACAD_REACTORS
330
19
102
}
330
19
100
AcDbDictionary
281
     1
  3
Model
350
31AF
  3
ﾚｲｱｳﾄ1
350
31B0
  0
DICTIONARY
  5
1B
102
{ACAD_REACTORS
330
19
102
}
330
19
100
AcDbDictionary
281
     1
  3
STANDARD
350
1C
  0
DICTIONARY
  5
31AE
102
{ACAD_REACTORS
330
19
102
}
330
19
100
AcDbDictionary
281
     1
  0
ACDBDICTIONARYWDFLT
  5
31AB
102
{ACAD_REACTORS
330
19
102
}
330
19
100
AcDbDictionary
281
     1
  3
Normal
350
31AC
100
AcDbDictionaryWithDefault
340
31AC
  0
LAYOUT
  5
31AF
102
{ACAD_REACTORS
330
31AD
102
}
330
31AD
100
AcDbPlotSettings
  1

  2
Canon iR-ADV C5030/5035 LIPSLX
  4

  6

 40
0.0
 41
0.0
 42
0.0
 43
0.0
 44
0.0
 45
0.0
 46
0.0
 47
0.0
 48
0.0
 49
0.0
140
0.0
141
0.0
142
1.0
143
1.0
 70
  1712
 72
     0
 73
     0
 74
     0
  7

 75
     0
147
1.0
148
0.0
149
0.0
100
AcDbLayout
  1
Model
 70
     1
 71
     0
 10
0.0
 20
0.0
 11
12.0
 21
9.0
 12
0.0
 22
0.0
 32
0.0
 14
0.0
 24
0.0
 34
0.0
 15
0.0
 25
0.0
 35
0.0
146
0.0
 13
0.0
 23
0.0
 33
0.0
 16
1.0
 26
0.0
 36
0.0
 17
0.0
 27
1.0
 37
0.0
 76
     0
330
A
  0
LAYOUT
  5
31B0
102
{ACAD_REACTORS
330
31AD
102
}
330
31AD
100
AcDbPlotSettings
  1

  2
Canon iR-ADV C5030/5035 LIPSLX
  4

  6

 40
0.0
 41
0.0
 42
0.0
 43
0.0
 44
0.0
 45
0.0
 46
0.0
 47
0.0
 48
0.0
 49
0.0
140
0.0
141
0.0
142
1.0
143
1.0
 70
   688
 72
     0
 73
     0
 74
     5
  7

 75
    16
147
1.0
148
0.0
149
0.0
100
AcDbLayout
  1
ﾚｲｱｳﾄ1
 70
     1
 71
     1
 10
0.0
 20
0.0
 11
420.0
 21
297.0
 12
0.0
 22
0.0
 32
0.0
 14
0.0
 24
0.0
 34
0.0
 15
401.4999999999998
 25
275.0
 35
2.0
146
0.0
 13
0.0
 23
0.0
 33
0.0
 16
1.0
 26
0.0
 36
0.0
 17
0.0
 27
1.0
 37
0.0
 76
     0
330
B
331
31A6
  0
MLINESTYLE
  5
1C
102
{ACAD_REACTORS
330
1B
102
}
330
1B
100
AcDbMlineStyle
  2
STANDARD
 70
     0
  3

 62
     0
 51
90.0
 52
90.0
 71
     2
 49
0.5
 62
   256
  6
BYLAYER
 49
-0.5
 62
   256
  6
BYLAYER
  0
ACDBPLACEHOLDER
  5
31AC
102
{ACAD_REACTORS
330
31AB
102
}
330
31AB
  0
ENDSEC
  0
EOF
