  0
SECTION
  2
HEADER
  9
$ACADVER
  1
AC1015
  9
$ACADMAINTVER
 70
     6
  9
$DWGCODEPAGE
  3
ANSI_1252
  9
$INSBASE
 10
0.0
 20
0.0
 30
0.0
  9
$EXTMIN
 10
0.0
 20
0.0
 30
0.0
  9
$EXTMAX
 10
155.319641
 20
208.232697
 30
2.0
  9
$LIMMIN
 10
0.0
 20
0.0
  9
$LIMMAX
 10
420.0
 20
297.0
  9
$ORTHOMODE
 70
     0
  9
$REGENMODE
 70
     1
  9
$FILLMODE
 70
     1
  9
$QTEXTMODE
 70
     0
  9
$MIRRTEXT
 70
     1
  9
$LTSCALE
 40
1.0
  9
$ATTMODE
 70
     1
  9
$TEXTSIZE
 40
2.5
  9
$TRACEWID
 40
1.0
  9
$TEXTSTYLE
  7
Standard
  9
$CLAYER
  8
0
  9
$CELTYPE
  6
ByLayer
  9
$CECOLOR
 62
   256
  9
$CELTSCALE
 40
1.0
  9
$DISPSILH
 70
     0
  9
$DIMSCALE
 40
1.0
  9
$DIMASZ
 40
2.5
  9
$DIMEXO
 40
0.625
  9
$DIMDLI
 40
3.75
  9
$DIMRND
 40
0.0
  9
$DIMDLE
 40
0.0
  9
$DIMEXE
 40
1.25
  9
$DIMTP
 40
0.0
  9
$DIMTM
 40
0.0
  9
$DIMTXT
 40
2.5
  9
$DIMCEN
 40
2.5
  9
$DIMTSZ
 40
0.0
  9
$DIMTOL
 70
     0
  9
$DIMLIM
 70
     0
  9
$DIMTIH
 70
     0
  9
$DIMTOH
 70
     0
  9
$DIMSE1
 70
     0
  9
$DIMSE2
 70
     0
  9
$DIMTAD
 70
     1
  9
$DIMZIN
 70
     8
  9
$DIMBLK
  1

  9
$DIMASO
 70
     1
  9
$DIMSHO
 70
     1
  9
$DIMPOST
  1

  9
$DIMAPOST
  1

  9
$DIMALT
 70
     0
  9
$DIMALTD
 70
     3
  9
$DIMALTF
 40
0.03937
  9
$DIMLFAC
 40
1.0
  9
$DIMTOFL
 70
     1
  9
$DIMTVP
 40
0.0
  9
$DIMTIX
 70
     0
  9
$DIMSOXD
 70
     0
  9
$DIMSAH
 70
     0
  9
$DIMBLK1
  1

  9
$DIMBLK2
  1

  9
$DIMSTYLE
  2
Standard
  9
$DIMCLRD
 70
     0
  9
$DIMCLRE
 70
     0
  9
$DIMCLRT
 70
     0
  9
$DIMTFAC
 40
1.0
  9
$DIMGAP
 40
0.625
  9
$DIMJUST
 70
     0
  9
$DIMSD1
 70
     0
  9
$DIMSD2
 70
     0
  9
$DIMTOLJ
 70
     0
  9
$DIMTZIN
 70
     8
  9
$DIMALTZ
 70
     0
  9
$DIMALTTZ
 70
     0
  9
$DIMUPT
 70
     0
  9
$DIMDEC
 70
     2
  9
$DIMTDEC
 70
     2
  9
$DIMALTU
 70
     2
  9
$DIMALTTD
 70
     3
  9
$DIMTXSTY
  7
Standard
  9
$DIMAUNIT
 70
     0
  9
$DIMADEC
 70
     0
  9
$DIMALTRND
 40
0.0
  9
$DIMAZIN
 70
     0
  9
$DIMDSEP
 70
    44
  9
$DIMATFIT
 70
     0
  9
$DIMFRAC
 70
     0
  9
$DIMLDRBLK
  1

  9
$DIMLUNIT
 70
     2
  9
$DIMLWD
 70
    -2
  9
$DIMLWE
 70
    -2
  9
$DIMTMOVE
 70
     0
  9
$LUNITS
 70
     2
  9
$LUPREC
 70
     4
  9
$SKETCHINC
 40
1.0
  9
$FILLETRAD
 40
2.5
  9
$AUNITS
 70
     0
  9
$AUPREC
 70
     0
  9
$MENU
  1
.
  9
$ELEVATION
 40
0.0
  9
$PELEVATION
 40
0.0
  9
$THICKNESS
 40
0.0
  9
$LIMCHECK
 70
     0
  9
$CHAMFERA
 40
2.5
  9
$CHAMFERB
 40
2.5
  9
$CHAMFERC
 40
0.0
  9
$CHAMFERD
 40
0.0
  9
$SKPOLY
 70
     0
  9
$TDCREATE
 40
2447893.375
  9
$TDUCREATE
 40
0.0
  9
$TDUPDATE
 40
2459510.536677604
  9
$TDUUPDATE
 40
2459510.161677604
  9
$TDINDWG
 40
0.0
  9
$TDUSRTIMER
 40
0.0
  9
$USRTIMER
 70
     1
  9
$ANGBASE
 50
0.0
  9
$ANGDIR
 70
     0
  9
$PDMODE
 70
     0
  9
$PDSIZE
 40
0.0
  9
$PLINEWID
 40
0.0
  9
$SPLFRAME
 70
     0
  9
$SPLINETYPE
 70
     6
  9
$SPLINESEGS
 70
     8
  9
$HANDSEED
  5
3F1
  9
$SURFTAB1
 70
     6
  9
$SURFTAB2
 70
     6
  9
$SURFTYPE
 70
     6
  9
$SURFU
 70
     6
  9
$SURFV
 70
     6
  9
$UCSBASE
  2

  9
$UCSNAME
  2

  9
$UCSORG
 10
0.0
 20
0.0
 30
0.0
  9
$UCSXDIR
 10
1.0
 20
0.0
 30
0.0
  9
$UCSYDIR
 10
0.0
 20
1.0
 30
0.0
  9
$UCSORTHOREF
  2

  9
$UCSORTHOVIEW
 70
     1
  9
$UCSORGTOP
 10
0.0
 20
0.0
 30
0.0
  9
$UCSORGBOTTOM
 10
0.0
 20
0.0
 30
0.0
  9
$UCSORGLEFT
 10
0.0
 20
0.0
 30
0.0
  9
$UCSORGRIGHT
 10
0.0
 20
0.0
 30
0.0
  9
$UCSORGFRONT
 10
0.0
 20
0.0
 30
0.0
  9
$UCSORGBACK
 10
0.0
 20
0.0
 30
0.0
  9
$PUCSBASE
  2

  9
$PUCSNAME
  2

  9
$PUCSORG
 10
0.0
 20
0.0
 30
0.0
  9
$PUCSXDIR
 10
1.0
 20
0.0
 30
0.0
  9
$PUCSYDIR
 10
0.0
 20
1.0
 30
0.0
  9
$PUCSORTHOREF
  2

  9
$PUCSORTHOVIEW
 70
     0
  9
$PUCSORGTOP
 10
0.0
 20
0.0
 30
0.0
  9
$PUCSORGBOTTOM
 10
0.0
 20
0.0
 30
0.0
  9
$PUCSORGLEFT
 10
0.0
 20
0.0
 30
0.0
  9
$PUCSORGRIGHT
 10
0.0
 20
0.0
 30
0.0
  9
$PUCSORGFRONT
 10
0.0
 20
0.0
 30
0.0
  9
$PUCSORGBACK
 10
0.0
 20
0.0
 30
0.0
  9
$USERI1
 70
     0
  9
$USERI2
 70
     0
  9
$USERI3
 70
     0
  9
$USERI4
 70
     0
  9
$USERI5
 70
     0
  9
$USERR1
 40
0.0
  9
$USERR2
 40
0.0
  9
$USERR3
 40
0.0
  9
$USERR4
 40
0.0
  9
$USERR5
 40
0.0
  9
$WORLDVIEW
 70
     1
  9
$SHADEDGE
 70
     3
  9
$SHADEDIF
 70
    70
  9
$TILEMODE
 70
     1
  9
$MAXACTVP
 70
    64
  9
$PINSBASE
 10
0.0
 20
0.0
 30
0.0
  9
$PLIMCHECK
 70
     0
  9
$PEXTMIN
 10
0.0
 20
0.0
 30
0.0
  9
$PEXTMAX
 10
155.319641
 20
208.232697
 30
2.0
  9
$PLIMMIN
 10
0.0
 20
0.0
  9
$PLIMMAX
 10
420.0
 20
297.0
  9
$UNITMODE
 70
     0
  9
$VISRETAIN
 70
     0
  9
$PLINEGEN
 70
     0
  9
$PSLTSCALE
 70
     1
  9
$TREEDEPTH
 70
  3020
  9
$CMLSTYLE
  2
Standard
  9
$CMLJUST
 70
     0
  9
$CMLSCALE
 40
20.0
  9
$PROXYGRAPHICS
 70
     1
  9
$MEASUREMENT
 70
     1
  9
$CELWEIGHT
370
    -1
  9
$ENDCAPS
280
     0
  9
$JOINSTYLE
280
     0
  9
$LWDISPLAY
290
     0
  9
$INSUNITS
 70
     0
  9
$HYPERLINKBASE
  1

  9
$STYLESHEET
  1

  9
$XEDIT
290
     1
  9
$CEPSNTYPE
380
     0
  9
$PSTYLEMODE
290
     0
  9
$FINGERPRINTGUID
  2
{B4F49B22-454A-44B1-B5D9-C2932777C654}
  9
$VERSIONGUID
  2
{FAEB1C32-E019-11D5-929B-00C0DF256EC4}
  9
$EXTNAMES
290
     1
  9
$PSVPSCALE
 40
0.0
  9
$OLESTARTUP
290
     0
  0
ENDSEC
  0
SECTION
  2
CLASSES
  0
CLASS
  1
ACDBDICTIONARYWDFLT
  2
AcDbDictionaryWithDefault
  3
ObjectDBX Classes
 90
        0
280
     0
281
     0
  0
CLASS
  1
VISUALSTYLE
  2
AcDbVisualStyle
  3
ObjectDBX Classes
 90
     4095
280
     0
281
     0
  0
CLASS
  1
MATERIAL
  2
AcDbMaterial
  3
ObjectDBX Classes
 90
     1153
280
     0
281
     0
  0
CLASS
  1
SCALE
  2
AcDbScale
  3
ObjectDBX Classes
 90
     1153
280
     0
281
     0
  0
CLASS
  1
TABLESTYLE
  2
AcDbTableStyle
  3
ObjectDBX Classes
 90
     4095
280
     0
281
     0
  0
CLASS
  1
MLEADERSTYLE
  2
AcDbMLeaderStyle
  3
ACDB_MLEADERSTYLE_CLASS
 90
     4095
280
     0
281
     0
  0
CLASS
  1
SUN
  2
AcDbSun
  3
SCENEOE
 90
     1153
280
     0
281
     0
  0
CLASS
  1
ACDBPLACEHOLDER
  2
AcDbPlaceHolder
  3
ObjectDBX Classes
 90
        0
280
     0
281
     0
  0
CLASS
  1
LAYOUT
  2
AcDbLayout
  3
ObjectDBX Classes
 90
        0
280
     0
281
     0
  0
ENDSEC
  0
SECTION
  2
TABLES
  0
TABLE
  2
VPORT
  5
8
330
0
100
AcDbSymbolTable
 70
     1
  0
VPORT
  5
29
330
8
100
AcDbSymbolTableRecord
100
AcDbViewportTableRecord
  2
*Active
 70
     0
 10
0.0
 20
0.0
 11
1.0
 21
1.0
 12
10.429907
 22
4.5
 13
0.0
 23
0.0
 14
0.5
 24
0.5
 15
0.5
 25
0.5
 16
0.0
 26
0.0
 36
1.0
 17
0.0
 27
0.0
 37
0.0
 40
9.0
 41
1.972973
 42
50.0
 43
0.0
 44
0.0
 50
0.0
 51
0.0
 71
     0
 72
   100
 73
     1
 74
     3
 75
     0
 76
     0
 77
     0
 78
     0
281
     0
 65
     1
110
0.0
120
0.0
130
0.0
111
1.0
121
0.0
131
0.0
112
0.0
122
1.0
132
0.0
 79
     0
146
0.0
  0
ENDTAB
  0
TABLE
  2
LTYPE
  5
5
330
0
100
AcDbSymbolTable
 70
     1
  0
LTYPE
  5
14
330
5
100
AcDbSymbolTableRecord
100
AcDbLinetypeTableRecord
  2
ByBlock
 70
     0
  3

 72
    65
 73
     0
 40
0.0
  0
LTYPE
  5
15
330
5
100
AcDbSymbolTableRecord
100
AcDbLinetypeTableRecord
  2
ByLayer
 70
     0
  3

 72
    65
 73
     0
 40
0.0
  0
LTYPE
  5
16
330
5
100
AcDbSymbolTableRecord
100
AcDbLinetypeTableRecord
  2
Continuous
 70
     0
  3
Solid line
 72
    65
 73
     0
 40
0.0
  0
ENDTAB
  0
TABLE
  2
LAYER
  5
2
330
0
100
AcDbSymbolTable
 70
     1
  0
LAYER
  5
10
330
2
100
AcDbSymbolTableRecord
100
AcDbLayerTableRecord
  2
0
 70
     0
 62
     7
  6
Continuous
370
    -3
390
F
  0
ENDTAB
  0
TABLE
  2
STYLE
  5
3
330
0
100
AcDbSymbolTable
 70
     1
  0
STYLE
  5
11
330
3
100
AcDbSymbolTableRecord
100
AcDbTextStyleTableRecord
  2
Standard
 70
     0
 40
0.0
 41
1.0
 50
0.0
 71
     0
 42
2.5
  3
txt
  4

  0
ENDTAB
  0
TABLE
  2
VIEW
  5
6
330
0
100
AcDbSymbolTable
 70
     0
  0
ENDTAB
  0
TABLE
  2
UCS
  5
7
330
0
100
AcDbSymbolTable
 70
     0
  0
ENDTAB
  0
TABLE
  2
APPID
  5
9
330
0
100
AcDbSymbolTable
 70
     1
  0
APPID
  5
12
330
9
100
AcDbSymbolTableRecord
100
AcDbRegAppTableRecord
  2
ACAD
 70
     0
  0
ENDTAB
  0
TABLE
  2
DIMSTYLE
  5
A
330
0
100
AcDbSymbolTable
 70
     1
100
AcDbDimStyleTable
  0
DIMSTYLE
105
27
330
A
100
AcDbSymbolTableRecord
100
AcDbDimStyleTableRecord
  2
Standard
 70
     0
178
     0
340
11
  0
ENDTAB
  0
TABLE
  2
BLOCK_RECORD
  5
1
330
0
100
AcDbSymbolTable
 70
     1
  0
BLOCK_RECORD
  5
1F
330
1
100
AcDbSymbolTableRecord
100
AcDbBlockTableRecord
  2
*Model_Space
340
22
  0
BLOCK_RECORD
  5
1B
330
1
100
AcDbSymbolTableRecord
100
AcDbBlockTableRecord
  2
*Paper_Space
340
1E
  0
BLOCK_RECORD
  5
23
330
1
100
AcDbSymbolTableRecord
100
AcDbBlockTableRecord
  2
*Paper_Space0
340
26
  0
ENDTAB
  0
ENDSEC
  0
SECTION
  2
BLOCKS
  0
BLOCK
  5
20
330
1F
100
AcDbEntity
  8
0
100
AcDbBlockBegin
  2
*Model_Space
 70
     0
 10
0.0
 20
0.0
 30
0.0
  3
*Model_Space
  1

  0
ENDBLK
  5
21
330
1F
100
AcDbEntity
  8
0
100
AcDbBlockEnd
  0
BLOCK
  5
1C
330
1B
100
AcDbEntity
 67
     1
  8
0
100
AcDbBlockBegin
  2
*Paper_Space
 70
     0
 10
0.0
 20
0.0
 30
0.0
  3
*Paper_Space
  1

  0
ENDBLK
  5
1D
330
1B
100
AcDbEntity
 67
     1
  8
0
100
AcDbBlockEnd
  0
BLOCK
  5
24
330
23
100
AcDbEntity
  8
0
100
AcDbBlockBegin
  2
*Paper_Space0
 70
     0
 10
0.0
 20
0.0
 30
0.0
  3
*Paper_Space0
  1

  0
ENDBLK
  5
25
330
23
100
AcDbEntity
  8
0
100
AcDbBlockEnd
  0
ENDSEC
  0
SECTION
  2
ENTITIES
  0
LINE
  5
6E
330
1F
100
AcDbEntity
  8
0
 62
     7
370
    35
100
AcDbLine
 10
152.719604
 20
40.967247
 30
0.0
 11
151.319641
 21
40.967247
 31
0.0
  0
LINE
  5
6F
330
1F
100
AcDbEntity
  8
0
 62
     7
370
    35
100
AcDbLine
 10
152.719604
 20
40.567345
 30
0.0
 11
152.719604
 21
40.967247
 31
0.0
  0
LINE
  5
70
330
1F
100
AcDbEntity
  8
0
 62
     7
370
    35
100
AcDbLine
 10
152.719604
 20
42.967247
 30
0.0
 11
152.719604
 21
40.967247
 31
0.0
  0
LINE
  5
71
330
1F
100
AcDbEntity
  8
0
 62
     7
370
    35
100
AcDbLine
 10
153.419617
 20
42.967247
 30
0.0
 11
152.719604
 21
42.967247
 31
0.0
  0
LINE
  5
72
330
1F
100
AcDbEntity
  8
0
 62
     7
370
    35
100
AcDbLine
 10
154.939636
 20
40.567345
 30
0.0
 11
153.419617
 21
42.967247
 31
0.0
  0
LINE
  5
73
330
1F
100
AcDbEntity
  8
0
 62
     7
370
    35
100
AcDbLine
 10
74.819641
 20
28.215538
 30
0.0
 11
74.819641
 21
20.767296
 31
0.0
  0
LINE
  5
74
330
1F
100
AcDbEntity
  8
0
 62
     7
370
    35
100
AcDbLine
 10
74.819641
 20
80.61544
 30
0.0
 11
74.819641
 21
33.519005
 31
0.0
  0
LINE
  5
75
330
1F
100
AcDbEntity
  8
0
 62
     7
370
    35
100
AcDbLine
 10
74.819641
 20
85.919151
 30
0.0
 11
74.819641
 21
95.767296
 31
0.0
  0
LINE
  5
76
330
1F
100
AcDbEntity
  8
0
 62
     7
370
    35
100
AcDbLine
 10
69.319641
 20
84.267296
 30
0.0
 11
65.819641
 21
84.267296
 31
0.0
  0
LINE
  5
77
330
1F
100
AcDbEntity
  8
0
 62
     7
370
    35
100
AcDbLine
 10
65.819641
 20
84.267296
 30
0.0
 11
65.819641
 21
82.267296
 31
0.0
  0
LINE
  5
78
330
1F
100
AcDbEntity
  8
0
 62
     7
370
    35
100
AcDbLine
 10
65.819641
 20
82.267296
 30
0.0
 11
69.319641
 21
82.267296
 31
0.0
  0
LINE
  5
79
330
1F
100
AcDbEntity
  8
0
 62
     7
370
    35
100
AcDbLine
 10
69.319641
 20
82.267296
 30
0.0
 11
69.319641
 21
84.267296
 31
0.0
  0
LINE
  5
7A
330
1F
100
AcDbEntity
  8
0
 62
     7
370
    35
100
AcDbLine
 10
69.319641
 20
84.767296
 30
0.0
 11
65.819641
 21
84.767296
 31
0.0
  0
LINE
  5
7B
330
1F
100
AcDbEntity
  8
0
 62
     7
370
    35
100
AcDbLine
 10
65.319641
 20
84.267296
 30
0.0
 11
65.319641
 21
82.267296
 31
0.0
  0
LINE
  5
7C
330
1F
100
AcDbEntity
  8
0
 62
     7
370
    35
100
AcDbLine
 10
65.819641
 20
81.767296
 30
0.0
 11
69.319641
 21
81.767296
 31
0.0
  0
LINE
  5
7D
330
1F
100
AcDbEntity
  8
0
 62
     7
370
    35
100
AcDbLine
 10
69.819641
 20
82.267296
 30
0.0
 11
69.819641
 21
84.267296
 31
0.0
  0
LINE
  5
7E
330
1F
100
AcDbEntity
  8
0
 62
     7
370
    35
100
AcDbLine
 10
71.226624
 20
85.981895
 30
0.0
 11
74.819641
 21
85.919151
 31
0.0
  0
LINE
  5
7F
330
1F
100
AcDbEntity
  8
0
 62
     7
370
    35
100
AcDbLine
 10
71.226624
 20
80.55294
 30
0.0
 11
74.819641
 21
80.61544
 31
0.0
  0
LINE
  5
80
330
1F
100
AcDbEntity
  8
0
 62
     7
370
    35
100
AcDbLine
 10
74.919617
 20
81.417442
 30
0.0
 11
71.212646
 21
81.352745
 31
0.0
  0
LINE
  5
81
330
1F
100
AcDbEntity
  8
0
 62
     7
370
    35
100
AcDbLine
 10
74.919617
 20
85.117149
 30
0.0
 11
71.212646
 21
85.181847
 31
0.0
  0
LINE
  5
82
330
1F
100
AcDbEntity
  8
0
 62
     7
370
    35
100
AcDbLine
 10
70.819641
 20
80.952843
 30
0.0
 11
70.819641
 21
85.581749
 31
0.0
  0
LINE
  5
83
330
1F
100
AcDbEntity
  8
0
 62
     7
370
    35
100
AcDbLine
 10
70.819641
 20
28.552696
 30
0.0
 11
70.819641
 21
33.181847
 31
0.0
  0
LINE
  5
84
330
1F
100
AcDbEntity
  8
0
 62
     7
370
    35
100
AcDbLine
 10
74.919617
 20
32.717247
 30
0.0
 11
71.212646
 21
32.781944
 31
0.0
  0
LINE
  5
85
330
1F
100
AcDbEntity
  8
0
 62
     7
370
    35
100
AcDbLine
 10
74.919617
 20
29.01754
 30
0.0
 11
71.212646
 21
28.952843
 31
0.0
  0
LINE
  5
86
330
1F
100
AcDbEntity
  8
0
 62
     7
370
    35
100
AcDbLine
 10
71.226624
 20
28.152794
 30
0.0
 11
74.819641
 21
28.215538
 31
0.0
  0
LINE
  5
87
330
1F
100
AcDbEntity
  8
0
 62
     7
370
    35
100
AcDbLine
 10
71.226624
 20
33.581749
 30
0.0
 11
74.819641
 21
33.519005
 31
0.0
  0
LINE
  5
88
330
1F
100
AcDbEntity
  8
0
 62
     7
370
    35
100
AcDbLine
 10
69.819641
 20
29.867393
 30
0.0
 11
69.819641
 21
31.867393
 31
0.0
  0
LINE
  5
89
330
1F
100
AcDbEntity
  8
0
 62
     7
370
    35
100
AcDbLine
 10
65.819641
 20
29.367393
 30
0.0
 11
69.319641
 21
29.367393
 31
0.0
  0
LINE
  5
8A
330
1F
100
AcDbEntity
  8
0
 62
     7
370
    35
100
AcDbLine
 10
65.319641
 20
31.867393
 30
0.0
 11
65.319641
 21
29.867393
 31
0.0
  0
LINE
  5
8B
330
1F
100
AcDbEntity
  8
0
 62
     7
370
    35
100
AcDbLine
 10
69.319641
 20
32.367393
 30
0.0
 11
65.819641
 21
32.367393
 31
0.0
  0
LINE
  5
8C
330
1F
100
AcDbEntity
  8
0
 62
     7
370
    35
100
AcDbLine
 10
69.319641
 20
29.867393
 30
0.0
 11
69.319641
 21
31.867393
 31
0.0
  0
LINE
  5
8D
330
1F
100
AcDbEntity
  8
0
 62
     7
370
    35
100
AcDbLine
 10
65.819641
 20
29.867393
 30
0.0
 11
69.319641
 21
29.867393
 31
0.0
  0
LINE
  5
8E
330
1F
100
AcDbEntity
  8
0
 62
     7
370
    35
100
AcDbLine
 10
65.819641
 20
31.867393
 30
0.0
 11
65.819641
 21
29.867393
 31
0.0
  0
LINE
  5
8F
330
1F
100
AcDbEntity
  8
0
 62
     7
370
    35
100
AcDbLine
 10
69.319641
 20
31.867393
 30
0.0
 11
65.819641
 21
31.867393
 31
0.0
  0
LINE
  5
90
330
1F
100
AcDbEntity
  8
0
 62
     7
370
    35
100
AcDbLine
 10
74.919617
 20
20.767296
 30
0.0
 11
74.919617
 21
95.767296
 31
0.0
  0
LINE
  5
91
330
1F
100
AcDbEntity
  8
0
 62
     7
370
    35
100
AcDbLine
 10
80.219604
 20
81.479454
 30
0.0
 11
80.219604
 21
85.055138
 31
0.0
  0
LINE
  5
92
330
1F
100
AcDbEntity
  8
0
 62
     7
370
    35
100
AcDbLine
 10
80.219604
 20
85.055138
 30
0.0
 11
78.769592
 21
85.080528
 31
0.0
  0
LINE
  5
93
330
1F
100
AcDbEntity
  8
0
 62
     7
370
    35
100
AcDbLine
 10
80.219604
 20
85.055138
 30
0.0
 11
80.219604
 21
85.267296
 31
0.0
  0
LINE
  5
94
330
1F
100
AcDbEntity
  8
0
 62
     7
370
    35
100
AcDbLine
 10
78.219604
 20
81.444542
 30
0.0
 11
78.269592
 21
81.445274
 31
0.0
  0
LINE
  5
95
330
1F
100
AcDbEntity
  8
0
 62
     7
370
    35
100
AcDbLine
 10
78.219604
 20
81.444542
 30
0.0
 11
78.219604
 21
85.09005
 31
0.0
  0
LINE
  5
96
330
1F
100
AcDbEntity
  8
0
 62
     7
370
    35
100
AcDbLine
 10
78.219604
 20
85.09005
 30
0.0
 11
78.219604
 21
85.267296
 31
0.0
  0
LINE
  5
97
330
1F
100
AcDbEntity
  8
0
 62
     7
370
    35
100
AcDbLine
 10
80.219604
 20
29.079308
 30
0.0
 11
80.219604
 21
32.655235
 31
0.0
  0
LINE
  5
98
330
1F
100
AcDbEntity
  8
0
 62
     7
370
    35
100
AcDbLine
 10
80.219604
 20
32.655235
 30
0.0
 11
78.769592
 21
32.680626
 31
0.0
  0
LINE
  5
99
330
1F
100
AcDbEntity
  8
0
 62
     7
370
    35
100
AcDbLine
 10
80.219604
 20
32.655235
 30
0.0
 11
80.219604
 21
32.867393
 31
0.0
  0
LINE
  5
9A
330
1F
100
AcDbEntity
  8
0
 62
     7
370
    35
100
AcDbLine
 10
78.219604
 20
29.044395
 30
0.0
 11
78.269592
 21
29.045372
 31
0.0
  0
LINE
  5
9B
330
1F
100
AcDbEntity
  8
0
 62
     7
370
    35
100
AcDbLine
 10
78.219604
 20
29.044395
 30
0.0
 11
78.219604
 21
32.690147
 31
0.0
  0
LINE
  5
9C
330
1F
100
AcDbEntity
  8
0
 62
     7
370
    35
100
AcDbLine
 10
78.219604
 20
32.690147
 30
0.0
 11
78.219604
 21
32.867393
 31
0.0
  0
LINE
  5
9D
330
1F
100
AcDbEntity
  8
0
 62
     7
370
    35
100
AcDbLine
 10
78.269592
 20
32.689171
 30
0.0
 11
78.219604
 21
32.690147
 31
0.0
  0
LINE
  5
9E
330
1F
100
AcDbEntity
  8
0
 62
     7
370
    35
100
AcDbLine
 10
78.269592
 20
85.089317
 30
0.0
 11
78.219604
 21
85.09005
 31
0.0
  0
LINE
  5
9F
330
1F
100
AcDbEntity
  8
0
 62
     7
370
    35
100
AcDbLine
 10
78.269592
 20
29.045372
 30
0.0
 11
78.769592
 21
29.054161
 31
0.0
  0
LINE
  5
A0
330
1F
100
AcDbEntity
  8
0
 62
     7
370
    35
100
AcDbLine
 10
78.769592
 20
29.054161
 30
0.0
 11
80.219604
 21
29.079308
 31
0.0
  0
LINE
  5
A1
330
1F
100
AcDbEntity
  8
0
 62
     7
370
    35
100
AcDbLine
 10
78.769592
 20
32.680626
 30
0.0
 11
78.769592
 21
29.054161
 31
0.0
  0
LINE
  5
A2
330
1F
100
AcDbEntity
  8
0
 62
     7
370
    35
100
AcDbLine
 10
78.769592
 20
32.680626
 30
0.0
 11
78.269592
 21
32.689171
 31
0.0
  0
LINE
  5
A3
330
1F
100
AcDbEntity
  8
0
 62
     7
370
    35
100
AcDbLine
 10
78.269592
 20
32.689171
 30
0.0
 11
78.269592
 21
29.045372
 31
0.0
  0
LINE
  5
A4
330
1F
100
AcDbEntity
  8
0
 62
     7
370
    35
100
AcDbLine
 10
78.269592
 20
85.089317
 30
0.0
 11
78.269592
 21
81.445274
 31
0.0
  0
LINE
  5
A5
330
1F
100
AcDbEntity
  8
0
 62
     7
370
    35
100
AcDbLine
 10
78.269592
 20
81.445274
 30
0.0
 11
78.769592
 21
81.454063
 31
0.0
  0
LINE
  5
A6
330
1F
100
AcDbEntity
  8
0
 62
     7
370
    35
100
AcDbLine
 10
78.769592
 20
85.080528
 30
0.0
 11
78.769592
 21
81.454063
 31
0.0
  0
LINE
  5
A7
330
1F
100
AcDbEntity
  8
0
 62
     7
370
    35
100
AcDbLine
 10
78.769592
 20
81.454063
 30
0.0
 11
80.219604
 21
81.479454
 31
0.0
  0
LINE
  5
A8
330
1F
100
AcDbEntity
  8
0
 62
     7
370
    35
100
AcDbLine
 10
78.769592
 20
85.080528
 30
0.0
 11
78.269592
 21
85.089317
 31
0.0
  0
LINE
  5
A9
330
1F
100
AcDbEntity
  8
0
 62
     7
370
    35
100
AcDbLine
 10
154.319641
 20
75.967247
 30
0.0
 11
155.319641
 21
75.967247
 31
0.0
  0
LINE
  5
AA
330
1F
100
AcDbEntity
  8
0
 62
     7
370
    35
100
AcDbLine
 10
154.319641
 20
95.767296
 30
0.0
 11
154.319641
 21
75.967247
 31
0.0
  0
LINE
  5
AB
330
1F
100
AcDbEntity
  8
0
 62
     7
370
    35
100
AcDbLine
 10
154.319641
 20
36.567345
 30
0.0
 11
151.319641
 21
36.567345
 31
0.0
  0
LINE
  5
AC
330
1F
100
AcDbEntity
  8
0
 62
     7
370
    35
100
AcDbLine
 10
154.319641
 20
40.567345
 30
0.0
 11
151.319641
 21
40.567345
 31
0.0
  0
LINE
  5
AD
330
1F
100
AcDbEntity
  8
0
 62
     7
370
    35
100
AcDbLine
 10
154.319641
 20
36.567345
 30
0.0
 11
154.319641
 21
40.567345
 31
0.0
  0
LINE
  5
AE
330
1F
100
AcDbEntity
  8
0
 62
     7
370
    35
100
AcDbLine
 10
154.319641
 20
33.067345
 30
0.0
 11
155.319641
 21
33.067345
 31
0.0
  0
LINE
  5
AF
330
1F
100
AcDbEntity
  8
0
 62
     7
370
    35
100
AcDbLine
 10
154.319641
 20
33.067345
 30
0.0
 11
154.319641
 21
20.767296
 31
0.0
  0
LINE
  5
B0
330
1F
100
AcDbEntity
  8
0
 62
     7
370
    35
100
AcDbLine
 10
151.319641
 20
33.067345
 30
0.0
 11
154.319641
 21
33.067345
 31
0.0
  0
LINE
  5
B1
330
1F
100
AcDbEntity
  8
0
 62
     7
370
    35
100
AcDbLine
 10
151.319641
 20
36.567345
 30
0.0
 11
151.319641
 21
33.067345
 31
0.0
  0
LINE
  5
B2
330
1F
100
AcDbEntity
  8
0
 62
     7
370
    35
100
AcDbLine
 10
155.319641
 20
36.567345
 30
0.0
 11
155.319641
 21
40.567345
 31
0.0
  0
LINE
  5
B3
330
1F
100
AcDbEntity
  8
0
 62
     7
370
    35
100
AcDbLine
 10
155.319641
 20
36.567345
 30
0.0
 11
154.319641
 21
36.567345
 31
0.0
  0
LINE
  5
B4
330
1F
100
AcDbEntity
  8
0
 62
     7
370
    35
100
AcDbLine
 10
151.319641
 20
42.567345
 30
0.0
 11
151.319641
 21
44.567345
 31
0.0
  0
LINE
  5
B5
330
1F
100
AcDbEntity
  8
0
 62
     7
370
    35
100
AcDbLine
 10
151.819641
 20
42.567345
 30
0.0
 11
151.319641
 21
42.567345
 31
0.0
  0
LINE
  5
B6
330
1F
100
AcDbEntity
  8
0
 62
     7
370
    35
100
AcDbLine
 10
151.819641
 20
44.567345
 30
0.0
 11
151.819641
 21
42.567345
 31
0.0
  0
LINE
  5
B7
330
1F
100
AcDbEntity
  8
0
 62
     7
370
    35
100
AcDbLine
 10
151.319641
 20
44.567345
 30
0.0
 11
151.319641
 21
71.849327
 31
0.0
  0
LINE
  5
B8
330
1F
100
AcDbEntity
  8
0
 62
     7
370
    35
100
AcDbLine
 10
151.319641
 20
44.567345
 30
0.0
 11
151.819641
 21
44.567345
 31
0.0
  0
LINE
  5
B9
330
1F
100
AcDbEntity
  8
0
 62
     7
370
    35
100
AcDbLine
 10
151.319641
 20
71.849327
 30
0.0
 11
151.319641
 21
74.085411
 31
0.0
  0
LINE
  5
BA
330
1F
100
AcDbEntity
  8
0
 62
     7
370
    35
100
AcDbLine
 10
151.319641
 20
74.085411
 30
0.0
 11
151.319641
 21
75.967247
 31
0.0
  0
LINE
  5
BB
330
1F
100
AcDbEntity
  8
0
 62
     7
370
    35
100
AcDbLine
 10
154.019592
 20
73.967247
 30
0.0
 11
155.319641
 21
75.967247
 31
0.0
  0
LINE
  5
BC
330
1F
100
AcDbEntity
  8
0
 62
     7
370
    35
100
AcDbLine
 10
153.019592
 20
73.967247
 30
0.0
 11
154.019592
 21
73.967247
 31
0.0
  0
LINE
  5
BD
330
1F
100
AcDbEntity
  8
0
 62
     7
370
    35
100
AcDbLine
 10
152.719604
 20
75.967247
 30
0.0
 11
154.319641
 21
75.967247
 31
0.0
  0
LINE
  5
BE
330
1F
100
AcDbEntity
  8
0
 62
     7
370
    35
100
AcDbLine
 10
152.719604
 20
75.967247
 30
0.0
 11
153.019592
 21
73.967247
 31
0.0
  0
LINE
  5
BF
330
1F
100
AcDbEntity
  8
0
 62
     7
370
    35
100
AcDbLine
 10
74.919617
 20
20.767296
 30
0.0
 11
154.319641
 21
20.767296
 31
0.0
  0
LINE
  5
C0
330
1F
100
AcDbEntity
  8
0
 62
     7
370
    35
100
AcDbLine
 10
154.319641
 20
20.767296
 30
0.0
 11
155.319641
 21
21.767296
 31
0.0
  0
LINE
  5
C1
330
1F
100
AcDbEntity
  8
0
 62
     7
370
    35
100
AcDbLine
 10
74.919617
 20
95.767296
 30
0.0
 11
154.319641
 21
95.767296
 31
0.0
  0
LINE
  5
C2
330
1F
100
AcDbEntity
  8
0
 62
     7
370
    35
100
AcDbLine
 10
155.319641
 20
75.967247
 30
0.0
 11
155.319641
 21
94.767296
 31
0.0
  0
LINE
  5
C3
330
1F
100
AcDbEntity
  8
0
 62
     7
370
    35
100
AcDbLine
 10
154.319641
 20
95.767296
 30
0.0
 11
155.319641
 21
94.767296
 31
0.0
  0
LINE
  5
C4
330
1F
100
AcDbEntity
  8
0
 62
     7
370
    35
100
AcDbLine
 10
78.219604
 20
85.267296
 30
0.0
 11
80.219604
 21
85.267296
 31
0.0
  0
LINE
  5
C5
330
1F
100
AcDbEntity
  8
0
 62
     7
370
    35
100
AcDbLine
 10
78.219604
 20
81.267296
 30
0.0
 11
78.219604
 21
81.444542
 31
0.0
  0
LINE
  5
C6
330
1F
100
AcDbEntity
  8
0
 62
     7
370
    35
100
AcDbLine
 10
80.219604
 20
81.267296
 30
0.0
 11
80.219604
 21
81.479454
 31
0.0
  0
LINE
  5
C7
330
1F
100
AcDbEntity
  8
0
 62
     7
370
    35
100
AcDbLine
 10
78.219604
 20
81.267296
 30
0.0
 11
80.219604
 21
81.267296
 31
0.0
  0
LINE
  5
C8
330
1F
100
AcDbEntity
  8
0
 62
     7
370
    35
100
AcDbLine
 10
78.219604
 20
28.867393
 30
0.0
 11
80.219604
 21
28.867393
 31
0.0
  0
LINE
  5
C9
330
1F
100
AcDbEntity
  8
0
 62
     7
370
    35
100
AcDbLine
 10
80.219604
 20
28.867393
 30
0.0
 11
80.219604
 21
29.079308
 31
0.0
  0
LINE
  5
CA
330
1F
100
AcDbEntity
  8
0
 62
     7
370
    35
100
AcDbLine
 10
78.219604
 20
28.867393
 30
0.0
 11
78.219604
 21
29.044395
 31
0.0
  0
LINE
  5
CB
330
1F
100
AcDbEntity
  8
0
 62
     7
370
    35
100
AcDbLine
 10
78.219604
 20
32.867393
 30
0.0
 11
80.219604
 21
32.867393
 31
0.0
  0
LINE
  5
CC
330
1F
100
AcDbEntity
  8
0
 62
     7
370
    35
100
AcDbLine
 10
143.419617
 20
88.267296
 30
0.0
 11
104.419617
 21
88.267296
 31
0.0
  0
LINE
  5
CD
330
1F
100
AcDbEntity
  8
0
 62
     7
370
    35
100
AcDbLine
 10
143.919617
 20
28.767296
 30
0.0
 11
143.919617
 21
87.767296
 31
0.0
  0
LINE
  5
CE
330
1F
100
AcDbEntity
  8
0
 62
     7
370
    35
100
AcDbLine
 10
105.419617
 20
28.267296
 30
0.0
 11
103.919617
 21
29.767296
 31
0.0
  0
LINE
  5
CF
330
1F
100
AcDbEntity
  8
0
 62
     7
370
    35
100
AcDbLine
 10
143.419617
 20
28.267296
 30
0.0
 11
105.419617
 21
28.267296
 31
0.0
  0
LINE
  5
D0
330
1F
100
AcDbEntity
  8
0
 62
     7
370
    35
100
AcDbLine
 10
103.919617
 20
87.767296
 30
0.0
 11
103.919617
 21
29.767296
 31
0.0
  0
LINE
  5
D1
330
1F
100
AcDbEntity
  8
0
 62
     7
370
    35
100
AcDbLine
 10
151.319641
 20
75.967247
 30
0.0
 11
152.719604
 21
75.967247
 31
0.0
  0
LINE
  5
D2
330
1F
100
AcDbEntity
  8
0
 62
     7
370
    35
100
AcDbLine
 10
151.319641
 20
40.567345
 30
0.0
 11
151.319641
 21
42.567345
 31
0.0
  0
LINE
  5
D3
330
1F
100
AcDbEntity
  8
0
 62
     7
370
    35
100
AcDbLine
 10
155.319641
 20
40.567345
 30
0.0
 11
154.319641
 21
40.567345
 31
0.0
  0
LINE
  5
D4
330
1F
100
AcDbEntity
  8
0
 62
     7
370
    35
100
AcDbLine
 10
155.319641
 20
21.767296
 30
0.0
 11
155.319641
 21
33.067345
 31
0.0
  0
LINE
  5
D5
330
1F
100
AcDbEntity
  8
0
 62
     7
370
    35
100
AcDbLine
 10
155.319641
 20
33.067345
 30
0.0
 11
155.319641
 21
36.567345
 31
0.0
  0
LINE
  5
D6
330
1F
100
AcDbEntity
  8
0
 62
     7
370
    35
100
AcDbLine
 10
66.019592
 20
51.767296
 30
0.0
 11
66.019592
 21
64.767296
 31
0.0
  0
LINE
  5
D7
330
1F
100
AcDbEntity
  8
0
 62
     7
370
    35
100
AcDbLine
 10
66.019592
 20
64.767296
 30
0.0
 11
69.119629
 21
64.767296
 31
0.0
  0
LINE
  5
D8
330
1F
100
AcDbEntity
  8
0
 62
     7
370
    35
100
AcDbLine
 10
69.119629
 20
64.767296
 30
0.0
 11
69.119629
 21
51.767296
 31
0.0
  0
LINE
  5
D9
330
1F
100
AcDbEntity
  8
0
 62
     7
370
    35
100
AcDbLine
 10
69.119629
 20
51.767296
 30
0.0
 11
66.019592
 21
51.767296
 31
0.0
  0
LINE
  5
DA
330
1F
100
AcDbEntity
  8
0
 62
     7
370
    35
100
AcDbLine
 10
65.819641
 20
51.267296
 30
0.0
 11
65.819641
 21
65.267296
 31
0.0
  0
LINE
  5
DB
330
1F
100
AcDbEntity
  8
0
 62
     7
370
    35
100
AcDbLine
 10
65.819641
 20
65.267296
 30
0.0
 11
69.319641
 21
65.267296
 31
0.0
  0
LINE
  5
DC
330
1F
100
AcDbEntity
  8
0
 62
     7
370
    35
100
AcDbLine
 10
69.319641
 20
65.267296
 30
0.0
 11
69.319641
 21
51.267296
 31
0.0
  0
LINE
  5
DD
330
1F
100
AcDbEntity
  8
0
 62
     7
370
    35
100
AcDbLine
 10
69.319641
 20
51.267296
 30
0.0
 11
65.819641
 21
51.267296
 31
0.0
  0
LINE
  5
DE
330
1F
100
AcDbEntity
  8
0
 62
     7
370
    35
100
AcDbLine
 10
65.819641
 20
51.267296
 30
0.0
 11
66.019592
 21
51.767296
 31
0.0
  0
LINE
  5
DF
330
1F
100
AcDbEntity
  8
0
 62
     7
370
    35
100
AcDbLine
 10
69.319641
 20
51.267296
 30
0.0
 11
69.119629
 21
51.767296
 31
0.0
  0
LINE
  5
E0
330
1F
100
AcDbEntity
  8
0
 62
     7
370
    35
100
AcDbLine
 10
65.819641
 20
65.267296
 30
0.0
 11
66.019592
 21
64.767296
 31
0.0
  0
LINE
  5
E1
330
1F
100
AcDbEntity
  8
0
 62
     7
370
    35
100
AcDbLine
 10
69.119629
 20
64.767296
 30
0.0
 11
69.319641
 21
65.267296
 31
0.0
  0
LINE
  5
E2
330
1F
100
AcDbEntity
  8
0
 62
     7
370
    35
100
AcDbLine
 10
62.819641
 20
95.557823
 30
0.0
 11
55.510864
 21
95.430382
 31
0.0
  0
LINE
  5
E3
330
1F
100
AcDbEntity
  8
0
 62
     7
370
    35
100
AcDbLine
 10
62.819641
 20
95.557823
 30
0.0
 11
74.819641
 21
95.767296
 31
0.0
  0
LINE
  5
E4
330
1F
100
AcDbEntity
  8
0
 62
     7
370
    35
100
AcDbLine
 10
63.819641
 20
84.267296
 30
0.0
 11
63.819641
 21
28.867393
 31
0.0
  0
LINE
  5
E5
330
1F
100
AcDbEntity
  8
0
 62
     7
370
    35
100
AcDbLine
 10
55.4328
 20
85.746056
 30
0.0
 11
63.819641
 21
84.267296
 31
0.0
  0
LINE
  5
E6
330
1F
100
AcDbEntity
  8
0
 62
     7
370
    35
100
AcDbLine
 10
70.519592
 20
20.842247
 30
0.0
 11
65.519592
 21
20.929649
 31
0.0
  0
LINE
  5
E7
330
1F
100
AcDbEntity
  8
0
 62
     7
370
    35
100
AcDbLine
 10
74.819641
 20
20.767296
 30
0.0
 11
70.519592
 21
20.842247
 31
0.0
  0
LINE
  5
E8
330
1F
100
AcDbEntity
  8
0
 62
     7
370
    35
100
AcDbLine
 10
55.4328
 20
85.746056
 30
0.0
 11
63.819641
 21
84.267296
 31
0.0
  0
LINE
  5
E9
330
1F
100
AcDbEntity
  8
0
 62
     7
370
    35
100
AcDbLine
 10
63.819641
 20
28.867393
 30
0.0
 11
62.648621
 21
28.441124
 31
0.0
  0
LINE
  5
EA
330
1F
100
AcDbEntity
  8
0
 62
     7
370
    35
100
AcDbLine
 10
62.319641
 20
27.971153
 30
0.0
 11
62.319641
 21
27.469933
 31
0.0
  0
LINE
  5
EB
330
1F
100
AcDbEntity
  8
0
 62
     7
370
    35
100
AcDbLine
 10
62.319641
 20
27.469933
 30
0.0
 11
62.319641
 21
22.367393
 31
0.0
  0
LINE
  5
EC
330
1F
100
AcDbEntity
  8
0
 62
     7
370
    35
100
AcDbLine
 10
62.319641
 20
22.367393
 30
0.0
 11
62.319641
 21
21.476768
 31
0.0
  0
LINE
  5
ED
330
1F
100
AcDbEntity
  8
0
 62
     7
370
    35
100
AcDbLine
 10
65.519592
 20
20.929649
 30
0.0
 11
62.810913
 21
20.977013
 31
0.0
  0
LINE
  5
EE
330
1F
100
AcDbEntity
  8
0
 62
     7
370
    35
100
AcDbLine
 10
55.019592
 20
94.930382
 30
0.0
 11
55.019592
 21
86.238487
 31
0.0
  0
LINE
  5
EF
330
1F
100
AcDbEntity
  8
0
 62
     7
370
    35
100
AcDbLine
 10
55.019592
 20
86.238487
 30
0.0
 11
55.019592
 21
94.930382
 31
0.0
  0
LINE
  5
F0
330
1F
100
AcDbEntity
  8
0
 62
     7
370
    35
100
AcDbLine
 10
67.319641
 20
51.767296
 30
0.0
 11
67.319641
 21
64.767296
 31
0.0
  0
ARC
  5
F1
330
1F
100
AcDbEntity
  8
0
 62
     7
370
    35
100
AcDbCircle
 10
71.219604
 20
85.581749
 30
0.0
 40
0.3999999165534973
100
AcDbArc
 50
88.999995
 51
269.000003
  0
ARC
  5
F2
330
1F
100
AcDbEntity
  8
0
 62
     7
370
    35
100
AcDbCircle
 10
71.219604
 20
80.952843
 30
0.0
 40
0.4000004231929779
100
AcDbArc
 50
91.000004
 51
270.999992
  0
ARC
  5
F3
330
1F
100
AcDbEntity
  8
0
 62
     7
370
    35
100
AcDbCircle
 10
71.219604
 20
28.552696
 30
0.0
 40
0.4000004231929779
100
AcDbArc
 50
91.000004
 51
270.999992
  0
ARC
  5
F4
330
1F
100
AcDbEntity
  8
0
 62
     7
370
    35
100
AcDbCircle
 10
71.219604
 20
33.181847
 30
0.0
 40
0.3999999165534973
100
AcDbArc
 50
88.999995
 51
269.000003
  0
ARC
  5
F5
330
1F
100
AcDbEntity
  8
0
 62
     7
370
    35
100
AcDbCircle
 10
150.319641
 20
72.967247
 30
0.0
 40
1.499999165534973
100
AcDbArc
 50
311.810266
 51
48.189724
  0
ARC
  5
F6
330
1F
100
AcDbEntity
  8
0
 62
     7
370
    35
100
AcDbCircle
 10
104.419617
 20
87.767296
 30
0.0
 40
0.499999612569809
100
AcDbArc
 50
89.999955
 51
180.00005
  0
ARC
  5
F7
330
1F
100
AcDbEntity
  8
0
 62
     7
370
    35
100
AcDbCircle
 10
143.419617
 20
87.767296
 30
0.0
 40
0.499999612569809
100
AcDbArc
 50
359.999955
 51
90.000043
  0
ARC
  5
F8
330
1F
100
AcDbEntity
  8
0
 62
     7
370
    35
100
AcDbCircle
 10
143.419617
 20
28.767296
 30
0.0
 40
0.499999612569809
100
AcDbArc
 50
269.999943
 51
0.000043
  0
ARC
  5
F9
330
1F
100
AcDbEntity
  8
0
 62
     7
370
    35
100
AcDbCircle
 10
62.819641
 20
27.971153
 30
0.0
 40
0.4999995529651642
100
AcDbArc
 50
109.999958
 51
180.000009
  0
ARC
  5
FA
330
1F
100
AcDbEntity
  8
0
 62
     7
370
    35
100
AcDbCircle
 10
62.819641
 20
21.476768
 30
0.0
 40
0.5
100
AcDbArc
 50
179.999978
 51
269.00003
  0
ARC
  5
FB
330
1F
100
AcDbEntity
  8
0
 62
     7
370
    35
100
AcDbCircle
 10
55.519592
 20
86.238487
 30
0.0
 40
0.5000008344650269
100
AcDbArc
 50
180.000186
 51
259.999918
  0
ARC
  5
FC
330
1F
100
AcDbEntity
  8
0
 62
     7
370
    35
100
AcDbCircle
 10
55.519592
 20
94.930382
 30
0.0
 40
0.5
100
AcDbArc
 50
90.999976
 51
180.000022
  0
ARC
  5
FD
330
1F
100
AcDbEntity
  8
0
 62
     7
370
    35
100
AcDbCircle
 10
65.819641
 20
82.267296
 30
0.0
 40
0.499999612569809
100
AcDbArc
 50
179.99995
 51
270.000052
  0
ARC
  5
FE
330
1F
100
AcDbEntity
  8
0
 62
     7
370
    35
100
AcDbCircle
 10
69.319641
 20
82.267296
 30
0.0
 40
0.499999612569809
100
AcDbArc
 50
269.999943
 51
0.000043
  0
ARC
  5
FF
330
1F
100
AcDbEntity
  8
0
 62
     7
370
    35
100
AcDbCircle
 10
69.319641
 20
84.267296
 30
0.0
 40
0.499999612569809
100
AcDbArc
 50
359.999955
 51
90.000043
  0
ARC
  5
100
330
1F
100
AcDbEntity
  8
0
 62
     7
370
    35
100
AcDbCircle
 10
65.819641
 20
84.267296
 30
0.0
 40
0.499999612569809
100
AcDbArc
 50
89.999955
 51
180.00005
  0
ARC
  5
101
330
1F
100
AcDbEntity
  8
0
 62
     7
370
    35
100
AcDbCircle
 10
65.819641
 20
31.867393
 30
0.0
 40
0.499999612569809
100
AcDbArc
 50
89.999955
 51
180.00005
  0
ARC
  5
102
330
1F
100
AcDbEntity
  8
0
 62
     7
370
    35
100
AcDbCircle
 10
69.319641
 20
31.867393
 30
0.0
 40
0.499999612569809
100
AcDbArc
 50
359.999955
 51
90.000043
  0
ARC
  5
103
330
1F
100
AcDbEntity
  8
0
 62
     7
370
    35
100
AcDbCircle
 10
69.319641
 20
29.867393
 30
0.0
 40
0.499999612569809
100
AcDbArc
 50
269.999943
 51
0.000043
  0
ARC
  5
104
330
1F
100
AcDbEntity
  8
0
 62
     7
370
    35
100
AcDbCircle
 10
65.819641
 20
29.867393
 30
0.0
 40
0.499999612569809
100
AcDbArc
 50
179.99995
 51
270.000052
  0
ARC
  5
105
330
1F
100
AcDbEntity
  8
0
 62
     7
370
    35
100
AcDbCircle
 10
24.680359
 20
72.367393
 30
0.0
 40
0.1999998539686203
100
AcDbArc
 50
179.99995
 51
270.000052
  0
ARC
  5
106
330
1F
100
AcDbEntity
  8
0
 62
     7
370
    35
100
AcDbCircle
 10
26.180359
 20
72.367393
 30
0.0
 40
0.1999998539686203
100
AcDbArc
 50
269.999943
 51
0.000043
  0
ARC
  5
107
330
1F
100
AcDbEntity
  8
0
 62
     7
370
    35
100
AcDbCircle
 10
26.180359
 20
73.467247
 30
0.0
 40
0.1999998539686203
100
AcDbArc
 50
359.999955
 51
90.000043
  0
ARC
  5
108
330
1F
100
AcDbEntity
  8
0
 62
     7
370
    35
100
AcDbCircle
 10
24.680359
 20
73.467247
 30
0.0
 40
0.1999998539686203
100
AcDbArc
 50
89.999955
 51
180.00005
  0
ARC
  5
109
330
1F
100
AcDbEntity
  8
0
 62
     7
370
    35
100
AcDbCircle
 10
21.180359
 20
73.467247
 30
0.0
 40
0.1999998539686203
100
AcDbArc
 50
359.999955
 51
90.000043
  0
ARC
  5
10A
330
1F
100
AcDbEntity
  8
0
 62
     7
370
    35
100
AcDbCircle
 10
21.180359
 20
72.367393
 30
0.0
 40
0.1999998539686203
100
AcDbArc
 50
269.999943
 51
0.000043
  0
ARC
  5
10B
330
1F
100
AcDbEntity
  8
0
 62
     7
370
    35
100
AcDbCircle
 10
19.680359
 20
72.367393
 30
0.0
 40
0.1999998539686203
100
AcDbArc
 50
179.99995
 51
270.000052
  0
ARC
  5
10C
330
1F
100
AcDbEntity
  8
0
 62
     7
370
    35
100
AcDbCircle
 10
19.680359
 20
73.467247
 30
0.0
 40
0.1999998539686203
100
AcDbArc
 50
89.999955
 51
180.00005
  0
ARC
  5
10D
330
1F
100
AcDbEntity
  8
0
 62
     7
370
    35
100
AcDbCircle
 10
16.180359
 20
73.467247
 30
0.0
 40
0.1999998539686203
100
AcDbArc
 50
359.999955
 51
90.000043
  0
ARC
  5
10E
330
1F
100
AcDbEntity
  8
0
 62
     7
370
    35
100
AcDbCircle
 10
16.180359
 20
72.367393
 30
0.0
 40
0.1999998539686203
100
AcDbArc
 50
269.999943
 51
0.000043
  0
ARC
  5
10F
330
1F
100
AcDbEntity
  8
0
 62
     7
370
    35
100
AcDbCircle
 10
14.680359
 20
72.367393
 30
0.0
 40
0.1999998539686203
100
AcDbArc
 50
179.99995
 51
270.000052
  0
ARC
  5
110
330
1F
100
AcDbEntity
  8
0
 62
     7
370
    35
100
AcDbCircle
 10
14.680359
 20
73.467247
 30
0.0
 40
0.1999998539686203
100
AcDbArc
 50
89.999955
 51
180.00005
  0
ARC
  5
111
330
1F
100
AcDbEntity
  8
0
 62
     7
370
    35
100
AcDbCircle
 10
11.180359
 20
73.467247
 30
0.0
 40
0.1999998539686203
100
AcDbArc
 50
359.999955
 51
90.000043
  0
ARC
  5
112
330
1F
100
AcDbEntity
  8
0
 62
     7
370
    35
100
AcDbCircle
 10
11.180359
 20
72.367393
 30
0.0
 40
0.1999998539686203
100
AcDbArc
 50
269.999943
 51
0.000043
  0
ARC
  5
113
330
1F
100
AcDbEntity
  8
0
 62
     7
370
    35
100
AcDbCircle
 10
9.680359
 20
72.367393
 30
0.0
 40
0.1999998539686203
100
AcDbArc
 50
179.99995
 51
270.000052
  0
ARC
  5
114
330
1F
100
AcDbEntity
  8
0
 62
     7
370
    35
100
AcDbCircle
 10
9.680359
 20
73.467247
 30
0.0
 40
0.1999998539686203
100
AcDbArc
 50
89.999955
 51
180.00005
  0
ARC
  5
115
330
1F
100
AcDbEntity
  8
0
 62
     7
370
    35
100
AcDbCircle
 10
22.430359
 20
46.867393
 30
0.0
 40
2.499998092651367
100
AcDbArc
 50
89.999955
 51
180.00005
  0
ARC
  5
116
330
1F
100
AcDbEntity
  8
0
 62
     7
370
    35
100
AcDbCircle
 10
22.430359
 20
45.867393
 30
0.0
 40
2.499998092651367
100
AcDbArc
 50
179.99995
 51
270.000052
  0
ARC
  5
117
330
1F
100
AcDbEntity
  8
0
 62
     7
370
    35
100
AcDbCircle
 10
24.430359
 20
45.867393
 30
0.0
 40
2.499998092651367
100
AcDbArc
 50
269.999943
 51
0.000043
  0
ARC
  5
118
330
1F
100
AcDbEntity
  8
0
 62
     7
370
    35
100
AcDbCircle
 10
24.430359
 20
46.867393
 30
0.0
 40
2.499998092651367
100
AcDbArc
 50
359.999955
 51
90.000043
  0
ARC
  5
119
330
1F
100
AcDbEntity
  8
0
 62
     7
370
    35
100
AcDbCircle
 10
11.430359
 20
46.867393
 30
0.0
 40
2.499998092651367
100
AcDbArc
 50
89.999955
 51
180.00005
  0
ARC
  5
11A
330
1F
100
AcDbEntity
  8
0
 62
     7
370
    35
100
AcDbCircle
 10
11.430359
 20
45.867393
 30
0.0
 40
2.499998092651367
100
AcDbArc
 50
179.99995
 51
270.000052
  0
ARC
  5
11B
330
1F
100
AcDbEntity
  8
0
 62
     7
370
    35
100
AcDbCircle
 10
13.430359
 20
45.867393
 30
0.0
 40
2.499998092651367
100
AcDbArc
 50
269.999943
 51
0.000043
  0
ARC
  5
11C
330
1F
100
AcDbEntity
  8
0
 62
     7
370
    35
100
AcDbCircle
 10
13.430359
 20
46.867393
 30
0.0
 40
2.499998092651367
100
AcDbArc
 50
359.999955
 51
90.000043
  0
ARC
  5
11D
330
1F
100
AcDbEntity
  8
0
 62
     7
370
    35
100
AcDbCircle
 10
11.430359
 20
37.867393
 30
0.0
 40
2.499998092651367
100
AcDbArc
 50
179.99995
 51
270.000052
  0
ARC
  5
11E
330
1F
100
AcDbEntity
  8
0
 62
     7
370
    35
100
AcDbCircle
 10
11.430359
 20
38.867393
 30
0.0
 40
2.499998092651367
100
AcDbArc
 50
89.999955
 51
180.00005
  0
ARC
  5
11F
330
1F
100
AcDbEntity
  8
0
 62
     7
370
    35
100
AcDbCircle
 10
13.430359
 20
38.867393
 30
0.0
 40
2.499998092651367
100
AcDbArc
 50
359.999955
 51
90.000043
  0
ARC
  5
120
330
1F
100
AcDbEntity
  8
0
 62
     7
370
    35
100
AcDbCircle
 10
13.430359
 20
37.867393
 30
0.0
 40
2.499998092651367
100
AcDbArc
 50
269.999943
 51
0.000043
  0
ARC
  5
121
330
1F
100
AcDbEntity
  8
0
 62
     7
370
    35
100
AcDbCircle
 10
14.430359
 20
24.917198
 30
0.0
 40
1.249999046325684
100
AcDbArc
 50
359.999955
 51
90.000043
  0
ARC
  5
122
330
1F
100
AcDbEntity
  8
0
 62
     7
370
    35
100
AcDbCircle
 10
14.430359
 20
24.917198
 30
0.0
 40
1.25000011920929
100
AcDbArc
 50
89.999996
 51
0.000007
  0
ARC
  5
123
330
1F
100
AcDbEntity
  8
0
 62
     7
370
    35
100
AcDbCircle
 10
17.930359
 20
24.917198
 30
0.0
 40
1.249999046325684
100
AcDbArc
 50
359.999955
 51
90.000043
  0
ARC
  5
124
330
1F
100
AcDbEntity
  8
0
 62
     7
370
    35
100
AcDbCircle
 10
17.930359
 20
24.917198
 30
0.0
 40
1.25000011920929
100
AcDbArc
 50
89.999996
 51
0.000007
  0
ARC
  5
125
330
1F
100
AcDbEntity
  8
0
 62
     7
370
    35
100
AcDbCircle
 10
21.430359
 20
24.917198
 30
0.0
 40
1.249999046325684
100
AcDbArc
 50
359.999955
 51
90.000043
  0
ARC
  5
126
330
1F
100
AcDbEntity
  8
0
 62
     7
370
    35
100
AcDbCircle
 10
21.430359
 20
24.917198
 30
0.0
 40
1.25000011920929
100
AcDbArc
 50
89.999996
 51
0.000007
  0
ARC
  5
127
330
1F
100
AcDbEntity
  8
0
 62
     7
370
    35
100
AcDbCircle
 10
24.930359
 20
24.917198
 30
0.0
 40
1.249999046325684
100
AcDbArc
 50
359.999955
 51
90.000043
  0
ARC
  5
128
330
1F
100
AcDbEntity
  8
0
 62
     7
370
    35
100
AcDbCircle
 10
24.930359
 20
24.917198
 30
0.0
 40
1.25000011920929
100
AcDbArc
 50
89.999996
 51
0.000007
  0
ARC
  5
129
330
1F
100
AcDbEntity
  8
0
 62
     7
370
    35
100
AcDbCircle
 10
25.130371
 20
90.967247
 30
0.0
 40
1.999998450279236
100
AcDbArc
 50
359.999955
 51
90.000043
  0
ARC
  5
12A
330
1F
100
AcDbEntity
  8
0
 62
     7
370
    35
100
AcDbCircle
 10
25.130371
 20
90.967247
 30
0.0
 40
2.000000238418579
100
AcDbArc
 50
89.999996
 51
0.000007
  0
ARC
  5
12B
330
1F
100
AcDbEntity
  8
0
 62
     7
370
    35
100
AcDbCircle
 10
20.130371
 20
90.967247
 30
0.0
 40
1.999998450279236
100
AcDbArc
 50
359.999955
 51
90.000043
  0
ARC
  5
12C
330
1F
100
AcDbEntity
  8
0
 62
     7
370
    35
100
AcDbCircle
 10
20.130371
 20
90.967247
 30
0.0
 40
2.000000238418579
100
AcDbArc
 50
89.999996
 51
0.000007
  0
ARC
  5
12D
330
1F
100
AcDbEntity
  8
0
 62
     7
370
    35
100
AcDbCircle
 10
15.130371
 20
90.967247
 30
0.0
 40
1.999998450279236
100
AcDbArc
 50
359.999955
 51
90.000043
  0
ARC
  5
12E
330
1F
100
AcDbEntity
  8
0
 62
     7
370
    35
100
AcDbCircle
 10
15.130371
 20
90.967247
 30
0.0
 40
2.000000238418579
100
AcDbArc
 50
89.999996
 51
0.000007
  0
ARC
  5
12F
330
1F
100
AcDbEntity
  8
0
 62
     7
370
    35
100
AcDbCircle
 10
22.580383
 20
51.267296
 30
0.0
 40
0.4499996602535248
100
AcDbArc
 50
359.999955
 51
90.000043
  0
ARC
  5
130
330
1F
100
AcDbEntity
  8
0
 62
     7
370
    35
100
AcDbCircle
 10
22.580383
 20
51.267296
 30
0.0
 40
0.4500000476837158
100
AcDbArc
 50
89.999996
 51
0.000007
  0
ARC
  5
131
330
1F
100
AcDbEntity
  8
0
 62
     7
370
    35
100
AcDbCircle
 10
17.880371
 20
51.267296
 30
0.0
 40
0.4499996602535248
100
AcDbArc
 50
359.999955
 51
90.000043
  0
ARC
  5
132
330
1F
100
AcDbEntity
  8
0
 62
     7
370
    35
100
AcDbCircle
 10
17.880371
 20
51.267296
 30
0.0
 40
0.4500000476837158
100
AcDbArc
 50
89.999996
 51
0.000007
  0
ARC
  5
133
330
1F
100
AcDbEntity
  8
0
 62
     7
370
    35
100
AcDbCircle
 10
13.180359
 20
51.267296
 30
0.0
 40
0.4499996602535248
100
AcDbArc
 50
359.999955
 51
90.000043
  0
ARC
  5
134
330
1F
100
AcDbEntity
  8
0
 62
     7
370
    35
100
AcDbCircle
 10
13.180359
 20
51.267296
 30
0.0
 40
0.4500000476837158
100
AcDbArc
 50
89.999996
 51
0.000007
  0
ARC
  5
135
330
1F
100
AcDbEntity
  8
0
 62
     7
370
    35
100
AcDbCircle
 10
13.180359
 20
61.267296
 30
0.0
 40
0.4499996602535248
100
AcDbArc
 50
359.999955
 51
90.000043
  0
ARC
  5
136
330
1F
100
AcDbEntity
  8
0
 62
     7
370
    35
100
AcDbCircle
 10
13.180359
 20
61.267296
 30
0.0
 40
0.4500000476837158
100
AcDbArc
 50
89.999996
 51
0.000007
  0
ARC
  5
137
330
1F
100
AcDbEntity
  8
0
 62
     7
370
    35
100
AcDbCircle
 10
17.880371
 20
61.267296
 30
0.0
 40
0.4499996602535248
100
AcDbArc
 50
359.999955
 51
90.000043
  0
ARC
  5
138
330
1F
100
AcDbEntity
  8
0
 62
     7
370
    35
100
AcDbCircle
 10
17.880371
 20
61.267296
 30
0.0
 40
0.4500000476837158
100
AcDbArc
 50
89.999996
 51
0.000007
  0
ARC
  5
139
330
1F
100
AcDbEntity
  8
0
 62
     7
370
    35
100
AcDbCircle
 10
22.580383
 20
61.267296
 30
0.0
 40
0.4499996602535248
100
AcDbArc
 50
359.999955
 51
90.000043
  0
ARC
  5
13A
330
1F
100
AcDbEntity
  8
0
 62
     7
370
    35
100
AcDbCircle
 10
22.580383
 20
61.267296
 30
0.0
 40
0.4500000476837158
100
AcDbArc
 50
89.999996
 51
0.000007
  0
ARC
  5
13B
330
1F
100
AcDbEntity
  8
0
 62
     7
370
    35
100
AcDbCircle
 10
10.130371
 20
90.967247
 30
0.0
 40
1.99999988079071
100
AcDbArc
 50
225.0
 51
45.000001
  0
ARC
  5
13C
330
1F
100
AcDbEntity
  8
0
 62
     7
370
    35
100
AcDbCircle
 10
10.130371
 20
90.967247
 30
0.0
 40
1.99999988079071
100
AcDbArc
 50
45.000001
 51
225.0
  0
ARC
  5
13D
330
1F
100
AcDbEntity
  8
0
 62
     7
370
    35
100
AcDbCircle
 10
10.930359
 20
24.917198
 30
0.0
 40
1.25
100
AcDbArc
 50
225.0
 51
45.000001
  0
ARC
  5
13E
330
1F
100
AcDbEntity
  8
0
 62
     7
370
    35
100
AcDbCircle
 10
10.930359
 20
24.917198
 30
0.0
 40
1.25
100
AcDbArc
 50
45.000001
 51
225.0
  0
ARC
  5
13F
330
1F
100
AcDbEntity
  8
0
 62
     7
370
    35
100
AcDbCircle
 10
23.766724
 20
59.367393
 30
0.0
 40
0.200000211596489
100
AcDbArc
 50
90.000057
 51
225.000123
  0
ARC
  5
140
330
1F
100
AcDbEntity
  8
0
 62
     7
370
    35
100
AcDbCircle
 10
26.19397
 20
59.367393
 30
0.0
 40
0.200000211596489
100
AcDbArc
 50
314.999883
 51
89.999941
  0
ARC
  5
141
330
1F
100
AcDbEntity
  8
0
 62
     7
370
    35
100
AcDbCircle
 10
26.630371
 20
56.503624
 30
0.0
 40
0.2000000476837158
100
AcDbArc
 50
224.999959
 51
315.000047
  0
ARC
  5
142
330
1F
100
AcDbEntity
  8
0
 62
     7
370
    35
100
AcDbCircle
 10
26.780334
 20
58.68087
 30
0.0
 40
0.1999997049570084
100
AcDbArc
 50
0.000001
 51
135.000055
  0
ARC
  5
143
330
1F
100
AcDbEntity
  8
0
 62
     7
370
    35
100
AcDbCircle
 10
26.630371
 20
55.230919
 30
0.0
 40
0.2000000476837158
100
AcDbArc
 50
44.999957
 51
135.000041
  0
ARC
  5
144
330
1F
100
AcDbEntity
  8
0
 62
     7
370
    35
100
AcDbCircle
 10
26.780334
 20
53.053673
 30
0.0
 40
0.1999999135732651
100
AcDbArc
 50
225.000082
 51
0.000142
  0
ARC
  5
145
330
1F
100
AcDbEntity
  8
0
 62
     7
370
    35
100
AcDbCircle
 10
23.766724
 20
52.367393
 30
0.0
 40
0.1999997049570084
100
AcDbArc
 50
134.999946
 51
269.999997
  0
ARC
  5
146
330
1F
100
AcDbEntity
  8
0
 62
     7
370
    35
100
AcDbCircle
 10
26.19397
 20
52.367393
 30
0.0
 40
0.1999997049570084
100
AcDbArc
 50
269.999997
 51
45.000059
  0
ARC
  5
147
330
1F
100
AcDbEntity
  8
0
 62
     7
370
    35
100
AcDbCircle
 10
23.966736
 20
55.867393
 30
0.0
 40
0.2000000476837158
100
AcDbArc
 50
134.999959
 51
225.000041
  0
ARC
  5
148
330
1F
100
AcDbEntity
  8
0
 62
     7
370
    35
100
AcDbCircle
 10
25.993958
 20
55.867393
 30
0.0
 40
0.2000000476837158
100
AcDbArc
 50
314.999965
 51
45.000042
  0
ARC
  5
149
330
1F
100
AcDbEntity
  8
0
 62
     7
370
    35
100
AcDbCircle
 10
23.180359
 20
58.68087
 30
0.0
 40
0.200000211596489
100
AcDbArc
 50
44.999882
 51
179.999937
  0
ARC
  5
14A
330
1F
100
AcDbEntity
  8
0
 62
     7
370
    35
100
AcDbCircle
 10
23.330383
 20
56.503624
 30
0.0
 40
0.2000000476837158
100
AcDbArc
 50
224.999959
 51
315.000047
  0
ARC
  5
14B
330
1F
100
AcDbEntity
  8
0
 62
     7
370
    35
100
AcDbCircle
 10
23.180359
 20
53.053673
 30
0.0
 40
0.2000004202127457
100
AcDbArc
 50
179.999923
 51
314.999965
  0
ARC
  5
14C
330
1F
100
AcDbEntity
  8
0
 62
     7
370
    35
100
AcDbCircle
 10
23.330383
 20
55.230919
 30
0.0
 40
0.2000000476837158
100
AcDbArc
 50
44.999957
 51
135.000041
  0
ARC
  5
14D
330
1F
100
AcDbEntity
  8
0
 62
     7
370
    35
100
AcDbCircle
 10
18.630371
 20
55.230919
 30
0.0
 40
0.2000000476837158
100
AcDbArc
 50
44.999957
 51
135.000041
  0
ARC
  5
14E
330
1F
100
AcDbEntity
  8
0
 62
     7
370
    35
100
AcDbCircle
 10
18.480347
 20
53.053673
 30
0.0
 40
0.2000004202127457
100
AcDbArc
 50
179.999923
 51
314.999965
  0
ARC
  5
14F
330
1F
100
AcDbEntity
  8
0
 62
     7
370
    35
100
AcDbCircle
 10
18.630371
 20
56.503624
 30
0.0
 40
0.2000000476837158
100
AcDbArc
 50
224.999959
 51
315.000047
  0
ARC
  5
150
330
1F
100
AcDbEntity
  8
0
 62
     7
370
    35
100
AcDbCircle
 10
18.480347
 20
58.68087
 30
0.0
 40
0.200000211596489
100
AcDbArc
 50
44.999882
 51
179.999937
  0
ARC
  5
151
330
1F
100
AcDbEntity
  8
0
 62
     7
370
    35
100
AcDbCircle
 10
21.293945
 20
55.867393
 30
0.0
 40
0.2000000476837158
100
AcDbArc
 50
314.999965
 51
45.000042
  0
ARC
  5
152
330
1F
100
AcDbEntity
  8
0
 62
     7
370
    35
100
AcDbCircle
 10
19.266724
 20
55.867393
 30
0.0
 40
0.2000000476837158
100
AcDbArc
 50
134.999959
 51
225.000041
  0
ARC
  5
153
330
1F
100
AcDbEntity
  8
0
 62
     7
370
    35
100
AcDbCircle
 10
21.493958
 20
52.367393
 30
0.0
 40
0.1999997049570084
100
AcDbArc
 50
269.999997
 51
45.000059
  0
ARC
  5
154
330
1F
100
AcDbEntity
  8
0
 62
     7
370
    35
100
AcDbCircle
 10
19.066772
 20
52.367393
 30
0.0
 40
0.1999997049570084
100
AcDbArc
 50
134.999946
 51
269.999997
  0
ARC
  5
155
330
1F
100
AcDbEntity
  8
0
 62
     7
370
    35
100
AcDbCircle
 10
22.080383
 20
53.053673
 30
0.0
 40
0.1999999135732651
100
AcDbArc
 50
225.000082
 51
0.000142
  0
ARC
  5
156
330
1F
100
AcDbEntity
  8
0
 62
     7
370
    35
100
AcDbCircle
 10
21.930359
 20
55.230919
 30
0.0
 40
0.2000000476837158
100
AcDbArc
 50
44.999957
 51
135.000041
  0
ARC
  5
157
330
1F
100
AcDbEntity
  8
0
 62
     7
370
    35
100
AcDbCircle
 10
22.080383
 20
58.68087
 30
0.0
 40
0.1999997049570084
100
AcDbArc
 50
0.000001
 51
135.000055
  0
ARC
  5
158
330
1F
100
AcDbEntity
  8
0
 62
     7
370
    35
100
AcDbCircle
 10
21.930359
 20
56.503624
 30
0.0
 40
0.2000000476837158
100
AcDbArc
 50
224.999959
 51
315.000047
  0
ARC
  5
159
330
1F
100
AcDbEntity
  8
0
 62
     7
370
    35
100
AcDbCircle
 10
21.493958
 20
59.367393
 30
0.0
 40
0.200000211596489
100
AcDbArc
 50
314.999883
 51
89.999941
  0
ARC
  5
15A
330
1F
100
AcDbEntity
  8
0
 62
     7
370
    35
100
AcDbCircle
 10
19.066772
 20
59.367393
 30
0.0
 40
0.200000211596489
100
AcDbArc
 50
90.000057
 51
225.000123
  0
ARC
  5
15B
330
1F
100
AcDbEntity
  8
0
 62
     7
370
    35
100
AcDbCircle
 10
13.930359
 20
55.230919
 30
0.0
 40
0.2000000476837158
100
AcDbArc
 50
44.999957
 51
135.000041
  0
ARC
  5
15C
330
1F
100
AcDbEntity
  8
0
 62
     7
370
    35
100
AcDbCircle
 10
13.780335
 20
53.053673
 30
0.0
 40
0.2000004202127457
100
AcDbArc
 50
179.999923
 51
314.999965
  0
ARC
  5
15D
330
1F
100
AcDbEntity
  8
0
 62
     7
370
    35
100
AcDbCircle
 10
13.930359
 20
56.503624
 30
0.0
 40
0.2000000476837158
100
AcDbArc
 50
224.999959
 51
315.000047
  0
ARC
  5
15E
330
1F
100
AcDbEntity
  8
0
 62
     7
370
    35
100
AcDbCircle
 10
13.780335
 20
58.68087
 30
0.0
 40
0.200000211596489
100
AcDbArc
 50
44.999882
 51
179.999937
  0
ARC
  5
15F
330
1F
100
AcDbEntity
  8
0
 62
     7
370
    35
100
AcDbCircle
 10
16.593933
 20
55.867393
 30
0.0
 40
0.2000000476837158
100
AcDbArc
 50
314.999965
 51
45.000042
  0
ARC
  5
160
330
1F
100
AcDbEntity
  8
0
 62
     7
370
    35
100
AcDbCircle
 10
14.566772
 20
55.867393
 30
0.0
 40
0.2000000476837158
100
AcDbArc
 50
134.999959
 51
225.000041
  0
ARC
  5
161
330
1F
100
AcDbEntity
  8
0
 62
     7
370
    35
100
AcDbCircle
 10
16.793945
 20
52.367393
 30
0.0
 40
0.1999997049570084
100
AcDbArc
 50
269.999997
 51
45.000059
  0
ARC
  5
162
330
1F
100
AcDbEntity
  8
0
 62
     7
370
    35
100
AcDbCircle
 10
14.36676
 20
52.367393
 30
0.0
 40
0.1999997049570084
100
AcDbArc
 50
134.999946
 51
269.999997
  0
ARC
  5
163
330
1F
100
AcDbEntity
  8
0
 62
     7
370
    35
100
AcDbCircle
 10
17.380371
 20
53.053673
 30
0.0
 40
0.1999999135732651
100
AcDbArc
 50
225.000082
 51
0.000142
  0
ARC
  5
164
330
1F
100
AcDbEntity
  8
0
 62
     7
370
    35
100
AcDbCircle
 10
17.230347
 20
55.230919
 30
0.0
 40
0.2000000476837158
100
AcDbArc
 50
44.999957
 51
135.000041
  0
ARC
  5
165
330
1F
100
AcDbEntity
  8
0
 62
     7
370
    35
100
AcDbCircle
 10
17.380371
 20
58.68087
 30
0.0
 40
0.1999997049570084
100
AcDbArc
 50
0.000001
 51
135.000055
  0
ARC
  5
166
330
1F
100
AcDbEntity
  8
0
 62
     7
370
    35
100
AcDbCircle
 10
17.230347
 20
56.503624
 30
0.0
 40
0.2000000476837158
100
AcDbArc
 50
224.999959
 51
315.000047
  0
ARC
  5
167
330
1F
100
AcDbEntity
  8
0
 62
     7
370
    35
100
AcDbCircle
 10
16.793945
 20
59.367393
 30
0.0
 40
0.200000211596489
100
AcDbArc
 50
314.999883
 51
89.999941
  0
ARC
  5
168
330
1F
100
AcDbEntity
  8
0
 62
     7
370
    35
100
AcDbCircle
 10
14.36676
 20
59.367393
 30
0.0
 40
0.200000211596489
100
AcDbArc
 50
90.000057
 51
225.000123
  0
ARC
  5
169
330
1F
100
AcDbEntity
  8
0
 62
     7
370
    35
100
AcDbCircle
 10
9.230347
 20
55.230919
 30
0.0
 40
0.2000000476837158
100
AcDbArc
 50
44.999957
 51
135.000041
  0
ARC
  5
16A
330
1F
100
AcDbEntity
  8
0
 62
     7
370
    35
100
AcDbCircle
 10
9.080383
 20
53.053673
 30
0.0
 40
0.2000004202127457
100
AcDbArc
 50
179.999923
 51
314.999965
  0
ARC
  5
16B
330
1F
100
AcDbEntity
  8
0
 62
     7
370
    35
100
AcDbCircle
 10
9.230347
 20
56.503624
 30
0.0
 40
0.2000000476837158
100
AcDbArc
 50
224.999959
 51
315.000047
  0
ARC
  5
16C
330
1F
100
AcDbEntity
  8
0
 62
     7
370
    35
100
AcDbCircle
 10
9.080383
 20
58.68087
 30
0.0
 40
0.200000211596489
100
AcDbArc
 50
44.999882
 51
179.999937
  0
ARC
  5
16D
330
1F
100
AcDbEntity
  8
0
 62
     7
370
    35
100
AcDbCircle
 10
11.893982
 20
55.867393
 30
0.0
 40
0.2000000476837158
100
AcDbArc
 50
314.999965
 51
45.000042
  0
ARC
  5
16E
330
1F
100
AcDbEntity
  8
0
 62
     7
370
    35
100
AcDbCircle
 10
9.86676
 20
55.867393
 30
0.0
 40
0.2000000476837158
100
AcDbArc
 50
134.999959
 51
225.000041
  0
ARC
  5
16F
330
1F
100
AcDbEntity
  8
0
 62
     7
370
    35
100
AcDbCircle
 10
12.093933
 20
52.367393
 30
0.0
 40
0.1999997049570084
100
AcDbArc
 50
269.999997
 51
45.000059
  0
ARC
  5
170
330
1F
100
AcDbEntity
  8
0
 62
     7
370
    35
100
AcDbCircle
 10
9.666748
 20
52.367393
 30
0.0
 40
0.1999997049570084
100
AcDbArc
 50
134.999946
 51
269.999997
  0
ARC
  5
171
330
1F
100
AcDbEntity
  8
0
 62
     7
370
    35
100
AcDbCircle
 10
12.680359
 20
53.053673
 30
0.0
 40
0.1999999135732651
100
AcDbArc
 50
225.000082
 51
0.000142
  0
ARC
  5
172
330
1F
100
AcDbEntity
  8
0
 62
     7
370
    35
100
AcDbCircle
 10
12.530335
 20
55.230919
 30
0.0
 40
0.2000000476837158
100
AcDbArc
 50
44.999957
 51
135.000041
  0
ARC
  5
173
330
1F
100
AcDbEntity
  8
0
 62
     7
370
    35
100
AcDbCircle
 10
12.680359
 20
58.68087
 30
0.0
 40
0.1999997049570084
100
AcDbArc
 50
0.000001
 51
135.000055
  0
ARC
  5
174
330
1F
100
AcDbEntity
  8
0
 62
     7
370
    35
100
AcDbCircle
 10
12.530335
 20
56.503624
 30
0.0
 40
0.2000000476837158
100
AcDbArc
 50
224.999959
 51
315.000047
  0
ARC
  5
175
330
1F
100
AcDbEntity
  8
0
 62
     7
370
    35
100
AcDbCircle
 10
12.093933
 20
59.367393
 30
0.0
 40
0.200000211596489
100
AcDbArc
 50
314.999883
 51
89.999941
  0
ARC
  5
176
330
1F
100
AcDbEntity
  8
0
 62
     7
370
    35
100
AcDbCircle
 10
9.666748
 20
59.367393
 30
0.0
 40
0.200000211596489
100
AcDbArc
 50
90.000057
 51
225.000123
  0
ARC
  5
177
330
1F
100
AcDbEntity
  8
0
 62
     7
370
    35
100
AcDbCircle
 10
9.666748
 20
69.367393
 30
0.0
 40
0.200000211596489
100
AcDbArc
 50
90.000057
 51
225.000123
  0
ARC
  5
178
330
1F
100
AcDbEntity
  8
0
 62
     7
370
    35
100
AcDbCircle
 10
12.093933
 20
69.367393
 30
0.0
 40
0.200000211596489
100
AcDbArc
 50
314.999883
 51
89.999941
  0
ARC
  5
179
330
1F
100
AcDbEntity
  8
0
 62
     7
370
    35
100
AcDbCircle
 10
12.530335
 20
66.503624
 30
0.0
 40
0.2000000476837158
100
AcDbArc
 50
224.999959
 51
315.000047
  0
ARC
  5
17A
330
1F
100
AcDbEntity
  8
0
 62
     7
370
    35
100
AcDbCircle
 10
12.680359
 20
68.68087
 30
0.0
 40
0.1999997049570084
100
AcDbArc
 50
0.000001
 51
135.000055
  0
ARC
  5
17B
330
1F
100
AcDbEntity
  8
0
 62
     7
370
    35
100
AcDbCircle
 10
12.530335
 20
65.230919
 30
0.0
 40
0.2000000476837158
100
AcDbArc
 50
44.999957
 51
135.000041
  0
ARC
  5
17C
330
1F
100
AcDbEntity
  8
0
 62
     7
370
    35
100
AcDbCircle
 10
12.680359
 20
63.053673
 30
0.0
 40
0.1999999135732651
100
AcDbArc
 50
225.000082
 51
0.000142
  0
ARC
  5
17D
330
1F
100
AcDbEntity
  8
0
 62
     7
370
    35
100
AcDbCircle
 10
9.666748
 20
62.367393
 30
0.0
 40
0.1999997049570084
100
AcDbArc
 50
134.999946
 51
269.999997
  0
ARC
  5
17E
330
1F
100
AcDbEntity
  8
0
 62
     7
370
    35
100
AcDbCircle
 10
12.093933
 20
62.367393
 30
0.0
 40
0.1999997049570084
100
AcDbArc
 50
269.999997
 51
45.000059
  0
ARC
  5
17F
330
1F
100
AcDbEntity
  8
0
 62
     7
370
    35
100
AcDbCircle
 10
9.86676
 20
65.867393
 30
0.0
 40
0.2000000476837158
100
AcDbArc
 50
134.999959
 51
225.000041
  0
ARC
  5
180
330
1F
100
AcDbEntity
  8
0
 62
     7
370
    35
100
AcDbCircle
 10
11.893982
 20
65.867393
 30
0.0
 40
0.2000000476837158
100
AcDbArc
 50
314.999965
 51
45.000042
  0
ARC
  5
181
330
1F
100
AcDbEntity
  8
0
 62
     7
370
    35
100
AcDbCircle
 10
9.080383
 20
68.68087
 30
0.0
 40
0.200000211596489
100
AcDbArc
 50
44.999882
 51
179.999937
  0
ARC
  5
182
330
1F
100
AcDbEntity
  8
0
 62
     7
370
    35
100
AcDbCircle
 10
9.230347
 20
66.503624
 30
0.0
 40
0.2000000476837158
100
AcDbArc
 50
224.999959
 51
315.000047
  0
ARC
  5
183
330
1F
100
AcDbEntity
  8
0
 62
     7
370
    35
100
AcDbCircle
 10
9.080383
 20
63.053673
 30
0.0
 40
0.2000004202127457
100
AcDbArc
 50
179.999923
 51
314.999965
  0
ARC
  5
184
330
1F
100
AcDbEntity
  8
0
 62
     7
370
    35
100
AcDbCircle
 10
9.230347
 20
65.230919
 30
0.0
 40
0.2000000476837158
100
AcDbArc
 50
44.999957
 51
135.000041
  0
ARC
  5
185
330
1F
100
AcDbEntity
  8
0
 62
     7
370
    35
100
AcDbCircle
 10
14.36676
 20
69.367393
 30
0.0
 40
0.200000211596489
100
AcDbArc
 50
90.000057
 51
225.000123
  0
ARC
  5
186
330
1F
100
AcDbEntity
  8
0
 62
     7
370
    35
100
AcDbCircle
 10
16.793945
 20
69.367393
 30
0.0
 40
0.200000211596489
100
AcDbArc
 50
314.999883
 51
89.999941
  0
ARC
  5
187
330
1F
100
AcDbEntity
  8
0
 62
     7
370
    35
100
AcDbCircle
 10
17.230347
 20
66.503624
 30
0.0
 40
0.2000000476837158
100
AcDbArc
 50
224.999959
 51
315.000047
  0
ARC
  5
188
330
1F
100
AcDbEntity
  8
0
 62
     7
370
    35
100
AcDbCircle
 10
17.380371
 20
68.68087
 30
0.0
 40
0.1999997049570084
100
AcDbArc
 50
0.000001
 51
135.000055
  0
ARC
  5
189
330
1F
100
AcDbEntity
  8
0
 62
     7
370
    35
100
AcDbCircle
 10
17.230347
 20
65.230919
 30
0.0
 40
0.2000000476837158
100
AcDbArc
 50
44.999957
 51
135.000041
  0
ARC
  5
18A
330
1F
100
AcDbEntity
  8
0
 62
     7
370
    35
100
AcDbCircle
 10
17.380371
 20
63.053673
 30
0.0
 40
0.1999999135732651
100
AcDbArc
 50
225.000082
 51
0.000142
  0
ARC
  5
18B
330
1F
100
AcDbEntity
  8
0
 62
     7
370
    35
100
AcDbCircle
 10
14.36676
 20
62.367393
 30
0.0
 40
0.1999997049570084
100
AcDbArc
 50
134.999946
 51
269.999997
  0
ARC
  5
18C
330
1F
100
AcDbEntity
  8
0
 62
     7
370
    35
100
AcDbCircle
 10
16.793945
 20
62.367393
 30
0.0
 40
0.1999997049570084
100
AcDbArc
 50
269.999997
 51
45.000059
  0
ARC
  5
18D
330
1F
100
AcDbEntity
  8
0
 62
     7
370
    35
100
AcDbCircle
 10
14.566772
 20
65.867393
 30
0.0
 40
0.2000000476837158
100
AcDbArc
 50
134.999959
 51
225.000041
  0
ARC
  5
18E
330
1F
100
AcDbEntity
  8
0
 62
     7
370
    35
100
AcDbCircle
 10
16.593933
 20
65.867393
 30
0.0
 40
0.2000000476837158
100
AcDbArc
 50
314.999965
 51
45.000042
  0
ARC
  5
18F
330
1F
100
AcDbEntity
  8
0
 62
     7
370
    35
100
AcDbCircle
 10
13.780335
 20
68.68087
 30
0.0
 40
0.200000211596489
100
AcDbArc
 50
44.999882
 51
179.999937
  0
ARC
  5
190
330
1F
100
AcDbEntity
  8
0
 62
     7
370
    35
100
AcDbCircle
 10
13.930359
 20
66.503624
 30
0.0
 40
0.2000000476837158
100
AcDbArc
 50
224.999959
 51
315.000047
  0
ARC
  5
191
330
1F
100
AcDbEntity
  8
0
 62
     7
370
    35
100
AcDbCircle
 10
13.780335
 20
63.053673
 30
0.0
 40
0.2000004202127457
100
AcDbArc
 50
179.999923
 51
314.999965
  0
ARC
  5
192
330
1F
100
AcDbEntity
  8
0
 62
     7
370
    35
100
AcDbCircle
 10
13.930359
 20
65.230919
 30
0.0
 40
0.2000000476837158
100
AcDbArc
 50
44.999957
 51
135.000041
  0
ARC
  5
193
330
1F
100
AcDbEntity
  8
0
 62
     7
370
    35
100
AcDbCircle
 10
19.066772
 20
69.367393
 30
0.0
 40
0.200000211596489
100
AcDbArc
 50
90.000057
 51
225.000123
  0
ARC
  5
194
330
1F
100
AcDbEntity
  8
0
 62
     7
370
    35
100
AcDbCircle
 10
21.493958
 20
69.367393
 30
0.0
 40
0.200000211596489
100
AcDbArc
 50
314.999883
 51
89.999941
  0
ARC
  5
195
330
1F
100
AcDbEntity
  8
0
 62
     7
370
    35
100
AcDbCircle
 10
21.930359
 20
66.503624
 30
0.0
 40
0.2000000476837158
100
AcDbArc
 50
224.999959
 51
315.000047
  0
ARC
  5
196
330
1F
100
AcDbEntity
  8
0
 62
     7
370
    35
100
AcDbCircle
 10
22.080383
 20
68.68087
 30
0.0
 40
0.1999997049570084
100
AcDbArc
 50
0.000001
 51
135.000055
  0
ARC
  5
197
330
1F
100
AcDbEntity
  8
0
 62
     7
370
    35
100
AcDbCircle
 10
21.930359
 20
65.230919
 30
0.0
 40
0.2000000476837158
100
AcDbArc
 50
44.999957
 51
135.000041
  0
ARC
  5
198
330
1F
100
AcDbEntity
  8
0
 62
     7
370
    35
100
AcDbCircle
 10
22.080383
 20
63.053673
 30
0.0
 40
0.1999999135732651
100
AcDbArc
 50
225.000082
 51
0.000142
  0
ARC
  5
199
330
1F
100
AcDbEntity
  8
0
 62
     7
370
    35
100
AcDbCircle
 10
19.066772
 20
62.367393
 30
0.0
 40
0.1999997049570084
100
AcDbArc
 50
134.999946
 51
269.999997
  0
ARC
  5
19A
330
1F
100
AcDbEntity
  8
0
 62
     7
370
    35
100
AcDbCircle
 10
21.493958
 20
62.367393
 30
0.0
 40
0.1999997049570084
100
AcDbArc
 50
269.999997
 51
45.000059
  0
ARC
  5
19B
330
1F
100
AcDbEntity
  8
0
 62
     7
370
    35
100
AcDbCircle
 10
19.266724
 20
65.867393
 30
0.0
 40
0.2000000476837158
100
AcDbArc
 50
134.999959
 51
225.000041
  0
ARC
  5
19C
330
1F
100
AcDbEntity
  8
0
 62
     7
370
    35
100
AcDbCircle
 10
21.293945
 20
65.867393
 30
0.0
 40
0.2000000476837158
100
AcDbArc
 50
314.999965
 51
45.000042
  0
ARC
  5
19D
330
1F
100
AcDbEntity
  8
0
 62
     7
370
    35
100
AcDbCircle
 10
18.480347
 20
68.68087
 30
0.0
 40
0.200000211596489
100
AcDbArc
 50
44.999882
 51
179.999937
  0
ARC
  5
19E
330
1F
100
AcDbEntity
  8
0
 62
     7
370
    35
100
AcDbCircle
 10
18.630371
 20
66.503624
 30
0.0
 40
0.2000000476837158
100
AcDbArc
 50
224.999959
 51
315.000047
  0
ARC
  5
19F
330
1F
100
AcDbEntity
  8
0
 62
     7
370
    35
100
AcDbCircle
 10
18.480347
 20
63.053673
 30
0.0
 40
0.2000004202127457
100
AcDbArc
 50
179.999923
 51
314.999965
  0
ARC
  5
1A0
330
1F
100
AcDbEntity
  8
0
 62
     7
370
    35
100
AcDbCircle
 10
18.630371
 20
65.230919
 30
0.0
 40
0.2000000476837158
100
AcDbArc
 50
44.999957
 51
135.000041
  0
ARC
  5
1A1
330
1F
100
AcDbEntity
  8
0
 62
     7
370
    35
100
AcDbCircle
 10
23.330383
 20
65.230919
 30
0.0
 40
0.2000000476837158
100
AcDbArc
 50
44.999957
 51
135.000041
  0
ARC
  5
1A2
330
1F
100
AcDbEntity
  8
0
 62
     7
370
    35
100
AcDbCircle
 10
23.180359
 20
63.053673
 30
0.0
 40
0.2000004202127457
100
AcDbArc
 50
179.999923
 51
314.999965
  0
ARC
  5
1A3
330
1F
100
AcDbEntity
  8
0
 62
     7
370
    35
100
AcDbCircle
 10
23.330383
 20
66.503624
 30
0.0
 40
0.2000000476837158
100
AcDbArc
 50
224.999959
 51
315.000047
  0
ARC
  5
1A4
330
1F
100
AcDbEntity
  8
0
 62
     7
370
    35
100
AcDbCircle
 10
23.180359
 20
68.68087
 30
0.0
 40
0.200000211596489
100
AcDbArc
 50
44.999882
 51
179.999937
  0
ARC
  5
1A5
330
1F
100
AcDbEntity
  8
0
 62
     7
370
    35
100
AcDbCircle
 10
25.993958
 20
65.867393
 30
0.0
 40
0.2000000476837158
100
AcDbArc
 50
314.999965
 51
45.000042
  0
ARC
  5
1A6
330
1F
100
AcDbEntity
  8
0
 62
     7
370
    35
100
AcDbCircle
 10
23.966736
 20
65.867393
 30
0.0
 40
0.2000000476837158
100
AcDbArc
 50
134.999959
 51
225.000041
  0
ARC
  5
1A7
330
1F
100
AcDbEntity
  8
0
 62
     7
370
    35
100
AcDbCircle
 10
26.19397
 20
62.367393
 30
0.0
 40
0.1999997049570084
100
AcDbArc
 50
269.999997
 51
45.000059
  0
ARC
  5
1A8
330
1F
100
AcDbEntity
  8
0
 62
     7
370
    35
100
AcDbCircle
 10
23.766724
 20
62.367393
 30
0.0
 40
0.1999997049570084
100
AcDbArc
 50
134.999946
 51
269.999997
  0
ARC
  5
1A9
330
1F
100
AcDbEntity
  8
0
 62
     7
370
    35
100
AcDbCircle
 10
26.780334
 20
63.053673
 30
0.0
 40
0.1999999135732651
100
AcDbArc
 50
225.000082
 51
0.000142
  0
ARC
  5
1AA
330
1F
100
AcDbEntity
  8
0
 62
     7
370
    35
100
AcDbCircle
 10
26.630371
 20
65.230919
 30
0.0
 40
0.2000000476837158
100
AcDbArc
 50
44.999957
 51
135.000041
  0
ARC
  5
1AB
330
1F
100
AcDbEntity
  8
0
 62
     7
370
    35
100
AcDbCircle
 10
26.780334
 20
68.68087
 30
0.0
 40
0.1999997049570084
100
AcDbArc
 50
0.000001
 51
135.000055
  0
ARC
  5
1AC
330
1F
100
AcDbEntity
  8
0
 62
     7
370
    35
100
AcDbCircle
 10
26.630371
 20
66.503624
 30
0.0
 40
0.2000000476837158
100
AcDbArc
 50
224.999959
 51
315.000047
  0
ARC
  5
1AD
330
1F
100
AcDbEntity
  8
0
 62
     7
370
    35
100
AcDbCircle
 10
26.19397
 20
69.367393
 30
0.0
 40
0.200000211596489
100
AcDbArc
 50
314.999883
 51
89.999941
  0
ARC
  5
1AE
330
1F
100
AcDbEntity
  8
0
 62
     7
370
    35
100
AcDbCircle
 10
23.766724
 20
69.367393
 30
0.0
 40
0.200000211596489
100
AcDbArc
 50
90.000057
 51
225.000123
  0
ARC
  5
1AF
330
1F
100
AcDbEntity
  8
0
 62
     7
370
    35
100
AcDbCircle
 10
10.130371
 20
90.967247
 30
0.0
 40
2.300279140472412
100
AcDbArc
 50
145.688563
 51
214.311437
  0
ARC
  5
1B0
330
1F
100
AcDbEntity
  8
0
 62
     7
370
    35
100
AcDbCircle
 10
27.680359
 20
32.367393
 30
0.0
 40
0.499999612569809
100
AcDbArc
 50
269.999943
 51
0.000043
  0
ARC
  5
1B1
330
1F
100
AcDbEntity
  8
0
 62
     7
370
    35
100
AcDbCircle
 10
8.180359
 20
32.367393
 30
0.0
 40
0.499999612569809
100
AcDbArc
 50
179.99995
 51
270.000052
  0
ARC
  5
1B2
330
1F
100
AcDbEntity
  8
0
 62
     7
370
    35
100
AcDbCircle
 10
27.680359
 20
80.767296
 30
0.0
 40
0.499999612569809
100
AcDbArc
 50
359.999955
 51
90.000043
  0
ARC
  5
1B3
330
1F
100
AcDbEntity
  8
0
 62
     7
370
    35
100
AcDbCircle
 10
8.180359
 20
80.767296
 30
0.0
 40
0.499999612569809
100
AcDbArc
 50
89.999955
 51
180.00005
  0
LINE
  5
1B4
330
1F
100
AcDbEntity
  8
0
 62
     7
370
    35
100
AcDbLine
 10
9.180359
 20
22.367393
 30
0.0
 11
9.180359
 21
22.767296
 31
0.0
  0
LINE
  5
1B5
330
1F
100
AcDbEntity
  8
0
 62
     7
370
    35
100
AcDbLine
 10
27.630371
 20
88.196007
 30
0.0
 11
8.230347
 21
88.196007
 31
0.0
  0
LINE
  5
1B6
330
1F
100
AcDbEntity
  8
0
 62
     7
370
    35
100
AcDbLine
 10
26.680359
 20
27.469933
 30
0.0
 11
26.680359
 21
27.067345
 31
0.0
  0
LINE
  5
1B7
330
1F
100
AcDbEntity
  8
0
 62
     7
370
    35
100
AcDbLine
 10
9.180359
 20
27.067345
 30
0.0
 11
26.680359
 21
27.067345
 31
0.0
  0
LINE
  5
1B8
330
1F
100
AcDbEntity
  8
0
 62
     7
370
    35
100
AcDbLine
 10
26.680359
 20
27.067345
 30
0.0
 11
26.680359
 21
23.567345
 31
0.0
  0
LINE
  5
1B9
330
1F
100
AcDbEntity
  8
0
 62
     7
370
    35
100
AcDbLine
 10
9.180359
 20
27.067345
 30
0.0
 11
9.180359
 21
27.267296
 31
0.0
  0
LINE
  5
1BA
330
1F
100
AcDbEntity
  8
0
 62
     7
370
    35
100
AcDbLine
 10
9.180359
 20
22.767296
 30
0.0
 11
26.680359
 21
22.767296
 31
0.0
  0
LINE
  5
1BB
330
1F
100
AcDbEntity
  8
0
 62
     7
370
    35
100
AcDbLine
 10
9.180359
 20
22.767296
 30
0.0
 11
9.180359
 21
27.067345
 31
0.0
  0
LINE
  5
1BC
330
1F
100
AcDbEntity
  8
0
 62
     7
370
    35
100
AcDbLine
 10
26.680359
 20
22.767296
 30
0.0
 11
26.680359
 21
22.367393
 31
0.0
  0
LINE
  5
1BD
330
1F
100
AcDbEntity
  8
0
 62
     7
370
    35
100
AcDbLine
 10
8.680359
 20
27.267296
 30
0.0
 11
9.180359
 21
27.267296
 31
0.0
  0
LINE
  5
1BE
330
1F
100
AcDbEntity
  8
0
 62
     7
370
    35
100
AcDbLine
 10
9.180359
 20
27.267296
 30
0.0
 11
9.180359
 21
27.469933
 31
0.0
  0
LINE
  5
1BF
330
1F
100
AcDbEntity
  8
0
 62
     7
370
    35
100
AcDbLine
 10
8.680359
 20
27.469933
 30
0.0
 11
8.680359
 21
27.267296
 31
0.0
  0
LINE
  5
1C0
330
1F
100
AcDbEntity
  8
0
 62
     7
370
    35
100
AcDbLine
 10
27.180359
 20
22.767296
 30
0.0
 11
26.680359
 21
22.767296
 31
0.0
  0
LINE
  5
1C1
330
1F
100
AcDbEntity
  8
0
 62
     7
370
    35
100
AcDbLine
 10
27.180359
 20
23.567345
 30
0.0
 11
26.680359
 21
23.567345
 31
0.0
  0
LINE
  5
1C2
330
1F
100
AcDbEntity
  8
0
 62
     7
370
    35
100
AcDbLine
 10
26.680359
 20
23.567345
 30
0.0
 11
26.680359
 21
22.767296
 31
0.0
  0
LINE
  5
1C3
330
1F
100
AcDbEntity
  8
0
 62
     7
370
    35
100
AcDbLine
 10
27.180359
 20
23.567345
 30
0.0
 11
27.180359
 21
22.767296
 31
0.0
  0
LINE
  5
1C4
330
1F
100
AcDbEntity
  8
0
 62
     7
370
    35
100
AcDbLine
 10
8.230347
 20
93.738487
 30
0.0
 11
27.630371
 21
93.738487
 31
0.0
  0
LINE
  5
1C5
330
1F
100
AcDbEntity
  8
0
 62
     7
370
    35
100
AcDbLine
 10
8.716125
 20
89.553185
 30
0.0
 11
11.544556
 21
92.381554
 31
0.0
  0
LINE
  5
1C6
330
1F
100
AcDbEntity
  8
0
 62
     7
370
    35
100
AcDbLine
 10
13.716126
 20
89.553185
 30
0.0
 11
16.544556
 21
92.381554
 31
0.0
  0
LINE
  5
1C7
330
1F
100
AcDbEntity
  8
0
 62
     7
370
    35
100
AcDbLine
 10
18.716125
 20
89.553185
 30
0.0
 11
21.544556
 21
92.381554
 31
0.0
  0
LINE
  5
1C8
330
1F
100
AcDbEntity
  8
0
 62
     7
370
    35
100
AcDbLine
 10
23.716125
 20
89.553185
 30
0.0
 11
26.544556
 21
92.381554
 31
0.0
  0
LINE
  5
1C9
330
1F
100
AcDbEntity
  8
0
 62
     7
370
    35
100
AcDbLine
 10
10.046448
 20
24.033409
 30
0.0
 11
11.81427
 21
25.801231
 31
0.0
  0
LINE
  5
1CA
330
1F
100
AcDbEntity
  8
0
 62
     7
370
    35
100
AcDbLine
 10
13.546448
 20
24.033409
 30
0.0
 11
15.31427
 21
25.801231
 31
0.0
  0
LINE
  5
1CB
330
1F
100
AcDbEntity
  8
0
 62
     7
370
    35
100
AcDbLine
 10
17.046448
 20
24.033409
 30
0.0
 11
18.81427
 21
25.801231
 31
0.0
  0
LINE
  5
1CC
330
1F
100
AcDbEntity
  8
0
 62
     7
370
    35
100
AcDbLine
 10
20.546448
 20
24.033409
 30
0.0
 11
22.31427
 21
25.801231
 31
0.0
  0
LINE
  5
1CD
330
1F
100
AcDbEntity
  8
0
 62
     7
370
    35
100
AcDbLine
 10
24.046448
 20
24.033409
 30
0.0
 11
25.81427
 21
25.801231
 31
0.0
  0
LINE
  5
1CE
330
1F
100
AcDbEntity
  8
0
 62
     7
370
    35
100
AcDbLine
 10
26.19397
 20
59.567345
 30
0.0
 11
24.980347
 21
59.567345
 31
0.0
  0
LINE
  5
1CF
330
1F
100
AcDbEntity
  8
0
 62
     7
370
    35
100
AcDbLine
 10
24.980347
 20
59.567345
 30
0.0
 11
23.766724
 21
59.567345
 31
0.0
  0
LINE
  5
1D0
330
1F
100
AcDbEntity
  8
0
 62
     7
370
    35
100
AcDbLine
 10
23.625305
 20
59.225792
 30
0.0
 11
24.083923
 21
58.767296
 31
0.0
  0
LINE
  5
1D1
330
1F
100
AcDbEntity
  8
0
 62
     7
370
    35
100
AcDbLine
 10
24.980347
 20
58.767296
 30
0.0
 11
24.083923
 21
58.767296
 31
0.0
  0
LINE
  5
1D2
330
1F
100
AcDbEntity
  8
0
 62
     7
370
    35
100
AcDbLine
 10
25.876831
 20
58.767296
 30
0.0
 11
24.980347
 21
58.767296
 31
0.0
  0
LINE
  5
1D3
330
1F
100
AcDbEntity
  8
0
 62
     7
370
    35
100
AcDbLine
 10
25.876831
 20
58.767296
 30
0.0
 11
26.335388
 21
59.225792
 31
0.0
  0
LINE
  5
1D4
330
1F
100
AcDbEntity
  8
0
 62
     7
370
    35
100
AcDbLine
 10
26.180359
 20
58.363731
 30
0.0
 11
26.638916
 21
58.822227
 31
0.0
  0
LINE
  5
1D5
330
1F
100
AcDbEntity
  8
0
 62
     7
370
    35
100
AcDbLine
 10
26.180359
 20
58.363731
 30
0.0
 11
26.180359
 21
57.517296
 31
0.0
  0
LINE
  5
1D6
330
1F
100
AcDbEntity
  8
0
 62
     7
370
    35
100
AcDbLine
 10
26.180359
 20
57.517296
 30
0.0
 11
26.180359
 21
56.67086
 31
0.0
  0
LINE
  5
1D7
330
1F
100
AcDbEntity
  8
0
 62
     7
370
    35
100
AcDbLine
 10
26.488953
 20
56.362267
 30
0.0
 11
26.180359
 21
56.67086
 31
0.0
  0
LINE
  5
1D8
330
1F
100
AcDbEntity
  8
0
 62
     7
370
    35
100
AcDbLine
 10
26.980347
 20
56.570763
 30
0.0
 11
26.77179
 21
56.362267
 31
0.0
  0
LINE
  5
1D9
330
1F
100
AcDbEntity
  8
0
 62
     7
370
    35
100
AcDbLine
 10
26.980347
 20
56.570763
 30
0.0
 11
26.980347
 21
57.517296
 31
0.0
  0
LINE
  5
1DA
330
1F
100
AcDbEntity
  8
0
 62
     7
370
    35
100
AcDbLine
 10
26.980347
 20
57.517296
 30
0.0
 11
26.980347
 21
58.68087
 31
0.0
  0
LINE
  5
1DB
330
1F
100
AcDbEntity
  8
0
 62
     7
370
    35
100
AcDbLine
 10
26.180359
 20
55.063683
 30
0.0
 11
26.488953
 21
55.372276
 31
0.0
  0
LINE
  5
1DC
330
1F
100
AcDbEntity
  8
0
 62
     7
370
    35
100
AcDbLine
 10
26.180359
 20
55.063683
 30
0.0
 11
26.180359
 21
54.217247
 31
0.0
  0
LINE
  5
1DD
330
1F
100
AcDbEntity
  8
0
 62
     7
370
    35
100
AcDbLine
 10
26.180359
 20
54.217247
 30
0.0
 11
26.180359
 21
53.370811
 31
0.0
  0
LINE
  5
1DE
330
1F
100
AcDbEntity
  8
0
 62
     7
370
    35
100
AcDbLine
 10
26.638916
 20
52.912315
 30
0.0
 11
26.180359
 21
53.370811
 31
0.0
  0
LINE
  5
1DF
330
1F
100
AcDbEntity
  8
0
 62
     7
370
    35
100
AcDbLine
 10
26.980347
 20
53.053673
 30
0.0
 11
26.980347
 21
54.217247
 31
0.0
  0
LINE
  5
1E0
330
1F
100
AcDbEntity
  8
0
 62
     7
370
    35
100
AcDbLine
 10
26.980347
 20
54.217247
 30
0.0
 11
26.980347
 21
55.16378
 31
0.0
  0
LINE
  5
1E1
330
1F
100
AcDbEntity
  8
0
 62
     7
370
    35
100
AcDbLine
 10
26.77179
 20
55.372276
 30
0.0
 11
26.980347
 21
55.16378
 31
0.0
  0
LINE
  5
1E2
330
1F
100
AcDbEntity
  8
0
 62
     7
370
    35
100
AcDbLine
 10
26.335388
 20
52.508751
 30
0.0
 11
25.876831
 21
52.967247
 31
0.0
  0
LINE
  5
1E3
330
1F
100
AcDbEntity
  8
0
 62
     7
370
    35
100
AcDbLine
 10
24.980347
 20
52.967247
 30
0.0
 11
25.876831
 21
52.967247
 31
0.0
  0
LINE
  5
1E4
330
1F
100
AcDbEntity
  8
0
 62
     7
370
    35
100
AcDbLine
 10
24.083923
 20
52.967247
 30
0.0
 11
24.980347
 21
52.967247
 31
0.0
  0
LINE
  5
1E5
330
1F
100
AcDbEntity
  8
0
 62
     7
370
    35
100
AcDbLine
 10
24.083923
 20
52.967247
 30
0.0
 11
23.625305
 21
52.508751
 31
0.0
  0
LINE
  5
1E6
330
1F
100
AcDbEntity
  8
0
 62
     7
370
    35
100
AcDbLine
 10
23.766724
 20
52.167198
 30
0.0
 11
24.980347
 21
52.167198
 31
0.0
  0
LINE
  5
1E7
330
1F
100
AcDbEntity
  8
0
 62
     7
370
    35
100
AcDbLine
 10
24.980347
 20
52.167198
 30
0.0
 11
26.19397
 21
52.167198
 31
0.0
  0
LINE
  5
1E8
330
1F
100
AcDbEntity
  8
0
 62
     7
370
    35
100
AcDbLine
 10
24.083923
 20
56.267296
 30
0.0
 11
23.825317
 21
56.008751
 31
0.0
  0
LINE
  5
1E9
330
1F
100
AcDbEntity
  8
0
 62
     7
370
    35
100
AcDbLine
 10
24.083923
 20
55.467247
 30
0.0
 11
23.825317
 21
55.725792
 31
0.0
  0
LINE
  5
1EA
330
1F
100
AcDbEntity
  8
0
 62
     7
370
    35
100
AcDbLine
 10
24.980347
 20
55.467247
 30
0.0
 11
24.083923
 21
55.467247
 31
0.0
  0
LINE
  5
1EB
330
1F
100
AcDbEntity
  8
0
 62
     7
370
    35
100
AcDbLine
 10
25.876831
 20
55.467247
 30
0.0
 11
24.980347
 21
55.467247
 31
0.0
  0
LINE
  5
1EC
330
1F
100
AcDbEntity
  8
0
 62
     7
370
    35
100
AcDbLine
 10
26.135376
 20
55.725792
 30
0.0
 11
25.876831
 21
55.467247
 31
0.0
  0
LINE
  5
1ED
330
1F
100
AcDbEntity
  8
0
 62
     7
370
    35
100
AcDbLine
 10
26.135376
 20
56.008751
 30
0.0
 11
25.876831
 21
56.267296
 31
0.0
  0
LINE
  5
1EE
330
1F
100
AcDbEntity
  8
0
 62
     7
370
    35
100
AcDbLine
 10
24.980347
 20
56.267296
 30
0.0
 11
25.876831
 21
56.267296
 31
0.0
  0
LINE
  5
1EF
330
1F
100
AcDbEntity
  8
0
 62
     7
370
    35
100
AcDbLine
 10
24.083923
 20
56.267296
 30
0.0
 11
24.980347
 21
56.267296
 31
0.0
  0
LINE
  5
1F0
330
1F
100
AcDbEntity
  8
0
 62
     7
370
    35
100
AcDbLine
 10
22.980347
 20
58.68087
 30
0.0
 11
22.980347
 21
57.517296
 31
0.0
  0
LINE
  5
1F1
330
1F
100
AcDbEntity
  8
0
 62
     7
370
    35
100
AcDbLine
 10
22.980347
 20
57.517296
 30
0.0
 11
22.980347
 21
56.570763
 31
0.0
  0
LINE
  5
1F2
330
1F
100
AcDbEntity
  8
0
 62
     7
370
    35
100
AcDbLine
 10
23.188965
 20
56.362267
 30
0.0
 11
22.980347
 21
56.570763
 31
0.0
  0
LINE
  5
1F3
330
1F
100
AcDbEntity
  8
0
 62
     7
370
    35
100
AcDbLine
 10
23.780334
 20
56.67086
 30
0.0
 11
23.471802
 21
56.362267
 31
0.0
  0
LINE
  5
1F4
330
1F
100
AcDbEntity
  8
0
 62
     7
370
    35
100
AcDbLine
 10
23.780334
 20
56.67086
 30
0.0
 11
23.780334
 21
57.517296
 31
0.0
  0
LINE
  5
1F5
330
1F
100
AcDbEntity
  8
0
 62
     7
370
    35
100
AcDbLine
 10
23.780334
 20
57.517296
 30
0.0
 11
23.780334
 21
58.363731
 31
0.0
  0
LINE
  5
1F6
330
1F
100
AcDbEntity
  8
0
 62
     7
370
    35
100
AcDbLine
 10
23.321777
 20
58.822227
 30
0.0
 11
23.780334
 21
58.363731
 31
0.0
  0
LINE
  5
1F7
330
1F
100
AcDbEntity
  8
0
 62
     7
370
    35
100
AcDbLine
 10
22.980347
 20
55.16378
 30
0.0
 11
23.188965
 21
55.372276
 31
0.0
  0
LINE
  5
1F8
330
1F
100
AcDbEntity
  8
0
 62
     7
370
    35
100
AcDbLine
 10
22.980347
 20
55.16378
 30
0.0
 11
22.980347
 21
54.217247
 31
0.0
  0
LINE
  5
1F9
330
1F
100
AcDbEntity
  8
0
 62
     7
370
    35
100
AcDbLine
 10
22.980347
 20
54.217247
 30
0.0
 11
22.980347
 21
53.053673
 31
0.0
  0
LINE
  5
1FA
330
1F
100
AcDbEntity
  8
0
 62
     7
370
    35
100
AcDbLine
 10
23.780334
 20
53.370811
 30
0.0
 11
23.321777
 21
52.912315
 31
0.0
  0
LINE
  5
1FB
330
1F
100
AcDbEntity
  8
0
 62
     7
370
    35
100
AcDbLine
 10
23.780334
 20
53.370811
 30
0.0
 11
23.780334
 21
54.217247
 31
0.0
  0
LINE
  5
1FC
330
1F
100
AcDbEntity
  8
0
 62
     7
370
    35
100
AcDbLine
 10
23.780334
 20
54.217247
 30
0.0
 11
23.780334
 21
55.063683
 31
0.0
  0
LINE
  5
1FD
330
1F
100
AcDbEntity
  8
0
 62
     7
370
    35
100
AcDbLine
 10
23.471802
 20
55.372276
 30
0.0
 11
23.780334
 21
55.063683
 31
0.0
  0
LINE
  5
1FE
330
1F
100
AcDbEntity
  8
0
 62
     7
370
    35
100
AcDbLine
 10
18.77179
 20
55.372276
 30
0.0
 11
19.080383
 21
55.063683
 31
0.0
  0
LINE
  5
1FF
330
1F
100
AcDbEntity
  8
0
 62
     7
370
    35
100
AcDbLine
 10
19.080383
 20
54.217247
 30
0.0
 11
19.080383
 21
55.063683
 31
0.0
  0
LINE
  5
200
330
1F
100
AcDbEntity
  8
0
 62
     7
370
    35
100
AcDbLine
 10
19.080383
 20
53.370811
 30
0.0
 11
19.080383
 21
54.217247
 31
0.0
  0
LINE
  5
201
330
1F
100
AcDbEntity
  8
0
 62
     7
370
    35
100
AcDbLine
 10
19.080383
 20
53.370811
 30
0.0
 11
18.621765
 21
52.912315
 31
0.0
  0
LINE
  5
202
330
1F
100
AcDbEntity
  8
0
 62
     7
370
    35
100
AcDbLine
 10
18.280334
 20
54.217247
 30
0.0
 11
18.280334
 21
53.053673
 31
0.0
  0
LINE
  5
203
330
1F
100
AcDbEntity
  8
0
 62
     7
370
    35
100
AcDbLine
 10
18.280334
 20
55.16378
 30
0.0
 11
18.280334
 21
54.217247
 31
0.0
  0
LINE
  5
204
330
1F
100
AcDbEntity
  8
0
 62
     7
370
    35
100
AcDbLine
 10
18.280334
 20
55.16378
 30
0.0
 11
18.488953
 21
55.372276
 31
0.0
  0
LINE
  5
205
330
1F
100
AcDbEntity
  8
0
 62
     7
370
    35
100
AcDbLine
 10
18.621765
 20
58.822227
 30
0.0
 11
19.080383
 21
58.363731
 31
0.0
  0
LINE
  5
206
330
1F
100
AcDbEntity
  8
0
 62
     7
370
    35
100
AcDbLine
 10
19.080383
 20
57.517296
 30
0.0
 11
19.080383
 21
58.363731
 31
0.0
  0
LINE
  5
207
330
1F
100
AcDbEntity
  8
0
 62
     7
370
    35
100
AcDbLine
 10
19.080383
 20
56.67086
 30
0.0
 11
19.080383
 21
57.517296
 31
0.0
  0
LINE
  5
208
330
1F
100
AcDbEntity
  8
0
 62
     7
370
    35
100
AcDbLine
 10
19.080383
 20
56.67086
 30
0.0
 11
18.77179
 21
56.362267
 31
0.0
  0
LINE
  5
209
330
1F
100
AcDbEntity
  8
0
 62
     7
370
    35
100
AcDbLine
 10
18.488953
 20
56.362267
 30
0.0
 11
18.280334
 21
56.570763
 31
0.0
  0
LINE
  5
20A
330
1F
100
AcDbEntity
  8
0
 62
     7
370
    35
100
AcDbLine
 10
18.280334
 20
57.517296
 30
0.0
 11
18.280334
 21
56.570763
 31
0.0
  0
LINE
  5
20B
330
1F
100
AcDbEntity
  8
0
 62
     7
370
    35
100
AcDbLine
 10
18.280334
 20
58.68087
 30
0.0
 11
18.280334
 21
57.517296
 31
0.0
  0
LINE
  5
20C
330
1F
100
AcDbEntity
  8
0
 62
     7
370
    35
100
AcDbLine
 10
19.383911
 20
56.267296
 30
0.0
 11
20.280334
 21
56.267296
 31
0.0
  0
LINE
  5
20D
330
1F
100
AcDbEntity
  8
0
 62
     7
370
    35
100
AcDbLine
 10
20.280334
 20
56.267296
 30
0.0
 11
21.176819
 21
56.267296
 31
0.0
  0
LINE
  5
20E
330
1F
100
AcDbEntity
  8
0
 62
     7
370
    35
100
AcDbLine
 10
21.435364
 20
56.008751
 30
0.0
 11
21.176819
 21
56.267296
 31
0.0
  0
LINE
  5
20F
330
1F
100
AcDbEntity
  8
0
 62
     7
370
    35
100
AcDbLine
 10
21.435364
 20
55.725792
 30
0.0
 11
21.176819
 21
55.467247
 31
0.0
  0
LINE
  5
210
330
1F
100
AcDbEntity
  8
0
 62
     7
370
    35
100
AcDbLine
 10
21.176819
 20
55.467247
 30
0.0
 11
20.280334
 21
55.467247
 31
0.0
  0
LINE
  5
211
330
1F
100
AcDbEntity
  8
0
 62
     7
370
    35
100
AcDbLine
 10
20.280334
 20
55.467247
 30
0.0
 11
19.383911
 21
55.467247
 31
0.0
  0
LINE
  5
212
330
1F
100
AcDbEntity
  8
0
 62
     7
370
    35
100
AcDbLine
 10
19.383911
 20
55.467247
 30
0.0
 11
19.125305
 21
55.725792
 31
0.0
  0
LINE
  5
213
330
1F
100
AcDbEntity
  8
0
 62
     7
370
    35
100
AcDbLine
 10
19.383911
 20
56.267296
 30
0.0
 11
19.125305
 21
56.008751
 31
0.0
  0
LINE
  5
214
330
1F
100
AcDbEntity
  8
0
 62
     7
370
    35
100
AcDbLine
 10
20.280334
 20
52.167198
 30
0.0
 11
21.493958
 21
52.167198
 31
0.0
  0
LINE
  5
215
330
1F
100
AcDbEntity
  8
0
 62
     7
370
    35
100
AcDbLine
 10
19.066772
 20
52.167198
 30
0.0
 11
20.280334
 21
52.167198
 31
0.0
  0
LINE
  5
216
330
1F
100
AcDbEntity
  8
0
 62
     7
370
    35
100
AcDbLine
 10
19.383911
 20
52.967247
 30
0.0
 11
18.925354
 21
52.508751
 31
0.0
  0
LINE
  5
217
330
1F
100
AcDbEntity
  8
0
 62
     7
370
    35
100
AcDbLine
 10
19.383911
 20
52.967247
 30
0.0
 11
20.280334
 21
52.967247
 31
0.0
  0
LINE
  5
218
330
1F
100
AcDbEntity
  8
0
 62
     7
370
    35
100
AcDbLine
 10
20.280334
 20
52.967247
 30
0.0
 11
21.176819
 21
52.967247
 31
0.0
  0
LINE
  5
219
330
1F
100
AcDbEntity
  8
0
 62
     7
370
    35
100
AcDbLine
 10
21.635376
 20
52.508751
 30
0.0
 11
21.176819
 21
52.967247
 31
0.0
  0
LINE
  5
21A
330
1F
100
AcDbEntity
  8
0
 62
     7
370
    35
100
AcDbLine
 10
22.071777
 20
55.372276
 30
0.0
 11
22.280334
 21
55.16378
 31
0.0
  0
LINE
  5
21B
330
1F
100
AcDbEntity
  8
0
 62
     7
370
    35
100
AcDbLine
 10
22.280334
 20
54.217247
 30
0.0
 11
22.280334
 21
55.16378
 31
0.0
  0
LINE
  5
21C
330
1F
100
AcDbEntity
  8
0
 62
     7
370
    35
100
AcDbLine
 10
22.280334
 20
53.053673
 30
0.0
 11
22.280334
 21
54.217247
 31
0.0
  0
LINE
  5
21D
330
1F
100
AcDbEntity
  8
0
 62
     7
370
    35
100
AcDbLine
 10
21.938965
 20
52.912315
 30
0.0
 11
21.480347
 21
53.370811
 31
0.0
  0
LINE
  5
21E
330
1F
100
AcDbEntity
  8
0
 62
     7
370
    35
100
AcDbLine
 10
21.480347
 20
54.217247
 30
0.0
 11
21.480347
 21
53.370811
 31
0.0
  0
LINE
  5
21F
330
1F
100
AcDbEntity
  8
0
 62
     7
370
    35
100
AcDbLine
 10
21.480347
 20
55.063683
 30
0.0
 11
21.480347
 21
54.217247
 31
0.0
  0
LINE
  5
220
330
1F
100
AcDbEntity
  8
0
 62
     7
370
    35
100
AcDbLine
 10
21.480347
 20
55.063683
 30
0.0
 11
21.78894
 21
55.372276
 31
0.0
  0
LINE
  5
221
330
1F
100
AcDbEntity
  8
0
 62
     7
370
    35
100
AcDbLine
 10
22.280334
 20
57.517296
 30
0.0
 11
22.280334
 21
58.68087
 31
0.0
  0
LINE
  5
222
330
1F
100
AcDbEntity
  8
0
 62
     7
370
    35
100
AcDbLine
 10
22.280334
 20
56.570763
 30
0.0
 11
22.280334
 21
57.517296
 31
0.0
  0
LINE
  5
223
330
1F
100
AcDbEntity
  8
0
 62
     7
370
    35
100
AcDbLine
 10
22.280334
 20
56.570763
 30
0.0
 11
22.071777
 21
56.362267
 31
0.0
  0
LINE
  5
224
330
1F
100
AcDbEntity
  8
0
 62
     7
370
    35
100
AcDbLine
 10
21.78894
 20
56.362267
 30
0.0
 11
21.480347
 21
56.67086
 31
0.0
  0
LINE
  5
225
330
1F
100
AcDbEntity
  8
0
 62
     7
370
    35
100
AcDbLine
 10
21.480347
 20
57.517296
 30
0.0
 11
21.480347
 21
56.67086
 31
0.0
  0
LINE
  5
226
330
1F
100
AcDbEntity
  8
0
 62
     7
370
    35
100
AcDbLine
 10
21.480347
 20
58.363731
 30
0.0
 11
21.480347
 21
57.517296
 31
0.0
  0
LINE
  5
227
330
1F
100
AcDbEntity
  8
0
 62
     7
370
    35
100
AcDbLine
 10
21.480347
 20
58.363731
 30
0.0
 11
21.938965
 21
58.822227
 31
0.0
  0
LINE
  5
228
330
1F
100
AcDbEntity
  8
0
 62
     7
370
    35
100
AcDbLine
 10
21.176819
 20
58.767296
 30
0.0
 11
21.635376
 21
59.225792
 31
0.0
  0
LINE
  5
229
330
1F
100
AcDbEntity
  8
0
 62
     7
370
    35
100
AcDbLine
 10
21.176819
 20
58.767296
 30
0.0
 11
20.280334
 21
58.767296
 31
0.0
  0
LINE
  5
22A
330
1F
100
AcDbEntity
  8
0
 62
     7
370
    35
100
AcDbLine
 10
20.280334
 20
58.767296
 30
0.0
 11
19.383911
 21
58.767296
 31
0.0
  0
LINE
  5
22B
330
1F
100
AcDbEntity
  8
0
 62
     7
370
    35
100
AcDbLine
 10
18.925354
 20
59.225792
 30
0.0
 11
19.383911
 21
58.767296
 31
0.0
  0
LINE
  5
22C
330
1F
100
AcDbEntity
  8
0
 62
     7
370
    35
100
AcDbLine
 10
20.280334
 20
59.567345
 30
0.0
 11
19.066772
 21
59.567345
 31
0.0
  0
LINE
  5
22D
330
1F
100
AcDbEntity
  8
0
 62
     7
370
    35
100
AcDbLine
 10
21.493958
 20
59.567345
 30
0.0
 11
20.280334
 21
59.567345
 31
0.0
  0
LINE
  5
22E
330
1F
100
AcDbEntity
  8
0
 62
     7
370
    35
100
AcDbLine
 10
14.071777
 20
55.372276
 30
0.0
 11
14.380371
 21
55.063683
 31
0.0
  0
LINE
  5
22F
330
1F
100
AcDbEntity
  8
0
 62
     7
370
    35
100
AcDbLine
 10
14.380371
 20
54.217247
 30
0.0
 11
14.380371
 21
55.063683
 31
0.0
  0
LINE
  5
230
330
1F
100
AcDbEntity
  8
0
 62
     7
370
    35
100
AcDbLine
 10
14.380371
 20
53.370811
 30
0.0
 11
14.380371
 21
54.217247
 31
0.0
  0
LINE
  5
231
330
1F
100
AcDbEntity
  8
0
 62
     7
370
    35
100
AcDbLine
 10
14.380371
 20
53.370811
 30
0.0
 11
13.921753
 21
52.912315
 31
0.0
  0
LINE
  5
232
330
1F
100
AcDbEntity
  8
0
 62
     7
370
    35
100
AcDbLine
 10
13.580383
 20
54.217247
 30
0.0
 11
13.580383
 21
53.053673
 31
0.0
  0
LINE
  5
233
330
1F
100
AcDbEntity
  8
0
 62
     7
370
    35
100
AcDbLine
 10
13.580383
 20
55.16378
 30
0.0
 11
13.580383
 21
54.217247
 31
0.0
  0
LINE
  5
234
330
1F
100
AcDbEntity
  8
0
 62
     7
370
    35
100
AcDbLine
 10
13.580383
 20
55.16378
 30
0.0
 11
13.78894
 21
55.372276
 31
0.0
  0
LINE
  5
235
330
1F
100
AcDbEntity
  8
0
 62
     7
370
    35
100
AcDbLine
 10
13.921753
 20
58.822227
 30
0.0
 11
14.380371
 21
58.363731
 31
0.0
  0
LINE
  5
236
330
1F
100
AcDbEntity
  8
0
 62
     7
370
    35
100
AcDbLine
 10
14.380371
 20
57.517296
 30
0.0
 11
14.380371
 21
58.363731
 31
0.0
  0
LINE
  5
237
330
1F
100
AcDbEntity
  8
0
 62
     7
370
    35
100
AcDbLine
 10
14.380371
 20
56.67086
 30
0.0
 11
14.380371
 21
57.517296
 31
0.0
  0
LINE
  5
238
330
1F
100
AcDbEntity
  8
0
 62
     7
370
    35
100
AcDbLine
 10
14.380371
 20
56.67086
 30
0.0
 11
14.071777
 21
56.362267
 31
0.0
  0
LINE
  5
239
330
1F
100
AcDbEntity
  8
0
 62
     7
370
    35
100
AcDbLine
 10
13.78894
 20
56.362267
 30
0.0
 11
13.580383
 21
56.570763
 31
0.0
  0
LINE
  5
23A
330
1F
100
AcDbEntity
  8
0
 62
     7
370
    35
100
AcDbLine
 10
13.580383
 20
57.517296
 30
0.0
 11
13.580383
 21
56.570763
 31
0.0
  0
LINE
  5
23B
330
1F
100
AcDbEntity
  8
0
 62
     7
370
    35
100
AcDbLine
 10
13.580383
 20
58.68087
 30
0.0
 11
13.580383
 21
57.517296
 31
0.0
  0
LINE
  5
23C
330
1F
100
AcDbEntity
  8
0
 62
     7
370
    35
100
AcDbLine
 10
14.683899
 20
56.267296
 30
0.0
 11
15.580383
 21
56.267296
 31
0.0
  0
LINE
  5
23D
330
1F
100
AcDbEntity
  8
0
 62
     7
370
    35
100
AcDbLine
 10
15.580383
 20
56.267296
 30
0.0
 11
16.476807
 21
56.267296
 31
0.0
  0
LINE
  5
23E
330
1F
100
AcDbEntity
  8
0
 62
     7
370
    35
100
AcDbLine
 10
16.735352
 20
56.008751
 30
0.0
 11
16.476807
 21
56.267296
 31
0.0
  0
LINE
  5
23F
330
1F
100
AcDbEntity
  8
0
 62
     7
370
    35
100
AcDbLine
 10
16.735352
 20
55.725792
 30
0.0
 11
16.476807
 21
55.467247
 31
0.0
  0
LINE
  5
240
330
1F
100
AcDbEntity
  8
0
 62
     7
370
    35
100
AcDbLine
 10
16.476807
 20
55.467247
 30
0.0
 11
15.580383
 21
55.467247
 31
0.0
  0
LINE
  5
241
330
1F
100
AcDbEntity
  8
0
 62
     7
370
    35
100
AcDbLine
 10
15.580383
 20
55.467247
 30
0.0
 11
14.683899
 21
55.467247
 31
0.0
  0
LINE
  5
242
330
1F
100
AcDbEntity
  8
0
 62
     7
370
    35
100
AcDbLine
 10
14.683899
 20
55.467247
 30
0.0
 11
14.425354
 21
55.725792
 31
0.0
  0
LINE
  5
243
330
1F
100
AcDbEntity
  8
0
 62
     7
370
    35
100
AcDbLine
 10
14.683899
 20
56.267296
 30
0.0
 11
14.425354
 21
56.008751
 31
0.0
  0
LINE
  5
244
330
1F
100
AcDbEntity
  8
0
 62
     7
370
    35
100
AcDbLine
 10
15.580383
 20
52.167198
 30
0.0
 11
16.793945
 21
52.167198
 31
0.0
  0
LINE
  5
245
330
1F
100
AcDbEntity
  8
0
 62
     7
370
    35
100
AcDbLine
 10
14.36676
 20
52.167198
 30
0.0
 11
15.580383
 21
52.167198
 31
0.0
  0
LINE
  5
246
330
1F
100
AcDbEntity
  8
0
 62
     7
370
    35
100
AcDbLine
 10
14.683899
 20
52.967247
 30
0.0
 11
14.225342
 21
52.508751
 31
0.0
  0
LINE
  5
247
330
1F
100
AcDbEntity
  8
0
 62
     7
370
    35
100
AcDbLine
 10
14.683899
 20
52.967247
 30
0.0
 11
15.580383
 21
52.967247
 31
0.0
  0
LINE
  5
248
330
1F
100
AcDbEntity
  8
0
 62
     7
370
    35
100
AcDbLine
 10
15.580383
 20
52.967247
 30
0.0
 11
16.476807
 21
52.967247
 31
0.0
  0
LINE
  5
249
330
1F
100
AcDbEntity
  8
0
 62
     7
370
    35
100
AcDbLine
 10
16.935364
 20
52.508751
 30
0.0
 11
16.476807
 21
52.967247
 31
0.0
  0
LINE
  5
24A
330
1F
100
AcDbEntity
  8
0
 62
     7
370
    35
100
AcDbLine
 10
17.371765
 20
55.372276
 30
0.0
 11
17.580383
 21
55.16378
 31
0.0
  0
LINE
  5
24B
330
1F
100
AcDbEntity
  8
0
 62
     7
370
    35
100
AcDbLine
 10
17.580383
 20
54.217247
 30
0.0
 11
17.580383
 21
55.16378
 31
0.0
  0
LINE
  5
24C
330
1F
100
AcDbEntity
  8
0
 62
     7
370
    35
100
AcDbLine
 10
17.580383
 20
53.053673
 30
0.0
 11
17.580383
 21
54.217247
 31
0.0
  0
LINE
  5
24D
330
1F
100
AcDbEntity
  8
0
 62
     7
370
    35
100
AcDbLine
 10
17.238953
 20
52.912315
 30
0.0
 11
16.780334
 21
53.370811
 31
0.0
  0
LINE
  5
24E
330
1F
100
AcDbEntity
  8
0
 62
     7
370
    35
100
AcDbLine
 10
16.780334
 20
54.217247
 30
0.0
 11
16.780334
 21
53.370811
 31
0.0
  0
LINE
  5
24F
330
1F
100
AcDbEntity
  8
0
 62
     7
370
    35
100
AcDbLine
 10
16.780334
 20
55.063683
 30
0.0
 11
16.780334
 21
54.217247
 31
0.0
  0
LINE
  5
250
330
1F
100
AcDbEntity
  8
0
 62
     7
370
    35
100
AcDbLine
 10
16.780334
 20
55.063683
 30
0.0
 11
17.088928
 21
55.372276
 31
0.0
  0
LINE
  5
251
330
1F
100
AcDbEntity
  8
0
 62
     7
370
    35
100
AcDbLine
 10
17.580383
 20
57.517296
 30
0.0
 11
17.580383
 21
58.68087
 31
0.0
  0
LINE
  5
252
330
1F
100
AcDbEntity
  8
0
 62
     7
370
    35
100
AcDbLine
 10
17.580383
 20
56.570763
 30
0.0
 11
17.580383
 21
57.517296
 31
0.0
  0
LINE
  5
253
330
1F
100
AcDbEntity
  8
0
 62
     7
370
    35
100
AcDbLine
 10
17.580383
 20
56.570763
 30
0.0
 11
17.371765
 21
56.362267
 31
0.0
  0
LINE
  5
254
330
1F
100
AcDbEntity
  8
0
 62
     7
370
    35
100
AcDbLine
 10
17.088928
 20
56.362267
 30
0.0
 11
16.780334
 21
56.67086
 31
0.0
  0
LINE
  5
255
330
1F
100
AcDbEntity
  8
0
 62
     7
370
    35
100
AcDbLine
 10
16.780334
 20
57.517296
 30
0.0
 11
16.780334
 21
56.67086
 31
0.0
  0
LINE
  5
256
330
1F
100
AcDbEntity
  8
0
 62
     7
370
    35
100
AcDbLine
 10
16.780334
 20
58.363731
 30
0.0
 11
16.780334
 21
57.517296
 31
0.0
  0
LINE
  5
257
330
1F
100
AcDbEntity
  8
0
 62
     7
370
    35
100
AcDbLine
 10
16.780334
 20
58.363731
 30
0.0
 11
17.238953
 21
58.822227
 31
0.0
  0
LINE
  5
258
330
1F
100
AcDbEntity
  8
0
 62
     7
370
    35
100
AcDbLine
 10
16.476807
 20
58.767296
 30
0.0
 11
16.935364
 21
59.225792
 31
0.0
  0
LINE
  5
259
330
1F
100
AcDbEntity
  8
0
 62
     7
370
    35
100
AcDbLine
 10
16.476807
 20
58.767296
 30
0.0
 11
15.580383
 21
58.767296
 31
0.0
  0
LINE
  5
25A
330
1F
100
AcDbEntity
  8
0
 62
     7
370
    35
100
AcDbLine
 10
15.580383
 20
58.767296
 30
0.0
 11
14.683899
 21
58.767296
 31
0.0
  0
LINE
  5
25B
330
1F
100
AcDbEntity
  8
0
 62
     7
370
    35
100
AcDbLine
 10
14.225342
 20
59.225792
 30
0.0
 11
14.683899
 21
58.767296
 31
0.0
  0
LINE
  5
25C
330
1F
100
AcDbEntity
  8
0
 62
     7
370
    35
100
AcDbLine
 10
15.580383
 20
59.567345
 30
0.0
 11
14.36676
 21
59.567345
 31
0.0
  0
LINE
  5
25D
330
1F
100
AcDbEntity
  8
0
 62
     7
370
    35
100
AcDbLine
 10
16.793945
 20
59.567345
 30
0.0
 11
15.580383
 21
59.567345
 31
0.0
  0
LINE
  5
25E
330
1F
100
AcDbEntity
  8
0
 62
     7
370
    35
100
AcDbLine
 10
9.371765
 20
55.372276
 30
0.0
 11
9.680359
 21
55.063683
 31
0.0
  0
LINE
  5
25F
330
1F
100
AcDbEntity
  8
0
 62
     7
370
    35
100
AcDbLine
 10
9.680359
 20
54.217247
 30
0.0
 11
9.680359
 21
55.063683
 31
0.0
  0
LINE
  5
260
330
1F
100
AcDbEntity
  8
0
 62
     7
370
    35
100
AcDbLine
 10
9.680359
 20
53.370811
 30
0.0
 11
9.680359
 21
54.217247
 31
0.0
  0
LINE
  5
261
330
1F
100
AcDbEntity
  8
0
 62
     7
370
    35
100
AcDbLine
 10
9.680359
 20
53.370811
 30
0.0
 11
9.221802
 21
52.912315
 31
0.0
  0
LINE
  5
262
330
1F
100
AcDbEntity
  8
0
 62
     7
370
    35
100
AcDbLine
 10
8.880371
 20
54.217247
 30
0.0
 11
8.880371
 21
53.053673
 31
0.0
  0
LINE
  5
263
330
1F
100
AcDbEntity
  8
0
 62
     7
370
    35
100
AcDbLine
 10
8.880371
 20
55.16378
 30
0.0
 11
8.880371
 21
54.217247
 31
0.0
  0
LINE
  5
264
330
1F
100
AcDbEntity
  8
0
 62
     7
370
    35
100
AcDbLine
 10
8.880371
 20
55.16378
 30
0.0
 11
9.088928
 21
55.372276
 31
0.0
  0
LINE
  5
265
330
1F
100
AcDbEntity
  8
0
 62
     7
370
    35
100
AcDbLine
 10
9.221802
 20
58.822227
 30
0.0
 11
9.680359
 21
58.363731
 31
0.0
  0
LINE
  5
266
330
1F
100
AcDbEntity
  8
0
 62
     7
370
    35
100
AcDbLine
 10
9.680359
 20
57.517296
 30
0.0
 11
9.680359
 21
58.363731
 31
0.0
  0
LINE
  5
267
330
1F
100
AcDbEntity
  8
0
 62
     7
370
    35
100
AcDbLine
 10
9.680359
 20
56.67086
 30
0.0
 11
9.680359
 21
57.517296
 31
0.0
  0
LINE
  5
268
330
1F
100
AcDbEntity
  8
0
 62
     7
370
    35
100
AcDbLine
 10
9.680359
 20
56.67086
 30
0.0
 11
9.371765
 21
56.362267
 31
0.0
  0
LINE
  5
269
330
1F
100
AcDbEntity
  8
0
 62
     7
370
    35
100
AcDbLine
 10
9.088928
 20
56.362267
 30
0.0
 11
8.880371
 21
56.570763
 31
0.0
  0
LINE
  5
26A
330
1F
100
AcDbEntity
  8
0
 62
     7
370
    35
100
AcDbLine
 10
8.880371
 20
57.517296
 30
0.0
 11
8.880371
 21
56.570763
 31
0.0
  0
LINE
  5
26B
330
1F
100
AcDbEntity
  8
0
 62
     7
370
    35
100
AcDbLine
 10
8.880371
 20
58.68087
 30
0.0
 11
8.880371
 21
57.517296
 31
0.0
  0
LINE
  5
26C
330
1F
100
AcDbEntity
  8
0
 62
     7
370
    35
100
AcDbLine
 10
9.983887
 20
56.267296
 30
0.0
 11
10.880371
 21
56.267296
 31
0.0
  0
LINE
  5
26D
330
1F
100
AcDbEntity
  8
0
 62
     7
370
    35
100
AcDbLine
 10
10.880371
 20
56.267296
 30
0.0
 11
11.776794
 21
56.267296
 31
0.0
  0
LINE
  5
26E
330
1F
100
AcDbEntity
  8
0
 62
     7
370
    35
100
AcDbLine
 10
12.0354
 20
56.008751
 30
0.0
 11
11.776794
 21
56.267296
 31
0.0
  0
LINE
  5
26F
330
1F
100
AcDbEntity
  8
0
 62
     7
370
    35
100
AcDbLine
 10
12.0354
 20
55.725792
 30
0.0
 11
11.776794
 21
55.467247
 31
0.0
  0
LINE
  5
270
330
1F
100
AcDbEntity
  8
0
 62
     7
370
    35
100
AcDbLine
 10
11.776794
 20
55.467247
 30
0.0
 11
10.880371
 21
55.467247
 31
0.0
  0
LINE
  5
271
330
1F
100
AcDbEntity
  8
0
 62
     7
370
    35
100
AcDbLine
 10
10.880371
 20
55.467247
 30
0.0
 11
9.983887
 21
55.467247
 31
0.0
  0
LINE
  5
272
330
1F
100
AcDbEntity
  8
0
 62
     7
370
    35
100
AcDbLine
 10
9.983887
 20
55.467247
 30
0.0
 11
9.725342
 21
55.725792
 31
0.0
  0
LINE
  5
273
330
1F
100
AcDbEntity
  8
0
 62
     7
370
    35
100
AcDbLine
 10
9.983887
 20
56.267296
 30
0.0
 11
9.725342
 21
56.008751
 31
0.0
  0
LINE
  5
274
330
1F
100
AcDbEntity
  8
0
 62
     7
370
    35
100
AcDbLine
 10
10.880371
 20
52.167198
 30
0.0
 11
12.093933
 21
52.167198
 31
0.0
  0
LINE
  5
275
330
1F
100
AcDbEntity
  8
0
 62
     7
370
    35
100
AcDbLine
 10
9.666748
 20
52.167198
 30
0.0
 11
10.880371
 21
52.167198
 31
0.0
  0
LINE
  5
276
330
1F
100
AcDbEntity
  8
0
 62
     7
370
    35
100
AcDbLine
 10
9.983887
 20
52.967247
 30
0.0
 11
9.52533
 21
52.508751
 31
0.0
  0
LINE
  5
277
330
1F
100
AcDbEntity
  8
0
 62
     7
370
    35
100
AcDbLine
 10
9.983887
 20
52.967247
 30
0.0
 11
10.880371
 21
52.967247
 31
0.0
  0
LINE
  5
278
330
1F
100
AcDbEntity
  8
0
 62
     7
370
    35
100
AcDbLine
 10
10.880371
 20
52.967247
 30
0.0
 11
11.776794
 21
52.967247
 31
0.0
  0
LINE
  5
279
330
1F
100
AcDbEntity
  8
0
 62
     7
370
    35
100
AcDbLine
 10
12.235352
 20
52.508751
 30
0.0
 11
11.776794
 21
52.967247
 31
0.0
  0
LINE
  5
27A
330
1F
100
AcDbEntity
  8
0
 62
     7
370
    35
100
AcDbLine
 10
12.671753
 20
55.372276
 30
0.0
 11
12.880371
 21
55.16378
 31
0.0
  0
LINE
  5
27B
330
1F
100
AcDbEntity
  8
0
 62
     7
370
    35
100
AcDbLine
 10
12.880371
 20
54.217247
 30
0.0
 11
12.880371
 21
55.16378
 31
0.0
  0
LINE
  5
27C
330
1F
100
AcDbEntity
  8
0
 62
     7
370
    35
100
AcDbLine
 10
12.880371
 20
53.053673
 30
0.0
 11
12.880371
 21
54.217247
 31
0.0
  0
LINE
  5
27D
330
1F
100
AcDbEntity
  8
0
 62
     7
370
    35
100
AcDbLine
 10
12.53894
 20
52.912315
 30
0.0
 11
12.080383
 21
53.370811
 31
0.0
  0
LINE
  5
27E
330
1F
100
AcDbEntity
  8
0
 62
     7
370
    35
100
AcDbLine
 10
12.080383
 20
54.217247
 30
0.0
 11
12.080383
 21
53.370811
 31
0.0
  0
LINE
  5
27F
330
1F
100
AcDbEntity
  8
0
 62
     7
370
    35
100
AcDbLine
 10
12.080383
 20
55.063683
 30
0.0
 11
12.080383
 21
54.217247
 31
0.0
  0
LINE
  5
280
330
1F
100
AcDbEntity
  8
0
 62
     7
370
    35
100
AcDbLine
 10
12.080383
 20
55.063683
 30
0.0
 11
12.388916
 21
55.372276
 31
0.0
  0
LINE
  5
281
330
1F
100
AcDbEntity
  8
0
 62
     7
370
    35
100
AcDbLine
 10
12.880371
 20
57.517296
 30
0.0
 11
12.880371
 21
58.68087
 31
0.0
  0
LINE
  5
282
330
1F
100
AcDbEntity
  8
0
 62
     7
370
    35
100
AcDbLine
 10
12.880371
 20
56.570763
 30
0.0
 11
12.880371
 21
57.517296
 31
0.0
  0
LINE
  5
283
330
1F
100
AcDbEntity
  8
0
 62
     7
370
    35
100
AcDbLine
 10
12.880371
 20
56.570763
 30
0.0
 11
12.671753
 21
56.362267
 31
0.0
  0
LINE
  5
284
330
1F
100
AcDbEntity
  8
0
 62
     7
370
    35
100
AcDbLine
 10
12.388916
 20
56.362267
 30
0.0
 11
12.080383
 21
56.67086
 31
0.0
  0
LINE
  5
285
330
1F
100
AcDbEntity
  8
0
 62
     7
370
    35
100
AcDbLine
 10
12.080383
 20
57.517296
 30
0.0
 11
12.080383
 21
56.67086
 31
0.0
  0
LINE
  5
286
330
1F
100
AcDbEntity
  8
0
 62
     7
370
    35
100
AcDbLine
 10
12.080383
 20
58.363731
 30
0.0
 11
12.080383
 21
57.517296
 31
0.0
  0
LINE
  5
287
330
1F
100
AcDbEntity
  8
0
 62
     7
370
    35
100
AcDbLine
 10
12.080383
 20
58.363731
 30
0.0
 11
12.53894
 21
58.822227
 31
0.0
  0
LINE
  5
288
330
1F
100
AcDbEntity
  8
0
 62
     7
370
    35
100
AcDbLine
 10
11.776794
 20
58.767296
 30
0.0
 11
12.235352
 21
59.225792
 31
0.0
  0
LINE
  5
289
330
1F
100
AcDbEntity
  8
0
 62
     7
370
    35
100
AcDbLine
 10
11.776794
 20
58.767296
 30
0.0
 11
10.880371
 21
58.767296
 31
0.0
  0
LINE
  5
28A
330
1F
100
AcDbEntity
  8
0
 62
     7
370
    35
100
AcDbLine
 10
10.880371
 20
58.767296
 30
0.0
 11
9.983887
 21
58.767296
 31
0.0
  0
LINE
  5
28B
330
1F
100
AcDbEntity
  8
0
 62
     7
370
    35
100
AcDbLine
 10
9.52533
 20
59.225792
 30
0.0
 11
9.983887
 21
58.767296
 31
0.0
  0
LINE
  5
28C
330
1F
100
AcDbEntity
  8
0
 62
     7
370
    35
100
AcDbLine
 10
10.880371
 20
59.567345
 30
0.0
 11
9.666748
 21
59.567345
 31
0.0
  0
LINE
  5
28D
330
1F
100
AcDbEntity
  8
0
 62
     7
370
    35
100
AcDbLine
 10
12.093933
 20
59.567345
 30
0.0
 11
10.880371
 21
59.567345
 31
0.0
  0
LINE
  5
28E
330
1F
100
AcDbEntity
  8
0
 62
     7
370
    35
100
AcDbLine
 10
12.093933
 20
69.567345
 30
0.0
 11
10.880371
 21
69.567345
 31
0.0
  0
LINE
  5
28F
330
1F
100
AcDbEntity
  8
0
 62
     7
370
    35
100
AcDbLine
 10
10.880371
 20
69.567345
 30
0.0
 11
9.666748
 21
69.567345
 31
0.0
  0
LINE
  5
290
330
1F
100
AcDbEntity
  8
0
 62
     7
370
    35
100
AcDbLine
 10
9.52533
 20
69.225792
 30
0.0
 11
9.983887
 21
68.767296
 31
0.0
  0
LINE
  5
291
330
1F
100
AcDbEntity
  8
0
 62
     7
370
    35
100
AcDbLine
 10
10.880371
 20
68.767296
 30
0.0
 11
9.983887
 21
68.767296
 31
0.0
  0
LINE
  5
292
330
1F
100
AcDbEntity
  8
0
 62
     7
370
    35
100
AcDbLine
 10
11.776794
 20
68.767296
 30
0.0
 11
10.880371
 21
68.767296
 31
0.0
  0
LINE
  5
293
330
1F
100
AcDbEntity
  8
0
 62
     7
370
    35
100
AcDbLine
 10
11.776794
 20
68.767296
 30
0.0
 11
12.235352
 21
69.225792
 31
0.0
  0
LINE
  5
294
330
1F
100
AcDbEntity
  8
0
 62
     7
370
    35
100
AcDbLine
 10
12.080383
 20
68.363731
 30
0.0
 11
12.53894
 21
68.822227
 31
0.0
  0
LINE
  5
295
330
1F
100
AcDbEntity
  8
0
 62
     7
370
    35
100
AcDbLine
 10
12.080383
 20
68.363731
 30
0.0
 11
12.080383
 21
67.517296
 31
0.0
  0
LINE
  5
296
330
1F
100
AcDbEntity
  8
0
 62
     7
370
    35
100
AcDbLine
 10
12.080383
 20
67.517296
 30
0.0
 11
12.080383
 21
66.67086
 31
0.0
  0
LINE
  5
297
330
1F
100
AcDbEntity
  8
0
 62
     7
370
    35
100
AcDbLine
 10
12.388916
 20
66.362267
 30
0.0
 11
12.080383
 21
66.67086
 31
0.0
  0
LINE
  5
298
330
1F
100
AcDbEntity
  8
0
 62
     7
370
    35
100
AcDbLine
 10
12.880371
 20
66.570763
 30
0.0
 11
12.671753
 21
66.362267
 31
0.0
  0
LINE
  5
299
330
1F
100
AcDbEntity
  8
0
 62
     7
370
    35
100
AcDbLine
 10
12.880371
 20
66.570763
 30
0.0
 11
12.880371
 21
67.517296
 31
0.0
  0
LINE
  5
29A
330
1F
100
AcDbEntity
  8
0
 62
     7
370
    35
100
AcDbLine
 10
12.880371
 20
67.517296
 30
0.0
 11
12.880371
 21
68.68087
 31
0.0
  0
LINE
  5
29B
330
1F
100
AcDbEntity
  8
0
 62
     7
370
    35
100
AcDbLine
 10
12.080383
 20
65.063683
 30
0.0
 11
12.388916
 21
65.372276
 31
0.0
  0
LINE
  5
29C
330
1F
100
AcDbEntity
  8
0
 62
     7
370
    35
100
AcDbLine
 10
12.080383
 20
65.063683
 30
0.0
 11
12.080383
 21
64.217247
 31
0.0
  0
LINE
  5
29D
330
1F
100
AcDbEntity
  8
0
 62
     7
370
    35
100
AcDbLine
 10
12.080383
 20
64.217247
 30
0.0
 11
12.080383
 21
63.370811
 31
0.0
  0
LINE
  5
29E
330
1F
100
AcDbEntity
  8
0
 62
     7
370
    35
100
AcDbLine
 10
12.53894
 20
62.912315
 30
0.0
 11
12.080383
 21
63.370811
 31
0.0
  0
LINE
  5
29F
330
1F
100
AcDbEntity
  8
0
 62
     7
370
    35
100
AcDbLine
 10
12.880371
 20
63.053673
 30
0.0
 11
12.880371
 21
64.217247
 31
0.0
  0
LINE
  5
2A0
330
1F
100
AcDbEntity
  8
0
 62
     7
370
    35
100
AcDbLine
 10
12.880371
 20
64.217247
 30
0.0
 11
12.880371
 21
65.16378
 31
0.0
  0
LINE
  5
2A1
330
1F
100
AcDbEntity
  8
0
 62
     7
370
    35
100
AcDbLine
 10
12.671753
 20
65.372276
 30
0.0
 11
12.880371
 21
65.16378
 31
0.0
  0
LINE
  5
2A2
330
1F
100
AcDbEntity
  8
0
 62
     7
370
    35
100
AcDbLine
 10
12.235352
 20
62.508751
 30
0.0
 11
11.776794
 21
62.967247
 31
0.0
  0
LINE
  5
2A3
330
1F
100
AcDbEntity
  8
0
 62
     7
370
    35
100
AcDbLine
 10
10.880371
 20
62.967247
 30
0.0
 11
11.776794
 21
62.967247
 31
0.0
  0
LINE
  5
2A4
330
1F
100
AcDbEntity
  8
0
 62
     7
370
    35
100
AcDbLine
 10
9.983887
 20
62.967247
 30
0.0
 11
10.880371
 21
62.967247
 31
0.0
  0
LINE
  5
2A5
330
1F
100
AcDbEntity
  8
0
 62
     7
370
    35
100
AcDbLine
 10
9.983887
 20
62.967247
 30
0.0
 11
9.52533
 21
62.508751
 31
0.0
  0
LINE
  5
2A6
330
1F
100
AcDbEntity
  8
0
 62
     7
370
    35
100
AcDbLine
 10
9.666748
 20
62.167198
 30
0.0
 11
10.880371
 21
62.167198
 31
0.0
  0
LINE
  5
2A7
330
1F
100
AcDbEntity
  8
0
 62
     7
370
    35
100
AcDbLine
 10
10.880371
 20
62.167198
 30
0.0
 11
12.093933
 21
62.167198
 31
0.0
  0
LINE
  5
2A8
330
1F
100
AcDbEntity
  8
0
 62
     7
370
    35
100
AcDbLine
 10
9.983887
 20
66.267296
 30
0.0
 11
9.725342
 21
66.008751
 31
0.0
  0
LINE
  5
2A9
330
1F
100
AcDbEntity
  8
0
 62
     7
370
    35
100
AcDbLine
 10
9.983887
 20
65.467247
 30
0.0
 11
9.725342
 21
65.725792
 31
0.0
  0
LINE
  5
2AA
330
1F
100
AcDbEntity
  8
0
 62
     7
370
    35
100
AcDbLine
 10
10.880371
 20
65.467247
 30
0.0
 11
9.983887
 21
65.467247
 31
0.0
  0
LINE
  5
2AB
330
1F
100
AcDbEntity
  8
0
 62
     7
370
    35
100
AcDbLine
 10
11.776794
 20
65.467247
 30
0.0
 11
10.880371
 21
65.467247
 31
0.0
  0
LINE
  5
2AC
330
1F
100
AcDbEntity
  8
0
 62
     7
370
    35
100
AcDbLine
 10
12.0354
 20
65.725792
 30
0.0
 11
11.776794
 21
65.467247
 31
0.0
  0
LINE
  5
2AD
330
1F
100
AcDbEntity
  8
0
 62
     7
370
    35
100
AcDbLine
 10
12.0354
 20
66.008751
 30
0.0
 11
11.776794
 21
66.267296
 31
0.0
  0
LINE
  5
2AE
330
1F
100
AcDbEntity
  8
0
 62
     7
370
    35
100
AcDbLine
 10
10.880371
 20
66.267296
 30
0.0
 11
11.776794
 21
66.267296
 31
0.0
  0
LINE
  5
2AF
330
1F
100
AcDbEntity
  8
0
 62
     7
370
    35
100
AcDbLine
 10
9.983887
 20
66.267296
 30
0.0
 11
10.880371
 21
66.267296
 31
0.0
  0
LINE
  5
2B0
330
1F
100
AcDbEntity
  8
0
 62
     7
370
    35
100
AcDbLine
 10
8.880371
 20
68.68087
 30
0.0
 11
8.880371
 21
67.517296
 31
0.0
  0
LINE
  5
2B1
330
1F
100
AcDbEntity
  8
0
 62
     7
370
    35
100
AcDbLine
 10
8.880371
 20
67.517296
 30
0.0
 11
8.880371
 21
66.570763
 31
0.0
  0
LINE
  5
2B2
330
1F
100
AcDbEntity
  8
0
 62
     7
370
    35
100
AcDbLine
 10
9.088928
 20
66.362267
 30
0.0
 11
8.880371
 21
66.570763
 31
0.0
  0
LINE
  5
2B3
330
1F
100
AcDbEntity
  8
0
 62
     7
370
    35
100
AcDbLine
 10
9.680359
 20
66.67086
 30
0.0
 11
9.371765
 21
66.362267
 31
0.0
  0
LINE
  5
2B4
330
1F
100
AcDbEntity
  8
0
 62
     7
370
    35
100
AcDbLine
 10
9.680359
 20
66.67086
 30
0.0
 11
9.680359
 21
67.517296
 31
0.0
  0
LINE
  5
2B5
330
1F
100
AcDbEntity
  8
0
 62
     7
370
    35
100
AcDbLine
 10
9.680359
 20
67.517296
 30
0.0
 11
9.680359
 21
68.363731
 31
0.0
  0
LINE
  5
2B6
330
1F
100
AcDbEntity
  8
0
 62
     7
370
    35
100
AcDbLine
 10
9.221802
 20
68.822227
 30
0.0
 11
9.680359
 21
68.363731
 31
0.0
  0
LINE
  5
2B7
330
1F
100
AcDbEntity
  8
0
 62
     7
370
    35
100
AcDbLine
 10
8.880371
 20
65.16378
 30
0.0
 11
9.088928
 21
65.372276
 31
0.0
  0
LINE
  5
2B8
330
1F
100
AcDbEntity
  8
0
 62
     7
370
    35
100
AcDbLine
 10
8.880371
 20
65.16378
 30
0.0
 11
8.880371
 21
64.217247
 31
0.0
  0
LINE
  5
2B9
330
1F
100
AcDbEntity
  8
0
 62
     7
370
    35
100
AcDbLine
 10
8.880371
 20
64.217247
 30
0.0
 11
8.880371
 21
63.053673
 31
0.0
  0
LINE
  5
2BA
330
1F
100
AcDbEntity
  8
0
 62
     7
370
    35
100
AcDbLine
 10
9.680359
 20
63.370811
 30
0.0
 11
9.221802
 21
62.912315
 31
0.0
  0
LINE
  5
2BB
330
1F
100
AcDbEntity
  8
0
 62
     7
370
    35
100
AcDbLine
 10
9.680359
 20
63.370811
 30
0.0
 11
9.680359
 21
64.217247
 31
0.0
  0
LINE
  5
2BC
330
1F
100
AcDbEntity
  8
0
 62
     7
370
    35
100
AcDbLine
 10
9.680359
 20
64.217247
 30
0.0
 11
9.680359
 21
65.063683
 31
0.0
  0
LINE
  5
2BD
330
1F
100
AcDbEntity
  8
0
 62
     7
370
    35
100
AcDbLine
 10
9.371765
 20
65.372276
 30
0.0
 11
9.680359
 21
65.063683
 31
0.0
  0
LINE
  5
2BE
330
1F
100
AcDbEntity
  8
0
 62
     7
370
    35
100
AcDbLine
 10
16.793945
 20
69.567345
 30
0.0
 11
15.580383
 21
69.567345
 31
0.0
  0
LINE
  5
2BF
330
1F
100
AcDbEntity
  8
0
 62
     7
370
    35
100
AcDbLine
 10
15.580383
 20
69.567345
 30
0.0
 11
14.36676
 21
69.567345
 31
0.0
  0
LINE
  5
2C0
330
1F
100
AcDbEntity
  8
0
 62
     7
370
    35
100
AcDbLine
 10
14.225342
 20
69.225792
 30
0.0
 11
14.683899
 21
68.767296
 31
0.0
  0
LINE
  5
2C1
330
1F
100
AcDbEntity
  8
0
 62
     7
370
    35
100
AcDbLine
 10
15.580383
 20
68.767296
 30
0.0
 11
14.683899
 21
68.767296
 31
0.0
  0
LINE
  5
2C2
330
1F
100
AcDbEntity
  8
0
 62
     7
370
    35
100
AcDbLine
 10
16.476807
 20
68.767296
 30
0.0
 11
15.580383
 21
68.767296
 31
0.0
  0
LINE
  5
2C3
330
1F
100
AcDbEntity
  8
0
 62
     7
370
    35
100
AcDbLine
 10
16.476807
 20
68.767296
 30
0.0
 11
16.935364
 21
69.225792
 31
0.0
  0
LINE
  5
2C4
330
1F
100
AcDbEntity
  8
0
 62
     7
370
    35
100
AcDbLine
 10
16.780334
 20
68.363731
 30
0.0
 11
17.238953
 21
68.822227
 31
0.0
  0
LINE
  5
2C5
330
1F
100
AcDbEntity
  8
0
 62
     7
370
    35
100
AcDbLine
 10
16.780334
 20
68.363731
 30
0.0
 11
16.780334
 21
67.517296
 31
0.0
  0
LINE
  5
2C6
330
1F
100
AcDbEntity
  8
0
 62
     7
370
    35
100
AcDbLine
 10
16.780334
 20
67.517296
 30
0.0
 11
16.780334
 21
66.67086
 31
0.0
  0
LINE
  5
2C7
330
1F
100
AcDbEntity
  8
0
 62
     7
370
    35
100
AcDbLine
 10
17.088928
 20
66.362267
 30
0.0
 11
16.780334
 21
66.67086
 31
0.0
  0
LINE
  5
2C8
330
1F
100
AcDbEntity
  8
0
 62
     7
370
    35
100
AcDbLine
 10
17.580383
 20
66.570763
 30
0.0
 11
17.371765
 21
66.362267
 31
0.0
  0
LINE
  5
2C9
330
1F
100
AcDbEntity
  8
0
 62
     7
370
    35
100
AcDbLine
 10
17.580383
 20
66.570763
 30
0.0
 11
17.580383
 21
67.517296
 31
0.0
  0
LINE
  5
2CA
330
1F
100
AcDbEntity
  8
0
 62
     7
370
    35
100
AcDbLine
 10
17.580383
 20
67.517296
 30
0.0
 11
17.580383
 21
68.68087
 31
0.0
  0
LINE
  5
2CB
330
1F
100
AcDbEntity
  8
0
 62
     7
370
    35
100
AcDbLine
 10
16.780334
 20
65.063683
 30
0.0
 11
17.088928
 21
65.372276
 31
0.0
  0
LINE
  5
2CC
330
1F
100
AcDbEntity
  8
0
 62
     7
370
    35
100
AcDbLine
 10
16.780334
 20
65.063683
 30
0.0
 11
16.780334
 21
64.217247
 31
0.0
  0
LINE
  5
2CD
330
1F
100
AcDbEntity
  8
0
 62
     7
370
    35
100
AcDbLine
 10
16.780334
 20
64.217247
 30
0.0
 11
16.780334
 21
63.370811
 31
0.0
  0
LINE
  5
2CE
330
1F
100
AcDbEntity
  8
0
 62
     7
370
    35
100
AcDbLine
 10
17.238953
 20
62.912315
 30
0.0
 11
16.780334
 21
63.370811
 31
0.0
  0
LINE
  5
2CF
330
1F
100
AcDbEntity
  8
0
 62
     7
370
    35
100
AcDbLine
 10
17.580383
 20
63.053673
 30
0.0
 11
17.580383
 21
64.217247
 31
0.0
  0
LINE
  5
2D0
330
1F
100
AcDbEntity
  8
0
 62
     7
370
    35
100
AcDbLine
 10
17.580383
 20
64.217247
 30
0.0
 11
17.580383
 21
65.16378
 31
0.0
  0
LINE
  5
2D1
330
1F
100
AcDbEntity
  8
0
 62
     7
370
    35
100
AcDbLine
 10
17.371765
 20
65.372276
 30
0.0
 11
17.580383
 21
65.16378
 31
0.0
  0
LINE
  5
2D2
330
1F
100
AcDbEntity
  8
0
 62
     7
370
    35
100
AcDbLine
 10
16.935364
 20
62.508751
 30
0.0
 11
16.476807
 21
62.967247
 31
0.0
  0
LINE
  5
2D3
330
1F
100
AcDbEntity
  8
0
 62
     7
370
    35
100
AcDbLine
 10
15.580383
 20
62.967247
 30
0.0
 11
16.476807
 21
62.967247
 31
0.0
  0
LINE
  5
2D4
330
1F
100
AcDbEntity
  8
0
 62
     7
370
    35
100
AcDbLine
 10
14.683899
 20
62.967247
 30
0.0
 11
15.580383
 21
62.967247
 31
0.0
  0
LINE
  5
2D5
330
1F
100
AcDbEntity
  8
0
 62
     7
370
    35
100
AcDbLine
 10
14.683899
 20
62.967247
 30
0.0
 11
14.225342
 21
62.508751
 31
0.0
  0
LINE
  5
2D6
330
1F
100
AcDbEntity
  8
0
 62
     7
370
    35
100
AcDbLine
 10
14.36676
 20
62.167198
 30
0.0
 11
15.580383
 21
62.167198
 31
0.0
  0
LINE
  5
2D7
330
1F
100
AcDbEntity
  8
0
 62
     7
370
    35
100
AcDbLine
 10
15.580383
 20
62.167198
 30
0.0
 11
16.793945
 21
62.167198
 31
0.0
  0
LINE
  5
2D8
330
1F
100
AcDbEntity
  8
0
 62
     7
370
    35
100
AcDbLine
 10
14.683899
 20
66.267296
 30
0.0
 11
14.425354
 21
66.008751
 31
0.0
  0
LINE
  5
2D9
330
1F
100
AcDbEntity
  8
0
 62
     7
370
    35
100
AcDbLine
 10
14.683899
 20
65.467247
 30
0.0
 11
14.425354
 21
65.725792
 31
0.0
  0
LINE
  5
2DA
330
1F
100
AcDbEntity
  8
0
 62
     7
370
    35
100
AcDbLine
 10
15.580383
 20
65.467247
 30
0.0
 11
14.683899
 21
65.467247
 31
0.0
  0
LINE
  5
2DB
330
1F
100
AcDbEntity
  8
0
 62
     7
370
    35
100
AcDbLine
 10
16.476807
 20
65.467247
 30
0.0
 11
15.580383
 21
65.467247
 31
0.0
  0
LINE
  5
2DC
330
1F
100
AcDbEntity
  8
0
 62
     7
370
    35
100
AcDbLine
 10
16.735352
 20
65.725792
 30
0.0
 11
16.476807
 21
65.467247
 31
0.0
  0
LINE
  5
2DD
330
1F
100
AcDbEntity
  8
0
 62
     7
370
    35
100
AcDbLine
 10
16.735352
 20
66.008751
 30
0.0
 11
16.476807
 21
66.267296
 31
0.0
  0
LINE
  5
2DE
330
1F
100
AcDbEntity
  8
0
 62
     7
370
    35
100
AcDbLine
 10
15.580383
 20
66.267296
 30
0.0
 11
16.476807
 21
66.267296
 31
0.0
  0
LINE
  5
2DF
330
1F
100
AcDbEntity
  8
0
 62
     7
370
    35
100
AcDbLine
 10
14.683899
 20
66.267296
 30
0.0
 11
15.580383
 21
66.267296
 31
0.0
  0
LINE
  5
2E0
330
1F
100
AcDbEntity
  8
0
 62
     7
370
    35
100
AcDbLine
 10
13.580383
 20
68.68087
 30
0.0
 11
13.580383
 21
67.517296
 31
0.0
  0
LINE
  5
2E1
330
1F
100
AcDbEntity
  8
0
 62
     7
370
    35
100
AcDbLine
 10
13.580383
 20
67.517296
 30
0.0
 11
13.580383
 21
66.570763
 31
0.0
  0
LINE
  5
2E2
330
1F
100
AcDbEntity
  8
0
 62
     7
370
    35
100
AcDbLine
 10
13.78894
 20
66.362267
 30
0.0
 11
13.580383
 21
66.570763
 31
0.0
  0
LINE
  5
2E3
330
1F
100
AcDbEntity
  8
0
 62
     7
370
    35
100
AcDbLine
 10
14.380371
 20
66.67086
 30
0.0
 11
14.071777
 21
66.362267
 31
0.0
  0
LINE
  5
2E4
330
1F
100
AcDbEntity
  8
0
 62
     7
370
    35
100
AcDbLine
 10
14.380371
 20
66.67086
 30
0.0
 11
14.380371
 21
67.517296
 31
0.0
  0
LINE
  5
2E5
330
1F
100
AcDbEntity
  8
0
 62
     7
370
    35
100
AcDbLine
 10
14.380371
 20
67.517296
 30
0.0
 11
14.380371
 21
68.363731
 31
0.0
  0
LINE
  5
2E6
330
1F
100
AcDbEntity
  8
0
 62
     7
370
    35
100
AcDbLine
 10
13.921753
 20
68.822227
 30
0.0
 11
14.380371
 21
68.363731
 31
0.0
  0
LINE
  5
2E7
330
1F
100
AcDbEntity
  8
0
 62
     7
370
    35
100
AcDbLine
 10
13.580383
 20
65.16378
 30
0.0
 11
13.78894
 21
65.372276
 31
0.0
  0
LINE
  5
2E8
330
1F
100
AcDbEntity
  8
0
 62
     7
370
    35
100
AcDbLine
 10
13.580383
 20
65.16378
 30
0.0
 11
13.580383
 21
64.217247
 31
0.0
  0
LINE
  5
2E9
330
1F
100
AcDbEntity
  8
0
 62
     7
370
    35
100
AcDbLine
 10
13.580383
 20
64.217247
 30
0.0
 11
13.580383
 21
63.053673
 31
0.0
  0
LINE
  5
2EA
330
1F
100
AcDbEntity
  8
0
 62
     7
370
    35
100
AcDbLine
 10
14.380371
 20
63.370811
 30
0.0
 11
13.921753
 21
62.912315
 31
0.0
  0
LINE
  5
2EB
330
1F
100
AcDbEntity
  8
0
 62
     7
370
    35
100
AcDbLine
 10
14.380371
 20
63.370811
 30
0.0
 11
14.380371
 21
64.217247
 31
0.0
  0
LINE
  5
2EC
330
1F
100
AcDbEntity
  8
0
 62
     7
370
    35
100
AcDbLine
 10
14.380371
 20
64.217247
 30
0.0
 11
14.380371
 21
65.063683
 31
0.0
  0
LINE
  5
2ED
330
1F
100
AcDbEntity
  8
0
 62
     7
370
    35
100
AcDbLine
 10
14.071777
 20
65.372276
 30
0.0
 11
14.380371
 21
65.063683
 31
0.0
  0
LINE
  5
2EE
330
1F
100
AcDbEntity
  8
0
 62
     7
370
    35
100
AcDbLine
 10
21.493958
 20
69.567345
 30
0.0
 11
20.280334
 21
69.567345
 31
0.0
  0
LINE
  5
2EF
330
1F
100
AcDbEntity
  8
0
 62
     7
370
    35
100
AcDbLine
 10
20.280334
 20
69.567345
 30
0.0
 11
19.066772
 21
69.567345
 31
0.0
  0
LINE
  5
2F0
330
1F
100
AcDbEntity
  8
0
 62
     7
370
    35
100
AcDbLine
 10
18.925354
 20
69.225792
 30
0.0
 11
19.383911
 21
68.767296
 31
0.0
  0
LINE
  5
2F1
330
1F
100
AcDbEntity
  8
0
 62
     7
370
    35
100
AcDbLine
 10
20.280334
 20
68.767296
 30
0.0
 11
19.383911
 21
68.767296
 31
0.0
  0
LINE
  5
2F2
330
1F
100
AcDbEntity
  8
0
 62
     7
370
    35
100
AcDbLine
 10
21.176819
 20
68.767296
 30
0.0
 11
20.280334
 21
68.767296
 31
0.0
  0
LINE
  5
2F3
330
1F
100
AcDbEntity
  8
0
 62
     7
370
    35
100
AcDbLine
 10
21.176819
 20
68.767296
 30
0.0
 11
21.635376
 21
69.225792
 31
0.0
  0
LINE
  5
2F4
330
1F
100
AcDbEntity
  8
0
 62
     7
370
    35
100
AcDbLine
 10
21.480347
 20
68.363731
 30
0.0
 11
21.938965
 21
68.822227
 31
0.0
  0
LINE
  5
2F5
330
1F
100
AcDbEntity
  8
0
 62
     7
370
    35
100
AcDbLine
 10
21.480347
 20
68.363731
 30
0.0
 11
21.480347
 21
67.517296
 31
0.0
  0
LINE
  5
2F6
330
1F
100
AcDbEntity
  8
0
 62
     7
370
    35
100
AcDbLine
 10
21.480347
 20
67.517296
 30
0.0
 11
21.480347
 21
66.67086
 31
0.0
  0
LINE
  5
2F7
330
1F
100
AcDbEntity
  8
0
 62
     7
370
    35
100
AcDbLine
 10
21.78894
 20
66.362267
 30
0.0
 11
21.480347
 21
66.67086
 31
0.0
  0
LINE
  5
2F8
330
1F
100
AcDbEntity
  8
0
 62
     7
370
    35
100
AcDbLine
 10
22.280334
 20
66.570763
 30
0.0
 11
22.071777
 21
66.362267
 31
0.0
  0
LINE
  5
2F9
330
1F
100
AcDbEntity
  8
0
 62
     7
370
    35
100
AcDbLine
 10
22.280334
 20
66.570763
 30
0.0
 11
22.280334
 21
67.517296
 31
0.0
  0
LINE
  5
2FA
330
1F
100
AcDbEntity
  8
0
 62
     7
370
    35
100
AcDbLine
 10
22.280334
 20
67.517296
 30
0.0
 11
22.280334
 21
68.68087
 31
0.0
  0
LINE
  5
2FB
330
1F
100
AcDbEntity
  8
0
 62
     7
370
    35
100
AcDbLine
 10
21.480347
 20
65.063683
 30
0.0
 11
21.78894
 21
65.372276
 31
0.0
  0
LINE
  5
2FC
330
1F
100
AcDbEntity
  8
0
 62
     7
370
    35
100
AcDbLine
 10
21.480347
 20
65.063683
 30
0.0
 11
21.480347
 21
64.217247
 31
0.0
  0
LINE
  5
2FD
330
1F
100
AcDbEntity
  8
0
 62
     7
370
    35
100
AcDbLine
 10
21.480347
 20
64.217247
 30
0.0
 11
21.480347
 21
63.370811
 31
0.0
  0
LINE
  5
2FE
330
1F
100
AcDbEntity
  8
0
 62
     7
370
    35
100
AcDbLine
 10
21.938965
 20
62.912315
 30
0.0
 11
21.480347
 21
63.370811
 31
0.0
  0
LINE
  5
2FF
330
1F
100
AcDbEntity
  8
0
 62
     7
370
    35
100
AcDbLine
 10
22.280334
 20
63.053673
 30
0.0
 11
22.280334
 21
64.217247
 31
0.0
  0
LINE
  5
300
330
1F
100
AcDbEntity
  8
0
 62
     7
370
    35
100
AcDbLine
 10
22.280334
 20
64.217247
 30
0.0
 11
22.280334
 21
65.16378
 31
0.0
  0
LINE
  5
301
330
1F
100
AcDbEntity
  8
0
 62
     7
370
    35
100
AcDbLine
 10
22.071777
 20
65.372276
 30
0.0
 11
22.280334
 21
65.16378
 31
0.0
  0
LINE
  5
302
330
1F
100
AcDbEntity
  8
0
 62
     7
370
    35
100
AcDbLine
 10
21.635376
 20
62.508751
 30
0.0
 11
21.176819
 21
62.967247
 31
0.0
  0
LINE
  5
303
330
1F
100
AcDbEntity
  8
0
 62
     7
370
    35
100
AcDbLine
 10
20.280334
 20
62.967247
 30
0.0
 11
21.176819
 21
62.967247
 31
0.0
  0
LINE
  5
304
330
1F
100
AcDbEntity
  8
0
 62
     7
370
    35
100
AcDbLine
 10
19.383911
 20
62.967247
 30
0.0
 11
20.280334
 21
62.967247
 31
0.0
  0
LINE
  5
305
330
1F
100
AcDbEntity
  8
0
 62
     7
370
    35
100
AcDbLine
 10
19.383911
 20
62.967247
 30
0.0
 11
18.925354
 21
62.508751
 31
0.0
  0
LINE
  5
306
330
1F
100
AcDbEntity
  8
0
 62
     7
370
    35
100
AcDbLine
 10
19.066772
 20
62.167198
 30
0.0
 11
20.280334
 21
62.167198
 31
0.0
  0
LINE
  5
307
330
1F
100
AcDbEntity
  8
0
 62
     7
370
    35
100
AcDbLine
 10
20.280334
 20
62.167198
 30
0.0
 11
21.493958
 21
62.167198
 31
0.0
  0
LINE
  5
308
330
1F
100
AcDbEntity
  8
0
 62
     7
370
    35
100
AcDbLine
 10
19.383911
 20
66.267296
 30
0.0
 11
19.125305
 21
66.008751
 31
0.0
  0
LINE
  5
309
330
1F
100
AcDbEntity
  8
0
 62
     7
370
    35
100
AcDbLine
 10
19.383911
 20
65.467247
 30
0.0
 11
19.125305
 21
65.725792
 31
0.0
  0
LINE
  5
30A
330
1F
100
AcDbEntity
  8
0
 62
     7
370
    35
100
AcDbLine
 10
20.280334
 20
65.467247
 30
0.0
 11
19.383911
 21
65.467247
 31
0.0
  0
LINE
  5
30B
330
1F
100
AcDbEntity
  8
0
 62
     7
370
    35
100
AcDbLine
 10
21.176819
 20
65.467247
 30
0.0
 11
20.280334
 21
65.467247
 31
0.0
  0
LINE
  5
30C
330
1F
100
AcDbEntity
  8
0
 62
     7
370
    35
100
AcDbLine
 10
21.435364
 20
65.725792
 30
0.0
 11
21.176819
 21
65.467247
 31
0.0
  0
LINE
  5
30D
330
1F
100
AcDbEntity
  8
0
 62
     7
370
    35
100
AcDbLine
 10
21.435364
 20
66.008751
 30
0.0
 11
21.176819
 21
66.267296
 31
0.0
  0
LINE
  5
30E
330
1F
100
AcDbEntity
  8
0
 62
     7
370
    35
100
AcDbLine
 10
20.280334
 20
66.267296
 30
0.0
 11
21.176819
 21
66.267296
 31
0.0
  0
LINE
  5
30F
330
1F
100
AcDbEntity
  8
0
 62
     7
370
    35
100
AcDbLine
 10
19.383911
 20
66.267296
 30
0.0
 11
20.280334
 21
66.267296
 31
0.0
  0
LINE
  5
310
330
1F
100
AcDbEntity
  8
0
 62
     7
370
    35
100
AcDbLine
 10
18.280334
 20
68.68087
 30
0.0
 11
18.280334
 21
67.517296
 31
0.0
  0
LINE
  5
311
330
1F
100
AcDbEntity
  8
0
 62
     7
370
    35
100
AcDbLine
 10
18.280334
 20
67.517296
 30
0.0
 11
18.280334
 21
66.570763
 31
0.0
  0
LINE
  5
312
330
1F
100
AcDbEntity
  8
0
 62
     7
370
    35
100
AcDbLine
 10
18.488953
 20
66.362267
 30
0.0
 11
18.280334
 21
66.570763
 31
0.0
  0
LINE
  5
313
330
1F
100
AcDbEntity
  8
0
 62
     7
370
    35
100
AcDbLine
 10
19.080383
 20
66.67086
 30
0.0
 11
18.77179
 21
66.362267
 31
0.0
  0
LINE
  5
314
330
1F
100
AcDbEntity
  8
0
 62
     7
370
    35
100
AcDbLine
 10
19.080383
 20
66.67086
 30
0.0
 11
19.080383
 21
67.517296
 31
0.0
  0
LINE
  5
315
330
1F
100
AcDbEntity
  8
0
 62
     7
370
    35
100
AcDbLine
 10
19.080383
 20
67.517296
 30
0.0
 11
19.080383
 21
68.363731
 31
0.0
  0
LINE
  5
316
330
1F
100
AcDbEntity
  8
0
 62
     7
370
    35
100
AcDbLine
 10
18.621765
 20
68.822227
 30
0.0
 11
19.080383
 21
68.363731
 31
0.0
  0
LINE
  5
317
330
1F
100
AcDbEntity
  8
0
 62
     7
370
    35
100
AcDbLine
 10
18.280334
 20
65.16378
 30
0.0
 11
18.488953
 21
65.372276
 31
0.0
  0
LINE
  5
318
330
1F
100
AcDbEntity
  8
0
 62
     7
370
    35
100
AcDbLine
 10
18.280334
 20
65.16378
 30
0.0
 11
18.280334
 21
64.217247
 31
0.0
  0
LINE
  5
319
330
1F
100
AcDbEntity
  8
0
 62
     7
370
    35
100
AcDbLine
 10
18.280334
 20
64.217247
 30
0.0
 11
18.280334
 21
63.053673
 31
0.0
  0
LINE
  5
31A
330
1F
100
AcDbEntity
  8
0
 62
     7
370
    35
100
AcDbLine
 10
19.080383
 20
63.370811
 30
0.0
 11
18.621765
 21
62.912315
 31
0.0
  0
LINE
  5
31B
330
1F
100
AcDbEntity
  8
0
 62
     7
370
    35
100
AcDbLine
 10
19.080383
 20
63.370811
 30
0.0
 11
19.080383
 21
64.217247
 31
0.0
  0
LINE
  5
31C
330
1F
100
AcDbEntity
  8
0
 62
     7
370
    35
100
AcDbLine
 10
19.080383
 20
64.217247
 30
0.0
 11
19.080383
 21
65.063683
 31
0.0
  0
LINE
  5
31D
330
1F
100
AcDbEntity
  8
0
 62
     7
370
    35
100
AcDbLine
 10
18.77179
 20
65.372276
 30
0.0
 11
19.080383
 21
65.063683
 31
0.0
  0
LINE
  5
31E
330
1F
100
AcDbEntity
  8
0
 62
     7
370
    35
100
AcDbLine
 10
23.471802
 20
65.372276
 30
0.0
 11
23.780334
 21
65.063683
 31
0.0
  0
LINE
  5
31F
330
1F
100
AcDbEntity
  8
0
 62
     7
370
    35
100
AcDbLine
 10
23.780334
 20
64.217247
 30
0.0
 11
23.780334
 21
65.063683
 31
0.0
  0
LINE
  5
320
330
1F
100
AcDbEntity
  8
0
 62
     7
370
    35
100
AcDbLine
 10
23.780334
 20
63.370811
 30
0.0
 11
23.780334
 21
64.217247
 31
0.0
  0
LINE
  5
321
330
1F
100
AcDbEntity
  8
0
 62
     7
370
    35
100
AcDbLine
 10
23.780334
 20
63.370811
 30
0.0
 11
23.321777
 21
62.912315
 31
0.0
  0
LINE
  5
322
330
1F
100
AcDbEntity
  8
0
 62
     7
370
    35
100
AcDbLine
 10
22.980347
 20
64.217247
 30
0.0
 11
22.980347
 21
63.053673
 31
0.0
  0
LINE
  5
323
330
1F
100
AcDbEntity
  8
0
 62
     7
370
    35
100
AcDbLine
 10
22.980347
 20
65.16378
 30
0.0
 11
22.980347
 21
64.217247
 31
0.0
  0
LINE
  5
324
330
1F
100
AcDbEntity
  8
0
 62
     7
370
    35
100
AcDbLine
 10
22.980347
 20
65.16378
 30
0.0
 11
23.188965
 21
65.372276
 31
0.0
  0
LINE
  5
325
330
1F
100
AcDbEntity
  8
0
 62
     7
370
    35
100
AcDbLine
 10
23.321777
 20
68.822227
 30
0.0
 11
23.780334
 21
68.363731
 31
0.0
  0
LINE
  5
326
330
1F
100
AcDbEntity
  8
0
 62
     7
370
    35
100
AcDbLine
 10
23.780334
 20
67.517296
 30
0.0
 11
23.780334
 21
68.363731
 31
0.0
  0
LINE
  5
327
330
1F
100
AcDbEntity
  8
0
 62
     7
370
    35
100
AcDbLine
 10
23.780334
 20
66.67086
 30
0.0
 11
23.780334
 21
67.517296
 31
0.0
  0
LINE
  5
328
330
1F
100
AcDbEntity
  8
0
 62
     7
370
    35
100
AcDbLine
 10
23.780334
 20
66.67086
 30
0.0
 11
23.471802
 21
66.362267
 31
0.0
  0
LINE
  5
329
330
1F
100
AcDbEntity
  8
0
 62
     7
370
    35
100
AcDbLine
 10
23.188965
 20
66.362267
 30
0.0
 11
22.980347
 21
66.570763
 31
0.0
  0
LINE
  5
32A
330
1F
100
AcDbEntity
  8
0
 62
     7
370
    35
100
AcDbLine
 10
22.980347
 20
67.517296
 30
0.0
 11
22.980347
 21
66.570763
 31
0.0
  0
LINE
  5
32B
330
1F
100
AcDbEntity
  8
0
 62
     7
370
    35
100
AcDbLine
 10
22.980347
 20
68.68087
 30
0.0
 11
22.980347
 21
67.517296
 31
0.0
  0
LINE
  5
32C
330
1F
100
AcDbEntity
  8
0
 62
     7
370
    35
100
AcDbLine
 10
24.083923
 20
66.267296
 30
0.0
 11
24.980347
 21
66.267296
 31
0.0
  0
LINE
  5
32D
330
1F
100
AcDbEntity
  8
0
 62
     7
370
    35
100
AcDbLine
 10
24.980347
 20
66.267296
 30
0.0
 11
25.876831
 21
66.267296
 31
0.0
  0
LINE
  5
32E
330
1F
100
AcDbEntity
  8
0
 62
     7
370
    35
100
AcDbLine
 10
26.135376
 20
66.008751
 30
0.0
 11
25.876831
 21
66.267296
 31
0.0
  0
LINE
  5
32F
330
1F
100
AcDbEntity
  8
0
 62
     7
370
    35
100
AcDbLine
 10
26.135376
 20
65.725792
 30
0.0
 11
25.876831
 21
65.467247
 31
0.0
  0
LINE
  5
330
330
1F
100
AcDbEntity
  8
0
 62
     7
370
    35
100
AcDbLine
 10
25.876831
 20
65.467247
 30
0.0
 11
24.980347
 21
65.467247
 31
0.0
  0
LINE
  5
331
330
1F
100
AcDbEntity
  8
0
 62
     7
370
    35
100
AcDbLine
 10
24.980347
 20
65.467247
 30
0.0
 11
24.083923
 21
65.467247
 31
0.0
  0
LINE
  5
332
330
1F
100
AcDbEntity
  8
0
 62
     7
370
    35
100
AcDbLine
 10
24.083923
 20
65.467247
 30
0.0
 11
23.825317
 21
65.725792
 31
0.0
  0
LINE
  5
333
330
1F
100
AcDbEntity
  8
0
 62
     7
370
    35
100
AcDbLine
 10
24.083923
 20
66.267296
 30
0.0
 11
23.825317
 21
66.008751
 31
0.0
  0
LINE
  5
334
330
1F
100
AcDbEntity
  8
0
 62
     7
370
    35
100
AcDbLine
 10
24.980347
 20
62.167198
 30
0.0
 11
26.19397
 21
62.167198
 31
0.0
  0
LINE
  5
335
330
1F
100
AcDbEntity
  8
0
 62
     7
370
    35
100
AcDbLine
 10
23.766724
 20
62.167198
 30
0.0
 11
24.980347
 21
62.167198
 31
0.0
  0
LINE
  5
336
330
1F
100
AcDbEntity
  8
0
 62
     7
370
    35
100
AcDbLine
 10
24.083923
 20
62.967247
 30
0.0
 11
23.625305
 21
62.508751
 31
0.0
  0
LINE
  5
337
330
1F
100
AcDbEntity
  8
0
 62
     7
370
    35
100
AcDbLine
 10
24.083923
 20
62.967247
 30
0.0
 11
24.980347
 21
62.967247
 31
0.0
  0
LINE
  5
338
330
1F
100
AcDbEntity
  8
0
 62
     7
370
    35
100
AcDbLine
 10
24.980347
 20
62.967247
 30
0.0
 11
25.876831
 21
62.967247
 31
0.0
  0
LINE
  5
339
330
1F
100
AcDbEntity
  8
0
 62
     7
370
    35
100
AcDbLine
 10
26.335388
 20
62.508751
 30
0.0
 11
25.876831
 21
62.967247
 31
0.0
  0
LINE
  5
33A
330
1F
100
AcDbEntity
  8
0
 62
     7
370
    35
100
AcDbLine
 10
26.77179
 20
65.372276
 30
0.0
 11
26.980347
 21
65.16378
 31
0.0
  0
LINE
  5
33B
330
1F
100
AcDbEntity
  8
0
 62
     7
370
    35
100
AcDbLine
 10
26.980347
 20
64.217247
 30
0.0
 11
26.980347
 21
65.16378
 31
0.0
  0
LINE
  5
33C
330
1F
100
AcDbEntity
  8
0
 62
     7
370
    35
100
AcDbLine
 10
26.980347
 20
63.053673
 30
0.0
 11
26.980347
 21
64.217247
 31
0.0
  0
LINE
  5
33D
330
1F
100
AcDbEntity
  8
0
 62
     7
370
    35
100
AcDbLine
 10
26.638916
 20
62.912315
 30
0.0
 11
26.180359
 21
63.370811
 31
0.0
  0
LINE
  5
33E
330
1F
100
AcDbEntity
  8
0
 62
     7
370
    35
100
AcDbLine
 10
26.180359
 20
64.217247
 30
0.0
 11
26.180359
 21
63.370811
 31
0.0
  0
LINE
  5
33F
330
1F
100
AcDbEntity
  8
0
 62
     7
370
    35
100
AcDbLine
 10
26.180359
 20
65.063683
 30
0.0
 11
26.180359
 21
64.217247
 31
0.0
  0
LINE
  5
340
330
1F
100
AcDbEntity
  8
0
 62
     7
370
    35
100
AcDbLine
 10
26.180359
 20
65.063683
 30
0.0
 11
26.488953
 21
65.372276
 31
0.0
  0
LINE
  5
341
330
1F
100
AcDbEntity
  8
0
 62
     7
370
    35
100
AcDbLine
 10
26.980347
 20
67.517296
 30
0.0
 11
26.980347
 21
68.68087
 31
0.0
  0
LINE
  5
342
330
1F
100
AcDbEntity
  8
0
 62
     7
370
    35
100
AcDbLine
 10
26.980347
 20
66.570763
 30
0.0
 11
26.980347
 21
67.517296
 31
0.0
  0
LINE
  5
343
330
1F
100
AcDbEntity
  8
0
 62
     7
370
    35
100
AcDbLine
 10
26.980347
 20
66.570763
 30
0.0
 11
26.77179
 21
66.362267
 31
0.0
  0
LINE
  5
344
330
1F
100
AcDbEntity
  8
0
 62
     7
370
    35
100
AcDbLine
 10
26.488953
 20
66.362267
 30
0.0
 11
26.180359
 21
66.67086
 31
0.0
  0
LINE
  5
345
330
1F
100
AcDbEntity
  8
0
 62
     7
370
    35
100
AcDbLine
 10
26.180359
 20
67.517296
 30
0.0
 11
26.180359
 21
66.67086
 31
0.0
  0
LINE
  5
346
330
1F
100
AcDbEntity
  8
0
 62
     7
370
    35
100
AcDbLine
 10
26.180359
 20
68.363731
 30
0.0
 11
26.180359
 21
67.517296
 31
0.0
  0
LINE
  5
347
330
1F
100
AcDbEntity
  8
0
 62
     7
370
    35
100
AcDbLine
 10
26.180359
 20
68.363731
 30
0.0
 11
26.638916
 21
68.822227
 31
0.0
  0
LINE
  5
348
330
1F
100
AcDbEntity
  8
0
 62
     7
370
    35
100
AcDbLine
 10
25.876831
 20
68.767296
 30
0.0
 11
26.335388
 21
69.225792
 31
0.0
  0
LINE
  5
349
330
1F
100
AcDbEntity
  8
0
 62
     7
370
    35
100
AcDbLine
 10
25.876831
 20
68.767296
 30
0.0
 11
24.980347
 21
68.767296
 31
0.0
  0
LINE
  5
34A
330
1F
100
AcDbEntity
  8
0
 62
     7
370
    35
100
AcDbLine
 10
24.980347
 20
68.767296
 30
0.0
 11
24.083923
 21
68.767296
 31
0.0
  0
LINE
  5
34B
330
1F
100
AcDbEntity
  8
0
 62
     7
370
    35
100
AcDbLine
 10
23.625305
 20
69.225792
 30
0.0
 11
24.083923
 21
68.767296
 31
0.0
  0
LINE
  5
34C
330
1F
100
AcDbEntity
  8
0
 62
     7
370
    35
100
AcDbLine
 10
24.980347
 20
69.567345
 30
0.0
 11
23.766724
 21
69.567345
 31
0.0
  0
LINE
  5
34D
330
1F
100
AcDbEntity
  8
0
 62
     7
370
    35
100
AcDbLine
 10
26.19397
 20
69.567345
 30
0.0
 11
24.980347
 21
69.567345
 31
0.0
  0
LINE
  5
34E
330
1F
100
AcDbEntity
  8
0
 62
     7
370
    35
100
AcDbLine
 10
11.380371
 20
72.367393
 30
0.0
 11
11.380371
 21
73.467247
 31
0.0
  0
LINE
  5
34F
330
1F
100
AcDbEntity
  8
0
 62
     7
370
    35
100
AcDbLine
 10
9.680359
 20
72.167198
 30
0.0
 11
11.180359
 21
72.167198
 31
0.0
  0
LINE
  5
350
330
1F
100
AcDbEntity
  8
0
 62
     7
370
    35
100
AcDbLine
 10
9.480347
 20
73.467247
 30
0.0
 11
9.480347
 21
72.367393
 31
0.0
  0
LINE
  5
351
330
1F
100
AcDbEntity
  8
0
 62
     7
370
    35
100
AcDbLine
 10
11.180359
 20
73.667198
 30
0.0
 11
9.680359
 21
73.667198
 31
0.0
  0
LINE
  5
352
330
1F
100
AcDbEntity
  8
0
 62
     7
370
    35
100
AcDbLine
 10
16.380371
 20
73.467247
 30
0.0
 11
16.380371
 21
72.367393
 31
0.0
  0
LINE
  5
353
330
1F
100
AcDbEntity
  8
0
 62
     7
370
    35
100
AcDbLine
 10
16.180359
 20
72.167198
 30
0.0
 11
14.680359
 21
72.167198
 31
0.0
  0
LINE
  5
354
330
1F
100
AcDbEntity
  8
0
 62
     7
370
    35
100
AcDbLine
 10
14.480347
 20
72.367393
 30
0.0
 11
14.480347
 21
73.467247
 31
0.0
  0
LINE
  5
355
330
1F
100
AcDbEntity
  8
0
 62
     7
370
    35
100
AcDbLine
 10
14.680359
 20
73.667198
 30
0.0
 11
16.180359
 21
73.667198
 31
0.0
  0
LINE
  5
356
330
1F
100
AcDbEntity
  8
0
 62
     7
370
    35
100
AcDbLine
 10
21.380371
 20
73.467247
 30
0.0
 11
21.380371
 21
72.367393
 31
0.0
  0
LINE
  5
357
330
1F
100
AcDbEntity
  8
0
 62
     7
370
    35
100
AcDbLine
 10
21.180359
 20
72.167198
 30
0.0
 11
19.680359
 21
72.167198
 31
0.0
  0
LINE
  5
358
330
1F
100
AcDbEntity
  8
0
 62
     7
370
    35
100
AcDbLine
 10
19.480347
 20
72.367393
 30
0.0
 11
19.480347
 21
73.467247
 31
0.0
  0
LINE
  5
359
330
1F
100
AcDbEntity
  8
0
 62
     7
370
    35
100
AcDbLine
 10
19.680359
 20
73.667198
 30
0.0
 11
21.180359
 21
73.667198
 31
0.0
  0
LINE
  5
35A
330
1F
100
AcDbEntity
  8
0
 62
     7
370
    35
100
AcDbLine
 10
26.380371
 20
72.367393
 30
0.0
 11
26.380371
 21
73.467247
 31
0.0
  0
LINE
  5
35B
330
1F
100
AcDbEntity
  8
0
 62
     7
370
    35
100
AcDbLine
 10
24.680359
 20
72.167198
 30
0.0
 11
26.180359
 21
72.167198
 31
0.0
  0
LINE
  5
35C
330
1F
100
AcDbEntity
  8
0
 62
     7
370
    35
100
AcDbLine
 10
24.480347
 20
73.467247
 30
0.0
 11
24.480347
 21
72.367393
 31
0.0
  0
LINE
  5
35D
330
1F
100
AcDbEntity
  8
0
 62
     7
370
    35
100
AcDbLine
 10
26.180359
 20
73.667198
 30
0.0
 11
24.680359
 21
73.667198
 31
0.0
  0
LINE
  5
35E
330
1F
100
AcDbEntity
  8
0
 62
     7
370
    35
100
AcDbLine
 10
7.730347
 20
76.367393
 30
0.0
 11
28.130371
 21
76.367393
 31
0.0
  0
LINE
  5
35F
330
1F
100
AcDbEntity
  8
0
 62
     7
370
    35
100
AcDbLine
 10
7.730347
 20
50.367393
 30
0.0
 11
28.130371
 21
50.367393
 31
0.0
  0
LINE
  5
360
330
1F
100
AcDbEntity
  8
0
 62
     7
370
    35
100
AcDbLine
 10
22.430359
 20
43.367393
 30
0.0
 11
24.430359
 21
43.367393
 31
0.0
  0
LINE
  5
361
330
1F
100
AcDbEntity
  8
0
 62
     7
370
    35
100
AcDbLine
 10
26.930359
 20
45.867393
 30
0.0
 11
26.930359
 21
46.867393
 31
0.0
  0
LINE
  5
362
330
1F
100
AcDbEntity
  8
0
 62
     7
370
    35
100
AcDbLine
 10
24.430359
 20
49.367393
 30
0.0
 11
22.430359
 21
49.367393
 31
0.0
  0
LINE
  5
363
330
1F
100
AcDbEntity
  8
0
 62
     7
370
    35
100
AcDbLine
 10
19.930359
 20
46.867393
 30
0.0
 11
19.930359
 21
45.867393
 31
0.0
  0
LINE
  5
364
330
1F
100
AcDbEntity
  8
0
 62
     7
370
    35
100
AcDbLine
 10
13.430359
 20
49.367393
 30
0.0
 11
11.430359
 21
49.367393
 31
0.0
  0
LINE
  5
365
330
1F
100
AcDbEntity
  8
0
 62
     7
370
    35
100
AcDbLine
 10
8.930359
 20
46.867393
 30
0.0
 11
8.930359
 21
45.867393
 31
0.0
  0
LINE
  5
366
330
1F
100
AcDbEntity
  8
0
 62
     7
370
    35
100
AcDbLine
 10
11.430359
 20
43.367393
 30
0.0
 11
13.430359
 21
43.367393
 31
0.0
  0
LINE
  5
367
330
1F
100
AcDbEntity
  8
0
 62
     7
370
    35
100
AcDbLine
 10
15.930359
 20
45.867393
 30
0.0
 11
15.930359
 21
46.867393
 31
0.0
  0
LINE
  5
368
330
1F
100
AcDbEntity
  8
0
 62
     7
370
    35
100
AcDbLine
 10
8.930359
 20
38.867393
 30
0.0
 11
8.930359
 21
37.867393
 31
0.0
  0
LINE
  5
369
330
1F
100
AcDbEntity
  8
0
 62
     7
370
    35
100
AcDbLine
 10
13.430359
 20
41.367393
 30
0.0
 11
11.430359
 21
41.367393
 31
0.0
  0
LINE
  5
36A
330
1F
100
AcDbEntity
  8
0
 62
     7
370
    35
100
AcDbLine
 10
15.930359
 20
37.867393
 30
0.0
 11
15.930359
 21
38.867393
 31
0.0
  0
LINE
  5
36B
330
1F
100
AcDbEntity
  8
0
 62
     7
370
    35
100
AcDbLine
 10
11.430359
 20
35.367393
 30
0.0
 11
13.430359
 21
35.367393
 31
0.0
  0
LINE
  5
36C
330
1F
100
AcDbEntity
  8
0
 62
     7
370
    35
100
AcDbLine
 10
8.230347
 20
93.967247
 30
0.0
 11
27.630371
 21
93.967247
 31
0.0
  0
LINE
  5
36D
330
1F
100
AcDbEntity
  8
0
 62
     7
370
    35
100
AcDbLine
 10
8.230347
 20
92.263878
 30
0.0
 11
8.230347
 21
93.967247
 31
0.0
  0
LINE
  5
36E
330
1F
100
AcDbEntity
  8
0
 62
     7
370
    35
100
AcDbLine
 10
27.680359
 20
31.867393
 30
0.0
 11
8.180359
 21
31.867393
 31
0.0
  0
LINE
  5
36F
330
1F
100
AcDbEntity
  8
0
 62
     7
370
    35
100
AcDbLine
 10
6.680359
 20
95.767296
 30
0.0
 11
6.680359
 21
86.118858
 31
0.0
  0
LINE
  5
370
330
1F
100
AcDbEntity
  8
0
 62
     7
370
    35
100
AcDbLine
 10
29.180359
 20
20.767296
 30
0.0
 11
29.180359
 21
28.321251
 31
0.0
  0
LINE
  5
371
330
1F
100
AcDbEntity
  8
0
 62
     7
370
    35
100
AcDbLine
 10
8.180359
 20
81.267296
 30
0.0
 11
25.430359
 21
81.267296
 31
0.0
  0
LINE
  5
372
330
1F
100
AcDbEntity
  8
0
 62
     7
370
    35
100
AcDbLine
 10
6.680359
 20
95.767296
 30
0.0
 11
7.530335
 21
95.767296
 31
0.0
  0
LINE
  5
373
330
1F
100
AcDbEntity
  8
0
 62
     7
370
    35
100
AcDbLine
 10
25.430359
 20
81.267296
 30
0.0
 11
27.680359
 21
81.267296
 31
0.0
  0
LINE
  5
374
330
1F
100
AcDbEntity
  8
0
 62
     7
370
    35
100
AcDbLine
 10
27.630371
 20
93.967247
 30
0.0
 11
28.330383
 21
93.967247
 31
0.0
  0
LINE
  5
375
330
1F
100
AcDbEntity
  8
0
 62
     7
370
    35
100
AcDbLine
 10
27.630371
 20
93.967247
 30
0.0
 11
27.630371
 21
87.967247
 31
0.0
  0
LINE
  5
376
330
1F
100
AcDbEntity
  8
0
 62
     7
370
    35
100
AcDbLine
 10
28.330383
 20
95.767296
 30
0.0
 11
28.330383
 21
93.967247
 31
0.0
  0
LINE
  5
377
330
1F
100
AcDbEntity
  8
0
 62
     7
370
    35
100
AcDbLine
 10
7.530335
 20
93.967247
 30
0.0
 11
7.530335
 21
95.767296
 31
0.0
  0
LINE
  5
378
330
1F
100
AcDbEntity
  8
0
 62
     7
370
    35
100
AcDbLine
 10
7.530335
 20
93.967247
 30
0.0
 11
8.230347
 21
93.967247
 31
0.0
  0
LINE
  5
379
330
1F
100
AcDbEntity
  8
0
 62
     7
370
    35
100
AcDbLine
 10
28.330383
 20
95.767296
 30
0.0
 11
29.180359
 21
95.767296
 31
0.0
  0
LINE
  5
37A
330
1F
100
AcDbEntity
  8
0
 62
     7
370
    35
100
AcDbLine
 10
7.530335
 20
84.267296
 30
0.0
 11
28.330383
 21
84.267296
 31
0.0
  0
LINE
  5
37B
330
1F
100
AcDbEntity
  8
0
 62
     7
370
    35
100
AcDbLine
 10
28.330383
 20
84.267296
 30
0.0
 11
29.180359
 21
84.267296
 31
0.0
  0
LINE
  5
37C
330
1F
100
AcDbEntity
  8
0
 62
     7
370
    35
100
AcDbLine
 10
29.180359
 20
85.267296
 30
0.0
 11
29.180359
 21
86.118858
 31
0.0
  0
LINE
  5
37D
330
1F
100
AcDbEntity
  8
0
 62
     7
370
    35
100
AcDbLine
 10
7.530335
 20
84.267296
 30
0.0
 11
6.680359
 21
84.267296
 31
0.0
  0
LINE
  5
37E
330
1F
100
AcDbEntity
  8
0
 62
     7
370
    35
100
AcDbLine
 10
6.680359
 20
85.267296
 30
0.0
 11
6.680359
 21
28.867393
 31
0.0
  0
LINE
  5
37F
330
1F
100
AcDbEntity
  8
0
 62
     7
370
    35
100
AcDbLine
 10
8.380371
 20
22.367393
 30
0.0
 11
17.930359
 21
22.367393
 31
0.0
  0
LINE
  5
380
330
1F
100
AcDbEntity
  8
0
 62
     7
370
    35
100
AcDbLine
 10
6.680359
 20
20.767296
 30
0.0
 11
17.930359
 21
20.767296
 31
0.0
  0
LINE
  5
381
330
1F
100
AcDbEntity
  8
0
 62
     7
370
    35
100
AcDbLine
 10
17.930359
 20
28.867393
 30
0.0
 11
6.680359
 21
28.867393
 31
0.0
  0
LINE
  5
382
330
1F
100
AcDbEntity
  8
0
 62
     7
370
    35
100
AcDbLine
 10
6.680359
 20
28.867393
 30
0.0
 11
6.680359
 21
28.321251
 31
0.0
  0
LINE
  5
383
330
1F
100
AcDbEntity
  8
0
 62
     7
370
    35
100
AcDbLine
 10
17.930359
 20
22.367393
 30
0.0
 11
27.480347
 21
22.367393
 31
0.0
  0
LINE
  5
384
330
1F
100
AcDbEntity
  8
0
 62
     7
370
    35
100
AcDbLine
 10
17.930359
 20
20.767296
 30
0.0
 11
29.180359
 21
20.767296
 31
0.0
  0
LINE
  5
385
330
1F
100
AcDbEntity
  8
0
 62
     7
370
    35
100
AcDbLine
 10
27.480347
 20
22.367393
 30
0.0
 11
27.480347
 21
27.469933
 31
0.0
  0
LINE
  5
386
330
1F
100
AcDbEntity
  8
0
 62
     7
370
    35
100
AcDbLine
 10
29.180359
 20
28.867393
 30
0.0
 11
17.930359
 21
28.867393
 31
0.0
  0
LINE
  5
387
330
1F
100
AcDbEntity
  8
0
 62
     7
370
    35
100
AcDbLine
 10
11.480347
 20
31.417198
 30
0.0
 11
12.980347
 21
31.417198
 31
0.0
  0
LINE
  5
388
330
1F
100
AcDbEntity
  8
0
 62
     7
370
    35
100
AcDbLine
 10
12.980347
 20
31.417198
 30
0.0
 11
12.980347
 21
29.717247
 31
0.0
  0
LINE
  5
389
330
1F
100
AcDbEntity
  8
0
 62
     7
370
    35
100
AcDbLine
 10
12.980347
 20
29.717247
 30
0.0
 11
11.480347
 21
29.717247
 31
0.0
  0
LINE
  5
38A
330
1F
100
AcDbEntity
  8
0
 62
     7
370
    35
100
AcDbLine
 10
11.480347
 20
29.717247
 30
0.0
 11
11.480347
 21
31.417198
 31
0.0
  0
LINE
  5
38B
330
1F
100
AcDbEntity
  8
0
 62
     7
370
    35
100
AcDbLine
 10
15.280335
 20
31.417198
 30
0.0
 11
15.280335
 21
29.717247
 31
0.0
  0
LINE
  5
38C
330
1F
100
AcDbEntity
  8
0
 62
     7
370
    35
100
AcDbLine
 10
16.780334
 20
29.717247
 30
0.0
 11
16.780334
 21
31.417198
 31
0.0
  0
LINE
  5
38D
330
1F
100
AcDbEntity
  8
0
 62
     7
370
    35
100
AcDbLine
 10
16.780334
 20
31.417198
 30
0.0
 11
15.280335
 21
31.417198
 31
0.0
  0
LINE
  5
38E
330
1F
100
AcDbEntity
  8
0
 62
     7
370
    35
100
AcDbLine
 10
15.280335
 20
29.717247
 30
0.0
 11
16.780334
 21
29.717247
 31
0.0
  0
LINE
  5
38F
330
1F
100
AcDbEntity
  8
0
 62
     7
370
    35
100
AcDbLine
 10
8.230347
 20
87.967247
 30
0.0
 11
27.630371
 21
87.967247
 31
0.0
  0
LINE
  5
390
330
1F
100
AcDbEntity
  8
0
 62
     7
370
    35
100
AcDbLine
 10
8.230347
 20
87.967247
 30
0.0
 11
8.230347
 21
89.670616
 31
0.0
  0
LINE
  5
391
330
1F
100
AcDbEntity
  8
0
 62
     7
370
    35
100
AcDbLine
 10
6.680359
 20
85.819054
 30
0.0
 11
29.180359
 21
85.819054
 31
0.0
  0
LINE
  5
392
330
1F
100
AcDbEntity
  8
0
 62
     7
370
    35
100
AcDbLine
 10
6.680359
 20
86.118858
 30
0.0
 11
6.680359
 21
85.267296
 31
0.0
  0
LINE
  5
393
330
1F
100
AcDbEntity
  8
0
 62
     7
370
    35
100
AcDbLine
 10
29.180359
 20
86.118858
 30
0.0
 11
29.180359
 21
95.767296
 31
0.0
  0
LINE
  5
394
330
1F
100
AcDbEntity
  8
0
 62
     7
370
    35
100
AcDbLine
 10
7.530335
 20
95.767296
 30
0.0
 11
28.330383
 21
95.767296
 31
0.0
  0
LINE
  5
395
330
1F
100
AcDbEntity
  8
0
 62
     7
370
    35
100
AcDbLine
 10
8.380371
 20
27.469933
 30
0.0
 11
27.480347
 21
27.469933
 31
0.0
  0
LINE
  5
396
330
1F
100
AcDbEntity
  8
0
 62
     7
370
    35
100
AcDbLine
 10
8.380371
 20
27.469933
 30
0.0
 11
8.380371
 21
22.367393
 31
0.0
  0
LINE
  5
397
330
1F
100
AcDbEntity
  8
0
 62
     7
370
    35
100
AcDbLine
 10
6.680359
 20
28.321251
 30
0.0
 11
29.180359
 21
28.321251
 31
0.0
  0
LINE
  5
398
330
1F
100
AcDbEntity
  8
0
 62
     7
370
    35
100
AcDbLine
 10
29.180359
 20
28.321251
 30
0.0
 11
29.180359
 21
85.267296
 31
0.0
  0
LINE
  5
399
330
1F
100
AcDbEntity
  8
0
 62
     7
370
    35
100
AcDbLine
 10
6.680359
 20
28.321251
 30
0.0
 11
6.680359
 21
20.767296
 31
0.0
  0
LINE
  5
39A
330
1F
100
AcDbEntity
  8
0
 62
     7
370
    35
100
AcDbLine
 10
7.680359
 20
32.367393
 30
0.0
 11
7.680359
 21
80.767296
 31
0.0
  0
LINE
  5
39B
330
1F
100
AcDbEntity
  8
0
 62
     7
370
    35
100
AcDbLine
 10
28.180359
 20
80.767296
 30
0.0
 11
28.180359
 21
32.367393
 31
0.0
  0
LINE
  5
39C
330
1F
100
AcDbEntity
  8
0
 62
     7
370
    35
100
AcDbLine
 10
29.180359
 20
108.232704
 30
0.0
 11
6.680359
 21
108.232704
 31
0.0
  0
LINE
  5
39D
330
1F
100
AcDbEntity
  8
0
 62
     7
370
    35
100
AcDbLine
 10
29.180359
 20
108.232704
 30
0.0
 11
29.180359
 21
208.232697
 31
0.0
  0
LINE
  5
39E
330
1F
100
AcDbEntity
  8
0
 62
     7
370
    35
100
AcDbLine
 10
29.180359
 20
208.232697
 30
0.0
 11
6.680359
 21
208.232697
 31
0.0
  0
LINE
  5
39F
330
1F
100
AcDbEntity
  8
0
 62
     7
370
    35
100
AcDbLine
 10
6.680359
 20
208.232697
 30
0.0
 11
6.680359
 21
108.232704
 31
0.0
  0
LINE
  5
3A0
330
1F
100
AcDbEntity
  8
0
 62
     7
370
    35
100
AcDbLine
 10
29.180359
 20
128.232697
 30
0.0
 11
28.330359
 21
128.232697
 31
0.0
  0
LINE
  5
3A1
330
1F
100
AcDbEntity
  8
0
 62
     7
370
    35
100
AcDbLine
 10
28.330359
 20
128.232697
 30
0.0
 11
28.330359
 21
115.232704
 31
0.0
  0
LINE
  5
3A2
330
1F
100
AcDbEntity
  8
0
 62
     7
370
    35
100
AcDbLine
 10
28.330359
 20
115.232704
 30
0.0
 11
7.530359
 21
115.232704
 31
0.0
  0
LINE
  5
3A3
330
1F
100
AcDbEntity
  8
0
 62
     7
370
    35
100
AcDbLine
 10
7.530359
 20
115.232704
 30
0.0
 11
7.530359
 21
128.232697
 31
0.0
  0
LINE
  5
3A4
330
1F
100
AcDbEntity
  8
0
 62
     7
370
    35
100
AcDbLine
 10
7.530359
 20
128.232697
 30
0.0
 11
6.680359
 21
128.232697
 31
0.0
  0
LINE
  5
3A5
330
1F
100
AcDbEntity
  8
0
 62
     7
370
    35
100
AcDbLine
 10
7.530359
 20
123.832703
 30
0.0
 11
28.330383
 21
123.832703
 31
0.0
  0
LINE
  5
3A6
330
1F
100
AcDbEntity
  8
0
 62
     7
370
    35
100
AcDbLine
 10
28.330383
 20
108.232704
 30
0.0
 11
28.330383
 21
110.281075
 31
0.0
  0
LINE
  5
3A7
330
1F
100
AcDbEntity
  8
0
 62
     7
370
    35
100
AcDbLine
 10
28.330383
 20
110.281075
 30
0.0
 11
7.530335
 21
110.281075
 31
0.0
  0
LINE
  5
3A8
330
1F
100
AcDbEntity
  8
0
 62
     7
370
    35
100
AcDbLine
 10
7.530335
 20
110.281075
 30
0.0
 11
7.530335
 21
108.232704
 31
0.0
  0
LINE
  5
3A9
330
1F
100
AcDbEntity
  8
0
 62
     7
370
    35
100
AcDbLine
 10
28.330383
 20
108.970871
 30
0.0
 11
7.530335
 21
108.970871
 31
0.0
  0
LINE
  5
3AA
330
1F
100
AcDbEntity
  8
0
 62
     7
370
    35
100
AcDbLine
 10
8.230347
 20
108.970871
 30
0.0
 11
8.230347
 21
108.232704
 31
0.0
  0
LINE
  5
3AB
330
1F
100
AcDbEntity
  8
0
 62
     7
370
    35
100
AcDbLine
 10
27.630371
 20
108.970871
 30
0.0
 11
27.630371
 21
108.232704
 31
0.0
  0
LINE
  5
3AC
330
1F
100
AcDbEntity
  8
0
 62
     7
370
    35
100
AcDbLine
 10
23.480358
 20
122.07592
 30
0.0
 11
26.780359
 21
122.07592
 31
0.0
  0
LINE
  5
3AD
330
1F
100
AcDbEntity
  8
0
 62
     7
370
    35
100
AcDbLine
 10
26.780359
 20
117.07592
 30
0.0
 11
26.780359
 21
122.07592
 31
0.0
  0
LINE
  5
3AE
330
1F
100
AcDbEntity
  8
0
 62
     7
370
    35
100
AcDbLine
 10
26.780359
 20
117.07592
 30
0.0
 11
23.480358
 21
117.07592
 31
0.0
  0
LINE
  5
3AF
330
1F
100
AcDbEntity
  8
0
 62
     7
370
    35
100
AcDbLine
 10
23.480358
 20
122.07592
 30
0.0
 11
23.480358
 21
117.07592
 31
0.0
  0
LINE
  5
3B0
330
1F
100
AcDbEntity
  8
0
 62
     7
370
    35
100
AcDbLine
 10
18.680359
 20
122.07592
 30
0.0
 11
21.980358
 21
122.07592
 31
0.0
  0
LINE
  5
3B1
330
1F
100
AcDbEntity
  8
0
 62
     7
370
    35
100
AcDbLine
 10
21.980358
 20
117.07592
 30
0.0
 11
21.980358
 21
122.07592
 31
0.0
  0
LINE
  5
3B2
330
1F
100
AcDbEntity
  8
0
 62
     7
370
    35
100
AcDbLine
 10
21.980358
 20
117.07592
 30
0.0
 11
18.680359
 21
117.07592
 31
0.0
  0
LINE
  5
3B3
330
1F
100
AcDbEntity
  8
0
 62
     7
370
    35
100
AcDbLine
 10
18.680359
 20
122.07592
 30
0.0
 11
18.680359
 21
117.07592
 31
0.0
  0
LINE
  5
3B4
330
1F
100
AcDbEntity
  8
0
 62
     7
370
    35
100
AcDbLine
 10
13.880359
 20
117.07592
 30
0.0
 11
17.180359
 21
117.07592
 31
0.0
  0
LINE
  5
3B5
330
1F
100
AcDbEntity
  8
0
 62
     7
370
    35
100
AcDbLine
 10
17.180359
 20
122.07592
 30
0.0
 11
17.180359
 21
117.07592
 31
0.0
  0
LINE
  5
3B6
330
1F
100
AcDbEntity
  8
0
 62
     7
370
    35
100
AcDbLine
 10
13.880359
 20
117.07592
 30
0.0
 11
13.880359
 21
122.07592
 31
0.0
  0
LINE
  5
3B7
330
1F
100
AcDbEntity
  8
0
 62
     7
370
    35
100
AcDbLine
 10
17.180359
 20
122.07592
 30
0.0
 11
13.880359
 21
122.07592
 31
0.0
  0
LINE
  5
3B8
330
1F
100
AcDbEntity
  8
0
 62
     7
370
    35
100
AcDbLine
 10
9.080359
 20
117.07592
 30
0.0
 11
12.380359
 21
117.07592
 31
0.0
  0
LINE
  5
3B9
330
1F
100
AcDbEntity
  8
0
 62
     7
370
    35
100
AcDbLine
 10
12.380359
 20
122.07592
 30
0.0
 11
12.380359
 21
117.07592
 31
0.0
  0
LINE
  5
3BA
330
1F
100
AcDbEntity
  8
0
 62
     7
370
    35
100
AcDbLine
 10
9.080359
 20
117.07592
 30
0.0
 11
9.080359
 21
122.07592
 31
0.0
  0
LINE
  5
3BB
330
1F
100
AcDbEntity
  8
0
 62
     7
370
    35
100
AcDbLine
 10
12.380359
 20
122.07592
 30
0.0
 11
9.080359
 21
122.07592
 31
0.0
  0
LINE
  5
3BC
330
1F
100
AcDbEntity
  8
0
 62
     7
370
    35
100
AcDbLine
 10
24.13036
 20
121.188148
 30
0.0
 11
26.13036
 21
121.188148
 31
0.0
  0
LINE
  5
3BD
330
1F
100
AcDbEntity
  8
0
 62
     7
370
    35
100
AcDbLine
 10
26.13036
 20
119.188148
 30
0.0
 11
26.13036
 21
121.188148
 31
0.0
  0
LINE
  5
3BE
330
1F
100
AcDbEntity
  8
0
 62
     7
370
    35
100
AcDbLine
 10
26.13036
 20
119.188148
 30
0.0
 11
24.13036
 21
119.188148
 31
0.0
  0
LINE
  5
3BF
330
1F
100
AcDbEntity
  8
0
 62
     7
370
    35
100
AcDbLine
 10
24.13036
 20
121.188148
 30
0.0
 11
24.13036
 21
119.188148
 31
0.0
  0
LINE
  5
3C0
330
1F
100
AcDbEntity
  8
0
 62
     7
370
    35
100
AcDbLine
 10
21.332996
 20
121.188148
 30
0.0
 11
19.332996
 21
121.188148
 31
0.0
  0
LINE
  5
3C1
330
1F
100
AcDbEntity
  8
0
 62
     7
370
    35
100
AcDbLine
 10
19.332996
 20
119.188148
 30
0.0
 11
19.332996
 21
121.188148
 31
0.0
  0
LINE
  5
3C2
330
1F
100
AcDbEntity
  8
0
 62
     7
370
    35
100
AcDbLine
 10
19.332996
 20
119.188148
 30
0.0
 11
21.332996
 21
119.188148
 31
0.0
  0
LINE
  5
3C3
330
1F
100
AcDbEntity
  8
0
 62
     7
370
    35
100
AcDbLine
 10
21.332996
 20
121.188148
 30
0.0
 11
21.332996
 21
119.188148
 31
0.0
  0
LINE
  5
3C4
330
1F
100
AcDbEntity
  8
0
 62
     7
370
    35
100
AcDbLine
 10
14.527719
 20
121.188148
 30
0.0
 11
16.527719
 21
121.188148
 31
0.0
  0
LINE
  5
3C5
330
1F
100
AcDbEntity
  8
0
 62
     7
370
    35
100
AcDbLine
 10
16.527719
 20
119.188148
 30
0.0
 11
16.527719
 21
121.188148
 31
0.0
  0
LINE
  5
3C6
330
1F
100
AcDbEntity
  8
0
 62
     7
370
    35
100
AcDbLine
 10
16.527719
 20
119.188148
 30
0.0
 11
14.527719
 21
119.188148
 31
0.0
  0
LINE
  5
3C7
330
1F
100
AcDbEntity
  8
0
 62
     7
370
    35
100
AcDbLine
 10
14.527719
 20
121.188148
 30
0.0
 11
14.527719
 21
119.188148
 31
0.0
  0
LINE
  5
3C8
330
1F
100
AcDbEntity
  8
0
 62
     7
370
    35
100
AcDbLine
 10
11.730359
 20
121.188148
 30
0.0
 11
9.730359
 21
121.188148
 31
0.0
  0
LINE
  5
3C9
330
1F
100
AcDbEntity
  8
0
 62
     7
370
    35
100
AcDbLine
 10
9.730359
 20
119.188148
 30
0.0
 11
9.730359
 21
121.188148
 31
0.0
  0
LINE
  5
3CA
330
1F
100
AcDbEntity
  8
0
 62
     7
370
    35
100
AcDbLine
 10
9.730359
 20
119.188148
 30
0.0
 11
11.730359
 21
119.188148
 31
0.0
  0
LINE
  5
3CB
330
1F
100
AcDbEntity
  8
0
 62
     7
370
    35
100
AcDbLine
 10
11.730359
 20
121.188148
 30
0.0
 11
11.730359
 21
119.188148
 31
0.0
  0
LINE
  5
3CC
330
1F
100
AcDbEntity
  8
0
 62
     7
370
    35
100
AcDbLine
 10
25.980358
 20
189.88269
 30
0.0
 11
25.980358
 21
177.182678
 31
0.0
  0
LINE
  5
3CD
330
1F
100
AcDbEntity
  8
0
 62
     7
370
    35
100
AcDbLine
 10
23.680359
 20
177.182709
 30
0.0
 11
23.680359
 21
189.882721
 31
0.0
  0
ARC
  5
3CE
330
1F
100
AcDbEntity
  8
0
 62
     7
370
    35
100
AcDbCircle
 10
24.830359
 20
177.182709
 30
0.0
 40
1.149999976158142
100
AcDbArc
 50
180.000009
 51
359.9993
  0
ARC
  5
3CF
330
1F
100
AcDbEntity
  8
0
 62
     7
370
    35
100
AcDbCircle
 10
24.830359
 20
189.88269
 30
0.0
 40
1.149999976158142
100
AcDbArc
 50
359.999382
 51
179.999445
  0
LINE
  5
3D0
330
1F
100
AcDbEntity
  8
0
 62
     7
370
    35
100
AcDbLine
 10
7.530359
 20
116.5327
 30
0.0
 11
28.330359
 21
116.5327
 31
0.0
  0
LINE
  5
3D1
330
1F
100
AcDbEntity
  8
0
 62
     7
370
    35
100
AcDbLine
 10
19.080359
 20
189.88269
 30
0.0
 11
19.080359
 21
177.182678
 31
0.0
  0
LINE
  5
3D2
330
1F
100
AcDbEntity
  8
0
 62
     7
370
    35
100
AcDbLine
 10
21.38036
 20
177.182709
 30
0.0
 11
21.38036
 21
189.882721
 31
0.0
  0
ARC
  5
3D3
330
1F
100
AcDbEntity
  8
0
 62
     7
370
    35
100
AcDbCircle
 10
20.230358
 20
177.182709
 30
0.0
 40
1.149999976158142
100
AcDbArc
 50
180.000719
 51
360.0
  0
ARC
  5
3D4
330
1F
100
AcDbEntity
  8
0
 62
     7
370
    35
100
AcDbCircle
 10
20.230358
 20
189.88269
 30
0.0
 40
1.149999976158142
100
AcDbArc
 50
0.000556
 51
180.00061
  0
ARC
  5
3D5
330
1F
100
AcDbEntity
  8
0
 62
     7
370
    35
100
AcDbCircle
 10
15.630359
 20
189.88269
 30
0.0
 40
1.149999976158142
100
AcDbArc
 50
359.999382
 51
179.999445
  0
LINE
  5
3D6
330
1F
100
AcDbEntity
  8
0
 62
     7
370
    35
100
AcDbLine
 10
16.780359
 20
189.88269
 30
0.0
 11
16.780359
 21
177.182678
 31
0.0
  0
LINE
  5
3D7
330
1F
100
AcDbEntity
  8
0
 62
     7
370
    35
100
AcDbLine
 10
14.480359
 20
177.182709
 30
0.0
 11
14.480359
 21
189.882721
 31
0.0
  0
ARC
  5
3D8
330
1F
100
AcDbEntity
  8
0
 62
     7
370
    35
100
AcDbCircle
 10
15.630359
 20
177.182709
 30
0.0
 40
1.149999976158142
100
AcDbArc
 50
180.000009
 51
359.9993
  0
LINE
  5
3D9
330
1F
100
AcDbEntity
  8
0
 62
     7
370
    35
100
AcDbLine
 10
25.980358
 20
159.882721
 30
0.0
 11
25.980358
 21
172.582703
 31
0.0
  0
ARC
  5
3DA
330
1F
100
AcDbEntity
  8
0
 62
     7
370
    35
100
AcDbCircle
 10
24.830359
 20
159.88269
 30
0.0
 40
1.149999976158142
100
AcDbArc
 50
180.000555
 51
0.000611
  0
LINE
  5
3DB
330
1F
100
AcDbEntity
  8
0
 62
     7
370
    35
100
AcDbLine
 10
23.680359
 20
172.582703
 30
0.0
 11
23.680359
 21
159.88269
 31
0.0
  0
ARC
  5
3DC
330
1F
100
AcDbEntity
  8
0
 62
     7
370
    35
100
AcDbCircle
 10
24.830359
 20
172.582703
 30
0.0
 40
1.149999976158142
100
AcDbArc
 50
0.000709
 51
180.000009
  0
LINE
  5
3DD
330
1F
100
AcDbEntity
  8
0
 62
     7
370
    35
100
AcDbLine
 10
21.38036
 20
172.582703
 30
0.0
 11
21.38036
 21
159.88269
 31
0.0
  0
ARC
  5
3DE
330
1F
100
AcDbEntity
  8
0
 62
     7
370
    35
100
AcDbCircle
 10
20.230358
 20
159.88269
 30
0.0
 40
1.149999976158142
100
AcDbArc
 50
179.99939
 51
359.999436
  0
LINE
  5
3DF
330
1F
100
AcDbEntity
  8
0
 62
     7
370
    35
100
AcDbLine
 10
19.080359
 20
159.882721
 30
0.0
 11
19.080359
 21
172.582703
 31
0.0
  0
ARC
  5
3E0
330
1F
100
AcDbEntity
  8
0
 62
     7
370
    35
100
AcDbCircle
 10
20.230358
 20
172.582703
 30
0.0
 40
1.149999976158142
100
AcDbArc
 50
0.0
 51
179.999295
  0
ARC
  5
3E1
330
1F
100
AcDbEntity
  8
0
 62
     7
370
    35
100
AcDbCircle
 10
15.630359
 20
172.582703
 30
0.0
 40
1.149999976158142
100
AcDbArc
 50
0.000709
 51
180.000009
  0
LINE
  5
3E2
330
1F
100
AcDbEntity
  8
0
 62
     7
370
    35
100
AcDbLine
 10
16.780359
 20
159.882721
 30
0.0
 11
16.780359
 21
172.582703
 31
0.0
  0
LINE
  5
3E3
330
1F
100
AcDbEntity
  8
0
 62
     7
370
    35
100
AcDbLine
 10
14.480359
 20
172.582703
 30
0.0
 11
14.480359
 21
159.88269
 31
0.0
  0
ARC
  5
3E4
330
1F
100
AcDbEntity
  8
0
 62
     7
370
    35
100
AcDbCircle
 10
15.630359
 20
159.88269
 30
0.0
 40
1.149999976158142
100
AcDbArc
 50
180.000555
 51
0.000611
  0
LINE
  5
3E5
330
1F
100
AcDbEntity
  8
0
 62
     7
370
    35
100
AcDbLine
 10
25.980358
 20
155.282684
 30
0.0
 11
25.980358
 21
142.582703
 31
0.0
  0
ARC
  5
3E6
330
1F
100
AcDbEntity
  8
0
 62
     7
370
    35
100
AcDbCircle
 10
24.830359
 20
155.282715
 30
0.0
 40
1.149999976158142
100
AcDbArc
 50
359.999382
 51
179.999445
  0
LINE
  5
3E7
330
1F
100
AcDbEntity
  8
0
 62
     7
370
    35
100
AcDbLine
 10
23.680359
 20
142.582703
 30
0.0
 11
23.680359
 21
155.282715
 31
0.0
  0
ARC
  5
3E8
330
1F
100
AcDbEntity
  8
0
 62
     7
370
    35
100
AcDbCircle
 10
24.830359
 20
142.582703
 30
0.0
 40
1.149999976158142
100
AcDbArc
 50
180.000009
 51
359.9993
  0
LINE
  5
3E9
330
1F
100
AcDbEntity
  8
0
 62
     7
370
    35
100
AcDbLine
 10
21.38036
 20
142.582703
 30
0.0
 11
21.38036
 21
155.282715
 31
0.0
  0
ARC
  5
3EA
330
1F
100
AcDbEntity
  8
0
 62
     7
370
    35
100
AcDbCircle
 10
20.230358
 20
155.282715
 30
0.0
 40
1.149999976158142
100
AcDbArc
 50
0.000556
 51
180.00061
  0
LINE
  5
3EB
330
1F
100
AcDbEntity
  8
0
 62
     7
370
    35
100
AcDbLine
 10
19.080359
 20
155.282684
 30
0.0
 11
19.080359
 21
142.582703
 31
0.0
  0
ARC
  5
3EC
330
1F
100
AcDbEntity
  8
0
 62
     7
370
    35
100
AcDbCircle
 10
20.230358
 20
142.582703
 30
0.0
 40
1.149999976158142
100
AcDbArc
 50
180.000719
 51
360.0
  0
ARC
  5
3ED
330
1F
100
AcDbEntity
  8
0
 62
     7
370
    35
100
AcDbCircle
 10
15.630359
 20
142.582703
 30
0.0
 40
1.149999976158142
100
AcDbArc
 50
180.000009
 51
359.9993
  0
LINE
  5
3EE
330
1F
100
AcDbEntity
  8
0
 62
     7
370
    35
100
AcDbLine
 10
16.780359
 20
155.282684
 30
0.0
 11
16.780359
 21
142.582703
 31
0.0
  0
LINE
  5
3EF
330
1F
100
AcDbEntity
  8
0
 62
     7
370
    35
100
AcDbLine
 10
14.480359
 20
142.582703
 30
0.0
 11
14.480359
 21
155.282715
 31
0.0
  0
ARC
  5
3F0
330
1F
100
AcDbEntity
  8
0
 62
     7
370
    35
100
AcDbCircle
 10
15.630359
 20
155.282715
 30
0.0
 40
1.149999976158142
100
AcDbArc
 50
359.999382
 51
179.999445
  0
ENDSEC
  0
SECTION
  2
OBJECTS
  0
DICTIONARY
  5
C
330
0
100
AcDbDictionary
281
     1
  3
ACAD_GROUP
350
D
  3
ACAD_LAYOUT
350
1A
  3
ACAD_MLINESTYLE
350
17
  3
ACAD_PLOTSETTINGS
350
19
  3
ACAD_PLOTSTYLENAME
350
E
  3
ACAD_SCALELIST
350
47
  0
DICTIONARY
  5
D
102
{ACAD_REACTORS
330
C
102
}
330
C
100
AcDbDictionary
281
     1
  0
DICTIONARY
  5
1A
102
{ACAD_REACTORS
330
C
102
}
330
C
100
AcDbDictionary
281
     1
  3
Layout1
350
1E
  3
Layout2
350
26
  3
Model
350
22
  0
DICTIONARY
  5
17
102
{ACAD_REACTORS
330
C
102
}
330
C
100
AcDbDictionary
281
     1
  3
Standard
350
18
  0
DICTIONARY
  5
19
102
{ACAD_REACTORS
330
C
102
}
330
C
100
AcDbDictionary
281
     1
  0
ACDBDICTIONARYWDFLT
  5
E
102
{ACAD_REACTORS
330
C
102
}
330
C
100
AcDbDictionary
281
     1
  3
Normal
350
F
100
AcDbDictionaryWithDefault
340
F
  0
DICTIONARY
  5
47
102
{ACAD_REACTORS
330
C
102
}
330
C
100
AcDbDictionary
281
     1
  3
A0
350
48
  3
A1
350
49
  3
A2
350
4A
  3
A3
350
4B
  3
A4
350
4C
  3
A5
350
4D
  3
A6
350
4E
  3
A7
350
4F
  3
A8
350
50
  3
A9
350
51
  3
B0
350
52
  3
B1
350
53
  3
B2
350
54
  3
B3
350
55
  3
B4
350
56
  3
B5
350
57
  3
B6
350
58
  3
B7
350
59
  3
B8
350
5A
  3
B9
350
5B
  3
C0
350
5C
  3
C1
350
5D
  3
C2
350
5E
  3
C3
350
5F
  3
C4
350
60
  3
C5
350
61
  3
C6
350
62
  3
C7
350
63
  3
C8
350
64
  3
C9
350
65
  3
D0
350
66
  3
D1
350
67
  3
D2
350
68
  0
LAYOUT
  5
1E
102
{ACAD_REACTORS
330
1A
102
}
330
1A
100
AcDbPlotSettings
  1

  2
none_device
  4

  6

 40
0.0
 41
0.0
 42
0.0
 43
0.0
 44
0.0
 45
0.0
 46
0.0
 47
0.0
 48
0.0
 49
0.0
140
0.0
141
0.0
142
1.0
143
1.0
 70
  4784
 72
     0
 73
     0
 74
     5
  7

 75
    16
147
1.0
148
0.0
149
0.0
100
AcDbLayout
  1
Layout1
 70
     1
 71
     1
 10
0.0
 20
0.0
 11
420.0
 21
297.0
 12
0.0
 22
0.0
 32
0.0
 14
0.0
 24
0.0
 34
0.0
 15
155.319641
 25
208.232697
 35
2.0
146
0.0
 13
0.0
 23
0.0
 33
0.0
 16
1.0
 26
0.0
 36
0.0
 17
0.0
 27
1.0
 37
0.0
 76
     0
330
1B
  0
LAYOUT
  5
26
102
{ACAD_REACTORS
330
1A
102
}
330
1A
100
AcDbPlotSettings
  1

  2
none_device
  4

  6

 40
0.0
 41
0.0
 42
0.0
 43
0.0
 44
0.0
 45
0.0
 46
0.0
 47
0.0
 48
0.0
 49
0.0
140
0.0
141
0.0
142
1.0
143
1.0
 70
  4784
 72
     0
 73
     0
 74
     5
  7

 75
    16
147
1.0
148
0.0
149
0.0
100
AcDbLayout
  1
Layout2
 70
     1
 71
     2
 10
0.0
 20
0.0
 11
0.0
 21
0.0
 12
0.0
 22
0.0
 32
0.0
 14
0.0
 24
0.0
 34
0.0
 15
0.0
 25
0.0
 35
0.0
146
0.0
 13
0.0
 23
0.0
 33
0.0
 16
1.0
 26
0.0
 36
0.0
 17
0.0
 27
1.0
 37
0.0
 76
     0
330
23
  0
LAYOUT
  5
22
102
{ACAD_REACTORS
330
1A
102
}
330
1A
100
AcDbPlotSettings
  1

  2
none_device
  4
Letter_(8.50_x_11.00_Inches)
  6

 40
6.35
 41
6.35
 42
6.350005
 43
6.350005
 44
215.9
 45
279.4
 46
0.0
 47
0.0
 48
0.0
 49
0.0
140
0.0
141
0.0
142
1.0
143
1.0
 70
  5808
 72
     0
 73
     0
 74
     0
  7

 75
     0
147
1.0
148
0.0
149
0.0
100
AcDbLayout
  1
Model
 70
     1
 71
     0
 10
0.0
 20
0.0
 11
420.0
 21
297.0
 12
0.0
 22
0.0
 32
0.0
 14
0.0
 24
0.0
 34
0.0
 15
155.319641
 25
208.232697
 35
2.0
146
0.0
 13
0.0
 23
0.0
 33
0.0
 16
1.0
 26
0.0
 36
0.0
 17
0.0
 27
1.0
 37
0.0
 76
     0
330
1F
331
29
  0
MLINESTYLE
  5
18
102
{ACAD_REACTORS
330
17
102
}
330
17
100
AcDbMlineStyle
  2
Standard
 70
     0
  3

 62
   256
 51
90.0
 52
90.0
 71
     2
 49
0.5
 62
   256
  6
BYLAYER
 49
-0.5
 62
   256
  6
BYLAYER
  0
ACDBPLACEHOLDER
  5
F
102
{ACAD_REACTORS
330
E
102
}
330
E
  0
SCALE
  5
48
102
{ACAD_REACTORS
330
47
102
}
330
47
100
AcDbScale
 70
     0
300
1:1
140
1.0
141
1.0
290
     1
  0
SCALE
  5
49
102
{ACAD_REACTORS
330
47
102
}
330
47
100
AcDbScale
 70
     0
300
1:2
140
1.0
141
2.0
290
     0
  0
SCALE
  5
4A
102
{ACAD_REACTORS
330
47
102
}
330
47
100
AcDbScale
 70
     0
300
1:4
140
1.0
141
4.0
290
     0
  0
SCALE
  5
4B
102
{ACAD_REACTORS
330
47
102
}
330
47
100
AcDbScale
 70
     0
300
1:5
140
1.0
141
5.0
290
     0
  0
SCALE
  5
4C
102
{ACAD_REACTORS
330
47
102
}
330
47
100
AcDbScale
 70
     0
300
1:8
140
1.0
141
8.0
290
     0
  0
SCALE
  5
4D
102
{ACAD_REACTORS
330
47
102
}
330
47
100
AcDbScale
 70
     0
300
1:10
140
1.0
141
10.0
290
     0
  0
SCALE
  5
4E
102
{ACAD_REACTORS
330
47
102
}
330
47
100
AcDbScale
 70
     0
300
1:16
140
1.0
141
16.0
290
     0
  0
SCALE
  5
4F
102
{ACAD_REACTORS
330
47
102
}
330
47
100
AcDbScale
 70
     0
300
1:20
140
1.0
141
20.0
290
     0
  0
SCALE
  5
50
102
{ACAD_REACTORS
330
47
102
}
330
47
100
AcDbScale
 70
     0
300
1:30
140
1.0
141
30.0
290
     0
  0
SCALE
  5
51
102
{ACAD_REACTORS
330
47
102
}
330
47
100
AcDbScale
 70
     0
300
1:40
140
1.0
141
40.0
290
     0
  0
SCALE
  5
52
102
{ACAD_REACTORS
330
47
102
}
330
47
100
AcDbScale
 70
     0
300
1:50
140
1.0
141
50.0
290
     0
  0
SCALE
  5
53
102
{ACAD_REACTORS
330
47
102
}
330
47
100
AcDbScale
 70
     0
300
1:100
140
1.0
141
100.0
290
     0
  0
SCALE
  5
54
102
{ACAD_REACTORS
330
47
102
}
330
47
100
AcDbScale
 70
     0
300
2:1
140
2.0
141
1.0
290
     0
  0
SCALE
  5
55
102
{ACAD_REACTORS
330
47
102
}
330
47
100
AcDbScale
 70
     0
300
4:1
140
4.0
141
1.0
290
     0
  0
SCALE
  5
56
102
{ACAD_REACTORS
330
47
102
}
330
47
100
AcDbScale
 70
     0
300
8:1
140
8.0
141
1.0
290
     0
  0
SCALE
  5
57
102
{ACAD_REACTORS
330
47
102
}
330
47
100
AcDbScale
 70
     0
300
10:1
140
10.0
141
1.0
290
     0
  0
SCALE
  5
58
102
{ACAD_REACTORS
330
47
102
}
330
47
100
AcDbScale
 70
     0
300
100:1
140
100.0
141
1.0
290
     0
  0
SCALE
  5
59
102
{ACAD_REACTORS
330
47
102
}
330
47
100
AcDbScale
 70
     0
300
1/128" = 1'-0"
140
0.007812
141
12.0
290
     0
  0
SCALE
  5
5A
102
{ACAD_REACTORS
330
47
102
}
330
47
100
AcDbScale
 70
     0
300
1/64" = 1'-0"
140
0.015625
141
12.0
290
     0
  0
SCALE
  5
5B
102
{ACAD_REACTORS
330
47
102
}
330
47
100
AcDbScale
 70
     0
300
1/32" = 1'-0"
140
0.03125
141
12.0
290
     0
  0
SCALE
  5
5C
102
{ACAD_REACTORS
330
47
102
}
330
47
100
AcDbScale
 70
     0
300
1/16" = 1'-0"
140
0.0625
141
12.0
290
     0
  0
SCALE
  5
5D
102
{ACAD_REACTORS
330
47
102
}
330
47
100
AcDbScale
 70
     0
300
3/32" = 1'-0"
140
0.09375
141
12.0
290
     0
  0
SCALE
  5
5E
102
{ACAD_REACTORS
330
47
102
}
330
47
100
AcDbScale
 70
     0
300
1/8" = 1'-0"
140
0.125
141
12.0
290
     0
  0
SCALE
  5
5F
102
{ACAD_REACTORS
330
47
102
}
330
47
100
AcDbScale
 70
     0
300
3/16" = 1'-0"
140
0.1875
141
12.0
290
     0
  0
SCALE
  5
60
102
{ACAD_REACTORS
330
47
102
}
330
47
100
AcDbScale
 70
     0
300
1/4" = 1'-0"
140
0.25
141
12.0
290
     0
  0
SCALE
  5
61
102
{ACAD_REACTORS
330
47
102
}
330
47
100
AcDbScale
 70
     0
300
3/8" = 1'-0"
140
0.375
141
12.0
290
     0
  0
SCALE
  5
62
102
{ACAD_REACTORS
330
47
102
}
330
47
100
AcDbScale
 70
     0
300
1/2" = 1'-0"
140
0.5
141
12.0
290
     0
  0
SCALE
  5
63
102
{ACAD_REACTORS
330
47
102
}
330
47
100
AcDbScale
 70
     0
300
3/4" = 1'-0"
140
0.75
141
12.0
290
     0
  0
SCALE
  5
64
102
{ACAD_REACTORS
330
47
102
}
330
47
100
AcDbScale
 70
     0
300
1" = 1'-0"
140
1.0
141
12.0
290
     0
  0
SCALE
  5
65
102
{ACAD_REACTORS
330
47
102
}
330
47
100
AcDbScale
 70
     0
300
1-1/2" = 1'-0"
140
1.5
141
12.0
290
     0
  0
SCALE
  5
66
102
{ACAD_REACTORS
330
47
102
}
330
47
100
AcDbScale
 70
     0
300
3" = 1'-0"
140
3.0
141
12.0
290
     0
  0
SCALE
  5
67
102
{ACAD_REACTORS
330
47
102
}
330
47
100
AcDbScale
 70
     0
300
6" = 1'-0"
140
6.0
141
12.0
290
     0
  0
SCALE
  5
68
102
{ACAD_REACTORS
330
47
102
}
330
47
100
AcDbScale
 70
     0
300
1'-0" = 1'-0"
140
12.0
141
12.0
290
     0
  0
ENDSEC
  0
EOF
