  0
SECTION
  2
HEADER
  9
$ACADVER
  1
AC1015
  9
$ACADMAINTVER
 70
    18
  9
$DWGCODEPAGE
  3
ANSI_932
  9
$INSBASE
 10
0.0
 20
0.0
 30
0.0
  9
$EXTMIN
 10
73.49035165580834
 20
76.73603013843545
 30
0.0
  9
$EXTMAX
 10
324.9502553449269
 20
209.8656244832719
 30
0.0
  9
$LIMMIN
 10
0.0
 20
0.0
  9
$LIMMAX
 10
420.0
 20
297.0
  9
$ORTHOMODE
 70
     1
  9
$REGENMODE
 70
     1
  9
$FILLMODE
 70
     1
  9
$QTEXTMODE
 70
     0
  9
$MIRRTEXT
 70
     0
  9
$LTSCALE
 40
5.0
  9
$ATTMODE
 70
     1
  9
$TEXTSIZE
 40
3.0
  9
$TRACEWID
 40
0.05
  9
$TEXTSTYLE
  7
STANDARD
  9
$CLAYER
  8
0
  9
$CELTYPE
  6
CONTINUOUS
  9
$CECOLOR
 62
   256
  9
$CELTSCALE
 40
1.0
  9
$DISPSILH
 70
     0
  9
$DIMSCALE
 40
1.0
  9
$DIMASZ
 40
2.0
  9
$DIMEXO
 40
1.0
  9
$DIMDLI
 40
6.0
  9
$DIMRND
 40
0.0
  9
$DIMDLE
 40
0.0
  9
$DIMEXE
 40
2.0
  9
$DIMTP
 40
495.0
  9
$DIMTM
 40
0.0
  9
$DIMTXT
 40
3.0
  9
$DIMCEN
 40
0.0
  9
$DIMTSZ
 40
0.0
  9
$DIMTOL
 70
     0
  9
$DIMLIM
 70
     0
  9
$DIMTIH
 70
     0
  9
$DIMTOH
 70
     0
  9
$DIMSE1
 70
     0
  9
$DIMSE2
 70
     0
  9
$DIMTAD
 70
     3
  9
$DIMZIN
 70
     8
  9
$DIMBLK
  1
ARROW
  9
$DIMASO
 70
     1
  9
$DIMSHO
 70
     0
  9
$DIMPOST
  1

  9
$DIMAPOST
  1

  9
$DIMALT
 70
     0
  9
$DIMALTD
 70
     2
  9
$DIMALTF
 40
25.4
  9
$DIMLFAC
 40
1.0
  9
$DIMTOFL
 70
     1
  9
$DIMTVP
 40
0.0
  9
$DIMTIX
 70
     1
  9
$DIMSOXD
 70
     0
  9
$DIMSAH
 70
     1
  9
$DIMBLK1
  1
OPEN
  9
$DIMBLK2
  1
OPEN
  9
$DIMSTYLE
  2
IMAO
  9
$DIMCLRD
 70
     0
  9
$DIMCLRE
 70
     0
  9
$DIMCLRT
 70
     0
  9
$DIMTFAC
 40
1.0
  9
$DIMGAP
 40
1.0
  9
$DIMJUST
 70
     0
  9
$DIMSD1
 70
     0
  9
$DIMSD2
 70
     0
  9
$DIMTOLJ
 70
     1
  9
$DIMTZIN
 70
     0
  9
$DIMALTZ
 70
     0
  9
$DIMALTTZ
 70
     0
  9
$DIMUPT
 70
     1
  9
$DIMDEC
 70
     4
  9
$DIMTDEC
 70
     4
  9
$DIMALTU
 70
     2
  9
$DIMALTTD
 70
     2
  9
$DIMTXSTY
  7
STANDARD
  9
$DIMAUNIT
 70
     0
  9
$DIMADEC
 70
     0
  9
$DIMALTRND
 40
0.0
  9
$DIMAZIN
 70
     0
  9
$DIMDSEP
 70
    46
  9
$DIMATFIT
 70
     3
  9
$DIMFRAC
 70
     0
  9
$DIMLDRBLK
  1
OPEN
  9
$DIMLUNIT
 70
     2
  9
$DIMLWD
 70
    -2
  9
$DIMLWE
 70
    -2
  9
$DIMTMOVE
 70
     0
  9
$LUNITS
 70
     2
  9
$LUPREC
 70
     2
  9
$SKETCHINC
 40
0.1
  9
$FILLETRAD
 40
1.5
  9
$AUNITS
 70
     0
  9
$AUPREC
 70
     2
  9
$MENU
  1
STDR12J
  9
$ELEVATION
 40
0.0
  9
$PELEVATION
 40
0.0
  9
$THICKNESS
 40
0.0
  9
$LIMCHECK
 70
     0
  9
$CHAMFERA
 40
0.3
  9
$CHAMFERB
 40
0.3
  9
$CHAMFERC
 40
0.0
  9
$CHAMFERD
 40
0.0
  9
$SKPOLY
 70
     0
  9
$TDCREATE
 40
2450690.700083218
  9
$TDUCREATE
 40
2450690.325083218
  9
$TDUPDATE
 40
2456472.435165613
  9
$TDUUPDATE
 40
2456472.060165614
  9
$TDINDWG
 40
0.2892194097
  9
$TDUSRTIMER
 40
0.2892194097
  9
$USRTIMER
 70
     1
  9
$ANGBASE
 50
0.0
  9
$ANGDIR
 70
     0
  9
$PDMODE
 70
     3
  9
$PDSIZE
 40
0.0
  9
$PLINEWID
 40
0.0
  9
$SPLFRAME
 70
     0
  9
$SPLINETYPE
 70
     6
  9
$SPLINESEGS
 70
     8
  9
$HANDSEED
  5
3E0
  9
$SURFTAB1
 70
     6
  9
$SURFTAB2
 70
     6
  9
$SURFTYPE
 70
     6
  9
$SURFU
 70
     6
  9
$SURFV
 70
     6
  9
$UCSBASE
  2

  9
$UCSNAME
  2

  9
$UCSORG
 10
0.0
 20
0.0
 30
0.0
  9
$UCSXDIR
 10
1.0
 20
0.0
 30
0.0
  9
$UCSYDIR
 10
0.0
 20
1.0
 30
0.0
  9
$UCSORTHOREF
  2

  9
$UCSORTHOVIEW
 70
     0
  9
$UCSORGTOP
 10
0.0
 20
0.0
 30
0.0
  9
$UCSORGBOTTOM
 10
0.0
 20
0.0
 30
0.0
  9
$UCSORGLEFT
 10
0.0
 20
0.0
 30
0.0
  9
$UCSORGRIGHT
 10
0.0
 20
0.0
 30
0.0
  9
$UCSORGFRONT
 10
0.0
 20
0.0
 30
0.0
  9
$UCSORGBACK
 10
0.0
 20
0.0
 30
0.0
  9
$PUCSBASE
  2

  9
$PUCSNAME
  2

  9
$PUCSORG
 10
0.0
 20
0.0
 30
0.0
  9
$PUCSXDIR
 10
1.0
 20
0.0
 30
0.0
  9
$PUCSYDIR
 10
0.0
 20
1.0
 30
0.0
  9
$PUCSORTHOREF
  2

  9
$PUCSORTHOVIEW
 70
     0
  9
$PUCSORGTOP
 10
0.0
 20
0.0
 30
0.0
  9
$PUCSORGBOTTOM
 10
0.0
 20
0.0
 30
0.0
  9
$PUCSORGLEFT
 10
0.0
 20
0.0
 30
0.0
  9
$PUCSORGRIGHT
 10
0.0
 20
0.0
 30
0.0
  9
$PUCSORGFRONT
 10
0.0
 20
0.0
 30
0.0
  9
$PUCSORGBACK
 10
0.0
 20
0.0
 30
0.0
  9
$USERI1
 70
     3
  9
$USERI2
 70
     1
  9
$USERI3
 70
     1
  9
$USERI4
 70
     1
  9
$USERI5
 70
     1
  9
$USERR1
 40
1.0
  9
$USERR2
 40
3.0
  9
$USERR3
 40
3.0
  9
$USERR4
 40
1.5
  9
$USERR5
 40
10.0
  9
$WORLDVIEW
 70
     1
  9
$SHADEDGE
 70
     3
  9
$SHADEDIF
 70
    70
  9
$TILEMODE
 70
     1
  9
$MAXACTVP
 70
    16
  9
$PINSBASE
 10
0.0
 20
0.0
 30
0.0
  9
$PLIMCHECK
 70
     0
  9
$PEXTMIN
 10
1.000000000000000E+20
 20
1.000000000000000E+20
 30
1.000000000000000E+20
  9
$PEXTMAX
 10
-1.000000000000000E+20
 20
-1.000000000000000E+20
 30
-1.000000000000000E+20
  9
$PLIMMIN
 10
0.0
 20
0.0
  9
$PLIMMAX
 10
12.0
 20
9.0
  9
$UNITMODE
 70
     0
  9
$VISRETAIN
 70
     0
  9
$PLINEGEN
 70
     0
  9
$PSLTSCALE
 70
     0
  9
$TREEDEPTH
 70
     0
  9
$CMLSTYLE
  2
STANDARD
  9
$CMLJUST
 70
     0
  9
$CMLSCALE
 40
1.0
  9
$PROXYGRAPHICS
 70
     1
  9
$MEASUREMENT
 70
     0
  9
$CELWEIGHT
370
    -1
  9
$ENDCAPS
280
     0
  9
$JOINSTYLE
280
     0
  9
$LWDISPLAY
290
     0
  9
$INSUNITS
 70
     0
  9
$HYPERLINKBASE
  1

  9
$STYLESHEET
  1

  9
$XEDIT
290
     1
  9
$CEPSNTYPE
380
     0
  9
$PSTYLEMODE
290
     1
  9
$FINGERPRINTGUID
  2
{56F9A71F-2D90-47AF-AC33-67D23C9992E9}
  9
$VERSIONGUID
  2
{5BC7624C-3E6D-47DE-9836-DDDD12AC5B6E}
  9
$EXTNAMES
290
     1
  9
$PSVPSCALE
 40
0.0
  9
$OLESTARTUP
290
     0
  0
ENDSEC
  0
SECTION
  2
CLASSES
  0
CLASS
  1
ACDBDICTIONARYWDFLT
  2
AcDbDictionaryWithDefault
  3
ObjectDBX Classes
 90
        0
280
     0
281
     0
  0
CLASS
  1
ACDBPLACEHOLDER
  2
AcDbPlaceHolder
  3
ObjectDBX Classes
 90
        0
280
     0
281
     0
  0
CLASS
  1
LAYOUT
  2
AcDbLayout
  3
ObjectDBX Classes
 90
        0
280
     0
281
     0
  0
CLASS
  1
DIMASSOC
  2
AcDbDimAssoc
  3
"AcDbDimAssoc|Product Desc:     AcDim ARX App For Dimension|Company:          Autodesk, Inc.|WEB Address:      www.autodesk.com"
 90
    32768
280
     0
281
     0
  0
CLASS
  1
DICTIONARYVAR
  2
AcDbDictionaryVar
  3
ObjectDBX Classes
 90
        0
280
     0
281
     0
  0
CLASS
  1
MATERIAL
  2
AcDbMaterial
  3
ObjectDBX Classes
 90
     1153
280
     0
281
     0
  0
CLASS
  1
VISUALSTYLE
  2
AcDbVisualStyle
  3
ObjectDBX Classes
 90
     4095
280
     0
281
     0
  0
CLASS
  1
TABLESTYLE
  2
AcDbTableStyle
  3
ObjectDBX Classes
 90
     4095
280
     0
281
     0
  0
CLASS
  1
SCALE
  2
AcDbScale
  3
ObjectDBX Classes
 90
     1153
280
     0
281
     0
  0
CLASS
  1
MLEADERSTYLE
  2
AcDbMLeaderStyle
  3
ACDB_MLEADERSTYLE_CLASS
 90
    36863
280
     0
281
     0
  0
CLASS
  1
SORTENTSTABLE
  2
AcDbSortentsTable
  3
ObjectDBX Classes
 90
        0
280
     0
281
     0
  0
CLASS
  1
CELLSTYLEMAP
  2
AcDbCellStyleMap
  3
ObjectDBX Classes
 90
     1152
280
     0
281
     0
  0
ENDSEC
  0
SECTION
  2
TABLES
  0
TABLE
  2
VPORT
  5
2B
330
0
100
AcDbSymbolTable
 70
     1
  0
VPORT
  5
2C
330
2B
100
AcDbSymbolTableRecord
100
AcDbViewportTableRecord
  2
*Active
 70
     0
 10
0.0
 20
0.0
 11
1.0
 21
1.0
 12
342.8072970653289
 22
139.619492300487
 13
0.0
 23
0.0
 14
1.0
 24
1.0
 15
10.0
 25
10.0
 16
0.0
 26
0.0
 36
1.0
 17
0.0
 27
0.0
 37
0.0
 40
277.3864281581585
 41
2.240398293029871
 42
50.0
 43
0.0
 44
0.0
 50
0.0
 51
0.0
 71
     0
 72
   500
 73
     1
 74
     0
 75
     0
 76
     1
 77
     0
 78
     0
281
     0
 65
     1
110
0.0
120
0.0
130
0.0
111
1.0
121
0.0
131
0.0
112
0.0
122
1.0
132
0.0
 79
     0
146
0.0
1001
ACAD_NAV_VCDISPLAY
1070
     3
  0
ENDTAB
  0
TABLE
  2
LTYPE
  5
26
330
0
100
AcDbSymbolTable
 70
     2
  0
LTYPE
  5
27
330
26
100
AcDbSymbolTableRecord
100
AcDbLinetypeTableRecord
  2
BYBLOCK
 70
     0
  3

 72
    65
 73
     0
 40
0.0
  0
LTYPE
  5
28
330
26
100
AcDbSymbolTableRecord
100
AcDbLinetypeTableRecord
  2
BYLAYER
 70
     0
  3

 72
    65
 73
     0
 40
0.0
  0
LTYPE
  5
10
330
26
100
AcDbSymbolTableRecord
100
AcDbLinetypeTableRecord
  2
CONTINUOUS
 70
     0
  3
実線
 72
    65
 73
     0
 40
0.0
  0
LTYPE
  5
2D1
330
26
100
AcDbSymbolTableRecord
100
AcDbLinetypeTableRecord
  2
CENTER
 70
     0
  3
____ _ ____ _ ____ _ ____ _ ____ _ ____ _ ____
 72
    65
 73
     4
 40
2.0
 49
1.25
 74
     0
 49
-0.25
 74
     0
 49
0.25
 74
     0
 49
-0.25
 74
     0
  0
ENDTAB
  0
TABLE
  2
LAYER
  5
1D
102
{ACAD_XDICTIONARY
360
1E
102
}
330
0
100
AcDbSymbolTable
 70
     1
  0
LAYER
  5
6
102
{ACAD_XDICTIONARY
360
7
102
}
330
1D
100
AcDbSymbolTableRecord
100
AcDbLayerTableRecord
  2
0
 70
     0
 62
     7
  6
CONTINUOUS
370
    -3
390
9
  0
ENDTAB
  0
TABLE
  2
STYLE
  5
23
330
0
100
AcDbSymbolTable
 70
     2
  0
STYLE
  5
24
330
23
100
AcDbSymbolTableRecord
100
AcDbTextStyleTableRecord
  2
STANDARD
 70
     0
 40
0.0
 41
1.0
 50
0.0
 71
     0
 42
3.0
  3
ROMANS.shx
  4
bigfont.shx
  0
STYLE
  5
33
330
23
100
AcDbSymbolTableRecord
100
AcDbTextStyleTableRecord
  2
K
 70
     0
 40
0.0
 41
1.0
 50
0.0
 71
     0
 42
1.0
  3
ROMANS
  4
EXTFONT
  0
ENDTAB
  0
TABLE
  2
VIEW
  5
29
330
0
100
AcDbSymbolTable
 70
     0
  0
ENDTAB
  0
TABLE
  2
UCS
  5
2A
330
0
100
AcDbSymbolTable
 70
     0
  0
ENDTAB
  0
TABLE
  2
APPID
  5
30
330
0
100
AcDbSymbolTable
 70
     2
  0
APPID
  5
22
330
30
100
AcDbSymbolTableRecord
100
AcDbRegAppTableRecord
  2
ACAD
 70
     0
  0
APPID
  5
2F
330
30
100
AcDbSymbolTableRecord
100
AcDbRegAppTableRecord
  2
ACAD_NAV_VCDISPLAY
 70
     0
  0
ENDTAB
  0
TABLE
  2
DIMSTYLE
  5
31
330
0
100
AcDbSymbolTable
 70
     1
100
AcDbDimStyleTable
 71
     1
340
32
  0
DIMSTYLE
105
32
330
31
100
AcDbSymbolTableRecord
100
AcDbDimStyleTableRecord
  2
IMAO
 70
     0
 41
1.5
 42
1.0
 43
6.0
 44
1.0
 47
495.0
 73
     0
 74
     0
 77
     1
 78
     8
140
3.0
141
0.0
172
     1
174
     1
271
     2
272
     2
279
     2
284
     8
285
     8
286
     8
340
33
341
34
342
34
  0
ENDTAB
  0
TABLE
  2
BLOCK_RECORD
  5
1
330
0
100
AcDbSymbolTable
 70
     2
  0
BLOCK_RECORD
  5
2
102
{ACAD_XDICTIONARY
360
3
102
}
330
1
100
AcDbSymbolTableRecord
100
AcDbBlockTableRecord
  2
*MODEL_SPACE
340
15
  0
BLOCK_RECORD
  5
19
330
1
100
AcDbSymbolTableRecord
100
AcDbBlockTableRecord
  2
*PAPER_SPACE
340
1C
  0
BLOCK_RECORD
  5
34
330
1
100
AcDbSymbolTableRecord
100
AcDbBlockTableRecord
  2
ARROW
340
0
  0
BLOCK_RECORD
  5
45
330
1
100
AcDbSymbolTableRecord
100
AcDbBlockTableRecord
  2
_OPEN
340
0
  0
ENDTAB
  0
ENDSEC
  0
SECTION
  2
BLOCKS
  0
BLOCK
  5
5
330
2
100
AcDbEntity
  8
0
100
AcDbBlockBegin
  2
*MODEL_SPACE
 70
     0
 10
0.0
 20
0.0
 30
0.0
  3
*MODEL_SPACE
  1

  0
ENDBLK
  5
14
330
2
100
AcDbEntity
  8
0
100
AcDbBlockEnd
  0
BLOCK
  5
1A
330
19
100
AcDbEntity
 67
     1
  8
0
100
AcDbBlockBegin
  2
*PAPER_SPACE
 70
     0
 10
0.0
 20
0.0
 30
0.0
  3
*PAPER_SPACE
  1

  0
ENDBLK
  5
1B
330
19
100
AcDbEntity
 67
     1
  8
0
100
AcDbBlockEnd
  0
BLOCK
  5
35
330
34
100
AcDbEntity
  8
0
100
AcDbBlockBegin
  2
ARROW
 70
     0
 10
1.0
 20
0.5
 30
0.0
  3
ARROW
  1

  0
LINE
  5
36
330
34
100
AcDbEntity
  8
0
100
AcDbLine
 10
1.0
 20
0.5
 30
0.0
 11
-0.5000000000000214
 21
0.0980762113533018
 31
0.0
  0
LINE
  5
37
330
34
100
AcDbEntity
  8
0
100
AcDbLine
 10
0.0
 20
0.5
 30
0.0
 11
1.0
 21
0.5
 31
0.0
  0
LINE
  5
38
330
34
100
AcDbEntity
  8
0
100
AcDbLine
 10
1.0
 20
0.5
 30
0.0
 11
-0.4999999999999575
 21
0.9019237886467408
 31
0.0
  0
ENDBLK
  5
39
330
34
100
AcDbEntity
  8
0
100
AcDbBlockEnd
  0
BLOCK
  5
46
330
45
100
AcDbEntity
  8
0
100
AcDbBlockBegin
  2
_OPEN
 70
     0
 10
0.0
 20
0.0
 30
0.0
  3
_OPEN
  1

  0
LINE
  5
47
330
45
100
AcDbEntity
  8
0
  6
ByBlock
 62
     0
100
AcDbLine
 10
-1.0
 20
0.1666666666666666
 30
0.0
 11
0.0
 21
0.0
 31
0.0
  0
LINE
  5
48
330
45
100
AcDbEntity
  8
0
  6
ByBlock
 62
     0
100
AcDbLine
 10
0.0
 20
0.0
 30
0.0
 11
-1.0
 21
-0.1666666666666666
 31
0.0
  0
LINE
  5
49
330
45
100
AcDbEntity
  8
0
  6
ByBlock
 62
     0
100
AcDbLine
 10
0.0
 20
0.0
 30
0.0
 11
-1.0
 21
0.0
 31
0.0
  0
ENDBLK
  5
4A
330
45
100
AcDbEntity
  8
0
100
AcDbBlockEnd
  0
ENDSEC
  0
SECTION
  2
ENTITIES
  0
LINE
  5
61
330
2
100
AcDbEntity
  8
0
  6
Continuous
 62
     7
100
AcDbLine
 10
220.9897387620478
 20
202.3658194478434
 30
0.0
 11
152.4897358056574
 21
202.3658194478434
 31
0.0
  0
ARC
  5
62
330
2
100
AcDbEntity
  8
0
  6
Continuous
 62
     7
100
AcDbCircle
 10
152.4897358056574
 20
200.8658194478435
 30
0.0
 40
1.5
100
AcDbArc
 50
90.0
 51
180.0
  0
LINE
  5
63
330
2
100
AcDbEntity
  8
0
  6
Continuous
 62
     7
100
AcDbLine
 10
190.5145398255854
 20
161.0650337155741
 30
0.0
 11
193.924942123559
 21
161.0650337155741
 31
0.0
  0
LINE
  5
64
330
2
100
AcDbEntity
  8
0
  6
Continuous
 62
     7
100
AcDbLine
 10
193.924942123559
 20
161.7706108029765
 30
0.0
 11
190.5145398255854
 21
161.7706108029765
 31
0.0
  0
LINE
  5
65
330
2
100
AcDbEntity
  8
0
  6
Continuous
 62
     7
100
AcDbLine
 10
220.9897387620478
 20
118.3658110555095
 30
0.0
 11
168.9897393342524
 21
118.3658110555095
 31
0.0
  0
LINE
  5
66
330
2
100
AcDbEntity
  8
0
  6
Continuous
 62
     7
100
AcDbLine
 10
220.9897387620478
 20
119.3658226903361
 30
0.0
 11
168.9897393342524
 21
119.3658226903361
 31
0.0
  0
LINE
  5
67
330
2
100
AcDbEntity
  8
0
  6
Continuous
 62
     7
100
AcDbLine
 10
220.9900294419794
 20
146.3658194478434
 30
0.0
 11
165.9900193330317
 21
146.365797704069
 31
0.0
  0
LINE
  5
68
330
2
100
AcDbEntity
  8
0
  6
Continuous
 62
     7
100
AcDbLine
 10
220.9897387620478
 20
96.36582154592694
 30
0.0
 11
168.9897393342524
 21
96.36582154592694
 31
0.0
  0
LINE
  5
69
330
2
100
AcDbEntity
  8
0
  6
Continuous
 62
     7
100
AcDbLine
 10
220.9897387620478
 20
95.36580991110032
 30
0.0
 11
168.9897393342524
 21
95.36580991110032
 31
0.0
  0
LINE
  5
6A
330
2
100
AcDbEntity
  8
0
  6
Continuous
 62
     7
100
AcDbLine
 10
152.9897348519831
 20
167.8658298428935
 30
0.0
 11
218.9897397157221
 21
167.8658298428935
 31
0.0
  0
LINE
  5
6B
330
2
100
AcDbEntity
  8
0
  6
Continuous
 62
     7
100
AcDbLine
 10
218.9897397157221
 20
166.8658303197306
 30
0.0
 11
152.9897348519831
 21
166.8658303197306
 31
0.0
  0
LINE
  5
6C
330
2
100
AcDbEntity
  8
0
  6
Continuous
 62
     7
100
AcDbLine
 10
220.9897387620478
 20
147.3658194478434
 30
0.0
 11
155.6108563539057
 21
147.3658194478434
 31
0.0
  0
LINE
  5
6D
330
2
100
AcDbEntity
  8
0
  6
Continuous
 62
     7
100
AcDbLine
 10
220.9897387620478
 20
91.3656664784831
 30
0.0
 11
152.4897411462336
 21
91.3656664784831
 31
0.0
  0
LINE
  5
6E
330
2
100
AcDbEntity
  8
0
  6
Continuous
 62
     7
100
AcDbLine
 10
220.9897387620478
 20
123.3656996663493
 30
0.0
 11
152.4897411462336
 21
123.3656996663493
 31
0.0
  0
LINE
  5
6F
330
2
100
AcDbEntity
  8
0
  6
Continuous
 62
     7
100
AcDbLine
 10
165.9900193330317
 20
146.365797704069
 30
0.0
 11
164.9900319215326
 21
147.3657972272319
 31
0.0
  0
ARC
  5
70
330
2
100
AcDbEntity
  8
0
  6
Continuous
 62
     7
100
AcDbCircle
 10
155.6108433008615
 20
148.8659980462288
 30
0.0
 40
1.49995858577733
100
AcDbArc
 50
224.9994168450331
 51
270.0004986033261
  0
ARC
  5
71
330
2
100
AcDbEntity
  8
0
  6
Continuous
 62
     7
100
AcDbCircle
 10
155.6111218691294
 20
148.8659617112373
 30
0.0
 40
1.49995858577733
100
AcDbArc
 50
224.9994168450331
 51
270.0004986033261
  0
LINE
  5
72
330
2
100
AcDbEntity
  8
0
  6
Continuous
 62
     7
100
AcDbLine
 10
107.9900227662592
 20
147.3657972272319
 30
0.0
 11
106.9900111314325
 21
146.365797704069
 31
0.0
  0
LINE
  5
73
330
2
100
AcDbEntity
  8
0
  6
Continuous
 62
     7
100
AcDbLine
 10
83.99003421035104
 20
147.3657972272319
 30
0.0
 11
84.99004584517768
 21
146.365797704069
 31
0.0
  0
ARC
  5
74
330
2
100
AcDbEntity
  8
0
  6
Continuous
 62
     7
100
AcDbCircle
 10
81.49034646349624
 20
148.8660349030455
 30
0.0
 40
1.49999544256997
100
AcDbArc
 50
179.9996219216164
 51
270.0003780783835
  0
ARC
  5
75
330
2
100
AcDbEntity
  8
0
  6
Continuous
 62
     7
100
AcDbCircle
 10
110.4903403196325
 20
148.8660349030455
 30
0.0
 40
1.49999544256997
100
AcDbArc
 50
269.9996219216164
 51
0.0003780783835449
  0
LINE
  5
76
330
2
100
AcDbEntity
  8
0
  6
Continuous
 62
     7
100
AcDbLine
 10
84.99004584517768
 20
146.3658194478434
 30
0.0
 11
106.9900111314325
 21
146.3658194478434
 31
0.0
  0
LINE
  5
77
330
2
100
AcDbEntity
  8
0
  6
Continuous
 62
     7
100
AcDbLine
 10
150.9897358056574
 20
120.3658101018351
 30
0.0
 11
136.2897367593317
 21
120.3658101018351
 31
0.0
  0
LINE
  5
78
330
2
100
AcDbEntity
  8
0
  6
Continuous
 62
     7
100
AcDbLine
 10
150.9897358056574
 20
94.3658224996013
 30
0.0
 11
136.2897367593317
 21
94.3658224996013
 31
0.0
  0
LINE
  5
79
330
2
100
AcDbEntity
  8
0
  6
Continuous
 62
     7
100
AcDbLine
 10
135.9897308465509
 20
120.065828412382
 30
0.0
 11
135.9897308465509
 21
94.66582841238205
 31
0.0
  0
LINE
  5
7A
330
2
100
AcDbEntity
  8
0
  6
Continuous
 62
     7
100
AcDbLine
 10
136.2897367593317
 20
94.3658224996013
 30
0.0
 11
136.2897367593317
 21
120.3658101018351
 31
0.0
  0
LINE
  5
7B
330
2
100
AcDbEntity
  8
0
  6
Continuous
 62
     7
100
AcDbLine
 10
135.9897308465509
 20
94.66582841238205
 30
0.0
 11
136.2897367593317
 21
94.3658224996013
 31
0.0
  0
LINE
  5
7C
330
2
100
AcDbEntity
  8
0
  6
Continuous
 62
     7
100
AcDbLine
 10
135.9897308465509
 20
120.065828412382
 30
0.0
 11
136.2897367593317
 21
120.3658101018351
 31
0.0
  0
LINE
  5
7D
330
2
100
AcDbEntity
  8
0
  6
Continuous
 62
     7
100
AcDbLine
 10
165.9897286531
 20
115.3658245976847
 30
0.0
 11
165.9897286531
 21
99.36580800375168
 31
0.0
  0
LINE
  5
7E
330
2
100
AcDbEntity
  8
0
  6
Continuous
 62
     7
100
AcDbLine
 10
164.989741241601
 20
115.3658245976847
 30
0.0
 11
164.989741241601
 21
99.36580800375168
 31
0.0
  0
LINE
  5
7F
330
2
100
AcDbEntity
  8
0
  6
Continuous
 62
     7
100
AcDbLine
 10
150.9897358056574
 20
92.86567181905928
 30
0.0
 11
150.9897358056574
 21
121.8656943257731
 31
0.0
  0
ARC
  5
80
330
2
100
AcDbEntity
  8
0
  6
Continuous
 62
     7
100
AcDbCircle
 10
168.9897195381307
 20
99.36581243089566
 30
0.0
 40
2.999990885034
100
AcDbArc
 50
180.0000845524787
 51
270.0003780792218
  0
ARC
  5
81
330
2
100
AcDbEntity
  8
0
  6
Continuous
 62
     7
100
AcDbCircle
 10
168.9897428720078
 20
99.36581154150708
 30
0.0
 40
4.000001630408356
100
AcDbArc
 50
180.0000506745928
 51
269.9999493254075
  0
ARC
  5
82
330
2
100
AcDbEntity
  8
0
  6
Continuous
 62
     7
100
AcDbCircle
 10
152.4897726004828
 20
92.86570327330853
 30
0.0
 40
1.500036795155188
100
AcDbArc
 50
180.001201434348
 51
269.9987985656519
  0
CIRCLE
  5
83
330
2
100
AcDbEntity
  8
0
  6
Continuous
 62
     7
100
AcDbCircle
 10
175.9897238847285
 20
107.3657315190715
 30
0.0
 40
1.999999046325681
  0
CIRCLE
  5
84
330
2
100
AcDbEntity
  8
0
  6
Continuous
 62
     7
100
AcDbCircle
 10
175.9897238847285
 20
107.3657315190715
 30
0.0
 40
1.500005340576171
  0
CIRCLE
  5
85
330
2
100
AcDbEntity
  8
0
  6
Continuous
 62
     7
100
AcDbCircle
 10
188.9897297975092
 20
107.365828412382
 30
0.0
 40
3.000010681152343
  0
CIRCLE
  5
86
330
2
100
AcDbEntity
  8
0
  6
Continuous
 62
     7
100
AcDbCircle
 10
188.9897297975092
 20
107.365828412382
 30
0.0
 40
2.499992752075193
  0
ARC
  5
87
330
2
100
AcDbEntity
  8
0
  6
Continuous
 62
     7
100
AcDbCircle
 10
168.9897195381307
 20
115.3658201705408
 30
0.0
 40
2.999990885034
100
AcDbArc
 50
89.99962192077822
 51
179.9999154475212
  0
ARC
  5
88
330
2
100
AcDbEntity
  8
0
  6
Continuous
 62
     7
100
AcDbCircle
 10
168.9897015207171
 20
115.3658624112199
 30
0.0
 40
3.999960279294891
100
AcDbArc
 50
89.99945835562758
 51
180.0005416443724
  0
ARC
  5
89
330
2
100
AcDbEntity
  8
0
  6
Continuous
 62
     7
100
AcDbCircle
 10
152.4897726004828
 20
121.8656628715239
 30
0.0
 40
1.500036795155188
100
AcDbArc
 50
90.00120143434806
 51
179.9987985656519
  0
LINE
  5
8A
330
2
100
AcDbEntity
  8
0
  6
Continuous
 62
     7
100
AcDbLine
 10
81.49035636153511
 20
202.3658194478434
 30
0.0
 11
110.4903304215937
 21
202.3658194478434
 31
0.0
  0
CIRCLE
  5
8B
330
2
100
AcDbEntity
  8
0
  6
Continuous
 62
     7
100
AcDbCircle
 10
95.98972569670968
 20
167.365836137144
 30
0.0
 40
13.00000591278076
  0
CIRCLE
  5
8C
330
2
100
AcDbEntity
  8
0
  6
Continuous
 62
     7
100
AcDbCircle
 10
95.98972569670968
 20
167.365836137144
 30
0.0
 40
10.00000734329223
  0
CIRCLE
  5
8D
330
2
100
AcDbEntity
  8
0
  6
Continuous
 62
     7
100
AcDbCircle
 10
95.98972569670968
 20
167.365836137144
 30
0.0
 40
11.50000057220459
  0
CIRCLE
  5
8E
330
2
100
AcDbEntity
  8
0
  6
Continuous
 62
     7
100
AcDbCircle
 10
95.98972569670968
 20
167.365836137144
 30
0.0
 40
12.00000638961792
  0
LINE
  5
8F
330
2
100
AcDbEntity
  8
0
  6
Continuous
 62
     7
100
AcDbLine
 10
110.4903386858376
 20
147.3658194478434
 30
0.0
 11
81.49036462577905
 21
147.3658194478434
 31
0.0
  0
LINE
  5
90
330
2
100
AcDbEntity
  8
0
  6
Continuous
 62
     7
100
AcDbLine
 10
110.9897185441523
 20
151.3658437665385
 30
0.0
 11
80.98973284926705
 21
151.3658437665385
 31
0.0
  0
LINE
  5
91
330
2
100
AcDbEntity
  8
0
  6
Continuous
 62
     7
100
AcDbLine
 10
79.99035102095894
 20
200.8658262189311
 30
0.0
 11
79.99035102095894
 21
148.8660448010844
 31
0.0
  0
ARC
  5
92
330
2
100
AcDbEntity
  8
0
  6
Continuous
 62
     7
100
AcDbCircle
 10
81.49034646347431
 20
200.8658240053591
 30
0.0
 40
1.499995442517
100
AcDbArc
 50
89.99962192077822
 51
179.9999154475212
  0
LINE
  5
93
330
2
100
AcDbEntity
  8
0
  6
Continuous
 62
     7
100
AcDbLine
 10
95.98972569670968
 20
201.7658318456096
 30
0.0
 11
96.58972541060736
 21
202.3658436711711
 31
0.0
  0
LINE
  5
94
330
2
100
AcDbEntity
  8
0
  6
Continuous
 62
     7
100
AcDbLine
 10
95.98972569670968
 20
201.7658318456096
 30
0.0
 11
95.38972598281196
 21
202.3658436711711
 31
0.0
  0
LINE
  5
95
330
2
100
AcDbEntity
  8
0
  6
Continuous
 62
     7
100
AcDbLine
 10
150.9897194978266
 20
180.3658299382609
 30
0.0
 11
136.2897194978266
 21
180.3658299382609
 31
0.0
  0
LINE
  5
96
330
2
100
AcDbEntity
  8
0
  6
Continuous
 62
     7
100
AcDbLine
 10
135.9897194978266
 20
180.0658299382609
 30
0.0
 11
136.2897194978266
 21
180.3658299382609
 31
0.0
  0
LINE
  5
97
330
2
100
AcDbEntity
  8
0
  6
Continuous
 62
     7
100
AcDbLine
 10
150.9897194978266
 20
154.3658423360271
 30
0.0
 11
136.2897194978266
 21
154.3658423360271
 31
0.0
  0
LINE
  5
98
330
2
100
AcDbEntity
  8
0
  6
Continuous
 62
     7
100
AcDbLine
 10
135.9897194978266
 20
154.6658423360271
 30
0.0
 11
136.2897194978266
 21
154.3658423360271
 31
0.0
  0
LINE
  5
99
330
2
100
AcDbEntity
  8
0
  6
Continuous
 62
     7
100
AcDbLine
 10
136.2897367593317
 20
154.3658423360271
 30
0.0
 11
136.2897367593317
 21
180.3658299382609
 31
0.0
  0
LINE
  5
9A
330
2
100
AcDbEntity
  8
0
  6
Continuous
 62
     7
100
AcDbLine
 10
111.9903357621699
 20
200.8658262189311
 30
0.0
 11
111.9903357621699
 21
148.8660448010844
 31
0.0
  0
LINE
  5
9B
330
2
100
AcDbEntity
  8
0
  6
Continuous
 62
     7
100
AcDbLine
 10
135.9897194978266
 20
180.0658299382609
 30
0.0
 11
135.9897194978266
 21
154.6658423360271
 31
0.0
  0
ARC
  5
9C
330
2
100
AcDbEntity
  8
0
  6
Continuous
 62
     7
100
AcDbCircle
 10
110.4903403196545
 20
200.8658240053591
 30
0.0
 40
1.499995442517
100
AcDbArc
 50
0.0000845524787612
 51
90.00037807922181
  0
LINE
  5
9D
330
2
100
AcDbEntity
  8
0
  6
Continuous
 62
     7
100
AcDbLine
 10
164.9898381349115
 20
147.3660031255168
 30
0.0
 11
155.6111349221735
 21
147.3660031255168
 31
0.0
  0
ARC
  5
9E
330
2
100
AcDbEntity
  8
0
  6
Continuous
 62
     7
100
AcDbCircle
 10
152.4896943913779
 20
151.9871469557124
 30
0.0
 40
1.49995858577733
100
AcDbArc
 50
179.9995013966738
 51
225.0005831549667
  0
LINE
  5
9F
330
2
100
AcDbEntity
  8
0
  6
Continuous
 62
     7
100
AcDbLine
 10
151.4290742990046
 20
150.9265052731914
 30
0.0
 11
154.5502016183404
 21
147.8053779538554
 31
0.0
  0
LINE
  5
A0
330
2
100
AcDbEntity
  8
0
  6
Continuous
 62
     7
100
AcDbLine
 10
152.9897348519831
 20
167.8658298428935
 30
0.0
 11
152.9897348519831
 21
166.8658303197306
 31
0.0
  0
LINE
  5
A1
330
2
100
AcDbEntity
  8
0
  6
Continuous
 62
     7
100
AcDbLine
 10
180.5257357713251
 20
159.6258289273661
 30
0.0
 11
180.2697436448603
 21
159.7698123868388
 31
0.0
  0
LINE
  5
A2
330
2
100
AcDbEntity
  8
0
  6
Continuous
 62
     7
100
AcDbLine
 10
180.2777373429804
 20
163.0898374493998
 30
0.0
 11
180.5017304536371
 21
163.1938281949443
 31
0.0
  0
LINE
  5
A3
330
2
100
AcDbEntity
  8
0
  6
Continuous
 62
     7
100
AcDbLine
 10
180.2697436448603
 20
159.7698123868388
 30
0.0
 11
180.1337296601801
 21
159.8578278478068
 31
0.0
  0
LINE
  5
A4
330
2
100
AcDbEntity
  8
0
  6
Continuous
 62
     7
100
AcDbLine
 10
180.1092883225947
 20
159.8608073171061
 30
0.0
 11
179.9657408830195
 21
159.9618064816874
 31
0.0
  0
LINE
  5
A5
330
2
100
AcDbEntity
  8
0
  6
Continuous
 62
     7
100
AcDbLine
 10
179.9657408830195
 20
159.9618064816874
 30
0.0
 11
179.8057458039789
 21
160.0738151486796
 31
0.0
  0
LINE
  5
A6
330
2
100
AcDbEntity
  8
0
  6
Continuous
 62
     7
100
AcDbLine
 10
179.8057458039789
 20
160.0738151486796
 30
0.0
 11
179.5737347718744
 21
160.3058261807841
 31
0.0
  0
LINE
  5
A7
330
2
100
AcDbEntity
  8
0
  6
Continuous
 62
     7
100
AcDbLine
 10
179.5737347718744
 20
160.3058261807841
 30
0.0
 11
179.4217576142817
 21
160.5138318952006
 31
0.0
  0
LINE
  5
A8
330
2
100
AcDbEntity
  8
0
  6
Continuous
 62
     7
100
AcDbLine
 10
179.4217576142817
 20
160.5138318952006
 30
0.0
 11
179.2857436296015
 21
160.7618061002177
 31
0.0
  0
LINE
  5
A9
330
2
100
AcDbEntity
  8
0
  6
Continuous
 62
     7
100
AcDbLine
 10
179.2857436296015
 20
160.7618061002177
 30
0.0
 11
179.1817528840571
 21
161.0258161481303
 31
0.0
  0
LINE
  5
AA
330
2
100
AcDbEntity
  8
0
  6
Continuous
 62
     7
100
AcDbLine
 10
179.1817528840571
 20
161.0258161481303
 30
0.0
 11
179.1257485505609
 21
161.2178223546427
 31
0.0
  0
LINE
  5
AB
330
2
100
AcDbEntity
  8
0
  6
Continuous
 62
     7
100
AcDbLine
 10
179.1257485505609
 20
161.2178223546427
 30
0.0
 11
179.109736930993
 21
161.3538242276591
 31
0.0
  0
LINE
  5
AC
330
2
100
AcDbEntity
  8
0
  6
Continuous
 62
     7
100
AcDbLine
 10
179.109736930993
 20
161.3538242276591
 30
0.0
 11
179.101743232873
 21
161.4578028615397
 31
0.0
  0
LINE
  5
AD
330
2
100
AcDbEntity
  8
0
  6
Continuous
 62
     7
100
AcDbLine
 10
179.101743232873
 20
161.4578028615397
 30
0.0
 11
179.109736930993
 21
161.5618299420756
 31
0.0
  0
LINE
  5
AE
330
2
100
AcDbEntity
  8
0
  6
Continuous
 62
     7
100
AcDbLine
 10
179.109736930993
 20
161.5618299420756
 30
0.0
 11
179.1257485505609
 21
161.66582068762
 31
0.0
  0
LINE
  5
AF
330
2
100
AcDbEntity
  8
0
  6
Continuous
 62
     7
100
AcDbLine
 10
179.1257485505609
 20
161.66582068762
 30
0.0
 11
179.1737349626093
 21
161.7938288625163
 31
0.0
  0
LINE
  5
B0
330
2
100
AcDbEntity
  8
0
  6
Continuous
 62
     7
100
AcDbLine
 10
179.1737349626093
 20
161.7938288625163
 30
0.0
 11
179.2057339784174
 21
161.9218128140849
 31
0.0
  0
LINE
  5
B1
330
2
100
AcDbEntity
  8
0
  6
Continuous
 62
     7
100
AcDbLine
 10
179.2057339784174
 20
161.9218128140849
 30
0.0
 11
179.2697320100336
 21
162.0738141950053
 31
0.0
  0
LINE
  5
B2
330
2
100
AcDbEntity
  8
0
  6
Continuous
 62
     7
100
AcDbLine
 10
179.2697320100336
 20
162.0738141950053
 30
0.0
 11
179.3577353593378
 21
162.2178339894694
 31
0.0
  0
LINE
  5
B3
330
2
100
AcDbEntity
  8
0
  6
Continuous
 62
     7
100
AcDbLine
 10
179.3577353593378
 20
162.2178339894694
 30
0.0
 11
179.453732406762
 21
162.3538358624858
 31
0.0
  0
LINE
  5
B4
330
2
100
AcDbEntity
  8
0
  6
Continuous
 62
     7
100
AcDbLine
 10
179.453732406762
 20
162.3538358624858
 30
0.0
 11
179.5657410737543
 21
162.4978193219584
 31
0.0
  0
LINE
  5
B5
330
2
100
AcDbEntity
  8
0
  6
Continuous
 62
     7
100
AcDbLine
 10
179.5657410737543
 20
162.4978193219584
 30
0.0
 11
179.6937371369868
 21
162.6418027814311
 31
0.0
  0
LINE
  5
B6
330
2
100
AcDbEntity
  8
0
  6
Continuous
 62
     7
100
AcDbLine
 10
179.6937371369868
 20
162.6418027814311
 30
0.0
 11
179.861750137475
 21
162.7938041623515
 31
0.0
  0
LINE
  5
B7
330
2
100
AcDbEntity
  8
0
  6
Continuous
 62
     7
100
AcDbLine
 10
179.861750137475
 20
162.7938041623515
 30
0.0
 11
180.0457505342036
 21
162.9458176549357
 31
0.0
  0
LINE
  5
B8
330
2
100
AcDbEntity
  8
0
  6
Continuous
 62
     7
100
AcDbLine
 10
180.0457505342036
 20
162.9458176549357
 30
0.0
 11
180.2777373429804
 21
163.0898374493998
 31
0.0
  0
LINE
  5
B9
330
2
100
AcDbEntity
  8
0
  6
Continuous
 62
     7
100
AcDbLine
 10
180.1092883225947
 20
159.8608073171061
 30
0.0
 11
180.1337296601801
 21
159.8578278478068
 31
0.0
  0
LINE
  5
BA
330
2
100
AcDbEntity
  8
0
  6
Continuous
 62
     7
100
AcDbLine
 10
186.9897307511835
 20
162.0017982419414
 30
0.0
 11
186.0217423554926
 21
162.0017982419414
 31
0.0
  0
LINE
  5
BB
330
2
100
AcDbEntity
  8
0
  6
Continuous
 62
     7
100
AcDbLine
 10
185.9986817475825
 20
160.8298252042215
 30
0.0
 11
186.9817370530634
 21
160.8258283551615
 31
0.0
  0
LINE
  5
BC
330
2
100
AcDbEntity
  8
0
  6
Continuous
 62
     7
100
AcDbLine
 10
186.2137364503412
 20
159.9458069737834
 30
0.0
 11
186.1017520066766
 21
159.8658094342631
 31
0.0
  0
LINE
  5
BD
330
2
100
AcDbEntity
  8
0
  6
Continuous
 62
     7
100
AcDbLine
 10
186.1657258149653
 20
163.5378357823771
 30
0.0
 11
186.9897307511835
 21
163.5378357823771
 31
0.0
  0
LINE
  5
BE
330
2
100
AcDbEntity
  8
0
  6
Continuous
 62
     7
100
AcDbLine
 10
185.7337512132197
 20
159.6738032277507
 30
0.0
 11
185.6137246247797
 21
159.6177988942546
 31
0.0
  0
LINE
  5
BF
330
2
100
AcDbEntity
  8
0
  6
Continuous
 62
     7
100
AcDbLine
 10
183.1257466432123
 20
159.6818332608622
 30
0.0
 11
183.2617364045649
 21
159.6658216412944
 31
0.0
  0
LINE
  5
C0
330
2
100
AcDbEntity
  8
0
  6
Continuous
 62
     7
100
AcDbLine
 10
183.7337279435663
 20
159.6498100217265
 30
0.0
 11
183.8777356263666
 21
159.6738032277507
 31
0.0
  0
LINE
  5
C1
330
2
100
AcDbEntity
  8
0
  6
Continuous
 62
     7
100
AcDbLine
 10
183.2617364045649
 20
159.6658216412944
 30
0.0
 11
183.3497397538691
 21
159.6578400548381
 31
0.0
  0
LINE
  5
C2
330
2
100
AcDbEntity
  8
0
  6
Continuous
 62
     7
100
AcDbLine
 10
183.35167762008
 20
159.0684501584453
 30
0.0
 11
183.0617486115961
 21
159.073803513853
 31
0.0
  0
LINE
  5
C3
330
2
100
AcDbEntity
  8
0
  6
Continuous
 62
     7
100
AcDbLine
 10
183.0617486115961
 20
159.073803513853
 30
0.0
 11
182.8857419129876
 21
159.0578403409404
 31
0.0
  0
LINE
  5
C4
330
2
100
AcDbEntity
  8
0
  6
Continuous
 62
     7
100
AcDbLine
 10
182.8857419129876
 20
159.0578403409404
 30
0.0
 11
182.613738166955
 21
159.0898151334208
 31
0.0
  0
LINE
  5
C5
330
2
100
AcDbEntity
  8
0
  6
Continuous
 62
     7
100
AcDbLine
 10
182.613738166955
 20
159.0898151334208
 30
0.0
 11
182.3577218171625
 21
159.1058146413249
 31
0.0
  0
LINE
  5
C6
330
2
100
AcDbEntity
  8
0
  6
Continuous
 62
     7
100
AcDbLine
 10
182.3577218171625
 20
159.1058146413249
 30
0.0
 11
182.1097476121454
 21
159.1378257687968
 31
0.0
  0
LINE
  5
C7
330
2
100
AcDbEntity
  8
0
  6
Continuous
 62
     7
100
AcDbLine
 10
182.1097476121454
 20
159.1378257687968
 30
0.0
 11
181.7897332307367
 21
159.201823800413
 31
0.0
  0
LINE
  5
C8
330
2
100
AcDbEntity
  8
0
  6
Continuous
 62
     7
100
AcDbLine
 10
181.7897332307367
 20
159.201823800413
 30
0.0
 11
181.541734802392
 21
159.2418165143413
 31
0.0
  0
LINE
  5
C9
330
2
100
AcDbEntity
  8
0
  6
Continuous
 62
     7
100
AcDbLine
 10
181.541734802392
 20
159.2418165143413
 30
0.0
 11
181.3097237702875
 21
159.3138324674051
 31
0.0
  0
LINE
  5
CA
330
2
100
AcDbEntity
  8
0
  6
Continuous
 62
     7
100
AcDbLine
 10
181.3097237702875
 20
159.3138324674051
 30
0.0
 11
181.1017422791987
 21
159.3858363088054
 31
0.0
  0
LINE
  5
CB
330
2
100
AcDbEntity
  8
0
  6
Continuous
 62
     7
100
AcDbLine
 10
181.1017422791987
 20
159.3858363088054
 30
0.0
 11
180.9017302629023
 21
159.4578159268779
 31
0.0
  0
LINE
  5
CC
330
2
100
AcDbEntity
  8
0
  6
Continuous
 62
     7
100
AcDbLine
 10
180.9017302629023
 20
159.4578159268779
 30
0.0
 11
180.7097361680536
 21
159.5458313878459
 31
0.0
  0
LINE
  5
CD
330
2
100
AcDbEntity
  8
0
  6
Continuous
 62
     7
100
AcDbLine
 10
180.7097361680536
 20
159.5458313878459
 30
0.0
 11
180.5257357713251
 21
159.6258289273661
 31
0.0
  0
LINE
  5
CE
330
2
100
AcDbEntity
  8
0
  6
Continuous
 62
     7
100
AcDbLine
 10
185.5977372285395
 20
159.601835721342
 30
0.0
 11
185.4617474671869
 21
159.5378013547343
 31
0.0
  0
LINE
  5
CF
330
2
100
AcDbEntity
  8
0
  6
Continuous
 62
     7
100
AcDbLine
 10
185.4617474671869
 20
159.5378013547343
 30
0.0
 11
185.3337271806269
 21
159.4898270543498
 31
0.0
  0
LINE
  5
D0
330
2
100
AcDbEntity
  8
0
  6
Continuous
 62
     7
100
AcDbLine
 10
185.3337271806269
 20
159.4898270543498
 30
0.0
 11
185.1897437211541
 21
159.4258411343974
 31
0.0
  0
LINE
  5
D1
330
2
100
AcDbEntity
  8
0
  6
Continuous
 62
     7
100
AcDbLine
 10
185.1897437211541
 20
159.4258411343974
 30
0.0
 11
185.0377423402338
 21
159.3698368009013
 31
0.0
  0
LINE
  5
D2
330
2
100
AcDbEntity
  8
0
  6
Continuous
 62
     7
100
AcDbLine
 10
185.0377423402338
 20
159.3698368009013
 30
0.0
 11
184.9177399751215
 21
159.3298319753093
 31
0.0
  0
LINE
  5
D3
330
2
100
AcDbEntity
  8
0
  6
Continuous
 62
     7
100
AcDbLine
 10
184.9177399751215
 20
159.3298319753093
 30
0.0
 11
184.8057313081293
 21
159.289839261381
 31
0.0
  0
LINE
  5
D4
330
2
100
AcDbEntity
  8
0
  6
Continuous
 62
     7
100
AcDbLine
 10
185.5977372285395
 20
159.601835721342
 30
0.0
 11
185.6137246247797
 21
159.6177988942546
 31
0.0
  0
LINE
  5
D5
330
2
100
AcDbEntity
  8
0
  6
Continuous
 62
     7
100
AcDbLine
 10
183.3497397538691
 20
159.6578400548381
 30
0.0
 11
183.4537304994135
 21
159.6498100217265
 31
0.0
  0
LINE
  5
D6
330
2
100
AcDbEntity
  8
0
  6
Continuous
 62
     7
100
AcDbLine
 10
183.4537304994135
 20
159.6498100217265
 30
0.0
 11
183.5577454682854
 21
159.6338105138225
 31
0.0
  0
LINE
  5
D7
330
2
100
AcDbEntity
  8
0
  6
Continuous
 62
     7
100
AcDbLine
 10
183.5577454682854
 20
159.6338105138225
 30
0.0
 11
183.637730896142
 21
159.6418284352702
 31
0.0
  0
LINE
  5
D8
330
2
100
AcDbEntity
  8
0
  6
Continuous
 62
     7
100
AcDbLine
 10
183.637730896142
 20
159.6418284352702
 30
0.0
 11
183.7337279435663
 21
159.6498100217265
 31
0.0
  0
LINE
  5
D9
330
2
100
AcDbEntity
  8
0
  6
Continuous
 62
     7
100
AcDbLine
 10
184.6617478486567
 20
159.2578281339091
 30
0.0
 11
184.5337517854243
 21
159.2258048947734
 31
0.0
  0
LINE
  5
DA
330
2
100
AcDbEntity
  8
0
  6
Continuous
 62
     7
100
AcDbLine
 10
184.5337517854243
 20
159.2258048947734
 30
0.0
 11
184.3977378007441
 21
159.201823800413
 31
0.0
  0
LINE
  5
DB
330
2
100
AcDbEntity
  8
0
  6
Continuous
 62
     7
100
AcDbLine
 10
184.3977378007441
 20
159.201823800413
 30
0.0
 11
184.1977257844476
 21
159.1698005612773
 31
0.0
  0
LINE
  5
DC
330
2
100
AcDbEntity
  8
0
  6
Continuous
 62
     7
100
AcDbLine
 10
184.1977257844476
 20
159.1698005612773
 30
0.0
 11
184.0217433091669
 21
159.1378257687968
 31
0.0
  0
LINE
  5
DD
330
2
100
AcDbEntity
  8
0
  6
Continuous
 62
     7
100
AcDbLine
 10
184.0217433091669
 20
159.1378257687968
 30
0.0
 11
183.9097588655024
 21
159.1218262608928
 31
0.0
  0
LINE
  5
DE
330
2
100
AcDbEntity
  8
0
  6
Continuous
 62
     7
100
AcDbLine
 10
183.9097588655024
 20
159.1218262608928
 30
0.0
 11
183.7977501985101
 21
159.1058146413249
 31
0.0
  0
LINE
  5
DF
330
2
100
AcDbEntity
  8
0
  6
Continuous
 62
     7
100
AcDbLine
 10
183.7977501985101
 20
159.1058146413249
 30
0.0
 11
183.6297371980219
 21
159.0898151334208
 31
0.0
  0
LINE
  5
E0
330
2
100
AcDbEntity
  8
0
  6
Continuous
 62
     7
100
AcDbLine
 10
183.6297371980219
 20
159.0898151334208
 30
0.0
 11
183.4857537385492
 21
159.0818214353007
 31
0.0
  0
LINE
  5
E1
330
2
100
AcDbEntity
  8
0
  6
Continuous
 62
     7
100
AcDbLine
 10
183.4857537385492
 20
159.0818214353007
 30
0.0
 11
183.3497397538691
 21
159.0658219273967
 31
0.0
  0
LINE
  5
E2
330
2
100
AcDbEntity
  8
0
  6
Continuous
 62
     7
100
AcDbLine
 10
184.8057313081293
 20
159.289839261381
 30
0.0
 11
184.6617478486567
 21
159.2578281339091
 31
0.0
  0
LINE
  5
E3
330
2
100
AcDbEntity
  8
0
  6
Continuous
 62
     7
100
AcDbLine
 10
183.397750389245
 20
163.1778165753764
 30
0.0
 11
183.2617364045649
 21
163.1698349889201
 31
0.0
  0
LINE
  5
E4
330
2
100
AcDbEntity
  8
0
  6
Continuous
 62
     7
100
AcDbLine
 10
183.0857297059565
 20
163.7698347028178
 30
0.0
 11
183.3817387696772
 21
163.76181678137
 31
0.0
  0
LINE
  5
E5
330
2
100
AcDbEntity
  8
0
  6
Continuous
 62
     7
100
AcDbLine
 10
183.2617364045649
 20
163.1698349889201
 30
0.0
 11
183.1417340394526
 21
163.1618049558085
 31
0.0
  0
LINE
  5
E6
330
2
100
AcDbEntity
  8
0
  6
Continuous
 62
     7
100
AcDbLine
 10
183.1417340394526
 20
163.1618049558085
 30
0.0
 11
183.029749595788
 21
163.1458054479045
 31
0.0
  0
LINE
  5
E7
330
2
100
AcDbEntity
  8
0
  6
Continuous
 62
     7
100
AcDbLine
 10
183.029749595788
 20
163.1458054479045
 30
0.0
 11
182.8937356111078
 21
163.113830655424
 31
0.0
  0
LINE
  5
E8
330
2
100
AcDbEntity
  8
0
  6
Continuous
 62
     7
100
AcDbLine
 10
182.8937356111078
 20
163.113830655424
 30
0.0
 11
182.7497521516351
 21
163.0818195279521
 31
0.0
  0
LINE
  5
E9
330
2
100
AcDbEntity
  8
0
  6
Continuous
 62
     7
100
AcDbLine
 10
182.7497521516351
 20
163.0818195279521
 30
0.0
 11
182.6217560884028
 21
163.0578263219279
 31
0.0
  0
LINE
  5
EA
330
2
100
AcDbEntity
  8
0
  6
Continuous
 62
     7
100
AcDbLine
 10
182.6217560884028
 20
163.0578263219279
 30
0.0
 11
182.4937358018427
 21
163.025815194456
 31
0.0
  0
LINE
  5
EB
330
2
100
AcDbEntity
  8
0
  6
Continuous
 62
     7
100
AcDbLine
 10
182.4937358018427
 20
163.025815194456
 30
0.0
 11
182.3737334367304
 21
162.9778287824076
 31
0.0
  0
LINE
  5
EC
330
2
100
AcDbEntity
  8
0
  6
Continuous
 62
     7
100
AcDbLine
 10
182.3737334367304
 20
162.9778287824076
 30
0.0
 11
182.2537552949457
 21
162.9218244489116
 31
0.0
  0
LINE
  5
ED
330
2
100
AcDbEntity
  8
0
  6
Continuous
 62
     7
100
AcDbLine
 10
182.2537552949457
 20
162.9218244489116
 30
0.0
 11
182.1577340241938
 21
162.8818317349833
 31
0.0
  0
LINE
  5
EE
330
2
100
AcDbEntity
  8
0
  6
Continuous
 62
     7
100
AcDbLine
 10
182.1577340241938
 20
162.8818317349833
 30
0.0
 11
182.0217442628412
 21
162.8418269093913
 31
0.0
  0
LINE
  5
EF
330
2
100
AcDbEntity
  8
0
  6
Continuous
 62
     7
100
AcDbLine
 10
182.0217442628412
 20
162.8418269093913
 30
0.0
 11
181.9257472154169
 21
162.7938041623515
 31
0.0
  0
LINE
  5
F0
330
2
100
AcDbEntity
  8
0
  6
Continuous
 62
     7
100
AcDbLine
 10
181.9257472154169
 20
162.7938041623515
 30
0.0
 11
181.8377438661127
 21
162.7298182423991
 31
0.0
  0
LINE
  5
F1
330
2
100
AcDbEntity
  8
0
  6
Continuous
 62
     7
100
AcDbLine
 10
181.8377438661127
 20
162.7298182423991
 30
0.0
 11
181.7257351991205
 21
162.6658323224466
 31
0.0
  0
LINE
  5
F2
330
2
100
AcDbEntity
  8
0
  6
Continuous
 62
     7
100
AcDbLine
 10
181.7257351991205
 20
162.6658323224466
 30
0.0
 11
181.6057328340081
 21
162.5538236554545
 31
0.0
  0
LINE
  5
F3
330
2
100
AcDbEntity
  8
0
  6
Continuous
 62
     7
100
AcDbLine
 10
181.6057328340081
 20
162.5538236554545
 30
0.0
 11
181.5097357865839
 21
162.4738261159343
 31
0.0
  0
LINE
  5
F4
330
2
100
AcDbEntity
  8
0
  6
Continuous
 62
     7
100
AcDbLine
 10
181.5097357865839
 20
162.4738261159343
 30
0.0
 11
181.3977271195916
 21
162.37782906851
 31
0.0
  0
LINE
  5
F5
330
2
100
AcDbEntity
  8
0
  6
Continuous
 62
     7
100
AcDbLine
 10
181.3977271195916
 20
162.37782906851
 30
0.0
 11
181.3097237702875
 21
162.273801987974
 31
0.0
  0
LINE
  5
F6
330
2
100
AcDbEntity
  8
0
  6
Continuous
 62
     7
100
AcDbLine
 10
181.3097237702875
 20
162.273801987974
 30
0.0
 11
181.245749961999
 21
162.2018344815654
 31
0.0
  0
LINE
  5
F7
330
2
100
AcDbEntity
  8
0
  6
Continuous
 62
     7
100
AcDbLine
 10
181.245749961999
 20
162.2018344815654
 30
0.0
 11
181.1897456285029
 21
162.0978074010294
 31
0.0
  0
LINE
  5
F8
330
2
100
AcDbEntity
  8
0
  6
Continuous
 62
     7
100
AcDbLine
 10
181.1897456285029
 20
162.0978074010294
 30
0.0
 11
181.125723373559
 21
161.9858350690288
 31
0.0
  0
LINE
  5
F9
330
2
100
AcDbEntity
  8
0
  6
Continuous
 62
     7
100
AcDbLine
 10
181.125723373559
 20
161.9858350690288
 30
0.0
 11
181.0537316438226
 21
161.8498331960124
 31
0.0
  0
LINE
  5
FA
330
2
100
AcDbEntity
  8
0
  6
Continuous
 62
     7
100
AcDbLine
 10
181.0571229096918
 20
161.8302607472819
 30
0.0
 11
181.0217568513422
 21
161.7058134015483
 31
0.0
  0
LINE
  5
FB
330
2
100
AcDbEntity
  8
0
  6
Continuous
 62
     7
100
AcDbLine
 10
181.0217568513422
 20
161.7058134015483
 30
0.0
 11
180.9977273103266
 21
161.5298188146037
 31
0.0
  0
LINE
  5
FC
330
2
100
AcDbEntity
  8
0
  6
Continuous
 62
     7
100
AcDbLine
 10
180.9977273103266
 20
161.5298188146037
 30
0.0
 11
180.9817399140863
 21
161.385835355131
 31
0.0
  0
LINE
  5
FD
330
2
100
AcDbEntity
  8
0
  6
Continuous
 62
     7
100
AcDbLine
 10
180.9817399140863
 20
161.385835355131
 30
0.0
 11
181.0137389298945
 21
161.257815068571
 31
0.0
  0
LINE
  5
FE
330
2
100
AcDbEntity
  8
0
  6
Continuous
 62
     7
100
AcDbLine
 10
181.0137389298945
 20
161.257815068571
 30
0.0
 11
181.0377442475824
 21
161.0738388951701
 31
0.0
  0
LINE
  5
FF
330
2
100
AcDbEntity
  8
0
  6
Continuous
 62
     7
100
AcDbLine
 10
181.0968491670161
 20
160.9123783048076
 30
0.0
 11
181.1417349931269
 21
160.8258283551615
 31
0.0
  0
LINE
  5
100
330
2
100
AcDbEntity
  8
0
  6
Continuous
 62
     7
100
AcDbLine
 10
181.1417349931269
 20
160.8258283551615
 30
0.0
 11
181.2137267228632
 21
160.7138196881694
 31
0.0
  0
LINE
  5
101
330
2
100
AcDbEntity
  8
0
  6
Continuous
 62
     7
100
AcDbLine
 10
181.2137267228632
 20
160.7138196881694
 30
0.0
 11
181.3177416917353
 21
160.5698362286967
 31
0.0
  0
LINE
  5
102
330
2
100
AcDbEntity
  8
0
  6
Continuous
 62
     7
100
AcDbLine
 10
181.3177416917353
 20
160.5698362286967
 30
0.0
 11
181.4457377549677
 21
160.4178348477763
 31
0.0
  0
LINE
  5
103
330
2
100
AcDbEntity
  8
0
  6
Continuous
 62
     7
100
AcDbLine
 10
181.4457377549677
 20
160.4178348477763
 30
0.0
 11
181.5737580415276
 21
160.2818329747599
 31
0.0
  0
LINE
  5
104
330
2
100
AcDbEntity
  8
0
  6
Continuous
 62
     7
100
AcDbLine
 10
181.5737580415276
 20
160.2818329747599
 30
0.0
 11
181.7177415010004
 21
160.1858238156718
 31
0.0
  0
LINE
  5
105
330
2
100
AcDbEntity
  8
0
  6
Continuous
 62
     7
100
AcDbLine
 10
181.7177415010004
 20
160.1858238156718
 30
0.0
 11
181.853731262353
 21
160.1058383878154
 31
0.0
  0
LINE
  5
106
330
2
100
AcDbEntity
  8
0
  6
Continuous
 62
     7
100
AcDbLine
 10
181.853731262353
 20
160.1058383878154
 30
0.0
 11
182.0297379609614
 21
160.0018113072795
 31
0.0
  0
LINE
  5
107
330
2
100
AcDbEntity
  8
0
  6
Continuous
 62
     7
100
AcDbLine
 10
182.0297379609614
 20
160.0018113072795
 30
0.0
 11
182.2057446595698
 21
159.9218137677592
 31
0.0
  0
LINE
  5
108
330
2
100
AcDbEntity
  8
0
  6
Continuous
 62
     7
100
AcDbLine
 10
182.2057446595698
 20
159.9218137677592
 30
0.0
 11
182.2777363893061
 21
159.8898026402873
 31
0.0
  0
LINE
  5
109
330
2
100
AcDbEntity
  8
0
  6
Continuous
 62
     7
100
AcDbLine
 10
182.2777363893061
 20
159.8898026402873
 30
0.0
 11
182.3897450562983
 21
159.8497978146953
 31
0.0
  0
LINE
  5
10A
330
2
100
AcDbEntity
  8
0
  6
Continuous
 62
     7
100
AcDbLine
 10
182.4965699311762
 20
159.8119004186076
 30
0.0
 11
182.6697425004511
 21
159.7618186887187
 31
0.0
  0
LINE
  5
10B
330
2
100
AcDbEntity
  8
0
  6
Continuous
 62
     7
100
AcDbLine
 10
182.6697425004511
 20
159.7618186887187
 30
0.0
 11
182.7977385636835
 21
159.7298075612468
 31
0.0
  0
LINE
  5
10C
330
2
100
AcDbEntity
  8
0
  6
Continuous
 62
     7
100
AcDbLine
 10
182.7977385636835
 20
159.7298075612468
 30
0.0
 11
182.8697302934198
 21
159.7138080533427
 31
0.0
  0
LINE
  5
10D
330
2
100
AcDbEntity
  8
0
  6
Continuous
 62
     7
100
AcDbLine
 10
182.8697302934198
 20
159.7138080533427
 30
0.0
 11
182.9897568818598
 21
159.6978327687663
 31
0.0
  0
LINE
  5
10E
330
2
100
AcDbEntity
  8
0
  6
Continuous
 62
     7
100
AcDbLine
 10
182.9897568818598
 20
159.6978327687663
 30
0.0
 11
183.1257466432123
 21
159.6818332608622
 31
0.0
  0
LINE
  5
10F
330
2
100
AcDbEntity
  8
0
  6
Continuous
 62
     7
100
AcDbLine
 10
180.5017304536371
 20
163.1938281949443
 30
0.0
 11
180.7097361680536
 21
163.2898252423686
 31
0.0
  0
LINE
  5
110
330
2
100
AcDbEntity
  8
0
  6
Continuous
 62
     7
100
AcDbLine
 10
180.7097361680536
 20
163.2898252423686
 30
0.0
 11
180.933753502038
 21
163.3858222897929
 31
0.0
  0
LINE
  5
111
330
2
100
AcDbEntity
  8
0
  6
Continuous
 62
     7
100
AcDbLine
 10
180.933753502038
 20
163.3858222897929
 30
0.0
 11
181.1897456285029
 21
163.4738014157695
 31
0.0
  0
LINE
  5
112
330
2
100
AcDbEntity
  8
0
  6
Continuous
 62
     7
100
AcDbLine
 10
181.1897456285029
 20
163.4738014157695
 30
0.0
 11
181.4777367707758
 21
163.5537989552897
 31
0.0
  0
LINE
  5
113
330
2
100
AcDbEntity
  8
0
  6
Continuous
 62
     7
100
AcDbLine
 10
181.4777367707758
 20
163.5537989552897
 30
0.0
 11
181.8137385484248
 21
163.6338328298014
 31
0.0
  0
LINE
  5
114
330
2
100
AcDbEntity
  8
0
  6
Continuous
 62
     7
100
AcDbLine
 10
181.8137385484248
 20
163.6338328298014
 30
0.0
 11
182.0777485963373
 21
163.6738376553935
 31
0.0
  0
LINE
  5
115
330
2
100
AcDbEntity
  8
0
  6
Continuous
 62
     7
100
AcDbLine
 10
182.0777485963373
 20
163.6738376553935
 30
0.0
 11
182.3897450562983
 21
163.7138303693217
 31
0.0
  0
LINE
  5
116
330
2
100
AcDbEntity
  8
0
  6
Continuous
 62
     7
100
AcDbLine
 10
182.3897450562983
 20
163.7138303693217
 30
0.0
 11
182.5097474214106
 21
163.7378235753459
 31
0.0
  0
LINE
  5
117
330
2
100
AcDbEntity
  8
0
  6
Continuous
 62
     7
100
AcDbLine
 10
182.5097474214106
 20
163.7378235753459
 30
0.0
 11
182.8057564851313
 21
163.76181678137
 31
0.0
  0
LINE
  5
118
330
2
100
AcDbEntity
  8
0
  6
Continuous
 62
     7
100
AcDbLine
 10
182.8057564851313
 20
163.76181678137
 30
0.0
 11
183.0857297059565
 21
163.7698347028178
 31
0.0
  0
LINE
  5
119
330
2
100
AcDbEntity
  8
0
  6
Continuous
 62
     7
100
AcDbLine
 10
181.0537316438226
 20
161.8498331960124
 30
0.0
 11
181.0571229096918
 21
161.8302607472819
 31
0.0
  0
LINE
  5
11A
330
2
100
AcDbEntity
  8
0
  6
Continuous
 62
     7
100
AcDbLine
 10
181.0377442475824
 20
161.0738388951701
 30
0.0
 11
181.0968491670161
 21
160.9123783048076
 31
0.0
  0
LINE
  5
11B
330
2
100
AcDbEntity
  8
0
  6
Continuous
 62
     7
100
AcDbLine
 10
182.3897450562983
 20
159.8497978146953
 30
0.0
 11
182.4965699311762
 21
159.8119004186076
 31
0.0
  0
LINE
  5
11C
330
2
100
AcDbEntity
  8
0
  6
Continuous
 62
     7
100
AcDbLine
 10
186.0217423554926
 20
162.0017982419414
 30
0.0
 11
185.9497506257563
 21
162.0978074010294
 31
0.0
  0
LINE
  5
11D
330
2
100
AcDbEntity
  8
0
  6
Continuous
 62
     7
100
AcDbLine
 10
185.9497506257563
 20
162.0978074010294
 30
0.0
 11
185.9177516099482
 21
162.1698112424296
 31
0.0
  0
LINE
  5
11E
330
2
100
AcDbEntity
  8
0
  6
Continuous
 62
     7
100
AcDbLine
 10
185.9177516099482
 20
162.1698112424296
 30
0.0
 11
185.8617472764521
 21
162.2498087819499
 31
0.0
  0
LINE
  5
11F
330
2
100
AcDbEntity
  8
0
  6
Continuous
 62
     7
100
AcDbLine
 10
185.8617472764521
 20
162.2498087819499
 30
0.0
 11
185.7977250215082
 21
162.345817941038
 31
0.0
  0
LINE
  5
120
330
2
100
AcDbEntity
  8
0
  6
Continuous
 62
     7
100
AcDbLine
 10
185.7977250215082
 20
162.345817941038
 30
0.0
 11
185.7257332917719
 21
162.401822274534
 31
0.0
  0
LINE
  5
121
330
2
100
AcDbEntity
  8
0
  6
Continuous
 62
     7
100
AcDbLine
 10
185.7257332917719
 20
162.401822274534
 30
0.0
 11
185.6697289582758
 21
162.4578266080302
 31
0.0
  0
LINE
  5
122
330
2
100
AcDbEntity
  8
0
  6
Continuous
 62
     7
100
AcDbLine
 10
185.6697289582758
 20
162.4578266080302
 30
0.0
 11
185.5897435304194
 21
162.5298304494304
 31
0.0
  0
LINE
  5
123
330
2
100
AcDbEntity
  8
0
  6
Continuous
 62
     7
100
AcDbLine
 10
185.5897435304194
 20
162.5298304494304
 30
0.0
 11
185.5337391969233
 21
162.5698352750224
 31
0.0
  0
LINE
  5
124
330
2
100
AcDbEntity
  8
0
  6
Continuous
 62
     7
100
AcDbLine
 10
185.5337391969233
 20
162.5698352750224
 30
0.0
 11
185.4457358476191
 21
162.6258396085185
 31
0.0
  0
LINE
  5
125
330
2
100
AcDbEntity
  8
0
  6
Continuous
 62
     7
100
AcDbLine
 10
185.4457358476191
 20
162.6258396085185
 30
0.0
 11
185.3737198945551
 21
162.673813908903
 31
0.0
  0
LINE
  5
126
330
2
100
AcDbEntity
  8
0
  6
Continuous
 62
     7
100
AcDbLine
 10
185.3737198945551
 20
162.673813908903
 30
0.0
 11
185.2937344666987
 21
162.7218366559428
 31
0.0
  0
LINE
  5
127
330
2
100
AcDbEntity
  8
0
  6
Continuous
 62
     7
100
AcDbLine
 10
185.2937344666987
 20
162.7218366559428
 30
0.0
 11
185.2057311173945
 21
162.7698230679912
 31
0.0
  0
LINE
  5
128
330
2
100
AcDbEntity
  8
0
  6
Continuous
 62
     7
100
AcDbLine
 10
185.2057311173945
 20
162.7698230679912
 30
0.0
 11
185.1497267838984
 21
162.801834195463
 31
0.0
  0
LINE
  5
129
330
2
100
AcDbEntity
  8
0
  6
Continuous
 62
     7
100
AcDbLine
 10
185.1497267838984
 20
162.801834195463
 30
0.0
 11
185.0777350541621
 21
162.8418269093913
 31
0.0
  0
LINE
  5
12A
330
2
100
AcDbEntity
  8
0
  6
Continuous
 62
     7
100
AcDbLine
 10
185.0777350541621
 20
162.8418269093913
 30
0.0
 11
184.9897317048578
 21
162.8818317349833
 31
0.0
  0
LINE
  5
12B
330
2
100
AcDbEntity
  8
0
  6
Continuous
 62
     7
100
AcDbLine
 10
184.9897317048578
 20
162.8818317349833
 30
0.0
 11
184.8697535630732
 21
162.9458176549357
 31
0.0
  0
LINE
  5
12C
330
2
100
AcDbEntity
  8
0
  6
Continuous
 62
     7
100
AcDbLine
 10
184.8697535630732
 20
162.9458176549357
 30
0.0
 11
184.7337395783929
 21
162.9938404019755
 31
0.0
  0
LINE
  5
12D
330
2
100
AcDbEntity
  8
0
  6
Continuous
 62
     7
100
AcDbLine
 10
184.735677444604
 20
159.8443354543132
 30
0.0
 11
184.8777230378656
 21
159.897820561735
 31
0.0
  0
LINE
  5
12E
330
2
100
AcDbEntity
  8
0
  6
Continuous
 62
     7
100
AcDbLine
 10
184.8777230378656
 20
159.897820561735
 30
0.0
 11
185.0217307206659
 21
159.9538248952311
 31
0.0
  0
LINE
  5
12F
330
2
100
AcDbEntity
  8
0
  6
Continuous
 62
     7
100
AcDbLine
 10
185.0217307206659
 20
159.9538248952311
 30
0.0
 11
185.1577447053461
 21
160.0258408482951
 31
0.0
  0
LINE
  5
130
330
2
100
AcDbEntity
  8
0
  6
Continuous
 62
     7
100
AcDbLine
 10
185.1577447053461
 20
160.0258408482951
 30
0.0
 11
185.3017281648188
 21
160.0978083547038
 31
0.0
  0
LINE
  5
131
330
2
100
AcDbEntity
  8
0
  6
Continuous
 62
     7
100
AcDbLine
 10
185.3017281648188
 20
160.0978083547038
 30
0.0
 11
185.4217305299311
 21
160.1858238156718
 31
0.0
  0
LINE
  5
132
330
2
100
AcDbEntity
  8
0
  6
Continuous
 62
     7
100
AcDbLine
 10
185.4217305299311
 20
160.1858238156718
 30
0.0
 11
185.581749832299
 21
160.297832482664
 31
0.0
  0
LINE
  5
133
330
2
100
AcDbEntity
  8
0
  6
Continuous
 62
     7
100
AcDbLine
 10
185.581749832299
 20
160.297832482664
 30
0.0
 11
185.7097458955317
 21
160.4098048146648
 31
0.0
  0
LINE
  5
134
330
2
100
AcDbEntity
  8
0
  6
Continuous
 62
     7
100
AcDbLine
 10
185.7097458955317
 20
160.4098048146648
 30
0.0
 11
185.845735656884
 21
160.5538246091288
 31
0.0
  0
LINE
  5
135
330
2
100
AcDbEntity
  8
0
  6
Continuous
 62
     7
100
AcDbLine
 10
185.845735656884
 20
160.5538246091288
 30
0.0
 11
185.9097336885004
 21
160.6498337682169
 31
0.0
  0
LINE
  5
136
330
2
100
AcDbEntity
  8
0
  6
Continuous
 62
     7
100
AcDbLine
 10
185.9097336885004
 20
160.6498337682169
 30
0.0
 11
185.9817254182368
 21
160.7458308156413
 31
0.0
  0
LINE
  5
137
330
2
100
AcDbEntity
  8
0
  6
Continuous
 62
     7
100
AcDbLine
 10
185.9817254182368
 20
160.7458308156413
 30
0.0
 11
186.0057549592523
 21
160.8258283551615
 31
0.0
  0
LINE
  5
138
330
2
100
AcDbEntity
  8
0
  6
Continuous
 62
     7
100
AcDbLine
 10
186.1017520066766
 20
159.8658094342631
 30
0.0
 11
186.0377297517328
 21
159.8338346417827
 31
0.0
  0
LINE
  5
139
330
2
100
AcDbEntity
  8
0
  6
Continuous
 62
     7
100
AcDbLine
 10
186.0377297517328
 20
159.8338346417827
 30
0.0
 11
185.8937462922602
 21
159.7458191808146
 31
0.0
  0
LINE
  5
13A
330
2
100
AcDbEntity
  8
0
  6
Continuous
 62
     7
100
AcDbLine
 10
185.8937462922602
 20
159.7458191808146
 30
0.0
 11
185.7337512132197
 21
159.6738032277507
 31
0.0
  0
LINE
  5
13B
330
2
100
AcDbEntity
  8
0
  6
Continuous
 62
     7
100
AcDbLine
 10
184.6777352448969
 20
163.5858100827617
 30
0.0
 11
184.8217429276972
 21
163.5298057492656
 31
0.0
  0
LINE
  5
13C
330
2
100
AcDbEntity
  8
0
  6
Continuous
 62
     7
100
AcDbLine
 10
184.8217429276972
 20
163.5298057492656
 30
0.0
 11
185.045736038354
 21
163.4738014157695
 31
0.0
  0
LINE
  5
13D
330
2
100
AcDbEntity
  8
0
  6
Continuous
 62
     7
100
AcDbLine
 10
185.045736038354
 20
163.4738014157695
 30
0.0
 11
185.2217427369623
 21
163.4018339093608
 31
0.0
  0
LINE
  5
13E
330
2
100
AcDbEntity
  8
0
  6
Continuous
 62
     7
100
AcDbLine
 10
185.2217427369623
 20
163.4018339093608
 30
0.0
 11
185.413736831811
 21
163.3218363698405
 31
0.0
  0
LINE
  5
13F
330
2
100
AcDbEntity
  8
0
  6
Continuous
 62
     7
100
AcDbLine
 10
185.413736831811
 20
163.3218363698405
 30
0.0
 11
185.5737319108515
 21
163.2578141148966
 31
0.0
  0
LINE
  5
140
330
2
100
AcDbEntity
  8
0
  6
Continuous
 62
     7
100
AcDbLine
 10
185.5737319108515
 20
163.2578141148966
 30
0.0
 11
185.7897313233881
 21
163.1458054479045
 31
0.0
  0
LINE
  5
141
330
2
100
AcDbEntity
  8
0
  6
Continuous
 62
     7
100
AcDbLine
 10
185.7897313233881
 20
163.1458054479045
 30
0.0
 11
185.9097336885004
 21
163.0898374493998
 31
0.0
  0
LINE
  5
142
330
2
100
AcDbEntity
  8
0
  6
Continuous
 62
     7
100
AcDbLine
 10
185.9097336885004
 20
163.0898374493998
 30
0.0
 11
186.0537413713007
 21
162.9938404019755
 31
0.0
  0
LINE
  5
143
330
2
100
AcDbEntity
  8
0
  6
Continuous
 62
     7
100
AcDbLine
 10
186.0537413713007
 20
162.9938404019755
 30
0.0
 11
186.1657258149653
 21
162.9218244489116
 31
0.0
  0
LINE
  5
144
330
2
100
AcDbEntity
  8
0
  6
Continuous
 62
     7
100
AcDbLine
 10
186.1657258149653
 20
162.9218244489116
 30
0.0
 11
186.1657258149653
 21
163.5378357823771
 31
0.0
  0
LINE
  5
145
330
2
100
AcDbEntity
  8
0
  6
Continuous
 62
     7
100
AcDbLine
 10
184.6857531663447
 20
159.8178230222148
 30
0.0
 11
184.735677444604
 21
159.8443354543132
 31
0.0
  0
LINE
  5
146
330
2
100
AcDbEntity
  8
0
  6
Continuous
 62
     7
100
AcDbLine
 10
184.6537299272089
 20
163.0178214963359
 30
0.0
 11
184.5017527696161
 21
163.0658079083842
 31
0.0
  0
LINE
  5
147
330
2
100
AcDbEntity
  8
0
  6
Continuous
 62
     7
100
AcDbLine
 10
184.5017527696161
 20
163.0658079083842
 30
0.0
 11
184.3177523728876
 21
163.1058006223125
 31
0.0
  0
LINE
  5
148
330
2
100
AcDbEntity
  8
0
  6
Continuous
 62
     7
100
AcDbLine
 10
184.3177523728876
 20
163.1058006223125
 30
0.0
 11
184.1737446900873
 21
163.1298301633281
 31
0.0
  0
LINE
  5
149
330
2
100
AcDbEntity
  8
0
  6
Continuous
 62
     7
100
AcDbLine
 10
184.1737446900873
 20
163.1298301633281
 30
0.0
 11
184.053742324975
 21
163.1458054479045
 31
0.0
  0
LINE
  5
14A
330
2
100
AcDbEntity
  8
0
  6
Continuous
 62
     7
100
AcDbLine
 10
184.053742324975
 20
163.1458054479045
 30
0.0
 11
183.9257462617426
 21
163.1618049558085
 31
0.0
  0
LINE
  5
14B
330
2
100
AcDbEntity
  8
0
  6
Continuous
 62
     7
100
AcDbLine
 10
183.9257462617426
 20
163.1618049558085
 30
0.0
 11
183.8217312928705
 21
163.1698349889201
 31
0.0
  0
LINE
  5
14C
330
2
100
AcDbEntity
  8
0
  6
Continuous
 62
     7
100
AcDbLine
 10
183.8217312928705
 20
163.1698349889201
 30
0.0
 11
183.7257584687739
 21
163.1778165753764
 31
0.0
  0
LINE
  5
14D
330
2
100
AcDbEntity
  8
0
  6
Continuous
 62
     7
100
AcDbLine
 10
183.7257584687739
 20
163.1778165753764
 30
0.0
 11
183.6137498017817
 21
163.1778165753764
 31
0.0
  0
LINE
  5
14E
330
2
100
AcDbEntity
  8
0
  6
Continuous
 62
     7
100
AcDbLine
 10
183.6137498017817
 20
163.1778165753764
 30
0.0
 11
183.397750389245
 21
163.1778165753764
 31
0.0
  0
LINE
  5
14F
330
2
100
AcDbEntity
  8
0
  6
Continuous
 62
     7
100
AcDbLine
 10
183.8777356263666
 20
159.6738032277507
 30
0.0
 11
184.0137253877192
 21
159.6898148473185
 31
0.0
  0
LINE
  5
150
330
2
100
AcDbEntity
  8
0
  6
Continuous
 62
     7
100
AcDbLine
 10
184.0137253877192
 20
159.6898148473185
 30
0.0
 11
184.1737446900873
 21
159.7058143552226
 31
0.0
  0
LINE
  5
151
330
2
100
AcDbEntity
  8
0
  6
Continuous
 62
     7
100
AcDbLine
 10
184.1737446900873
 20
159.7058143552226
 30
0.0
 11
184.341733467248
 21
159.7378375943583
 31
0.0
  0
LINE
  5
152
330
2
100
AcDbEntity
  8
0
  6
Continuous
 62
     7
100
AcDbLine
 10
184.341733467248
 20
159.7378375943583
 30
0.0
 11
184.4857411500481
 21
159.7618186887187
 31
0.0
  0
LINE
  5
153
330
2
100
AcDbEntity
  8
0
  6
Continuous
 62
     7
100
AcDbLine
 10
184.4857411500481
 20
159.7618186887187
 30
0.0
 11
184.5897561189204
 21
159.7938419278544
 31
0.0
  0
LINE
  5
154
330
2
100
AcDbEntity
  8
0
  6
Continuous
 62
     7
100
AcDbLine
 10
183.3817387696772
 20
163.76181678137
 30
0.0
 11
183.6857415315179
 21
163.7458051618022
 31
0.0
  0
LINE
  5
155
330
2
100
AcDbEntity
  8
0
  6
Continuous
 62
     7
100
AcDbLine
 10
183.6857415315179
 20
163.7458051618022
 30
0.0
 11
183.8937472459345
 21
163.7138303693217
 31
0.0
  0
LINE
  5
156
330
2
100
AcDbEntity
  8
0
  6
Continuous
 62
     7
100
AcDbLine
 10
183.8937472459345
 20
163.7138303693217
 30
0.0
 11
184.1577330705195
 21
163.6898008283061
 31
0.0
  0
LINE
  5
157
330
2
100
AcDbEntity
  8
0
  6
Continuous
 62
     7
100
AcDbLine
 10
184.1577330705195
 20
163.6898008283061
 30
0.0
 11
184.4217431184321
 21
163.6418144162577
 31
0.0
  0
LINE
  5
158
330
2
100
AcDbEntity
  8
0
  6
Continuous
 62
     7
100
AcDbLine
 10
184.7337395783929
 20
162.9938404019755
 30
0.0
 11
184.6537299272089
 21
163.0178214963359
 31
0.0
  0
LINE
  5
159
330
2
100
AcDbEntity
  8
0
  6
Continuous
 62
     7
100
AcDbLine
 10
184.5897561189204
 20
159.7938419278544
 30
0.0
 11
184.6857531663447
 21
159.8178230222148
 31
0.0
  0
LINE
  5
15A
330
2
100
AcDbEntity
  8
0
  6
Continuous
 62
     7
100
AcDbLine
 10
184.4217431184321
 20
163.6418144162577
 30
0.0
 11
184.6777352448969
 21
163.5858100827617
 31
0.0
  0
LINE
  5
15B
330
2
100
AcDbEntity
  8
0
  6
Continuous
 62
     7
100
AcDbLine
 10
191.5023913499384
 20
159.1834140714091
 30
0.0
 11
191.5023913499384
 21
159.7714353497905
 31
0.0
  0
LINE
  5
15C
330
2
100
AcDbEntity
  8
0
  6
Continuous
 62
     7
100
AcDbLine
 10
187.9273430940179
 20
159.7714353497905
 30
0.0
 11
187.9273430940179
 21
159.1834140714091
 31
0.0
  0
LINE
  5
15D
330
2
100
AcDbEntity
  8
0
  6
Continuous
 62
     7
100
AcDbLine
 10
187.9273430940179
 20
159.1834140714091
 30
0.0
 11
189.1503789063959
 21
159.1834140714091
 31
0.0
  0
LINE
  5
15E
330
2
100
AcDbEntity
  8
0
  6
Continuous
 62
     7
100
AcDbLine
 10
189.1503789063959
 20
159.1834140714091
 30
0.0
 11
191.5023913499384
 21
159.1834140714091
 31
0.0
  0
LINE
  5
15F
330
2
100
AcDbEntity
  8
0
  6
Continuous
 62
     7
100
AcDbLine
 10
191.5023913499384
 20
163.6522062238139
 30
0.0
 11
187.9273430940179
 21
163.6522062238139
 31
0.0
  0
LINE
  5
160
330
2
100
AcDbEntity
  8
0
  6
Continuous
 62
     7
100
AcDbLine
 10
187.9273430940179
 20
163.6522062238139
 30
0.0
 11
187.9273430940179
 21
163.064221280424
 31
0.0
  0
LINE
  5
161
330
2
100
AcDbEntity
  8
0
  6
Continuous
 62
     7
100
AcDbLine
 10
187.9273430940179
 20
163.064221280424
 30
0.0
 11
188.8681529161005
 21
163.064221280424
 31
0.0
  0
LINE
  5
162
330
2
100
AcDbEntity
  8
0
  6
Continuous
 62
     7
100
AcDbLine
 10
188.8681529161005
 20
163.064221280424
 30
0.0
 11
188.8681529161005
 21
159.7714353497905
 31
0.0
  0
LINE
  5
163
330
2
100
AcDbEntity
  8
0
  6
Continuous
 62
     7
100
AcDbLine
 10
188.8681529161005
 20
159.7714353497905
 30
0.0
 11
187.9273430940179
 21
159.7714353497905
 31
0.0
  0
LINE
  5
164
330
2
100
AcDbEntity
  8
0
  6
Continuous
 62
     7
100
AcDbLine
 10
186.9897307511835
 20
163.5378357823771
 30
0.0
 11
186.9897307511835
 21
162.0017982419414
 31
0.0
  0
LINE
  5
165
330
2
100
AcDbEntity
  8
0
  6
Continuous
 62
     7
100
AcDbLine
 10
186.9817370530634
 20
160.8258283551615
 30
0.0
 11
186.9497380372553
 21
160.7378128941935
 31
0.0
  0
LINE
  5
166
330
2
100
AcDbEntity
  8
0
  6
Continuous
 62
     7
100
AcDbLine
 10
186.9497380372553
 20
160.7378128941935
 30
0.0
 11
186.9017274018793
 21
160.6818085606974
 31
0.0
  0
LINE
  5
167
330
2
100
AcDbEntity
  8
0
  6
Continuous
 62
     7
100
AcDbLine
 10
186.9017274018793
 20
160.6818085606974
 30
0.0
 11
186.853740989831
 21
160.5857994016093
 31
0.0
  0
LINE
  5
168
330
2
100
AcDbEntity
  8
0
  6
Continuous
 62
     7
100
AcDbLine
 10
186.853740989831
 20
160.5857994016093
 30
0.0
 11
186.7817492600947
 21
160.489802354185
 31
0.0
  0
LINE
  5
169
330
2
100
AcDbEntity
  8
0
  6
Continuous
 62
     7
100
AcDbLine
 10
186.7817492600947
 20
160.489802354185
 30
0.0
 11
186.6937459107905
 21
160.3858116086406
 31
0.0
  0
LINE
  5
16A
330
2
100
AcDbEntity
  8
0
  6
Continuous
 62
     7
100
AcDbLine
 10
186.6937459107905
 20
160.3858116086406
 30
0.0
 11
186.6217299577265
 21
160.3058261807841
 31
0.0
  0
LINE
  5
16B
330
2
100
AcDbEntity
  8
0
  6
Continuous
 62
     7
100
AcDbLine
 10
186.6217299577265
 20
160.3058261807841
 30
0.0
 11
186.5577561494379
 21
160.2418281491679
 31
0.0
  0
LINE
  5
16C
330
2
100
AcDbEntity
  8
0
  6
Continuous
 62
     7
100
AcDbLine
 10
186.5577561494379
 20
160.2418281491679
 30
0.0
 11
186.4857401963739
 21
160.1698243077678
 31
0.0
  0
LINE
  5
16D
330
2
100
AcDbEntity
  8
0
  6
Continuous
 62
     7
100
AcDbLine
 10
186.4857401963739
 20
160.1698243077678
 30
0.0
 11
186.3897431489496
 21
160.0898267682475
 31
0.0
  0
LINE
  5
16E
330
2
100
AcDbEntity
  8
0
  6
Continuous
 62
     7
100
AcDbLine
 10
186.3897431489496
 20
160.0898267682475
 30
0.0
 11
186.3337388154535
 21
160.0338224347514
 31
0.0
  0
LINE
  5
16F
330
2
100
AcDbEntity
  8
0
  6
Continuous
 62
     7
100
AcDbLine
 10
186.3337388154535
 20
160.0338224347514
 30
0.0
 11
186.2137364503412
 21
159.9458069737834
 31
0.0
  0
LINE
  5
170
330
2
100
AcDbEntity
  8
0
  6
Continuous
 62
     7
100
AcDbLine
 10
191.5023913499384
 20
159.7714353497905
 30
0.0
 11
190.5145398255854
 21
159.7714353497905
 31
0.0
  0
LINE
  5
171
330
2
100
AcDbEntity
  8
0
  6
Continuous
 62
     7
100
AcDbLine
 10
190.5145398255854
 20
159.7714353497905
 30
0.0
 11
190.5145398255854
 21
161.0650337155741
 31
0.0
  0
LINE
  5
172
330
2
100
AcDbEntity
  8
0
  6
Continuous
 62
     7
100
AcDbLine
 10
190.5145398255854
 20
161.7706108029765
 30
0.0
 11
190.5145398255854
 21
163.064221280424
 31
0.0
  0
LINE
  5
173
330
2
100
AcDbEntity
  8
0
  6
Continuous
 62
     7
100
AcDbLine
 10
190.5145398255854
 20
163.064221280424
 30
0.0
 11
191.5023913499384
 21
163.064221280424
 31
0.0
  0
LINE
  5
174
330
2
100
AcDbEntity
  8
0
  6
Continuous
 62
     7
100
AcDbLine
 10
191.5023913499384
 20
163.064221280424
 30
0.0
 11
191.5023913499384
 21
163.6522062238139
 31
0.0
  0
LINE
  5
175
330
2
100
AcDbEntity
  8
0
  6
Continuous
 62
     7
100
AcDbLine
 10
150.9897358056574
 20
151.9871600087566
 30
0.0
 11
150.9897358056574
 21
200.8658194478435
 31
0.0
  0
ARC
  5
176
330
2
100
AcDbEntity
  8
0
  6
Continuous
 62
     7
100
AcDbCircle
 10
323.2506112360078
 20
149.0657986302337
 30
0.0
 40
1.49999544256997
100
AcDbArc
 50
269.9996219216164
 51
0.0003780783835449
  0
LINE
  5
177
330
2
100
AcDbEntity
  8
0
  6
Continuous
 62
     7
100
AcDbLine
 10
320.9499722943898
 20
147.3658835824411
 30
0.0
 11
319.9508754239674
 21
146.3657553132457
 31
0.0
  0
ARC
  5
178
330
2
100
AcDbEntity
  8
0
  6
Continuous
 62
     7
100
AcDbCircle
 10
294.6505929658089
 20
149.0657986302337
 30
0.0
 40
1.49999544256997
100
AcDbArc
 50
179.9996219216164
 51
270.0003780783835
  0
LINE
  5
179
330
2
100
AcDbEntity
  8
0
  6
Continuous
 62
     7
100
AcDbLine
 10
296.9499722943898
 20
147.3658835824411
 30
0.0
 11
297.9509101377125
 21
146.3657553132457
 31
0.0
  0
LINE
  5
17A
330
2
100
AcDbEntity
  8
0
  6
Continuous
 62
     7
100
AcDbLine
 10
220.9900294419794
 20
146.3658194478434
 30
0.0
 11
220.9900294419794
 21
148.1657968457621
 31
0.0
  0
LINE
  5
17B
330
2
100
AcDbEntity
  8
0
  6
Continuous
 62
     7
100
AcDbLine
 10
297.9509101377125
 20
146.3658194478434
 30
0.0
 11
319.9508754239674
 21
146.3658194478434
 31
0.0
  0
LINE
  5
17C
330
2
100
AcDbEntity
  8
0
  6
Continuous
 62
     7
100
AcDbLine
 10
235.9897194978266
 20
121.9300314839762
 30
0.0
 11
235.9897194978266
 21
92.8016253407878
 31
0.0
  0
LINE
  5
17D
330
2
100
AcDbEntity
  8
0
  6
Continuous
 62
     7
100
AcDbLine
 10
220.9897387620478
 20
123.3656996663493
 30
0.0
 11
220.9897387620478
 21
91.3656664784831
 31
0.0
  0
LINE
  5
17E
330
2
100
AcDbEntity
  8
0
  6
Continuous
 62
     7
100
AcDbLine
 10
221.4897324677973
 20
123.1658087666911
 30
0.0
 11
221.4897324677973
 21
91.56582383474532
 31
0.0
  0
CIRCLE
  5
17F
330
2
100
AcDbEntity
  8
0
  6
Continuous
 62
     7
100
AcDbCircle
 10
201.98973571029
 20
107.3657315190715
 30
0.0
 40
1.999999046325681
  0
CIRCLE
  5
180
330
2
100
AcDbEntity
  8
0
  6
Continuous
 62
     7
100
AcDbCircle
 10
201.98973571029
 20
107.3657315190715
 30
0.0
 40
1.500005340576171
  0
LINE
  5
181
330
2
100
AcDbEntity
  8
0
  6
Continuous
 62
     7
100
AcDbLine
 10
221.4897324677973
 20
91.56582383474532
 30
0.0
 11
235.0071728822261
 21
91.80175904592696
 31
0.0
  0
LINE
  5
182
330
2
100
AcDbEntity
  8
0
  6
Continuous
 62
     7
100
AcDbLine
 10
220.9897387620478
 20
92.37454385122481
 30
0.0
 11
221.4897324677973
 21
92.36582345327558
 31
0.0
  0
ARC
  5
183
330
2
100
AcDbEntity
  8
0
  6
Continuous
 62
     7
100
AcDbCircle
 10
235.0926460758913
 20
95.48715511589506
 30
0.0
 40
2.597090778836101
100
AcDbArc
 50
299.9625046551294
 51
60.03749534487059
  0
ARC
  5
184
330
2
100
AcDbEntity
  8
0
  6
Continuous
 62
     7
100
AcDbCircle
 10
233.0932768360842
 20
94.36583461126508
 30
0.0
 40
2.597090778836101
100
AcDbArc
 50
299.9625046551294
 51
60.03749534487059
  0
LINE
  5
185
330
2
100
AcDbEntity
  8
0
  6
Continuous
 62
     7
100
AcDbLine
 10
234.3903500672846
 20
92.11583871206464
 30
0.0
 11
234.3903500672846
 21
96.61583051046557
 31
0.0
  0
LINE
  5
186
330
2
100
AcDbEntity
  8
0
  6
Continuous
 62
     7
100
AcDbLine
 10
233.9903502580195
 20
91.7840275700969
 30
0.0
 11
233.9903502580195
 21
97.36583318075361
 31
0.0
  0
ARC
  5
187
330
2
100
AcDbEntity
  8
0
  6
Continuous
 62
     7
100
AcDbCircle
 10
234.9897055789626
 20
92.80164462544878
 30
0.0
 40
1.000013919049992
100
AcDbArc
 50
271.0008397232381
 51
359.9988950856972
  0
LINE
  5
188
330
2
100
AcDbEntity
  8
0
  6
Continuous
 62
     7
100
AcDbLine
 10
234.3903500672846
 20
92.11583871206464
 30
0.0
 11
233.9903502580195
 21
92.11583871206464
 31
0.0
  0
LINE
  5
189
330
2
100
AcDbEntity
  8
0
  6
Continuous
 62
     7
100
AcDbLine
 10
236.3897193070918
 20
93.2371592166946
 30
0.0
 11
235.9897194978266
 21
93.2371592166946
 31
0.0
  0
LINE
  5
18A
330
2
100
AcDbEntity
  8
0
  6
Continuous
 62
     7
100
AcDbLine
 10
233.9903502580195
 20
97.36583318075361
 30
0.0
 11
235.9903493043451
 21
97.36583318075361
 31
0.0
  0
LINE
  5
18B
330
2
100
AcDbEntity
  8
0
  6
Continuous
 62
     7
100
AcDbLine
 10
234.3903500672846
 20
96.61583051046557
 30
0.0
 11
233.9903502580195
 21
96.61583051046557
 31
0.0
  0
LINE
  5
18C
330
2
100
AcDbEntity
  8
0
  6
Continuous
 62
     7
100
AcDbLine
 10
236.3897193070918
 20
97.73715101509552
 30
0.0
 11
235.9897194978266
 21
97.73715101509552
 31
0.0
  0
LINE
  5
18D
330
2
100
AcDbEntity
  8
0
  6
Continuous
 62
     7
100
AcDbLine
 10
221.4897324677973
 20
123.1658087666911
 30
0.0
 11
235.0071728822261
 21
122.9298735555095
 31
0.0
  0
LINE
  5
18E
330
2
100
AcDbEntity
  8
0
  6
Continuous
 62
     7
100
AcDbLine
 10
220.9897387620478
 20
122.3570887502116
 30
0.0
 11
221.4897324677973
 21
122.3658091481608
 31
0.0
  0
LINE
  5
18F
330
2
100
AcDbEntity
  8
0
  6
Continuous
 62
     7
100
AcDbLine
 10
233.9903502580195
 20
122.9476050313395
 30
0.0
 11
233.9903502580195
 21
117.3657994206828
 31
0.0
  0
ARC
  5
190
330
2
100
AcDbEntity
  8
0
  6
Continuous
 62
     7
100
AcDbCircle
 10
234.9897055789626
 20
121.9300121993153
 30
0.0
 40
1.000013919049992
100
AcDbArc
 50
0.0011049143028651
 51
88.99916027676184
  0
ARC
  5
191
330
2
100
AcDbEntity
  8
0
  6
Continuous
 62
     7
100
AcDbCircle
 10
235.0926460758913
 20
119.3922952600023
 30
0.0
 40
2.597090778836101
100
AcDbArc
 50
299.9625046551294
 51
60.03749534487059
  0
ARC
  5
192
330
2
100
AcDbEntity
  8
0
  6
Continuous
 62
     7
100
AcDbCircle
 10
233.0932768360842
 20
120.3657979901713
 30
0.0
 40
2.597090778836101
100
AcDbArc
 50
299.9625046551294
 51
60.03749534487059
  0
LINE
  5
193
330
2
100
AcDbEntity
  8
0
  6
Continuous
 62
     7
100
AcDbLine
 10
234.3903500672846
 20
122.6157938893718
 30
0.0
 11
234.3903500672846
 21
118.1158020909709
 31
0.0
  0
LINE
  5
194
330
2
100
AcDbEntity
  8
0
  6
Continuous
 62
     7
100
AcDbLine
 10
233.9903502580195
 20
117.3657994206828
 30
0.0
 11
235.9903493043451
 21
117.3657994206828
 31
0.0
  0
LINE
  5
195
330
2
100
AcDbEntity
  8
0
  6
Continuous
 62
     7
100
AcDbLine
 10
234.3903500672846
 20
118.1158020909709
 30
0.0
 11
233.9903502580195
 21
118.1158020909709
 31
0.0
  0
LINE
  5
196
330
2
100
AcDbEntity
  8
0
  6
Continuous
 62
     7
100
AcDbLine
 10
236.3897193070918
 20
117.1422993608018
 30
0.0
 11
235.9897194978266
 21
117.1422993608018
 31
0.0
  0
LINE
  5
197
330
2
100
AcDbEntity
  8
0
  6
Continuous
 62
     7
100
AcDbLine
 10
234.3903500672846
 20
122.6157938893718
 30
0.0
 11
233.9903502580195
 21
122.6157938893718
 31
0.0
  0
LINE
  5
198
330
2
100
AcDbEntity
  8
0
  6
Continuous
 62
     7
100
AcDbLine
 10
236.3897193070918
 20
121.6422911592027
 30
0.0
 11
235.9897194978266
 21
121.6422911592027
 31
0.0
  0
LINE
  5
199
330
2
100
AcDbEntity
  8
0
  6
Continuous
 62
     7
100
AcDbLine
 10
323.2506013379689
 20
202.1657892640513
 30
0.0
 11
294.6506028638479
 21
202.1657892640513
 31
0.0
  0
LINE
  5
19A
330
2
100
AcDbEntity
  8
0
  6
Continuous
 62
     7
100
AcDbLine
 10
323.4499593244191
 20
202.3658194478434
 30
0.0
 11
294.4499852643605
 21
202.3658194478434
 31
0.0
  0
LINE
  5
19B
330
2
100
AcDbEntity
  8
0
  6
Continuous
 62
     7
100
AcDbLine
 10
323.2506013379689
 20
147.5658031876963
 30
0.0
 11
294.6506028638479
 21
147.5658031876963
 31
0.0
  0
LINE
  5
19C
330
2
100
AcDbEntity
  8
0
  6
Continuous
 62
     7
100
AcDbLine
 10
294.6508935437794
 20
147.5657547410411
 30
0.0
 11
323.2508920179005
 21
147.5657547410411
 31
0.0
  0
LINE
  5
19D
330
2
100
AcDbEntity
  8
0
  6
Continuous
 62
     7
100
AcDbLine
 10
220.9897387620478
 20
202.3657467778606
 30
0.0
 11
220.9897387620478
 21
147.3660394605082
 31
0.0
  0
LINE
  5
19E
330
2
100
AcDbEntity
  8
0
  6
Continuous
 62
     7
100
AcDbLine
 10
221.4897324677973
 20
202.1658316548747
 30
0.0
 11
221.4897324677973
 21
147.5658334668559
 31
0.0
  0
LINE
  5
19F
330
2
100
AcDbEntity
  8
0
  6
Continuous
 62
     7
100
AcDbLine
 10
235.989089691308
 20
200.930042260496
 30
0.0
 11
235.989089691308
 21
148.8016228612346
 31
0.0
  0
LINE
  5
1A0
330
2
100
AcDbEntity
  8
0
  6
Continuous
 62
     7
100
AcDbLine
 10
237.989089691308
 20
162.8656668740952
 30
0.0
 11
237.989089691308
 21
153.8656668740952
 31
0.0
  0
ARC
  5
1A1
330
2
100
AcDbEntity
  8
0
  6
Continuous
 62
     7
100
AcDbCircle
 10
236.4890896913081
 20
153.8656668740952
 30
0.0
 40
1.5
100
AcDbArc
 50
270.0
 51
0.0
  0
ARC
  5
1A2
330
2
100
AcDbEntity
  8
0
  6
Continuous
 62
     7
100
AcDbCircle
 10
236.4890896913081
 20
162.8656668740952
 30
0.0
 40
1.5
100
AcDbArc
 50
0.0
 51
90.0
  0
LINE
  5
1A3
330
2
100
AcDbEntity
  8
0
  6
Continuous
 62
     7
100
AcDbLine
 10
215.1817357179194
 20
163.7538230832499
 30
0.0
 11
215.3577424165278
 21
163.7378235753459
 31
0.0
  0
LINE
  5
1A4
330
2
100
AcDbEntity
  8
0
  6
Continuous
 62
     7
100
AcDbLine
 10
215.1737420197993
 20
163.1458054479045
 30
0.0
 11
215.3417550202876
 21
163.113830655424
 31
0.0
  0
LINE
  5
1A5
330
2
100
AcDbEntity
  8
0
  6
Continuous
 62
     7
100
AcDbLine
 10
215.2057410356074
 20
159.6898148473185
 30
0.0
 11
214.9977353211909
 21
159.6738032277507
 31
0.0
  0
LINE
  5
1A6
330
2
100
AcDbEntity
  8
0
  6
Continuous
 62
     7
100
AcDbLine
 10
215.2377400514155
 20
159.0898151334208
 30
0.0
 11
214.9497246858149
 21
159.073803513853
 31
0.0
  0
LINE
  5
1A7
330
2
100
AcDbEntity
  8
0
  6
Continuous
 62
     7
100
AcDbLine
 10
202.1569251176386
 20
159.1834140714091
 30
0.0
 11
204.9793303605585
 21
159.1834140714091
 31
0.0
  0
LINE
  5
1A8
330
2
100
AcDbEntity
  8
0
  6
Continuous
 62
     7
100
AcDbLine
 10
204.8617503282099
 20
163.6522062238139
 30
0.0
 11
202.1569251176386
 21
163.6522062238139
 31
0.0
  0
LINE
  5
1A9
330
2
100
AcDbEntity
  8
0
  6
Continuous
 62
     7
100
AcDbLine
 10
197.5705529328851
 20
159.1834140714091
 30
0.0
 11
201.0985352632075
 21
159.1834140714091
 31
0.0
  0
LINE
  5
1AA
330
2
100
AcDbEntity
  8
0
  6
Continuous
 62
     7
100
AcDbLine
 10
201.0985352632075
 20
163.6522062238139
 30
0.0
 11
197.5705529328851
 21
163.6522062238139
 31
0.0
  0
LINE
  5
1AB
330
2
100
AcDbEntity
  8
0
  6
Continuous
 62
     7
100
AcDbLine
 10
197.5705529328851
 20
163.064221280424
 30
0.0
 11
198.3937584992914
 21
163.064221280424
 31
0.0
  0
LINE
  5
1AC
330
2
100
AcDbEntity
  8
0
  6
Continuous
 62
     7
100
AcDbLine
 10
198.3937584992914
 20
159.7714353497905
 30
0.0
 11
197.5705529328851
 21
159.7714353497905
 31
0.0
  0
LINE
  5
1AD
330
2
100
AcDbEntity
  8
0
  6
Continuous
 62
     7
100
AcDbLine
 10
196.5121388551264
 20
159.1834140714091
 30
0.0
 11
196.5121388551264
 21
159.7714353497905
 31
0.0
  0
LINE
  5
1AE
330
2
100
AcDbEntity
  8
0
  6
Continuous
 62
     7
100
AcDbLine
 10
197.5705529328851
 20
159.7714353497905
 30
0.0
 11
197.5705529328851
 21
159.1834140714091
 31
0.0
  0
LINE
  5
1AF
330
2
100
AcDbEntity
  8
0
  6
Continuous
 62
     7
100
AcDbLine
 10
192.9841323014765
 20
159.7714353497905
 30
0.0
 11
192.9841323014765
 21
159.1834140714091
 31
0.0
  0
LINE
  5
1B0
330
2
100
AcDbEntity
  8
0
  6
Continuous
 62
     7
100
AcDbLine
 10
192.9841323014765
 20
159.1834140714091
 30
0.0
 11
196.5121388551264
 21
159.1834140714091
 31
0.0
  0
LINE
  5
1B1
330
2
100
AcDbEntity
  8
0
  6
Continuous
 62
     7
100
AcDbLine
 10
196.5121388551264
 20
163.6522062238139
 30
0.0
 11
192.9841323014765
 21
163.6522062238139
 31
0.0
  0
LINE
  5
1B2
330
2
100
AcDbEntity
  8
0
  6
Continuous
 62
     7
100
AcDbLine
 10
193.924942123559
 20
161.0650337155741
 30
0.0
 11
193.924942123559
 21
159.7714353497905
 31
0.0
  0
LINE
  5
1B3
330
2
100
AcDbEntity
  8
0
  6
Continuous
 62
     7
100
AcDbLine
 10
193.924942123559
 20
159.7714353497905
 30
0.0
 11
192.9841323014765
 21
159.7714353497905
 31
0.0
  0
LINE
  5
1B4
330
2
100
AcDbEntity
  8
0
  6
Continuous
 62
     7
100
AcDbLine
 10
192.9841323014765
 20
163.6522062238139
 30
0.0
 11
192.9841323014765
 21
163.064221280424
 31
0.0
  0
LINE
  5
1B5
330
2
100
AcDbEntity
  8
0
  6
Continuous
 62
     7
100
AcDbLine
 10
192.9841323014765
 20
163.064221280424
 30
0.0
 11
193.924942123559
 21
163.064221280424
 31
0.0
  0
LINE
  5
1B6
330
2
100
AcDbEntity
  8
0
  6
Continuous
 62
     7
100
AcDbLine
 10
193.924942123559
 20
163.064221280424
 30
0.0
 11
193.924942123559
 21
161.7706108029765
 31
0.0
  0
LINE
  5
1B7
330
2
100
AcDbEntity
  8
0
  6
Continuous
 62
     7
100
AcDbLine
 10
196.5121388551264
 20
163.064221280424
 30
0.0
 11
196.5121388551264
 21
163.6522062238139
 31
0.0
  0
LINE
  5
1B8
330
2
100
AcDbEntity
  8
0
  6
Continuous
 62
     7
100
AcDbLine
 10
197.5705529328851
 20
163.6522062238139
 30
0.0
 11
197.5705529328851
 21
163.064221280424
 31
0.0
  0
LINE
  5
1B9
330
2
100
AcDbEntity
  8
0
  6
Continuous
 62
     7
100
AcDbLine
 10
195.6889332887199
 20
159.7714353497905
 30
0.0
 11
195.6889332887199
 21
163.064221280424
 31
0.0
  0
LINE
  5
1BA
330
2
100
AcDbEntity
  8
0
  6
Continuous
 62
     7
100
AcDbLine
 10
196.5121388551264
 20
159.7714353497905
 30
0.0
 11
195.6889332887199
 21
159.7714353497905
 31
0.0
  0
LINE
  5
1BB
330
2
100
AcDbEntity
  8
0
  6
Continuous
 62
     7
100
AcDbLine
 10
195.6889332887199
 20
163.064221280424
 30
0.0
 11
196.5121388551264
 21
163.064221280424
 31
0.0
  0
LINE
  5
1BC
330
2
100
AcDbEntity
  8
0
  6
Continuous
 62
     7
100
AcDbLine
 10
202.1569251176386
 20
159.7714353497905
 30
0.0
 11
202.1569251176386
 21
159.1834140714091
 31
0.0
  0
LINE
  5
1BD
330
2
100
AcDbEntity
  8
0
  6
Continuous
 62
     7
100
AcDbLine
 10
201.0985352632075
 20
159.1834140714091
 30
0.0
 11
201.0985352632075
 21
159.7714353497905
 31
0.0
  0
LINE
  5
1BE
330
2
100
AcDbEntity
  8
0
  6
Continuous
 62
     7
100
AcDbLine
 10
201.0985352632075
 20
159.7714353497905
 30
0.0
 11
200.2753296968012
 21
159.7714353497905
 31
0.0
  0
LINE
  5
1BF
330
2
100
AcDbEntity
  8
0
  6
Continuous
 62
     7
100
AcDbLine
 10
200.2753296968012
 20
163.064221280424
 30
0.0
 11
201.0985352632075
 21
163.064221280424
 31
0.0
  0
LINE
  5
1C0
330
2
100
AcDbEntity
  8
0
  6
Continuous
 62
     7
100
AcDbLine
 10
200.2753296968012
 20
159.7714353497905
 30
0.0
 11
200.2753296968012
 21
163.064221280424
 31
0.0
  0
LINE
  5
1C1
330
2
100
AcDbEntity
  8
0
  6
Continuous
 62
     7
100
AcDbLine
 10
198.3937584992914
 20
163.064221280424
 30
0.0
 11
198.3937584992914
 21
159.7714353497905
 31
0.0
  0
LINE
  5
1C2
330
2
100
AcDbEntity
  8
0
  6
Continuous
 62
     7
100
AcDbLine
 10
202.1569251176386
 20
163.6522062238139
 30
0.0
 11
202.1569251176386
 21
163.064221280424
 31
0.0
  0
LINE
  5
1C3
330
2
100
AcDbEntity
  8
0
  6
Continuous
 62
     7
100
AcDbLine
 10
202.1569251176386
 20
163.064221280424
 30
0.0
 11
203.0977349397211
 21
163.064221280424
 31
0.0
  0
LINE
  5
1C4
330
2
100
AcDbEntity
  8
0
  6
Continuous
 62
     7
100
AcDbLine
 10
203.0977349397211
 20
163.064221280424
 30
0.0
 11
203.0977349397211
 21
159.7714353497905
 31
0.0
  0
LINE
  5
1C5
330
2
100
AcDbEntity
  8
0
  6
Continuous
 62
     7
100
AcDbLine
 10
203.0977349397211
 20
159.7714353497905
 30
0.0
 11
202.1569251176386
 21
159.7714353497905
 31
0.0
  0
LINE
  5
1C6
330
2
100
AcDbEntity
  8
0
  6
Continuous
 62
     7
100
AcDbLine
 10
201.0985352632075
 20
163.064221280424
 30
0.0
 11
201.0985352632075
 21
163.6522062238139
 31
0.0
  0
LINE
  5
1C7
330
2
100
AcDbEntity
  8
0
  6
Continuous
 62
     7
100
AcDbLine
 10
210.3889565583735
 20
163.6522062238139
 30
0.0
 11
207.4489228364497
 21
163.6522062238139
 31
0.0
  0
LINE
  5
1C8
330
2
100
AcDbEntity
  8
0
  6
Continuous
 62
     7
100
AcDbLine
 10
210.3889565583735
 20
163.064221280424
 30
0.0
 11
209.3305424806147
 21
163.064221280424
 31
0.0
  0
LINE
  5
1C9
330
2
100
AcDbEntity
  8
0
  6
Continuous
 62
     7
100
AcDbLine
 10
209.3305424806147
 20
159.1834140714091
 30
0.0
 11
209.3305424806147
 21
163.064221280424
 31
0.0
  0
LINE
  5
1CA
330
2
100
AcDbEntity
  8
0
  6
Continuous
 62
     7
100
AcDbLine
 10
204.9793303605585
 20
159.1834140714091
 30
0.0
 11
204.9793303605585
 21
159.7714353497905
 31
0.0
  0
LINE
  5
1CB
330
2
100
AcDbEntity
  8
0
  6
Continuous
 62
     7
100
AcDbLine
 10
204.0385447618037
 20
162.3586078580301
 30
0.0
 11
207.6841555711299
 21
159.1834140714091
 31
0.0
  0
LINE
  5
1CC
330
2
100
AcDbEntity
  8
0
  6
Continuous
 62
     7
100
AcDbLine
 10
207.6841555711299
 20
159.1834140714091
 30
0.0
 11
209.3305424806147
 21
159.1834140714091
 31
0.0
  0
LINE
  5
1CD
330
2
100
AcDbEntity
  8
0
  6
Continuous
 62
     7
100
AcDbLine
 10
208.3897568818598
 20
160.5946045812053
 30
0.0
 11
204.8617503282099
 21
163.6522062238139
 31
0.0
  0
LINE
  5
1CE
330
2
100
AcDbEntity
  8
0
  6
Continuous
 62
     7
100
AcDbLine
 10
204.9793303605585
 20
159.7714353497905
 30
0.0
 11
204.0385447618037
 21
159.7714353497905
 31
0.0
  0
LINE
  5
1CF
330
2
100
AcDbEntity
  8
0
  6
Continuous
 62
     7
100
AcDbLine
 10
204.0385447618037
 20
159.7714353497905
 30
0.0
 11
204.0385447618037
 21
162.3586078580301
 31
0.0
  0
LINE
  5
1D0
330
2
100
AcDbEntity
  8
0
  6
Continuous
 62
     7
100
AcDbLine
 10
207.4489228364497
 20
163.6522062238139
 30
0.0
 11
207.4489228364497
 21
163.064221280424
 31
0.0
  0
LINE
  5
1D1
330
2
100
AcDbEntity
  8
0
  6
Continuous
 62
     7
100
AcDbLine
 10
207.4489228364497
 20
163.064221280424
 30
0.0
 11
208.3897568818598
 21
163.064221280424
 31
0.0
  0
LINE
  5
1D2
330
2
100
AcDbEntity
  8
0
  6
Continuous
 62
     7
100
AcDbLine
 10
208.3897568818598
 20
163.064221280424
 30
0.0
 11
208.3897568818598
 21
160.5946045812053
 31
0.0
  0
LINE
  5
1D3
330
2
100
AcDbEntity
  8
0
  6
Continuous
 62
     7
100
AcDbLine
 10
214.9977353211909
 20
159.6738032277507
 30
0.0
 11
214.8217286225825
 21
159.6578400548381
 31
0.0
  0
LINE
  5
1D4
330
2
100
AcDbEntity
  8
0
  6
Continuous
 62
     7
100
AcDbLine
 10
214.6457461473017
 20
159.6578400548381
 30
0.0
 11
214.4297467347651
 21
159.6738032277507
 31
0.0
  0
LINE
  5
1D5
330
2
100
AcDbEntity
  8
0
  6
Continuous
 62
     7
100
AcDbLine
 10
212.3097453233271
 20
159.5618308957499
 30
0.0
 11
212.0777342912226
 21
159.6738032277507
 31
0.0
  0
LINE
  5
1D6
330
2
100
AcDbEntity
  8
0
  6
Continuous
 62
     7
100
AcDbLine
 10
214.8217286225825
 20
159.6578400548381
 30
0.0
 11
214.6457461473017
 21
159.6578400548381
 31
0.0
  0
LINE
  5
1D7
330
2
100
AcDbEntity
  8
0
  6
Continuous
 62
     7
100
AcDbLine
 10
214.9497246858149
 20
159.073803513853
 30
0.0
 11
214.7337494966059
 21
159.0578403409404
 31
0.0
  0
LINE
  5
1D8
330
2
100
AcDbEntity
  8
0
  6
Continuous
 62
     7
100
AcDbLine
 10
214.7337494966059
 20
159.0578403409404
 30
0.0
 11
214.4857268449335
 21
159.073803513853
 31
0.0
  0
LINE
  5
1D9
330
2
100
AcDbEntity
  8
0
  6
Continuous
 62
     7
100
AcDbLine
 10
214.4857268449335
 20
159.073803513853
 30
0.0
 11
214.2217410203486
 21
159.0898151334208
 31
0.0
  0
LINE
  5
1DA
330
2
100
AcDbEntity
  8
0
  6
Continuous
 62
     7
100
AcDbLine
 10
214.2217410203486
 20
159.0898151334208
 30
0.0
 11
213.9577309724359
 21
159.1218262608928
 31
0.0
  0
LINE
  5
1DB
330
2
100
AcDbEntity
  8
0
  6
Continuous
 62
     7
100
AcDbLine
 10
213.9577309724359
 20
159.1218262608928
 30
0.0
 11
213.8137475129633
 21
159.129807847349
 31
0.0
  0
LINE
  5
1DC
330
2
100
AcDbEntity
  8
0
  6
Continuous
 62
     7
100
AcDbLine
 10
213.8137475129633
 20
159.129807847349
 30
0.0
 11
213.5657248612909
 21
159.1698005612773
 31
0.0
  0
LINE
  5
1DD
330
2
100
AcDbEntity
  8
0
  6
Continuous
 62
     7
100
AcDbLine
 10
213.5657248612909
 20
159.1698005612773
 30
0.0
 11
213.3897423860102
 21
159.201823800413
 31
0.0
  0
LINE
  5
1DE
330
2
100
AcDbEntity
  8
0
  6
Continuous
 62
     7
100
AcDbLine
 10
213.3897423860102
 20
159.201823800413
 30
0.0
 11
213.1897545930415
 21
159.2497981007975
 31
0.0
  0
LINE
  5
1DF
330
2
100
AcDbEntity
  8
0
  6
Continuous
 62
     7
100
AcDbLine
 10
212.933738243249
 20
159.3218140538615
 30
0.0
 11
212.6937335130244
 21
159.4018115933818
 31
0.0
  0
LINE
  5
1E0
330
2
100
AcDbEntity
  8
0
  6
Continuous
 62
     7
100
AcDbLine
 10
212.6937335130244
 20
159.4018115933818
 30
0.0
 11
212.4777341004878
 21
159.4738154347819
 31
0.0
  0
LINE
  5
1E1
330
2
100
AcDbEntity
  8
0
  6
Continuous
 62
     7
100
AcDbLine
 10
212.4777341004878
 20
159.4738154347819
 30
0.0
 11
212.3097453233271
 21
159.5618308957499
 31
0.0
  0
LINE
  5
1E2
330
2
100
AcDbEntity
  8
0
  6
Continuous
 62
     7
100
AcDbLine
 10
213.1897545930415
 20
159.2497981007975
 30
0.0
 11
212.933738243249
 21
159.3218140538615
 31
0.0
  0
LINE
  5
1E3
330
2
100
AcDbEntity
  8
0
  6
Continuous
 62
     7
100
AcDbLine
 10
212.149726020959
 20
163.2018097814006
 30
0.0
 11
212.3097453233271
 21
163.2738136228007
 31
0.0
  0
LINE
  5
1E4
330
2
100
AcDbEntity
  8
0
  6
Continuous
 62
     7
100
AcDbLine
 10
210.3889565583735
 20
163.6522062238139
 30
0.0
 11
210.3889565583735
 21
163.064221280424
 31
0.0
  0
LINE
  5
1E5
330
2
100
AcDbEntity
  8
0
  6
Continuous
 62
     7
100
AcDbLine
 10
212.0777342912226
 20
159.6738032277507
 30
0.0
 11
211.885740196374
 21
159.7778303082866
 31
0.0
  0
LINE
  5
1E6
330
2
100
AcDbEntity
  8
0
  6
Continuous
 62
     7
100
AcDbLine
 10
211.885740196374
 20
159.7778303082866
 30
0.0
 11
211.6617470857172
 21
159.9218137677592
 31
0.0
  0
LINE
  5
1E7
330
2
100
AcDbEntity
  8
0
  6
Continuous
 62
     7
100
AcDbLine
 10
211.6617470857172
 20
159.9218137677592
 30
0.0
 11
211.5017520066767
 21
160.0338224347514
 31
0.0
  0
LINE
  5
1E8
330
2
100
AcDbEntity
  8
0
  6
Continuous
 62
     7
100
AcDbLine
 10
211.5017520066767
 20
160.0338224347514
 30
0.0
 11
211.3417327043086
 21
160.1938175137919
 31
0.0
  0
LINE
  5
1E9
330
2
100
AcDbEntity
  8
0
  6
Continuous
 62
     7
100
AcDbLine
 10
211.3417327043086
 20
160.1938175137919
 30
0.0
 11
211.2137366410761
 21
160.3218256886882
 31
0.0
  0
LINE
  5
1EA
330
2
100
AcDbEntity
  8
0
  6
Continuous
 62
     7
100
AcDbLine
 10
211.2137366410761
 20
160.3218256886882
 30
0.0
 11
211.0937584992914
 21
160.4578275617045
 31
0.0
  0
LINE
  5
1EB
330
2
100
AcDbEntity
  8
0
  6
Continuous
 62
     7
100
AcDbLine
 10
211.0937584992914
 20
160.4578275617045
 30
0.0
 11
210.9897435304194
 21
160.6098289426249
 31
0.0
  0
LINE
  5
1EC
330
2
100
AcDbEntity
  8
0
  6
Continuous
 62
     7
100
AcDbLine
 10
210.9897435304194
 20
160.6098289426249
 30
0.0
 11
210.8937464829951
 21
160.8098167355936
 31
0.0
  0
LINE
  5
1ED
330
2
100
AcDbEntity
  8
0
  6
Continuous
 62
     7
100
AcDbLine
 10
210.8937464829951
 20
160.8098167355936
 30
0.0
 11
210.8217547532587
 21
160.977829736082
 31
0.0
  0
LINE
  5
1EE
330
2
100
AcDbEntity
  8
0
  6
Continuous
 62
     7
100
AcDbLine
 10
210.8217547532587
 20
160.977829736082
 30
0.0
 11
210.7577324983149
 21
161.1698359425944
 31
0.0
  0
LINE
  5
1EF
330
2
100
AcDbEntity
  8
0
  6
Continuous
 62
     7
100
AcDbLine
 10
210.7577324983149
 20
161.1698359425944
 30
0.0
 11
210.7417451020746
 21
161.4017985280436
 31
0.0
  0
LINE
  5
1F0
330
2
100
AcDbEntity
  8
0
  6
Continuous
 62
     7
100
AcDbLine
 10
210.7417451020746
 20
161.4017985280436
 30
0.0
 11
210.7657504197626
 21
161.6738386090678
 31
0.0
  0
LINE
  5
1F1
330
2
100
AcDbEntity
  8
0
  6
Continuous
 62
     7
100
AcDbLine
 10
210.7657504197626
 20
161.6738386090678
 30
0.0
 11
210.8217547532587
 21
161.8738264020366
 31
0.0
  0
LINE
  5
1F2
330
2
100
AcDbEntity
  8
0
  6
Continuous
 62
     7
100
AcDbLine
 10
210.8217547532587
 20
161.8738264020366
 30
0.0
 11
210.9097338792353
 21
162.0978074010294
 31
0.0
  0
LINE
  5
1F3
330
2
100
AcDbEntity
  8
0
  6
Continuous
 62
     7
100
AcDbLine
 10
210.9097338792353
 20
162.0978074010294
 30
0.0
 11
211.0617352601557
 21
162.3218247350139
 31
0.0
  0
LINE
  5
1F4
330
2
100
AcDbEntity
  8
0
  6
Continuous
 62
     7
100
AcDbLine
 10
211.0617352601557
 20
162.3218247350139
 30
0.0
 11
211.15773230758
 21
162.4658081944865
 31
0.0
  0
LINE
  5
1F5
330
2
100
AcDbEntity
  8
0
  6
Continuous
 62
     7
100
AcDbLine
 10
211.15773230758
 20
162.4658081944865
 30
0.0
 11
211.2697409745722
 21
162.5858347829264
 31
0.0
  0
LINE
  5
1F6
330
2
100
AcDbEntity
  8
0
  6
Continuous
 62
     7
100
AcDbLine
 10
211.2697409745722
 20
162.5858347829264
 30
0.0
 11
211.3977370378046
 21
162.7058250363749
 31
0.0
  0
LINE
  5
1F7
330
2
100
AcDbEntity
  8
0
  6
Continuous
 62
     7
100
AcDbLine
 10
211.3977370378046
 20
162.7058250363749
 30
0.0
 11
211.5577321168451
 21
162.8418269093913
 31
0.0
  0
LINE
  5
1F8
330
2
100
AcDbEntity
  8
0
  6
Continuous
 62
     7
100
AcDbLine
 10
211.5577321168451
 20
162.8418269093913
 30
0.0
 11
211.7577441331416
 21
162.9698108609599
 31
0.0
  0
LINE
  5
1F9
330
2
100
AcDbEntity
  8
0
  6
Continuous
 62
     7
100
AcDbLine
 10
211.7577441331416
 20
162.9698108609599
 30
0.0
 11
211.9337266084223
 21
163.0898374493998
 31
0.0
  0
LINE
  5
1FA
330
2
100
AcDbEntity
  8
0
  6
Continuous
 62
     7
100
AcDbLine
 10
211.9337266084223
 20
163.0898374493998
 30
0.0
 11
212.149726020959
 21
163.2018097814006
 31
0.0
  0
LINE
  5
1FB
330
2
100
AcDbEntity
  8
0
  6
Continuous
 62
     7
100
AcDbLine
 10
214.9097319718867
 20
163.76181678137
 30
0.0
 11
214.6137471314936
 21
163.7698347028178
 31
0.0
  0
LINE
  5
1FC
330
2
100
AcDbEntity
  8
0
  6
Continuous
 62
     7
100
AcDbLine
 10
214.6137471314936
 20
163.7698347028178
 30
0.0
 11
214.3897540208369
 21
163.7538230832499
 31
0.0
  0
LINE
  5
1FD
330
2
100
AcDbEntity
  8
0
  6
Continuous
 62
     7
100
AcDbLine
 10
214.3897540208369
 20
163.7538230832499
 30
0.0
 11
214.1817483064204
 21
163.7458051618022
 31
0.0
  0
LINE
  5
1FE
330
2
100
AcDbEntity
  8
0
  6
Continuous
 62
     7
100
AcDbLine
 10
214.1817483064204
 20
163.7458051618022
 30
0.0
 11
214.0537522431881
 21
163.7298419888896
 31
0.0
  0
LINE
  5
1FF
330
2
100
AcDbEntity
  8
0
  6
Continuous
 62
     7
100
AcDbLine
 10
214.0537522431881
 20
163.7298419888896
 30
0.0
 11
213.7097325440913
 21
163.6818192418498
 31
0.0
  0
LINE
  5
200
330
2
100
AcDbEntity
  8
0
  6
Continuous
 62
     7
100
AcDbLine
 10
213.7097325440913
 20
163.6818192418498
 30
0.0
 11
213.4697520371943
 21
163.6498081143779
 31
0.0
  0
LINE
  5
201
330
2
100
AcDbEntity
  8
0
  6
Continuous
 62
     7
100
AcDbLine
 10
214.9097319718867
 20
163.76181678137
 30
0.0
 11
215.0297585603266
 21
163.76181678137
 31
0.0
  0
LINE
  5
202
330
2
100
AcDbEntity
  8
0
  6
Continuous
 62
     7
100
AcDbLine
 10
215.0297585603266
 20
163.76181678137
 30
0.0
 11
215.1817357179194
 21
163.7538230832499
 31
0.0
  0
LINE
  5
203
330
2
100
AcDbEntity
  8
0
  6
Continuous
 62
     7
100
AcDbLine
 10
213.4137477036982
 20
162.8338089879435
 30
0.0
 11
213.5097447511225
 21
162.8818317349833
 31
0.0
  0
LINE
  5
204
330
2
100
AcDbEntity
  8
0
  6
Continuous
 62
     7
100
AcDbLine
 10
213.5097447511225
 20
162.8818317349833
 30
0.0
 11
213.6377408143549
 21
162.9458176549357
 31
0.0
  0
LINE
  5
205
330
2
100
AcDbEntity
  8
0
  6
Continuous
 62
     7
100
AcDbLine
 10
213.6377408143549
 20
162.9458176549357
 30
0.0
 11
213.7657368775874
 21
163.0018219884318
 31
0.0
  0
LINE
  5
206
330
2
100
AcDbEntity
  8
0
  6
Continuous
 62
     7
100
AcDbLine
 10
213.7657368775874
 20
163.0018219884318
 30
0.0
 11
213.9017266389399
 21
163.0497962888163
 31
0.0
  0
LINE
  5
207
330
2
100
AcDbEntity
  8
0
  6
Continuous
 62
     7
100
AcDbLine
 10
213.9017266389399
 20
163.0497962888163
 30
0.0
 11
214.0537522431881
 21
163.0978190358561
 31
0.0
  0
LINE
  5
208
330
2
100
AcDbEntity
  8
0
  6
Continuous
 62
     7
100
AcDbLine
 10
214.0537522431881
 20
163.0978190358561
 30
0.0
 11
214.1497492906122
 21
163.113830655424
 31
0.0
  0
LINE
  5
209
330
2
100
AcDbEntity
  8
0
  6
Continuous
 62
     7
100
AcDbLine
 10
214.1497492906122
 20
163.113830655424
 30
0.0
 11
214.2697274323969
 21
163.1378238614482
 31
0.0
  0
LINE
  5
20A
330
2
100
AcDbEntity
  8
0
  6
Continuous
 62
     7
100
AcDbLine
 10
214.2697274323969
 20
163.1378238614482
 30
0.0
 11
214.4137351151972
 21
163.1618049558085
 31
0.0
  0
LINE
  5
20B
330
2
100
AcDbEntity
  8
0
  6
Continuous
 62
     7
100
AcDbLine
 10
214.4137351151972
 20
163.1618049558085
 30
0.0
 11
214.5257437821894
 21
163.1698349889201
 31
0.0
  0
LINE
  5
20C
330
2
100
AcDbEntity
  8
0
  6
Continuous
 62
     7
100
AcDbLine
 10
214.5257437821894
 20
163.1698349889201
 30
0.0
 11
214.6537398454218
 21
163.1778165753764
 31
0.0
  0
LINE
  5
20D
330
2
100
AcDbEntity
  8
0
  6
Continuous
 62
     7
100
AcDbLine
 10
214.6537398454218
 20
163.1778165753764
 30
0.0
 11
214.8457339402705
 21
163.1778165753764
 31
0.0
  0
LINE
  5
20E
330
2
100
AcDbEntity
  8
0
  6
Continuous
 62
     7
100
AcDbLine
 10
214.8457339402705
 20
163.1778165753764
 30
0.0
 11
214.9977353211909
 21
163.1698349889201
 31
0.0
  0
LINE
  5
20F
330
2
100
AcDbEntity
  8
0
  6
Continuous
 62
     7
100
AcDbLine
 10
214.9977353211909
 20
163.1698349889201
 30
0.0
 11
215.1737420197993
 21
163.1458054479045
 31
0.0
  0
LINE
  5
210
330
2
100
AcDbEntity
  8
0
  6
Continuous
 62
     7
100
AcDbLine
 10
214.4297467347651
 20
159.6738032277507
 30
0.0
 11
214.2057294007807
 21
159.7138080533427
 31
0.0
  0
LINE
  5
211
330
2
100
AcDbEntity
  8
0
  6
Continuous
 62
     7
100
AcDbLine
 10
214.2057294007807
 20
159.7138080533427
 30
0.0
 11
214.0377406236201
 21
159.7458191808146
 31
0.0
  0
LINE
  5
212
330
2
100
AcDbEntity
  8
0
  6
Continuous
 62
     7
100
AcDbLine
 10
214.0377406236201
 20
159.7458191808146
 30
0.0
 11
213.7257441636592
 21
159.8497978146953
 31
0.0
  0
LINE
  5
213
330
2
100
AcDbEntity
  8
0
  6
Continuous
 62
     7
100
AcDbLine
 10
213.7257441636592
 20
159.8497978146953
 30
0.0
 11
213.4937331315546
 21
159.9458069737834
 31
0.0
  0
LINE
  5
214
330
2
100
AcDbEntity
  8
0
  6
Continuous
 62
     7
100
AcDbLine
 10
213.4937331315546
 20
159.9458069737834
 30
0.0
 11
213.3657370683222
 21
160.0258408482951
 31
0.0
  0
LINE
  5
215
330
2
100
AcDbEntity
  8
0
  6
Continuous
 62
     7
100
AcDbLine
 10
213.3657370683222
 20
160.0258408482951
 30
0.0
 11
213.1897545930415
 21
160.1458311017436
 31
0.0
  0
LINE
  5
216
330
2
100
AcDbEntity
  8
0
  6
Continuous
 62
     7
100
AcDbLine
 10
213.2377410050898
 20
162.7218366559428
 30
0.0
 11
213.3897423860102
 21
162.8178337033671
 31
0.0
  0
LINE
  5
217
330
2
100
AcDbEntity
  8
0
  6
Continuous
 62
     7
100
AcDbLine
 10
213.1257323380976
 20
163.5698105748576
 30
0.0
 11
213.2937211152583
 21
163.6098032887858
 31
0.0
  0
LINE
  5
218
330
2
100
AcDbEntity
  8
0
  6
Continuous
 62
     7
100
AcDbLine
 10
213.2937211152583
 20
163.6098032887858
 30
0.0
 11
213.4697520371943
 21
163.6498081143779
 31
0.0
  0
LINE
  5
219
330
2
100
AcDbEntity
  8
0
  6
Continuous
 62
     7
100
AcDbLine
 10
213.3897423860102
 20
162.8178337033671
 30
0.0
 11
213.4137477036982
 21
162.8338089879435
 31
0.0
  0
LINE
  5
21A
330
2
100
AcDbEntity
  8
0
  6
Continuous
 62
     7
100
AcDbLine
 10
213.0217415925531
 20
160.2898145612162
 30
0.0
 11
212.8937455293208
 21
160.4178348477763
 31
0.0
  0
LINE
  5
21B
330
2
100
AcDbEntity
  8
0
  6
Continuous
 62
     7
100
AcDbLine
 10
212.8937455293208
 20
160.4178348477763
 30
0.0
 11
212.7577315446406
 21
160.6018110211772
 31
0.0
  0
LINE
  5
21C
330
2
100
AcDbEntity
  8
0
  6
Continuous
 62
     7
100
AcDbLine
 10
212.7577315446406
 20
160.6018110211772
 30
0.0
 11
212.645747100976
 21
160.8178104337138
 31
0.0
  0
LINE
  5
21D
330
2
100
AcDbEntity
  8
0
  6
Continuous
 62
     7
100
AcDbLine
 10
212.645747100976
 20
160.8178104337138
 30
0.0
 11
212.541732132104
 21
161.0498093541545
 31
0.0
  0
LINE
  5
21E
330
2
100
AcDbEntity
  8
0
  6
Continuous
 62
     7
100
AcDbLine
 10
212.541732132104
 20
161.0498093541545
 30
0.0
 11
212.5097573396235
 21
161.2338218625468
 31
0.0
  0
LINE
  5
21F
330
2
100
AcDbEntity
  8
0
  6
Continuous
 62
     7
100
AcDbLine
 10
212.5097573396235
 20
161.2338218625468
 30
0.0
 11
212.5097573396235
 21
161.4098285611552
 31
0.0
  0
LINE
  5
220
330
2
100
AcDbEntity
  8
0
  6
Continuous
 62
     7
100
AcDbLine
 10
212.5097573396235
 20
161.4098285611552
 30
0.0
 11
212.5257447358637
 21
161.609816354124
 31
0.0
  0
LINE
  5
221
330
2
100
AcDbEntity
  8
0
  6
Continuous
 62
     7
100
AcDbLine
 10
212.5257447358637
 20
161.609816354124
 30
0.0
 11
212.5497500535517
 21
161.7778293546122
 31
0.0
  0
LINE
  5
222
330
2
100
AcDbEntity
  8
0
  6
Continuous
 62
     7
100
AcDbLine
 10
212.5497500535517
 20
161.7778293546122
 30
0.0
 11
212.6137238618403
 21
161.9698234494609
 31
0.0
  0
LINE
  5
223
330
2
100
AcDbEntity
  8
0
  6
Continuous
 62
     7
100
AcDbLine
 10
212.6137238618403
 20
161.9698234494609
 30
0.0
 11
212.7177388307123
 21
162.1698112424296
 31
0.0
  0
LINE
  5
224
330
2
100
AcDbEntity
  8
0
  6
Continuous
 62
     7
100
AcDbLine
 10
212.7177388307123
 20
162.1698112424296
 30
0.0
 11
212.8297474977046
 21
162.3378242429179
 31
0.0
  0
LINE
  5
225
330
2
100
AcDbEntity
  8
0
  6
Continuous
 62
     7
100
AcDbLine
 10
212.8297474977046
 20
162.3378242429179
 30
0.0
 11
212.9737309571772
 21
162.4978193219584
 31
0.0
  0
LINE
  5
226
330
2
100
AcDbEntity
  8
0
  6
Continuous
 62
     7
100
AcDbLine
 10
212.9737309571772
 20
162.4978193219584
 30
0.0
 11
213.1017512437373
 21
162.6098279889506
 31
0.0
  0
LINE
  5
227
330
2
100
AcDbEntity
  8
0
  6
Continuous
 62
     7
100
AcDbLine
 10
212.3097453233271
 20
163.2738136228007
 30
0.0
 11
212.5337384339839
 21
163.3618411954326
 31
0.0
  0
LINE
  5
228
330
2
100
AcDbEntity
  8
0
  6
Continuous
 62
     7
100
AcDbLine
 10
212.5337384339839
 20
163.3618411954326
 30
0.0
 11
212.6937335130244
 21
163.441826623289
 31
0.0
  0
LINE
  5
229
330
2
100
AcDbEntity
  8
0
  6
Continuous
 62
     7
100
AcDbLine
 10
212.6937335130244
 20
163.441826623289
 30
0.0
 11
212.9177508470087
 21
163.5058246549052
 31
0.0
  0
LINE
  5
22A
330
2
100
AcDbEntity
  8
0
  6
Continuous
 62
     7
100
AcDbLine
 10
213.1897545930415
 20
160.1458311017436
 30
0.0
 11
213.0217415925531
 21
160.2898145612162
 31
0.0
  0
LINE
  5
22B
330
2
100
AcDbEntity
  8
0
  6
Continuous
 62
     7
100
AcDbLine
 10
213.1017512437373
 20
162.6098279889506
 30
0.0
 11
213.2377410050898
 21
162.7218366559428
 31
0.0
  0
LINE
  5
22C
330
2
100
AcDbEntity
  8
0
  6
Continuous
 62
     7
100
AcDbLine
 10
212.9177508470087
 20
163.5058246549052
 30
0.0
 11
213.1257323380976
 21
163.5698105748576
 31
0.0
  0
LINE
  5
22D
330
2
100
AcDbEntity
  8
0
  6
Continuous
 62
     7
100
AcDbLine
 10
198.4897313233881
 20
173.365833276121
 30
0.0
 11
196.9897259828119
 21
169.3658351834697
 31
0.0
  0
LINE
  5
22E
330
2
100
AcDbEntity
  8
0
  6
Continuous
 62
     7
100
AcDbLine
 10
197.9897376176386
 20
169.3658351834697
 30
0.0
 11
199.489718734887
 21
173.365833276121
 31
0.0
  0
LINE
  5
22F
330
2
100
AcDbEntity
  8
0
  6
Continuous
 62
     7
100
AcDbLine
 10
200.4897303697138
 20
173.365833276121
 30
0.0
 11
198.9897250291376
 21
169.3658351834697
 31
0.0
  0
LINE
  5
230
330
2
100
AcDbEntity
  8
0
  6
Continuous
 62
     7
100
AcDbLine
 10
199.9897366639643
 20
169.3658351834697
 30
0.0
 11
201.4897177812128
 21
173.365833276121
 31
0.0
  0
LINE
  5
231
330
2
100
AcDbEntity
  8
0
  6
Continuous
 62
     7
100
AcDbLine
 10
196.4897322770624
 20
173.365833276121
 30
0.0
 11
194.9897269364863
 21
169.3658351834697
 31
0.0
  0
LINE
  5
232
330
2
100
AcDbEntity
  8
0
  6
Continuous
 62
     7
100
AcDbLine
 10
195.9897385713129
 20
169.3658351834697
 30
0.0
 11
197.4897196885615
 21
173.365833276121
 31
0.0
  0
LINE
  5
233
330
2
100
AcDbEntity
  8
0
  6
Continuous
 62
     7
100
AcDbLine
 10
196.9897259828119
 20
169.3658351834697
 30
0.0
 11
197.9897376176386
 21
169.3658351834697
 31
0.0
  0
LINE
  5
234
330
2
100
AcDbEntity
  8
0
  6
Continuous
 62
     7
100
AcDbLine
 10
194.9897269364863
 20
169.3658351834697
 30
0.0
 11
195.9897385713129
 21
169.3658351834697
 31
0.0
  0
LINE
  5
235
330
2
100
AcDbEntity
  8
0
  6
Continuous
 62
     7
100
AcDbLine
 10
198.9897250291376
 20
169.3658351834697
 30
0.0
 11
199.9897366639643
 21
169.3658351834697
 31
0.0
  0
LINE
  5
236
330
2
100
AcDbEntity
  8
0
  6
Continuous
 62
     7
100
AcDbLine
 10
197.4897196885615
 20
173.365833276121
 30
0.0
 11
196.4897322770624
 21
173.365833276121
 31
0.0
  0
LINE
  5
237
330
2
100
AcDbEntity
  8
0
  6
Continuous
 62
     7
100
AcDbLine
 10
201.4897177812128
 20
173.365833276121
 30
0.0
 11
200.4897303697138
 21
173.365833276121
 31
0.0
  0
LINE
  5
238
330
2
100
AcDbEntity
  8
0
  6
Continuous
 62
     7
100
AcDbLine
 10
199.489718734887
 20
173.365833276121
 30
0.0
 11
198.4897313233881
 21
173.365833276121
 31
0.0
  0
LINE
  5
239
330
2
100
AcDbEntity
  8
0
  6
Continuous
 62
     7
100
AcDbLine
 10
221.4897324677973
 20
147.5658334668559
 30
0.0
 11
235.0065430757075
 21
147.8017807897014
 31
0.0
  0
LINE
  5
23A
330
2
100
AcDbEntity
  8
0
  6
Continuous
 62
     7
100
AcDbLine
 10
221.4900231477289
 20
147.5657971318644
 30
0.0
 11
234.5155604478388
 21
147.7931693967265
 31
0.0
  0
LINE
  5
23B
330
2
100
AcDbEntity
  8
0
  6
Continuous
 62
     7
100
AcDbLine
 10
220.9897387620478
 20
148.3745534833354
 30
0.0
 11
221.4897324677973
 21
148.365833085386
 31
0.0
  0
LINE
  5
23C
330
2
100
AcDbEntity
  8
0
  6
Continuous
 62
     7
100
AcDbLine
 10
221.4900231477289
 20
147.5657971318644
 30
0.0
 11
221.4900231477289
 21
148.3657967503947
 31
0.0
  0
LINE
  5
23D
330
2
100
AcDbEntity
  8
0
  6
Continuous
 62
     7
100
AcDbLine
 10
217.5257302400141
 20
159.7378375943583
 30
0.0
 11
217.2617444154292
 21
159.5858241017741
 31
0.0
  0
LINE
  5
23E
330
2
100
AcDbEntity
  8
0
  6
Continuous
 62
     7
100
AcDbLine
 10
217.2617444154292
 20
159.5858241017741
 30
0.0
 11
217.1577294465571
 21
159.5458313878459
 31
0.0
  0
LINE
  5
23F
330
2
100
AcDbEntity
  8
0
  6
Continuous
 62
     7
100
AcDbLine
 10
217.1577294465571
 20
159.5458313878459
 30
0.0
 11
216.9737290498286
 21
159.4738154347819
 31
0.0
  0
LINE
  5
240
330
2
100
AcDbEntity
  8
0
  6
Continuous
 62
     7
100
AcDbLine
 10
216.9737290498286
 20
159.4738154347819
 30
0.0
 11
216.8137581941157
 21
159.4098295148295
 31
0.0
  0
LINE
  5
241
330
2
100
AcDbEntity
  8
0
  6
Continuous
 62
     7
100
AcDbLine
 10
216.8137581941157
 20
159.4098295148295
 30
0.0
 11
216.5257428285151
 21
159.3138324674051
 31
0.0
  0
LINE
  5
242
330
2
100
AcDbEntity
  8
0
  6
Continuous
 62
     7
100
AcDbLine
 10
216.5257428285151
 20
159.3138324674051
 30
0.0
 11
216.3577298280269
 21
159.2658097203654
 31
0.0
  0
LINE
  5
243
330
2
100
AcDbEntity
  8
0
  6
Continuous
 62
     7
100
AcDbLine
 10
216.3577298280269
 20
159.2658097203654
 30
0.0
 11
216.2137463685541
 21
159.2338349278849
 31
0.0
  0
LINE
  5
244
330
2
100
AcDbEntity
  8
0
  6
Continuous
 62
     7
100
AcDbLine
 10
216.2137463685541
 20
159.2338349278849
 30
0.0
 11
216.053727066186
 21
159.201823800413
 31
0.0
  0
LINE
  5
245
330
2
100
AcDbEntity
  8
0
  6
Continuous
 62
     7
100
AcDbLine
 10
216.053727066186
 20
159.201823800413
 30
0.0
 11
215.8697266694574
 21
159.1698005612773
 31
0.0
  0
LINE
  5
246
330
2
100
AcDbEntity
  8
0
  6
Continuous
 62
     7
100
AcDbLine
 10
215.8697266694574
 20
159.1698005612773
 30
0.0
 11
215.5657481309443
 21
159.1137962277812
 31
0.0
  0
LINE
  5
247
330
2
100
AcDbEntity
  8
0
  6
Continuous
 62
     7
100
AcDbLine
 10
215.5657481309443
 20
159.1137962277812
 30
0.0
 11
215.2377400514155
 21
159.0898151334208
 31
0.0
  0
LINE
  5
248
330
2
100
AcDbEntity
  8
0
  6
Continuous
 62
     7
100
AcDbLine
 10
218.0537261125117
 20
162.7298182423991
 30
0.0
 11
218.2057274934321
 21
162.5938163693828
 31
0.0
  0
LINE
  5
249
330
2
100
AcDbEntity
  8
0
  6
Continuous
 62
     7
100
AcDbLine
 10
218.149723159936
 20
160.1938175137919
 30
0.0
 11
217.9977460023432
 21
160.0578156407755
 31
0.0
  0
LINE
  5
24A
330
2
100
AcDbEntity
  8
0
  6
Continuous
 62
     7
100
AcDbLine
 10
215.3577424165278
 20
163.7378235753459
 30
0.0
 11
215.5577302094965
 21
163.7138303693217
 31
0.0
  0
LINE
  5
24B
330
2
100
AcDbEntity
  8
0
  6
Continuous
 62
     7
100
AcDbLine
 10
215.5577302094965
 20
163.7138303693217
 30
0.0
 11
215.7017378922968
 21
163.6978187497539
 31
0.0
  0
LINE
  5
24C
330
2
100
AcDbEntity
  8
0
  6
Continuous
 62
     7
100
AcDbLine
 10
215.7017378922968
 20
163.6978187497539
 30
0.0
 11
215.8937562104731
 21
163.6658076222819
 31
0.0
  0
LINE
  5
24D
330
2
100
AcDbEntity
  8
0
  6
Continuous
 62
     7
100
AcDbLine
 10
215.8937562104731
 20
163.6658076222819
 30
0.0
 11
216.0697386857539
 21
163.6338328298014
 31
0.0
  0
LINE
  5
24E
330
2
100
AcDbEntity
  8
0
  6
Continuous
 62
     7
100
AcDbLine
 10
216.0697386857539
 20
163.6338328298014
 30
0.0
 11
216.2377274629145
 21
163.5938401158732
 31
0.0
  0
LINE
  5
24F
330
2
100
AcDbEntity
  8
0
  6
Continuous
 62
     7
100
AcDbLine
 10
216.2377274629145
 20
163.5938401158732
 30
0.0
 11
216.4377394792109
 21
163.5458173688334
 31
0.0
  0
LINE
  5
250
330
2
100
AcDbEntity
  8
0
  6
Continuous
 62
     7
100
AcDbLine
 10
216.4377394792109
 20
163.5458173688334
 30
0.0
 11
216.5977345582514
 21
163.4898130353373
 31
0.0
  0
LINE
  5
251
330
2
100
AcDbEntity
  8
0
  6
Continuous
 62
     7
100
AcDbLine
 10
216.5977345582514
 20
163.4898130353373
 30
0.0
 11
216.7417422410517
 21
163.4498203214091
 31
0.0
  0
LINE
  5
252
330
2
100
AcDbEntity
  8
0
  6
Continuous
 62
     7
100
AcDbLine
 10
216.7417422410517
 20
163.4498203214091
 30
0.0
 11
216.9417542573481
 21
163.3778043683452
 31
0.0
  0
LINE
  5
253
330
2
100
AcDbEntity
  8
0
  6
Continuous
 62
     7
100
AcDbLine
 10
216.9417542573481
 20
163.3778043683452
 30
0.0
 11
217.1097430345088
 21
163.3058368619365
 31
0.0
  0
LINE
  5
254
330
2
100
AcDbEntity
  8
0
  6
Continuous
 62
     7
100
AcDbLine
 10
215.3417550202876
 20
163.113830655424
 30
0.0
 11
215.5017258760004
 21
163.0658079083842
 31
0.0
  0
LINE
  5
255
330
2
100
AcDbEntity
  8
0
  6
Continuous
 62
     7
100
AcDbLine
 10
215.5017258760004
 20
163.0658079083842
 30
0.0
 11
215.6457335588007
 21
163.025815194456
 31
0.0
  0
LINE
  5
256
330
2
100
AcDbEntity
  8
0
  6
Continuous
 62
     7
100
AcDbLine
 10
215.6457335588007
 20
163.025815194456
 30
0.0
 11
215.8617329713373
 21
162.9458176549357
 31
0.0
  0
LINE
  5
257
330
2
100
AcDbEntity
  8
0
  6
Continuous
 62
     7
100
AcDbLine
 10
215.8617329713373
 20
162.9458176549357
 30
0.0
 11
216.0057406541376
 21
162.8738017018718
 31
0.0
  0
LINE
  5
258
330
2
100
AcDbEntity
  8
0
  6
Continuous
 62
     7
100
AcDbLine
 10
216.0057406541376
 20
162.8738017018718
 30
0.0
 11
216.1417304154902
 21
162.7938041623515
 31
0.0
  0
LINE
  5
259
330
2
100
AcDbEntity
  8
0
  6
Continuous
 62
     7
100
AcDbLine
 10
216.1417304154902
 20
162.7938041623515
 30
0.0
 11
216.2537390824823
 21
162.7058250363749
 31
0.0
  0
LINE
  5
25A
330
2
100
AcDbEntity
  8
0
  6
Continuous
 62
     7
100
AcDbLine
 10
217.1097430345088
 20
163.3058368619365
 30
0.0
 11
217.2537507173091
 21
163.2498325284404
 31
0.0
  0
LINE
  5
25B
330
2
100
AcDbEntity
  8
0
  6
Continuous
 62
     7
100
AcDbLine
 10
217.2537507173091
 20
163.2498325284404
 30
0.0
 11
217.3977341767817
 21
163.1698349889201
 31
0.0
  0
LINE
  5
25C
330
2
100
AcDbEntity
  8
0
  6
Continuous
 62
     7
100
AcDbLine
 10
217.3977341767817
 20
163.1698349889201
 30
0.0
 11
217.5337481614619
 21
163.0978190358561
 31
0.0
  0
LINE
  5
25D
330
2
100
AcDbEntity
  8
0
  6
Continuous
 62
     7
100
AcDbLine
 10
217.5337481614619
 20
163.0978190358561
 30
0.0
 11
217.6937432405024
 21
163.0018219884318
 31
0.0
  0
LINE
  5
25E
330
2
100
AcDbEntity
  8
0
  6
Continuous
 62
     7
100
AcDbLine
 10
217.6937432405024
 20
163.0018219884318
 30
0.0
 11
217.8297330018549
 21
162.9298060353679
 31
0.0
  0
LINE
  5
25F
330
2
100
AcDbEntity
  8
0
  6
Continuous
 62
     7
100
AcDbLine
 10
217.8297330018549
 20
162.9298060353679
 30
0.0
 11
217.9417416688471
 21
162.8258274014872
 31
0.0
  0
LINE
  5
260
330
2
100
AcDbEntity
  8
0
  6
Continuous
 62
     7
100
AcDbLine
 10
217.9417416688471
 20
162.8258274014872
 30
0.0
 11
218.0537261125117
 21
162.7298182423991
 31
0.0
  0
LINE
  5
261
330
2
100
AcDbEntity
  8
0
  6
Continuous
 62
     7
100
AcDbLine
 10
216.2537390824823
 20
162.7058250363749
 30
0.0
 11
216.3897530671625
 21
162.6018100675029
 31
0.0
  0
LINE
  5
262
330
2
100
AcDbEntity
  8
0
  6
Continuous
 62
     7
100
AcDbLine
 10
216.3897530671625
 20
162.6018100675029
 30
0.0
 11
216.5017375108271
 21
162.5058009084147
 31
0.0
  0
LINE
  5
263
330
2
100
AcDbEntity
  8
0
  6
Continuous
 62
     7
100
AcDbLine
 10
216.5017375108271
 20
162.5058009084147
 30
0.0
 11
216.6057282563715
 21
162.393828576414
 31
0.0
  0
LINE
  5
264
330
2
100
AcDbEntity
  8
0
  6
Continuous
 62
     7
100
AcDbLine
 10
216.6057282563715
 20
162.393828576414
 30
0.0
 11
216.7257306214838
 21
162.2338092740458
 31
0.0
  0
LINE
  5
265
330
2
100
AcDbEntity
  8
0
  6
Continuous
 62
     7
100
AcDbLine
 10
216.7257306214838
 20
162.2338092740458
 30
0.0
 11
216.837739288476
 21
162.0498209889811
 31
0.0
  0
LINE
  5
266
330
2
100
AcDbEntity
  8
0
  6
Continuous
 62
     7
100
AcDbLine
 10
216.837739288476
 20
162.0498209889811
 30
0.0
 11
216.8937436219721
 21
161.8818079884928
 31
0.0
  0
LINE
  5
267
330
2
100
AcDbEntity
  8
0
  6
Continuous
 62
     7
100
AcDbLine
 10
216.8937436219721
 20
161.8818079884928
 30
0.0
 11
216.9577416535883
 21
161.5938047345561
 31
0.0
  0
LINE
  5
268
330
2
100
AcDbEntity
  8
0
  6
Continuous
 62
     7
100
AcDbLine
 10
216.9577416535883
 20
161.5938047345561
 30
0.0
 11
216.9737290498286
 21
161.4418396886271
 31
0.0
  0
LINE
  5
269
330
2
100
AcDbEntity
  8
0
  6
Continuous
 62
     7
100
AcDbLine
 10
216.9737290498286
 20
161.4418396886271
 30
0.0
 11
216.9577416535883
 21
161.2258039410991
 31
0.0
  0
LINE
  5
26A
330
2
100
AcDbEntity
  8
0
  6
Continuous
 62
     7
100
AcDbLine
 10
216.9577416535883
 20
161.2258039410991
 30
0.0
 11
216.9177247163325
 21
161.0338340695781
 31
0.0
  0
LINE
  5
26B
330
2
100
AcDbEntity
  8
0
  6
Continuous
 62
     7
100
AcDbLine
 10
216.9177247163325
 20
161.0338340695781
 30
0.0
 11
216.8457329865962
 21
160.8258283551615
 31
0.0
  0
LINE
  5
26C
330
2
100
AcDbEntity
  8
0
  6
Continuous
 62
     7
100
AcDbLine
 10
216.8457329865962
 20
160.8258283551615
 30
0.0
 11
216.7497359391719
 21
160.665833276121
 31
0.0
  0
LINE
  5
26D
330
2
100
AcDbEntity
  8
0
  6
Continuous
 62
     7
100
AcDbLine
 10
216.7497359391719
 20
160.665833276121
 30
0.0
 11
216.6697505113154
 21
160.5218134816569
 31
0.0
  0
LINE
  5
26E
330
2
100
AcDbEntity
  8
0
  6
Continuous
 62
     7
100
AcDbLine
 10
216.6697505113154
 20
160.5218134816569
 30
0.0
 11
216.5337365266352
 21
160.36183051428
 31
0.0
  0
LINE
  5
26F
330
2
100
AcDbEntity
  8
0
  6
Continuous
 62
     7
100
AcDbLine
 10
217.9977460023432
 20
160.0578156407755
 30
0.0
 11
217.8057519074946
 21
159.9138321813029
 31
0.0
  0
LINE
  5
270
330
2
100
AcDbEntity
  8
0
  6
Continuous
 62
     7
100
AcDbLine
 10
217.8057519074946
 20
159.9138321813029
 30
0.0
 11
217.6857495423823
 21
159.8258167203349
 31
0.0
  0
LINE
  5
271
330
2
100
AcDbEntity
  8
0
  6
Continuous
 62
     7
100
AcDbLine
 10
217.6857495423823
 20
159.8258167203349
 30
0.0
 11
217.5257302400141
 21
159.7378375943583
 31
0.0
  0
LINE
  5
272
330
2
100
AcDbEntity
  8
0
  6
Continuous
 62
     7
100
AcDbLine
 10
216.5337365266352
 20
160.36183051428
 30
0.0
 11
216.4137341615229
 21
160.2658213551921
 31
0.0
  0
LINE
  5
273
330
2
100
AcDbEntity
  8
0
  6
Continuous
 62
     7
100
AcDbLine
 10
216.4137341615229
 20
160.2658213551921
 30
0.0
 11
216.2857380982905
 21
160.1538126881999
 31
0.0
  0
LINE
  5
274
330
2
100
AcDbEntity
  8
0
  6
Continuous
 62
     7
100
AcDbLine
 10
216.2857380982905
 20
160.1538126881999
 30
0.0
 11
216.1897410508662
 21
160.0738151486796
 31
0.0
  0
LINE
  5
275
330
2
100
AcDbEntity
  8
0
  6
Continuous
 62
     7
100
AcDbLine
 10
216.1897410508662
 20
160.0738151486796
 30
0.0
 11
216.0457333680659
 21
159.9857996877116
 31
0.0
  0
LINE
  5
276
330
2
100
AcDbEntity
  8
0
  6
Continuous
 62
     7
100
AcDbLine
 10
216.0457333680659
 20
159.9857996877116
 30
0.0
 11
215.8857382890253
 21
159.9058021481913
 31
0.0
  0
LINE
  5
277
330
2
100
AcDbEntity
  8
0
  6
Continuous
 62
     7
100
AcDbLine
 10
215.8857382890253
 20
159.9058021481913
 30
0.0
 11
215.7097558137446
 21
159.8258167203349
 31
0.0
  0
LINE
  5
278
330
2
100
AcDbEntity
  8
0
  6
Continuous
 62
     7
100
AcDbLine
 10
215.7097558137446
 20
159.8258167203349
 30
0.0
 11
215.4857384797602
 21
159.7538007672709
 31
0.0
  0
LINE
  5
279
330
2
100
AcDbEntity
  8
0
  6
Continuous
 62
     7
100
AcDbLine
 10
215.4857384797602
 20
159.7538007672709
 30
0.0
 11
215.2057410356074
 21
159.6898148473185
 31
0.0
  0
LINE
  5
27A
330
2
100
AcDbEntity
  8
0
  6
Continuous
 62
     7
100
AcDbLine
 10
218.2057274934321
 20
162.5938163693828
 30
0.0
 11
218.3177361604243
 21
162.4818077023906
 31
0.0
  0
LINE
  5
27B
330
2
100
AcDbEntity
  8
0
  6
Continuous
 62
     7
100
AcDbLine
 10
218.3177361604243
 20
162.4818077023906
 30
0.0
 11
218.4057395097284
 21
162.361817448942
 31
0.0
  0
LINE
  5
27C
330
2
100
AcDbEntity
  8
0
  6
Continuous
 62
     7
100
AcDbLine
 10
218.4057395097284
 20
162.361817448942
 30
0.0
 11
218.4937428590327
 21
162.2098160680216
 31
0.0
  0
LINE
  5
27D
330
2
100
AcDbEntity
  8
0
  6
Continuous
 62
     7
100
AcDbLine
 10
218.4937428590327
 20
162.2098160680216
 30
0.0
 11
218.589739906457
 21
162.0578025754374
 31
0.0
  0
LINE
  5
27E
330
2
100
AcDbEntity
  8
0
  6
Continuous
 62
     7
100
AcDbLine
 10
218.589739906457
 20
162.0578025754374
 30
0.0
 11
218.6617316361934
 21
161.8738264020366
 31
0.0
  0
LINE
  5
27F
330
2
100
AcDbEntity
  8
0
  6
Continuous
 62
     7
100
AcDbLine
 10
218.6617316361934
 20
161.8738264020366
 30
0.0
 11
218.7017243501216
 21
161.7378245290202
 31
0.0
  0
LINE
  5
280
330
2
100
AcDbEntity
  8
0
  6
Continuous
 62
     7
100
AcDbLine
 10
218.7017243501216
 20
161.7378245290202
 30
0.0
 11
218.7177359696894
 21
161.5858231480998
 31
0.0
  0
LINE
  5
281
330
2
100
AcDbEntity
  8
0
  6
Continuous
 62
     7
100
AcDbLine
 10
218.7177359696894
 20
161.5858231480998
 30
0.0
 11
218.7417412873774
 21
161.4258280690593
 31
0.0
  0
LINE
  5
282
330
2
100
AcDbEntity
  8
0
  6
Continuous
 62
     7
100
AcDbLine
 10
218.7417412873774
 20
161.4258280690593
 30
0.0
 11
218.7257538911372
 21
161.2338218625468
 31
0.0
  0
LINE
  5
283
330
2
100
AcDbEntity
  8
0
  6
Continuous
 62
     7
100
AcDbLine
 10
218.7257538911372
 20
161.2338218625468
 30
0.0
 11
218.6777432557612
 21
161.0338340695781
 31
0.0
  0
LINE
  5
284
330
2
100
AcDbEntity
  8
0
  6
Continuous
 62
     7
100
AcDbLine
 10
218.6777432557612
 20
161.0338340695781
 30
0.0
 11
218.6217389222651
 21
160.857803147642
 31
0.0
  0
LINE
  5
285
330
2
100
AcDbEntity
  8
0
  6
Continuous
 62
     7
100
AcDbLine
 10
218.6217389222651
 20
160.857803147642
 30
0.0
 11
218.5257418748408
 21
160.665833276121
 31
0.0
  0
LINE
  5
286
330
2
100
AcDbEntity
  8
0
  6
Continuous
 62
     7
100
AcDbLine
 10
218.5257418748408
 20
160.665833276121
 30
0.0
 11
218.4137332078486
 21
160.5058139737528
 31
0.0
  0
LINE
  5
287
330
2
100
AcDbEntity
  8
0
  6
Continuous
 62
     7
100
AcDbLine
 10
218.4137332078486
 20
160.5058139737528
 30
0.0
 11
218.3337235566645
 21
160.3938053067607
 31
0.0
  0
LINE
  5
288
330
2
100
AcDbEntity
  8
0
  6
Continuous
 62
     7
100
AcDbLine
 10
218.3337235566645
 20
160.3938053067607
 30
0.0
 11
218.2377265092402
 21
160.297832482664
 31
0.0
  0
LINE
  5
289
330
2
100
AcDbEntity
  8
0
  6
Continuous
 62
     7
100
AcDbLine
 10
218.2377265092402
 20
160.297832482664
 30
0.0
 11
218.149723159936
 21
160.1938175137919
 31
0.0
  0
LINE
  5
28A
330
2
100
AcDbEntity
  8
0
  6
Continuous
 62
     7
100
AcDbLine
 10
233.9897204515009
 20
147.7840250905436
 30
0.0
 11
233.9897204515009
 21
153.3658428128642
 31
0.0
  0
ARC
  5
28B
330
2
100
AcDbEntity
  8
0
  6
Continuous
 62
     7
100
AcDbCircle
 10
233.0926365484222
 20
150.3658381875438
 30
0.0
 40
2.597101259958331
100
AcDbArc
 50
299.9626382565474
 51
60.0373617434521
  0
LINE
  5
28C
330
2
100
AcDbEntity
  8
0
  6
Continuous
 62
     7
100
AcDbLine
 10
234.389720260766
 20
148.1158362325114
 30
0.0
 11
234.389720260766
 21
152.6158401425761
 31
0.0
  0
ARC
  5
28D
330
2
100
AcDbEntity
  8
0
  6
Continuous
 62
     7
100
AcDbCircle
 10
234.9890968885694
 20
148.8016213950409
 30
0.0
 40
0.9999928027397228
100
AcDbArc
 50
270.9996508016188
 51
0.0000840073156079
  0
ARC
  5
28E
330
2
100
AcDbEntity
  8
0
  6
Continuous
 62
     7
100
AcDbCircle
 10
234.989075772444
 20
148.8016421458955
 30
0.0
 40
1.000013919049992
100
AcDbArc
 50
271.0008397232381
 51
359.9988950856972
  0
LINE
  5
28F
330
2
100
AcDbEntity
  8
0
  6
Continuous
 62
     7
100
AcDbLine
 10
234.389720260766
 20
148.1158362325114
 30
0.0
 11
233.9897204515009
 21
148.1158362325114
 31
0.0
  0
LINE
  5
290
330
2
100
AcDbEntity
  8
0
  6
Continuous
 62
     7
100
AcDbLine
 10
233.9897204515009
 20
153.3658428128642
 30
0.0
 11
235.9897194978266
 21
153.3658428128642
 31
0.0
  0
LINE
  5
291
330
2
100
AcDbEntity
  8
0
  6
Continuous
 62
     7
100
AcDbLine
 10
234.389720260766
 20
152.6158401425761
 30
0.0
 11
233.9897204515009
 21
152.6158401425761
 31
0.0
  0
LINE
  5
292
330
2
100
AcDbEntity
  8
0
  6
Continuous
 62
     7
100
AcDbLine
 10
236.4890896913081
 20
152.3656668740953
 30
0.0
 11
235.9897194978266
 21
152.3656668740953
 31
0.0
  0
LINE
  5
293
330
2
100
AcDbEntity
  8
0
  6
Continuous
 62
     7
100
AcDbLine
 10
236.4890896913081
 20
164.3656668740952
 30
0.0
 11
235.9897194978266
 21
164.3656668740952
 31
0.0
  0
LINE
  5
294
330
2
100
AcDbEntity
  8
0
  6
Continuous
 62
     7
100
AcDbLine
 10
218.9897397157221
 20
167.8658298428935
 30
0.0
 11
218.9897397157221
 21
166.8658303197306
 31
0.0
  0
LINE
  5
295
330
2
100
AcDbEntity
  8
0
  6
Continuous
 62
     7
100
AcDbLine
 10
233.9897204515009
 20
201.947640031187
 30
0.0
 11
233.9897204515009
 21
196.3658223088664
 31
0.0
  0
LINE
  5
296
330
2
100
AcDbEntity
  8
0
  6
Continuous
 62
     7
100
AcDbLine
 10
233.9897204515009
 20
196.3658223088664
 30
0.0
 11
235.9897194978266
 21
196.3658223088664
 31
0.0
  0
LINE
  5
297
330
2
100
AcDbEntity
  8
0
  6
Continuous
 62
     7
100
AcDbLine
 10
221.4897324677973
 20
202.1658316548747
 30
0.0
 11
235.0065430757075
 21
201.9298964436931
 31
0.0
  0
LINE
  5
298
330
2
100
AcDbEntity
  8
0
  6
Continuous
 62
     7
100
AcDbLine
 10
220.9897387620478
 20
201.3570995267314
 30
0.0
 11
221.4897324677973
 21
201.3658320363445
 31
0.0
  0
ARC
  5
299
330
2
100
AcDbEntity
  8
0
  6
Continuous
 62
     7
100
AcDbCircle
 10
233.0926365484222
 20
199.3658269341868
 30
0.0
 40
2.597101259958312
100
AcDbArc
 50
299.9626382565475
 51
60.03736174345243
  0
LINE
  5
29A
330
2
100
AcDbEntity
  8
0
  6
Continuous
 62
     7
100
AcDbLine
 10
234.389720260766
 20
201.6158288892192
 30
0.0
 11
234.389720260766
 21
197.1158249791545
 31
0.0
  0
LINE
  5
29B
330
2
100
AcDbEntity
  8
0
  6
Continuous
 62
     7
100
AcDbLine
 10
234.389720260766
 20
197.1158249791545
 30
0.0
 11
233.9897204515009
 21
197.1158249791545
 31
0.0
  0
ARC
  5
29C
330
2
100
AcDbEntity
  8
0
  6
Continuous
 62
     7
100
AcDbCircle
 10
234.9890757725632
 20
200.9300350877762
 30
0.0
 40
1.000013918770604
100
AcDbArc
 50
0.000410960851723
 51
88.99916028331082
  0
LINE
  5
29D
330
2
100
AcDbEntity
  8
0
  6
Continuous
 62
     7
100
AcDbLine
 10
234.389720260766
 20
201.6158288892192
 30
0.0
 11
233.9897204515009
 21
201.6158288892192
 31
0.0
  0
LINE
  5
29E
330
2
100
AcDbEntity
  8
0
  6
Continuous
 62
     7
100
AcDbLine
 10
293.1505975232716
 20
149.0658085282725
 30
0.0
 11
293.1505975232716
 21
200.6657839234752
 31
0.0
  0
LINE
  5
29F
330
2
100
AcDbEntity
  8
0
  6
Continuous
 62
     7
100
AcDbLine
 10
292.9499799237843
 20
148.8658194478434
 30
0.0
 11
292.9499799237843
 21
200.8657838281077
 31
0.0
  0
LINE
  5
2A0
330
2
100
AcDbEntity
  8
0
  6
Continuous
 62
     7
100
AcDbLine
 10
293.1505975232716
 20
153.3658004220409
 30
0.0
 11
295.9505719647999
 21
153.3658004220409
 31
0.0
  0
CIRCLE
  5
2A1
330
2
100
AcDbEntity
  8
0
  6
Continuous
 62
     7
100
AcDbCircle
 10
295.9505961881276
 20
150.3658018525523
 30
0.0
 40
2.250008010864255
  0
CIRCLE
  5
2A2
330
2
100
AcDbEntity
  8
0
  6
Continuous
 62
     7
100
AcDbCircle
 10
308.9506021009083
 20
158.3657980378551
 30
0.0
 40
5.999997138977048
  0
ARC
  5
2A3
330
2
100
AcDbEntity
  8
0
  6
Continuous
 62
     7
100
AcDbCircle
 10
295.9505953084887
 20
150.3658009729135
 30
0.0
 40
3.000011560791295
100
AcDbArc
 50
0.0000167997993403
 51
89.99998320020067
  0
ARC
  5
2A4
330
2
100
AcDbEntity
  8
0
  6
Continuous
 62
     7
100
AcDbCircle
 10
296.8506078702712
 20
149.4657901704087
 30
0.0
 40
0.7071064437005779
100
AcDbArc
 50
81.86989761222445
 51
188.130102387775
  0
ARC
  5
2A5
330
2
100
AcDbEntity
  8
0
  6
Continuous
 62
     7
100
AcDbCircle
 10
295.0505845059839
 20
149.4657901704087
 30
0.0
 40
0.7071064437005779
100
AcDbArc
 50
351.8698976122244
 51
98.13010238777556
  0
ARC
  5
2A6
330
2
100
AcDbEntity
  8
0
  6
Continuous
 62
     7
100
AcDbCircle
 10
295.0505845059839
 20
151.2658135346959
 30
0.0
 40
0.7071064437005779
100
AcDbArc
 50
261.8698976122244
 51
8.130102387775561
  0
ARC
  5
2A7
330
2
100
AcDbEntity
  8
0
  6
Continuous
 62
     7
100
AcDbCircle
 10
296.8506078702712
 20
151.2658135346959
 30
0.0
 40
0.7071064437005779
100
AcDbArc
 50
171.8698976122244
 51
278.1301023877751
  0
LINE
  5
2A8
330
2
100
AcDbEntity
  8
0
  6
Continuous
 62
     7
100
AcDbLine
 10
298.9506068692799
 20
147.5658031876963
 30
0.0
 11
298.9506068692799
 21
150.3658018525523
 31
0.0
  0
LINE
  5
2A9
330
2
100
AcDbEntity
  8
0
  6
Continuous
 62
     7
100
AcDbLine
 10
293.1505975232716
 20
196.365779918043
 30
0.0
 11
295.9505719647999
 21
196.365779918043
 31
0.0
  0
ARC
  5
2AA
330
2
100
AcDbEntity
  8
0
  6
Continuous
 62
     7
100
AcDbCircle
 10
294.6505929658089
 20
200.6657938215141
 30
0.0
 40
1.49999544256997
100
AcDbArc
 50
89.99962192161644
 51
180.0003780783834
  0
CIRCLE
  5
2AB
330
2
100
AcDbEntity
  8
0
  6
Continuous
 62
     7
100
AcDbCircle
 10
295.9505961881276
 20
199.3657905991954
 30
0.0
 40
2.250008010864255
  0
ARC
  5
2AC
330
2
100
AcDbEntity
  8
0
  6
Continuous
 62
     7
100
AcDbCircle
 10
294.4499753662997
 20
200.8657816145358
 30
0.0
 40
1.499995442517
100
AcDbArc
 50
89.99962192077903
 51
179.9999154475212
  0
ARC
  5
2AD
330
2
100
AcDbEntity
  8
0
  6
Continuous
 62
     7
100
AcDbCircle
 10
295.9506159842053
 20
199.3657708031176
 30
0.0
 40
2.99999088513994
100
AcDbArc
 50
269.9996219216164
 51
0.000378078383952
  0
LINE
  5
2AE
330
2
100
AcDbEntity
  8
0
  6
Continuous
 62
     7
100
AcDbLine
 10
298.9506068692799
 20
202.1657892640513
 30
0.0
 11
298.9506068692799
 21
199.3657905991954
 31
0.0
  0
ARC
  5
2AF
330
2
100
AcDbEntity
  8
0
  6
Continuous
 62
     7
100
AcDbCircle
 10
296.8506071133667
 20
200.2658000105338
 30
0.0
 40
0.7071043027614181
100
AcDbArc
 50
171.8706783170067
 51
278.1301891239967
  0
ARC
  5
2B0
330
2
100
AcDbEntity
  8
0
  6
Continuous
 62
     7
100
AcDbCircle
 10
295.0505845059839
 20
200.265802281339
 30
0.0
 40
0.7071064437005779
100
AcDbArc
 50
261.8698976122244
 51
8.130102387775561
  0
ARC
  5
2B1
330
2
100
AcDbEntity
  8
0
  6
Continuous
 62
     7
100
AcDbCircle
 10
295.0505845059839
 20
198.4657789170517
 30
0.0
 40
0.7071064437005779
100
AcDbArc
 50
351.8698976122244
 51
98.13010238777556
  0
ARC
  5
2B2
330
2
100
AcDbEntity
  8
0
  6
Continuous
 62
     7
100
AcDbCircle
 10
296.8506078702712
 20
198.4657789170517
 30
0.0
 40
0.7071064437005779
100
AcDbArc
 50
81.86989761222445
 51
188.130102387775
  0
LINE
  5
2B3
330
2
100
AcDbEntity
  8
0
  6
Continuous
 62
     7
100
AcDbLine
 10
324.7506066785451
 20
200.6657839234752
 30
0.0
 11
324.7506066785451
 21
149.0658085282725
 31
0.0
  0
LINE
  5
2B4
330
2
100
AcDbEntity
  8
0
  6
Continuous
 62
     7
100
AcDbLine
 10
324.9499646649953
 20
200.8657838281077
 30
0.0
 11
324.9499646649953
 21
148.8658194478434
 31
0.0
  0
ARC
  5
2B5
330
2
100
AcDbEntity
  8
0
  6
Continuous
 62
     7
100
AcDbCircle
 10
323.4499646649953
 20
148.8658194478434
 30
0.0
 40
1.5
100
AcDbArc
 50
270.0
 51
0.0
  0
LINE
  5
2B6
330
2
100
AcDbEntity
  8
0
  6
Continuous
 62
     7
100
AcDbLine
 10
324.7506066785451
 20
153.3658004220409
 30
0.0
 11
321.9506322370167
 21
153.3658004220409
 31
0.0
  0
CIRCLE
  5
2B7
330
2
100
AcDbEntity
  8
0
  6
Continuous
 62
     7
100
AcDbCircle
 10
321.9506080136891
 20
150.3658018525523
 30
0.0
 40
2.250008010864255
  0
ARC
  5
2B8
330
2
100
AcDbEntity
  8
0
  6
Continuous
 62
     7
100
AcDbCircle
 10
321.9506088933278
 20
150.3658009729135
 30
0.0
 40
3.000011560791295
100
AcDbArc
 50
90.00001679979931
 51
179.9999832002006
  0
LINE
  5
2B9
330
2
100
AcDbEntity
  8
0
  6
Continuous
 62
     7
100
AcDbLine
 10
318.9505973325367
 20
147.5658031876963
 30
0.0
 11
318.9505973325367
 21
150.3658018525523
 31
0.0
  0
ARC
  5
2BA
330
2
100
AcDbEntity
  8
0
  6
Continuous
 62
     7
100
AcDbCircle
 10
321.0505963315454
 20
149.4657901704087
 30
0.0
 40
0.7071064437005779
100
AcDbArc
 50
351.8698976122244
 51
98.13010238777556
  0
ARC
  5
2BB
330
2
100
AcDbEntity
  8
0
  6
Continuous
 62
     7
100
AcDbCircle
 10
322.8506196958327
 20
149.4657901704087
 30
0.0
 40
0.7071064437005779
100
AcDbArc
 50
81.86989761222445
 51
188.130102387775
  0
ARC
  5
2BC
330
2
100
AcDbEntity
  8
0
  6
Continuous
 62
     7
100
AcDbCircle
 10
322.8506196958327
 20
151.2658135346959
 30
0.0
 40
0.7071064437005779
100
AcDbArc
 50
171.8698976122244
 51
278.1301023877751
  0
ARC
  5
2BD
330
2
100
AcDbEntity
  8
0
  6
Continuous
 62
     7
100
AcDbCircle
 10
321.0505963315454
 20
151.2658135346959
 30
0.0
 40
0.7071064437005779
100
AcDbArc
 50
261.8698976122244
 51
8.130102387775561
  0
LINE
  5
2BE
330
2
100
AcDbEntity
  8
0
  6
Continuous
 62
     7
100
AcDbLine
 10
324.7506066785451
 20
147.5658031876963
 30
0.0
 11
324.7506066785451
 21
147.5658031876963
 31
0.0
  0
LINE
  5
2BF
330
2
100
AcDbEntity
  8
0
  6
Continuous
 62
     7
100
AcDbLine
 10
324.9502553449269
 20
147.3659607346934
 30
0.0
 11
324.9502553449269
 21
147.3659607346934
 31
0.0
  0
LINE
  5
2C0
330
2
100
AcDbEntity
  8
0
  6
Continuous
 62
     7
100
AcDbLine
 10
324.7508973584767
 20
147.5657547410411
 30
0.0
 11
324.7508973584767
 21
147.5657547410411
 31
0.0
  0
ARC
  5
2C1
330
2
100
AcDbEntity
  8
0
  6
Continuous
 62
     7
100
AcDbCircle
 10
321.9505882176114
 20
199.3657708031176
 30
0.0
 40
2.99999088513994
100
AcDbArc
 50
179.999621921616
 51
270.0003780783835
  0
LINE
  5
2C2
330
2
100
AcDbEntity
  8
0
  6
Continuous
 62
     7
100
AcDbLine
 10
324.7506066785451
 20
196.365779918043
 30
0.0
 11
321.9506322370167
 21
196.365779918043
 31
0.0
  0
ARC
  5
2C3
330
2
100
AcDbEntity
  8
0
  6
Continuous
 62
     7
100
AcDbCircle
 10
323.2506112360078
 20
200.6657938215141
 30
0.0
 40
1.49999544256997
100
AcDbArc
 50
359.9996219216164
 51
90.00037807838355
  0
ARC
  5
2C4
330
2
100
AcDbEntity
  8
0
  6
Continuous
 62
     7
100
AcDbCircle
 10
323.4499692224799
 20
200.8657816145358
 30
0.0
 40
1.499995442517
100
AcDbArc
 50
0.0000845524787612
 51
90.00037807922096
  0
CIRCLE
  5
2C5
330
2
100
AcDbEntity
  8
0
  6
Continuous
 62
     7
100
AcDbCircle
 10
321.9506080136891
 20
199.3657905991954
 30
0.0
 40
2.250008010864255
  0
LINE
  5
2C6
330
2
100
AcDbEntity
  8
0
  6
Continuous
 62
     7
100
AcDbLine
 10
318.9505973325367
 20
202.1657892640513
 30
0.0
 11
318.9505973325367
 21
199.3657905991954
 31
0.0
  0
ARC
  5
2C7
330
2
100
AcDbEntity
  8
0
  6
Continuous
 62
     7
100
AcDbCircle
 10
321.0505970884499
 20
200.2658000105338
 30
0.0
 40
0.7071043027614181
100
AcDbArc
 50
261.8698108760033
 51
8.129321682993326
  0
ARC
  5
2C8
330
2
100
AcDbEntity
  8
0
  6
Continuous
 62
     7
100
AcDbCircle
 10
322.8506196958327
 20
200.265802281339
 30
0.0
 40
0.7071064437005779
100
AcDbArc
 50
171.8698976122244
 51
278.1301023877751
  0
ARC
  5
2C9
330
2
100
AcDbEntity
  8
0
  6
Continuous
 62
     7
100
AcDbCircle
 10
322.8506196958327
 20
198.4657789170517
 30
0.0
 40
0.7071064437005779
100
AcDbArc
 50
81.86989761222445
 51
188.130102387775
  0
ARC
  5
2CA
330
2
100
AcDbEntity
  8
0
  6
Continuous
 62
     7
100
AcDbCircle
 10
321.0505963315454
 20
198.4657789170517
 30
0.0
 40
0.7071064437005779
100
AcDbArc
 50
351.8698976122244
 51
98.13010238777556
  0
LINE
  5
2CB
330
2
100
AcDbEntity
  8
0
  6
Continuous
 62
     7
100
AcDbLine
 10
235.9897194978266
 20
112.365828412382
 30
0.0
 11
236.4897194978266
 21
112.365828412382
 31
0.0
  0
LINE
  5
2CC
330
2
100
AcDbEntity
  8
0
  6
Continuous
 62
     7
100
AcDbLine
 10
237.9897194978266
 20
110.865828412382
 30
0.0
 11
237.9897194978266
 21
103.865828412382
 31
0.0
  0
LINE
  5
2CD
330
2
100
AcDbEntity
  8
0
  6
Continuous
 62
     7
100
AcDbLine
 10
236.4897194978266
 20
102.365828412382
 30
0.0
 11
235.9897194978266
 21
102.365828412382
 31
0.0
  0
ARC
  5
2CE
330
2
100
AcDbEntity
  8
0
  6
Continuous
 62
     7
100
AcDbCircle
 10
236.4897194978266
 20
110.865828412382
 30
0.0
 40
1.5
100
AcDbArc
 50
0.0
 51
90.0
  0
ARC
  5
2CF
330
2
100
AcDbEntity
  8
0
  6
Continuous
 62
     7
100
AcDbCircle
 10
236.4897194978266
 20
103.865828412382
 30
0.0
 40
1.5
100
AcDbArc
 50
270.0
 51
0.0
  0
LINE
  5
2D0
330
2
100
AcDbEntity
  8
0
  6
CENTER
 62
     4
 48
2.0
100
AcDbLine
 10
260.4903516558084
 20
107.365828412382
 30
0.0
 11
127.9903516558083
 21
107.3658163007182
 31
0.0
  0
CIRCLE
  5
2D2
330
2
100
AcDbEntity
  8
0
  6
Continuous
 62
     7
100
AcDbCircle
 10
308.9506021009083
 20
158.3657980378551
 30
0.0
 40
2.00017365285944
  0
LINE
  5
2D3
330
2
100
AcDbEntity
  8
0
  6
Continuous
 62
     7
100
AcDbLine
 10
236.3897193070918
 20
190.3656750756944
 30
0.0
 11
235.9897194978266
 21
190.3656750756944
 31
0.0
  0
ARC
  5
2D4
330
2
100
AcDbEntity
  8
0
  6
Continuous
 62
     7
100
AcDbCircle
 10
235.5487898018318
 20
192.6156668740952
 30
0.0
 40
1.9415618539765
100
AcDbArc
 50
295.6657344571011
 51
64.3342655428967
  0
LINE
  5
2D5
330
2
100
AcDbEntity
  8
0
  6
Continuous
 62
     7
100
AcDbLine
 10
236.3897193070918
 20
194.8656668740953
 30
0.0
 11
235.9897194978266
 21
194.8656668740953
 31
0.0
  0
LINE
  5
2D6
330
2
100
AcDbEntity
  8
0
  6
Continuous
 62
     7
100
AcDbLine
 10
235.9897194978266
 20
190.3656750756944
 30
0.0
 11
235.9897194978266
 21
194.8656668740953
 31
0.0
  0
LINE
  5
2D7
330
2
100
AcDbEntity
  8
0
  6
Continuous
 62
     7
100
AcDbLine
 10
236.3897193070918
 20
169.3678306190713
 30
0.0
 11
235.9897194978266
 21
169.3678306190713
 31
0.0
  0
ARC
  5
2D8
330
2
100
AcDbEntity
  8
0
  6
Continuous
 62
     7
100
AcDbCircle
 10
235.9523372321602
 20
167.1156668740952
 30
0.0
 40
1.803830113805426
100
AcDbArc
 50
284.0326096039449
 51
75.96739039605552
  0
LINE
  5
2D9
330
2
100
AcDbEntity
  8
0
  6
Continuous
 62
     7
100
AcDbLine
 10
236.3897193070918
 20
164.8678388206704
 30
0.0
 11
235.9897194978266
 21
164.8678388206704
 31
0.0
  0
LINE
  5
2DA
330
2
100
AcDbEntity
  8
0
  6
Continuous
 62
     7
100
AcDbLine
 10
235.9897194978266
 20
164.8678388206704
 30
0.0
 11
235.9897194978266
 21
169.3678306190713
 31
0.0
  0
LINE
  5
2DB
330
2
100
AcDbEntity
  8
0
  6
Continuous
 62
     7
100
AcDbLine
 10
236.3897193070918
 20
197.8656668740953
 30
0.0
 11
235.9903516558083
 21
197.8656668740953
 31
0.0
  0
LINE
  5
2DC
330
2
100
AcDbEntity
  8
0
  6
Continuous
 62
     7
100
AcDbLine
 10
236.3897193070918
 20
197.8656668740953
 30
0.0
 11
236.3897193070918
 21
164.6024293117032
 31
0.0
  0
LINE
  5
2DD
330
2
100
AcDbEntity
  8
0
  6
Continuous
 62
     7
100
AcDbLine
 10
236.3897193070918
 20
164.6024293117032
 30
0.0
 11
235.989089691308
 21
164.6024293117032
 31
0.0
  0
LINE
  5
2DE
330
2
100
AcDbEntity
  8
0
  6
Continuous
 62
     7
100
AcDbLine
 10
236.3897193070918
 20
121.6422911592027
 30
0.0
 11
236.3897193070918
 21
112.365828412382
 31
0.0
  0
LINE
  5
2DF
330
2
100
AcDbEntity
  8
0
  6
Continuous
 62
     7
100
AcDbLine
 10
236.3897193070918
 20
121.6422911592027
 30
0.0
 11
235.9897194978266
 21
121.6422911592027
 31
0.0
  0
LINE
  5
2E0
330
2
100
AcDbEntity
  8
0
  6
Continuous
 62
     7
100
AcDbLine
 10
235.9897194978266
 20
93.2371592166946
 30
0.0
 11
236.3897193070918
 21
93.2371592166946
 31
0.0
  0
LINE
  5
2E1
330
2
100
AcDbEntity
  8
0
  6
Continuous
 62
     7
100
AcDbLine
 10
236.3897193070918
 20
93.2371592166946
 30
0.0
 11
236.3897193070918
 21
102.365828412382
 31
0.0
  0
LINE
  5
2E2
330
2
100
AcDbEntity
  8
0
  6
Continuous
 62
     7
100
AcDbLine
 10
299.2796562337952
 20
196.8656244832719
 30
0.0
 11
318.6228019843026
 21
196.8656244832719
 31
0.0
  0
LINE
  5
2E3
330
2
100
AcDbEntity
  8
0
  6
Continuous
 62
     7
100
AcDbLine
 10
294.4512291090488
 20
192.0371973585257
 30
0.0
 11
294.4512291090487
 21
166.8656244832719
 31
0.0
  0
LINE
  5
2E4
330
2
100
AcDbEntity
  8
0
  6
Continuous
 62
     7
100
AcDbLine
 10
296.4512291090487
 20
164.8656244832719
 30
0.0
 11
321.4512291090487
 21
164.8656244832719
 31
0.0
  0
LINE
  5
2E5
330
2
100
AcDbEntity
  8
0
  6
Continuous
 62
     7
100
AcDbLine
 10
323.4512291090487
 20
166.8656244832719
 30
0.0
 11
323.4512291090488
 21
192.0371973585257
 31
0.0
  0
LINE
  5
2E6
330
2
100
AcDbEntity
  8
0
  6
Continuous
 62
     7
100
AcDbLine
 10
297.8654426714219
 20
196.279838045645
 30
0.0
 11
295.0370155466757
 21
193.4514109208988
 31
0.0
  0
LINE
  5
2E7
330
2
100
AcDbEntity
  8
0
  6
Continuous
 62
     7
100
AcDbLine
 10
320.0370155466757
 20
196.279838045645
 30
0.0
 11
322.8654426714219
 21
193.4514109208988
 31
0.0
  0
ARC
  5
2E8
330
2
100
AcDbEntity
  8
0
  6
Continuous
 62
     7
100
AcDbCircle
 10
299.2796562337952
 20
194.8656244832719
 30
0.0
 40
2.0
100
AcDbArc
 50
90.0
 51
135.0
  0
ARC
  5
2E9
330
2
100
AcDbEntity
  8
0
  6
Continuous
 62
     7
100
AcDbCircle
 10
318.6228019843026
 20
194.8656244832719
 30
0.0
 40
2.0
100
AcDbArc
 50
45.0
 51
90.0
  0
ARC
  5
2EA
330
2
100
AcDbEntity
  8
0
  6
Continuous
 62
     7
100
AcDbCircle
 10
321.4512291090488
 20
192.0371973585257
 30
0.0
 40
2.0
100
AcDbArc
 50
0.0
 51
44.99999999999971
  0
ARC
  5
2EB
330
2
100
AcDbEntity
  8
0
  6
Continuous
 62
     7
100
AcDbCircle
 10
296.4512291090488
 20
192.0371973585257
 30
0.0
 40
2.0
100
AcDbArc
 50
135.0
 51
180.0
  0
ARC
  5
2EC
330
2
100
AcDbEntity
  8
0
  6
Continuous
 62
     7
100
AcDbCircle
 10
296.4512291090487
 20
166.8656244832719
 30
0.0
 40
2.0
100
AcDbArc
 50
180.0
 51
270.0
  0
ARC
  5
2ED
330
2
100
AcDbEntity
  8
0
  6
Continuous
 62
     7
100
AcDbCircle
 10
321.4512291090487
 20
166.8656244832719
 30
0.0
 40
2.0
100
AcDbArc
 50
270.0
 51
0.0
  0
CIRCLE
  5
2EE
330
2
100
AcDbEntity
  8
0
  6
Continuous
 62
     7
100
AcDbCircle
 10
320.9512291090488
 20
192.6156244832719
 30
0.0
 40
1.75
  0
CIRCLE
  5
2EF
330
2
100
AcDbEntity
  8
0
  6
Continuous
 62
     7
100
AcDbCircle
 10
296.9512291090488
 20
192.6156244832719
 30
0.0
 40
1.75
  0
CIRCLE
  5
2F0
330
2
100
AcDbEntity
  8
0
  6
Continuous
 62
     7
100
AcDbCircle
 10
320.9512291090488
 20
167.3656244832719
 30
0.0
 40
1.75
  0
CIRCLE
  5
2F1
330
2
100
AcDbEntity
  8
0
  6
Continuous
 62
     7
100
AcDbCircle
 10
296.9512291090488
 20
167.3656244832719
 30
0.0
 40
1.75
  0
CIRCLE
  5
2F2
330
2
100
AcDbEntity
  8
0
  6
Continuous
 62
     7
100
AcDbCircle
 10
302.4512291090488
 20
186.3656244832719
 30
0.0
 40
1.0
  0
LINE
  5
2F3
330
2
100
AcDbEntity
  8
0
  6
CENTER
 62
     4
 48
2.0
100
AcDbLine
 10
308.9499722943898
 20
209.8656244832719
 30
0.0
 11
308.9499722943898
 21
141.3656244832719
 31
0.0
  0
ARC
  5
2F4
330
2
100
AcDbEntity
  8
0
  6
Continuous
 62
     7
100
AcDbCircle
 10
297.8506078702712
 20
191.7157789170517
 30
0.0
 40
0.7071064437005779
100
AcDbArc
 50
81.86989761222445
 51
188.130102387775
  0
ARC
  5
2F5
330
2
100
AcDbEntity
  8
0
  6
Continuous
 62
     7
100
AcDbCircle
 10
296.0505845059838
 20
191.7157789170517
 30
0.0
 40
0.7071064437005779
100
AcDbArc
 50
351.8698976122244
 51
98.13010238777556
  0
ARC
  5
2F6
330
2
100
AcDbEntity
  8
0
  6
Continuous
 62
     7
100
AcDbCircle
 10
296.0505845059838
 20
193.515802281339
 30
0.0
 40
0.7071064437005779
100
AcDbArc
 50
261.8698976122244
 51
8.130102387775561
  0
ARC
  5
2F7
330
2
100
AcDbEntity
  8
0
  6
Continuous
 62
     7
100
AcDbCircle
 10
297.8506071133667
 20
193.5158000105338
 30
0.0
 40
0.7071043027614181
100
AcDbArc
 50
171.8706783170067
 51
278.1301891239967
  0
ARC
  5
2F8
330
2
100
AcDbEntity
  8
0
  6
Continuous
 62
     7
100
AcDbCircle
 10
321.8506071133667
 20
193.5158000105338
 30
0.0
 40
0.7071043027614181
100
AcDbArc
 50
171.8706783170067
 51
278.1301891239967
  0
ARC
  5
2F9
330
2
100
AcDbEntity
  8
0
  6
Continuous
 62
     7
100
AcDbCircle
 10
320.0505845059839
 20
193.515802281339
 30
0.0
 40
0.7071064437005779
100
AcDbArc
 50
261.8698976122244
 51
8.130102387775561
  0
ARC
  5
2FA
330
2
100
AcDbEntity
  8
0
  6
Continuous
 62
     7
100
AcDbCircle
 10
320.0505845059839
 20
191.7157789170517
 30
0.0
 40
0.7071064437005779
100
AcDbArc
 50
351.8698976122244
 51
98.13010238777556
  0
ARC
  5
2FB
330
2
100
AcDbEntity
  8
0
  6
Continuous
 62
     7
100
AcDbCircle
 10
321.8506078702712
 20
191.7157789170517
 30
0.0
 40
0.7071064437005779
100
AcDbArc
 50
81.86989761222445
 51
188.130102387775
  0
ARC
  5
2FC
330
2
100
AcDbEntity
  8
0
  6
Continuous
 62
     7
100
AcDbCircle
 10
297.8506071133667
 20
168.2658000105338
 30
0.0
 40
0.7071043027614181
100
AcDbArc
 50
171.8706783170067
 51
278.1301891239967
  0
ARC
  5
2FD
330
2
100
AcDbEntity
  8
0
  6
Continuous
 62
     7
100
AcDbCircle
 10
296.0505845059838
 20
168.265802281339
 30
0.0
 40
0.7071064437005779
100
AcDbArc
 50
261.8698976122244
 51
8.130102387775561
  0
ARC
  5
2FE
330
2
100
AcDbEntity
  8
0
  6
Continuous
 62
     7
100
AcDbCircle
 10
296.0505845059838
 20
166.4657789170517
 30
0.0
 40
0.7071064437005779
100
AcDbArc
 50
351.8698976122244
 51
98.13010238777556
  0
ARC
  5
2FF
330
2
100
AcDbEntity
  8
0
  6
Continuous
 62
     7
100
AcDbCircle
 10
297.8506078702712
 20
166.4657789170517
 30
0.0
 40
0.7071064437005779
100
AcDbArc
 50
81.86989761222445
 51
188.130102387775
  0
ARC
  5
300
330
2
100
AcDbEntity
  8
0
  6
Continuous
 62
     7
100
AcDbCircle
 10
321.8506078702712
 20
166.4657789170517
 30
0.0
 40
0.7071064437005779
100
AcDbArc
 50
81.86989761222445
 51
188.130102387775
  0
ARC
  5
301
330
2
100
AcDbEntity
  8
0
  6
Continuous
 62
     7
100
AcDbCircle
 10
320.0505845059839
 20
166.4657789170517
 30
0.0
 40
0.7071064437005779
100
AcDbArc
 50
351.8698976122244
 51
98.13010238777556
  0
ARC
  5
302
330
2
100
AcDbEntity
  8
0
  6
Continuous
 62
     7
100
AcDbCircle
 10
320.0505845059839
 20
168.265802281339
 30
0.0
 40
0.7071064437005779
100
AcDbArc
 50
261.8698976122244
 51
8.130102387775561
  0
ARC
  5
303
330
2
100
AcDbEntity
  8
0
  6
Continuous
 62
     7
100
AcDbCircle
 10
321.8506071133667
 20
168.2658000105338
 30
0.0
 40
0.7071043027614181
100
AcDbArc
 50
171.8706783170067
 51
278.1301891239967
  0
LINE
  5
304
330
2
100
AcDbEntity
  8
0
  6
CENTER
 62
     4
 48
2.0
100
AcDbLine
 10
95.99035165580835
 20
208.3656668740953
 30
0.0
 11
95.99035165580835
 21
139.3656668740952
 31
0.0
  0
LINE
  5
305
330
2
100
AcDbEntity
  8
0
  6
CENTER
 62
     4
 48
2.0
100
AcDbLine
 10
116.9903516558083
 20
167.365836137144
 30
0.0
 11
73.49035165580834
 21
167.365836137144
 31
0.0
  0
ARC
  5
306
330
2
100
AcDbEntity
  8
0
  6
Continuous
 62
     7
100
AcDbCircle
 10
249.9437115893895
 20
108.865506784689
 30
0.0
 40
1.5
100
AcDbArc
 50
90.0
 51
268.8140263406548
  0
ARC
  5
307
330
2
100
AcDbEntity
  8
0
  6
Continuous
 62
     7
100
AcDbCircle
 10
249.9437115893895
 20
105.865506784689
 30
0.0
 40
1.5
100
AcDbArc
 50
271.1891935093887
 51
91.18546579542938
  0
LINE
  5
308
330
2
100
AcDbEntity
  8
0
  6
Continuous
 62
     7
100
AcDbLine
 10
249.9437115893895
 20
110.365506784689
 30
0.0
 11
237.942447273426
 21
110.365506784689
 31
0.0
  0
LINE
  5
309
330
2
100
AcDbEntity
  8
0
  6
Continuous
 62
     7
100
AcDbLine
 10
249.9748423674424
 20
104.3658298612626
 30
0.0
 11
237.942447273426
 21
104.3658298612626
 31
0.0
  0
LINE
  5
30A
330
2
100
AcDbEntity
  8
0
  6
Continuous
 62
     7
100
AcDbLine
 10
247.2814318888659
 20
161.3656668740953
 30
0.0
 11
263.2814318888659
 21
161.3656668740953
 31
0.0
  0
LINE
  5
30B
330
2
100
AcDbEntity
  8
0
  6
Continuous
 62
     7
100
AcDbLine
 10
247.2814318888659
 20
155.3656668740952
 30
0.0
 11
263.2814318888659
 21
155.3656668740952
 31
0.0
  0
LINE
  5
30C
330
2
100
AcDbEntity
  8
0
  6
Continuous
 62
     7
100
AcDbLine
 10
263.2814318888659
 20
161.3656668740953
 30
0.0
 11
263.2814318888659
 21
155.3656668740952
 31
0.0
  0
ARC
  5
30D
330
2
100
AcDbEntity
  8
0
  6
Continuous
 62
     7
100
AcDbCircle
 10
277.6722463640915
 20
168.4855464443011
 30
0.0
 40
2.25
100
AcDbArc
 50
253.1523897340048
 51
193.1462040503645
  0
CIRCLE
  5
30E
330
2
100
AcDbEntity
  8
0
  6
Continuous
 62
     7
100
AcDbCircle
 10
277.6722463640915
 20
168.4855464443011
 30
0.0
 40
1.5
  0
LWPOLYLINE
  5
30F
330
2
100
AcDbEntity
  8
0
  6
Continuous
 62
     7
100
AcDbPolyline
 90
        4
 70
     1
 43
0.0
 10
275.4816220118656
 20
167.973909628114
 10
275.4816220118656
 20
167.973909628114
 10
277.0204895518487
 20
166.3324509187988
 10
277.0204895518487
 20
166.3324509187988
  0
LINE
  5
310
330
2
100
AcDbEntity
  8
0
  6
Continuous
 62
     7
100
AcDbLine
 10
275.4816220118656
 20
167.973909628114
 30
0.0
 11
272.7458574963403
 21
165.409130394809
 31
0.0
  0
LINE
  5
311
330
2
100
AcDbEntity
  8
0
  6
Continuous
 62
     7
100
AcDbLine
 10
277.0204895518487
 20
166.3324509187988
 30
0.0
 11
274.2847250363233
 21
163.7676716854936
 31
0.0
  0
LINE
  5
312
330
2
100
AcDbEntity
  8
0
  6
Continuous
 62
     7
100
AcDbLine
 10
272.7458574963403
 20
165.409130394809
 30
0.0
 11
274.2847250363233
 21
163.7676716854936
 31
0.0
  0
LINE
  5
313
330
2
100
AcDbEntity
  8
0
  6
Continuous
 62
     7
100
AcDbLine
 10
274.7892831902789
 20
163.2898882822941
 30
0.0
 11
275.7524774659418
 21
161.2564781447836
 31
0.0
  0
LINE
  5
314
330
2
100
AcDbEntity
  8
0
  6
Continuous
 62
     7
100
AcDbLine
 10
279.1414943617924
 20
162.861801937555
 30
0.0
 11
275.7524774659418
 21
161.2564781447836
 31
0.0
  0
LINE
  5
315
330
2
100
AcDbEntity
  8
0
  6
Continuous
 62
     7
100
AcDbLine
 10
278.1783000861295
 20
164.8952120750655
 30
0.0
 11
274.7892831902789
 21
163.2898882822941
 31
0.0
  0
LWPOLYLINE
  5
316
330
2
100
AcDbEntity
  8
0
  6
Continuous
 62
     7
100
AcDbPolyline
 90
        4
 70
     1
 43
0.0
 10
278.1783000861295
 20
164.8952120750655
 10
278.1783000861295
 20
164.8952120750655
 10
279.1414943617924
 20
162.861801937555
 10
279.1414943617924
 20
162.861801937555
  0
CIRCLE
  5
317
330
2
100
AcDbEntity
  8
0
  6
Continuous
 62
     7
100
AcDbCircle
 10
280.420443085304
 20
164.7124497827358
 30
0.0
 40
1.5
  0
ARC
  5
318
330
2
100
AcDbEntity
  8
0
  6
Continuous
 62
     7
100
AcDbCircle
 10
280.420443085304
 20
164.7124497827358
 30
0.0
 40
2.25
100
AcDbArc
 50
235.3461759419461
 51
175.3399902583056
  0
LINE
  5
319
330
2
100
AcDbEntity
  8
0
  6
Continuous
 62
     7
100
AcDbLine
 10
276.2814318888659
 20
159.4906668740953
 30
0.0
 11
276.2814318888659
 21
157.2406668740953
 31
0.0
  0
LINE
  5
31A
330
2
100
AcDbEntity
  8
0
  6
Continuous
 62
     7
100
AcDbLine
 10
280.0314318888659
 20
157.2406668740953
 30
0.0
 11
276.2814318888659
 21
157.2406668740953
 31
0.0
  0
LINE
  5
31B
330
2
100
AcDbEntity
  8
0
  6
Continuous
 62
     7
100
AcDbLine
 10
280.0314318888659
 20
159.4906668740953
 30
0.0
 11
276.2814318888659
 21
159.4906668740953
 31
0.0
  0
LWPOLYLINE
  5
31C
330
2
100
AcDbEntity
  8
0
  6
Continuous
 62
     7
100
AcDbPolyline
 90
        4
 70
     1
 43
0.0
 10
280.0314318888659
 20
159.4906668740953
 10
280.0314318888659
 20
159.4906668740953
 10
280.0314318888659
 20
157.2406668740953
 10
280.0314318888659
 20
157.2406668740953
  0
CIRCLE
  5
31D
330
2
100
AcDbEntity
  8
0
  6
Continuous
 62
     7
100
AcDbCircle
 10
281.9795033157504
 20
158.3656668740952
 30
0.0
 40
1.5
  0
ARC
  5
31E
330
2
100
AcDbEntity
  8
0
  6
Continuous
 62
     7
100
AcDbCircle
 10
281.9795033157504
 20
158.3656668740952
 30
0.0
 40
2.25
100
AcDbArc
 50
209.9999999999996
 51
149.993814316359
  0
LINE
  5
31F
330
2
100
AcDbEntity
  8
0
  6
Continuous
 62
     7
100
AcDbLine
 10
275.9825614384123
 20
155.9525075354547
 30
0.0
 11
275.2710489648744
 21
153.817970114841
 31
0.0
  0
LINE
  5
320
330
2
100
AcDbEntity
  8
0
  6
Continuous
 62
     7
100
AcDbLine
 10
278.8286113325638
 20
152.6321159922779
 30
0.0
 11
275.2710489648744
 21
153.817970114841
 31
0.0
  0
LINE
  5
321
330
2
100
AcDbEntity
  8
0
  6
Continuous
 62
     7
100
AcDbLine
 10
279.5401238061018
 20
154.7666534128915
 30
0.0
 11
275.9825614384123
 21
155.9525075354547
 31
0.0
  0
LWPOLYLINE
  5
322
330
2
100
AcDbEntity
  8
0
  6
Continuous
 62
     7
100
AcDbPolyline
 90
        4
 70
     1
 43
0.0
 10
279.5401238061018
 20
154.7666534128915
 10
279.5401238061018
 20
154.7666534128915
 10
278.8286113325638
 20
152.6321159922779
 10
278.8286113325638
 20
152.6321159922779
  0
CIRCLE
  5
323
330
2
100
AcDbEntity
  8
0
  6
Continuous
 62
     7
100
AcDbCircle
 10
281.0324703954277
 20
153.0833504272198
 30
0.0
 40
1.5
  0
ARC
  5
324
330
2
100
AcDbEntity
  8
0
  6
Continuous
 62
     7
100
AcDbCircle
 10
281.0324703954277
 20
153.0833504272198
 30
0.0
 40
2.25
100
AcDbArc
 50
191.5650511770774
 51
131.5588654934371
  0
LINE
  5
325
330
2
100
AcDbEntity
  8
0
  6
Continuous
 62
     7
100
AcDbLine
 10
274.0826105896914
 20
152.5444629821847
 30
0.0
 11
272.4916203320216
 21
150.953472724515
 31
0.0
  0
LINE
  5
326
330
2
100
AcDbEntity
  8
0
  6
Continuous
 62
     7
100
AcDbLine
 10
275.1432707614712
 20
148.3018222950654
 30
0.0
 11
272.4916203320216
 21
150.953472724515
 31
0.0
  0
LINE
  5
327
330
2
100
AcDbEntity
  8
0
  6
Continuous
 62
     7
100
AcDbLine
 10
276.734261019141
 20
149.8928125527351
 30
0.0
 11
274.0826105896914
 21
152.5444629821847
 31
0.0
  0
LWPOLYLINE
  5
328
330
2
100
AcDbEntity
  8
0
  6
Continuous
 62
     7
100
AcDbPolyline
 90
        4
 70
     1
 43
0.0
 10
276.734261019141
 20
149.8928125527351
 10
276.734261019141
 20
149.8928125527351
 10
275.1432707614712
 20
148.3018222950654
 10
275.1432707614712
 20
148.3018222950654
  0
CIRCLE
  5
329
330
2
100
AcDbEntity
  8
0
  6
Continuous
 62
     7
100
AcDbCircle
 10
277.3162604064919
 20
147.7198229077144
 30
0.0
 40
1.5
  0
ARC
  5
32A
330
2
100
AcDbEntity
  8
0
  6
Continuous
 62
     7
100
AcDbCircle
 10
277.3162604064919
 20
147.7198229077144
 30
0.0
 40
2.25
100
AcDbArc
 50
164.9999999999996
 51
104.993814316359
  0
LINE
  5
32B
330
2
100
AcDbEntity
  8
0
  6
Continuous
 62
     7
100
AcDbLine
 10
269.2814318888659
 20
160.5390539765736
 30
0.0
 11
263.2814318888659
 21
160.5390539765736
 31
0.0
  0
LINE
  5
32C
330
2
100
AcDbEntity
  8
0
  6
Continuous
 62
     7
100
AcDbLine
 10
263.2814318888659
 20
161.1427694800257
 30
0.0
 11
269.2814318888659
 21
161.1427694800257
 31
0.0
  0
LINE
  5
32D
330
2
100
AcDbEntity
  8
0
  6
Continuous
 62
     7
100
AcDbLine
 10
263.2814318888659
 20
159.9349575465886
 30
0.0
 11
269.2814318888659
 21
159.9349575465886
 31
0.0
  0
LINE
  5
32E
330
2
100
AcDbEntity
  8
0
  6
Continuous
 62
     7
100
AcDbLine
 10
269.2814318888659
 20
159.3312420431365
 30
0.0
 11
263.2814318888659
 21
159.3312420431365
 31
0.0
  0
LINE
  5
32F
330
2
100
AcDbEntity
  8
0
  6
Continuous
 62
     7
100
AcDbLine
 10
263.2814318888659
 20
158.6675246258213
 30
0.0
 11
276.2814318888659
 21
158.6675246258213
 31
0.0
  0
LINE
  5
330
330
2
100
AcDbEntity
  8
0
  6
Continuous
 62
     7
100
AcDbLine
 10
276.2814318888659
 20
158.0638091223692
 30
0.0
 11
263.2814318888659
 21
158.0638091223692
 31
0.0
  0
LINE
  5
331
330
2
100
AcDbEntity
  8
0
  6
Continuous
 62
     7
100
AcDbLine
 10
263.2814318888659
 20
157.4071907041677
 30
0.0
 11
269.2814318888659
 21
157.4071907041677
 31
0.0
  0
LINE
  5
332
330
2
100
AcDbEntity
  8
0
  6
Continuous
 62
     7
100
AcDbLine
 10
269.2814318888659
 20
156.8034752007156
 30
0.0
 11
263.2814318888659
 21
156.8034752007156
 31
0.0
  0
LINE
  5
333
330
2
100
AcDbEntity
  8
0
  6
Continuous
 62
     7
100
AcDbLine
 10
263.2814318888659
 20
156.1995399847639
 30
0.0
 11
269.2814318888659
 21
156.1995399847639
 31
0.0
  0
LINE
  5
334
330
2
100
AcDbEntity
  8
0
  6
Continuous
 62
     7
100
AcDbLine
 10
269.2814318888659
 20
155.5958244813117
 30
0.0
 11
263.2814318888659
 21
155.5958244813117
 31
0.0
  0
LINE
  5
335
330
2
100
AcDbEntity
  8
0
  6
Continuous
 62
     7
100
AcDbLine
 10
269.2814318888659
 20
161.1427694800257
 30
0.0
 11
273.2540297580166
 21
164.867079982354
 31
0.0
  0
LINE
  5
336
330
2
100
AcDbEntity
  8
0
  6
Continuous
 62
     7
100
AcDbLine
 10
269.2814318888659
 20
160.5390539765736
 30
0.0
 11
273.5552599468491
 21
164.5457677809327
 31
0.0
  0
LINE
  5
337
330
2
100
AcDbEntity
  8
0
  6
Continuous
 62
     7
100
AcDbLine
 10
269.2814318888659
 20
155.5958244813117
 30
0.0
 11
273.2077019888421
 21
151.6695543813354
 31
0.0
  0
LINE
  5
338
330
2
100
AcDbEntity
  8
0
  6
Continuous
 62
     7
100
AcDbLine
 10
269.2814318888659
 20
156.1995399847639
 30
0.0
 11
273.5095597405682
 21
151.9714121330614
 31
0.0
  0
LINE
  5
339
330
2
100
AcDbEntity
  8
0
  6
Continuous
 62
     7
100
AcDbLine
 10
269.2814318888659
 20
159.9349575465886
 30
0.0
 11
275.0766395620791
 21
162.6800559181108
 31
0.0
  0
LINE
  5
33A
330
2
100
AcDbEntity
  8
0
  6
Continuous
 62
     7
100
AcDbLine
 10
269.2814318888659
 20
159.3312420431365
 30
0.0
 11
275.3102037048174
 21
162.1869760612189
 31
0.0
  0
LINE
  5
33B
330
2
100
AcDbEntity
  8
0
  6
Continuous
 62
     7
100
AcDbLine
 10
269.2814318888659
 20
156.8034752007156
 30
0.0
 11
275.562774386852
 21
154.7096943680534
 31
0.0
  0
LINE
  5
33C
330
2
100
AcDbEntity
  8
0
  6
Continuous
 62
     7
100
AcDbLine
 10
269.2814318888659
 20
157.4071907041677
 30
0.0
 11
275.7438890378876
 21
155.2530383211603
 31
0.0
  0
ARC
  5
33D
330
2
100
AcDbEntity
  8
0
  6
Continuous
 62
     7
100
AcDbCircle
 10
248.5319602550724
 20
159.8527239778587
 30
0.0
 40
1.962859496234804
100
AcDbArc
 50
129.5755554394879
 51
229.2384709011662
  0
ARC
  5
33E
330
2
100
AcDbEntity
  8
0
  6
Continuous
 62
     7
100
AcDbCircle
 10
246.277625448038
 20
156.8448622040283
 30
0.0
 40
1.805036894022182
100
AcDbArc
 50
304.9849117315438
 51
57.38974757327204
  0
ARC
  5
33F
330
2
100
AcDbEntity
  8
0
  6
Continuous
 62
     7
100
AcDbCircle
 10
244.7838032300257
 20
156.8448622040283
 30
0.0
 40
1.805036894022182
100
AcDbArc
 50
304.9849117315438
 51
57.38974757327204
  0
ARC
  5
340
330
2
100
AcDbEntity
  8
0
  6
Continuous
 62
     7
100
AcDbCircle
 10
247.03813803706
 20
159.8527239778587
 30
0.0
 40
1.962859496234804
100
AcDbArc
 50
129.5755554394879
 51
229.2384709011662
  0
LINE
  5
341
330
2
100
AcDbEntity
  8
0
  6
Continuous
 62
     7
100
AcDbLine
 10
245.7876096708536
 20
161.3656668740953
 30
0.0
 11
237.989089691308
 21
161.3656668740953
 31
0.0
  0
LINE
  5
342
330
2
100
AcDbEntity
  8
0
  6
Continuous
 62
     7
100
AcDbLine
 10
237.989089691308
 20
155.3656543432409
 30
0.0
 11
245.8187404489065
 21
155.3659899506688
 31
0.0
  0
ARC
  5
343
330
2
100
AcDbEntity
  8
0
  6
Continuous
 62
     7
100
AcDbCircle
 10
297.9512291090487
 20
97.23589930846165
 30
0.0
 40
2.0
100
AcDbArc
 50
270.0
 51
0.0
  0
ARC
  5
344
330
2
100
AcDbEntity
  8
0
  6
Continuous
 62
     7
100
AcDbCircle
 10
272.9512291090487
 20
97.23589930846168
 30
0.0
 40
2.0
100
AcDbArc
 50
180.0
 51
270.0
  0
ARC
  5
345
330
2
100
AcDbEntity
  8
0
  6
Continuous
 62
     7
100
AcDbCircle
 10
272.9512291090488
 20
122.4074721837155
 30
0.0
 40
2.0
100
AcDbArc
 50
135.0
 51
180.0
  0
ARC
  5
346
330
2
100
AcDbEntity
  8
0
  6
Continuous
 62
     7
100
AcDbCircle
 10
297.9512291090488
 20
122.4074721837155
 30
0.0
 40
2.0
100
AcDbArc
 50
0.0
 51
44.99999999999971
  0
ARC
  5
347
330
2
100
AcDbEntity
  8
0
  6
Continuous
 62
     7
100
AcDbCircle
 10
295.1228019843026
 20
125.2358993084617
 30
0.0
 40
2.0
100
AcDbArc
 50
45.0
 51
90.0
  0
ARC
  5
348
330
2
100
AcDbEntity
  8
0
  6
Continuous
 62
     7
100
AcDbCircle
 10
275.779656233795
 20
125.2358993084617
 30
0.0
 40
2.0
100
AcDbArc
 50
90.0
 51
135.0
  0
LINE
  5
349
330
2
100
AcDbEntity
  8
0
  6
Continuous
 62
     7
100
AcDbLine
 10
296.5370155466757
 20
126.6501128708348
 30
0.0
 11
299.3654426714219
 21
123.8216857460885
 31
0.0
  0
LINE
  5
34A
330
2
100
AcDbEntity
  8
0
  6
Continuous
 62
     7
100
AcDbLine
 10
274.3654426714219
 20
126.6501128708348
 30
0.0
 11
271.5370155466757
 21
123.8216857460886
 31
0.0
  0
LINE
  5
34B
330
2
100
AcDbEntity
  8
0
  6
Continuous
 62
     7
100
AcDbLine
 10
299.9512291090487
 20
97.23589930846165
 30
0.0
 11
299.9512291090488
 21
122.4074721837155
 31
0.0
  0
LINE
  5
34C
330
2
100
AcDbEntity
  8
0
  6
Continuous
 62
     7
100
AcDbLine
 10
272.9512291090487
 20
95.23589930846169
 30
0.0
 11
297.9512291090487
 21
95.23589930846169
 31
0.0
  0
LINE
  5
34D
330
2
100
AcDbEntity
  8
0
  6
Continuous
 62
     7
100
AcDbLine
 10
270.9512291090488
 20
122.4074721837155
 30
0.0
 11
270.9512291090487
 21
97.23589930846168
 31
0.0
  0
LINE
  5
34E
330
2
100
AcDbEntity
  8
0
  6
Continuous
 62
     7
100
AcDbLine
 10
275.779656233795
 20
127.2358993084617
 30
0.0
 11
295.1228019843026
 21
127.2358993084617
 31
0.0
  0
CIRCLE
  5
34F
330
2
100
AcDbEntity
  8
0
  6
Continuous
 62
     7
100
AcDbCircle
 10
285.4506021009083
 20
88.73607286304485
 30
0.0
 40
2.00017365285944
  0
ARC
  5
350
330
2
100
AcDbEntity
  8
0
  6
Continuous
 62
     7
100
AcDbCircle
 10
297.5505963315454
 20
128.8360537422415
 30
0.0
 40
0.7071064437005779
100
AcDbArc
 50
351.8698976122244
 51
98.13010238777556
  0
ARC
  5
351
330
2
100
AcDbEntity
  8
0
  6
Continuous
 62
     7
100
AcDbCircle
 10
299.3506196958327
 20
128.8360537422415
 30
0.0
 40
0.7071064437005779
100
AcDbArc
 50
81.86989761222445
 51
188.130102387775
  0
ARC
  5
352
330
2
100
AcDbEntity
  8
0
  6
Continuous
 62
     7
100
AcDbCircle
 10
299.3506196958327
 20
130.6360771065288
 30
0.0
 40
0.7071064437005779
100
AcDbArc
 50
171.8698976122244
 51
278.1301023877751
  0
ARC
  5
353
330
2
100
AcDbEntity
  8
0
  6
Continuous
 62
     7
100
AcDbCircle
 10
297.5505970884499
 20
130.6360748357236
 30
0.0
 40
0.7071043027614181
100
AcDbArc
 50
261.8698108760033
 51
8.129321682993326
  0
LINE
  5
354
330
2
100
AcDbEntity
  8
0
  6
Continuous
 62
     7
100
AcDbLine
 10
295.4505973325368
 20
132.5360640892411
 30
0.0
 11
295.4505973325368
 21
129.7360654243852
 31
0.0
  0
CIRCLE
  5
355
330
2
100
AcDbEntity
  8
0
  6
Continuous
 62
     7
100
AcDbCircle
 10
298.4506080136891
 20
129.7360654243852
 30
0.0
 40
2.250008010864255
  0
ARC
  5
356
330
2
100
AcDbEntity
  8
0
  6
Continuous
 62
     7
100
AcDbCircle
 10
299.9499692224798
 20
131.2360564397255
 30
0.0
 40
1.499995442517
100
AcDbArc
 50
0.0000845524787612
 51
90.00037807922096
  0
ARC
  5
357
330
2
100
AcDbEntity
  8
0
  6
Continuous
 62
     7
100
AcDbCircle
 10
299.7506112360077
 20
131.0360686467038
 30
0.0
 40
1.49999544256997
100
AcDbArc
 50
359.9996219216164
 51
90.00037807838355
  0
LINE
  5
358
330
2
100
AcDbEntity
  8
0
  6
Continuous
 62
     7
100
AcDbLine
 10
301.2506066785451
 20
126.7360547432328
 30
0.0
 11
298.4506322370167
 21
126.7360547432328
 31
0.0
  0
ARC
  5
359
330
2
100
AcDbEntity
  8
0
  6
Continuous
 62
     7
100
AcDbCircle
 10
298.4505882176114
 20
129.7360456283074
 30
0.0
 40
2.99999088513994
100
AcDbArc
 50
179.999621921616
 51
270.0003780783835
  0
LINE
  5
35A
330
2
100
AcDbEntity
  8
0
  6
Continuous
 62
     7
100
AcDbLine
 10
301.2508973584766
 20
77.93602956623089
 30
0.0
 11
301.2508973584766
 21
77.93602956623089
 31
0.0
  0
LINE
  5
35B
330
2
100
AcDbEntity
  8
0
  6
Continuous
 62
     7
100
AcDbLine
 10
301.4502553449269
 20
77.73623555988322
 30
0.0
 11
301.4502553449269
 21
77.73623555988322
 31
0.0
  0
LINE
  5
35C
330
2
100
AcDbEntity
  8
0
  6
Continuous
 62
     7
100
AcDbLine
 10
301.2506066785451
 20
77.93607801288615
 30
0.0
 11
301.2506066785451
 21
77.93607801288615
 31
0.0
  0
ARC
  5
35D
330
2
100
AcDbEntity
  8
0
  6
Continuous
 62
     7
100
AcDbCircle
 10
297.5505963315454
 20
81.63608835988574
 30
0.0
 40
0.7071064437005779
100
AcDbArc
 50
261.8698976122244
 51
8.130102387775561
  0
ARC
  5
35E
330
2
100
AcDbEntity
  8
0
  6
Continuous
 62
     7
100
AcDbCircle
 10
299.3506196958327
 20
81.63608835988574
 30
0.0
 40
0.7071064437005779
100
AcDbArc
 50
171.8698976122244
 51
278.1301023877751
  0
ARC
  5
35F
330
2
100
AcDbEntity
  8
0
  6
Continuous
 62
     7
100
AcDbCircle
 10
299.3506196958327
 20
79.83606499559845
 30
0.0
 40
0.7071064437005779
100
AcDbArc
 50
81.86989761222445
 51
188.130102387775
  0
ARC
  5
360
330
2
100
AcDbEntity
  8
0
  6
Continuous
 62
     7
100
AcDbCircle
 10
297.5505963315454
 20
79.83606499559845
 30
0.0
 40
0.7071064437005779
100
AcDbArc
 50
351.8698976122244
 51
98.13010238777556
  0
LINE
  5
361
330
2
100
AcDbEntity
  8
0
  6
Continuous
 62
     7
100
AcDbLine
 10
295.4505973325368
 20
77.93607801288615
 30
0.0
 11
295.4505973325368
 21
80.7360766777421
 31
0.0
  0
ARC
  5
362
330
2
100
AcDbEntity
  8
0
  6
Continuous
 62
     7
100
AcDbCircle
 10
298.4506088933279
 20
80.73607579810328
 30
0.0
 40
3.000011560791295
100
AcDbArc
 50
90.00001679979931
 51
179.9999832002006
  0
CIRCLE
  5
363
330
2
100
AcDbEntity
  8
0
  6
Continuous
 62
     7
100
AcDbCircle
 10
298.4506080136891
 20
80.7360766777421
 30
0.0
 40
2.250008010864255
  0
LINE
  5
364
330
2
100
AcDbEntity
  8
0
  6
Continuous
 62
     7
100
AcDbLine
 10
301.2506066785451
 20
83.73607524723064
 30
0.0
 11
298.4506322370167
 21
83.73607524723064
 31
0.0
  0
LINE
  5
365
330
2
100
AcDbEntity
  8
0
  6
Continuous
 62
     7
100
AcDbLine
 10
301.4499646649952
 20
131.2360586532975
 30
0.0
 11
301.4499646649952
 21
79.23605188220982
 31
0.0
  0
ARC
  5
366
330
2
100
AcDbEntity
  8
0
  6
Continuous
 62
     7
100
AcDbCircle
 10
299.9499646649953
 20
79.23605188220982
 30
0.0
 40
1.5
100
AcDbArc
 50
270.0
 51
0.0
  0
LINE
  5
367
330
2
100
AcDbEntity
  8
0
  6
Continuous
 62
     7
100
AcDbLine
 10
301.2506066785451
 20
131.0360587486649
 30
0.0
 11
301.2506066785451
 21
79.43608335346231
 31
0.0
  0
ARC
  5
368
330
2
100
AcDbEntity
  8
0
  6
Continuous
 62
     7
100
AcDbCircle
 10
273.3506078702713
 20
128.8360537422415
 30
0.0
 40
0.7071064437005779
100
AcDbArc
 50
81.86989761222445
 51
188.130102387775
  0
ARC
  5
369
330
2
100
AcDbEntity
  8
0
  6
Continuous
 62
     7
100
AcDbCircle
 10
271.5505845059839
 20
128.8360537422415
 30
0.0
 40
0.7071064437005779
100
AcDbArc
 50
351.8698976122244
 51
98.13010238777556
  0
ARC
  5
36A
330
2
100
AcDbEntity
  8
0
  6
Continuous
 62
     7
100
AcDbCircle
 10
271.5505845059839
 20
130.6360771065288
 30
0.0
 40
0.7071064437005779
100
AcDbArc
 50
261.8698976122244
 51
8.130102387775561
  0
ARC
  5
36B
330
2
100
AcDbEntity
  8
0
  6
Continuous
 62
     7
100
AcDbCircle
 10
273.3506071133667
 20
130.6360748357236
 30
0.0
 40
0.7071043027614181
100
AcDbArc
 50
171.8706783170067
 51
278.1301891239967
  0
LINE
  5
36C
330
2
100
AcDbEntity
  8
0
  6
Continuous
 62
     7
100
AcDbLine
 10
275.4506068692799
 20
132.5360640892411
 30
0.0
 11
275.4506068692799
 21
129.7360654243852
 31
0.0
  0
ARC
  5
36D
330
2
100
AcDbEntity
  8
0
  6
Continuous
 62
     7
100
AcDbCircle
 10
272.4506159842054
 20
129.7360456283074
 30
0.0
 40
2.99999088513994
100
AcDbArc
 50
269.9996219216164
 51
0.000378078383952
  0
ARC
  5
36E
330
2
100
AcDbEntity
  8
0
  6
Continuous
 62
     7
100
AcDbCircle
 10
270.9499753662997
 20
131.2360564397255
 30
0.0
 40
1.499995442517
100
AcDbArc
 50
89.99962192077903
 51
179.9999154475212
  0
CIRCLE
  5
36F
330
2
100
AcDbEntity
  8
0
  6
Continuous
 62
     7
100
AcDbCircle
 10
272.4505961881276
 20
129.7360654243852
 30
0.0
 40
2.250008010864255
  0
ARC
  5
370
330
2
100
AcDbEntity
  8
0
  6
Continuous
 62
     7
100
AcDbCircle
 10
271.1505929658089
 20
131.0360686467038
 30
0.0
 40
1.49999544256997
100
AcDbArc
 50
89.99962192161644
 51
180.0003780783834
  0
LINE
  5
371
330
2
100
AcDbEntity
  8
0
  6
Continuous
 62
     7
100
AcDbLine
 10
269.6505975232716
 20
126.7360547432328
 30
0.0
 11
272.4505719647999
 21
126.7360547432328
 31
0.0
  0
LINE
  5
372
330
2
100
AcDbEntity
  8
0
  6
Continuous
 62
     7
100
AcDbLine
 10
275.4506068692799
 20
77.93607801288615
 30
0.0
 11
275.4506068692799
 21
80.7360766777421
 31
0.0
  0
ARC
  5
373
330
2
100
AcDbEntity
  8
0
  6
Continuous
 62
     7
100
AcDbCircle
 10
273.3506078702713
 20
81.63608835988574
 30
0.0
 40
0.7071064437005779
100
AcDbArc
 50
171.8698976122244
 51
278.1301023877751
  0
ARC
  5
374
330
2
100
AcDbEntity
  8
0
  6
Continuous
 62
     7
100
AcDbCircle
 10
271.5505845059839
 20
81.63608835988574
 30
0.0
 40
0.7071064437005779
100
AcDbArc
 50
261.8698976122244
 51
8.130102387775561
  0
ARC
  5
375
330
2
100
AcDbEntity
  8
0
  6
Continuous
 62
     7
100
AcDbCircle
 10
271.5505845059839
 20
79.83606499559845
 30
0.0
 40
0.7071064437005779
100
AcDbArc
 50
351.8698976122244
 51
98.13010238777556
  0
ARC
  5
376
330
2
100
AcDbEntity
  8
0
  6
Continuous
 62
     7
100
AcDbCircle
 10
273.3506078702713
 20
79.83606499559845
 30
0.0
 40
0.7071064437005779
100
AcDbArc
 50
81.86989761222445
 51
188.130102387775
  0
ARC
  5
377
330
2
100
AcDbEntity
  8
0
  6
Continuous
 62
     7
100
AcDbCircle
 10
272.4505953084888
 20
80.73607579810328
 30
0.0
 40
3.000011560791295
100
AcDbArc
 50
0.0000167997993403
 51
89.99998320020067
  0
CIRCLE
  5
378
330
2
100
AcDbEntity
  8
0
  6
Continuous
 62
     7
100
AcDbCircle
 10
285.4506021009083
 20
88.73607286304485
 30
0.0
 40
5.999997138977048
  0
CIRCLE
  5
379
330
2
100
AcDbEntity
  8
0
  6
Continuous
 62
     7
100
AcDbCircle
 10
272.4505961881276
 20
80.7360766777421
 30
0.0
 40
2.250008010864255
  0
LINE
  5
37A
330
2
100
AcDbEntity
  8
0
  6
Continuous
 62
     7
100
AcDbLine
 10
269.6505975232716
 20
83.73607524723064
 30
0.0
 11
272.4505719647999
 21
83.73607524723064
 31
0.0
  0
LINE
  5
37B
330
2
100
AcDbEntity
  8
0
  6
Continuous
 62
     7
100
AcDbLine
 10
269.4499799237842
 20
79.23605188220982
 30
0.0
 11
269.4499799237842
 21
131.2360586532975
 31
0.0
  0
LINE
  5
37C
330
2
100
AcDbEntity
  8
0
  6
Continuous
 62
     7
100
AcDbLine
 10
269.6505975232716
 20
79.43608335346231
 30
0.0
 11
269.6505975232716
 21
131.0360587486649
 31
0.0
  0
LINE
  5
37D
330
2
100
AcDbEntity
  8
0
  6
Continuous
 62
     7
100
AcDbLine
 10
271.1508935437795
 20
77.93602956623089
 30
0.0
 11
299.7508920179005
 21
77.93602956623089
 31
0.0
  0
LINE
  5
37E
330
2
100
AcDbEntity
  8
0
  6
Continuous
 62
     7
100
AcDbLine
 10
299.7506013379689
 20
77.93607801288615
 30
0.0
 11
271.1506028638478
 21
77.93607801288615
 31
0.0
  0
LINE
  5
37F
330
2
100
AcDbEntity
  8
0
  6
Continuous
 62
     7
100
AcDbLine
 10
299.9499593244191
 20
132.7360518822098
 30
0.0
 11
270.9499852643605
 21
132.7360518822098
 31
0.0
  0
LINE
  5
380
330
2
100
AcDbEntity
  8
0
  6
Continuous
 62
     7
100
AcDbLine
 10
299.7506013379689
 20
132.5360640892411
 30
0.0
 11
271.1506028638478
 21
132.5360640892411
 31
0.0
  0
LINE
  5
381
330
2
100
AcDbEntity
  8
0
  6
Continuous
 62
     7
100
AcDbLine
 10
274.4509101377125
 20
76.73603013843545
 30
0.0
 11
296.4508754239674
 21
76.73603013843545
 31
0.0
  0
LINE
  5
382
330
2
100
AcDbEntity
  8
0
  6
Continuous
 62
     7
100
AcDbLine
 10
273.4508985028859
 20
77.73602966159831
 30
0.0
 11
274.4509101377125
 21
76.73603013843545
 31
0.0
  0
ARC
  5
383
330
2
100
AcDbEntity
  8
0
  6
Continuous
 62
     7
100
AcDbCircle
 10
271.1505929658089
 20
79.43607345542345
 30
0.0
 40
1.49999544256997
100
AcDbArc
 50
179.9996219216164
 51
270.0003780783835
  0
LINE
  5
384
330
2
100
AcDbEntity
  8
0
  6
Continuous
 62
     7
100
AcDbLine
 10
297.4508870587941
 20
77.73602966159831
 30
0.0
 11
296.4508754239674
 21
76.73603013843545
 31
0.0
  0
ARC
  5
385
330
2
100
AcDbEntity
  8
0
  6
Continuous
 62
     7
100
AcDbCircle
 10
299.7506112360077
 20
79.43607345542345
 30
0.0
 40
1.49999544256997
100
AcDbArc
 50
269.9996219216164
 51
0.0003780783835449
  0
LINE
  5
386
330
2
100
AcDbEntity
  8
0
  6
Continuous
 62
     7
100
AcDbLine
 10
294.4903516558083
 20
124.8656668740952
 30
0.0
 11
294.4903516558083
 21
97.86566687409528
 31
0.0
  0
LINE
  5
387
330
2
100
AcDbEntity
  8
0
  6
Continuous
 62
     7
100
AcDbLine
 10
292.4903516558083
 20
126.8656668740952
 30
0.0
 11
278.4903516558084
 21
126.8656668740952
 31
0.0
  0
LINE
  5
388
330
2
100
AcDbEntity
  8
0
  6
Continuous
 62
     7
100
AcDbLine
 10
276.4903516558084
 20
124.8656668740952
 30
0.0
 11
276.4903516558084
 21
97.86566687409528
 31
0.0
  0
LINE
  5
389
330
2
100
AcDbEntity
  8
0
  6
Continuous
 62
     7
100
AcDbLine
 10
278.4903516558084
 20
95.86566687409527
 30
0.0
 11
292.4903516558083
 21
95.86566687409527
 31
0.0
  0
ARC
  5
38A
330
2
100
AcDbEntity
  8
0
  6
Continuous
 62
     7
100
AcDbCircle
 10
278.4903516558084
 20
124.8656668740952
 30
0.0
 40
2.0
100
AcDbArc
 50
90.0
 51
180.0
  0
ARC
  5
38B
330
2
100
AcDbEntity
  8
0
  6
Continuous
 62
     7
100
AcDbCircle
 10
292.4903516558083
 20
124.8656668740952
 30
0.0
 40
2.0
100
AcDbArc
 50
0.0
 51
90.0
  0
ARC
  5
38C
330
2
100
AcDbEntity
  8
0
  6
Continuous
 62
     7
100
AcDbCircle
 10
292.4903516558083
 20
97.86566687409528
 30
0.0
 40
2.0
100
AcDbArc
 50
270.0
 51
0.0
  0
ARC
  5
38D
330
2
100
AcDbEntity
  8
0
  6
Continuous
 62
     7
100
AcDbCircle
 10
278.4903516558084
 20
97.86566687409528
 30
0.0
 40
2.0
100
AcDbArc
 50
180.0
 51
270.0
  0
LINE
  5
38E
330
2
100
AcDbEntity
  8
0
  6
CENTER
 62
     4
 48
2.0
100
AcDbLine
 10
126.9903516558083
 20
167.365836137144
 30
0.0
 11
146.4903516558083
 21
167.365836137144
 31
0.0
  0
LWPOLYLINE
  5
38F
330
2
100
AcDbEntity
  8
0
  6
Continuous
 62
     7
100
AcDbPolyline
 90
        4
 70
     1
 43
0.0
 10
295.9903516558084
 20
180.3656668740952
 10
321.9903516558084
 20
180.3656668740952
 10
321.9903516558084
 20
171.3656668740951
 10
295.9903516558084
 20
171.3656668740951
  0
CIRCLE
  5
390
330
2
100
AcDbEntity
  8
0
  6
Continuous
 62
     7
100
AcDbCircle
 10
297.4512291090487
 20
122.9858993084617
 30
0.0
 40
0.7727200654476747
  0
CIRCLE
  5
391
330
2
100
AcDbEntity
  8
0
  6
Continuous
 62
     7
100
AcDbCircle
 10
273.4512291090488
 20
122.9858993084617
 30
0.0
 40
0.7727200654476747
  0
CIRCLE
  5
392
330
2
100
AcDbEntity
  8
0
  6
Continuous
 62
     7
100
AcDbCircle
 10
273.4512291090488
 20
97.73589930846169
 30
0.0
 40
0.8702324343664145
  0
CIRCLE
  5
393
330
2
100
AcDbEntity
  8
0
  6
Continuous
 62
     7
100
AcDbCircle
 10
297.4512291090487
 20
97.73589930846169
 30
0.0
 40
0.8702324343664145
  0
LINE
  5
394
330
2
100
AcDbEntity
  8
0
  6
Continuous
 62
     7
100
AcDbLine
 10
292.9903516558084
 20
123.3656668740952
 30
0.0
 11
292.9903516558084
 21
107.3656668740953
 31
0.0
  0
LINE
  5
395
330
2
100
AcDbEntity
  8
0
  6
Continuous
 62
     7
100
AcDbLine
 10
290.9903516558084
 20
105.3656668740952
 30
0.0
 11
279.9903516558083
 21
105.3656668740952
 31
0.0
  0
LINE
  5
396
330
2
100
AcDbEntity
  8
0
  6
Continuous
 62
     7
100
AcDbLine
 10
277.9903516558083
 20
107.3656668740953
 30
0.0
 11
277.9903516558083
 21
123.3656668740952
 31
0.0
  0
ARC
  5
397
330
2
100
AcDbEntity
  8
0
  6
Continuous
 62
     7
100
AcDbCircle
 10
290.9903516558084
 20
107.3656668740953
 30
0.0
 40
2.0
100
AcDbArc
 50
270.0
 51
0.0
  0
ARC
  5
398
330
2
100
AcDbEntity
  8
0
  6
Continuous
 62
     7
100
AcDbCircle
 10
279.9903516558083
 20
107.3656668740953
 30
0.0
 40
2.0
100
AcDbArc
 50
180.0
 51
270.0
  0
LINE
  5
399
330
2
100
AcDbEntity
  8
0
  6
Continuous
 62
     7
100
AcDbLine
 10
292.9903516558084
 20
123.8656668740953
 30
0.0
 11
289.9903516558083
 21
123.8656668740953
 31
0.0
  0
LINE
  5
39A
330
2
100
AcDbEntity
  8
0
  6
Continuous
 62
     7
100
AcDbLine
 10
289.9903516558083
 20
123.8656668740953
 30
0.0
 11
289.9903516558083
 21
121.3656668740952
 31
0.0
  0
LINE
  5
39B
330
2
100
AcDbEntity
  8
0
  6
Continuous
 62
     7
100
AcDbLine
 10
292.9903516558084
 20
121.3656668740952
 30
0.0
 11
292.9903516558084
 21
123.8656668740953
 31
0.0
  0
LINE
  5
39C
330
2
100
AcDbEntity
  8
0
  6
Continuous
 62
     7
100
AcDbLine
 10
292.9903516558084
 20
121.3656668740952
 30
0.0
 11
286.9903516558084
 21
121.3656668740952
 31
0.0
  0
LINE
  5
39D
330
2
100
AcDbEntity
  8
0
  6
Continuous
 62
     7
100
AcDbLine
 10
286.9903516558084
 20
121.3656668740952
 30
0.0
 11
286.9903516558084
 21
115.8656668740952
 31
0.0
  0
LINE
  5
39E
330
2
100
AcDbEntity
  8
0
  6
Continuous
 62
     7
100
AcDbLine
 10
292.9903516558084
 20
115.8656668740952
 30
0.0
 11
292.9903516558084
 21
121.3656668740952
 31
0.0
  0
LINE
  5
39F
330
2
100
AcDbEntity
  8
0
  6
Continuous
 62
     7
100
AcDbLine
 10
277.9903516558083
 20
119.8656668740953
 30
0.0
 11
283.4903516558084
 21
119.8656668740953
 31
0.0
  0
LINE
  5
3A0
330
2
100
AcDbEntity
  8
0
  6
Continuous
 62
     7
100
AcDbLine
 10
283.4903516558084
 20
119.8656668740953
 30
0.0
 11
283.4903516558084
 21
114.3656668740952
 31
0.0
  0
LINE
  5
3A1
330
2
100
AcDbEntity
  8
0
  6
Continuous
 62
     7
100
AcDbLine
 10
283.4903516558084
 20
114.3656668740952
 30
0.0
 11
277.9903516558083
 21
114.3656668740952
 31
0.0
  0
LWPOLYLINE
  5
3A2
330
2
100
AcDbEntity
  8
0
  6
Continuous
 62
     7
100
AcDbPolyline
 90
        4
 70
     1
 43
0.0
 10
292.9903516558084
 20
115.8656668740952
 10
286.9903516558084
 20
115.8656668740952
 10
286.9903516558084
 20
110.3656668740953
 10
292.9903516558084
 20
110.3656668740953
  0
CIRCLE
  5
3A3
330
2
100
AcDbEntity
  8
0
  6
Continuous
 62
     7
100
AcDbCircle
 10
291.397396770157
 20
122.6434907547852
 30
0.0
 40
1.0
  0
CIRCLE
  5
3A4
330
2
100
AcDbEntity
  8
0
  6
Continuous
 62
     7
100
AcDbCircle
 10
289.9903516558083
 20
118.6554279721176
 30
0.0
 40
2.0
  0
CIRCLE
  5
3A5
330
2
100
AcDbEntity
  8
0
  6
Continuous
 62
     7
100
AcDbCircle
 10
289.9903516558083
 20
113.033544138456
 30
0.0
 40
2.0
  0
LWPOLYLINE
  5
3A6
330
2
100
AcDbEntity
  8
0
  6
Continuous
 62
     7
100
AcDbPolyline
 90
        4
 70
     1
 43
0.0
 10
290.898333618341
 20
122.2985863103109
 10
291.7346321270721
 20
123.134884819042
 10
291.8754691487986
 20
122.9940477973155
 10
291.0391706400675
 20
122.1577492885844
  0
LINE
  5
3A7
330
2
100
AcDbEntity
  8
0
  6
Continuous
 62
     7
100
AcDbLine
 10
290.7178516558084
 20
119.5806668740952
 30
0.0
 11
290.7178516558084
 21
119.1756668740952
 31
0.0
  0
LINE
  5
3A8
330
2
100
AcDbEntity
  8
0
  6
Continuous
 62
     7
100
AcDbLine
 10
291.7303516558084
 20
118.7706668740952
 30
0.0
 11
290.7178516558084
 21
119.5806668740952
 31
0.0
  0
LINE
  5
3A9
330
2
100
AcDbEntity
  8
0
  6
Continuous
 62
     7
100
AcDbLine
 10
290.7178516558084
 20
117.9606668740952
 30
0.0
 11
291.7303516558084
 21
118.7706668740952
 31
0.0
  0
LINE
  5
3AA
330
2
100
AcDbEntity
  8
0
  6
Continuous
 62
     7
100
AcDbLine
 10
290.7178516558084
 20
118.3656668740952
 30
0.0
 11
290.7178516558084
 21
117.9606668740952
 31
0.0
  0
LINE
  5
3AB
330
2
100
AcDbEntity
  8
0
  6
Continuous
 62
     7
100
AcDbLine
 10
288.4903516558083
 20
118.3656668740952
 30
0.0
 11
290.7178516558084
 21
118.3656668740952
 31
0.0
  0
LINE
  5
3AC
330
2
100
AcDbEntity
  8
0
  6
Continuous
 62
     7
100
AcDbLine
 10
288.4903516558083
 20
119.1756668740952
 30
0.0
 11
288.4903516558083
 21
118.3656668740952
 31
0.0
  0
LINE
  5
3AD
330
2
100
AcDbEntity
  8
0
  6
Continuous
 62
     7
100
AcDbLine
 10
290.7178516558084
 20
119.1756668740952
 30
0.0
 11
288.4903516558083
 21
119.1756668740952
 31
0.0
  0
LINE
  5
3AE
330
2
100
AcDbEntity
  8
0
  6
Continuous
 62
     7
100
AcDbLine
 10
290.7178516558084
 20
113.3604208434626
 30
0.0
 11
288.4903516558083
 21
113.3604208434626
 31
0.0
  0
LINE
  5
3AF
330
2
100
AcDbEntity
  8
0
  6
Continuous
 62
     7
100
AcDbLine
 10
288.4903516558083
 20
112.5504208434626
 30
0.0
 11
290.7178516558084
 21
112.5504208434626
 31
0.0
  0
LINE
  5
3B0
330
2
100
AcDbEntity
  8
0
  6
Continuous
 62
     7
100
AcDbLine
 10
290.7178516558084
 20
112.5504208434626
 30
0.0
 11
290.7178516558084
 21
112.1454208434625
 31
0.0
  0
LINE
  5
3B1
330
2
100
AcDbEntity
  8
0
  6
Continuous
 62
     7
100
AcDbLine
 10
290.7178516558084
 20
112.1454208434625
 30
0.0
 11
291.7303516558084
 21
112.9554208434625
 31
0.0
  0
LINE
  5
3B2
330
2
100
AcDbEntity
  8
0
  6
Continuous
 62
     7
100
AcDbLine
 10
291.7303516558084
 20
112.9554208434625
 30
0.0
 11
290.7178516558084
 21
113.7654208434625
 31
0.0
  0
LINE
  5
3B3
330
2
100
AcDbEntity
  8
0
  6
Continuous
 62
     7
100
AcDbLine
 10
290.7178516558084
 20
113.7654208434625
 30
0.0
 11
290.7178516558084
 21
113.3604208434626
 31
0.0
  0
LINE
  5
3B4
330
2
100
AcDbEntity
  8
0
  6
Continuous
 62
     7
100
AcDbLine
 10
288.4903516558083
 20
113.3604208434626
 30
0.0
 11
288.4903516558083
 21
112.5504208434626
 31
0.0
  0
LINE
  5
3B5
330
2
100
AcDbEntity
  8
0
  6
Continuous
 62
     7
100
AcDbLine
 10
279.9903516558083
 20
125.3656668740952
 30
0.0
 11
290.9903516558084
 21
125.3656668740952
 31
0.0
  0
ARC
  5
3B6
330
2
100
AcDbEntity
  8
0
  6
Continuous
 62
     7
100
AcDbCircle
 10
279.9903516558083
 20
123.3656668740952
 30
0.0
 40
2.0
100
AcDbArc
 50
90.0
 51
180.0
  0
ARC
  5
3B7
330
2
100
AcDbEntity
  8
0
  6
Continuous
 62
     7
100
AcDbCircle
 10
290.9903516558084
 20
123.3656668740952
 30
0.0
 40
2.0
100
AcDbArc
 50
0.0
 51
90.0
  0
ARC
  5
3B8
330
2
100
AcDbEntity
  8
0
  6
Continuous
 62
     7
100
AcDbCircle
 10
291.1441063120275
 20
123.4338733602664
 30
0.0
 40
2.04244442402
100
AcDbArc
 50
0.0
 51
90.0
  0
LINE
  5
3B9
330
2
100
AcDbEntity
  8
0
  6
Continuous
 62
     7
100
AcDbLine
 10
293.1865507360475
 20
123.4338733602664
 30
0.0
 11
293.1865507360475
 21
98.92454027202646
 31
0.0
  0
ARC
  5
3BA
330
2
100
AcDbEntity
  8
0
  6
Continuous
 62
     7
100
AcDbCircle
 10
291.1441063120275
 20
98.92454027202646
 30
0.0
 40
2.04244442402
100
AcDbArc
 50
270.0
 51
0.0
  0
ARC
  5
3BB
330
2
100
AcDbEntity
  8
0
  6
Continuous
 62
     7
100
AcDbCircle
 10
279.9106619799175
 20
98.92454027202646
 30
0.0
 40
2.04244442402
100
AcDbArc
 50
180.0
 51
270.0
  0
LINE
  5
3BC
330
2
100
AcDbEntity
  8
0
  6
Continuous
 62
     7
100
AcDbLine
 10
291.1441063120275
 20
96.88209584800645
 30
0.0
 11
279.9106619799175
 21
96.88209584800645
 31
0.0
  0
LINE
  5
3BD
330
2
100
AcDbEntity
  8
0
  6
Continuous
 62
     7
100
AcDbLine
 10
277.8682175558974
 20
123.4338733602664
 30
0.0
 11
277.8682175558974
 21
98.92454027202646
 31
0.0
  0
ARC
  5
3BE
330
2
100
AcDbEntity
  8
0
  6
Continuous
 62
     7
100
AcDbCircle
 10
279.9106619799175
 20
123.4338733602664
 30
0.0
 40
2.04244442402
100
AcDbArc
 50
90.0
 51
180.0
  0
LINE
  5
3BF
330
2
100
AcDbEntity
  8
0
  6
Continuous
 62
     7
100
AcDbLine
 10
279.9106619799175
 20
125.4763177842864
 30
0.0
 11
291.1441063120275
 21
125.4763177842864
 31
0.0
  0
LINE
  5
3C0
330
2
100
AcDbEntity
  8
0
  6
Continuous
 62
     7
100
AcDbLine
 10
175.9897238847285
 20
110.365666670518
 30
0.0
 11
175.9897238847285
 21
104.365666670518
 31
0.0
  0
LINE
  5
3C1
330
2
100
AcDbEntity
  8
0
  6
Continuous
 62
     7
100
AcDbLine
 10
201.9897238847285
 20
110.365666670518
 30
0.0
 11
201.9897238847285
 21
104.365666670518
 31
0.0
  0
LINE
  5
3C2
330
2
100
AcDbEntity
  8
0
  6
Continuous
 62
     7
100
AcDbLine
 10
188.9897238847284
 20
111.865666670518
 30
0.0
 11
188.9897238847284
 21
102.865666670518
 31
0.0
  0
LINE
  5
3C3
330
2
100
AcDbEntity
  8
0
  6
Continuous
 62
     7
100
AcDbLine
 10
220.981856877615
 20
147.3701615029262
 30
0.0
 11
220.981856877615
 21
147.3626041290691
 31
0.0
  0
LINE
  5
3C4
330
2
100
AcDbEntity
  8
0
  6
Continuous
 62
     7
100
AcDbLine
 10
220.9897387620478
 20
202.3657467778606
 30
0.0
 11
220.9897387620478
 21
202.3662834033371
 31
0.0
  0
LINE
  5
3C5
330
2
100
AcDbEntity
  8
0
  6
Continuous
 62
     7
100
AcDbLine
 10
294.4499799237842
 20
147.3658194478434
 30
0.0
 11
323.4499646649953
 21
147.3658194478434
 31
0.0
  0
ARC
  5
3C6
330
2
100
AcDbEntity
  8
0
  6
Continuous
 62
     7
100
AcDbCircle
 10
294.4499799237842
 20
148.8658194478434
 30
0.0
 40
1.5
100
AcDbArc
 50
180.0
 51
270.0
  0
LINE
  5
3C7
330
2
100
AcDbEntity
  8
0
  6
Continuous
 62
     7
100
AcDbLine
 10
270.9499799237843
 20
77.73605188220982
 30
0.0
 11
299.9499646649953
 21
77.73605188220982
 31
0.0
  0
ARC
  5
3C8
330
2
100
AcDbEntity
  8
0
  6
Continuous
 62
     7
100
AcDbCircle
 10
270.9499799237843
 20
79.23605188220982
 30
0.0
 40
1.5
100
AcDbArc
 50
180.0
 51
270.0
  0
ENDSEC
  0
SECTION
  2
OBJECTS
  0
DICTIONARY
  5
B
330
0
100
AcDbDictionary
281
     1
  3
ACAD_COLOR
350
41
  3
ACAD_GROUP
350
3B
  3
ACAD_LAYOUT
350
16
  3
ACAD_MATERIAL
350
D
  3
ACAD_MLEADERSTYLE
350
44
  3
ACAD_MLINESTYLE
350
3C
  3
ACAD_PLOTSETTINGS
350
3D
  3
ACAD_PLOTSTYLENAME
350
A
  3
ACAD_SCALELIST
350
42
  3
ACAD_TABLESTYLE
350
43
  3
ACAD_VISUALSTYLE
350
2E
  3
ACDB_RECOMPOSE_DATA
350
3D5
  3
AcDbVariableDictionary
350
3CA
  0
DICTIONARY
  5
1E
330
1D
100
AcDbDictionary
280
     1
281
     1
  3
ACAD_LAYERFILTERS
360
1F
  3
ACAD_LAYERSTATES
360
20
  3
ACLYDICTIONARY
360
21
  0
DICTIONARY
  5
7
330
6
100
AcDbDictionary
280
     1
281
     1
  3
ADSK_XREC_LAYER_RECONCILED
360
8
  0
DICTIONARY
  5
3
330
2
100
AcDbDictionary
280
     1
281
     1
  3
ACAD_SORTENTS
360
3C9
  0
DICTIONARY
  5
41
102
{ACAD_REACTORS
330
B
102
}
330
B
100
AcDbDictionary
281
     1
  0
DICTIONARY
  5
3B
102
{ACAD_REACTORS
330
B
102
}
330
B
100
AcDbDictionary
281
     1
  0
DICTIONARY
  5
16
102
{ACAD_REACTORS
330
B
102
}
330
B
100
AcDbDictionary
281
     1
  3
Model
350
15
  3
ﾚｲｱｳﾄ1
350
1C
  0
DICTIONARY
  5
D
102
{ACAD_REACTORS
330
B
102
}
330
B
100
AcDbDictionary
281
     1
  3
ByBlock
350
3E
  3
ByLayer
350
11
  3
Global
350
C
  0
DICTIONARY
  5
44
102
{ACAD_REACTORS
330
B
102
}
330
B
100
AcDbDictionary
281
     1
  0
DICTIONARY
  5
3C
102
{ACAD_REACTORS
330
B
102
}
330
B
100
AcDbDictionary
281
     1
  3
STANDARD
350
4B
  0
DICTIONARY
  5
3D
102
{ACAD_REACTORS
330
B
102
}
330
B
100
AcDbDictionary
281
     1
  0
ACDBDICTIONARYWDFLT
  5
A
102
{ACAD_REACTORS
330
B
102
}
330
B
100
AcDbDictionary
281
     1
  3
Normal
350
9
100
AcDbDictionaryWithDefault
340
9
  0
DICTIONARY
  5
42
102
{ACAD_REACTORS
330
B
102
}
330
B
100
AcDbDictionary
281
     1
  3
A0
350
50
  3
A1
350
51
  3
A2
350
52
  3
A3
350
53
  3
A4
350
54
  3
A5
350
55
  3
A6
350
56
  3
A7
350
57
  3
A8
350
58
  3
A9
350
59
  3
B0
350
5A
  3
B1
350
5B
  3
B2
350
5C
  3
B3
350
5D
  3
B4
350
5E
  3
B5
350
5F
  3
B6
350
60
  0
DICTIONARY
  5
43
102
{ACAD_REACTORS
330
B
102
}
330
B
100
AcDbDictionary
281
     1
  3
Standard
350
4C
  0
DICTIONARY
  5
2E
102
{ACAD_REACTORS
330
B
102
}
330
B
100
AcDbDictionary
281
     1
  3
2dWireframe
350
2D
  3
Realistic
350
4E
  3
Wireframe
350
4F
  0
XRECORD
  5
3D5
102
{ACAD_REACTORS
330
B
102
}
330
B
100
AcDbXrecord
280
     1
 90
        1
330
4C
  0
DICTIONARY
  5
3CA
102
{ACAD_REACTORS
330
B
102
}
330
B
100
AcDbDictionary
281
     1
  3
CANNOSCALE
350
3CD
  3
CMLEADERSTYLE
350
3CC
  3
CTABLESTYLE
350
3CB
  3
DIMASSOC
350
3D1
  3
HIDETEXT
350
3D0
  3
INDEXCTL
350
3CF
  3
SOLIDHIST
350
3D2
  3
SORTENTS
350
3CE
  3
XCLIPFRAME
350
3D3
  0
DICTIONARY
  5
1F
102
{ACAD_REACTORS
330
1E
102
}
330
1E
100
AcDbDictionary
281
     1
  0
DICTIONARY
  5
20
102
{ACAD_REACTORS
330
1E
102
}
330
1E
100
AcDbDictionary
281
     1
  0
DICTIONARY
  5
21
102
{ACAD_REACTORS
330
1E
102
}
330
1E
100
AcDbDictionary
281
     1
1001
ACAD
1000
<All
  0
XRECORD
  5
8
102
{ACAD_REACTORS
330
7
102
}
330
7
100
AcDbXrecord
280
     1
290
     1
  0
SORTENTSTABLE
  5
3C9
102
{ACAD_REACTORS
330
3
102
}
330
3
100
AcDbSortentsTable
330
2
  0
LAYOUT
  5
15
102
{ACAD_XDICTIONARY
360
17
102
}
102
{ACAD_REACTORS
330
16
102
}
330
16
100
AcDbPlotSettings
  1

  2
\\DEVSVR02\LP-8700
  4
A3
  6

 40
5.873749732971191
 41
5.873747825622557
 42
5.873748779296875
 43
5.873748779296875
 44
297.0106506347656
 45
419.9466552734373
 46
0.0
 47
0.0
 48
0.0
 49
0.0
140
0.0
141
0.0
142
1.0
143
1.0
 70
 11952
 72
     1
 73
     1
 74
     2
  7
ﾍﾟﾝ設定.ctb
 75
    16
147
1.0
148
0.0
149
0.0
100
AcDbLayout
  1
Model
 70
     1
 71
     0
 10
0.0
 20
0.0
 11
12.0
 21
9.0
 12
0.0
 22
0.0
 32
0.0
 14
0.0
 24
0.0
 34
0.0
 15
0.0
 25
0.0
 35
0.0
146
0.0
 13
0.0
 23
0.0
 33
0.0
 16
1.0
 26
0.0
 36
0.0
 17
0.0
 27
1.0
 37
0.0
 76
     0
330
2
331
2C
  0
LAYOUT
  5
1C
102
{ACAD_XDICTIONARY
360
3D7
102
}
102
{ACAD_REACTORS
330
16
102
}
330
16
100
AcDbPlotSettings
  1

  2
なし
  4

  6

 40
0.0
 41
0.0
 42
0.0
 43
0.0
 44
0.0
 45
0.0
 46
0.0
 47
0.0
 48
0.0
 49
0.0
140
0.0
141
0.0
142
1.0
143
1.0
 70
   688
 72
     0
 73
     0
 74
     5
  7
ﾍﾟﾝ設定.ctb
 75
    16
147
1.0
148
0.0
149
0.0
100
AcDbLayout
  1
ﾚｲｱｳﾄ1
 70
     0
 71
     1
 10
0.0
 20
0.0
 11
12.0
 21
9.0
 12
0.0
 22
0.0
 32
0.0
 14
1.000000000000000E+20
 24
1.000000000000000E+20
 34
1.000000000000000E+20
 15
-1.000000000000000E+20
 25
-1.000000000000000E+20
 35
-1.000000000000000E+20
146
0.0
 13
0.0
 23
0.0
 33
0.0
 16
1.0
 26
0.0
 36
0.0
 17
0.0
 27
1.0
 37
0.0
 76
     0
330
19
  0
MATERIAL
  5
3E
102
{ACAD_XDICTIONARY
360
3F
102
}
102
{ACAD_REACTORS
330
D
102
}
330
D
100
AcDbMaterial
  1
ByBlock
 73
     1
 78
     1
172
     1
176
     1
270
     1
274
     1
  0
MATERIAL
  5
11
102
{ACAD_XDICTIONARY
360
12
102
}
102
{ACAD_REACTORS
330
D
102
}
330
D
100
AcDbMaterial
  1
ByLayer
 73
     1
 78
     1
172
     1
176
     1
270
     1
274
     1
  0
MATERIAL
  5
C
102
{ACAD_XDICTIONARY
360
E
102
}
102
{ACAD_REACTORS
330
D
102
}
330
D
100
AcDbMaterial
  1
Global
 73
     1
 78
     1
172
     1
176
     1
270
     1
274
     1
  0
MLINESTYLE
  5
4B
102
{ACAD_REACTORS
330
3C
102
}
330
3C
100
AcDbMlineStyle
  2
STANDARD
 70
     0
  3

 62
     0
 51
90.0
 52
90.0
 71
     2
 49
0.5
 62
   256
  6
BYLAYER
 49
-0.5
 62
   256
  6
BYLAYER
  0
ACDBPLACEHOLDER
  5
9
102
{ACAD_REACTORS
330
A
102
}
330
A
  0
SCALE
  5
50
102
{ACAD_REACTORS
330
42
102
}
330
42
100
AcDbScale
 70
     0
300
1:1
140
1.0
141
1.0
290
     1
  0
SCALE
  5
51
102
{ACAD_REACTORS
330
42
102
}
330
42
100
AcDbScale
 70
     0
300
1/128" = 1'-0"
140
0.0078125
141
12.0
290
     0
  0
SCALE
  5
52
102
{ACAD_REACTORS
330
42
102
}
330
42
100
AcDbScale
 70
     0
300
1/64" = 1'-0"
140
0.015625
141
12.0
290
     0
  0
SCALE
  5
53
102
{ACAD_REACTORS
330
42
102
}
330
42
100
AcDbScale
 70
     0
300
1/32" = 1'-0"
140
0.03125
141
12.0
290
     0
  0
SCALE
  5
54
102
{ACAD_REACTORS
330
42
102
}
330
42
100
AcDbScale
 70
     0
300
1/16" = 1'-0"
140
0.0625
141
12.0
290
     0
  0
SCALE
  5
55
102
{ACAD_REACTORS
330
42
102
}
330
42
100
AcDbScale
 70
     0
300
3/32" = 1'-0"
140
0.09375
141
12.0
290
     0
  0
SCALE
  5
56
102
{ACAD_REACTORS
330
42
102
}
330
42
100
AcDbScale
 70
     0
300
1/8" = 1'-0"
140
0.125
141
12.0
290
     0
  0
SCALE
  5
57
102
{ACAD_REACTORS
330
42
102
}
330
42
100
AcDbScale
 70
     0
300
3/16" = 1'-0"
140
0.1875
141
12.0
290
     0
  0
SCALE
  5
58
102
{ACAD_REACTORS
330
42
102
}
330
42
100
AcDbScale
 70
     0
300
1/4" = 1'-0"
140
0.25
141
12.0
290
     0
  0
SCALE
  5
59
102
{ACAD_REACTORS
330
42
102
}
330
42
100
AcDbScale
 70
     0
300
3/8" = 1'-0"
140
0.375
141
12.0
290
     0
  0
SCALE
  5
5A
102
{ACAD_REACTORS
330
42
102
}
330
42
100
AcDbScale
 70
     0
300
1/2" = 1'-0"
140
0.5
141
12.0
290
     0
  0
SCALE
  5
5B
102
{ACAD_REACTORS
330
42
102
}
330
42
100
AcDbScale
 70
     0
300
3/4" = 1'-0"
140
0.75
141
12.0
290
     0
  0
SCALE
  5
5C
102
{ACAD_REACTORS
330
42
102
}
330
42
100
AcDbScale
 70
     0
300
1" = 1'-0"
140
1.0
141
12.0
290
     0
  0
SCALE
  5
5D
102
{ACAD_REACTORS
330
42
102
}
330
42
100
AcDbScale
 70
     0
300
1-1/2" = 1'-0"
140
1.5
141
12.0
290
     0
  0
SCALE
  5
5E
102
{ACAD_REACTORS
330
42
102
}
330
42
100
AcDbScale
 70
     0
300
3" = 1'-0"
140
3.0
141
12.0
290
     0
  0
SCALE
  5
5F
102
{ACAD_REACTORS
330
42
102
}
330
42
100
AcDbScale
 70
     0
300
6" = 1'-0"
140
6.0
141
12.0
290
     0
  0
SCALE
  5
60
102
{ACAD_REACTORS
330
42
102
}
330
42
100
AcDbScale
 70
     0
300
1'-0" = 1'-0"
140
12.0
141
12.0
290
     0
  0
TABLESTYLE
  5
4C
102
{ACAD_XDICTIONARY
360
4D
102
}
102
{ACAD_REACTORS
330
43
102
}
330
43
100
AcDbTableStyle
  3
Standard
 70
     0
 71
     0
 40
0.06
 41
0.06
280
     0
281
     0
  7
STANDARD
140
0.18
170
     2
 62
     0
 63
     7
283
     0
274
    -2
284
     1
 64
     0
275
    -2
285
     1
 65
     0
276
    -2
286
     1
 66
     0
277
    -2
287
     1
 67
     0
278
    -2
288
     1
 68
     0
279
    -2
289
     1
 69
     0
  7
STANDARD
140
0.25
170
     5
 62
     0
 63
     7
283
     0
274
    -2
284
     1
 64
     0
275
    -2
285
     1
 65
     0
276
    -2
286
     1
 66
     0
277
    -2
287
     1
 67
     0
278
    -2
288
     1
 68
     0
279
    -2
289
     1
 69
     0
  7
STANDARD
140
0.18
170
     5
 62
     0
 63
     7
283
     0
274
    -2
284
     1
 64
     0
275
    -2
285
     1
 65
     0
276
    -2
286
     1
 66
     0
277
    -2
287
     1
 67
     0
278
    -2
288
     1
 68
     0
279
    -2
289
     1
 69
     0
  0
VISUALSTYLE
  5
2D
102
{ACAD_XDICTIONARY
360
3D9
102
}
102
{ACAD_REACTORS
330
2E
102
}
330
2E
100
AcDbVisualStyle
  2

 70
     4
 71
     0
 72
     2
 73
     0
 90
        0
 40
-0.6
 41
-30.0
 62
     5
 63
     7
 74
     1
 91
        4
 64
     7
 65
   257
 75
     1
175
     1
 42
1.0
 92
        0
 66
   257
 43
1.0
 76
     1
 77
     6
 78
     2
 67
     7
 79
     5
170
     0
171
     0
290
     0
174
     0
 93
        1
 44
0.0
173
     0
291
     0
 45
0.0
1001
ACAD
1000
AcDbSavedByObjectVersion
1070
     0
  0
VISUALSTYLE
  5
4E
102
{ACAD_XDICTIONARY
360
3DC
102
}
102
{ACAD_REACTORS
330
2E
102
}
330
2E
100
AcDbVisualStyle
  2

 70
     8
 71
     2
 72
     2
 73
     0
 90
        0
 40
-0.6
 41
-30.0
 62
     5
 63
     7
 74
     1
 91
        0
 64
     7
 65
   257
 75
     1
175
     1
 42
1.0
 92
        8
 66
     8
 43
1.0
 76
     1
 77
     6
 78
     2
 67
     7
 79
     5
170
     0
171
     0
290
     0
174
     0
 93
       13
 44
0.0
173
     0
291
     0
 45
0.0
1001
ACAD
1000
AcDbSavedByObjectVersion
1070
     0
  0
VISUALSTYLE
  5
4F
102
{ACAD_XDICTIONARY
360
3DE
102
}
102
{ACAD_REACTORS
330
2E
102
}
330
2E
100
AcDbVisualStyle
  2

 70
     5
 71
     0
 72
     2
 73
     0
 90
        0
 40
-0.6
 41
-30.0
 62
     5
 63
     7
 74
     1
 91
        4
 64
     7
 65
   257
 75
     1
175
     1
 42
1.0
 92
        0
 66
   257
 43
1.0
 76
     1
 77
     6
 78
     2
 67
     7
 79
     3
170
     0
171
     0
290
     0
174
     0
 93
        1
 44
0.0
173
     0
291
     0
 45
0.0
1001
ACAD
1000
AcDbSavedByObjectVersion
1070
     0
  0
DICTIONARYVAR
  5
3CD
102
{ACAD_REACTORS
330
3CA
102
}
330
3CA
100
DictionaryVariables
280
     0
  1
1:1
  0
DICTIONARYVAR
  5
3CC
102
{ACAD_REACTORS
330
3CA
102
}
330
3CA
100
DictionaryVariables
280
     0
  1
STANDARD
  0
DICTIONARYVAR
  5
3CB
102
{ACAD_REACTORS
330
3CA
102
}
330
3CA
100
DictionaryVariables
280
     0
  1
STANDARD
  0
DICTIONARYVAR
  5
3D1
102
{ACAD_REACTORS
330
3CA
102
}
330
3CA
100
DictionaryVariables
280
     0
  1
1
  0
DICTIONARYVAR
  5
3D0
102
{ACAD_REACTORS
330
3CA
102
}
330
3CA
100
DictionaryVariables
280
     0
  1
1
  0
DICTIONARYVAR
  5
3CF
102
{ACAD_REACTORS
330
3CA
102
}
330
3CA
100
DictionaryVariables
280
     0
  1
0
  0
DICTIONARYVAR
  5
3D2
102
{ACAD_REACTORS
330
3CA
102
}
330
3CA
100
DictionaryVariables
280
     0
  1
1
  0
DICTIONARYVAR
  5
3CE
102
{ACAD_REACTORS
330
3CA
102
}
330
3CA
100
DictionaryVariables
280
     0
  1
127
  0
DICTIONARYVAR
  5
3D3
102
{ACAD_REACTORS
330
3CA
102
}
330
3CA
100
DictionaryVariables
280
     0
  1
2
  0
DICTIONARY
  5
17
330
15
100
AcDbDictionary
280
     1
281
     1
  3
ACAD_XREC_ROUNDTRIP
360
3D6
  3
ADSK_XREC_LAYOUTTHUMBNAIL
360
18
  0
DICTIONARY
  5
3D7
330
1C
100
AcDbDictionary
280
     1
281
     1
  3
ACAD_XREC_ROUNDTRIP
360
3D8
  0
DICTIONARY
  5
3F
330
3E
100
AcDbDictionary
280
     1
281
     1
  3
ACAD_XREC_ROUNDTRIP
360
40
  0
DICTIONARY
  5
12
330
11
100
AcDbDictionary
280
     1
281
     1
  3
ACAD_XREC_ROUNDTRIP
360
13
  0
DICTIONARY
  5
E
330
C
100
AcDbDictionary
280
     1
281
     1
  3
ACAD_XREC_ROUNDTRIP
360
F
  0
DICTIONARY
  5
4D
330
4C
100
AcDbDictionary
280
     1
281
     1
  3
ACAD_ROUNDTRIP_2008_TABLESTYLE_CELLSTYLEMAP
360
3D4
  3
ACAD_XREC_ROUNDTRIP
360
3DB
  0
DICTIONARY
  5
3D9
330
2D
100
AcDbDictionary
280
     1
281
     1
  3
ACAD_XREC_ROUNDTRIP
360
3DA
  0
DICTIONARY
  5
3DC
330
4E
100
AcDbDictionary
280
     1
281
     1
  3
ACAD_XREC_ROUNDTRIP
360
3DD
  0
DICTIONARY
  5
3DE
330
4F
100
AcDbDictionary
280
     1
281
     1
  3
ACAD_XREC_ROUNDTRIP
360
3DF
  0
XRECORD
  5
3D6
102
{ACAD_REACTORS
330
17
102
}
330
17
100
AcDbXrecord
280
     1
102
SHADEPLOT
 70
     0
102
SHADEPLOTRESLEVEL
 70
     2
102
SHADEPLOTCUSTOMDPI
 70
   300
  0
XRECORD
  5
18
102
{ACAD_REACTORS
330
17
102
}
330
17
100
AcDbXrecord
280
     1
310
280000000001000072000000010008000000000000720000000000000000000000010000000000000000000000000000C8C8C8000000000000000000000000000000000000000000000000000000000000000000330000006600000099000000CC000000FF00000000330000333300006633000099330000CC330000FF3300
310
0000660000336600006666000099660000CC660000FF66000000990000339900006699000099990000CC990000FF99000000CC000033CC000066CC000099CC0000CCCC0000FFCC000000FF000033FF000066FF000099FF0000CCFF0000FFFF000000003300330033006600330099003300CC003300FF003300003333003333
310
33006633330099333300CC333300FF33330000663300336633006666330099663300CC663300FF66330000993300339933006699330099993300CC993300FF99330000CC330033CC330066CC330099CC3300CCCC3300FFCC330000FF330033FF330066FF330099FF3300CCFF3300FFFF330000006600330066006600660099
310
006600CC006600FF00660000336600333366006633660099336600CC336600FF33660000666600336666006666660099666600CC666600FF66660000996600339966006699660099996600CC996600FF99660000CC660033CC660066CC660099CC6600CCCC6600FFCC660000FF660033FF660066FF660099FF6600CCFF6600
310
FFFF660000009900330099006600990099009900CC009900FF00990000339900333399006633990099339900CC339900FF33990000669900336699006666990099669900CC669900FF66990000999900339999006699990099999900CC999900FF99990000CC990033CC990066CC990099CC9900CCCC9900FFCC990000FF99
310
0033FF990066FF990099FF9900CCFF9900FFFF99000000CC003300CC006600CC009900CC00CC00CC00FF00CC000033CC003333CC006633CC009933CC00CC33CC00FF33CC000066CC003366CC006666CC009966CC00CC66CC00FF66CC000099CC003399CC006699CC009999CC00CC99CC00FF99CC0000CCCC0033CCCC0066CC
310
CC0099CCCC00CCCCCC00FFCCCC0000FFCC0033FFCC0066FFCC0099FFCC00CCFFCC00FFFFCC000000FF003300FF006600FF009900FF00CC00FF00FF00FF000033FF003333FF006633FF009933FF00CC33FF00FF33FF000066FF003366FF006666FF009966FF00CC66FF00FF66FF000099FF003399FF006699FF009999FF00CC
310
99FF00FF99FF0000CCFF0033CCFF0066CCFF0099CCFF00CCCCFF00FFCCFF0000FFFF0033FFFF0066FFFF0099FFFF00CCFFFF00FFFFFF00000000000D0D0D001A1A1A00282828003535350043434300505050005D5D5D006B6B6B00787878008686860093939300A1A1A100AEAEAE00BBBBBB00C9C9C900D6D6D600E4E4E400
310
F1F1F100FFFFFF000000000000000000000000000000000000000000000000000000000000000000000000000000000000000000000000000000000000000000000000000000000000000000000000000000000000000000000000000000000000000000000000000000000000000000000000000000000000000000000000
310
00000000000000000000000000000000000000000000000000000000000000000000000000000000000000000000000000000000000000000000000000000000000000000000000000000000000000000000000000000000000000000000000000000000000000000000000000000000000000000000000000000000000000
310
00000000000000000000000000000000000000000000000000000000000000000000000000000000000000000000000000000000000000000000000000000000000000000000000000000000000000000000000000000000000000000000000000000000000000000000000000000000000000000000000000000000000000
310
00000000000000000000000000000000000000000000000000000000000000000000000000000000000000000000000000000000000000000000000000000000000000000000000000000000000000000000000000000000000000000000000000000000000000000000000000000000000000000000000000000000000000
310
00000000000000000000000000000000000000000000000000000000000000000000000000000000000000000000000000000000000000000000000000000000000000000000000000000000000000000000000000000000000000000000000000000000000000000000000000000000000000000000000000000000000000
310
00000000000000000000000000000000000000000000000000000000000000000000000000000000000000000000000000000000000000000000000000000000000000000000000000000000000000000000000000000000000000000000000000000000000000000000000000000000000000000000000000000000000000
310
00000000000000000000000000000000000000000000000000000000000000000000000000000000000000000000000000000000000000000000000000000000000000000000000000000000000000000000000000000000000000000000000000000000000000000000000000000000000000000000000000000000000000
310
00000000000000000000000000000000000000000000000000000000000000000000000000000000000000000000000000000000000000000000000000000000000000000000000000000000000000000000000000000000000000000000000000000000000000000000000000000000000000000000000000000000000000
310
00000000000000000000000000000000000000000000000000000000000000000000000000000000000000000000000000000000000000000000000000000000000000000000000000000000000000000000000000000000000000000000000000000000000000000000000000000000000000000000000000000000000000
310
00000000000000000000000000000000000000000000000000000000000000000000000000000000000000000000000000000000000000000000000000000000000000000000000000000000000000000000000000000000000000000000000000000000000000000000000000000000000000000000000000000000000000
310
00000000000000000000000000000000000000000000000000000000000000000000000000000000000000000000000000000000000000000000000000000000000000000000000000000000000000000000000000000000000000000000000000000000000000000000000000000000000000000000000000000000000000
310
00000000000000000000000000000000000000000000000000000000000000000000000000000000000000000000000000000000000000000000000000000000000000000000000000000000000000000000000000000000000000000000000000000000000000000000000000000000000000000000000000000000000000
310
00000000000000000000000000000000000000000000000000000000000000000000000000000000000000000000000000000000000000000000000000000000000000000000000000000000000000000000000000000000000000000000000000000000000000000000000000000000000000000000000000000000000000
310
00000000000000000000000000000000000000000000000000000000000000000000000000000000000000000000000000000000000000000000000000000000000000000000000000000000000000000000000000000000000000000000000000000000000000000000000000000000000000000000000000000000000000
310
00000000000000000000000000000000000000000000000000000000000000000000000000000000000000000000000000000000000000000000000000000000000000000000000000000000000000000000000000000000000000000000000000000000000000000000000000000000000000000000000000000000000000
310
00000000000000000000000000000000000000000000000000000000000000000000000000000000000000000000000000000000000000000000000000000000000000000000000000000000000000000000000000000000000000000000000000000000000000000000000000000000000000000000000000000000000000
310
00000000000000000000000000000000000000000000000000000000000000000000000000000000000000000000000000000000000000000000000000000000000000000000000000000000000000000000000000000000000000000000000000000000000000000000000000000000000000000000000000000000000000
310
00000000000000000000000000000000000000000000000000000000000000000000000000000000000000000000000000000000000000000000000000000000000000000000000000000000000000000000000000000000000000000000000000000000000000000000000000000000000000000000000000000000000000
310
00000000000000000000000000000000000000000000000000000000000000000000000000000000000000000000000000000000000000000000000000000000000000000000000000000000000000000000000000000000000000000000000000000000000000000000000000000000000000000000000000000000000000
310
00000000000000000000000000000000000000000000000000000000000000000000000000000000000000000000000000000000000000000000000000000000000000000000000000000000000000000000000000000000000000000000000000000000000000000000000000000000000000000000000000000000000000
310
00000000000000000000000000000000000000000000000000000000000000000000000000000000000000000000000000000000000000000000000000000000000000000000000000000000000000000000000000000000000000000000000000000000000000000000000000000000000000000000000000000000000000
310
00000000000000000000000000000000000000000000000000000000000000000000000000000000000000000000000000000000000000000000000000000000000000000000000000000000000000000000000000000000000000000000000000000000000000000000000000000000000000000000000000000000000000
310
00000000000000000000000000000000000000000000000000000000000000000000000000000000000000000000000000000000000000000000000000000000000000000000000000000000000000000000000000000000000000000000000000000000000000000000000000000000000000000000000000000000000000
310
00000000000000000000000000000000000000000000000000000000000000000000000000000000000000000000000000000000000000000000000000000000000000000000000000000000000000000000000000000000000000000000000000000000000000000000000000000000000000000000000000000000000000
310
00000000000000000000000000000000000000000000000000000000000000000000000000000000000000000000000000000000000000000000000000000000000000000000000000000000000000000000000000000000000000000000000000000000000000000000000000000000000000000000000000000000000000
310
00000000000000000000000000000000000000000000000000000000000000000000000000000000000000000000000000000000000000000000000000000000000000000000000000000000000000000000000000000000000000000000000000000000000000000000000000000000000000000000000000000000000000
310
00000000000000000000000000000000000000000000000000000000000000000000000000000000000000000000000000000000000000000000000000000000000000000000000000000000000000000000000000000000000000000000000000000000000000000000000000000000000000000000000000000000000000
310
00000000000000000000000000000000000000000000000000000000000000000000000000000000000000000000000000000000000000000000000000000000000000000000000000000000000000000000000000000000000000000000000000000000000000000000000000000000000000000000000000000000000000
310
00000000000000000000000000000000000000000000000000000000000000000000000000000000000000000000000000000000000000000000000000000000000000000000000000000000000000000000000000000000000000000000000000000000000000000000000000000000000000000000000000000000000000
310
00000000000000000000000000000000000000000000000000000000000000000000000000000000000000000000000000000000000000000000000000000000000000000000000000000000000000000000000000000000000000000000000000000000000000000000000000000000000000000000000000000000000000
310
00000000000000000000000000000000000000000000000000000000000000000000000000000000000000000000000000000000000000000000000000000000000000000000000000000000000000000000000000000000000000000000000000000000000000000000000000000000000000000000000000000000000000
310
00000000000000000000000000000000000000000000000000000000000000000000000000000000000000000000000000000000000000000000000000000000000000000000000000000000000000000000000000000000000000000000000000000000000000000000000000000000000000000000000000000000000000
310
00000000000000000000000000000000000000000000000000000000000000000000000000000000000000000000000000000000000000000000000000000000000000000000000000000000000000000000000000000000000000000000000000000000000000000000000000000000000000000000000000000000000000
310
00000000000000000000000000000000000000000000000000000000000000000000000000000000000000000000000000000000000000000000000000000000000000000000000000000000000000000000000000000000000000000000000000000000000000000000000000000000000000000000000000000000000000
310
00000000000000000000000000000000000000000000000000000000000000000000000000000000000000000000000000000000000000000000000000000000000000000000000000000000000000000000000000000000000000000000000000000000000000000000000000000000000000000000000000000000000000
310
00000000000000000000000000000000000000000000000000000000000000000000000000000000000000000000000000000000000000000000000000000000000000000000000000000000000000000000000000000000000000000000000000000000000000000000000000000000000000000000000000000000000000
310
00000000000000000000000000000000000000000000000000000000000000000000000000000000000000000000000000000000000000000000000000000000000000000000000000000000000000000000000000000000000000000000000000000000000000000000000000000000000000000000000000000000000000
310
00000000000000000000000000000000000000000000000000000000000000000000000000000000000000000000000000000000000000000000000000000000000000000000000000000000000000000000000000000000000000000000000000000000000000000000000000000000000000000000000000000000000000
310
00000000000000000000000000000000000000000000000000000000000000000000000000000000000000000000000000000000000000000000000000000000000000000000000000000000000000000000000000000000000000000000000000000000000000000000000000000000000000000000000000F5F5F5F5F5F5
310
F5F5F5F5F5F5F5F5F5F5F5F5F5F5F5F5F5F5F5F5F5F5F5F5F5F5F5F5F5F5F5F5F5F5F5F5F5F5F5F5F5F5F5F5F5F5F5F5F5F5F5F5F5F5F5F5F5F5F5F5F5F5F5F5F5F5F5F5F5F5F5F5F5F5F5F5F5F5F5F5F5F5F5F5F5000000000000000000000000000000000000000000000000000000000000000000000000000000000000
310
000000000000000000000000000000000000000000000000000000000000000000000000000000000000000000000000000000000000000000000000000000000000000000000000000000000000000000000000000000000000000000000000000000000000000000000000000000000000000000000000000000F5000000
310
0000000000000000000000000000000000000000000000000000000000000000000000000000000000000000000000000000000000000000000000000000000000000000000000000000000000000000000000000000F500000000000000000000000000000000000000000000000000000000000000000000000000000000
310
0000000000000000000000000000000000000000000000000000000000000000000000000000000000000000000000000000000000000000000000000000000000000000000000000000000000000000000000000000000000000000000000000000000000000000000000000000000000000000000000000000000000F500
310
00000000000000000000000000000000000000000000000000000000000000000000000000000000000000000000000000000000000000000000000000000000000000000000000000000000000000000000000000000000F50000000000000000000000000000000000000000000000000000000000000000000000000000
310
00000000000000000000000000000000000000000000000000000000000000000000000000000000000000000000000000000000000000000000000000000000000000000000000000000000000000000000000000000000000000000000000000000000000000000000000000000000000000000000000000000000000000
310
F50000000000000000000000000000000000000000000000000000000000000000000000000000000000000000000000000000000000000000000000000000000000000000000000000000000000000000000000000000000000F5000000000000000000000000000000000000000000000000000000000000000000000000
310
00000000000000000000000000000000000000000000000000000000000000000000000000000000000000000000000000000000000000000000000000000000000000000000000000000000000000000000000000000000000000000000000000000000000000000000000000000000000000000000000000000000000000
310
0000F50000000000000000000000000000000000000000000000000000000000000000000000000000000000000000000000000000000000000000000000000000000000000000000000000000000000000000000000000000000000F500000000000000000000000000000000000000000000000000000000000000000000
310
00000000000000000000000000000000000000000000000000000000000000000000000000000000000000000000000000000000000000000000000000000000000000000000000000000000000000000000000000000000000000000000000000000000000000000000000000000000000000000000000000000000000000
310
00000000F50000000000000000000000000000000000000000000000000000000000000000000000000000000000000000000000000000000000000000000000000000000000000000000000000000000000000000000000000000000000F50000000000000000000000000000000000000000000000000000000000000000
310
00000000000000000000000000000000000000000000000000000000000000000000000000000000000000000000000000000000000000000000000000000000000000000000000000000000000000000000000000000000000000000000000000000000000000000000000000000000000000000000000000000000000000
310
000000000000F50000000000000000000000000000000000000000000000000000000000000000000000000000000000000000000000000000000000000000000000000000000000000000000000000000000000000000000000000000000000F5000000000000000000000000000000000000000000000000000000000000
310
00000000000000000000000000000000000000000000000000000000000000000000000000000000000000000000000000000000000000000000000000000000000000000000000000000000000000000000000000000000000000000000000000000000000000000000000000000000000000000000000000000000000000
310
0000000000000000F50000000000000000000000000000000000000000000000000000000000000000000000000000000000000000000000000000000000000000000000000000000000000000000000000000000000000000000000000000000000F500000000000000000000000000000000000000000000000000000000
310
00000000000000000000000000000000000000000000000000000000000000000000000000000000000000000000000000000000000000000000000000000000000000000000000000000000000000000000000000000000000000000000000000000000000000000000000000000000000000000000000000000000000000
310
00000000000000000000F50000000000000000000000000000000000000000000000000000000000000000000000000000000000000000000000000000000000000000000000000000000000000000000000000000000000000000000000000000000000F50000000000000000000000000000000000000000000000000000
310
00000000000000000000000000000000000000000000000000000000000000000000000000000000000000000000000000000000000000000000000000000000000000000000000000000000000000000000000000000000000000000000000000000000000000000000000000000000000000000000000000000000000000
310
000000000000000000000000F50000000000000000000000000000000000000000000000000000000000000000000000000000000000000000000000000000000000000000000000000000000000000000000000000000000000000000000000000000000000F5000000000000000000000000000000000000000000000000
310
00000000000000000000000000000000000000000000000000000000000000000000000000000000000000000000000000000000000000000000000000000000000000000000000000000000000000000000000000000000000000000000000000000000000000000000000000000000000000000000000000000000000000
310
0000000000000000000000000000F50000000000000000000000000000000000000000000000000000000000000000000000000000000000000000000000000000000000000000000000000000000000000000000000000000000000000000000000000000000000F500000000000000000000000000000000000000000000
310
00000000000000000000000000000000000000000000000000000000000000000000000000000000000000000000000000000000000000000000000000000000000000000000000000000000000000000000000000000000000000000000000000000000000000000000000000000000000000000000000000000000000000
310
00000000000000000000000000000000F50000000000000000000000000000000000000000000000000000000000000000000000000000000000000000000000000000000000000000000000000000000000000000000000000000000000000000000000000000000000F50000000000000000000000000000000000000000
310
00000000000000000000000000000000000000000000000000000000000000000000000000000000000000000000000000000000000000000000000000000000000000000000000000000000000000000000000000000000000000000000000000000000000000000000000000000000000000000000000000000000000000
310
000000000000000000000000000000000000F50000000000000000000000000000000000000000000000000000000000000000000000000000000000000000000000000000000000000000000000000000000000000000000000000000000000000000000000000000000000F5000000000000000000000000000000000000
310
00000000000000000000000000000000000000000000000000000000000000000000000000000000000000000000000000000000000000000000000000000000000000000000000000000000000000000000000000000000000000000000000000000000000000000000000000000000000000000000000000000000000000
310
0000000000000000000000000000000000000000F50000000000000000000000000000000000000000000000000000000000000000000000000000000000000000000000000000000000000000000000000000000000000000000000000000000000000000000000000000000000F500000000000000000000000000000000
310
00000000000000000000000000000000000000000000000000000000000000000000000000000000000000000000000000000000000000000000000000000000000000000000000000000000000000000000000000000000000000000000000000000000000000000000000000000000000000000000000000000000000000
310
00000000000000000000000000000000000000000000F50000000000000000000000000000000000000000000000000000000000000000000000000000000000000000000000000000000000000000000000000000000000000000000000000000000000000000000000000000000000F50000000000000000000000000000
310
00000000000000000000000000000000000000000000000000000000000000000000000000000000000000000000000000000000000000000000000000000000000000000000000000000000000000000000000000000000000000000000000000000000000000000000000000000000000000000000000000000000000000
310
000000000000000000000000000000000000000000000000F50000000000000000000000000000000000000000000000000000000000000000000000000000000000000000000000000000000000000000000000000000000000000000000000000000000000000000000000000000000000F5000000000000000000000000
310
00000000000000000000000000000000000000000000000000000000000000000000000000000000000000000000000000000000000000000000000000000000000000000000000000000000000000000000000000000000000000000000000000000000000000000000000000000000000000000000000000000000000000
310
0000000000000000000000000000000000000000000000000000F50000000000000000000000000000000000000000000000000000000000000000000000000000000000000000000000000000000000000000000000000000000000000000000000000000000000000000000000000000000000F500000000000000000000
310
00000000000000000000000000000000000000000000000000000000000000000000000000000000000000000000000000000000000000000000000000000000000000000000000000000000000000000000000000000000000000000000000000000000000000000000000000000000000000000000000000000000000000
310
00000000000000000000000000000000000000000000000000000000F50000000000000000000000000000000000000000000000000000000000000000000000000000000000000000000000000000000000000000000000000000000000000000000000000000000000000000000000000000000000F50000000000000000
310
00000000000000000000000000000000000000000000000000000000000000000000000000000000000000000000000000000000000000000000000000000000000000000000000000000000000000000000000000000000000000000000000000000000000000000000000000000000000000000000000000000000000000
310
000000000000000000000000000000000000000000000000000000000000F50000000000000000000000000000000000000000000000000000000000000000000000000000000000000000000000000000000000000000000000000000000000000000000000000000000000000000000000000000000000F5000000000000
310
00000000000000000000000000000000000000000000000000000000000000000000000000000000000000000000000000000000000000000000000000000000000000000000000000000000000000000000000000000000000000000000000000000000000000000000000000000000000000000000000000000000000000
310
0000000000000000000000000000000000000000000000000000000000000000F50000000000000000000000000000000000000000000000000000000000000000000000000000000000000000000000000000000000000000000000000000000000000000000000000000000000000000000000000000000000F500000000
310
00000000000000000000000000000000000000000000000000000000000000000000000000000000000000000000000000000000000000000000000000000000000000000000000000000000000000000000000000000000000000000000000000000000000000000000000000000000000000000000000000000000000000
310
00000000000000000000000000000000000000000000000000000000000000000000F50000000000000000000000000000000000000000000000000000000000000000000000000000000000000000000000000000000000000000000000000000000000000000000000000000000000000000000000000000000000F50000
310
00000000000000000000000000000000000000000000000000000000000000000000000000000000000000000000000000000000000000000000000000000000000000000000000000000000000000000000000000000000000000000000000000000000000000000000000000000000000000000000000000000000000000
310
000000000000000000000000000000000000000000000000000000000000000000000000F50000000000000000000000000000000000000000000000000000000000000000000000000000000000000000000000000000000000000000000000000000000000000000000000000000000000000000000000000000000000F5
310
00000000000000000000000000000000000000000000000000000000000000000000000000000000000000000000000000000000000000000000000000000000000000000000000000000000000000000000000000000000000000000000000000000000000000000000000000000000000000000000000000000000000000
310
0000000000000000000000000000000000000000000000000000000000000000000000000000F500000000000000000000000000000000000000000000000000000000000000000000000000000000000000000000000000000000000000000000000000000000000000000000000000000000000000000000000000000000
310
00F50000000000000000000000000000000000000000000000000000000000000000000000000000000000000000000000000000000000000000000000000000000000000000000000000000000000000000000000000000000000000000000000000000000000000000000000000000000000000000000000000000000000
310
00000000000000000000000000000000000000000000000000000000000000000000000000000000F50000000000000000000000000000000000000000000000000000000000000000000000000000000000000000000000000000000000000000000000000000000000000000000000000000000000000000000000000000
310
000000F5000000000000000000000000000000000000000000000000000000000000000000000000000000000000000000000000000000000000000000000000000000000000000000000000000000000000000000000000000000000000000000000000000000000000000000000000000000000000000000000000000000
310
000000000000000000000000000000000000000000000000000000000000000000000000000000000000F5000000000000000000000000000000000000000000000000000000000000000000000000000000000000000000000000000000000000000000000000000000000000000000000000000000000000000000000000
310
0000000000F500000000000000000000000000000000000000000000000000000000000000000000000000000000000000000000000000000000000000000000000000000000000000000000000000000000000000000000000000000000000000000000000000000000000000000000000000000000000000000000000000
310
0000000000000000000000000000000000000000000000000000000000000000000000000000000000000000F500000000000000000000000000000000000000000000000000000000000000000000000000000000000000000000000000000000000000000000000000000000000000000000000000000000000000000000
310
00000000000000F50000000000000000000000000000000000000000000000000000000000000000000000000000000000000000000000000000000000000000000000000000000000000000000000000000000000000000000000000000000000000000000000000000000000000000000000000000000000000000000000
310
00000000000000000000000000000000000000000000000000000000000000000000000000000000000000000000F50000000000000000000000000000000000000000000000000000000000000000000000000000000000000000000000000000000000000000000000000000000000000000000000000000000000000000
310
000000000000000000F5000000000000000000000000000000000000000000000000000000000000000000000000000000000000000000000000000000000000000000000000000000000000000000000000000000000000000000000000000000000000000000000000000000000000000000000000000000000000000000
310
000000000000000000000000000000000000000000000000000000000000000000000000000000000000000000000000F5000000000000000000000000000000000000000000000000000000000000000000000000000000000000000000000000000000000000000000000000000000000000000000000000000000000000
310
0000000000000000000000F500000000000000000000000000000000000000000000000000000000000000000000000000000000000000000000000000000000000000000000000000000000000000000000000000000000000000000000000000000000000000000000000000000000000000000000000000000000000000
310
0000000000000000000000000000000000000000000000000000000000000000000000000000000000000000000000000000F500000000000000000000000000000000000000000000000000000000000000000000000000000000000000000000000000000000000000000000000000000000000000000000000000000000
310
00000000000000000000000000F50000000000000000000000000000000000000000000000000000000000000000000000000000000000000000000000000000000000000000000000000000000000000000000000000000000000000000000000000000000000000000000000000000000000000000000000000000000000
310
00000000000000000000000000000000000000000000000000000000000000000000000000000000000000000000000000000000F50000000000000000000000000000000000000000000000000000000000000000000000000000000000000000000000000000000000000000000000000000000000000000000000000000
310
000000000000000000000000000000F5000000000000000000000000000000000000000000000000000000000000000000000000000000000000000000000000000000000000000000000000000000000000000000000000000000000000000000000000000000000000000000000000000000000000000000000000000000
310
000000000000000000000000000000000000000000000000000000000000000000000000000000000000000000000000000000000000F5000000000000000000000000000000000000000000000000000000000000000000000000000000000000000000000000000000000000000000000000000000000000000000000000
310
0000000000000000000000000000000000F500000000000000000000000000000000000000000000000000000000000000000000000000000000000000000000000000000000000000000000000000000000000000000000000000000000000000000000000000000000000000000000000000000000000000000000000000
310
00000000000000000000000000000000000000000000000000000000000000000000000000000000000000000000000000000000F5F5F5F5F500000000000000000000000000000000000000000000000000000000000000000000000000000000000000000000000000000000000000000000000000000000000000000000
310
00000000000000000000000000000000000000F50000000000000000000000000000000000000000000000000000000000000000000000000000000000000000000000000000000000000000000000000000000000000000000000000000000000000000000000000000000000000000000000000000000000000000000000
310
00000000000000000000000000000000000000000000000000000000000000000000000000000000000000000000000000000000000000000000F50000000000000000000000000000000000000000000000000000000000000000000000000000000000000000000000000000000000000000000000000000000000000000
310
000000000000000000000000000000000000000000F5000000000000000000000000000000000000000000000000000000000000000000000000000000000000000000000000000000000000000000000000000000000000000000000000000000000000000000000000000000000000000000000000000000000000000000
310
000000000000000000000000000000000000000000000000000000000000000000000000000000000000000000000000000000000000000000000000F5000000000000000000000000000000000000000000000000000000000000000000000000000000000000000000000000000000000000000000000000000000000000
310
0000000000000000000000000000000000000000000000F500000000000000000000000000000000000000000000000000000000000000000000000000000000000000000000000000000000000000000000000000000000000000000000000000000000000000000000000000000000000000000000000000000000000000
310
0000000000000000000000000000000000000000000000000000000000000000000000000000000000000000000000000000000000000000000000000000F500000000000000000000000000000000000000000000000000000000000000000000000000000000000000000000000000000000000000000000000000000000
310
00000000000000000000000000000000000000000000000000F50000000000000000000000000000000000000000000000000000000000000000000000000000000000000000000000000000000000000000000000000000000000000000000000000000000000000000000000000000000000000000000000000000000000
310
00000000000000000000000000000000000000000000000000000000000000000000000000000000000000000000000000000000000000000000000000000000F50000000000000000000000000000000000000000000000000000000000000000000000000000000000000000000000000000000000000000000000000000
310
000000000000000000000000000000000000000000000000000000F5000000000000000000000000000000000000000000000000000000000000000000000000000000000000000000000000000000000000000000000000000000000000000000000000000000000000000000000000000000000000000000000000000000
310
000000000000000000000000000000000000000000000000000000000000000000000000000000000000000000000000000000000000000000000000000000000000F5000000000000000000000000000000000000000000000000000000000000000000000000000000000000000000000000000000000000000000000000
310
0000000000000000000000000000000000000000000000000000000000F500000000000000000000000000000000000000000000000000000000000000000000000000000000000000000000000000000000000000000000000000000000000000000000000000000000000000000000000000000000000000000000000000
310
0000000000000000000000000000000000000000000000000000000000000000000000000000000000000000000000000000000000000000000000000000000000000000F500000000000000000000000000000000000000000000000000000000000000000000000000000000000000000000000000000000000000000000
310
00000000000000000000000000000000000000000000000000000000000000F50000000000000000000000000000000000000000000000000000000000000000000000000000000000000000000000000000000000000000000000000000000000000000000000000000000000000000000000000000000000000000000000
310
00000000000000000000000000000000000000000000000000000000000000000000000000000000000000000000000000000000000000000000000000000000000000000000F50000000000000000000000000000000000000000000000000000000000000000000000000000000000000000000000000000000000000000
310
000000000000000000000000000000000000000000000000000000000000000000F5000000000000000000000000000000000000000000000000000000000000000000000000000000000000000000000000000000000000000000000000000000000000000000000000000000000000000000000000000000000000000000
310
000000000000000000000000000000000000000000000000000000000000000000000000000000000000000000000000000000000000000000000000000000000000000000000000F5000000000000000000000000000000000000000000000000000000000000000000000000000000000000000000000000000000000000
310
0000000000000000000000000000000000000000000000000000000000000000000000F500000000000000000000000000000000000000000000000000000000000000000000000000000000000000000000000000000000000000000000000000000000000000000000000000000000000000000000000000000000000000
310
0000000000000000000000000000000000000000000000000000000000000000000000000000000000000000000000000000000000000000000000000000000000000000000000000000F500000000000000000000000000000000000000000000000000000000000000000000000000000000000000000000000000000000
310
00000000000000000000000000000000000000000000000000000000000000000000000000F50000000000000000000000000000000000000000000000000000000000000000000000000000000000000000000000000000000000000000000000000000000000000000000000000000000000000000000000000000000000
310
00000000000000000000000000000000000000000000000000000000000000000000000000000000000000000000000000000000000000000000000000000000000000000000000000000000F50000000000000000000000000000000000000000000000000000000000000000000000000000000000000000000000000000
310
000000000000000000000000000000000000000000000000000000000000000000000000000000F5000000000000000000000000000000000000000000000000000000000000000000000000000000000000000000000000000000000000000000000000000000000000000000000000000000000000000000000000000000
310
000000000000000000000000000000000000000000000000000000000000000000000000000000000000000000000000000000000000000000000000000000000000000000000000000000000000F5000000000000000000000000000000000000000000000000000000000000000000000000000000000000000000000000
310
0000000000000000000000000000000000000000000000000000000000000000000000000000000000F500000000000000000000000000000000000000000000000000000000000000000000000000000000000000000000000000000000000000000000000000000000000000000000000000000000000000000000000000
310
0000000000000000000000000000000000000000000000000000000000000000000000000000000000000000000000000000000000000000000000000000000000000000000000000000000000000000F500000000000000000000000000000000000000000000000000000000000000000000000000000000000000000000
310
00000000000000000000000000000000000000000000000000000000000000000000000000000000000000F50000000000000000000000000000000000000000000000000000000000000000000000000000000000000000000000000000000000000000000000000000000000000000000000000000000000000000000000
310
00000000000000000000000000000000000000000000000000000000000000000000000000000000000000000000000000000000000000000000000000000000000000000000000000000000000000000000F50000000000000000000000000000000000000000000000000000000000000000000000000000000000000000
310
000000000000000000000000000000000000000000000000000000000000000000000000000000000000000000F5000000000000000000000000000000000000000000000000000000000000000000000000000000000000000000000000000000000000000000000000000000000000000000000000000000000000000000
310
000000000000000000000000000000000000000000000000000000000000000000000000000000000000000000000000000000000000000000000000000000000000000000000000000000000000000000000000F5000000000000000000000000000000000000000000000000000000000000000000000000000000000000
310
0000000000000000000000000000000000000000000000000000000000000000000000000000000000000000000000F500000000000000000000000000000000000000000000000000000000000000000000000000000000000000000000000000000000000000000000000000000000000000000000000000000000000000
310
0000000000000000000000000000000000000000000000000000000000000000000000000000000000000000000000000000000000000000000000000000000000000000000000000000000000000000000000000000F500000000000000000000000000000000000000000000000000000000000000000000000000000000
310
00000000000000000000000000000000000000000000000000000000000000000000000000000000000000000000000000F50000000000000000000000000000000000000000000000000000000000000000000000000000000000000000000000000000000000000000000000000000000000000000000000000000000000
310
00000000000000000000000000000000000000000000000000000000000000000000000000000000000000000000000000000000000000000000000000000000000000000000000000000000000000000000000000000000F50000000000000000000000000000000000000000000000000000000000000000000000000000
310
000000000000000000000000000000000000000000000000000000000000000000000000000000000000000000000000000000F5000000000000000000000000000000000000000000000000000000000000000000000000000000000000000000000000000000000000000000000000000000000000000000000000000000
310
000000000000000000000000000000000000000000000000000000000000000000000000000000000000000000000000000000000000000000000000000000000000000000000000000000000000000000000000000000000000F5000000000000000000000000000000000000000000000000000000000000000000000000
310
0000000000000000000000000000000000000000000000000000000000000000000000000000000000000000000000000000000000F500000000000000000000000000000000000000000000000000000000000000000000000000000000000000000000000000000000000000000000000000000000000000000000000000
310
0000000000000000000000000000000000000000000000000000000000000000000000000000000000000000000000000000000000000000000000000000000000000000000000000000000000000000000000000000000000000000F500000000000000000000000000000000000000000000000000000000000000000000
310
00000000000000000000000000000000000000000000000000000000000000000000000000000000000000000000000000000000000000F50000000000000000000000000000000000000000000000000000000000000000000000000000000000000000000000000000000000000000000000000000000000000000000000
310
00000000000000000000000000000000000000000000000000000000000000000000000000000000000000000000000000000000000000000000000000000000000000000000000000000000000000000000000000000000000000000000F50000000000000000000000000000000000000000000000000000000000000000
310
000000000000000000000000000000000000000000000000000000000000000000000000000000000000000000000000000000000000000000F5000000000000000000000000000000000000000000000000000000000000000000000000000000000000000000000000000000000000000000000000000000000000000000
310
000000000000000000000000000000000000000000000000000000000000000000000000000000000000000000000000000000000000000000000000000000000000000000000000000000000000000000000000000000000000000000000000F5000000000000000000000000000000000000000000000000000000000000
310
0000000000000000000000000000000000000000000000000000000000000000000000000000000000000000000000000000000000000000000000F500000000000000000000000000000000000000000000000000000000000000000000000000000000000000000000000000000000000000000000000000000000000000
310
0000000000000000000000000000000000000000000000000000000000000000000000000000000000000000000000000000000000000000000000000000000000000000000000000000000000000000000000000000000000000000000000000000F500000000000000000000000000000000000000000000000000000000
310
00000000000000000000000000000000000000000000000000000000000000000000000000000000000000000000000000000000000000000000000000F50000000000000000000000000000000000000000000000000000000000000000000000000000000000000000000000000000000000000000000000000000000000
310
00000000000000000000000000000000000000000000000000000000000000000000000000000000000000000000000000000000000000000000000000000000000000000000000000000000000000000000000000000000000000000000000000000000F50000000000000000000000000000000000000000000000000000
310
000000000000000000000000000000000000000000000000000000000000000000000000000000000000000000000000000000000000000000000000000000F5000000000000000000000000000000000000000000000000000000000000000000000000000000000000000000000000000000000000000000000000000000
310
000000000000000000000000000000000000000000000000000000000000000000000000000000000000000000000000000000000000000000000000000000000000000000000000000000000000000000000000000000000000000000000000000000000000F5000000000000000000000000000000000000000000000000
310
0000000000000000000000000000000000000000000000000000000000000000000000000000000000000000000000000000000000000000000000000000000000F500000000000000000000000000000000000000000000000000000000000000000000000000000000000000000000000000000000000000000000000000
310
0000000000000000000000000000000000000000000000000000000000000000000000000000000000000000000000000000000000000000000000000000000000000000000000000000000000000000000000000000000000000000000000000000000000000000F500000000000000000000000000000000000000000000
310
00000000000000000000000000000000000000000000000000000000000000000000000000000000000000000000000000000000000000000000000000000000000000F50000000000000000000000000000000000000000000000000000000000000000000000000000000000000000000000000000000000000000000000
310
00000000000000000000000000000000000000000000000000000000000000000000000000000000000000000000000000000000000000000000000000000000000000000000000000000000000000000000000000000000000000000000000000000000000000000000F50000000000000000000000000000000000000000
310
000000000000000000000000000000000000000000000000000000000000000000000000000000000000000000000000000000000000000000000000000000000000000000F5000000000000000000000000000000000000000000000000000000000000000000000000000000000000000000000000000000000000000000
310
000000000000000000000000000000000000000000000000000000000000000000000000000000000000000000000000000000000000000000000000000000000000000000000000000000000000000000000000000000000000000000000000000000000000000000000000F5000000000000000000000000000000000000
310
0000000000000000000000000000000000000000000000000000000000000000000000000000000000000000000000000000000000000000000000000000000000000000000000F500000000000000000000000000000000000000000000000000000000000000000000000000000000000000000000000000000000000000
310
0000000000000000000000000000000000000000000000000000000000000000000000000000000000000000000000000000000000000000000000000000000000000000000000000000000000000000000000000000000000000000000000000000000000000000000000000000F500000000000000000000000000000000
310
00000000000000000000000000000000000000000000000000000000000000000000000000000000000000000000000000000000000000000000000000000000000000000000000000F50000000000000000000000000000000000000000000000000000000000000000000000000000000000000000000000000000000000
310
00000000000000000000000000000000000000000000000000000000000000000000000000000000000000000000000000000000000000000000000000000000000000000000000000000000000000000000000000000000000000000000000000000000000000000000000000000000F50000000000000000000000000000
310
000000000000000000000000000000000000000000000000000000000000000000000000000000000000000000000000000000000000000000000000000000000000000000000000000000F5000000000000000000000000000000000000000000000000000000000000000000000000000000000000000000000000000000
310
000000000000000000000000000000000000000000000000000000000000000000000000000000000000000000000000000000000000000000000000000000000000000000000000000000000000000000000000000000000000000000000000000000000000000000000000000000000000F5000000000000000000000000
310
0000000000000000000000000000000000000000000000000000000000000000000000000000000000000000000000000000000000000000000000000000000000000000000000000000000000F500000000000000000000000000000000000000000000000000000000000000000000000000000000000000000000000000
310
0000000000000000000000000000000000000000000000000000000000000000000000000000000000000000000000000000000000000000000000000000000000000000000000000000000000000000000000000000000000000000000000000000000000000000000000000000000000000000F500000000000000000000
310
00000000000000000000000000000000000000000000000000000000000000000000000000000000000000000000000000000000000000000000000000000000000000000000000000000000000000F50000000000000000000000000000000000000000000000000000000000000000000000000000000000000000000000
310
00000000000000000000000000000000000000000000000000000000000000000000000000000000000000000000000000000000000000000000000000000000000000000000000000000000000000000000000000000000000000000000000000000000000000000000000000000000000000000000F50000000000000000
310
000000000000000000000000000000000000000000000000000000000000000000000000000000000000000000000000000000000000000000000000000000000000000000000000000000000000000000F5000000000000000000000000000000000000000000000000000000000000000000000000000000000000000000
310
000000000000000000000000000000000000000000000000000000000000000000000000000000000000000000000000000000000000000000000000000000000000000000000000000000000000000000000000000000000000000000000000000000000000000000000000000000000000000000000000F5F5F5F5F5F5F5
310
F5F5F5F5F5F5F5F5F5F5F5F5F5F5F5F5F5F5F5F5F5F5F5F5F5F5F5F5F5F5F5F5F5F5F5F5F5F5F5F5F5F5F5F5F5F5F5F5F5F5F5F5F5F5F5F5F5F5F5F5F5F5F5F5F5F5F5F5F5F5F5F5F5F5F5F5F5F5F5F5F5F5F5F500000000000000000000000000000000000000000000000000000000000000000000000000000000000000
310
00000000000000000000000000000000000000000000000000000000000000000000000000000000000000000000000000000000000000000000000000000000000000000000000000000000000000000000000000000000000000000000000000000000000000000000000000000000000000000000000000000000000000
310
00000000000000000000000000000000000000000000000000000000000000000000000000000000000000000000000000000000000000000000000000000000000000000000000000000000000000000000000000000000000000000000000000000000000000000000000000000000000000000000000000000000000000
310
00000000000000000000000000000000000000000000000000000000000000000000000000000000000000000000000000000000000000000000000000000000000000000000000000000000000000000000000000000000000000000000000000000000000000000000000000000000000000000000000000000000000000
310
00000000000000000000000000000000000000000000000000000000000000000000000000000000000000000000000000000000000000000000000000000000000000000000000000000000000000000000000000000000000000000000000000000000000000000000000000000000000000000000000000000000000000
310
00000000000000000000000000000000000000000000000000000000000000000000000000000000000000000000000000000000000000000000000000000000000000000000000000000000000000000000000000000000000000000000000000000000000000000000000000000000000000000000000000000000000000
310
00000000000000000000000000000000000000000000000000000000000000000000000000000000000000000000000000000000000000000000000000000000000000000000000000000000000000000000000000000000000000000000000000000000000000000000000000000000000000000000000000000000000000
310
00000000000000000000000000000000000000000000000000000000000000000000000000000000000000000000000000000000000000000000000000000000000000000000000000000000000000000000000000000000000000000000000000000000000000000000000000000000000000000000000000000000000000
310
00000000000000000000000000000000000000000000000000000000000000000000000000000000000000000000000000000000000000000000000000000000000000000000000000000000000000000000000000000000000000000000000000000000000000000000000000000000000000000000000000000000000000
310
00000000000000000000000000000000000000000000000000000000000000000000000000000000000000000000000000000000000000000000000000000000000000000000000000000000000000000000000000000000000000000000000000000000000000000000000000000000000000000000000000000000000000
310
00000000000000000000000000000000000000000000000000000000000000000000000000000000000000000000000000000000000000000000000000000000000000000000000000000000000000000000000000000000000000000000000000000000000000000000000000000000000000000000000000000000000000
310
00000000000000000000000000000000000000000000000000000000000000000000000000000000000000000000000000000000000000000000000000000000000000000000000000000000000000000000000000000000000000000000000000000000000000000000000000000000000000000000000000000000000000
310
00000000000000000000000000000000000000000000000000000000000000000000000000000000000000000000000000000000000000000000000000000000000000000000000000000000000000000000000000000000000000000000000000000000000000000000000000000000000000000000000000000000000000
310
00000000000000000000000000000000000000000000000000000000000000000000000000000000000000000000000000000000000000000000000000000000000000000000000000000000000000000000000000000000000000000000000000000000000000000000000000000000000000000000000000000000000000
310
00000000000000000000000000000000000000000000000000000000000000000000000000000000000000000000000000000000000000000000000000000000000000000000000000000000000000000000000000000000000000000000000000000000000000000000000000000000000000000000000000000000000000
310
00000000000000000000000000000000000000000000000000000000000000000000000000000000000000000000000000000000000000000000000000000000000000000000000000000000000000000000000000000000000000000000000000000000000000000000000000000000000000000000000000000000000000
310
00000000000000000000000000000000000000000000000000000000000000000000000000000000000000000000000000000000000000000000000000000000000000000000000000000000000000000000000000000000000000000000000000000000000000000000000000000000000000000000000000000000000000
310
00000000000000000000000000000000000000000000000000000000000000000000000000000000000000000000000000000000000000000000000000000000000000000000000000000000000000000000000000000000000000000000000000000000000000000000000000000000000000000000000000000000000000
310
00000000000000000000000000000000000000000000000000000000000000000000000000000000000000000000000000000000000000000000000000000000000000000000000000000000000000000000000000000000000000000000000000000000000000000000000000000000000000000000000000000000000000
310
00000000000000000000000000000000000000000000000000000000000000000000000000000000000000000000000000000000000000000000000000000000000000000000000000000000000000000000000000000000000000000000000000000000000000000000000000000000000000000000000000000000000000
310
00000000000000000000000000000000000000000000000000000000000000000000000000000000000000000000000000000000000000000000000000000000000000000000000000000000000000000000000000000000000000000000000000000000000000000000000000000000000000000000000000000000000000
310
00000000000000000000000000000000000000000000000000000000000000000000000000000000000000000000000000000000000000000000000000000000000000000000000000000000000000000000000000000000000000000000000000000000000000000000000000000000000000000000000000000000000000
310
00000000000000000000000000000000000000000000000000000000000000000000000000000000000000000000000000000000000000000000000000000000000000000000000000000000000000000000000000000000000000000000000000000000000000000000000000000000000000000000000000000000000000
310
00000000000000000000000000000000000000000000000000000000000000000000000000000000000000000000000000000000000000000000000000000000000000000000000000000000000000000000000000000000000000000000000000000000000000000000000000000000000000000000000000000000000000
310
00000000000000000000000000000000000000000000000000000000000000000000000000000000000000000000000000000000000000000000000000000000000000000000000000000000000000000000000000000000000000000000000000000000000000000000000000000000000000000000000000000000000000
310
00000000000000000000000000000000000000000000000000000000000000000000000000000000000000000000000000000000000000000000000000000000000000000000000000000000000000000000000000000000000000000000000000000000000000000000000000000000000000000000000000000000000000
310
00000000000000000000000000000000000000000000000000000000000000000000000000000000000000000000000000000000000000000000000000000000000000000000000000000000000000000000000000000000000000000000000000000000000000000000000000000000000000000000000000000000000000
310
00000000000000000000000000000000000000000000000000000000000000000000000000000000000000000000000000000000000000000000000000000000000000000000000000000000000000000000000000000000000000000000000000000000000000000000000000000000000000000000000000000000000000
310
00000000000000000000000000000000000000000000000000000000000000000000000000000000000000000000000000000000000000000000000000000000000000000000000000000000000000000000000000000000000000000000000000000000000000000000000000000000000000000000000000000000000000
310
00000000000000000000000000000000000000000000000000000000000000000000000000000000000000000000000000000000000000000000000000000000000000000000000000000000000000000000000000000000000000000000000000000000000000000000000000000000000000000000000000000000000000
310
00000000000000000000000000000000000000000000000000000000000000000000000000000000000000000000000000000000000000000000000000000000000000000000000000000000000000000000000000000000000000000000000000000000000000000000000000000000000000000000000000000000000000
310
00000000000000000000000000000000000000000000000000000000000000000000000000000000000000000000000000000000000000000000000000000000000000000000000000000000000000000000000000000000000000000000000000000000000000000000000000000000000000000000000000000000000000
310
00000000000000000000000000000000000000000000000000000000000000000000000000000000000000000000000000000000000000000000000000000000000000000000000000000000000000000000000000000000000000000000000000000000000000000000000000000000000000000000000000000000000000
310
00000000000000000000000000000000000000000000000000000000000000000000000000000000000000000000000000000000000000000000000000000000000000000000000000000000000000000000000000000000000000000000000000000000000000000000000000000000000000000000000000000000000000
310
00000000000000000000000000000000000000000000000000000000000000000000000000000000000000000000000000000000000000000000000000000000000000000000000000000000000000000000000000000000000000000000000000000000000000000000000000000000000000000000000000000000000000
310
00000000000000000000000000000000000000000000000000000000000000000000000000000000000000000000000000000000000000000000000000000000000000000000000000000000000000000000000000000000000000000000000000000000000000000000000000000000000000000000000000000000000000
310
00000000000000000000000000000000000000000000000000000000000000000000000000000000000000000000000000000000000000000000000000000000000000000000000000000000000000000000000000000000000000000000000000000000000000000000000000000000000000000000000000000000000000
310
00000000000000000000000000000000000000000000000000000000000000000000000000000000000000000000000000000000000000000000000000000000000000000000000000000000000000000000000000000000000000000000000000000000000000000000000000000000000000000000000000000000000000
310
00000000000000000000000000000000000000000000000000000000000000000000000000000000000000000000000000000000000000000000000000000000000000000000000000000000000000000000000000000000000000000000000000000000000000000000000000000000000000000000000000000000000000
310
00000000000000000000000000000000000000000000000000000000000000000000000000000000000000000000000000000000000000000000000000000000000000000000000000000000000000000000000000000000000000000000000000000000000000000000000000000000000000000000000000000000000000
310
00000000000000000000000000000000000000000000000000000000000000000000000000000000000000000000000000000000000000000000000000000000000000000000000000000000000000000000000000000000000000000000000000000000000000000000000000000000000000000000000000000000000000
310
00000000000000000000000000000000000000000000000000000000000000000000000000000000000000000000000000000000000000000000000000000000000000000000000000000000000000000000000000000000000000000000000000000000000000000000000000000000000000000000000000000000000000
310
00000000000000000000000000000000000000000000000000000000000000000000000000000000000000000000000000000000000000000000000000000000000000000000000000000000000000000000000000000000000000000000000000000000000000000000000000000000000000000000000000000000000000
310
00000000000000000000000000000000000000000000000000000000000000000000000000000000000000000000000000000000000000000000000000000000000000000000000000000000000000000000000000000000000000000000000000000000000000000000000000000000000000000000000000000000000000
310
00000000000000000000000000000000000000000000000000000000000000000000000000000000000000000000000000000000000000000000000000000000000000000000000000000000000000000000000000000000000000000000000000000000000000000000000000000000000000000000000000000000000000
310
00000000000000000000000000000000000000000000000000000000000000000000000000000000000000000000000000000000000000000000000000000000000000000000000000000000000000000000000000000000000000000000000000000000000000000000000000000000000000000000000000000000000000
310
00000000000000000000000000000000000000000000000000000000000000000000000000000000000000000000000000000000000000000000000000000000000000000000000000000000000000000000000000000000000000000000000000000000000000000000000000000000000000000000000000000000000000
310
00000000000000000000000000000000000000000000000000000000000000000000000000000000000000000000000000000000000000000000000000000000000000000000000000000000000000000000000000000000000000000000000000000000000000000000000000000000000000000000000000000000000000
310
00000000000000000000000000000000000000000000000000000000000000000000000000000000000000000000000000000000000000000000000000000000000000000000000000000000000000000000000000000000000000000000000000000000000000000000000000000000000000000000000000000000000000
310
00000000000000000000000000000000000000000000000000000000000000000000000000000000000000000000000000000000000000000000000000000000000000000000000000000000000000000000000000000000000000000000000000000000000000000000000000000000000000000000000000000000000000
310
00000000000000000000000000000000000000000000000000000000000000000000000000000000000000000000000000000000000000000000000000000000000000000000000000000000000000000000000000000000000000000000000000000000000000000000000000000000000000000000000000000000000000
310
00000000000000000000000000000000000000000000000000000000000000000000000000000000000000000000000000000000000000000000000000000000000000000000000000000000000000000000000000000000000000000000000000000000000000000000000000000000000000000000000000000000000000
310
00000000000000000000000000000000000000000000000000000000000000000000000000000000000000000000000000000000000000000000000000000000000000000000000000000000000000000000000000000000000000000000000000000000000000000000000000000000000000000000000000000000000000
310
00000000000000000000000000000000000000000000000000000000000000000000000000000000000000000000000000000000000000000000000000000000000000000000000000000000000000000000000000000000000000000000000000000000000000000000000000000000000000000000000000000000000000
310
00000000000000000000000000000000000000000000000000000000000000000000000000000000000000000000000000000000000000000000000000000000000000000000000000000000000000000000000000000000000000000000000000000000000000000000000000000000000000000000000000000000000000
310
00000000000000000000000000000000000000000000000000000000000000000000000000000000000000000000000000000000000000000000000000000000000000000000000000000000000000000000000000000000000000000000000000000000000000000000000000000000000000000000000000000000000000
310
00000000000000000000000000000000000000000000000000000000000000000000000000000000000000000000000000000000000000000000000000000000000000000000000000000000000000000000000000000000000000000000000000000000000000000000000000000000000000000000000000000000000000
310
00000000000000000000000000000000000000000000000000000000000000000000000000000000000000000000000000000000000000000000000000000000000000000000000000000000000000000000000000000000000000000000000000000000000000000000000000000000000000000000000000000000000000
310
00000000000000000000000000000000000000000000000000000000000000000000000000000000000000000000000000000000000000000000000000000000000000000000000000000000000000000000000000000000000000000000000000000000000000000000000000000000000000000000000000000000000000
310
00000000000000000000000000000000000000000000000000000000000000000000000000000000000000000000000000000000000000000000000000000000000000000000000000000000000000000000000000000000000000000000000000000000000000000000000000000000000000000000000000000000000000
310
00000000000000000000000000000000000000000000000000000000000000000000000000000000000000000000000000000000000000000000000000000000000000000000000000000000000000000000000000000000000000000000000000000000000000000000000000000000000000000000000000000000000000
310
00000000000000000000000000000000000000000000000000000000000000000000000000000000000000000000000000000000000000000000000000000000000000000000000000000000000000000000000000000000000000000000000000000000000000000000000000000000000000000000000000000000000000
310
00000000000000000000000000000000000000000000000000000000000000000000000000000000000000000000000000000000000000000000000000000000000000000000000000000000000000000000000000000000000000000000000000000000000000000000000000000000000000000000000000000000000000
310
00000000000000000000000000000000000000000000000000000000000000000000000000000000000000000000000000000000000000000000000000000000000000000000000000000000000000000000000000000000000000000000000000000000000000000000000000000000000000000000000000000000000000
310
00000000000000000000000000000000000000000000
  0
XRECORD
  5
3D8
102
{ACAD_REACTORS
330
3D7
102
}
330
3D7
100
AcDbXrecord
280
     1
102
SHADEPLOT
 70
     0
102
SHADEPLOTRESLEVEL
 70
     2
102
SHADEPLOTCUSTOMDPI
 70
   300
  0
XRECORD
  5
40
102
{ACAD_REACTORS
330
3F
102
}
330
3F
100
AcDbXrecord
280
     1
102
MATERIAL
148
0.0
149
0.0
149
0.0
 93
        0
 94
      127
282
     0
 72
     1
 77
     1
171
     1
175
     1
179
     1
273
     0
  0
XRECORD
  5
13
102
{ACAD_REACTORS
330
12
102
}
330
12
100
AcDbXrecord
280
     1
102
MATERIAL
148
0.0
149
0.0
149
0.0
 93
        0
 94
      127
282
     0
 72
     1
 77
     1
171
     1
175
     1
179
     1
273
     0
  0
XRECORD
  5
F
102
{ACAD_REACTORS
330
E
102
}
330
E
100
AcDbXrecord
280
     1
102
MATERIAL
148
0.0
149
0.0
149
0.0
 93
        0
 94
      127
282
     0
 72
     1
 77
     1
171
     1
175
     1
179
     1
273
     0
  0
CELLSTYLEMAP
  5
3D4
102
{ACAD_REACTORS
330
4D
102
}
330
4D
100
AcDbCellStyleMap
 90
        3
300
CELLSTYLE
  1
TABLEFORMAT_BEGIN
 90
        5
170
     1
 91
        0
 92
    32768
 62
   257
 93
        1
300
CONTENTFORMAT
  1
CONTENTFORMAT_BEGIN
 90
        0
 91
        0
 92
      512
 93
        0
300

 40
0.0
140
1.0
 94
        5
 62
     0
340
24
144
0.25
309
CONTENTFORMAT_END
171
     1
301
MARGIN
  1
CELLMARGIN_BEGIN
 40
0.06
 40
0.06
 40
0.06
 40
0.06
 40
0.18
 40
0.18
309
CELLMARGIN_END
 94
        6
 95
        1
302
GRIDFORMAT
  1
GRIDFORMAT_BEGIN
 90
        0
 91
        1
 62
     0
 92
       -2
340
0
 93
        0
 40
0.045
309
GRIDFORMAT_END
 95
        2
302
GRIDFORMAT
  1
GRIDFORMAT_BEGIN
 90
        0
 91
        1
 62
     0
 92
       -2
340
0
 93
        0
 40
0.045
309
GRIDFORMAT_END
 95
        4
302
GRIDFORMAT
  1
GRIDFORMAT_BEGIN
 90
        0
 91
        1
 62
     0
 92
       -2
340
0
 93
        0
 40
0.045
309
GRIDFORMAT_END
 95
        8
302
GRIDFORMAT
  1
GRIDFORMAT_BEGIN
 90
        0
 91
        1
 62
     0
 92
       -2
340
0
 93
        0
 40
0.045
309
GRIDFORMAT_END
 95
       16
302
GRIDFORMAT
  1
GRIDFORMAT_BEGIN
 90
        0
 91
        1
 62
     0
 92
       -2
340
0
 93
        0
 40
0.045
309
GRIDFORMAT_END
 95
       32
302
GRIDFORMAT
  1
GRIDFORMAT_BEGIN
 90
        0
 91
        1
 62
     0
 92
       -2
340
0
 93
        0
 40
0.045
309
GRIDFORMAT_END
309
TABLEFORMAT_END
  1
CELLSTYLE_BEGIN
 90
        1
 91
        1
300
_TITLE
309
CELLSTYLE_END
300
CELLSTYLE
  1
TABLEFORMAT_BEGIN
 90
        5
170
     1
 91
        0
 92
        0
 62
   257
 93
        1
300
CONTENTFORMAT
  1
CONTENTFORMAT_BEGIN
 90
        0
 91
        0
 92
      512
 93
        0
300

 40
0.0
140
1.0
 94
        5
 62
     0
340
24
144
0.18
309
CONTENTFORMAT_END
171
     1
301
MARGIN
  1
CELLMARGIN_BEGIN
 40
0.06
 40
0.06
 40
0.06
 40
0.06
 40
0.18
 40
0.18
309
CELLMARGIN_END
 94
        6
 95
        1
302
GRIDFORMAT
  1
GRIDFORMAT_BEGIN
 90
        0
 91
        1
 62
     0
 92
       -2
340
0
 93
        0
 40
0.045
309
GRIDFORMAT_END
 95
        2
302
GRIDFORMAT
  1
GRIDFORMAT_BEGIN
 90
        0
 91
        1
 62
     0
 92
       -2
340
0
 93
        0
 40
0.045
309
GRIDFORMAT_END
 95
        4
302
GRIDFORMAT
  1
GRIDFORMAT_BEGIN
 90
        0
 91
        1
 62
     0
 92
       -2
340
0
 93
        0
 40
0.045
309
GRIDFORMAT_END
 95
        8
302
GRIDFORMAT
  1
GRIDFORMAT_BEGIN
 90
        0
 91
        1
 62
     0
 92
       -2
340
0
 93
        0
 40
0.045
309
GRIDFORMAT_END
 95
       16
302
GRIDFORMAT
  1
GRIDFORMAT_BEGIN
 90
        0
 91
        1
 62
     0
 92
       -2
340
0
 93
        0
 40
0.045
309
GRIDFORMAT_END
 95
       32
302
GRIDFORMAT
  1
GRIDFORMAT_BEGIN
 90
        0
 91
        1
 62
     0
 92
       -2
340
0
 93
        0
 40
0.045
309
GRIDFORMAT_END
309
TABLEFORMAT_END
  1
CELLSTYLE_BEGIN
 90
        2
 91
        1
300
_HEADER
309
CELLSTYLE_END
300
CELLSTYLE
  1
TABLEFORMAT_BEGIN
 90
        5
170
     1
 91
        0
 92
        0
 62
   257
 93
        1
300
CONTENTFORMAT
  1
CONTENTFORMAT_BEGIN
 90
        0
 91
        0
 92
      512
 93
        0
300

 40
0.0
140
1.0
 94
        2
 62
     0
340
24
144
0.18
309
CONTENTFORMAT_END
171
     1
301
MARGIN
  1
CELLMARGIN_BEGIN
 40
0.06
 40
0.06
 40
0.06
 40
0.06
 40
0.18
 40
0.18
309
CELLMARGIN_END
 94
        6
 95
        1
302
GRIDFORMAT
  1
GRIDFORMAT_BEGIN
 90
        0
 91
        1
 62
     0
 92
       -2
340
0
 93
        0
 40
0.045
309
GRIDFORMAT_END
 95
        2
302
GRIDFORMAT
  1
GRIDFORMAT_BEGIN
 90
        0
 91
        1
 62
     0
 92
       -2
340
0
 93
        0
 40
0.045
309
GRIDFORMAT_END
 95
        4
302
GRIDFORMAT
  1
GRIDFORMAT_BEGIN
 90
        0
 91
        1
 62
     0
 92
       -2
340
0
 93
        0
 40
0.045
309
GRIDFORMAT_END
 95
        8
302
GRIDFORMAT
  1
GRIDFORMAT_BEGIN
 90
        0
 91
        1
 62
     0
 92
       -2
340
0
 93
        0
 40
0.045
309
GRIDFORMAT_END
 95
       16
302
GRIDFORMAT
  1
GRIDFORMAT_BEGIN
 90
        0
 91
        1
 62
     0
 92
       -2
340
0
 93
        0
 40
0.045
309
GRIDFORMAT_END
 95
       32
302
GRIDFORMAT
  1
GRIDFORMAT_BEGIN
 90
        0
 91
        1
 62
     0
 92
       -2
340
0
 93
        0
 40
0.045
309
GRIDFORMAT_END
309
TABLEFORMAT_END
  1
CELLSTYLE_BEGIN
 90
        3
 91
        2
300
_DATA
309
CELLSTYLE_END
  0
XRECORD
  5
3DB
102
{ACAD_REACTORS
330
4D
102
}
330
4D
100
AcDbXrecord
280
     1
102
ACAD_ROUNDTRIP_PRE2007_TABLESTYLE
 90
      512
 91
        0
  1

 92
      512
 93
        0
  2

 94
      512
 95
        0
  3

  0
XRECORD
  5
3DA
102
{ACAD_REACTORS
330
3D9
102
}
330
3D9
100
AcDbXrecord
280
     1
102
RTVSPropertyOp0
 70
     1
102
RTVSPropertyOp1
 70
     1
102
RTVSPropertyOp2
 70
     1
102
RTVSPropertyOp3
 70
     1
102
RTVSPropertyOp4
 70
     1
102
RTVSPropertyOp5
 70
     1
102
RTVSPropertyOp6
 70
     1
102
RTVSPropertyOp7
 70
     1
102
RTVSPropertyOp8
 70
     1
102
RTVSPropertyOp9
 70
     1
102
RTVSPropertyOp10
 70
     1
102
RTVSPropertyOp11
 70
     1
102
RTVSPropertyOp12
 70
     1
102
RTVSPropertyOp13
 70
     1
102
RTVSPropertyOp14
 70
     1
102
RTVSPropertyOp15
 70
     1
102
RTVSPropertyOp16
 70
     1
102
RTVSPropertyOp17
 70
     1
102
RTVSPropertyOp18
 70
     1
102
RTVSPropertyOp19
 70
     1
102
RTVSPropertyOp20
 70
     1
102
RTVSPropertyOp21
 70
     1
102
RTVSPropertyOp22
 70
     1
102
RTVSPropertyOp23
 70
     1
102
RTVSPropertyOp24
 70
     1
102
RTVSPropertyOp25
 70
     1
102
RTVSPropertyOp26
 70
     1
102
RTVSPropertyOp27
 70
     1
102
RTVSPropertyOp28
 70
     1
102
RTVSPropertyOp29
 70
     1
102
RTVSPropertyOp30
 70
     1
102
RTVSPropertyOp31
 70
     1
102
RTVSPropertyOp32
 70
     1
  0
XRECORD
  5
3DD
102
{ACAD_REACTORS
330
3DC
102
}
330
3DC
100
AcDbXrecord
280
     1
102
RTVSPropertyOp0
 70
     1
102
RTVSPropertyOp1
 70
     1
102
RTVSPropertyOp2
 70
     1
102
RTVSPropertyOp3
 70
     1
102
RTVSPropertyOp4
 70
     1
102
RTVSPropertyOp5
 70
     1
102
RTVSPropertyOp6
 70
     1
102
RTVSPropertyOp7
 70
     1
102
RTVSPropertyOp8
 70
     1
102
RTVSPropertyOp9
 70
     1
102
RTVSPropertyOp10
 70
     1
102
RTVSPropertyOp11
 70
     1
102
RTVSPropertyOp12
 70
     1
102
RTVSPropertyOp13
 70
     1
102
RTVSPropertyOp14
 70
     1
102
RTVSPropertyOp15
 70
     1
102
RTVSPropertyOp16
 70
     1
102
RTVSPropertyOp17
 70
     1
102
RTVSPropertyOp18
 70
     1
102
RTVSPropertyOp19
 70
     1
102
RTVSPropertyOp20
 70
     1
102
RTVSPropertyOp21
 70
     1
102
RTVSPropertyOp22
 70
     1
102
RTVSPropertyOp23
 70
     1
102
RTVSPropertyOp24
 70
     1
102
RTVSPropertyOp25
 70
     1
102
RTVSPropertyOp26
 70
     1
102
RTVSPropertyOp27
 70
     1
102
RTVSPropertyOp28
 70
     1
102
RTVSPropertyOp29
 70
     1
102
RTVSPropertyOp30
 70
     1
102
RTVSPropertyOp31
 70
     1
102
RTVSPropertyOp32
 70
     1
  0
XRECORD
  5
3DF
102
{ACAD_REACTORS
330
3DE
102
}
330
3DE
100
AcDbXrecord
280
     1
102
RTVSPropertyOp0
 70
     1
102
RTVSPropertyOp1
 70
     1
102
RTVSPropertyOp2
 70
     1
102
RTVSPropertyOp3
 70
     1
102
RTVSPropertyOp4
 70
     1
102
RTVSPropertyOp5
 70
     1
102
RTVSPropertyOp6
 70
     1
102
RTVSPropertyOp7
 70
     1
102
RTVSPropertyOp8
 70
     1
102
RTVSPropertyOp9
 70
     1
102
RTVSPropertyOp10
 70
     1
102
RTVSPropertyOp11
 70
     1
102
RTVSPropertyOp12
 70
     1
102
RTVSPropertyOp13
 70
     1
102
RTVSPropertyOp14
 70
     1
102
RTVSPropertyOp15
 70
     1
102
RTVSPropertyOp16
 70
     1
102
RTVSPropertyOp17
 70
     1
102
RTVSPropertyOp18
 70
     1
102
RTVSPropertyOp19
 70
     1
102
RTVSPropertyOp20
 70
     1
102
RTVSPropertyOp21
 70
     1
102
RTVSPropertyOp22
 70
     1
102
RTVSPropertyOp23
 70
     1
102
RTVSPropertyOp24
 70
     1
102
RTVSPropertyOp25
 70
     1
102
RTVSPropertyOp26
 70
     1
102
RTVSPropertyOp27
 70
     1
102
RTVSPropertyOp28
 70
     1
102
RTVSPropertyOp29
 70
     1
102
RTVSPropertyOp30
 70
     1
102
RTVSPropertyOp31
 70
     1
102
RTVSPropertyOp32
 70
     1
  0
ENDSEC
  0
EOF
