  0
SECTION
  2
HEADER
  9
$ACADVER
  1
AC1015
  9
$ACADMAINTVER
 70
    18
  9
$DWGCODEPAGE
  3
ANSI_932
  9
$INSBASE
 10
0.0
 20
0.0
 30
0.0
  9
$EXTMIN
 10
57.96035322168155
 20
42.82260415756018
 30
0.0
  9
$EXTMAX
 10
361.4626794493058
 20
249.1079056500212
 30
0.0
  9
$LIMMIN
 10
0.0
 20
0.0
  9
$LIMMAX
 10
420.0
 20
297.0
  9
$ORTHOMODE
 70
     0
  9
$REGENMODE
 70
     1
  9
$FILLMODE
 70
     1
  9
$QTEXTMODE
 70
     0
  9
$MIRRTEXT
 70
     0
  9
$LTSCALE
 40
5.0
  9
$ATTMODE
 70
     1
  9
$TEXTSIZE
 40
3.0
  9
$TRACEWID
 40
0.05
  9
$TEXTSTYLE
  7
STANDARD
  9
$CLAYER
  8
0
  9
$CELTYPE
  6
CONTINUOUS
  9
$CECOLOR
 62
   256
  9
$CELTSCALE
 40
1.0
  9
$DISPSILH
 70
     0
  9
$DIMSCALE
 40
1.0
  9
$DIMASZ
 40
2.0
  9
$DIMEXO
 40
1.0
  9
$DIMDLI
 40
6.0
  9
$DIMRND
 40
0.0
  9
$DIMDLE
 40
0.0
  9
$DIMEXE
 40
2.0
  9
$DIMTP
 40
495.0
  9
$DIMTM
 40
0.0
  9
$DIMTXT
 40
3.0
  9
$DIMCEN
 40
0.0
  9
$DIMTSZ
 40
0.0
  9
$DIMTOL
 70
     0
  9
$DIMLIM
 70
     0
  9
$DIMTIH
 70
     0
  9
$DIMTOH
 70
     0
  9
$DIMSE1
 70
     0
  9
$DIMSE2
 70
     0
  9
$DIMTAD
 70
     3
  9
$DIMZIN
 70
     8
  9
$DIMBLK
  1
ARROW
  9
$DIMASO
 70
     1
  9
$DIMSHO
 70
     0
  9
$DIMPOST
  1

  9
$DIMAPOST
  1

  9
$DIMALT
 70
     0
  9
$DIMALTD
 70
     2
  9
$DIMALTF
 40
25.4
  9
$DIMLFAC
 40
1.0
  9
$DIMTOFL
 70
     1
  9
$DIMTVP
 40
0.0
  9
$DIMTIX
 70
     1
  9
$DIMSOXD
 70
     0
  9
$DIMSAH
 70
     1
  9
$DIMBLK1
  1
OPEN
  9
$DIMBLK2
  1
OPEN
  9
$DIMSTYLE
  2
IMAO
  9
$DIMCLRD
 70
     0
  9
$DIMCLRE
 70
     0
  9
$DIMCLRT
 70
     0
  9
$DIMTFAC
 40
1.0
  9
$DIMGAP
 40
1.0
  9
$DIMJUST
 70
     0
  9
$DIMSD1
 70
     0
  9
$DIMSD2
 70
     0
  9
$DIMTOLJ
 70
     1
  9
$DIMTZIN
 70
     0
  9
$DIMALTZ
 70
     0
  9
$DIMALTTZ
 70
     0
  9
$DIMUPT
 70
     1
  9
$DIMDEC
 70
     4
  9
$DIMTDEC
 70
     4
  9
$DIMALTU
 70
     2
  9
$DIMALTTD
 70
     2
  9
$DIMTXSTY
  7
STANDARD
  9
$DIMAUNIT
 70
     0
  9
$DIMADEC
 70
     0
  9
$DIMALTRND
 40
0.0
  9
$DIMAZIN
 70
     0
  9
$DIMDSEP
 70
    46
  9
$DIMATFIT
 70
     3
  9
$DIMFRAC
 70
     0
  9
$DIMLDRBLK
  1
OPEN
  9
$DIMLUNIT
 70
     2
  9
$DIMLWD
 70
    -2
  9
$DIMLWE
 70
    -2
  9
$DIMTMOVE
 70
     0
  9
$LUNITS
 70
     2
  9
$LUPREC
 70
     2
  9
$SKETCHINC
 40
0.1
  9
$FILLETRAD
 40
4.0
  9
$AUNITS
 70
     0
  9
$AUPREC
 70
     2
  9
$MENU
  1
STDR12J
  9
$ELEVATION
 40
0.0
  9
$PELEVATION
 40
0.0
  9
$THICKNESS
 40
0.0
  9
$LIMCHECK
 70
     0
  9
$CHAMFERA
 40
0.0
  9
$CHAMFERB
 40
0.0
  9
$CHAMFERC
 40
0.0
  9
$CHAMFERD
 40
0.0
  9
$SKPOLY
 70
     0
  9
$TDCREATE
 40
2450690.700083218
  9
$TDUCREATE
 40
2450690.325083218
  9
$TDUPDATE
 40
2456470.483077731
  9
$TDUUPDATE
 40
2456470.108077732
  9
$TDINDWG
 40
0.2758782870
  9
$TDUSRTIMER
 40
0.2758777431
  9
$USRTIMER
 70
     1
  9
$ANGBASE
 50
0.0
  9
$ANGDIR
 70
     0
  9
$PDMODE
 70
     3
  9
$PDSIZE
 40
0.0
  9
$PLINEWID
 40
0.0
  9
$SPLFRAME
 70
     0
  9
$SPLINETYPE
 70
     6
  9
$SPLINESEGS
 70
     8
  9
$HANDSEED
  5
4F0
  9
$SURFTAB1
 70
     6
  9
$SURFTAB2
 70
     6
  9
$SURFTYPE
 70
     6
  9
$SURFU
 70
     6
  9
$SURFV
 70
     6
  9
$UCSBASE
  2

  9
$UCSNAME
  2

  9
$UCSORG
 10
0.0
 20
0.0
 30
0.0
  9
$UCSXDIR
 10
1.0
 20
0.0
 30
0.0
  9
$UCSYDIR
 10
0.0
 20
1.0
 30
0.0
  9
$UCSORTHOREF
  2

  9
$UCSORTHOVIEW
 70
     0
  9
$UCSORGTOP
 10
0.0
 20
0.0
 30
0.0
  9
$UCSORGBOTTOM
 10
0.0
 20
0.0
 30
0.0
  9
$UCSORGLEFT
 10
0.0
 20
0.0
 30
0.0
  9
$UCSORGRIGHT
 10
0.0
 20
0.0
 30
0.0
  9
$UCSORGFRONT
 10
0.0
 20
0.0
 30
0.0
  9
$UCSORGBACK
 10
0.0
 20
0.0
 30
0.0
  9
$PUCSBASE
  2

  9
$PUCSNAME
  2

  9
$PUCSORG
 10
0.0
 20
0.0
 30
0.0
  9
$PUCSXDIR
 10
1.0
 20
0.0
 30
0.0
  9
$PUCSYDIR
 10
0.0
 20
1.0
 30
0.0
  9
$PUCSORTHOREF
  2

  9
$PUCSORTHOVIEW
 70
     0
  9
$PUCSORGTOP
 10
0.0
 20
0.0
 30
0.0
  9
$PUCSORGBOTTOM
 10
0.0
 20
0.0
 30
0.0
  9
$PUCSORGLEFT
 10
0.0
 20
0.0
 30
0.0
  9
$PUCSORGRIGHT
 10
0.0
 20
0.0
 30
0.0
  9
$PUCSORGFRONT
 10
0.0
 20
0.0
 30
0.0
  9
$PUCSORGBACK
 10
0.0
 20
0.0
 30
0.0
  9
$USERI1
 70
     3
  9
$USERI2
 70
     1
  9
$USERI3
 70
     1
  9
$USERI4
 70
     1
  9
$USERI5
 70
     1
  9
$USERR1
 40
1.0
  9
$USERR2
 40
3.0
  9
$USERR3
 40
3.0
  9
$USERR4
 40
1.5
  9
$USERR5
 40
10.0
  9
$WORLDVIEW
 70
     1
  9
$SHADEDGE
 70
     3
  9
$SHADEDIF
 70
    70
  9
$TILEMODE
 70
     1
  9
$MAXACTVP
 70
    16
  9
$PINSBASE
 10
0.0
 20
0.0
 30
0.0
  9
$PLIMCHECK
 70
     0
  9
$PEXTMIN
 10
1.000000000000000E+20
 20
1.000000000000000E+20
 30
1.000000000000000E+20
  9
$PEXTMAX
 10
-1.000000000000000E+20
 20
-1.000000000000000E+20
 30
-1.000000000000000E+20
  9
$PLIMMIN
 10
0.0
 20
0.0
  9
$PLIMMAX
 10
12.0
 20
9.0
  9
$UNITMODE
 70
     0
  9
$VISRETAIN
 70
     0
  9
$PLINEGEN
 70
     0
  9
$PSLTSCALE
 70
     0
  9
$TREEDEPTH
 70
     0
  9
$CMLSTYLE
  2
STANDARD
  9
$CMLJUST
 70
     0
  9
$CMLSCALE
 40
1.0
  9
$PROXYGRAPHICS
 70
     1
  9
$MEASUREMENT
 70
     0
  9
$CELWEIGHT
370
    -1
  9
$ENDCAPS
280
     0
  9
$JOINSTYLE
280
     0
  9
$LWDISPLAY
290
     0
  9
$INSUNITS
 70
     0
  9
$HYPERLINKBASE
  1

  9
$STYLESHEET
  1

  9
$XEDIT
290
     1
  9
$CEPSNTYPE
380
     0
  9
$PSTYLEMODE
290
     1
  9
$FINGERPRINTGUID
  2
{F1469886-5EBD-433D-866F-814453990443}
  9
$VERSIONGUID
  2
{430A6B27-E8AD-4C73-8743-3F2AFCC61B8E}
  9
$EXTNAMES
290
     1
  9
$PSVPSCALE
 40
0.0
  9
$OLESTARTUP
290
     0
  0
ENDSEC
  0
SECTION
  2
CLASSES
  0
CLASS
  1
ACDBDICTIONARYWDFLT
  2
AcDbDictionaryWithDefault
  3
ObjectDBX Classes
 90
        0
280
     0
281
     0
  0
CLASS
  1
ACDBPLACEHOLDER
  2
AcDbPlaceHolder
  3
ObjectDBX Classes
 90
        0
280
     0
281
     0
  0
CLASS
  1
LAYOUT
  2
AcDbLayout
  3
ObjectDBX Classes
 90
        0
280
     0
281
     0
  0
CLASS
  1
DIMASSOC
  2
AcDbDimAssoc
  3
"AcDbDimAssoc|Product Desc:     AcDim ARX App For Dimension|Company:          Autodesk, Inc.|WEB Address:      www.autodesk.com"
 90
    32768
280
     0
281
     0
  0
CLASS
  1
DICTIONARYVAR
  2
AcDbDictionaryVar
  3
ObjectDBX Classes
 90
        0
280
     0
281
     0
  0
CLASS
  1
MATERIAL
  2
AcDbMaterial
  3
ObjectDBX Classes
 90
     1153
280
     0
281
     0
  0
CLASS
  1
VISUALSTYLE
  2
AcDbVisualStyle
  3
ObjectDBX Classes
 90
     4095
280
     0
281
     0
  0
CLASS
  1
TABLESTYLE
  2
AcDbTableStyle
  3
ObjectDBX Classes
 90
     4095
280
     0
281
     0
  0
CLASS
  1
SCALE
  2
AcDbScale
  3
ObjectDBX Classes
 90
     1153
280
     0
281
     0
  0
CLASS
  1
MLEADERSTYLE
  2
AcDbMLeaderStyle
  3
ACDB_MLEADERSTYLE_CLASS
 90
    36863
280
     0
281
     0
  0
CLASS
  1
SORTENTSTABLE
  2
AcDbSortentsTable
  3
ObjectDBX Classes
 90
        0
280
     0
281
     0
  0
CLASS
  1
CELLSTYLEMAP
  2
AcDbCellStyleMap
  3
ObjectDBX Classes
 90
     1152
280
     0
281
     0
  0
ENDSEC
  0
SECTION
  2
TABLES
  0
TABLE
  2
VPORT
  5
2B
330
0
100
AcDbSymbolTable
 70
     1
  0
VPORT
  5
2C
330
2B
100
AcDbSymbolTableRecord
100
AcDbViewportTableRecord
  2
*Active
 70
     0
 10
0.0
 20
0.0
 11
1.0
 21
1.0
 12
587.1389986945231
 22
207.0120218919021
 13
0.0
 23
0.0
 14
1.0
 24
1.0
 15
10.0
 25
10.0
 16
0.0
 26
0.0
 36
1.0
 17
0.0
 27
0.0
 37
0.0
 40
613.7488288219409
 41
2.240398293029871
 42
50.0
 43
0.0
 44
0.0
 50
0.0
 51
0.0
 71
     0
 72
   500
 73
     1
 74
     0
 75
     0
 76
     1
 77
     0
 78
     0
281
     0
 65
     1
110
0.0
120
0.0
130
0.0
111
1.0
121
0.0
131
0.0
112
0.0
122
1.0
132
0.0
 79
     0
146
0.0
1001
ACAD_NAV_VCDISPLAY
1070
     3
  0
ENDTAB
  0
TABLE
  2
LTYPE
  5
26
330
0
100
AcDbSymbolTable
 70
     2
  0
LTYPE
  5
27
330
26
100
AcDbSymbolTableRecord
100
AcDbLinetypeTableRecord
  2
BYBLOCK
 70
     0
  3

 72
    65
 73
     0
 40
0.0
  0
LTYPE
  5
28
330
26
100
AcDbSymbolTableRecord
100
AcDbLinetypeTableRecord
  2
BYLAYER
 70
     0
  3

 72
    65
 73
     0
 40
0.0
  0
LTYPE
  5
10
330
26
100
AcDbSymbolTableRecord
100
AcDbLinetypeTableRecord
  2
CONTINUOUS
 70
     0
  3
実線
 72
    65
 73
     0
 40
0.0
  0
LTYPE
  5
AA
330
26
100
AcDbSymbolTableRecord
100
AcDbLinetypeTableRecord
  2
CENTER
 70
     0
  3
____ _ ____ _ ____ _ ____ _ ____ _ ____ _ ____
 72
    65
 73
     4
 40
2.0
 49
1.25
 74
     0
 49
-0.25
 74
     0
 49
0.25
 74
     0
 49
-0.25
 74
     0
  0
ENDTAB
  0
TABLE
  2
LAYER
  5
1D
102
{ACAD_XDICTIONARY
360
1E
102
}
330
0
100
AcDbSymbolTable
 70
     1
  0
LAYER
  5
6
102
{ACAD_XDICTIONARY
360
7
102
}
330
1D
100
AcDbSymbolTableRecord
100
AcDbLayerTableRecord
  2
0
 70
     0
 62
     7
  6
CONTINUOUS
370
    -3
390
9
  0
ENDTAB
  0
TABLE
  2
STYLE
  5
23
330
0
100
AcDbSymbolTable
 70
     2
  0
STYLE
  5
24
330
23
100
AcDbSymbolTableRecord
100
AcDbTextStyleTableRecord
  2
STANDARD
 70
     0
 40
0.0
 41
1.0
 50
0.0
 71
     0
 42
3.0
  3
ROMANS.shx
  4
bigfont.shx
  0
STYLE
  5
33
330
23
100
AcDbSymbolTableRecord
100
AcDbTextStyleTableRecord
  2
K
 70
     0
 40
0.0
 41
1.0
 50
0.0
 71
     0
 42
1.0
  3
ROMANS
  4
EXTFONT
  0
ENDTAB
  0
TABLE
  2
VIEW
  5
29
330
0
100
AcDbSymbolTable
 70
     0
  0
ENDTAB
  0
TABLE
  2
UCS
  5
2A
330
0
100
AcDbSymbolTable
 70
     0
  0
ENDTAB
  0
TABLE
  2
APPID
  5
30
330
0
100
AcDbSymbolTable
 70
     2
  0
APPID
  5
22
330
30
100
AcDbSymbolTableRecord
100
AcDbRegAppTableRecord
  2
ACAD
 70
     0
  0
APPID
  5
2F
330
30
100
AcDbSymbolTableRecord
100
AcDbRegAppTableRecord
  2
ACAD_NAV_VCDISPLAY
 70
     0
  0
ENDTAB
  0
TABLE
  2
DIMSTYLE
  5
31
330
0
100
AcDbSymbolTable
 70
     1
100
AcDbDimStyleTable
 71
     1
340
32
  0
DIMSTYLE
105
32
330
31
100
AcDbSymbolTableRecord
100
AcDbDimStyleTableRecord
  2
IMAO
 70
     0
 41
1.5
 42
1.0
 43
6.0
 44
1.0
 47
495.0
 73
     0
 74
     0
 77
     1
 78
     8
140
3.0
141
0.0
172
     1
174
     1
271
     2
272
     2
279
     2
284
     8
285
     8
286
     8
340
33
341
34
342
34
  0
ENDTAB
  0
TABLE
  2
BLOCK_RECORD
  5
1
330
0
100
AcDbSymbolTable
 70
     2
  0
BLOCK_RECORD
  5
2
102
{ACAD_XDICTIONARY
360
3
102
}
330
1
100
AcDbSymbolTableRecord
100
AcDbBlockTableRecord
  2
*MODEL_SPACE
340
15
  0
BLOCK_RECORD
  5
19
330
1
100
AcDbSymbolTableRecord
100
AcDbBlockTableRecord
  2
*PAPER_SPACE
340
1C
  0
BLOCK_RECORD
  5
34
330
1
100
AcDbSymbolTableRecord
100
AcDbBlockTableRecord
  2
ARROW
340
0
  0
BLOCK_RECORD
  5
45
330
1
100
AcDbSymbolTableRecord
100
AcDbBlockTableRecord
  2
_OPEN
340
0
  0
ENDTAB
  0
ENDSEC
  0
SECTION
  2
BLOCKS
  0
BLOCK
  5
5
330
2
100
AcDbEntity
  8
0
100
AcDbBlockBegin
  2
*MODEL_SPACE
 70
     0
 10
0.0
 20
0.0
 30
0.0
  3
*MODEL_SPACE
  1

  0
ENDBLK
  5
14
330
2
100
AcDbEntity
  8
0
100
AcDbBlockEnd
  0
BLOCK
  5
1A
330
19
100
AcDbEntity
 67
     1
  8
0
100
AcDbBlockBegin
  2
*PAPER_SPACE
 70
     0
 10
0.0
 20
0.0
 30
0.0
  3
*PAPER_SPACE
  1

  0
ENDBLK
  5
1B
330
19
100
AcDbEntity
 67
     1
  8
0
100
AcDbBlockEnd
  0
BLOCK
  5
35
330
34
100
AcDbEntity
  8
0
100
AcDbBlockBegin
  2
ARROW
 70
     0
 10
1.0
 20
0.5
 30
0.0
  3
ARROW
  1

  0
LINE
  5
36
330
34
100
AcDbEntity
  8
0
100
AcDbLine
 10
1.0
 20
0.5
 30
0.0
 11
-0.5000000000000214
 21
0.0980762113533018
 31
0.0
  0
LINE
  5
37
330
34
100
AcDbEntity
  8
0
100
AcDbLine
 10
0.0
 20
0.5
 30
0.0
 11
1.0
 21
0.5
 31
0.0
  0
LINE
  5
38
330
34
100
AcDbEntity
  8
0
100
AcDbLine
 10
1.0
 20
0.5
 30
0.0
 11
-0.4999999999999575
 21
0.9019237886467408
 31
0.0
  0
ENDBLK
  5
39
330
34
100
AcDbEntity
  8
0
100
AcDbBlockEnd
  0
BLOCK
  5
46
330
45
100
AcDbEntity
  8
0
100
AcDbBlockBegin
  2
_OPEN
 70
     0
 10
0.0
 20
0.0
 30
0.0
  3
_OPEN
  1

  0
LINE
  5
47
330
45
100
AcDbEntity
  8
0
  6
ByBlock
 62
     0
100
AcDbLine
 10
-1.0
 20
0.1666666666666666
 30
0.0
 11
0.0
 21
0.0
 31
0.0
  0
LINE
  5
48
330
45
100
AcDbEntity
  8
0
  6
ByBlock
 62
     0
100
AcDbLine
 10
0.0
 20
0.0
 30
0.0
 11
-1.0
 21
-0.1666666666666666
 31
0.0
  0
LINE
  5
49
330
45
100
AcDbEntity
  8
0
  6
ByBlock
 62
     0
100
AcDbLine
 10
0.0
 20
0.0
 30
0.0
 11
-1.0
 21
0.0
 31
0.0
  0
ENDBLK
  5
4A
330
45
100
AcDbEntity
  8
0
100
AcDbBlockEnd
  0
ENDSEC
  0
SECTION
  2
ENTITIES
  0
LINE
  5
61
330
2
100
AcDbEntity
  8
0
  6
Continuous
 62
     7
 48
2.0
100
AcDbLine
 10
361.4626794493058
 20
237.827268060635
 30
0.0
 11
357.4637005642959
 21
237.8246519424461
 31
0.0
  0
ARC
  5
62
330
2
100
AcDbEntity
  8
0
  6
Continuous
 62
     7
 48
2.0
100
AcDbCircle
 10
355.2628060513234
 20
221.3255088110353
 30
0.0
 40
1.999937879678725
100
AcDbArc
 50
0.0017435558842798
 51
90.00380809175664
  0
LINE
  5
63
330
2
100
AcDbEntity
  8
0
  6
Continuous
 62
     7
 48
2.0
100
AcDbLine
 10
353.463752746623
 20
245.8246444710576
 30
0.0
 11
353.462590027428
 21
241.8265376254439
 31
0.0
  0
ARC
  5
64
330
2
100
AcDbEntity
  8
0
  6
Continuous
 62
     7
 48
2.0
100
AcDbCircle
 10
351.1687911121635
 20
240.0247627064802
 30
0.0
 40
0.9998862487766302
100
AcDbArc
 50
359.9914531536314
 51
90.00299519872788
  0
ARC
  5
65
330
2
100
AcDbEntity
  8
0
  6
Continuous
 62
     7
 48
2.0
100
AcDbCircle
 10
351.1687911121635
 20
226.6245132487489
 30
0.0
 40
0.9998862487766395
100
AcDbArc
 50
269.9970048012721
 51
0.0085468463685966
  0
CIRCLE
  5
66
330
2
100
AcDbEntity
  8
0
  6
Continuous
 62
     7
 48
2.0
100
AcDbCircle
 10
345.9663455900928
 20
227.8245886117319
 30
0.0
 40
1.699895463234558
  0
LINE
  5
67
330
2
100
AcDbEntity
  8
0
  6
Continuous
 62
     7
 48
2.0
100
AcDbLine
 10
339.0625065826609
 20
215.8245513721814
 30
0.0
 11
339.0590184250755
 21
221.3242131649991
 31
0.0
  0
ARC
  5
68
330
2
100
AcDbEntity
  8
0
  6
Continuous
 62
     7
 48
2.0
100
AcDbCircle
 10
341.0587909900112
 20
221.3256735908174
 30
0.0
 40
1.999773098207185
100
AcDbArc
 50
89.99700737022354
 51
180.0418428686699
  0
LINE
  5
69
330
2
100
AcDbEntity
  8
0
  6
Continuous
 62
     7
 48
2.0
100
AcDbLine
 10
352.1686773498154
 20
226.6246624023898
 30
0.0
 11
352.1686773498154
 21
240.0246135528393
 31
0.0
  0
ARC
  5
6A
330
2
100
AcDbEntity
  8
0
  6
Continuous
 62
     7
 48
2.0
100
AcDbCircle
 10
357.462631656286
 20
241.8246938534174
 30
0.0
 40
4.000042053790497
100
AcDbArc
 50
179.9735901878493
 51
270.015310818623
  0
LINE
  5
6B
330
2
100
AcDbEntity
  8
0
  6
Continuous
 62
     7
 48
2.0
100
AcDbLine
 10
355.2626731279736
 20
223.3254466862968
 30
0.0
 11
341.0588954406455
 21
223.3254466862968
 31
0.0
  0
ARC
  5
6C
330
2
100
AcDbEntity
  8
0
  6
Continuous
 62
     7
 48
2.0
100
AcDbCircle
 10
355.262640646125
 20
176.0247058097162
 30
0.0
 40
2.000103288135683
100
AcDbArc
 50
270.000930488363
 51
272.8668032126957
  0
LINE
  5
6D
330
2
100
AcDbEntity
  8
0
  6
Continuous
 62
     7
 48
2.0
100
AcDbLine
 10
357.2627439300762
 20
176.0245764306805
 30
0.0
 11
357.2627439300762
 21
221.3255696707268
 31
0.0
  0
LINE
  5
6E
330
2
100
AcDbEntity
  8
0
  6
Continuous
 62
     7
 48
2.0
100
AcDbLine
 10
361.4626794493058
 20
148.8267334852589
 30
0.0
 11
357.4637005642959
 21
148.8246018334013
 31
0.0
  0
LINE
  5
6F
330
2
100
AcDbEntity
  8
0
  6
Continuous
 62
     7
 48
2.0
100
AcDbLine
 10
353.4639465331554
 20
140.824706198056
 30
0.0
 11
353.4627838139603
 21
144.8262043079887
 31
0.0
  0
ARC
  5
70
330
2
100
AcDbEntity
  8
0
  6
Continuous
 62
     7
 48
2.0
100
AcDbCircle
 10
357.4627966746975
 20
144.8243947773815
 30
0.0
 40
4.000207056548561
100
AcDbArc
 50
90.00093162504503
 51
179.9740817240798
  0
LINE
  5
71
330
2
100
AcDbEntity
  8
0
  6
Continuous
 62
     7
 48
2.0
100
AcDbLine
 10
361.4626794493058
 20
241.8244575068052
 30
0.0
 11
361.4626794493058
 21
144.824457506805
 31
0.0
  0
ARC
  5
72
330
2
100
AcDbEntity
  8
0
  6
Continuous
 48
2.0
100
AcDbCircle
 10
357.4626794493058
 20
241.8244575068052
 30
0.0
 40
4.0
100
AcDbArc
 50
0.0
 51
90.0
  0
ARC
  5
73
330
2
100
AcDbEntity
  8
0
  6
Continuous
 62
     7
 48
2.0
100
AcDbCircle
 10
357.4626794493058
 20
144.824457506805
 30
0.0
 40
4.0
100
AcDbArc
 50
270.0
 51
0.0
  0
ARC
  5
74
330
2
100
AcDbEntity
  8
0
  6
Continuous
 62
     7
 48
2.0
100
AcDbCircle
 10
299.4625230754205
 20
241.8246934589189
 30
0.0
 40
4.000041713625058
100
AcDbArc
 50
270.0179889651264
 51
0.0347427422968129
  0
LINE
  5
75
330
2
100
AcDbEntity
  8
0
  6
Continuous
 62
     7
 48
2.0
100
AcDbLine
 10
295.4626684183106
 20
237.8266867010375
 30
0.0
 11
299.4637789551784
 21
237.8246519424461
 31
0.0
  0
LINE
  5
76
330
2
100
AcDbEntity
  8
0
  6
Continuous
 62
     7
 48
2.0
100
AcDbLine
 10
303.463726772851
 20
245.8244506845251
 30
0.0
 11
303.462564053656
 21
241.8271189850413
 31
0.0
  0
ARC
  5
77
330
2
100
AcDbEntity
  8
0
  6
Continuous
 62
     7
 48
2.0
100
AcDbCircle
 10
305.7687653070015
 20
240.0247627064802
 30
0.0
 40
0.9998862487766302
100
AcDbArc
 50
89.99700480127213
 51
180.0085468463686
  0
ARC
  5
78
330
2
100
AcDbEntity
  8
0
  6
Continuous
 62
     7
 48
2.0
100
AcDbCircle
 10
315.8627096196704
 20
221.3255088110353
 30
0.0
 40
1.999937879678725
100
AcDbArc
 50
0.0017435558842798
 51
90.00380809175664
  0
LINE
  5
79
330
2
100
AcDbEntity
  8
0
  6
Continuous
 62
     7
 48
2.0
100
AcDbLine
 10
317.8626474984231
 20
215.8245513721814
 30
0.0
 11
317.8626474984231
 21
221.3255696707268
 31
0.0
  0
ARC
  5
7A
330
2
100
AcDbEntity
  8
0
  6
Continuous
 62
     7
 48
2.0
100
AcDbCircle
 10
301.662541816293
 20
221.3255088110353
 30
0.0
 40
1.999937879678725
100
AcDbArc
 50
89.99619190824335
 51
179.9982564441156
  0
ARC
  5
7B
330
2
100
AcDbEntity
  8
0
  6
Continuous
 62
     7
 48
2.0
100
AcDbCircle
 10
305.7687653070015
 20
226.6245132487489
 30
0.0
 40
0.9998862487766302
100
AcDbArc
 50
179.9914531536314
 51
270.0029951987279
  0
LINE
  5
7C
330
2
100
AcDbEntity
  8
0
  6
Continuous
 62
     7
 48
2.0
100
AcDbLine
 10
315.8625766963205
 20
223.3254466862968
 30
0.0
 11
301.6626747396429
 21
223.3254466862968
 31
0.0
  0
LINE
  5
7D
330
2
100
AcDbEntity
  8
0
  6
Continuous
 62
     7
 48
2.0
100
AcDbLine
 10
304.7688790693496
 20
240.0246135528393
 30
0.0
 11
304.7688790693496
 21
226.6246624023898
 31
0.0
  0
ARC
  5
7E
330
2
100
AcDbEntity
  8
0
  6
Continuous
 62
     7
 48
2.0
100
AcDbCircle
 10
301.6627072214915
 20
176.0247058097162
 30
0.0
 40
2.000103288135762
100
AcDbArc
 50
180.003706244948
 51
192.1097095661432
  0
LINE
  5
7F
330
2
100
AcDbEntity
  8
0
  6
Continuous
 62
     7
 48
2.0
100
AcDbLine
 10
299.6626039375403
 20
176.0245764306805
 30
0.0
 11
299.6626039375403
 21
221.3255696707268
 31
0.0
  0
LINE
  5
80
330
2
100
AcDbEntity
  8
0
  6
Continuous
 62
     7
 48
2.0
100
AcDbLine
 10
227.8605776829684
 20
244.213482044289
 30
0.0
 11
227.8609652560333
 21
245.8135774432776
 31
0.0
  0
LINE
  5
81
330
2
100
AcDbEntity
  8
0
  6
Continuous
 62
     7
 48
2.0
100
AcDbLine
 10
227.8605776829684
 20
244.213482044289
 30
0.0
 11
227.3625770405419
 21
244.2135787622232
 31
0.0
  0
LINE
  5
82
330
2
100
AcDbEntity
  8
0
  6
Continuous
 62
     7
 48
2.0
100
AcDbLine
 10
227.8609652560333
 20
245.8135774432776
 30
0.0
 11
243.9338253645621
 21
245.5358108183919
 31
0.0
  0
ARC
  5
83
330
2
100
AcDbEntity
  8
0
  6
Continuous
 62
     7
 48
2.0
100
AcDbCircle
 10
299.4626881942336
 20
144.8247261220534
 30
0.0
 40
3.999875860072322
100
AcDbArc
 50
359.9989671209215
 51
89.98437551525093
  0
LINE
  5
84
330
2
100
AcDbEntity
  8
0
  6
Continuous
 62
     7
 48
2.0
100
AcDbLine
 10
303.4639205593835
 20
140.8245124115234
 30
0.0
 11
303.462564053656
 21
144.8263980945212
 31
0.0
  0
LINE
  5
85
330
2
100
AcDbEntity
  8
0
  6
Continuous
 62
     7
 48
2.0
100
AcDbLine
 10
295.4626684183106
 20
148.8265396987264
 30
0.0
 11
299.4637789551784
 21
148.8246018334013
 31
0.0
  0
LINE
  5
86
330
2
100
AcDbEntity
  8
0
  6
Continuous
 62
     7
 48
2.0
100
AcDbLine
 10
227.8607714695009
 20
142.4339852619124
 30
0.0
 11
227.8609663865768
 21
140.824457506805
 31
0.0
  0
LINE
  5
87
330
2
100
AcDbEntity
  8
0
  6
Continuous
 62
     7
 48
2.0
100
AcDbLine
 10
227.8607714695009
 20
142.4339852619124
 30
0.0
 11
227.3625770405419
 21
142.4339852619124
 31
0.0
  0
ARC
  5
88
330
2
100
AcDbEntity
  8
0
  6
Continuous
 48
2.0
100
AcDbCircle
 10
243.8647088156167
 20
145.1128873068229
 30
0.0
 40
4.0
100
AcDbArc
 50
270.9969305158099
 51
0.0000000000000127
  0
LINE
  5
89
330
2
100
AcDbEntity
  8
0
  6
Continuous
 62
     7
100
AcDbLine
 10
227.862577040542
 20
108.8244575068052
 30
0.0
 11
227.8625770405418
 21
107.3244575068051
 31
0.0
  0
LINE
  5
8A
330
2
100
AcDbEntity
  8
0
  6
Continuous
 62
     7
100
AcDbLine
 10
227.3623876523918
 20
107.3244575068051
 30
0.0
 11
227.8625770405418
 21
107.3244575068051
 31
0.0
  0
LINE
  5
8B
330
2
100
AcDbEntity
  8
0
  6
Continuous
 62
     7
100
AcDbLine
 10
227.862577040542
 20
108.8244575068052
 30
0.0
 11
243.9345184413657
 21
108.5439207261313
 31
0.0
  0
LINE
  5
8C
330
2
100
AcDbEntity
  8
0
  6
Continuous
 62
     7
100
AcDbLine
 10
227.3625770405419
 20
245.8258105061811
 30
0.0
 11
227.3625770405418
 21
135.8244575068052
 31
0.0
  0
LINE
  5
8D
330
2
100
AcDbEntity
  8
0
  6
Continuous
 62
     7
 48
2.0
100
AcDbLine
 10
295.4626684183106
 20
241.8244575068052
 30
0.0
 11
295.4626684183106
 21
144.824457506805
 31
0.0
  0
LINE
  5
8E
330
2
100
AcDbEntity
  8
0
  6
Continuous
 62
     7
100
AcDbLine
 10
102.8647088156166
 20
234.8244575068052
 30
0.0
 11
101.8647088156166
 21
235.8244575068052
 31
0.0
  0
LINE
  5
8F
330
2
100
AcDbEntity
  8
0
  6
Continuous
 62
     7
100
AcDbLine
 10
102.8647088156166
 20
234.8244575068052
 30
0.0
 11
107.7668405906913
 21
234.8244575068052
 31
0.0
  0
LINE
  5
90
330
2
100
AcDbEntity
  8
0
  6
Continuous
 62
     7
100
AcDbLine
 10
88.36470881561661
 20
195.8244575068052
 30
0.0
 11
88.36470881561661
 21
235.8244575068052
 31
0.0
  0
LINE
  5
91
330
2
100
AcDbEntity
  8
0
  6
Continuous
 62
     7
100
AcDbLine
 10
88.36470881561661
 20
235.8244575068052
 30
0.0
 11
89.36470881561659
 21
235.8244575068052
 31
0.0
  0
LINE
  5
92
330
2
100
AcDbEntity
  8
0
  6
Continuous
 62
     7
100
AcDbLine
 10
87.8647088156166
 20
235.8244575068052
 30
0.0
 11
88.36470881561661
 21
235.3244575068052
 31
0.0
  0
LINE
  5
93
330
2
100
AcDbEntity
  8
0
  6
Continuous
 62
     7
100
AcDbLine
 10
89.36470881561659
 20
235.8244575068052
 30
0.0
 11
90.3647088156166
 21
234.8244575068052
 31
0.0
  0
LINE
  5
94
330
2
100
AcDbEntity
  8
0
  6
Continuous
 62
     7
100
AcDbLine
 10
90.3647088156166
 20
234.8244575068052
 30
0.0
 11
91.3647088156166
 21
235.8244575068052
 31
0.0
  0
LINE
  5
95
330
2
100
AcDbEntity
  8
0
  6
Continuous
 62
     7
100
AcDbLine
 10
101.8647088156166
 20
235.8244575068052
 30
0.0
 11
91.3647088156166
 21
235.8244575068052
 31
0.0
  0
LINE
  5
96
330
2
100
AcDbEntity
  8
0
  6
Continuous
 62
     7
100
AcDbLine
 10
102.8647088156166
 20
196.8244575068052
 30
0.0
 11
101.8647088156166
 21
195.8244575068052
 31
0.0
  0
LINE
  5
97
330
2
100
AcDbEntity
  8
0
  6
Continuous
 62
     7
100
AcDbLine
 10
102.8647088156166
 20
196.8244575068052
 30
0.0
 11
107.7668405906913
 21
196.8244575068052
 31
0.0
  0
LINE
  5
98
330
2
100
AcDbEntity
  8
0
  6
Continuous
 62
     7
100
AcDbLine
 10
88.36470881561661
 20
195.8244575068052
 30
0.0
 11
89.36470881561659
 21
195.8244575068052
 31
0.0
  0
LINE
  5
99
330
2
100
AcDbEntity
  8
0
  6
Continuous
 62
     7
100
AcDbLine
 10
87.8647088156166
 20
195.8244575068052
 30
0.0
 11
88.36470881561661
 21
196.3244575068052
 31
0.0
  0
LINE
  5
9A
330
2
100
AcDbEntity
  8
0
  6
Continuous
 62
     7
100
AcDbLine
 10
89.36470881561659
 20
195.8244575068052
 30
0.0
 11
90.3647088156166
 21
196.8244575068052
 31
0.0
  0
LINE
  5
9B
330
2
100
AcDbEntity
  8
0
  6
Continuous
 62
     7
100
AcDbLine
 10
91.3647088156166
 20
195.8244575068052
 30
0.0
 11
90.3647088156166
 21
196.8244575068052
 31
0.0
  0
LINE
  5
9C
330
2
100
AcDbEntity
  8
0
  6
Continuous
 62
     7
100
AcDbLine
 10
90.3647088156166
 20
234.8244575068052
 30
0.0
 11
90.3647088156166
 21
196.8244575068052
 31
0.0
  0
LINE
  5
9D
330
2
100
AcDbEntity
  8
0
  6
Continuous
 62
     7
100
AcDbLine
 10
91.3647088156166
 20
195.8244575068052
 30
0.0
 11
101.8647088156166
 21
195.8244575068052
 31
0.0
  0
LINE
  5
9E
330
2
100
AcDbEntity
  8
0
  6
Continuous
 62
     7
100
AcDbLine
 10
129.6422014109079
 20
142.5498387759794
 30
0.0
 11
136.3662246442865
 21
135.8244575068052
 31
0.0
  0
ARC
  5
9F
330
2
100
AcDbEntity
  8
0
  6
Continuous
 62
     7
100
AcDbCircle
 10
137.8558262138782
 20
95.82565100932631
 30
0.0
 40
1.99988805822308
100
AcDbArc
 50
89.99700440580573
 51
180.0029955941963
  0
ARC
  5
A0
330
2
100
AcDbEntity
  8
0
  6
Continuous
 62
     7
100
AcDbCircle
 10
131.1411184981947
 20
98.87590762906256
 30
0.0
 40
2.000271825383169
100
AcDbArc
 50
91.4625556225584
 51
179.9995659170735
  0
LINE
  5
A1
330
2
100
AcDbEntity
  8
0
  6
Continuous
 62
     7
100
AcDbLine
 10
78.86470881561661
 20
195.8244575068052
 30
0.0
 11
87.8647088156166
 21
195.8244575068052
 31
0.0
  0
LINE
  5
A2
330
2
100
AcDbEntity
  8
0
  6
Continuous
 62
     7
100
AcDbLine
 10
87.8647088156166
 20
235.8244575068052
 30
0.0
 11
78.86470881561661
 21
235.8244575068052
 31
0.0
  0
LINE
  5
A3
330
2
100
AcDbEntity
  8
0
  6
Continuous
 62
     7
100
AcDbLine
 10
227.3623832428077
 20
103.326293948654
 30
0.0
 11
131.0900642821433
 21
100.8755278036069
 31
0.0
  0
LINE
  5
A4
330
2
100
AcDbEntity
  8
0
  6
Continuous
 62
     7
100
AcDbLine
 10
137.8450781008811
 20
97.83639173792405
 30
0.0
 11
227.3623832428077
 21
98.32592481418442
 31
0.0
  0
LINE
  5
A5
330
2
100
AcDbEntity
  8
0
  6
Continuous
 62
     7
100
AcDbLine
 10
227.3647088156166
 20
108.8263108489319
 30
0.0
 11
111.7949046214232
 21
106.8091894156608
 31
0.0
  0
ARC
  5
A6
330
2
100
AcDbEntity
  8
0
  6
Continuous
100
AcDbCircle
 10
111.8647088156166
 20
102.8097985402308
 30
0.0
 40
4.0
100
AcDbArc
 50
90.99992218684393
 51
180.0
  0
LINE
  5
A7
330
2
100
AcDbEntity
  8
0
  6
Continuous
 62
     7
100
AcDbLine
 10
227.3625770405419
 20
245.8258105061811
 30
0.0
 11
111.7916136254141
 21
243.7135374111081
 31
0.0
  0
ARC
  5
A8
330
2
100
AcDbEntity
  8
0
  6
Continuous
100
AcDbCircle
 10
111.8647088156166
 20
239.7142053302264
 30
0.0
 40
4.0
100
AcDbArc
 50
91.04706975580105
 51
180.0
  0
LINE
  5
A9
330
2
100
AcDbEntity
  8
0
  6
CENTER
 62
     4
 48
2.0
100
AcDbLine
 10
57.96035322168155
 20
215.8244575068052
 30
0.0
 11
276.980073804912
 21
215.8244575068052
 31
0.0
  0
ARC
  5
AB
330
2
100
AcDbEntity
  8
0
  6
Continuous
100
AcDbCircle
 10
111.8647088156166
 20
146.8611307088449
 30
0.0
 40
4.0
100
AcDbArc
 50
180.0
 51
268.9997532084412
  0
LINE
  5
AC
330
2
100
AcDbEntity
  8
0
  6
Continuous
 62
     7
100
AcDbLine
 10
227.862577040542
 20
42.82445750680517
 30
0.0
 11
227.8625770405418
 21
44.32445750680517
 31
0.0
  0
LINE
  5
AD
330
2
100
AcDbEntity
  8
0
  6
Continuous
 62
     7
100
AcDbLine
 10
227.3625726309579
 20
44.32445750680517
 30
0.0
 11
227.8625770405418
 21
44.32445750680517
 31
0.0
  0
LINE
  5
AE
330
2
100
AcDbEntity
  8
0
  6
Continuous
 62
     7
100
AcDbLine
 10
227.862577040542
 20
42.82445750680517
 30
0.0
 11
243.9345184413657
 21
43.10499428747902
 31
0.0
  0
ARC
  5
AF
330
2
100
AcDbEntity
  8
0
  6
Continuous
100
AcDbCircle
 10
243.8647088156166
 20
47.10438506810458
 30
0.0
 40
4.0
100
AcDbArc
 50
270.9999999999998
 51
0.0
  0
CIRCLE
  5
B0
330
2
100
AcDbEntity
  8
0
  6
Continuous
 62
     7
100
AcDbCircle
 10
177.8647088156166
 20
75.82445750324608
 30
0.0
 40
2.175185767199706
  0
CIRCLE
  5
B1
330
2
100
AcDbEntity
  8
0
  6
Continuous
 62
     7
100
AcDbCircle
 10
177.8647088156166
 20
75.82445750324608
 30
0.0
 40
3.175182074999998
  0
ARC
  5
B2
330
2
100
AcDbEntity
  8
0
  6
Continuous
 62
     7
100
AcDbCircle
 10
137.8539204711443
 20
55.81241451300991
 30
0.0
 40
1.999920292666059
100
AcDbArc
 50
179.9970956105426
 51
269.691151985965
  0
LINE
  5
B3
330
2
100
AcDbEntity
  8
0
  6
CENTER
 62
     4
 48
2.0
100
AcDbLine
 10
61.82311581656986
 20
75.82445750680517
 30
0.0
 11
271.9603532216815
 21
75.82445750680517
 31
0.0
  0
ARC
  5
B4
330
2
100
AcDbEntity
  8
0
  6
Continuous
 62
     7
100
AcDbCircle
 10
131.1426313661155
 20
52.77334864447151
 30
0.0
 40
2.000621938590096
100
AcDbArc
 50
180.0102073444787
 51
268.5276711158877
  0
LINE
  5
B5
330
2
100
AcDbEntity
  8
0
  6
Continuous
 62
     7
100
AcDbLine
 10
227.362577040542
 20
48.32300866042466
 30
0.0
 11
131.0912270685477
 21
50.77338721000342
 31
0.0
  0
LINE
  5
B6
330
2
100
AcDbEntity
  8
0
  6
Continuous
 62
     7
100
AcDbLine
 10
227.362577040542
 20
53.32337779489421
 30
0.0
 11
137.8431401235403
 21
53.81252327568642
 31
0.0
  0
LINE
  5
B7
330
2
100
AcDbEntity
  8
0
  6
Continuous
 62
     7
100
AcDbLine
 10
227.3647088156166
 20
42.82260415756018
 30
0.0
 11
111.7948912709488
 21
44.84011172812552
 31
0.0
  0
ARC
  5
B8
330
2
100
AcDbEntity
  8
0
  6
Continuous
100
AcDbCircle
 10
111.8647088156166
 20
48.83950237051799
 30
0.0
 40
4.0
100
AcDbArc
 50
180.0
 51
268.9998865525649
  0
LINE
  5
B9
330
2
100
AcDbEntity
  8
0
  6
Continuous
 62
     7
100
AcDbLine
 10
129.1408466728691
 20
98.87592278347462
 30
0.0
 11
129.1420094592734
 21
52.77299223013596
 31
0.0
  0
LINE
  5
BA
330
2
100
AcDbEntity
  8
0
  6
Continuous
 62
     7
100
AcDbLine
 10
135.8559381583883
 20
95.82554644921549
 30
0.0
 11
135.8540001810478
 21
55.81251589128704
 31
0.0
  0
CIRCLE
  5
BB
330
2
100
AcDbEntity
  8
0
  6
Continuous
 62
     7
100
AcDbCircle
 10
212.8647088156166
 20
90.82445750324607
 30
0.0
 40
2.000380211068724
  0
CIRCLE
  5
BC
330
2
100
AcDbEntity
  8
0
  6
Continuous
 62
     7
100
AcDbCircle
 10
212.8647088156166
 20
90.82445750324607
 30
0.0
 40
1.500188259434509
  0
ARC
  5
BD
330
2
100
AcDbEntity
  8
0
  6
Continuous
 62
     7
 48
2.0
100
AcDbCircle
 10
328.4625770405419
 20
215.8245543983249
 30
0.0
 40
10.59992954211934
100
AcDbArc
 50
180.0000163572084
 51
359.9999836427916
  0
LINE
  5
BE
330
2
100
AcDbEntity
  8
0
  6
Continuous
 62
     7
 48
2.0
100
AcDbLine
 10
355.2626731279736
 20
174.0246025218441
 30
0.0
 11
301.6626747396429
 21
174.0246025218441
 31
0.0
  0
LINE
  5
BF
330
2
100
AcDbEntity
  8
0
  6
Continuous
 62
     7
 48
2.0
100
AcDbLine
 10
305.7688175771346
 20
241.0246489538906
 30
0.0
 11
351.1687388420303
 21
241.0246489538906
 31
0.0
  0
LINE
  5
C0
330
2
100
AcDbEntity
  8
0
  6
Continuous
 62
     7
 48
2.0
100
AcDbLine
 10
305.7688175771346
 20
225.6246270013384
 30
0.0
 11
351.1687388420303
 21
225.6246270013384
 31
0.0
  0
LINE
  5
C1
330
2
100
AcDbEntity
  8
0
  6
CENTER
 62
     4
 48
2.0
100
AcDbLine
 10
318.4614453531371
 20
215.8244575068051
 30
0.0
 11
338.4636691719975
 21
215.8244575068052
 31
0.0
  0
LINE
  5
C2
330
2
100
AcDbEntity
  8
0
  6
Continuous
 62
     7
100
AcDbLine
 10
78.86470881561661
 20
235.8244575068052
 30
0.0
 11
77.86470881561661
 21
234.8244575068052
 31
0.0
  0
LINE
  5
C3
330
2
100
AcDbEntity
  8
0
  6
Continuous
 62
     7
100
AcDbLine
 10
77.86470881561661
 20
234.8244575068052
 30
0.0
 11
77.86470881561661
 21
196.8244575068052
 31
0.0
  0
LINE
  5
C4
330
2
100
AcDbEntity
  8
0
  6
Continuous
 62
     7
100
AcDbLine
 10
78.86470881561661
 20
195.8244575068052
 30
0.0
 11
77.86470881561661
 21
196.8244575068052
 31
0.0
  0
LINE
  5
C5
330
2
100
AcDbEntity
  8
0
  6
Continuous
 62
     7
100
AcDbLine
 10
78.86470881561661
 20
235.8244575068052
 30
0.0
 11
78.86470881561661
 21
195.8244575068052
 31
0.0
  0
LINE
  5
C6
330
2
100
AcDbEntity
  8
0
  6
Continuous
 62
     7
100
AcDbLine
 10
87.8647088156166
 20
235.8244575068052
 30
0.0
 11
87.8647088156166
 21
195.8244575068052
 31
0.0
  0
LINE
  5
C7
330
2
100
AcDbEntity
  8
0
  6
Continuous
 62
     7
100
AcDbLine
 10
89.36470881561659
 20
235.8244575068052
 30
0.0
 11
89.36470881561659
 21
195.8244575068052
 31
0.0
  0
LINE
  5
C8
330
2
100
AcDbEntity
  8
0
  6
Continuous
 62
     7
100
AcDbLine
 10
91.3647088156166
 20
235.8244575068052
 30
0.0
 11
91.3647088156166
 21
195.8244575068052
 31
0.0
  0
LINE
  5
C9
330
2
100
AcDbEntity
  8
0
  6
Continuous
 62
     7
100
AcDbLine
 10
101.8647088156166
 20
235.8244575068052
 30
0.0
 11
101.8647088156166
 21
195.8244575068052
 31
0.0
  0
LINE
  5
CA
330
2
100
AcDbEntity
  8
0
  6
Continuous
 62
     7
100
AcDbLine
 10
102.8647088156166
 20
234.8244575068052
 30
0.0
 11
102.8647088156166
 21
196.8244575068052
 31
0.0
  0
LINE
  5
CB
330
2
100
AcDbEntity
  8
0
  6
Continuous
 62
     7
 48
2.0
100
AcDbLine
 10
227.8605776829684
 20
244.213482044289
 30
0.0
 11
227.8607714695009
 21
142.4339852619124
 31
0.0
  0
LINE
  5
CC
330
2
100
AcDbEntity
  8
0
  6
Continuous
 62
     7
100
AcDbLine
 10
102.8647088156166
 20
56.82445750680523
 30
0.0
 11
107.7668405906913
 21
56.82445750680523
 31
0.0
  0
LINE
  5
CD
330
2
100
AcDbEntity
  8
0
  6
Continuous
 62
     7
100
AcDbLine
 10
102.8647088156166
 20
94.82445750680524
 30
0.0
 11
107.7668405906913
 21
94.82445750680524
 31
0.0
  0
LINE
  5
CE
330
2
100
AcDbEntity
  8
0
  6
Continuous
 62
     7
100
AcDbLine
 10
102.8647088156166
 20
94.82445750680524
 30
0.0
 11
102.8647088156166
 21
56.82445750680523
 31
0.0
  0
LINE
  5
CF
330
2
100
AcDbEntity
  8
0
  6
Continuous
 62
     7
100
AcDbLine
 10
101.8647088156166
 20
95.82445750680523
 30
0.0
 11
101.8647088156166
 21
55.82445750680523
 31
0.0
  0
LINE
  5
D0
330
2
100
AcDbEntity
  8
0
  6
Continuous
 62
     7
100
AcDbLine
 10
91.3647088156166
 20
95.82445750680523
 30
0.0
 11
91.3647088156166
 21
55.82445750680523
 31
0.0
  0
LINE
  5
D1
330
2
100
AcDbEntity
  8
0
  6
Continuous
 62
     7
100
AcDbLine
 10
89.36470881561659
 20
95.82445750680523
 30
0.0
 11
89.36470881561659
 21
55.82445750680523
 31
0.0
  0
LINE
  5
D2
330
2
100
AcDbEntity
  8
0
  6
Continuous
 62
     7
100
AcDbLine
 10
87.8647088156166
 20
95.82445750680523
 30
0.0
 11
87.8647088156166
 21
55.82445750680523
 31
0.0
  0
LINE
  5
D3
330
2
100
AcDbEntity
  8
0
  6
Continuous
 62
     7
100
AcDbLine
 10
90.3647088156166
 20
94.82445750680524
 30
0.0
 11
90.3647088156166
 21
56.82445750680523
 31
0.0
  0
LINE
  5
D4
330
2
100
AcDbEntity
  8
0
  6
Continuous
 62
     7
100
AcDbLine
 10
90.3647088156166
 20
94.82445750680524
 30
0.0
 11
91.3647088156166
 21
95.82445750680523
 31
0.0
  0
LINE
  5
D5
330
2
100
AcDbEntity
  8
0
  6
Continuous
 62
     7
100
AcDbLine
 10
78.86470881561661
 20
95.82445750680523
 30
0.0
 11
78.86470881561661
 21
55.82445750680523
 31
0.0
  0
LINE
  5
D6
330
2
100
AcDbEntity
  8
0
  6
Continuous
 62
     7
100
AcDbLine
 10
88.36470881561661
 20
95.82445750680523
 30
0.0
 11
89.36470881561659
 21
95.82445750680523
 31
0.0
  0
LINE
  5
D7
330
2
100
AcDbEntity
  8
0
  6
Continuous
 62
     7
100
AcDbLine
 10
88.36470881561661
 20
55.82445750680523
 30
0.0
 11
88.36470881561661
 21
95.82445750680523
 31
0.0
  0
LINE
  5
D8
330
2
100
AcDbEntity
  8
0
  6
Continuous
 62
     7
100
AcDbLine
 10
78.86470881561661
 20
55.82445750680523
 30
0.0
 11
77.86470881561661
 21
56.82445750680523
 31
0.0
  0
LINE
  5
D9
330
2
100
AcDbEntity
  8
0
  6
Continuous
 62
     7
100
AcDbLine
 10
77.86470881561661
 20
94.82445750680524
 30
0.0
 11
77.86470881561661
 21
56.82445750680523
 31
0.0
  0
LINE
  5
DA
330
2
100
AcDbEntity
  8
0
  6
Continuous
 62
     7
100
AcDbLine
 10
88.36470881561661
 20
55.82445750680523
 30
0.0
 11
89.36470881561659
 21
55.82445750680523
 31
0.0
  0
LINE
  5
DB
330
2
100
AcDbEntity
  8
0
  6
Continuous
 62
     7
100
AcDbLine
 10
87.8647088156166
 20
55.82445750680523
 30
0.0
 11
88.36470881561661
 21
56.32445750680523
 31
0.0
  0
LINE
  5
DC
330
2
100
AcDbEntity
  8
0
  6
Continuous
 62
     7
100
AcDbLine
 10
78.86470881561661
 20
95.82445750680523
 30
0.0
 11
77.86470881561661
 21
94.82445750680524
 31
0.0
  0
LINE
  5
DD
330
2
100
AcDbEntity
  8
0
  6
Continuous
 62
     7
100
AcDbLine
 10
87.8647088156166
 20
95.82445750680523
 30
0.0
 11
78.86470881561661
 21
95.82445750680523
 31
0.0
  0
LINE
  5
DE
330
2
100
AcDbEntity
  8
0
  6
Continuous
 62
     7
100
AcDbLine
 10
78.86470881561661
 20
55.82445750680523
 30
0.0
 11
87.8647088156166
 21
55.82445750680523
 31
0.0
  0
LINE
  5
DF
330
2
100
AcDbEntity
  8
0
  6
Continuous
 62
     7
100
AcDbLine
 10
91.3647088156166
 20
55.82445750680523
 30
0.0
 11
101.8647088156166
 21
55.82445750680523
 31
0.0
  0
LINE
  5
E0
330
2
100
AcDbEntity
  8
0
  6
Continuous
 62
     7
100
AcDbLine
 10
91.3647088156166
 20
55.82445750680523
 30
0.0
 11
90.3647088156166
 21
56.82445750680523
 31
0.0
  0
LINE
  5
E1
330
2
100
AcDbEntity
  8
0
  6
Continuous
 62
     7
100
AcDbLine
 10
89.36470881561659
 20
55.82445750680523
 30
0.0
 11
90.3647088156166
 21
56.82445750680523
 31
0.0
  0
LINE
  5
E2
330
2
100
AcDbEntity
  8
0
  6
Continuous
 62
     7
100
AcDbLine
 10
102.8647088156166
 20
56.82445750680523
 30
0.0
 11
101.8647088156166
 21
55.82445750680523
 31
0.0
  0
LINE
  5
E3
330
2
100
AcDbEntity
  8
0
  6
Continuous
 62
     7
100
AcDbLine
 10
101.8647088156166
 20
95.82445750680523
 30
0.0
 11
91.3647088156166
 21
95.82445750680523
 31
0.0
  0
LINE
  5
E4
330
2
100
AcDbEntity
  8
0
  6
Continuous
 62
     7
100
AcDbLine
 10
89.36470881561659
 20
95.82445750680523
 30
0.0
 11
90.3647088156166
 21
94.82445750680524
 31
0.0
  0
LINE
  5
E5
330
2
100
AcDbEntity
  8
0
  6
Continuous
 62
     7
100
AcDbLine
 10
87.8647088156166
 20
95.82445750680523
 30
0.0
 11
88.36470881561661
 21
95.32445750680523
 31
0.0
  0
LINE
  5
E6
330
2
100
AcDbEntity
  8
0
  6
Continuous
 62
     7
100
AcDbLine
 10
102.8647088156166
 20
94.82445750680524
 30
0.0
 11
101.8647088156166
 21
95.82445750680523
 31
0.0
  0
LINE
  5
E7
330
2
100
AcDbEntity
  8
0
  6
Continuous
 62
     7
100
AcDbLine
 10
227.8625770405418
 20
107.3244575068051
 30
0.0
 11
227.8625770405418
 21
44.32445750680517
 31
0.0
  0
CIRCLE
  5
E8
330
2
100
AcDbEntity
  8
0
  6
Continuous
 62
     7
100
AcDbCircle
 10
299.4626162359832
 20
241.8245997601186
 30
0.0
 40
2.75
  0
ARC
  5
E9
330
2
100
AcDbEntity
  8
0
  6
Continuous
 62
     7
100
AcDbCircle
 10
301.7126162359832
 20
239.5745997601185
 30
0.0
 40
1.767766952966368
100
AcDbArc
 50
98.13010235415596
 51
171.869897645844
  0
ARC
  5
EA
330
2
100
AcDbEntity
  8
0
  6
Continuous
 62
     7
100
AcDbCircle
 10
297.2126162359831
 20
239.5745997601188
 30
0.0
 40
1.767766952966368
100
AcDbArc
 50
8.130102354155951
 51
81.86989764584405
  0
ARC
  5
EB
330
2
100
AcDbEntity
  8
0
  6
Continuous
 62
     7
100
AcDbCircle
 10
297.2126162359832
 20
244.0745997601188
 30
0.0
 40
1.767766952966368
100
AcDbArc
 50
278.1301023541559
 51
351.869897645844
  0
ARC
  5
EC
330
2
100
AcDbEntity
  8
0
  6
Continuous
 62
     7
100
AcDbCircle
 10
301.7126162359832
 20
244.0745997601187
 30
0.0
 40
1.767766952966368
100
AcDbArc
 50
188.1301023541559
 51
261.869897645844
  0
CIRCLE
  5
ED
330
2
100
AcDbEntity
  8
0
  6
Continuous
 62
     7
100
AcDbCircle
 10
357.4624728850058
 20
241.8244379040106
 30
0.0
 40
2.75
  0
ARC
  5
EE
330
2
100
AcDbEntity
  8
0
  6
Continuous
 62
     7
100
AcDbCircle
 10
359.7124728850058
 20
239.5744379040104
 30
0.0
 40
1.767766952966368
100
AcDbArc
 50
98.13010235415596
 51
171.869897645844
  0
ARC
  5
EF
330
2
100
AcDbEntity
  8
0
  6
Continuous
 62
     7
100
AcDbCircle
 10
355.2124728850057
 20
239.5744379040106
 30
0.0
 40
1.767766952966368
100
AcDbArc
 50
8.130102354155951
 51
81.86989764584405
  0
ARC
  5
F0
330
2
100
AcDbEntity
  8
0
  6
Continuous
 62
     7
100
AcDbCircle
 10
355.2124728850058
 20
244.0744379040107
 30
0.0
 40
1.767766952966368
100
AcDbArc
 50
278.1301023541559
 51
351.869897645844
  0
ARC
  5
F1
330
2
100
AcDbEntity
  8
0
  6
Continuous
 62
     7
100
AcDbCircle
 10
359.7124728850058
 20
244.0744379040105
 30
0.0
 40
1.767766952966368
100
AcDbArc
 50
188.1301023541559
 51
261.869897645844
  0
CIRCLE
  5
F2
330
2
100
AcDbEntity
  8
0
  6
Continuous
 62
     7
100
AcDbCircle
 10
299.4626162359832
 20
144.8246540157286
 30
0.0
 40
2.75
  0
ARC
  5
F3
330
2
100
AcDbEntity
  8
0
  6
Continuous
 62
     7
100
AcDbCircle
 10
301.7126162359832
 20
142.5746540157284
 30
0.0
 40
1.767766952966368
100
AcDbArc
 50
98.13010235415596
 51
171.869897645844
  0
ARC
  5
F4
330
2
100
AcDbEntity
  8
0
  6
Continuous
 62
     7
100
AcDbCircle
 10
297.2126162359831
 20
142.5746540157287
 30
0.0
 40
1.767766952966368
100
AcDbArc
 50
8.130102354155951
 51
81.86989764584405
  0
ARC
  5
F5
330
2
100
AcDbEntity
  8
0
  6
Continuous
 62
     7
100
AcDbCircle
 10
297.2126162359832
 20
147.0746540157287
 30
0.0
 40
1.767766952966368
100
AcDbArc
 50
278.1301023541559
 51
351.869897645844
  0
ARC
  5
F6
330
2
100
AcDbEntity
  8
0
  6
Continuous
 62
     7
100
AcDbCircle
 10
301.7126162359832
 20
147.0746540157286
 30
0.0
 40
1.767766952966368
100
AcDbArc
 50
188.1301023541559
 51
261.869897645844
  0
CIRCLE
  5
F7
330
2
100
AcDbEntity
  8
0
  6
Continuous
 62
     7
100
AcDbCircle
 10
357.4762966889093
 20
144.8247509089949
 30
0.0
 40
2.75
  0
ARC
  5
F8
330
2
100
AcDbEntity
  8
0
  6
Continuous
 62
     7
100
AcDbCircle
 10
359.7262966889093
 20
142.5747509089948
 30
0.0
 40
1.767766952966368
100
AcDbArc
 50
98.13010235415596
 51
171.869897645844
  0
ARC
  5
F9
330
2
100
AcDbEntity
  8
0
  6
Continuous
 62
     7
100
AcDbCircle
 10
355.2262966889092
 20
142.574750908995
 30
0.0
 40
1.767766952966368
100
AcDbArc
 50
8.130102354155951
 51
81.86989764584405
  0
ARC
  5
FA
330
2
100
AcDbEntity
  8
0
  6
Continuous
 62
     7
100
AcDbCircle
 10
355.2262966889093
 20
147.074750908995
 30
0.0
 40
1.767766952966368
100
AcDbArc
 50
278.1301023541559
 51
351.869897645844
  0
ARC
  5
FB
330
2
100
AcDbEntity
  8
0
  6
Continuous
 62
     7
100
AcDbCircle
 10
359.7262966889093
 20
147.0747509089949
 30
0.0
 40
1.767766952966368
100
AcDbArc
 50
188.1301023541559
 51
261.869897645844
  0
CIRCLE
  5
FC
330
2
100
AcDbEntity
  8
0
  6
Continuous
 62
     7
100
AcDbCircle
 10
308.4626441656462
 20
219.3245299359615
 30
0.0
 40
2.337499999999999
  0
ARC
  5
FD
330
2
100
AcDbEntity
  8
0
  6
Continuous
 62
     7
100
AcDbCircle
 10
310.3751441656462
 20
217.4120299359614
 30
0.0
 40
1.502601910021413
100
AcDbArc
 50
98.13010235415596
 51
171.869897645844
  0
ARC
  5
FE
330
2
100
AcDbEntity
  8
0
  6
Continuous
 62
     7
100
AcDbCircle
 10
310.3751441656462
 20
221.2370299359616
 30
0.0
 40
1.502601910021413
100
AcDbArc
 50
188.1301023541559
 51
261.869897645844
  0
ARC
  5
FF
330
2
100
AcDbEntity
  8
0
  6
Continuous
 62
     7
100
AcDbCircle
 10
306.5501441656461
 20
217.4120299359616
 30
0.0
 40
1.502601910021413
100
AcDbArc
 50
8.130102354155951
 51
81.86989764584405
  0
ARC
  5
100
330
2
100
AcDbEntity
  8
0
  6
Continuous
 62
     7
100
AcDbCircle
 10
306.5501441656461
 20
221.2370299359617
 30
0.0
 40
1.502601910021413
100
AcDbArc
 50
278.1301023541559
 51
351.869897645844
  0
CIRCLE
  5
101
330
2
100
AcDbEntity
  8
0
  6
Continuous
 62
     7
100
AcDbCircle
 10
348.4625099154377
 20
219.3245299359615
 30
0.0
 40
2.337499999999999
  0
ARC
  5
102
330
2
100
AcDbEntity
  8
0
  6
Continuous
 62
     7
100
AcDbCircle
 10
350.3750099154378
 20
217.4120299359614
 30
0.0
 40
1.502601910021413
100
AcDbArc
 50
98.13010235415596
 51
171.869897645844
  0
ARC
  5
103
330
2
100
AcDbEntity
  8
0
  6
Continuous
 62
     7
100
AcDbCircle
 10
350.3750099154378
 20
221.2370299359616
 30
0.0
 40
1.502601910021413
100
AcDbArc
 50
188.1301023541559
 51
261.869897645844
  0
ARC
  5
104
330
2
100
AcDbEntity
  8
0
  6
Continuous
 62
     7
100
AcDbCircle
 10
346.5500099154376
 20
217.4120299359616
 30
0.0
 40
1.502601910021413
100
AcDbArc
 50
8.130102354155951
 51
81.86989764584405
  0
ARC
  5
105
330
2
100
AcDbEntity
  8
0
  6
Continuous
 62
     7
100
AcDbCircle
 10
346.5500099154377
 20
221.2370299359617
 30
0.0
 40
1.502601910021413
100
AcDbArc
 50
278.1301023541559
 51
351.869897645844
  0
CIRCLE
  5
106
330
2
100
AcDbEntity
  8
0
  6
Continuous
 62
     7
100
AcDbCircle
 10
307.4625118713286
 20
233.3246379776146
 30
0.0
 40
1.814999999999999
  0
ARC
  5
107
330
2
100
AcDbEntity
  8
0
  6
Continuous
 62
     7
100
AcDbCircle
 10
308.9475118713286
 20
231.8396379776144
 30
0.0
 40
1.166726188957802
100
AcDbArc
 50
98.13010235415596
 51
171.869897645844
  0
ARC
  5
108
330
2
100
AcDbEntity
  8
0
  6
Continuous
 62
     7
100
AcDbCircle
 10
305.9775118713285
 20
231.8396379776146
 30
0.0
 40
1.166726188957802
100
AcDbArc
 50
8.130102354155951
 51
81.86989764584405
  0
ARC
  5
109
330
2
100
AcDbEntity
  8
0
  6
Continuous
 62
     7
100
AcDbCircle
 10
305.9775118713286
 20
234.8096379776147
 30
0.0
 40
1.166726188957802
100
AcDbArc
 50
278.1301023541559
 51
351.869897645844
  0
ARC
  5
10A
330
2
100
AcDbEntity
  8
0
  6
Continuous
 62
     7
100
AcDbCircle
 10
308.9475118713286
 20
234.8096379776146
 30
0.0
 40
1.166726188957802
100
AcDbArc
 50
188.1301023541559
 51
261.869897645844
  0
CIRCLE
  5
10B
330
2
100
AcDbEntity
  8
0
  6
Continuous
 62
     7
100
AcDbCircle
 10
349.4624484232227
 20
233.3246379776146
 30
0.0
 40
1.814999999999999
  0
ARC
  5
10C
330
2
100
AcDbEntity
  8
0
  6
Continuous
 62
     7
100
AcDbCircle
 10
350.9474484232227
 20
231.8396379776144
 30
0.0
 40
1.166726188957802
100
AcDbArc
 50
98.13010235415596
 51
171.869897645844
  0
ARC
  5
10D
330
2
100
AcDbEntity
  8
0
  6
Continuous
 62
     7
100
AcDbCircle
 10
347.9774484232225
 20
231.8396379776146
 30
0.0
 40
1.166726188957802
100
AcDbArc
 50
8.130102354155951
 51
81.86989764584405
  0
ARC
  5
10E
330
2
100
AcDbEntity
  8
0
  6
Continuous
 62
     7
100
AcDbCircle
 10
347.9774484232227
 20
234.8096379776147
 30
0.0
 40
1.166726188957802
100
AcDbArc
 50
278.1301023541559
 51
351.869897645844
  0
ARC
  5
10F
330
2
100
AcDbEntity
  8
0
  6
Continuous
 62
     7
100
AcDbCircle
 10
350.9474484232227
 20
234.8096379776146
 30
0.0
 40
1.166726188957802
100
AcDbArc
 50
188.1301023541559
 51
261.869897645844
  0
LINE
  5
110
330
2
100
AcDbEntity
  8
0
  6
Continuous
 62
     7
100
AcDbLine
 10
227.3647088156166
 20
108.8263108489319
 30
0.0
 11
227.3647088156166
 21
42.82260415756018
 31
0.0
  0
LINE
  5
111
330
2
100
AcDbEntity
  8
0
  6
CENTER
 62
     4
 48
2.0
100
AcDbLine
 10
177.8647088156166
 20
84.10790486401969
 30
0.0
 11
177.8647088156166
 21
67.6079048640197
 31
0.0
  0
CIRCLE
  5
112
330
2
100
AcDbEntity
  8
0
  6
Continuous
 62
     7
100
AcDbCircle
 10
142.8647088156166
 20
90.82445750324607
 30
0.0
 40
2.000380211068724
  0
CIRCLE
  5
113
330
2
100
AcDbEntity
  8
0
  6
Continuous
 62
     7
100
AcDbCircle
 10
142.8647088156166
 20
90.82445750324607
 30
0.0
 40
1.500188259434509
  0
CIRCLE
  5
114
330
2
100
AcDbEntity
  8
0
  6
Continuous
 62
     7
100
AcDbCircle
 10
142.8647088156166
 20
60.82445750324608
 30
0.0
 40
1.500188259434509
  0
CIRCLE
  5
115
330
2
100
AcDbEntity
  8
0
  6
Continuous
 62
     7
100
AcDbCircle
 10
142.8647088156166
 20
60.82445750324608
 30
0.0
 40
2.000380211068724
  0
CIRCLE
  5
116
330
2
100
AcDbEntity
  8
0
  6
Continuous
 62
     7
100
AcDbCircle
 10
212.8647088156166
 20
60.82445750324608
 30
0.0
 40
2.000380211068724
  0
CIRCLE
  5
117
330
2
100
AcDbEntity
  8
0
  6
Continuous
 62
     7
100
AcDbCircle
 10
212.8647088156166
 20
60.82445750324608
 30
0.0
 40
1.500188259434509
  0
LINE
  5
118
330
2
100
AcDbEntity
  8
0
  6
CENTER
 62
     4
 48
2.0
100
AcDbLine
 10
142.8647088156166
 20
95.10790486401971
 30
0.0
 11
142.8647088156166
 21
86.54101014247245
 31
0.0
  0
LINE
  5
119
330
2
100
AcDbEntity
  8
0
  6
CENTER
 62
     4
 48
2.0
100
AcDbLine
 10
138.581261454843
 20
90.82445750680518
 30
0.0
 11
147.1481561763902
 21
90.82445750680518
 31
0.0
  0
LINE
  5
11A
330
2
100
AcDbEntity
  8
0
  6
CENTER
 62
     4
 48
2.0
100
AcDbLine
 10
208.581261454843
 20
90.82445750680518
 30
0.0
 11
217.1481561763902
 21
90.82445750680518
 31
0.0
  0
LINE
  5
11B
330
2
100
AcDbEntity
  8
0
  6
CENTER
 62
     4
 48
2.0
100
AcDbLine
 10
212.8647088156166
 20
95.10790486401971
 30
0.0
 11
212.8647088156166
 21
86.54101014247245
 31
0.0
  0
LINE
  5
11C
330
2
100
AcDbEntity
  8
0
  6
CENTER
 62
     4
 48
2.0
100
AcDbLine
 10
138.581261454843
 20
60.82445750680519
 30
0.0
 11
147.1481561763902
 21
60.82445750680519
 31
0.0
  0
LINE
  5
11D
330
2
100
AcDbEntity
  8
0
  6
CENTER
 62
     4
 48
2.0
100
AcDbLine
 10
142.8647088156166
 20
65.1079048640197
 30
0.0
 11
142.8647088156166
 21
56.54101014247245
 31
0.0
  0
LINE
  5
11E
330
2
100
AcDbEntity
  8
0
  6
CENTER
 62
     4
 48
2.0
100
AcDbLine
 10
208.581261454843
 20
60.82445750680519
 30
0.0
 11
217.1481561763902
 21
60.82445750680519
 31
0.0
  0
LINE
  5
11F
330
2
100
AcDbEntity
  8
0
  6
CENTER
 62
     4
 48
2.0
100
AcDbLine
 10
212.8647088156166
 20
65.1079048640197
 30
0.0
 11
212.8647088156166
 21
56.54101014247245
 31
0.0
  0
LINE
  5
120
330
2
100
AcDbEntity
  8
0
  6
CENTER
 62
     4
 48
2.0
100
AcDbLine
 10
142.8647088156166
 20
140.1079048640197
 30
0.0
 11
142.8647088156166
 21
131.5410101424724
 31
0.0
  0
LINE
  5
121
330
2
100
AcDbEntity
  8
0
  6
CENTER
 62
     4
 48
2.0
100
AcDbLine
 10
212.8647088156166
 20
140.1079048640197
 30
0.0
 11
212.8647088156166
 21
131.5410101424724
 31
0.0
  0
LINE
  5
122
330
2
100
AcDbEntity
  8
0
  6
CENTER
 62
     4
 48
2.0
100
AcDbLine
 10
177.8647088156166
 20
140.1079048640197
 30
0.0
 11
177.8647088156166
 21
132.7464008497294
 31
0.0
  0
LINE
  5
123
330
2
100
AcDbEntity
  8
0
  6
Continuous
 62
     7
100
AcDbLine
 10
350.9552954542647
 20
135.8244575068052
 30
0.0
 11
355.955546988328
 21
140.824701162971
 31
0.0
  0
LINE
  5
124
330
2
100
AcDbEntity
  8
0
  6
Continuous
 62
     7
100
AcDbLine
 10
305.9696648402863
 20
135.8244575068052
 30
0.0
 11
300.969413306223
 21
140.824701162971
 31
0.0
  0
LINE
  5
125
330
2
100
AcDbEntity
  8
0
  6
CENTER
 62
     4
 48
2.0
100
AcDbLine
 10
343.4624801472708
 20
130.3245395559204
 30
0.0
 11
343.462486672498
 21
138.6079048623391
 31
0.0
  0
LINE
  5
126
330
2
100
AcDbEntity
  8
0
  6
CENTER
 62
     4
 48
2.0
100
AcDbLine
 10
313.4624888237167
 20
130.3245395559204
 30
0.0
 11
313.4624822984897
 21
138.6079048623391
 31
0.0
  0
LINE
  5
127
330
2
100
AcDbEntity
  8
0
  6
Continuous
 62
     7
100
AcDbLine
 10
305.9624697778133
 20
225.8246176752991
 30
0.0
 11
342.4624965031648
 21
225.8246176752991
 31
0.0
  0
LINE
  5
128
330
2
100
AcDbEntity
  8
0
  6
Continuous
 62
     7
100
AcDbLine
 10
305.9624697778133
 20
240.8246419313508
 30
0.0
 11
350.9623487597237
 21
240.8246419313508
 31
0.0
  0
LINE
  5
129
330
2
100
AcDbEntity
  8
0
  6
Continuous
 62
     7
100
AcDbLine
 10
341.9625279923373
 20
230.8245934629423
 30
0.0
 11
317.9624891826546
 21
230.8245934629423
 31
0.0
  0
LINE
  5
12A
330
2
100
AcDbEntity
  8
0
  6
Continuous
 62
     7
100
AcDbLine
 10
317.9624891826546
 20
226.8246515900766
 30
0.0
 11
341.9625279923373
 21
226.8246515900766
 31
0.0
  0
LINE
  5
12B
330
2
100
AcDbEntity
  8
0
  6
Continuous
 62
     7
100
AcDbLine
 10
341.9625279923373
 20
231.3246588668921
 30
0.0
 11
317.9624891826546
 21
231.3246588668921
 31
0.0
  0
LINE
  5
12C
330
2
100
AcDbEntity
  8
0
  6
Continuous
 62
     7
100
AcDbLine
 10
317.9624891826546
 20
235.3246007397578
 30
0.0
 11
341.9625279923373
 21
235.3246007397578
 31
0.0
  0
LINE
  5
12D
330
2
100
AcDbEntity
  8
0
  6
Continuous
 62
     7
100
AcDbLine
 10
317.9624891826546
 20
230.8245934629423
 30
0.0
 11
317.9624891826546
 21
226.8246515900766
 31
0.0
  0
LINE
  5
12E
330
2
100
AcDbEntity
  8
0
  6
Continuous
 62
     7
100
AcDbLine
 10
304.962532756158
 20
239.8246080165733
 30
0.0
 11
304.962532756158
 21
226.8246515900766
 31
0.0
  0
ARC
  5
12F
330
2
100
AcDbEntity
  8
0
  6
Continuous
 62
     7
100
AcDbCircle
 10
305.9627483892865
 20
226.8248332861269
 30
0.0
 40
1.000215649631611
100
AcDbArc
 50
180.0104081723737
 51
269.9840401799864
  0
ARC
  5
130
330
2
100
AcDbEntity
  8
0
  6
Continuous
 62
     7
100
AcDbCircle
 10
305.9627483892865
 20
239.824426320523
 30
0.0
 40
1.000215649631611
100
AcDbArc
 50
90.01595982001358
 51
179.9895918276263
  0
LINE
  5
131
330
2
100
AcDbEntity
  8
0
  6
Continuous
 62
     7
100
AcDbLine
 10
317.9624891826546
 20
231.3246588668921
 30
0.0
 11
317.9624891826546
 21
235.3246007397578
 31
0.0
  0
LINE
  5
132
330
2
100
AcDbEntity
  8
0
  6
Continuous
 62
     7
100
AcDbLine
 10
350.9623487597237
 20
230.3246249521146
 30
0.0
 11
345.4625013543753
 21
230.3246249521146
 31
0.0
  0
ARC
  5
133
330
2
100
AcDbEntity
  8
0
  6
Continuous
 62
     7
100
AcDbCircle
 10
345.4628647290306
 20
228.3241937279525
 30
0.0
 40
2.000431257165244
100
AcDbArc
 50
90.01040767293361
 51
179.9868165704831
  0
LINE
  5
134
330
2
100
AcDbEntity
  8
0
  6
Continuous
 62
     7
100
AcDbLine
 10
341.9625279923373
 20
226.8246515900766
 30
0.0
 11
341.9625279923373
 21
230.8245934629423
 31
0.0
  0
ARC
  5
135
330
2
100
AcDbEntity
  8
0
  6
Continuous
 62
     7
100
AcDbCircle
 10
342.4625487732203
 20
226.8245024366574
 30
0.0
 40
0.9998847627245387
100
AcDbArc
 50
269.9970048012714
 51
0.008546846367986
  0
LINE
  5
136
330
2
100
AcDbEntity
  8
0
  6
Continuous
 62
     7
100
AcDbLine
 10
343.4624335248202
 20
226.8246515900766
 30
0.0
 11
343.4624335248202
 21
228.3246540156818
 31
0.0
  0
LINE
  5
137
330
2
100
AcDbEntity
  8
0
  6
Continuous
 62
     7
100
AcDbLine
 10
341.9625279923373
 20
235.3246007397578
 30
0.0
 11
341.9625279923373
 21
231.3246588668921
 31
0.0
  0
LINE
  5
138
330
2
100
AcDbEntity
  8
0
  6
Continuous
 62
     7
100
AcDbLine
 10
351.9624795676235
 20
239.8246080165733
 30
0.0
 11
351.9624795676235
 21
231.3246588668921
 31
0.0
  0
ARC
  5
139
330
2
100
AcDbEntity
  8
0
  6
Continuous
 62
     7
100
AcDbCircle
 10
350.9625947666988
 20
231.3245097338976
 30
0.0
 40
0.9998848120461627
100
AcDbArc
 50
269.9859032146669
 51
0.0085456755657961
  0
ARC
  5
13A
330
2
100
AcDbEntity
  8
0
  6
Continuous
 62
     7
100
AcDbCircle
 10
350.9625947666988
 20
239.8247571495677
 30
0.0
 40
0.999884812046154
100
AcDbArc
 50
359.9914543244342
 51
90.0140967853331
  0
LINE
  5
13B
330
2
100
AcDbEntity
  8
0
  6
CENTER
 62
     4
 48
2.0
100
AcDbLine
 10
328.4625139649832
 20
128.2540037294374
 30
0.0
 11
328.4625737189501
 21
249.1079056500212
 31
0.0
  0
LINE
  5
13C
330
2
100
AcDbEntity
  8
0
  6
Continuous
 62
     7
100
AcDbLine
 10
192.1919558302333
 20
207.2995099315826
 30
0.0
 11
187.8794367449782
 21
207.2995099315826
 31
0.0
  0
LINE
  5
13D
330
2
100
AcDbEntity
  8
0
  6
Continuous
 62
     7
100
AcDbLine
 10
191.8168825539903
 20
206.7994445276327
 30
0.0
 11
187.3794682341505
 21
206.7994445276327
 31
0.0
  0
LINE
  5
13E
330
2
100
AcDbEntity
  8
0
  6
Continuous
 62
     7
100
AcDbLine
 10
191.4794038091816
 20
206.2994760168051
 30
0.0
 11
186.8794997233228
 21
206.2994760168051
 31
0.0
  0
LINE
  5
13F
330
2
100
AcDbEntity
  8
0
  6
Continuous
 62
     7
100
AcDbLine
 10
191.1794227026851
 20
205.7995075059775
 30
0.0
 11
186.5458967034043
 21
205.7995075059775
 31
0.0
  0
LINE
  5
140
330
2
100
AcDbEntity
  8
0
  6
Continuous
 62
     7
100
AcDbLine
 10
190.8794415961884
 20
205.2994421020275
 30
0.0
 11
186.2123905766081
 21
205.2994421020275
 31
0.0
  0
LINE
  5
141
330
2
100
AcDbEntity
  8
0
  6
Continuous
 62
     7
100
AcDbLine
 10
190.4068938389586
 20
204.2995050803723
 30
0.0
 11
185.5319101790223
 21
204.2995050803723
 31
0.0
  0
LINE
  5
142
330
2
100
AcDbEntity
  8
0
  6
Continuous
 62
     7
100
AcDbLine
 10
190.1705715137824
 20
203.7994396764224
 30
0.0
 11
185.2544082768885
 21
203.7994396764224
 31
0.0
  0
LINE
  5
143
330
2
100
AcDbEntity
  8
0
  6
Continuous
 62
     7
100
AcDbLine
 10
190.0159300906659
 20
203.2994711655948
 30
0.0
 11
185.0044240214747
 21
203.2994711655948
 31
0.0
  0
LINE
  5
144
330
2
100
AcDbEntity
  8
0
  6
Continuous
 62
     7
100
AcDbLine
 10
189.8612886675496
 20
202.7995026547671
 30
0.0
 11
184.7681016962986
 21
202.7995026547671
 31
0.0
  0
LINE
  5
145
330
2
100
AcDbEntity
  8
0
  6
Continuous
 62
     7
100
AcDbLine
 10
189.7067441375553
 20
202.2994372508172
 30
0.0
 11
184.5318762642448
 21
202.2994372508172
 31
0.0
  0
LINE
  5
146
330
2
100
AcDbEntity
  8
0
  6
Continuous
 62
     7
100
AcDbLine
 10
186.8794028302005
 20
206.2993791236829
 30
0.0
 11
188.5043973835127
 21
207.9243736769949
 31
0.0
  0
LINE
  5
147
330
2
100
AcDbEntity
  8
0
  6
Continuous
 62
     7
100
AcDbLine
 10
190.6431192710124
 20
204.7994735912
 30
0.0
 11
185.8581493216495
 21
204.7994735912
 31
0.0
  0
LINE
  5
148
330
2
100
AcDbEntity
  8
0
  6
Continuous
 62
     7
100
AcDbLine
 10
188.0043319795628
 20
190.299417845976
 30
0.0
 11
187.5043634687351
 21
190.6743942290967
 31
0.0
  0
LINE
  5
149
330
2
100
AcDbEntity
  8
0
  6
Continuous
 62
     7
100
AcDbLine
 10
190.9777881152756
 20
191.2994517607535
 30
0.0
 11
186.7542169162492
 21
191.2994517607535
 31
0.0
  0
LINE
  5
14A
330
2
100
AcDbEntity
  8
0
  6
Continuous
 62
     7
100
AcDbLine
 10
191.6147635009696
 20
190.7994832499258
 30
0.0
 11
187.337610405337
 21
190.7994832499258
 31
0.0
  0
LINE
  5
14B
330
2
100
AcDbEntity
  8
0
  6
Continuous
 62
     7
100
AcDbLine
 10
189.5669273621436
 20
201.7994687399896
 30
0.0
 11
184.4126008307508
 21
201.7994687399896
 31
0.0
  0
LINE
  5
14C
330
2
100
AcDbEntity
  8
0
  6
Continuous
 62
     7
100
AcDbLine
 10
189.4418383413144
 20
201.299500229162
 30
0.0
 11
184.254374362111
 21
201.299500229162
 31
0.0
  0
LINE
  5
14D
330
2
100
AcDbEntity
  8
0
  6
Continuous
 62
     7
100
AcDbLine
 10
189.3168462136076
 20
200.799434825212
 30
0.0
 11
184.1208556396458
 21
200.799434825212
 31
0.0
  0
LINE
  5
14E
330
2
100
AcDbEntity
  8
0
  6
Continuous
 62
     7
100
AcDbLine
 10
189.1762542932179
 20
200.2994663143845
 30
0.0
 11
183.9873369171804
 21
200.2994663143845
 31
0.0
  0
LINE
  5
14F
330
2
100
AcDbEntity
  8
0
  6
Continuous
 62
     7
100
AcDbLine
 10
189.0824617508765
 20
199.7994978035568
 30
0.0
 11
183.872034101699
 21
199.7994978035568
 31
0.0
  0
LINE
  5
150
330
2
100
AcDbEntity
  8
0
  6
Continuous
 62
     7
100
AcDbLine
 10
188.9887661016576
 20
199.2994323996069
 30
0.0
 11
183.7749471932011
 21
199.2994323996069
 31
0.0
  0
LINE
  5
151
330
2
100
AcDbEntity
  8
0
  6
Continuous
 62
     7
100
AcDbLine
 10
188.8949735593162
 20
198.7994638887793
 30
0.0
 11
183.7703932164552
 21
198.7994638887793
 31
0.0
  0
LINE
  5
152
330
2
100
AcDbEntity
  8
0
  6
Continuous
 62
     7
100
AcDbLine
 10
188.801277910097
 20
198.2994953779516
 30
0.0
 11
183.7658392397093
 21
198.2994953779516
 31
0.0
  0
LINE
  5
153
330
2
100
AcDbEntity
  8
0
  6
Continuous
 62
     7
100
AcDbLine
 10
188.7365533044319
 20
197.799526867124
 30
0.0
 11
183.7611883698411
 21
197.799526867124
 31
0.0
  0
LINE
  5
154
330
2
100
AcDbEntity
  8
0
  6
Continuous
 62
     7
100
AcDbLine
 10
188.7007997423203
 20
197.2994614631741
 30
0.0
 11
183.7566343930951
 21
197.2994614631741
 31
0.0
  0
LINE
  5
155
330
2
100
AcDbEntity
  8
0
  6
Continuous
 62
     7
100
AcDbLine
 10
188.6650461802088
 20
196.7994929523465
 30
0.0
 11
183.791709703351
 21
196.7994929523465
 31
0.0
  0
LINE
  5
156
330
2
100
AcDbEntity
  8
0
  6
Continuous
 62
     7
100
AcDbLine
 10
188.6293895112196
 20
196.2995244415188
 30
0.0
 11
183.8664143006083
 21
196.2995244415188
 31
0.0
  0
LINE
  5
157
330
2
100
AcDbEntity
  8
0
  6
Continuous
 62
     7
100
AcDbLine
 10
188.6876222776939
 20
195.799459037569
 30
0.0
 11
183.9411188978656
 21
195.799459037569
 31
0.0
  0
LINE
  5
158
330
2
100
AcDbEntity
  8
0
  6
Continuous
 62
     7
100
AcDbLine
 10
188.7458550441681
 20
195.2994905267413
 30
0.0
 11
184.0976981834272
 21
195.2994905267413
 31
0.0
  0
LINE
  5
159
330
2
100
AcDbEntity
  8
0
  6
Continuous
 62
     7
100
AcDbLine
 10
188.8513716543021
 20
194.7995220159136
 30
0.0
 11
184.254374362111
 21
194.7995220159136
 31
0.0
  0
LINE
  5
15A
330
2
100
AcDbEntity
  8
0
  6
Continuous
 62
     7
100
AcDbLine
 10
189.0043658943401
 20
194.2994566119638
 30
0.0
 11
184.5043586175249
 21
194.2994566119638
 31
0.0
  0
LINE
  5
15B
330
2
100
AcDbEntity
  8
0
  6
Continuous
 62
     7
100
AcDbLine
 10
189.1710220646162
 20
193.7994881011361
 30
0.0
 11
184.7543428729385
 21
193.7994881011361
 31
0.0
  0
LINE
  5
15C
330
2
100
AcDbEntity
  8
0
  6
Continuous
 62
     7
100
AcDbLine
 10
189.3971706119557
 20
193.2995195903085
 30
0.0
 11
185.0707958102183
 21
193.2995195903085
 31
0.0
  0
LINE
  5
15D
330
2
100
AcDbEntity
  8
0
  6
Continuous
 62
     7
100
AcDbLine
 10
189.682908429481
 20
192.7994541863587
 30
0.0
 11
185.387248747498
 21
192.7994541863587
 31
0.0
  0
LINE
  5
15E
330
2
100
AcDbEntity
  8
0
  6
Continuous
 62
     7
100
AcDbLine
 10
190.0879216805003
 20
192.299485675531
 30
0.0
 11
185.7817006481916
 21
192.299485675531
 31
0.0
  0
LINE
  5
15F
330
2
100
AcDbEntity
  8
0
  6
Continuous
 62
     7
100
AcDbLine
 10
190.532854897888
 20
191.7995171647033
 30
0.0
 11
186.2542484054215
 21
191.7995171647033
 31
0.0
  0
LINE
  5
160
330
2
100
AcDbEntity
  8
0
  6
Continuous
 62
     7
100
AcDbLine
 10
181.6293458940214
 20
189.5493681866123
 30
0.0
 11
182.504387681092
 21
189.1743918034915
 31
0.0
  0
LINE
  5
161
330
2
100
AcDbEntity
  8
0
  6
Continuous
 62
     7
100
AcDbLine
 10
170.004399765423
 20
189.6743603143191
 30
0.0
 11
170.7543525316646
 21
189.2993839311984
 31
0.0
  0
LINE
  5
162
330
2
100
AcDbEntity
  8
0
  6
Continuous
 62
     7
100
AcDbLine
 10
176.0044094678437
 20
188.7994154203708
 30
0.0
 11
172.8794124889265
 21
199.9243930381414
 31
0.0
  0
LINE
  5
163
330
2
100
AcDbEntity
  8
0
  6
Continuous
 62
     7
100
AcDbLine
 10
160.0043512970146
 20
189.5493681866123
 30
0.0
 11
161.0043852117921
 21
189.0493996757846
 31
0.0
  0
LINE
  5
164
330
2
100
AcDbEntity
  8
0
  6
Continuous
 62
     7
100
AcDbLine
 10
162.5043876373972
 20
189.2993839311984
 30
0.0
 11
163.0044530413471
 21
189.5493681866123
 31
0.0
  0
LINE
  5
165
330
2
100
AcDbEntity
  8
0
  6
Continuous
 62
     7
100
AcDbLine
 10
151.5044021473335
 20
189.2993839311984
 30
0.0
 11
152.504436062111
 21
189.5493681866123
 31
0.0
  0
LINE
  5
166
330
2
100
AcDbEntity
  8
0
  6
Continuous
 62
     7
100
AcDbLine
 10
161.0043852117921
 20
188.7994154203708
 30
0.0
 11
151.0044336365058
 21
188.7994154203708
 31
0.0
  0
LINE
  5
167
330
2
100
AcDbEntity
  8
0
  6
Continuous
 62
     7
100
AcDbLine
 10
160.50422291472
 20
189.2995777174429
 30
0.0
 11
151.504595933578
 21
189.2995777174429
 31
0.0
  0
LINE
  5
168
330
2
100
AcDbEntity
  8
0
  6
Continuous
 62
     7
100
AcDbLine
 10
151.0044336365058
 20
189.0493996757846
 30
0.0
 11
151.5044021473335
 21
189.2993839311984
 31
0.0
  0
LINE
  5
169
330
2
100
AcDbEntity
  8
0
  6
Continuous
 62
     7
100
AcDbLine
 10
151.0044336365058
 20
188.7994154203708
 30
0.0
 11
151.0044336365058
 21
189.0493996757846
 31
0.0
  0
LINE
  5
16A
330
2
100
AcDbEntity
  8
0
  6
Continuous
 62
     7
100
AcDbLine
 10
171.5044021910282
 20
188.7994154203708
 30
0.0
 11
162.0044191265697
 21
188.7994154203708
 31
0.0
  0
LINE
  5
16B
330
2
100
AcDbEntity
  8
0
  6
Continuous
 62
     7
100
AcDbLine
 10
170.75415874542
 20
189.2995777174429
 30
0.0
 11
162.5045814236417
 21
189.2995777174429
 31
0.0
  0
LINE
  5
16C
330
2
100
AcDbEntity
  8
0
  6
Continuous
 62
     7
100
AcDbLine
 10
161.0043852117921
 20
189.0493996757846
 30
0.0
 11
161.0043852117921
 21
188.7994154203708
 31
0.0
  0
LINE
  5
16D
330
2
100
AcDbEntity
  8
0
  6
Continuous
 62
     7
100
AcDbLine
 10
162.0044191265697
 20
188.7994154203708
 30
0.0
 11
162.0044191265697
 21
189.0493996757846
 31
0.0
  0
LINE
  5
16E
330
2
100
AcDbEntity
  8
0
  6
Continuous
 62
     7
100
AcDbLine
 10
162.0044191265697
 20
189.0493996757846
 30
0.0
 11
162.5043876373972
 21
189.2993839311984
 31
0.0
  0
LINE
  5
16F
330
2
100
AcDbEntity
  8
0
  6
Continuous
 62
     7
100
AcDbLine
 10
170.7543525316646
 20
189.2993839311984
 30
0.0
 11
171.5044021910282
 21
189.0493996757846
 31
0.0
  0
LINE
  5
170
330
2
100
AcDbEntity
  8
0
  6
Continuous
 62
     7
100
AcDbLine
 10
171.5044021910282
 20
189.0493996757846
 30
0.0
 11
171.5044021910282
 21
188.7994154203708
 31
0.0
  0
LINE
  5
171
330
2
100
AcDbEntity
  8
0
  6
Continuous
 62
     7
100
AcDbLine
 10
182.7543719365059
 20
188.7994154203708
 30
0.0
 11
176.0044094678437
 21
188.7994154203708
 31
0.0
  0
LINE
  5
172
330
2
100
AcDbEntity
  8
0
  6
Continuous
 62
     7
100
AcDbLine
 10
182.2124487037424
 20
189.2995777174429
 30
0.0
 11
175.8639144405763
 21
189.2995777174429
 31
0.0
  0
LINE
  5
173
330
2
100
AcDbEntity
  8
0
  6
Continuous
 62
     7
100
AcDbLine
 10
182.504387681092
 20
189.1743918034915
 30
0.0
 11
182.7543719365059
 21
189.0493996757846
 31
0.0
  0
LINE
  5
174
330
2
100
AcDbEntity
  8
0
  6
Continuous
 62
     7
100
AcDbLine
 10
182.7543719365059
 20
189.0493996757846
 30
0.0
 11
182.7543719365059
 21
188.7994154203708
 31
0.0
  0
LINE
  5
175
330
2
100
AcDbEntity
  8
0
  6
Continuous
 62
     7
100
AcDbLine
 10
159.0044142753593
 20
210.5493052519623
 30
0.0
 11
158.2543646159956
 21
210.7992895073761
 31
0.0
  0
LINE
  5
176
330
2
100
AcDbEntity
  8
0
  6
Continuous
 62
     7
100
AcDbLine
 10
163.3706121503428
 20
206.7994445276327
 30
0.0
 11
158.6415495325202
 21
206.7994445276327
 31
0.0
  0
LINE
  5
177
330
2
100
AcDbEntity
  8
0
  6
Continuous
 62
     7
100
AcDbLine
 10
163.2298264437086
 20
206.2994760168051
 30
0.0
 11
158.4965974216292
 21
206.2994760168051
 31
0.0
  0
LINE
  5
178
330
2
100
AcDbEntity
  8
0
  6
Continuous
 62
     7
100
AcDbLine
 10
163.0889438439521
 20
205.7995075059775
 30
0.0
 11
158.3517422038603
 21
205.7995075059775
 31
0.0
  0
LINE
  5
179
330
2
100
AcDbEntity
  8
0
  6
Continuous
 62
     7
100
AcDbLine
 10
162.9480612441956
 20
205.2994421020275
 30
0.0
 11
158.2067900929692
 21
205.2994421020275
 31
0.0
  0
LINE
  5
17A
330
2
100
AcDbEntity
  8
0
  6
Continuous
 62
     7
100
AcDbLine
 10
162.8072755375615
 20
204.7994735912
 30
0.0
 11
158.0619348752003
 21
204.7994735912
 31
0.0
  0
LINE
  5
17B
330
2
100
AcDbEntity
  8
0
  6
Continuous
 62
     7
100
AcDbLine
 10
162.6663929378049
 20
204.2995050803723
 30
0.0
 11
157.9169827643092
 21
204.2995050803723
 31
0.0
  0
LINE
  5
17C
330
2
100
AcDbEntity
  8
0
  6
Continuous
 62
     7
100
AcDbLine
 10
162.5255103380485
 20
203.7994396764224
 30
0.0
 11
157.7720306534181
 21
203.7994396764224
 31
0.0
  0
LINE
  5
17D
330
2
100
AcDbEntity
  8
0
  6
Continuous
 62
     7
100
AcDbLine
 10
162.3847246314143
 20
203.2994711655948
 30
0.0
 11
157.6271754356492
 21
203.2994711655948
 31
0.0
  0
LINE
  5
17E
330
2
100
AcDbEntity
  8
0
  6
Continuous
 62
     7
100
AcDbLine
 10
162.2438420316577
 20
202.7995026547671
 30
0.0
 11
157.482223324758
 21
202.7995026547671
 31
0.0
  0
LINE
  5
17F
330
2
100
AcDbEntity
  8
0
  6
Continuous
 62
     7
100
AcDbLine
 10
162.1030563250235
 20
202.2994372508172
 30
0.0
 11
157.3373681069893
 21
202.2994372508172
 31
0.0
  0
LINE
  5
180
330
2
100
AcDbEntity
  8
0
  6
Continuous
 62
     7
100
AcDbLine
 10
157.2544275943403
 20
211.2993549113259
 30
0.0
 11
167.2543791696266
 21
211.2993549113259
 31
0.0
  0
LINE
  5
181
330
2
100
AcDbEntity
  8
0
  6
Continuous
 62
     7
100
AcDbLine
 10
166.7549920175324
 20
210.7994832936206
 30
0.0
 11
158.2538801503844
 21
210.7994832936206
 31
0.0
  0
LINE
  5
182
330
2
100
AcDbEntity
  8
0
  6
Continuous
 62
     7
100
AcDbLine
 10
161.9621737252671
 20
201.7994687399896
 30
0.0
 11
157.1924159960981
 21
201.7994687399896
 31
0.0
  0
LINE
  5
183
330
2
100
AcDbEntity
  8
0
  6
Continuous
 62
     7
100
AcDbLine
 10
161.8212911255107
 20
201.299500229162
 30
0.0
 11
157.0475607783293
 21
201.299500229162
 31
0.0
  0
LINE
  5
184
330
2
100
AcDbEntity
  8
0
  6
Continuous
 62
     7
100
AcDbLine
 10
161.6805054188764
 20
200.799434825212
 30
0.0
 11
156.9026086674381
 21
200.799434825212
 31
0.0
  0
LINE
  5
185
330
2
100
AcDbEntity
  8
0
  6
Continuous
 62
     7
100
AcDbLine
 10
161.5396228191199
 20
200.2994663143845
 30
0.0
 11
156.7577534496693
 21
200.2994663143845
 31
0.0
  0
LINE
  5
186
330
2
100
AcDbEntity
  8
0
  6
Continuous
 62
     7
100
AcDbLine
 10
161.2579545127293
 20
199.2994323996069
 30
0.0
 11
156.467849227887
 21
199.2994323996069
 31
0.0
  0
LINE
  5
187
330
2
100
AcDbEntity
  8
0
  6
Continuous
 62
     7
100
AcDbLine
 10
161.1170719129728
 20
198.7994638887793
 30
0.0
 11
156.3229940101181
 21
198.7994638887793
 31
0.0
  0
LINE
  5
188
330
2
100
AcDbEntity
  8
0
  6
Continuous
 62
     7
100
AcDbLine
 10
160.9762862063386
 20
198.2994953779516
 30
0.0
 11
156.1780418992271
 21
198.2994953779516
 31
0.0
  0
LINE
  5
189
330
2
100
AcDbEntity
  8
0
  6
Continuous
 62
     7
100
AcDbLine
 10
160.8354036065821
 20
197.799526867124
 30
0.0
 11
156.0331866814582
 21
197.799526867124
 31
0.0
  0
LINE
  5
18A
330
2
100
AcDbEntity
  8
0
  6
Continuous
 62
     7
100
AcDbLine
 10
160.6945210068256
 20
197.2994614631741
 30
0.0
 11
155.8882345705672
 21
197.2994614631741
 31
0.0
  0
LINE
  5
18B
330
2
100
AcDbEntity
  8
0
  6
Continuous
 62
     7
100
AcDbLine
 10
160.5537353001914
 20
196.7994929523465
 30
0.0
 11
155.7433793527982
 21
196.7994929523465
 31
0.0
  0
LINE
  5
18C
330
2
100
AcDbEntity
  8
0
  6
Continuous
 62
     7
100
AcDbLine
 10
160.412852700435
 20
196.2995244415188
 30
0.0
 11
155.5984272419072
 21
196.2995244415188
 31
0.0
  0
LINE
  5
18D
330
2
100
AcDbEntity
  8
0
  6
Continuous
 62
     7
100
AcDbLine
 10
160.2720669938006
 20
195.799459037569
 30
0.0
 11
155.4535720241383
 21
195.799459037569
 31
0.0
  0
LINE
  5
18E
330
2
100
AcDbEntity
  8
0
  6
Continuous
 62
     7
100
AcDbLine
 10
160.1311843940443
 20
195.2994905267413
 30
0.0
 11
155.3086199132471
 21
195.2994905267413
 31
0.0
  0
LINE
  5
18F
330
2
100
AcDbEntity
  8
0
  6
Continuous
 62
     7
100
AcDbLine
 10
159.9903017942878
 20
194.7995220159136
 30
0.0
 11
155.1637646954783
 21
194.7995220159136
 31
0.0
  0
LINE
  5
190
330
2
100
AcDbEntity
  8
0
  6
Continuous
 62
     7
100
AcDbLine
 10
159.8495160876536
 20
194.2994566119638
 30
0.0
 11
155.0188125845872
 21
194.2994566119638
 31
0.0
  0
LINE
  5
191
330
2
100
AcDbEntity
  8
0
  6
Continuous
 62
     7
100
AcDbLine
 10
159.7086334878971
 20
193.7994881011361
 30
0.0
 11
154.8738604736961
 21
193.7994881011361
 31
0.0
  0
LINE
  5
192
330
2
100
AcDbEntity
  8
0
  6
Continuous
 62
     7
100
AcDbLine
 10
159.5678477812629
 20
193.2995195903085
 30
0.0
 11
154.7290052559272
 21
193.2995195903085
 31
0.0
  0
LINE
  5
193
330
2
100
AcDbEntity
  8
0
  6
Continuous
 62
     7
100
AcDbLine
 10
159.4269651815065
 20
192.7994541863587
 30
0.0
 11
154.5840531450361
 21
192.7994541863587
 31
0.0
  0
LINE
  5
194
330
2
100
AcDbEntity
  8
0
  6
Continuous
 62
     7
100
AcDbLine
 10
159.2860825817499
 20
192.299485675531
 30
0.0
 11
154.4391979272672
 21
192.299485675531
 31
0.0
  0
LINE
  5
195
330
2
100
AcDbEntity
  8
0
  6
Continuous
 62
     7
100
AcDbLine
 10
159.1452968751157
 20
191.7995171647033
 30
0.0
 11
154.2942458163761
 21
191.7995171647033
 31
0.0
  0
LINE
  5
196
330
2
100
AcDbEntity
  8
0
  6
Continuous
 62
     7
100
AcDbLine
 10
161.3988371124858
 20
199.7994978035568
 30
0.0
 11
156.6128013387781
 21
199.7994978035568
 31
0.0
  0
LINE
  5
197
330
2
100
AcDbEntity
  8
0
  6
Continuous
 62
     7
100
AcDbLine
 10
159.0044142753593
 20
191.2994517607535
 30
0.0
 11
154.1493905986073
 21
191.2994517607535
 31
0.0
  0
LINE
  5
198
330
2
100
AcDbEntity
  8
0
  6
Continuous
 62
     7
100
AcDbLine
 10
159.0044142753593
 20
190.7994832499258
 30
0.0
 11
154.0044384877161
 21
190.7994832499258
 31
0.0
  0
LINE
  5
199
330
2
100
AcDbEntity
  8
0
  6
Continuous
 62
     7
100
AcDbLine
 10
159.1293095099439
 20
190.2995147390981
 30
0.0
 11
153.7544542323023
 21
190.2995147390981
 31
0.0
  0
LINE
  5
19A
330
2
100
AcDbEntity
  8
0
  6
Continuous
 62
     7
100
AcDbLine
 10
159.6292780207716
 20
189.7994493351483
 30
0.0
 11
153.0045983591832
 21
189.7994493351483
 31
0.0
  0
LINE
  5
19B
330
2
100
AcDbEntity
  8
0
  6
Continuous
 62
     7
100
AcDbLine
 10
154.0044384877161
 20
190.7993863568036
 30
0.0
 11
159.4817097955796
 21
209.6985836385772
 31
0.0
  0
LINE
  5
19C
330
2
100
AcDbEntity
  8
0
  6
Continuous
 62
     7
100
AcDbLine
 10
153.7544542323023
 20
190.299417845976
 30
0.0
 11
154.0044384877161
 21
190.7993863568036
 31
0.0
  0
LINE
  5
19D
330
2
100
AcDbEntity
  8
0
  6
Continuous
 62
     7
100
AcDbLine
 10
152.504436062111
 20
189.5493681866123
 30
0.0
 11
153.0044045729387
 21
189.7993524420261
 31
0.0
  0
LINE
  5
19E
330
2
100
AcDbEntity
  8
0
  6
Continuous
 62
     7
100
AcDbLine
 10
153.0044045729387
 20
189.7993524420261
 30
0.0
 11
153.7544542323023
 21
190.299417845976
 31
0.0
  0
LINE
  5
19F
330
2
100
AcDbEntity
  8
0
  6
Continuous
 62
     7
100
AcDbLine
 10
158.2543646159956
 20
210.7992895073761
 30
0.0
 11
157.2544275943403
 21
211.0828956762119
 31
0.0
  0
LINE
  5
1A0
330
2
100
AcDbEntity
  8
0
  6
Continuous
 62
     7
100
AcDbLine
 10
157.2544275943403
 20
211.0828956762119
 30
0.0
 11
157.2544275943403
 21
211.2993549113259
 31
0.0
  0
LINE
  5
1A1
330
2
100
AcDbEntity
  8
0
  6
Continuous
 62
     7
100
AcDbLine
 10
173.6892452047205
 20
206.2994760168051
 30
0.0
 11
168.3744636628761
 21
206.2994760168051
 31
0.0
  0
LINE
  5
1A2
330
2
100
AcDbEntity
  8
0
  6
Continuous
 62
     7
100
AcDbLine
 10
173.5370261096605
 20
205.7995075059775
 30
0.0
 11
168.2277674757844
 21
205.7995075059775
 31
0.0
  0
LINE
  5
1A3
330
2
100
AcDbEntity
  8
0
  6
Continuous
 62
     7
100
AcDbLine
 10
173.3849039077225
 20
205.2994421020275
 30
0.0
 11
168.0810712886928
 21
205.2994421020275
 31
0.0
  0
LINE
  5
1A4
330
2
100
AcDbEntity
  8
0
  6
Continuous
 62
     7
100
AcDbLine
 10
168.0044288289903
 20
211.2993549113259
 30
0.0
 11
178.0043804042765
 21
211.2993549113259
 31
0.0
  0
LINE
  5
1A5
330
2
100
AcDbEntity
  8
0
  6
Continuous
 62
     7
100
AcDbLine
 10
180.2541418098785
 20
210.7994832936206
 30
0.0
 11
168.5041066604511
 21
210.7994832936206
 31
0.0
  0
LINE
  5
1A6
330
2
100
AcDbEntity
  8
0
  6
Continuous
 62
     7
100
AcDbLine
 10
174.1457087036564
 20
207.7994784424103
 30
0.0
 11
168.8144553310288
 21
207.7994784424103
 31
0.0
  0
LINE
  5
1A7
330
2
100
AcDbEntity
  8
0
  6
Continuous
 62
     7
100
AcDbLine
 10
173.9935865017186
 20
207.2995099315826
 30
0.0
 11
168.6677591439372
 21
207.2995099315826
 31
0.0
  0
LINE
  5
1A8
330
2
100
AcDbEntity
  8
0
  6
Continuous
 62
     7
100
AcDbLine
 10
173.8413674066585
 20
206.7994445276327
 30
0.0
 11
168.5210629568455
 21
206.7994445276327
 31
0.0
  0
LINE
  5
1A9
330
2
100
AcDbEntity
  8
0
  6
Continuous
 62
     7
100
AcDbLine
 10
181.4209287880543
 20
210.2994178896707
 30
0.0
 11
169.3616107923939
 21
210.2994178896707
 31
0.0
  0
LINE
  5
1AA
330
2
100
AcDbEntity
  8
0
  6
Continuous
 62
     7
100
AcDbLine
 10
174.7543912976524
 20
209.799449378843
 30
0.0
 11
169.4242037493695
 21
209.799449378843
 31
0.0
  0
LINE
  5
1AB
330
2
100
AcDbEntity
  8
0
  6
Continuous
 62
     7
100
AcDbLine
 10
174.6022690957145
 20
209.2994808680155
 30
0.0
 11
169.2544469991816
 21
209.2994808680155
 31
0.0
  0
LINE
  5
1AC
330
2
100
AcDbEntity
  8
0
  6
Continuous
 62
     7
100
AcDbLine
 10
174.4500500006544
 20
208.7994154640655
 30
0.0
 11
169.10775081209
 21
208.7994154640655
 31
0.0
  0
LINE
  5
1AD
330
2
100
AcDbEntity
  8
0
  6
Continuous
 62
     7
100
AcDbLine
 10
174.2979277987165
 20
208.2994469532379
 30
0.0
 11
168.9610546249982
 21
208.2994469532379
 31
0.0
  0
LINE
  5
1AE
330
2
100
AcDbEntity
  8
0
  6
Continuous
 62
     7
100
AcDbLine
 10
179.419213775421
 20
200.799434825212
 30
0.0
 11
166.7610962842344
 21
200.799434825212
 31
0.0
  0
LINE
  5
1AF
330
2
100
AcDbEntity
  8
0
  6
Continuous
 62
     7
100
AcDbLine
 10
178.1313103944285
 20
200.2994663143845
 30
0.0
 11
166.6144000971427
 21
200.2994663143845
 31
0.0
  0
LINE
  5
1B0
330
2
100
AcDbEntity
  8
0
  6
Continuous
 62
     7
100
AcDbLine
 10
177.5026678172484
 20
199.7994978035568
 30
0.0
 11
172.9144877991822
 21
199.7994978035568
 31
0.0
  0
LINE
  5
1B1
330
2
100
AcDbEntity
  8
0
  6
Continuous
 62
     7
100
AcDbLine
 10
177.6669985525901
 20
199.2994323996069
 30
0.0
 11
173.0548859333274
 21
199.2994323996069
 31
0.0
  0
LINE
  5
1B2
330
2
100
AcDbEntity
  8
0
  6
Continuous
 62
     7
100
AcDbLine
 10
177.8314261810542
 20
198.7994638887793
 30
0.0
 11
173.1953809605949
 21
198.7994638887793
 31
0.0
  0
LINE
  5
1B3
330
2
100
AcDbEntity
  8
0
  6
Continuous
 62
     7
100
AcDbLine
 10
177.9957569163959
 20
198.2994953779516
 30
0.0
 11
173.3357790947401
 21
198.2994953779516
 31
0.0
  0
LINE
  5
1B4
330
2
100
AcDbEntity
  8
0
  6
Continuous
 62
     7
100
AcDbLine
 10
172.9543108724284
 20
201.0494190806259
 30
0.0
 11
174.1972558446953
 21
201.0494190806259
 31
0.0
  0
LINE
  5
1B5
330
2
100
AcDbEntity
  8
0
  6
Continuous
 62
     7
100
AcDbLine
 10
174.7543912976524
 20
209.7993524857209
 30
0.0
 11
172.1293628295627
 21
201.1744112083329
 31
0.0
  0
LINE
  5
1B6
330
2
100
AcDbEntity
  8
0
  6
Continuous
 62
     7
100
AcDbLine
 10
164.0043900630024
 20
209.0493028263571
 30
0.0
 11
159.0044142753593
 21
191.2993548676313
 31
0.0
  0
LINE
  5
1B7
330
2
100
AcDbEntity
  8
0
  6
Continuous
 62
     7
100
AcDbLine
 10
163.7544058075887
 20
190.5494021013897
 30
0.0
 11
169.2543501060594
 21
209.2993839748932
 31
0.0
  0
LINE
  5
1B8
330
2
100
AcDbEntity
  8
0
  6
Continuous
 62
     7
100
AcDbLine
 10
171.1140198014692
 20
197.799526867124
 30
0.0
 11
165.8811129479288
 21
197.799526867124
 31
0.0
  0
LINE
  5
1B9
330
2
100
AcDbEntity
  8
0
  6
Continuous
 62
     7
100
AcDbLine
 10
170.9633509963652
 20
197.2994614631741
 30
0.0
 11
165.7344167608372
 21
197.2994614631741
 31
0.0
  0
LINE
  5
1BA
330
2
100
AcDbEntity
  8
0
  6
Continuous
 62
     7
100
AcDbLine
 10
170.812682191261
 20
196.7994929523465
 30
0.0
 11
165.5877205737455
 21
196.7994929523465
 31
0.0
  0
LINE
  5
1BB
330
2
100
AcDbEntity
  8
0
  6
Continuous
 62
     7
100
AcDbLine
 10
170.6619164930348
 20
196.2995244415188
 30
0.0
 11
165.4411212797761
 21
196.2995244415188
 31
0.0
  0
LINE
  5
1BC
330
2
100
AcDbEntity
  8
0
  6
Continuous
 62
     7
100
AcDbLine
 10
170.5112476879307
 20
195.799459037569
 30
0.0
 11
165.2944250926843
 21
195.799459037569
 31
0.0
  0
LINE
  5
1BD
330
2
100
AcDbEntity
  8
0
  6
Continuous
 62
     7
100
AcDbLine
 10
170.3605788828266
 20
195.2994905267413
 30
0.0
 11
165.1477289055927
 21
195.2994905267413
 31
0.0
  0
LINE
  5
1BE
330
2
100
AcDbEntity
  8
0
  6
Continuous
 62
     7
100
AcDbLine
 10
170.2099100777226
 20
194.7995220159136
 30
0.0
 11
165.0011296116233
 21
194.7995220159136
 31
0.0
  0
LINE
  5
1BF
330
2
100
AcDbEntity
  8
0
  6
Continuous
 62
     7
100
AcDbLine
 10
170.0592412726184
 20
194.2994566119638
 30
0.0
 11
164.8544334245316
 21
194.2994566119638
 31
0.0
  0
LINE
  5
1C0
330
2
100
AcDbEntity
  8
0
  6
Continuous
 62
     7
100
AcDbLine
 10
169.9085724675144
 20
193.7994881011361
 30
0.0
 11
164.70773723744
 21
193.7994881011361
 31
0.0
  0
LINE
  5
1C1
330
2
100
AcDbEntity
  8
0
  6
Continuous
 62
     7
100
AcDbLine
 10
169.7578067692881
 20
193.2995195903085
 30
0.0
 11
164.5611379434706
 21
193.2995195903085
 31
0.0
  0
LINE
  5
1C2
330
2
100
AcDbEntity
  8
0
  6
Continuous
 62
     7
100
AcDbLine
 10
169.607137964184
 20
192.7994541863587
 30
0.0
 11
164.4144417563789
 21
192.7994541863587
 31
0.0
  0
LINE
  5
1C3
330
2
100
AcDbEntity
  8
0
  6
Continuous
 62
     7
100
AcDbLine
 10
169.45646915908
 20
192.299485675531
 30
0.0
 11
164.2677455692872
 21
192.299485675531
 31
0.0
  0
LINE
  5
1C4
330
2
100
AcDbEntity
  8
0
  6
Continuous
 62
     7
100
AcDbLine
 10
169.3058003539759
 20
191.7995171647033
 30
0.0
 11
164.1210493821955
 21
191.7995171647033
 31
0.0
  0
LINE
  5
1C5
330
2
100
AcDbEntity
  8
0
  6
Continuous
 62
     7
100
AcDbLine
 10
169.1551315488718
 20
191.2994517607535
 30
0.0
 11
163.9744500882261
 21
191.2994517607535
 31
0.0
  0
LINE
  5
1C6
330
2
100
AcDbEntity
  8
0
  6
Continuous
 62
     7
100
AcDbLine
 10
169.0044627437678
 20
190.7994832499258
 30
0.0
 11
163.8277539011344
 21
190.7994832499258
 31
0.0
  0
LINE
  5
1C7
330
2
100
AcDbEntity
  8
0
  6
Continuous
 62
     7
100
AcDbLine
 10
169.2543501060594
 20
190.2995147390981
 30
0.0
 11
163.6810577140427
 21
190.2995147390981
 31
0.0
  0
LINE
  5
1C8
330
2
100
AcDbEntity
  8
0
  6
Continuous
 62
     7
100
AcDbLine
 10
169.8376467020249
 20
189.7994493351483
 30
0.0
 11
163.2545341898832
 21
189.7994493351483
 31
0.0
  0
LINE
  5
1C9
330
2
100
AcDbEntity
  8
0
  6
Continuous
 62
     7
100
AcDbLine
 10
159.2543985307732
 20
190.0494335905621
 30
0.0
 11
160.0043512970146
 21
189.5493681866123
 31
0.0
  0
LINE
  5
1CA
330
2
100
AcDbEntity
  8
0
  6
Continuous
 62
     7
100
AcDbLine
 10
163.0044530413471
 20
189.5493681866123
 30
0.0
 11
163.5044215521748
 21
190.0494335905621
 31
0.0
  0
LINE
  5
1CB
330
2
100
AcDbEntity
  8
0
  6
Continuous
 62
     7
100
AcDbLine
 10
163.5044215521748
 20
190.0494335905621
 30
0.0
 11
163.7544058075887
 21
190.5494021013897
 31
0.0
  0
LINE
  5
1CC
330
2
100
AcDbEntity
  8
0
  6
Continuous
 62
     7
100
AcDbLine
 10
159.0044142753593
 20
191.2993548676313
 30
0.0
 11
159.0044142753593
 21
190.5494021013897
 31
0.0
  0
LINE
  5
1CD
330
2
100
AcDbEntity
  8
0
  6
Continuous
 62
     7
100
AcDbLine
 10
159.0044142753593
 20
190.5494021013897
 30
0.0
 11
159.2543985307732
 21
190.0494335905621
 31
0.0
  0
LINE
  5
1CE
330
2
100
AcDbEntity
  8
0
  6
Continuous
 62
     7
100
AcDbLine
 10
173.0804657176023
 20
204.2995050803723
 30
0.0
 11
167.7877758076316
 21
204.2995050803723
 31
0.0
  0
LINE
  5
1CF
330
2
100
AcDbEntity
  8
0
  6
Continuous
 62
     7
100
AcDbLine
 10
172.9283435156644
 20
203.7994396764224
 30
0.0
 11
167.6410796205399
 21
203.7994396764224
 31
0.0
  0
LINE
  5
1D0
330
2
100
AcDbEntity
  8
0
  6
Continuous
 62
     7
100
AcDbLine
 10
172.7761244206043
 20
203.2994711655948
 30
0.0
 11
167.4943834334483
 21
203.2994711655948
 31
0.0
  0
LINE
  5
1D1
330
2
100
AcDbEntity
  8
0
  6
Continuous
 62
     7
100
AcDbLine
 10
172.6240022186665
 20
202.7995026547671
 30
0.0
 11
167.3477841394789
 21
202.7995026547671
 31
0.0
  0
LINE
  5
1D2
330
2
100
AcDbEntity
  8
0
  6
Continuous
 62
     7
100
AcDbLine
 10
172.4717831236064
 20
202.2994372508172
 30
0.0
 11
167.2010879523872
 21
202.2994372508172
 31
0.0
  0
LINE
  5
1D3
330
2
100
AcDbEntity
  8
0
  6
Continuous
 62
     7
100
AcDbLine
 10
171.754386446442
 20
199.9243930381414
 30
0.0
 11
169.0043658506456
 21
190.7993863568036
 31
0.0
  0
LINE
  5
1D4
330
2
100
AcDbEntity
  8
0
  6
Continuous
 62
     7
100
AcDbLine
 10
169.0043658506456
 20
190.7993863568036
 30
0.0
 11
169.2543501060594
 21
190.299417845976
 31
0.0
  0
LINE
  5
1D5
330
2
100
AcDbEntity
  8
0
  6
Continuous
 62
     7
100
AcDbLine
 10
169.5044312545955
 20
190.0494335905621
 30
0.0
 11
170.004399765423
 21
189.6743603143191
 31
0.0
  0
LINE
  5
1D6
330
2
100
AcDbEntity
  8
0
  6
Continuous
 62
     7
100
AcDbLine
 10
169.2543501060594
 20
190.299417845976
 30
0.0
 11
169.5044312545955
 21
190.0494335905621
 31
0.0
  0
LINE
  5
1D7
330
2
100
AcDbEntity
  8
0
  6
Continuous
 62
     7
100
AcDbLine
 10
172.1293628295627
 20
201.1744112083329
 30
0.0
 11
172.9543108724284
 21
201.0494190806259
 31
0.0
  0
LINE
  5
1D8
330
2
100
AcDbEntity
  8
0
  6
Continuous
 62
     7
100
AcDbLine
 10
172.8794124889265
 20
199.9243930381414
 30
0.0
 11
171.754386446442
 21
199.9243930381414
 31
0.0
  0
LINE
  5
1D9
330
2
100
AcDbEntity
  8
0
  6
Continuous
 62
     7
100
AcDbLine
 10
172.3196609216685
 20
201.7994687399896
 30
0.0
 11
167.0543917652955
 21
201.7994687399896
 31
0.0
  0
LINE
  5
1DA
330
2
100
AcDbEntity
  8
0
  6
Continuous
 62
     7
100
AcDbLine
 10
172.1674418266084
 20
201.299500229162
 30
0.0
 11
166.907792471326
 21
201.299500229162
 31
0.0
  0
LINE
  5
1DB
330
2
100
AcDbEntity
  8
0
  6
Continuous
 62
     7
100
AcDbLine
 10
171.7167919150077
 20
199.7994978035568
 30
0.0
 11
166.4678008031733
 21
199.7994978035568
 31
0.0
  0
LINE
  5
1DC
330
2
100
AcDbEntity
  8
0
  6
Continuous
 62
     7
100
AcDbLine
 10
171.5660262167814
 20
199.2994323996069
 30
0.0
 11
166.3211046160817
 21
199.2994323996069
 31
0.0
  0
LINE
  5
1DD
330
2
100
AcDbEntity
  8
0
  6
Continuous
 62
     7
100
AcDbLine
 10
171.4153574116774
 20
198.7994638887793
 30
0.0
 11
166.17440842899
 21
198.7994638887793
 31
0.0
  0
LINE
  5
1DE
330
2
100
AcDbEntity
  8
0
  6
Continuous
 62
     7
100
AcDbLine
 10
171.2646886065732
 20
198.2994953779516
 30
0.0
 11
166.0278091350205
 21
198.2994953779516
 31
0.0
  0
LINE
  5
1DF
330
2
100
AcDbEntity
  8
0
  6
Continuous
 62
     7
100
AcDbLine
 10
166.7544106587989
 20
210.7992895073761
 30
0.0
 11
165.7543767440214
 21
210.5493052519623
 31
0.0
  0
LINE
  5
1E0
330
2
100
AcDbEntity
  8
0
  6
Continuous
 62
     7
100
AcDbLine
 10
165.0043270846577
 20
210.236824932695
 30
0.0
 11
164.5043585738301
 21
209.7993524857209
 31
0.0
  0
LINE
  5
1E1
330
2
100
AcDbEntity
  8
0
  6
Continuous
 62
     7
100
AcDbLine
 10
165.7543767440214
 20
210.5493052519623
 30
0.0
 11
165.0043270846577
 21
210.236824932695
 31
0.0
  0
LINE
  5
1E2
330
2
100
AcDbEntity
  8
0
  6
Continuous
 62
     7
100
AcDbLine
 10
163.9340456562464
 20
208.7994154640655
 30
0.0
 11
159.2211641898401
 21
208.7994154640655
 31
0.0
  0
LINE
  5
1E3
330
2
100
AcDbEntity
  8
0
  6
Continuous
 62
     7
100
AcDbLine
 10
159.4817097955796
 20
209.6985836385772
 30
0.0
 11
159.2997445119877
 21
210.2993209965485
 31
0.0
  0
LINE
  5
1E4
330
2
100
AcDbEntity
  8
0
  6
Continuous
 62
     7
100
AcDbLine
 10
163.79316305649
 20
208.2994469532379
 30
0.0
 11
159.0762120789491
 21
208.2994469532379
 31
0.0
  0
LINE
  5
1E5
330
2
100
AcDbEntity
  8
0
  6
Continuous
 62
     7
100
AcDbLine
 10
163.6522804567334
 20
207.7994784424103
 30
0.0
 11
158.9313568611802
 21
207.7994784424103
 31
0.0
  0
LINE
  5
1E6
330
2
100
AcDbEntity
  8
0
  6
Continuous
 62
     7
100
AcDbLine
 10
163.5114947500992
 20
207.2995099315826
 30
0.0
 11
158.7864047502891
 21
207.2995099315826
 31
0.0
  0
LINE
  5
1E7
330
2
100
AcDbEntity
  8
0
  6
Continuous
 62
     7
100
AcDbLine
 10
159.2997445119877
 20
210.2993209965485
 30
0.0
 11
159.0044142753593
 21
210.5493052519623
 31
0.0
  0
LINE
  5
1E8
330
2
100
AcDbEntity
  8
0
  6
Continuous
 62
     7
100
AcDbLine
 10
164.5045523600745
 20
209.799449378843
 30
0.0
 11
159.4511884620698
 21
209.799449378843
 31
0.0
  0
LINE
  5
1E9
330
2
100
AcDbEntity
  8
0
  6
Continuous
 62
     7
100
AcDbLine
 10
164.1711431264005
 20
209.2994808680155
 30
0.0
 11
159.3660194076091
 21
209.2994808680155
 31
0.0
  0
LINE
  5
1EA
330
2
100
AcDbEntity
  8
0
  6
Continuous
 62
     7
100
AcDbLine
 10
165.154705210395
 20
210.2994178896707
 30
0.0
 11
159.2997445119877
 21
210.2994178896707
 31
0.0
  0
LINE
  5
1EB
330
2
100
AcDbEntity
  8
0
  6
Continuous
 62
     7
100
AcDbLine
 10
164.5043585738301
 20
209.7993524857209
 30
0.0
 11
164.0043900630024
 21
209.0493028263571
 31
0.0
  0
LINE
  5
1EC
330
2
100
AcDbEntity
  8
0
  6
Continuous
 62
     7
100
AcDbLine
 10
169.2543501060594
 20
209.2993839748932
 30
0.0
 11
169.4907693243576
 21
209.9954641651618
 31
0.0
  0
LINE
  5
1ED
330
2
100
AcDbEntity
  8
0
  6
Continuous
 62
     7
100
AcDbLine
 10
169.4907693243576
 20
209.9954641651618
 30
0.0
 11
169.2612295177393
 21
210.5358371079691
 31
0.0
  0
LINE
  5
1EE
330
2
100
AcDbEntity
  8
0
  6
Continuous
 62
     7
100
AcDbLine
 10
167.2543791696266
 20
211.2993549113259
 30
0.0
 11
167.2543791696266
 21
211.04927376279
 31
0.0
  0
LINE
  5
1EF
330
2
100
AcDbEntity
  8
0
  6
Continuous
 62
     7
100
AcDbLine
 10
167.2543791696266
 20
211.04927376279
 30
0.0
 11
166.7544106587989
 21
210.7992895073761
 31
0.0
  0
LINE
  5
1F0
330
2
100
AcDbEntity
  8
0
  6
Continuous
 62
     7
100
AcDbLine
 10
168.5043973398179
 20
210.7993864004984
 30
0.0
 11
168.0044288289903
 21
211.0493706559121
 31
0.0
  0
LINE
  5
1F1
330
2
100
AcDbEntity
  8
0
  6
Continuous
 62
     7
100
AcDbLine
 10
168.0044288289903
 20
211.0493706559121
 30
0.0
 11
168.0044288289903
 21
211.2993549113259
 31
0.0
  0
LINE
  5
1F2
330
2
100
AcDbEntity
  8
0
  6
Continuous
 62
     7
100
AcDbLine
 10
173.2326848126624
 20
204.7994735912
 30
0.0
 11
167.9344719947232
 21
204.7994735912
 31
0.0
  0
LINE
  5
1F3
330
2
100
AcDbEntity
  8
0
  6
Continuous
 62
     7
100
AcDbLine
 10
169.2612295177393
 20
210.5358371079691
 30
0.0
 11
168.5043973398179
 21
210.7993864004984
 31
0.0
  0
LINE
  5
1F4
330
2
100
AcDbEntity
  8
0
  6
Continuous
 62
     7
100
AcDbLine
 10
185.2544082768885
 20
203.7993427833002
 30
0.0
 11
185.670564236967
 21
204.5493924426639
 31
0.0
  0
LINE
  5
1F5
330
2
100
AcDbEntity
  8
0
  6
Continuous
 62
     7
100
AcDbLine
 10
183.3793325750404
 20
204.7993766980777
 30
0.0
 11
183.0043561919197
 21
204.049327038714
 31
0.0
  0
LINE
  5
1F6
330
2
100
AcDbEntity
  8
0
  6
Continuous
 62
     7
100
AcDbLine
 10
178.0043804042765
 20
203.7993427833002
 30
0.0
 11
178.4908807711109
 21
204.8060623235133
 31
0.0
  0
LINE
  5
1F7
330
2
100
AcDbEntity
  8
0
  6
Continuous
 62
     7
100
AcDbLine
 10
183.1294452127488
 20
204.2995050803723
 30
0.0
 11
178.2460318511765
 21
204.2995050803723
 31
0.0
  0
LINE
  5
1F8
330
2
100
AcDbEntity
  8
0
  6
Continuous
 62
     7
100
AcDbLine
 10
182.837796914766
 20
203.7994396764224
 30
0.0
 11
178.0044772973988
 21
203.7994396764224
 31
0.0
  0
LINE
  5
1F9
330
2
100
AcDbEntity
  8
0
  6
Continuous
 62
     7
100
AcDbLine
 10
182.5044845742143
 20
203.2994711655948
 30
0.0
 11
177.6528521567411
 21
203.2994711655948
 31
0.0
  0
LINE
  5
1FA
330
2
100
AcDbEntity
  8
0
  6
Continuous
 62
     7
100
AcDbLine
 10
182.1102264597651
 20
202.7995026547671
 30
0.0
 11
177.3013239092057
 21
202.7995026547671
 31
0.0
  0
LINE
  5
1FB
330
2
100
AcDbEntity
  8
0
  6
Continuous
 62
     7
100
AcDbLine
 10
181.6534722814625
 20
202.2994372508172
 30
0.0
 11
176.7846897813505
 21
202.2994372508172
 31
0.0
  0
LINE
  5
1FC
330
2
100
AcDbEntity
  8
0
  6
Continuous
 62
     7
100
AcDbLine
 10
180.9911108977381
 20
201.6743797191604
 30
0.0
 11
180.4190539039539
 21
201.2994033360397
 31
0.0
  0
LINE
  5
1FD
330
2
100
AcDbEntity
  8
0
  6
Continuous
 62
     7
100
AcDbLine
 10
180.3793277238301
 20
191.0493706122174
 30
0.0
 11
180.754401000073
 21
190.174425718269
 31
0.0
  0
LINE
  5
1FE
330
2
100
AcDbEntity
  8
0
  6
Continuous
 62
     7
100
AcDbLine
 10
181.1358692223848
 20
201.7994687399896
 30
0.0
 11
176.0929697815834
 21
201.7994687399896
 31
0.0
  0
LINE
  5
1FF
330
2
100
AcDbEntity
  8
0
  6
Continuous
 62
     7
100
AcDbLine
 10
181.2126085752095
 20
189.7994493351483
 30
0.0
 11
175.7234194133088
 21
189.7994493351483
 31
0.0
  0
LINE
  5
200
330
2
100
AcDbEntity
  8
0
  6
Continuous
 62
     7
100
AcDbLine
 10
180.7007222103447
 20
190.2995147390981
 30
0.0
 11
175.5830212791636
 21
190.2995147390981
 31
0.0
  0
LINE
  5
201
330
2
100
AcDbEntity
  8
0
  6
Continuous
 62
     7
100
AcDbLine
 10
177.2273944569264
 20
202.6943736171222
 30
0.0
 11
178.0043804042765
 21
203.7993427833002
 31
0.0
  0
LINE
  5
202
330
2
100
AcDbEntity
  8
0
  6
Continuous
 62
     7
100
AcDbLine
 10
180.4190539039539
 20
201.2994033360397
 30
0.0
 11
178.9190514783488
 21
200.5493536766761
 31
0.0
  0
LINE
  5
203
330
2
100
AcDbEntity
  8
0
  6
Continuous
 62
     7
100
AcDbLine
 10
175.8321334964771
 20
201.6410484851053
 30
0.0
 11
176.5043779786714
 21
202.0493561022812
 31
0.0
  0
LINE
  5
204
330
2
100
AcDbEntity
  8
0
  6
Continuous
 62
     7
100
AcDbLine
 10
178.6532736440076
 20
196.2995244415188
 30
0.0
 11
173.8975654175654
 21
196.2995244415188
 31
0.0
  0
LINE
  5
205
330
2
100
AcDbEntity
  8
0
  6
Continuous
 62
     7
100
AcDbLine
 10
174.9163965980601
 20
201.2410736764432
 30
0.0
 11
175.8321334964771
 21
201.6410484851053
 31
0.0
  0
LINE
  5
206
330
2
100
AcDbEntity
  8
0
  6
Continuous
 62
     7
100
AcDbLine
 10
174.1972558446953
 20
201.0494190806259
 30
0.0
 11
174.9163965980601
 21
201.2410736764432
 31
0.0
  0
LINE
  5
207
330
2
100
AcDbEntity
  8
0
  6
Continuous
 62
     7
100
AcDbLine
 10
178.2543646596904
 20
200.3385142426526
 30
0.0
 11
177.379419765742
 21
200.1743772935554
 31
0.0
  0
LINE
  5
208
330
2
100
AcDbEntity
  8
0
  6
Continuous
 62
     7
100
AcDbLine
 10
180.4192476901985
 20
201.299500229162
 30
0.0
 11
175.0501091067698
 21
201.299500229162
 31
0.0
  0
LINE
  5
209
330
2
100
AcDbEntity
  8
0
  6
Continuous
 62
     7
100
AcDbLine
 10
179.1464596362775
 20
194.7995220159136
 30
0.0
 11
174.3189536062455
 21
194.7995220159136
 31
0.0
  0
LINE
  5
20A
330
2
100
AcDbEntity
  8
0
  6
Continuous
 62
     7
100
AcDbLine
 10
179.3108872647415
 20
194.2994566119638
 30
0.0
 11
174.4594486335129
 21
194.2994566119638
 31
0.0
  0
LINE
  5
20B
330
2
100
AcDbEntity
  8
0
  6
Continuous
 62
     7
100
AcDbLine
 10
179.4752180000835
 20
193.7994881011361
 30
0.0
 11
174.5998467676581
 21
193.7994881011361
 31
0.0
  0
LINE
  5
20C
330
2
100
AcDbEntity
  8
0
  6
Continuous
 62
     7
100
AcDbLine
 10
179.6396456285474
 20
193.2995195903085
 30
0.0
 11
174.7403417949255
 21
193.2995195903085
 31
0.0
  0
LINE
  5
20D
330
2
100
AcDbEntity
  8
0
  6
Continuous
 62
     7
100
AcDbLine
 10
179.8039763638892
 20
192.7994541863587
 30
0.0
 11
174.8807399290708
 21
192.7994541863587
 31
0.0
  0
LINE
  5
20E
330
2
100
AcDbEntity
  8
0
  6
Continuous
 62
     7
100
AcDbLine
 10
179.9684039923534
 20
192.299485675531
 30
0.0
 11
175.0212349563383
 21
192.299485675531
 31
0.0
  0
LINE
  5
20F
330
2
100
AcDbEntity
  8
0
  6
Continuous
 62
     7
100
AcDbLine
 10
180.1327347276951
 20
191.7995171647033
 30
0.0
 11
175.1616330904835
 21
191.7995171647033
 31
0.0
  0
LINE
  5
210
330
2
100
AcDbEntity
  8
0
  6
Continuous
 62
     7
100
AcDbLine
 10
180.2971623561591
 20
191.2994517607535
 30
0.0
 11
175.3021281177509
 21
191.2994517607535
 31
0.0
  0
LINE
  5
211
330
2
100
AcDbEntity
  8
0
  6
Continuous
 62
     7
100
AcDbLine
 10
180.4864915170424
 20
190.7994832499258
 30
0.0
 11
175.4425262518962
 21
190.7994832499258
 31
0.0
  0
LINE
  5
212
330
2
100
AcDbEntity
  8
0
  6
Continuous
 62
     7
100
AcDbLine
 10
178.8177012724717
 20
195.799459037569
 30
0.0
 11
174.0380604448328
 21
195.799459037569
 31
0.0
  0
LINE
  5
213
330
2
100
AcDbEntity
  8
0
  6
Continuous
 62
     7
100
AcDbLine
 10
178.9820320078136
 20
195.2994905267413
 30
0.0
 11
174.1785554721003
 21
195.2994905267413
 31
0.0
  0
LINE
  5
214
330
2
100
AcDbEntity
  8
0
  6
Continuous
 62
     7
100
AcDbLine
 10
177.379419765742
 20
200.1743772935554
 30
0.0
 11
180.3793277238301
 21
191.0493706122174
 31
0.0
  0
LINE
  5
215
330
2
100
AcDbEntity
  8
0
  6
Continuous
 62
     7
100
AcDbLine
 10
178.9190514783488
 20
200.5493536766761
 30
0.0
 11
178.2543646596904
 21
200.3385142426526
 31
0.0
  0
LINE
  5
216
330
2
100
AcDbEntity
  8
0
  6
Continuous
 62
     7
100
AcDbLine
 10
178.16018454486
 20
197.799526867124
 30
0.0
 11
173.4762741220075
 21
197.799526867124
 31
0.0
  0
LINE
  5
217
330
2
100
AcDbEntity
  8
0
  6
Continuous
 62
     7
100
AcDbLine
 10
178.3245152802018
 20
197.2994614631741
 30
0.0
 11
173.6166722561527
 21
197.2994614631741
 31
0.0
  0
LINE
  5
218
330
2
100
AcDbEntity
  8
0
  6
Continuous
 62
     7
100
AcDbLine
 10
178.4889429086659
 20
196.7994929523465
 30
0.0
 11
173.7571672834202
 21
196.7994929523465
 31
0.0
  0
LINE
  5
219
330
2
100
AcDbEntity
  8
0
  6
Continuous
 62
     7
100
AcDbLine
 10
176.5043779786714
 20
202.0493561022812
 30
0.0
 11
177.2273944569264
 21
202.6943736171222
 31
0.0
  0
LINE
  5
21A
330
2
100
AcDbEntity
  8
0
  6
Continuous
 62
     7
100
AcDbLine
 10
184.6499889802716
 20
202.5493246131088
 30
0.0
 11
185.0043271283524
 21
203.2993742724726
 31
0.0
  0
LINE
  5
21B
330
2
100
AcDbEntity
  8
0
  6
Continuous
 62
     7
100
AcDbLine
 10
185.0043271283524
 20
203.2993742724726
 30
0.0
 11
185.2544082768885
 21
203.7993427833002
 31
0.0
  0
LINE
  5
21C
330
2
100
AcDbEntity
  8
0
  6
Continuous
 62
     7
100
AcDbLine
 10
186.2543452985438
 20
191.799420271581
 30
0.0
 11
185.5455721092601
 21
192.5493730378226
 31
0.0
  0
LINE
  5
21D
330
2
100
AcDbEntity
  8
0
  6
Continuous
 62
     7
100
AcDbLine
 10
183.9411188978656
 20
195.7993621444468
 30
0.0
 11
183.7544058512833
 21
197.0493803146381
 31
0.0
  0
LINE
  5
21E
330
2
100
AcDbEntity
  8
0
  6
Continuous
 62
     7
100
AcDbLine
 10
183.7544058512833
 20
197.0493803146381
 30
0.0
 11
183.7749471932011
 21
199.2993355064847
 31
0.0
  0
LINE
  5
21F
330
2
100
AcDbEntity
  8
0
  6
Continuous
 62
     7
100
AcDbLine
 10
183.7749471932011
 20
199.2993355064847
 30
0.0
 11
183.920577555948
 21
200.0493851658484
 31
0.0
  0
LINE
  5
220
330
2
100
AcDbEntity
  8
0
  6
Continuous
 62
     7
100
AcDbLine
 10
185.5455721092601
 20
192.5493730378226
 30
0.0
 11
184.7543428729385
 21
193.7993912080139
 31
0.0
  0
LINE
  5
221
330
2
100
AcDbEntity
  8
0
  6
Continuous
 62
     7
100
AcDbLine
 10
184.7543428729385
 20
193.7993912080139
 30
0.0
 11
184.254374362111
 21
194.7994251227914
 31
0.0
  0
LINE
  5
222
330
2
100
AcDbEntity
  8
0
  6
Continuous
 62
     7
100
AcDbLine
 10
184.254374362111
 20
194.7994251227914
 30
0.0
 11
183.9411188978656
 21
195.7993621444468
 31
0.0
  0
LINE
  5
223
330
2
100
AcDbEntity
  8
0
  6
Continuous
 62
     7
100
AcDbLine
 10
183.920577555948
 20
200.0493851658484
 30
0.0
 11
184.254374362111
 21
201.2994033360397
 31
0.0
  0
LINE
  5
224
330
2
100
AcDbEntity
  8
0
  6
Continuous
 62
     7
100
AcDbLine
 10
187.5043634687351
 20
190.6743942290967
 30
0.0
 11
187.0043949579075
 21
191.0493706122174
 31
0.0
  0
LINE
  5
225
330
2
100
AcDbEntity
  8
0
  6
Continuous
 62
     7
100
AcDbLine
 10
187.0043949579075
 20
191.0493706122174
 30
0.0
 11
186.2543452985438
 21
191.799420271581
 31
0.0
  0
LINE
  5
226
330
2
100
AcDbEntity
  8
0
  6
Continuous
 62
     7
100
AcDbLine
 10
184.254374362111
 20
201.2994033360397
 30
0.0
 11
184.6499889802716
 21
202.5493246131088
 31
0.0
  0
LINE
  5
227
330
2
100
AcDbEntity
  8
0
  6
Continuous
 62
     7
100
AcDbLine
 10
183.0043561919197
 20
204.049327038714
 30
0.0
 11
182.504387681092
 21
203.2993742724726
 31
0.0
  0
LINE
  5
228
330
2
100
AcDbEntity
  8
0
  6
Continuous
 62
     7
100
AcDbLine
 10
182.504387681092
 20
203.2993742724726
 30
0.0
 11
182.1101295666428
 21
202.7994057616449
 31
0.0
  0
LINE
  5
229
330
2
100
AcDbEntity
  8
0
  6
Continuous
 62
     7
100
AcDbLine
 10
180.754401000073
 20
190.174425718269
 30
0.0
 11
181.0043852554869
 21
189.9244414628552
 31
0.0
  0
LINE
  5
22A
330
2
100
AcDbEntity
  8
0
  6
Continuous
 62
     7
100
AcDbLine
 10
181.4250951923112
 20
202.0493561022812
 30
0.0
 11
180.9911108977381
 21
201.6743797191604
 31
0.0
  0
LINE
  5
22B
330
2
100
AcDbEntity
  8
0
  6
Continuous
 62
     7
100
AcDbLine
 10
181.0043852554869
 20
189.9244414628552
 30
0.0
 11
181.6293458940214
 21
189.5493681866123
 31
0.0
  0
LINE
  5
22C
330
2
100
AcDbEntity
  8
0
  6
Continuous
 62
     7
100
AcDbLine
 10
182.1101295666428
 20
202.7994057616449
 30
0.0
 11
181.4250951923112
 21
202.0493561022812
 31
0.0
  0
LINE
  5
22D
330
2
100
AcDbEntity
  8
0
  6
Continuous
 62
     7
100
AcDbLine
 10
180.2543355961231
 20
210.7993864004984
 30
0.0
 11
181.0043852554869
 21
210.5494021450845
 31
0.0
  0
LINE
  5
22E
330
2
100
AcDbEntity
  8
0
  6
Continuous
 62
     7
100
AcDbLine
 10
183.5356211812352
 20
208.2994469532379
 30
0.0
 11
178.6710050853801
 21
208.2994469532379
 31
0.0
  0
LINE
  5
22F
330
2
100
AcDbEntity
  8
0
  6
Continuous
 62
     7
100
AcDbLine
 10
182.2542096394336
 20
209.799449378843
 30
0.0
 11
177.4726309493497
 21
209.799449378843
 31
0.0
  0
LINE
  5
230
330
2
100
AcDbEntity
  8
0
  6
Continuous
 62
     7
100
AcDbLine
 10
182.8256852744844
 20
209.2994808680155
 30
0.0
 11
178.2351798214842
 21
209.2994808680155
 31
0.0
  0
LINE
  5
231
330
2
100
AcDbEntity
  8
0
  6
Continuous
 62
     7
100
AcDbLine
 10
183.3168365111869
 20
208.7994154640655
 30
0.0
 11
178.5043489151042
 21
208.7994154640655
 31
0.0
  0
LINE
  5
232
330
2
100
AcDbEntity
  8
0
  6
Continuous
 62
     7
100
AcDbLine
 10
183.3794294681627
 20
204.7994735912
 30
0.0
 11
178.4891366949103
 21
204.7994735912
 31
0.0
  0
LINE
  5
233
330
2
100
AcDbEntity
  8
0
  6
Continuous
 62
     7
100
AcDbLine
 10
183.660613308942
 20
207.7994784424103
 30
0.0
 11
178.7856296490058
 21
207.7994784424103
 31
0.0
  0
LINE
  5
234
330
2
100
AcDbEntity
  8
0
  6
Continuous
 62
     7
100
AcDbLine
 10
183.7544058512833
 20
207.2995099315826
 30
0.0
 11
178.8481257128593
 21
207.2995099315826
 31
0.0
  0
LINE
  5
235
330
2
100
AcDbEntity
  8
0
  6
Continuous
 62
     7
100
AcDbLine
 10
183.7544058512833
 20
206.7994445276327
 30
0.0
 11
178.8794221913472
 21
206.7994445276327
 31
0.0
  0
LINE
  5
236
330
2
100
AcDbEntity
  8
0
  6
Continuous
 62
     7
100
AcDbLine
 10
183.7544058512833
 20
206.2994760168051
 30
0.0
 11
178.8377581487782
 21
206.2994760168051
 31
0.0
  0
LINE
  5
237
330
2
100
AcDbEntity
  8
0
  6
Continuous
 62
     7
100
AcDbLine
 10
183.6919097874299
 20
205.7995075059775
 30
0.0
 11
178.7544300636402
 21
205.7995075059775
 31
0.0
  0
LINE
  5
238
330
2
100
AcDbEntity
  8
0
  6
Continuous
 62
     7
100
AcDbLine
 10
183.5460856384385
 20
205.2994421020275
 30
0.0
 11
178.6217833792751
 21
205.2994421020275
 31
0.0
  0
LINE
  5
239
330
2
100
AcDbEntity
  8
0
  6
Continuous
 62
     7
100
AcDbLine
 10
179.5043828298817
 20
211.0493706559121
 30
0.0
 11
180.2543355961231
 21
210.7993864004984
 31
0.0
  0
LINE
  5
23A
330
2
100
AcDbEntity
  8
0
  6
Continuous
 62
     7
100
AcDbLine
 10
178.8794221913472
 20
206.5493633790967
 30
0.0
 11
178.8794221913472
 21
207.0493318899243
 31
0.0
  0
LINE
  5
23B
330
2
100
AcDbEntity
  8
0
  6
Continuous
 62
     7
100
AcDbLine
 10
178.754333170518
 20
205.7994106128552
 30
0.0
 11
178.8794221913472
 21
206.5493633790967
 31
0.0
  0
LINE
  5
23C
330
2
100
AcDbEntity
  8
0
  6
Continuous
 62
     7
100
AcDbLine
 10
178.8794221913472
 20
207.0493318899243
 30
0.0
 11
178.754333170518
 21
208.0493658047019
 31
0.0
  0
LINE
  5
23D
330
2
100
AcDbEntity
  8
0
  6
Continuous
 62
     7
100
AcDbLine
 10
177.4728247355942
 20
209.7993524857209
 30
0.0
 11
174.7636930373887
 21
209.7993524857209
 31
0.0
  0
LINE
  5
23E
330
2
100
AcDbEntity
  8
0
  6
Continuous
 62
     7
100
AcDbLine
 10
178.5043489151042
 20
208.7993185709433
 30
0.0
 11
178.2753904672194
 21
209.2578168254465
 31
0.0
  0
LINE
  5
23F
330
2
100
AcDbEntity
  8
0
  6
Continuous
 62
     7
100
AcDbLine
 10
178.2753904672194
 20
209.2578168254465
 30
0.0
 11
177.9938190539509
 21
209.5493682303069
 31
0.0
  0
LINE
  5
240
330
2
100
AcDbEntity
  8
0
  6
Continuous
 62
     7
100
AcDbLine
 10
177.9938190539509
 20
209.5493682303069
 30
0.0
 11
177.4728247355942
 21
209.7993524857209
 31
0.0
  0
LINE
  5
241
330
2
100
AcDbEntity
  8
0
  6
Continuous
 62
     7
100
AcDbLine
 10
178.0043804042765
 20
211.2993549113259
 30
0.0
 11
179.5043828298817
 21
211.0493706559121
 31
0.0
  0
LINE
  5
242
330
2
100
AcDbEntity
  8
0
  6
Continuous
 62
     7
100
AcDbLine
 10
178.754333170518
 20
208.0493658047019
 30
0.0
 11
178.5043489151042
 21
208.7993185709433
 31
0.0
  0
LINE
  5
243
330
2
100
AcDbEntity
  8
0
  6
Continuous
 62
     7
100
AcDbLine
 10
178.4908807711109
 20
204.8060623235133
 30
0.0
 11
178.754333170518
 21
205.7994106128552
 31
0.0
  0
LINE
  5
244
330
2
100
AcDbEntity
  8
0
  6
Continuous
 62
     7
100
AcDbLine
 10
185.670564236967
 20
204.5493924426639
 30
0.0
 11
186.0455406200876
 21
205.0493609534916
 31
0.0
  0
LINE
  5
245
330
2
100
AcDbEntity
  8
0
  6
Continuous
 62
     7
100
AcDbLine
 10
183.7544058512833
 20
207.4244051661674
 30
0.0
 11
183.7544058512833
 21
206.049394868269
 31
0.0
  0
LINE
  5
246
330
2
100
AcDbEntity
  8
0
  6
Continuous
 62
     7
100
AcDbLine
 10
183.7544058512833
 20
206.049394868269
 30
0.0
 11
183.6294137235764
 21
205.5493294643191
 31
0.0
  0
LINE
  5
247
330
2
100
AcDbEntity
  8
0
  6
Continuous
 62
     7
100
AcDbLine
 10
186.0455406200876
 20
205.0493609534916
 30
0.0
 11
186.8794028302005
 21
206.2993791236829
 31
0.0
  0
LINE
  5
248
330
2
100
AcDbEntity
  8
0
  6
Continuous
 62
     7
100
AcDbLine
 10
181.0043852554869
 20
210.5494021450845
 30
0.0
 11
182.2544034256781
 21
209.7993524857209
 31
0.0
  0
LINE
  5
249
330
2
100
AcDbEntity
  8
0
  6
Continuous
 62
     7
100
AcDbLine
 10
182.2544034256781
 20
209.7993524857209
 30
0.0
 11
183.2543404473334
 21
208.9244075917724
 31
0.0
  0
LINE
  5
24A
330
2
100
AcDbEntity
  8
0
  6
Continuous
 62
     7
100
AcDbLine
 10
183.2543404473334
 20
208.9244075917724
 30
0.0
 11
183.5043247027473
 21
208.4243421878226
 31
0.0
  0
LINE
  5
24B
330
2
100
AcDbEntity
  8
0
  6
Continuous
 62
     7
100
AcDbLine
 10
183.5043247027473
 20
208.4243421878226
 30
0.0
 11
183.7544058512833
 21
207.4244051661674
 31
0.0
  0
LINE
  5
24C
330
2
100
AcDbEntity
  8
0
  6
Continuous
 62
     7
100
AcDbLine
 10
183.6294137235764
 20
205.5493294643191
 30
0.0
 11
183.3793325750404
 21
204.7993766980777
 31
0.0
  0
LINE
  5
24D
330
2
100
AcDbEntity
  8
0
  6
Continuous
 62
     7
100
AcDbLine
 10
197.2543307886076
 20
189.5493681866123
 30
0.0
 11
196.7543622777799
 21
189.2993839311984
 31
0.0
  0
LINE
  5
24E
330
2
100
AcDbEntity
  8
0
  6
Continuous
 62
     7
100
AcDbLine
 10
189.8793107882886
 20
189.2993839311984
 30
0.0
 11
188.8793737666334
 21
189.7993524420261
 31
0.0
  0
LINE
  5
24F
330
2
100
AcDbEntity
  8
0
  6
Continuous
 62
     7
100
AcDbLine
 10
196.0043126184162
 20
189.0493996757846
 30
0.0
 11
195.0043755967609
 21
188.7994154203708
 31
0.0
  0
LINE
  5
250
330
2
100
AcDbEntity
  8
0
  6
Continuous
 62
     7
100
AcDbLine
 10
196.7546529571466
 20
189.2995777174429
 30
0.0
 11
189.8791170020441
 21
189.2995777174429
 31
0.0
  0
LINE
  5
251
330
2
100
AcDbEntity
  8
0
  6
Continuous
 62
     7
100
AcDbLine
 10
195.0043755967609
 20
188.7994154203708
 30
0.0
 11
193.5043731711557
 21
188.6744232926639
 31
0.0
  0
LINE
  5
252
330
2
100
AcDbEntity
  8
0
  6
Continuous
 62
     7
100
AcDbLine
 10
191.7543864901366
 20
188.7994154203708
 30
0.0
 11
190.5043683199454
 21
189.0493996757846
 31
0.0
  0
LINE
  5
253
330
2
100
AcDbEntity
  8
0
  6
Continuous
 62
     7
100
AcDbLine
 10
190.5043683199454
 20
189.0493996757846
 30
0.0
 11
189.8793107882886
 21
189.2993839311984
 31
0.0
  0
LINE
  5
254
330
2
100
AcDbEntity
  8
0
  6
Continuous
 62
     7
100
AcDbLine
 10
193.5043731711557
 20
188.6744232926639
 30
0.0
 11
191.7543864901366
 21
188.7994154203708
 31
0.0
  0
LINE
  5
255
330
2
100
AcDbEntity
  8
0
  6
Continuous
 62
     7
100
AcDbLine
 10
195.00476316925
 20
188.799512313493
 30
0.0
 11
191.7530299864253
 21
188.799512313493
 31
0.0
  0
LINE
  5
256
330
2
100
AcDbEntity
  8
0
  6
Continuous
 62
     7
100
AcDbLine
 10
196.7543622777799
 20
189.2993839311984
 30
0.0
 11
196.0043126184162
 21
189.0493996757846
 31
0.0
  0
LINE
  5
257
330
2
100
AcDbEntity
  8
0
  6
Continuous
 62
     7
100
AcDbLine
 10
202.2543065762507
 20
210.9447260838785
 30
0.0
 11
203.0043562356144
 21
210.7790388448252
 31
0.0
  0
LINE
  5
258
330
2
100
AcDbEntity
  8
0
  6
Continuous
 62
     7
100
AcDbLine
 10
203.0103636091942
 20
208.1743579324089
 30
0.0
 11
202.4144709073356
 21
208.7993185709433
 31
0.0
  0
LINE
  5
259
330
2
100
AcDbEntity
  8
0
  6
Continuous
 62
     7
100
AcDbLine
 10
202.9118233038624
 20
210.7994832936206
 30
0.0
 11
194.1298182753016
 21
210.7994832936206
 31
0.0
  0
LINE
  5
25A
330
2
100
AcDbEntity
  8
0
  6
Continuous
 62
     7
100
AcDbLine
 10
205.5487696259892
 20
210.2994178896707
 30
0.0
 11
192.6296220634519
 21
210.2994178896707
 31
0.0
  0
LINE
  5
25B
330
2
100
AcDbEntity
  8
0
  6
Continuous
 62
     7
100
AcDbLine
 10
205.3599249307173
 20
209.799449378843
 30
0.0
 11
200.7081830244529
 21
209.799449378843
 31
0.0
  0
LINE
  5
25C
330
2
100
AcDbEntity
  8
0
  6
Continuous
 62
     7
100
AcDbLine
 10
205.1710802354454
 20
209.2994808680155
 30
0.0
 11
201.7002717032057
 21
209.2994808680155
 31
0.0
  0
LINE
  5
25D
330
2
100
AcDbEntity
  8
0
  6
Continuous
 62
     7
100
AcDbLine
 10
204.9821386470512
 20
208.7994154640655
 30
0.0
 11
202.4143740142133
 21
208.7994154640655
 31
0.0
  0
LINE
  5
25E
330
2
100
AcDbEntity
  8
0
  6
Continuous
 62
     7
100
AcDbLine
 10
190.8793447030662
 20
205.2993452089054
 30
0.0
 11
190.1705715137824
 21
203.7993427833002
 31
0.0
  0
LINE
  5
25F
330
2
100
AcDbEntity
  8
0
  6
Continuous
 62
     7
100
AcDbLine
 10
195.2543598521747
 20
190.0494335905621
 30
0.0
 11
196.2308487382447
 21
190.2557190478396
 31
0.0
  0
LINE
  5
260
330
2
100
AcDbEntity
  8
0
  6
Continuous
 62
     7
100
AcDbLine
 10
197.7133135087219
 20
189.7994493351483
 30
0.0
 11
188.8791799803889
 21
189.7994493351483
 31
0.0
  0
LINE
  5
261
330
2
100
AcDbEntity
  8
0
  6
Continuous
 62
     7
100
AcDbLine
 10
193.5660940900312
 20
190.0290860348889
 30
0.0
 11
195.2543598521747
 21
190.0494335905621
 31
0.0
  0
LINE
  5
262
330
2
100
AcDbEntity
  8
0
  6
Continuous
 62
     7
100
AcDbLine
 10
189.7543186605818
 20
192.6743651655294
 30
0.0
 11
191.1278755616462
 21
191.1307608349103
 31
0.0
  0
LINE
  5
263
330
2
100
AcDbEntity
  8
0
  6
Continuous
 62
     7
100
AcDbLine
 10
189.1293580220472
 20
200.0493851658484
 30
0.0
 11
188.7543816389264
 21
198.0494142294156
 31
0.0
  0
LINE
  5
264
330
2
100
AcDbEntity
  8
0
  6
Continuous
 62
     7
100
AcDbLine
 10
188.7543816389264
 20
198.0494142294156
 30
0.0
 11
188.6293895112196
 21
196.2994275483966
 31
0.0
  0
LINE
  5
265
330
2
100
AcDbEntity
  8
0
  6
Continuous
 62
     7
100
AcDbLine
 10
188.7749229808441
 20
195.0494093782052
 30
0.0
 11
189.0043658943401
 21
194.2993597188416
 31
0.0
  0
LINE
  5
266
330
2
100
AcDbEntity
  8
0
  6
Continuous
 62
     7
100
AcDbLine
 10
189.0043658943401
 20
194.2993597188416
 30
0.0
 11
189.2543501497541
 21
193.5494069526001
 31
0.0
  0
LINE
  5
267
330
2
100
AcDbEntity
  8
0
  6
Continuous
 62
     7
100
AcDbLine
 10
189.2543501497541
 20
193.5494069526001
 30
0.0
 11
189.7543186605818
 21
192.6743651655294
 31
0.0
  0
LINE
  5
268
330
2
100
AcDbEntity
  8
0
  6
Continuous
 62
     7
100
AcDbLine
 10
188.6293895112196
 20
196.2994275483966
 30
0.0
 11
188.7749229808441
 21
195.0494093782052
 31
0.0
  0
LINE
  5
269
330
2
100
AcDbEntity
  8
0
  6
Continuous
 62
     7
100
AcDbLine
 10
189.6293265328749
 20
202.0493561022812
 30
0.0
 11
189.1293580220472
 21
200.0493851658484
 31
0.0
  0
LINE
  5
26A
330
2
100
AcDbEntity
  8
0
  6
Continuous
 62
     7
100
AcDbLine
 10
191.1278755616462
 20
191.1307608349103
 30
0.0
 11
191.5455818116807
 21
190.8400814681499
 31
0.0
  0
LINE
  5
26B
330
2
100
AcDbEntity
  8
0
  6
Continuous
 62
     7
100
AcDbLine
 10
191.5455818116807
 20
190.8400814681499
 30
0.0
 11
192.2543550009644
 21
190.4244099736829
 31
0.0
  0
LINE
  5
26C
330
2
100
AcDbEntity
  8
0
  6
Continuous
 62
     7
100
AcDbLine
 10
192.6687668848424
 20
190.2995147390981
 30
0.0
 11
188.0042350864405
 21
190.2995147390981
 31
0.0
  0
LINE
  5
26D
330
2
100
AcDbEntity
  8
0
  6
Continuous
 62
     7
100
AcDbLine
 10
188.8793737666334
 20
189.7993524420261
 30
0.0
 11
188.0043319795628
 21
190.299417845976
 31
0.0
  0
LINE
  5
26E
330
2
100
AcDbEntity
  8
0
  6
Continuous
 62
     7
100
AcDbLine
 10
192.2543550009644
 20
190.4244099736829
 30
0.0
 11
193.5660940900312
 21
190.0290860348889
 31
0.0
  0
LINE
  5
26F
330
2
100
AcDbEntity
  8
0
  6
Continuous
 62
     7
100
AcDbLine
 10
190.1705715137824
 20
203.7993427833002
 30
0.0
 11
189.6293265328749
 21
202.0493561022812
 31
0.0
  0
LINE
  5
270
330
2
100
AcDbEntity
  8
0
  6
Continuous
 62
     7
100
AcDbLine
 10
199.7543671289902
 20
192.0494045269949
 30
0.0
 11
200.5043198952317
 21
192.6743651655294
 31
0.0
  0
LINE
  5
271
330
2
100
AcDbEntity
  8
0
  6
Continuous
 62
     7
100
AcDbLine
 10
200.5043198952317
 20
192.0494045269949
 30
0.0
 11
200.0043513844041
 21
191.5494360161672
 31
0.0
  0
LINE
  5
272
330
2
100
AcDbEntity
  8
0
  6
Continuous
 62
     7
100
AcDbLine
 10
200.7544010437678
 20
192.299485675531
 30
0.0
 11
200.0544451286091
 21
192.299485675531
 31
0.0
  0
LINE
  5
273
330
2
100
AcDbEntity
  8
0
  6
Continuous
 62
     7
100
AcDbLine
 10
199.2543017250403
 20
191.6744281438742
 30
0.0
 11
199.7543671289902
 21
192.0494045269949
 31
0.0
  0
LINE
  5
274
330
2
100
AcDbEntity
  8
0
  6
Continuous
 62
     7
100
AcDbLine
 10
200.0043513844041
 20
191.5494360161672
 30
0.0
 11
199.5043828735764
 21
191.0493706122174
 31
0.0
  0
LINE
  5
275
330
2
100
AcDbEntity
  8
0
  6
Continuous
 62
     7
100
AcDbLine
 10
199.5043828735764
 20
191.0493706122174
 30
0.0
 11
198.5043489587989
 21
190.299417845976
 31
0.0
  0
LINE
  5
276
330
2
100
AcDbEntity
  8
0
  6
Continuous
 62
     7
100
AcDbLine
 10
199.7544640221125
 20
191.2994517607535
 30
0.0
 11
198.6143226525565
 21
191.2994517607535
 31
0.0
  0
LINE
  5
277
330
2
100
AcDbEntity
  8
0
  6
Continuous
 62
     7
100
AcDbLine
 10
200.2544325329402
 20
191.7995171647033
 30
0.0
 11
199.4211516815608
 21
191.7995171647033
 31
0.0
  0
LINE
  5
278
330
2
100
AcDbEntity
  8
0
  6
Continuous
 62
     7
100
AcDbLine
 10
200.5043198952317
 20
192.6743651655294
 30
0.0
 11
201.0042884060593
 21
193.1744305694794
 31
0.0
  0
LINE
  5
279
330
2
100
AcDbEntity
  8
0
  6
Continuous
 62
     7
100
AcDbLine
 10
201.0042884060593
 20
193.1744305694794
 30
0.0
 11
201.3793616823024
 21
193.5494069526001
 31
0.0
  0
LINE
  5
27A
330
2
100
AcDbEntity
  8
0
  6
Continuous
 62
     7
100
AcDbLine
 10
201.3793616823024
 20
193.5494069526001
 30
0.0
 11
201.6293459377162
 21
193.4244148248932
 31
0.0
  0
LINE
  5
27B
330
2
100
AcDbEntity
  8
0
  6
Continuous
 62
     7
100
AcDbLine
 10
201.6293459377162
 20
193.4244148248932
 30
0.0
 11
201.6293459377162
 21
193.2994226971862
 31
0.0
  0
LINE
  5
27C
330
2
100
AcDbEntity
  8
0
  6
Continuous
 62
     7
100
AcDbLine
 10
201.6293459377162
 20
193.2994226971862
 30
0.0
 11
201.2543695545954
 21
192.7993572932364
 31
0.0
  0
LINE
  5
27D
330
2
100
AcDbEntity
  8
0
  6
Continuous
 62
     7
100
AcDbLine
 10
201.2543695545954
 20
192.7993572932364
 30
0.0
 11
200.5043198952317
 21
192.0494045269949
 31
0.0
  0
LINE
  5
27E
330
2
100
AcDbEntity
  8
0
  6
Continuous
 62
     7
100
AcDbLine
 10
201.2544664477177
 20
192.7994541863587
 30
0.0
 11
200.6294089160609
 21
192.7994541863587
 31
0.0
  0
LINE
  5
27F
330
2
100
AcDbEntity
  8
0
  6
Continuous
 62
     7
100
AcDbLine
 10
201.6293459377162
 20
193.2995195903085
 30
0.0
 11
201.1294743200108
 21
193.2995195903085
 31
0.0
  0
LINE
  5
280
330
2
100
AcDbEntity
  8
0
  6
Continuous
 62
     7
100
AcDbLine
 10
196.2308487382447
 20
190.2557190478396
 30
0.0
 11
197.0455261101515
 21
190.5290545457165
 31
0.0
  0
LINE
  5
281
330
2
100
AcDbEntity
  8
0
  6
Continuous
 62
     7
100
AcDbLine
 10
197.0455261101515
 20
190.5290545457165
 30
0.0
 11
198.0483699254744
 21
190.9680772826468
 31
0.0
  0
LINE
  5
282
330
2
100
AcDbEntity
  8
0
  6
Continuous
 62
     7
100
AcDbLine
 10
197.7131197224776
 20
189.7993524420261
 30
0.0
 11
197.2543307886076
 21
189.5493681866123
 31
0.0
  0
LINE
  5
283
330
2
100
AcDbEntity
  8
0
  6
Continuous
 62
     7
100
AcDbLine
 10
198.0483699254744
 20
190.9680772826468
 30
0.0
 11
199.2543017250403
 21
191.6744281438742
 31
0.0
  0
LINE
  5
284
330
2
100
AcDbEntity
  8
0
  6
Continuous
 62
     7
100
AcDbLine
 10
199.1711674261469
 20
190.7994832499258
 30
0.0
 11
197.6633166576392
 21
190.7994832499258
 31
0.0
  0
LINE
  5
285
330
2
100
AcDbEntity
  8
0
  6
Continuous
 62
     7
100
AcDbLine
 10
198.5044458519212
 20
190.2995147390981
 30
0.0
 11
196.3612668807978
 21
190.2995147390981
 31
0.0
  0
LINE
  5
286
330
2
100
AcDbEntity
  8
0
  6
Continuous
 62
     7
100
AcDbLine
 10
198.5043489587989
 20
190.299417845976
 30
0.0
 11
197.7131197224776
 21
189.7993524420261
 31
0.0
  0
LINE
  5
287
330
2
100
AcDbEntity
  8
0
  6
Continuous
 62
     7
100
AcDbLine
 10
195.2543598521747
 20
211.0493706559121
 30
0.0
 11
195.7543283630024
 21
211.1743627836191
 31
0.0
  0
LINE
  5
288
330
2
100
AcDbEntity
  8
0
  6
Continuous
 62
     7
100
AcDbLine
 10
195.7543283630024
 20
209.7790049300476
 30
0.0
 11
194.7543913413472
 21
209.3197315305665
 31
0.0
  0
LINE
  5
289
330
2
100
AcDbEntity
  8
0
  6
Continuous
 62
     7
100
AcDbLine
 10
195.8250603422474
 20
209.799449378843
 30
0.0
 11
191.5045960209674
 21
209.799449378843
 31
0.0
  0
LINE
  5
28A
330
2
100
AcDbEntity
  8
0
  6
Continuous
 62
     7
100
AcDbLine
 10
194.1293338096904
 20
210.7993864004984
 30
0.0
 11
195.2543598521747
 21
211.0493706559121
 31
0.0
  0
LINE
  5
28B
330
2
100
AcDbEntity
  8
0
  6
Continuous
 62
     7
100
AcDbLine
 10
194.7543913413472
 20
209.3197315305665
 30
0.0
 11
194.2543259373972
 21
209.0696503820304
 31
0.0
  0
LINE
  5
28C
330
2
100
AcDbEntity
  8
0
  6
Continuous
 62
     7
100
AcDbLine
 10
194.2543259373972
 20
209.0696503820304
 30
0.0
 11
193.7543574265696
 21
208.7790679083923
 31
0.0
  0
LINE
  5
28D
330
2
100
AcDbEntity
  8
0
  6
Continuous
 62
     7
100
AcDbLine
 10
189.7543186605818
 20
208.7993185709433
 30
0.0
 11
191.0043368307731
 21
209.5493682303069
 31
0.0
  0
LINE
  5
28E
330
2
100
AcDbEntity
  8
0
  6
Continuous
 62
     7
100
AcDbLine
 10
193.1294936811573
 20
208.2994469532379
 30
0.0
 11
189.040216349574
 21
208.2994469532379
 31
0.0
  0
LINE
  5
28F
330
2
100
AcDbEntity
  8
0
  6
Continuous
 62
     7
100
AcDbLine
 10
188.5043973835127
 20
207.9243736769949
 30
0.0
 11
189.7543186605818
 21
208.7993185709433
 31
0.0
  0
LINE
  5
290
330
2
100
AcDbEntity
  8
0
  6
Continuous
 62
     7
100
AcDbLine
 10
192.3793471286714
 20
207.5493972938742
 30
0.0
 11
191.6293943624299
 21
206.5493633790967
 31
0.0
  0
LINE
  5
291
330
2
100
AcDbEntity
  8
0
  6
Continuous
 62
     7
100
AcDbLine
 10
191.0043368307731
 20
209.5493682303069
 30
0.0
 11
192.0043707455505
 21
210.0493367411346
 31
0.0
  0
LINE
  5
292
330
2
100
AcDbEntity
  8
0
  6
Continuous
 62
     7
100
AcDbLine
 10
191.6293943624299
 20
206.5493633790967
 30
0.0
 11
190.8793447030662
 21
205.2993452089054
 31
0.0
  0
LINE
  5
293
330
2
100
AcDbEntity
  8
0
  6
Continuous
 62
     7
100
AcDbLine
 10
193.254388915742
 20
208.4243421878226
 30
0.0
 11
192.3793471286714
 21
207.5493972938742
 31
0.0
  0
LINE
  5
294
330
2
100
AcDbEntity
  8
0
  6
Continuous
 62
     7
100
AcDbLine
 10
192.0043707455505
 20
210.0493367411346
 30
0.0
 11
193.254388915742
 21
210.5494021450845
 31
0.0
  0
LINE
  5
295
330
2
100
AcDbEntity
  8
0
  6
Continuous
 62
     7
100
AcDbLine
 10
192.6294282772074
 20
207.7994784424103
 30
0.0
 11
188.379502148928
 21
207.7994784424103
 31
0.0
  0
LINE
  5
296
330
2
100
AcDbEntity
  8
0
  6
Continuous
 62
     7
100
AcDbLine
 10
194.7138900162451
 20
209.2994808680155
 30
0.0
 11
190.5878901913279
 21
209.2994808680155
 31
0.0
  0
LINE
  5
297
330
2
100
AcDbEntity
  8
0
  6
Continuous
 62
     7
100
AcDbLine
 10
193.7831346838788
 20
208.7994154640655
 30
0.0
 11
189.7545124468263
 21
208.7994154640655
 31
0.0
  0
LINE
  5
298
330
2
100
AcDbEntity
  8
0
  6
Continuous
 62
     7
100
AcDbLine
 10
193.7543574265696
 20
208.7790679083923
 30
0.0
 11
193.254388915742
 21
208.4243421878226
 31
0.0
  0
LINE
  5
299
330
2
100
AcDbEntity
  8
0
  6
Continuous
 62
     7
100
AcDbLine
 10
193.254388915742
 20
210.5494021450845
 30
0.0
 11
194.1293338096904
 21
210.7993864004984
 31
0.0
  0
LINE
  5
29A
330
2
100
AcDbEntity
  8
0
  6
Continuous
 62
     7
100
AcDbLine
 10
200.2543356398179
 20
211.2993549113259
 30
0.0
 11
201.2543695545954
 21
211.1540152279459
 31
0.0
  0
LINE
  5
29B
330
2
100
AcDbEntity
  8
0
  6
Continuous
 62
     7
100
AcDbLine
 10
201.5218914651372
 20
209.4243761026001
 30
0.0
 11
200.2543356398179
 21
210.0086416297882
 31
0.0
  0
LINE
  5
29C
330
2
100
AcDbEntity
  8
0
  6
Continuous
 62
     7
100
AcDbLine
 10
198.5043489587989
 20
211.4243470390329
 30
0.0
 11
200.2543356398179
 21
211.2993549113259
 31
0.0
  0
LINE
  5
29D
330
2
100
AcDbEntity
  8
0
  6
Continuous
 62
     7
100
AcDbLine
 10
200.2543356398179
 20
210.0086416297882
 30
0.0
 11
199.0043174696266
 21
210.2789734408752
 31
0.0
  0
LINE
  5
29E
330
2
100
AcDbEntity
  8
0
  6
Continuous
 62
     7
100
AcDbLine
 10
201.7543380654231
 20
211.0493706559121
 30
0.0
 11
202.2543065762507
 21
210.9447260838785
 31
0.0
  0
LINE
  5
29F
330
2
100
AcDbEntity
  8
0
  6
Continuous
 62
     7
100
AcDbLine
 10
202.4144709073356
 20
208.7993185709433
 30
0.0
 11
201.5218914651372
 21
209.4243761026001
 31
0.0
  0
LINE
  5
2A0
330
2
100
AcDbEntity
  8
0
  6
Continuous
 62
     7
100
AcDbLine
 10
201.2543695545954
 20
211.1540152279459
 30
0.0
 11
201.7543380654231
 21
211.0493706559121
 31
0.0
  0
LINE
  5
2A1
330
2
100
AcDbEntity
  8
0
  6
Continuous
 62
     7
100
AcDbLine
 10
195.7543283630024
 20
211.1743627836191
 30
0.0
 11
196.7543622777799
 21
211.2993549113259
 31
0.0
  0
LINE
  5
2A2
330
2
100
AcDbEntity
  8
0
  6
Continuous
 62
     7
100
AcDbLine
 10
198.089549502432
 20
210.2789734408752
 30
0.0
 11
197.5043150440214
 21
210.1946764245148
 31
0.0
  0
LINE
  5
2A3
330
2
100
AcDbEntity
  8
0
  6
Continuous
 62
     7
100
AcDbLine
 10
196.6896376721147
 20
210.0493367411346
 30
0.0
 11
195.7543283630024
 21
209.7790049300476
 31
0.0
  0
LINE
  5
2A4
330
2
100
AcDbEntity
  8
0
  6
Continuous
 62
     7
100
AcDbLine
 10
197.5043150440214
 20
210.1946764245148
 30
0.0
 11
196.6896376721147
 21
210.0493367411346
 31
0.0
  0
LINE
  5
2A5
330
2
100
AcDbEntity
  8
0
  6
Continuous
 62
     7
100
AcDbLine
 10
196.7543622777799
 20
211.2993549113259
 30
0.0
 11
198.5043489587989
 21
211.4243470390329
 31
0.0
  0
LINE
  5
2A6
330
2
100
AcDbEntity
  8
0
  6
Continuous
 62
     7
100
AcDbLine
 10
199.0043174696266
 20
210.2789734408752
 30
0.0
 11
198.089549502432
 21
210.2789734408752
 31
0.0
  0
LINE
  5
2A7
330
2
100
AcDbEntity
  8
0
  6
Continuous
 62
     7
100
AcDbLine
 10
205.1293192997541
 20
211.0493706559121
 30
0.0
 11
205.5042956828748
 21
211.2993549113259
 31
0.0
  0
LINE
  5
2A8
330
2
100
AcDbEntity
  8
0
  6
Continuous
 62
     7
100
AcDbLine
 10
205.7377112143834
 20
210.7994832936206
 30
0.0
 11
204.7544398097556
 21
210.7994832936206
 31
0.0
  0
LINE
  5
2A9
330
2
100
AcDbEntity
  8
0
  6
Continuous
 62
     7
100
AcDbLine
 10
205.8793689591179
 20
211.1743627836191
 30
0.0
 11
203.7543090018559
 21
205.5493294643191
 31
0.0
  0
LINE
  5
2AA
330
2
100
AcDbEntity
  8
0
  6
Continuous
 62
     7
100
AcDbLine
 10
204.7543429166334
 20
210.7993864004984
 30
0.0
 11
205.1293192997541
 21
211.0493706559121
 31
0.0
  0
LINE
  5
2AB
330
2
100
AcDbEntity
  8
0
  6
Continuous
 62
     7
100
AcDbLine
 10
203.3793326187351
 20
205.7994106128552
 30
0.0
 11
203.4486112011464
 21
206.9243397622174
 31
0.0
  0
LINE
  5
2AC
330
2
100
AcDbEntity
  8
0
  6
Continuous
 62
     7
100
AcDbLine
 10
203.4486112011464
 20
206.9243397622174
 30
0.0
 11
203.3266227602293
 21
207.5493972938742
 31
0.0
  0
LINE
  5
2AD
330
2
100
AcDbEntity
  8
0
  6
Continuous
 62
     7
100
AcDbLine
 10
203.3266227602293
 20
207.5493972938742
 30
0.0
 11
203.1810892906046
 21
207.9243736769949
 31
0.0
  0
LINE
  5
2AE
330
2
100
AcDbEntity
  8
0
  6
Continuous
 62
     7
100
AcDbLine
 10
203.5043247464421
 20
210.6743942727914
 30
0.0
 11
204.0042932572696
 21
210.5494021450845
 31
0.0
  0
LINE
  5
2AF
330
2
100
AcDbEntity
  8
0
  6
Continuous
 62
     7
100
AcDbLine
 10
204.0042932572696
 20
210.5494021450845
 30
0.0
 11
204.2543744058057
 21
210.5494021450845
 31
0.0
  0
LINE
  5
2B0
330
2
100
AcDbEntity
  8
0
  6
Continuous
 62
     7
100
AcDbLine
 10
204.6043523633851
 20
207.7994784424103
 30
0.0
 11
203.2295358517314
 21
207.7994784424103
 31
0.0
  0
LINE
  5
2B1
330
2
100
AcDbEntity
  8
0
  6
Continuous
 62
     7
100
AcDbLine
 10
204.4155076681132
 20
207.2995099315826
 30
0.0
 11
203.3753600007228
 21
207.2995099315826
 31
0.0
  0
LINE
  5
2B2
330
2
100
AcDbEntity
  8
0
  6
Continuous
 62
     7
100
AcDbLine
 10
204.2265660797191
 20
206.7994445276327
 30
0.0
 11
203.4409566444883
 21
206.7994445276327
 31
0.0
  0
LINE
  5
2B3
330
2
100
AcDbEntity
  8
0
  6
Continuous
 62
     7
100
AcDbLine
 10
204.0377213844472
 20
206.2994760168051
 30
0.0
 11
203.4101446316117
 21
206.2994760168051
 31
0.0
  0
LINE
  5
2B4
330
2
100
AcDbEntity
  8
0
  6
Continuous
 62
     7
100
AcDbLine
 10
203.848779796053
 20
205.7995075059775
 30
0.0
 11
203.3793326187351
 21
205.7995075059775
 31
0.0
  0
LINE
  5
2B5
330
2
100
AcDbEntity
  8
0
  6
Continuous
 62
     7
100
AcDbLine
 10
203.7543090018559
 20
205.5493294643191
 30
0.0
 11
203.5043247464421
 21
205.5493294643191
 31
0.0
  0
LINE
  5
2B6
330
2
100
AcDbEntity
  8
0
  6
Continuous
 62
     7
100
AcDbLine
 10
203.5043247464421
 20
205.5493294643191
 30
0.0
 11
203.3793326187351
 21
205.7994106128552
 31
0.0
  0
LINE
  5
2B7
330
2
100
AcDbEntity
  8
0
  6
Continuous
 62
     7
100
AcDbLine
 10
204.2543744058057
 20
210.5494021450845
 30
0.0
 11
204.7543429166334
 21
210.7993864004984
 31
0.0
  0
LINE
  5
2B8
330
2
100
AcDbEntity
  8
0
  6
Continuous
 62
     7
100
AcDbLine
 10
205.5042956828748
 20
211.2993549113259
 30
0.0
 11
205.7542799382886
 21
211.2993549113259
 31
0.0
  0
LINE
  5
2B9
330
2
100
AcDbEntity
  8
0
  6
Continuous
 62
     7
100
AcDbLine
 10
205.7542799382886
 20
211.2993549113259
 30
0.0
 11
205.8793689591179
 21
211.1743627836191
 31
0.0
  0
LINE
  5
2BA
330
2
100
AcDbEntity
  8
0
  6
Continuous
 62
     7
100
AcDbLine
 10
203.1810892906046
 20
207.9243736769949
 30
0.0
 11
203.0103636091942
 21
208.1743579324089
 31
0.0
  0
LINE
  5
2BB
330
2
100
AcDbEntity
  8
0
  6
Continuous
 62
     7
100
AcDbLine
 10
204.7932939517793
 20
208.2994469532379
 30
0.0
 11
202.8910881757001
 21
208.2994469532379
 31
0.0
  0
LINE
  5
2BC
330
2
100
AcDbEntity
  8
0
  6
Continuous
 62
     7
100
AcDbLine
 10
203.0043562356144
 20
210.7790388448252
 30
0.0
 11
203.5043247464421
 21
210.6743942727914
 31
0.0
  0
LINE
  5
2BD
330
2
100
AcDbEntity
  8
0
  6
Continuous
 62
     7
100
AcDbLine
 10
301.4618243574587
 20
172.8242587819608
 30
0.0
 11
355.4614756601944
 21
172.8242587819608
 31
0.0
  0
ARC
  5
2BE
330
2
100
AcDbEntity
  8
0
  6
Continuous
 62
     7
100
AcDbCircle
 10
355.4614221996098
 20
170.8242101608685
 30
0.0
 40
2.000048621806688
100
AcDbArc
 50
0.0022254474560746
 51
89.99846850429671
  0
LINE
  5
2BF
330
2
100
AcDbEntity
  8
0
  6
Continuous
 62
     7
100
AcDbLine
 10
357.4614708199078
 20
152.5504387747779
 30
0.0
 11
357.4614708199078
 21
170.824287845528
 31
0.0
  0
ARC
  5
2C0
330
2
100
AcDbEntity
  8
0
  6
Continuous
 62
     7
100
AcDbCircle
 10
355.4617322869641
 20
152.5702568528739
 30
0.0
 40
1.999838454482581
100
AcDbArc
 50
284.4742137282572
 51
0.001289602001436
  0
ARC
  5
2C1
330
2
100
AcDbEntity
  8
0
  6
Continuous
 62
     7
100
AcDbCircle
 10
357.461632240775
 20
144.8244603046274
 30
0.0
 40
5.999971796209486
100
AcDbArc
 50
104.4780927412872
 51
165.5232357421448
  0
ARC
  5
2C2
330
2
100
AcDbEntity
  8
0
  6
Continuous
 62
     7
100
AcDbCircle
 10
349.7156783626778
 20
146.8243578451426
 30
0.0
 40
1.999982852679754
100
AcDbArc
 50
270.000486457617
 51
345.5229400956405
  0
LINE
  5
2C3
330
2
100
AcDbEntity
  8
0
  6
Continuous
 62
     7
100
AcDbLine
 10
349.7352753235767
 20
144.8244718856571
 30
0.0
 11
307.2023573063948
 21
144.8239874200459
 31
0.0
  0
ARC
  5
2C4
330
2
100
AcDbEntity
  8
0
  6
Continuous
 62
     7
100
AcDbCircle
 10
307.2078762451543
 20
146.8239842713811
 30
0.0
 40
1.999996851399983
100
AcDbArc
 50
194.4773705472593
 51
270.0004606831216
  0
ARC
  5
2C5
330
2
100
AcDbEntity
  8
0
  6
Continuous
 62
     7
100
AcDbCircle
 10
299.461877095053
 20
144.8242890625557
 30
0.0
 40
5.999936396757376
100
AcDbArc
 50
14.47471797710961
 51
75.54457834449023
  0
ARC
  5
2C6
330
2
100
AcDbEntity
  8
0
  6
Continuous
 62
     7
100
AcDbCircle
 10
301.4615937187745
 20
152.5701714938201
 30
0.0
 40
1.999849306760554
100
AcDbArc
 50
179.9962648639653
 51
255.5259039056534
  0
LINE
  5
2C7
330
2
100
AcDbEntity
  8
0
  6
Continuous
 62
     7
100
AcDbLine
 10
299.4618291977453
 20
152.5520859578562
 30
0.0
 11
299.4618291977453
 21
170.824287845528
 31
0.0
  0
ARC
  5
2C8
330
2
100
AcDbEntity
  8
0
  6
Continuous
 62
     7
100
AcDbCircle
 10
301.4618778180433
 20
170.8242101608685
 30
0.0
 40
2.000048621806688
100
AcDbArc
 50
90.00153149570328
 51
179.9977745525439
  0
CIRCLE
  5
2C9
330
2
100
AcDbEntity
  8
0
  6
Continuous
 62
     7
100
AcDbCircle
 10
338.4623282825296
 20
158.8242684406867
 30
0.0
 40
10.00014536153076
  0
CIRCLE
  5
2CA
330
2
100
AcDbEntity
  8
0
  6
Continuous
 62
     7
100
AcDbCircle
 10
338.4623282825296
 20
158.8242684406867
 30
0.0
 40
7.499915234903562
  0
CIRCLE
  5
2CB
330
2
100
AcDbEntity
  8
0
  6
Continuous
 62
     7
100
AcDbCircle
 10
338.4623282825296
 20
158.8242684406867
 30
0.0
 40
6.000009702420651
  0
CIRCLE
  5
2CC
330
2
100
AcDbEntity
  8
0
  6
Continuous
 62
     7
100
AcDbCircle
 10
338.4623282825296
 20
158.8242684406867
 30
0.0
 40
9.000014553630979
  0
CIRCLE
  5
2CD
330
2
100
AcDbEntity
  8
0
  6
Continuous
 62
     7
100
AcDbCircle
 10
338.4623282825296
 20
158.8242684406867
 30
0.0
 40
9.499983064458616
  0
CIRCLE
  5
2CE
330
2
100
AcDbEntity
  8
0
  6
Continuous
 62
     7
100
AcDbCircle
 10
336.7267786767265
 20
162.4281112297803
 30
0.0
 40
0.7000624036517208
  0
CIRCLE
  5
2CF
330
2
100
AcDbEntity
  8
0
  6
Continuous
 62
     7
100
AcDbCircle
 10
335.3350058686784
 20
156.3302394738838
 30
0.0
 40
0.6999541983349295
  0
CIRCLE
  5
2D0
330
2
100
AcDbEntity
  8
0
  6
Continuous
 62
     7
100
AcDbCircle
 10
334.5625738980742
 20
159.7143286617066
 30
0.0
 40
0.7000727565807205
  0
CIRCLE
  5
2D1
330
2
100
AcDbEntity
  8
0
  6
Continuous
 62
     7
100
AcDbCircle
 10
340.1976841020884
 20
162.4281112297803
 30
0.0
 40
0.6998878023104897
  0
CIRCLE
  5
2D2
330
2
100
AcDbEntity
  8
0
  6
Continuous
 62
     7
100
AcDbCircle
 10
342.3618888807408
 20
159.7143286617066
 30
0.0
 40
0.7000727565807205
  0
CIRCLE
  5
2D3
330
2
100
AcDbEntity
  8
0
  6
Continuous
 62
     7
100
AcDbCircle
 10
341.589650696381
 20
156.3302394738838
 30
0.0
 40
0.6999541983349295
  0
CIRCLE
  5
2D4
330
2
100
AcDbEntity
  8
0
  6
Continuous
 62
     7
100
AcDbCircle
 10
338.4623282825296
 20
158.8242684406867
 30
0.0
 40
0.6999559151586914
  0
CIRCLE
  5
2D5
330
2
100
AcDbEntity
  8
0
  6
Continuous
 62
     7
100
AcDbCircle
 10
338.4623282825296
 20
154.8243265678211
 30
0.0
 40
0.6999559151586914
  0
ARC
  5
2D6
330
2
100
AcDbEntity
  8
0
  6
Continuous
 62
     7
100
AcDbCircle
 10
352.5491597549418
 20
170.7367200159731
 30
0.0
 40
1.502601910021413
100
AcDbArc
 50
278.1301023541559
 51
351.869897645844
  0
ARC
  5
2D7
330
2
100
AcDbEntity
  8
0
  6
Continuous
 62
     7
100
AcDbCircle
 10
352.5491597549418
 20
166.911720015973
 30
0.0
 40
1.502601910021413
100
AcDbArc
 50
8.130102354155951
 51
81.86989764584405
  0
CIRCLE
  5
2D8
330
2
100
AcDbEntity
  8
0
  6
Continuous
 62
     7
100
AcDbCircle
 10
354.4616597549419
 20
168.8242200159729
 30
0.0
 40
2.337499999999999
  0
ARC
  5
2D9
330
2
100
AcDbEntity
  8
0
  6
Continuous
 62
     7
100
AcDbCircle
 10
356.3741597549419
 20
170.736720015973
 30
0.0
 40
1.502601910021413
100
AcDbArc
 50
188.1301023541559
 51
261.869897645844
  0
ARC
  5
2DA
330
2
100
AcDbEntity
  8
0
  6
Continuous
 62
     7
100
AcDbCircle
 10
356.3741597549419
 20
166.9117200159728
 30
0.0
 40
1.502601910021413
100
AcDbArc
 50
98.13010235415596
 51
171.869897645844
  0
ARC
  5
2DB
330
2
100
AcDbEntity
  8
0
  6
Continuous
 62
     7
100
AcDbCircle
 10
300.5493340489556
 20
170.7367200159731
 30
0.0
 40
1.502601910021413
100
AcDbArc
 50
278.1301023541559
 51
351.869897645844
  0
ARC
  5
2DC
330
2
100
AcDbEntity
  8
0
  6
Continuous
 62
     7
100
AcDbCircle
 10
300.5493340489555
 20
166.911720015973
 30
0.0
 40
1.502601910021413
100
AcDbArc
 50
8.130102354155951
 51
81.86989764584405
  0
CIRCLE
  5
2DD
330
2
100
AcDbEntity
  8
0
  6
Continuous
 62
     7
100
AcDbCircle
 10
302.4618340489557
 20
168.8242200159729
 30
0.0
 40
2.337499999999999
  0
ARC
  5
2DE
330
2
100
AcDbEntity
  8
0
  6
Continuous
 62
     7
100
AcDbCircle
 10
304.3743340489557
 20
170.736720015973
 30
0.0
 40
1.502601910021413
100
AcDbArc
 50
188.1301023541559
 51
261.869897645844
  0
ARC
  5
2DF
330
2
100
AcDbEntity
  8
0
  6
Continuous
 62
     7
100
AcDbCircle
 10
304.3743340489557
 20
166.9117200159728
 30
0.0
 40
1.502601910021413
100
AcDbArc
 50
98.13010235415596
 51
171.869897645844
  0
ARC
  5
2E0
330
2
100
AcDbEntity
  8
0
  6
Continuous
 62
     7
100
AcDbCircle
 10
306.0493267939876
 20
149.7368798437453
 30
0.0
 40
1.502601910021413
100
AcDbArc
 50
278.1301023541559
 51
351.869897645844
  0
ARC
  5
2E1
330
2
100
AcDbEntity
  8
0
  6
Continuous
 62
     7
100
AcDbCircle
 10
306.0493267939875
 20
145.9118798437453
 30
0.0
 40
1.502601910021413
100
AcDbArc
 50
8.130102354155951
 51
81.86989764584405
  0
CIRCLE
  5
2E2
330
2
100
AcDbEntity
  8
0
  6
Continuous
 62
     7
100
AcDbCircle
 10
307.9618267939876
 20
147.8243798437452
 30
0.0
 40
2.337499999999999
  0
ARC
  5
2E3
330
2
100
AcDbEntity
  8
0
  6
Continuous
 62
     7
100
AcDbCircle
 10
309.8743267939876
 20
149.7368798437452
 30
0.0
 40
1.502601910021413
100
AcDbArc
 50
188.1301023541559
 51
261.869897645844
  0
ARC
  5
2E4
330
2
100
AcDbEntity
  8
0
  6
Continuous
 62
     7
100
AcDbCircle
 10
309.8743267939876
 20
145.911879843745
 30
0.0
 40
1.502601910021413
100
AcDbArc
 50
98.13010235415596
 51
171.869897645844
  0
ARC
  5
2E5
330
2
100
AcDbEntity
  8
0
  6
Continuous
 62
     7
100
AcDbCircle
 10
347.0491670099101
 20
149.7368798437453
 30
0.0
 40
1.502601910021413
100
AcDbArc
 50
278.1301023541559
 51
351.869897645844
  0
ARC
  5
2E6
330
2
100
AcDbEntity
  8
0
  6
Continuous
 62
     7
100
AcDbCircle
 10
347.04916700991
 20
145.9118798437453
 30
0.0
 40
1.502601910021413
100
AcDbArc
 50
8.130102354155951
 51
81.86989764584405
  0
CIRCLE
  5
2E7
330
2
100
AcDbEntity
  8
0
  6
Continuous
 62
     7
100
AcDbCircle
 10
348.9616670099101
 20
147.8243798437452
 30
0.0
 40
2.337499999999999
  0
ARC
  5
2E8
330
2
100
AcDbEntity
  8
0
  6
Continuous
 62
     7
100
AcDbCircle
 10
350.8741670099102
 20
149.7368798437452
 30
0.0
 40
1.502601910021413
100
AcDbArc
 50
188.1301023541559
 51
261.869897645844
  0
ARC
  5
2E9
330
2
100
AcDbEntity
  8
0
  6
Continuous
 62
     7
100
AcDbCircle
 10
350.8741670099102
 20
145.911879843745
 30
0.0
 40
1.502601910021413
100
AcDbArc
 50
98.13010235415596
 51
171.869897645844
  0
LINE
  5
2EA
330
2
100
AcDbEntity
  8
0
  6
Continuous
 62
     7
100
AcDbLine
 10
249.5028620915407
 20
168.8054808605079
 30
0.0
 11
250.502799113196
 21
168.3055123496802
 31
0.0
  0
LINE
  5
2EB
330
2
100
AcDbEntity
  8
0
  6
Continuous
 62
     7
100
AcDbLine
 10
249.5028620915407
 20
168.8054808605079
 30
0.0
 11
249.5028620915407
 21
148.8055777099354
 31
0.0
  0
LINE
  5
2EC
330
2
100
AcDbEntity
  8
0
  6
Continuous
 62
     7
100
AcDbLine
 10
252.5028669427511
 20
168.3055123496802
 30
0.0
 11
252.5028669427511
 21
149.305546220763
 31
0.0
  0
LINE
  5
2ED
330
2
100
AcDbEntity
  8
0
  6
Continuous
 62
     7
100
AcDbLine
 10
255.5028717939614
 20
168.3055123496802
 30
0.0
 11
255.5028717939614
 21
149.305546220763
 31
0.0
  0
LINE
  5
2EE
330
2
100
AcDbEntity
  8
0
  6
Continuous
 62
     7
100
AcDbLine
 10
250.502799113196
 20
168.3055123496802
 30
0.0
 11
250.502799113196
 21
149.305546220763
 31
0.0
  0
LINE
  5
2EF
330
2
100
AcDbEntity
  8
0
  6
Continuous
 62
     7
100
AcDbLine
 10
256.5028088156166
 20
167.3055753280249
 30
0.0
 11
256.5028088156166
 21
150.3054832424183
 31
0.0
  0
LINE
  5
2F0
330
2
100
AcDbEntity
  8
0
  6
Continuous
 62
     7
100
AcDbLine
 10
252.5028669427511
 20
150.3054832424183
 30
0.0
 11
256.5028088156166
 21
150.3054832424183
 31
0.0
  0
LINE
  5
2F1
330
2
100
AcDbEntity
  8
0
  6
Continuous
 62
     7
100
AcDbLine
 10
255.5028717939614
 20
149.305546220763
 30
0.0
 11
250.502799113196
 21
149.305546220763
 31
0.0
  0
LINE
  5
2F2
330
2
100
AcDbEntity
  8
0
  6
Continuous
 62
     7
100
AcDbLine
 10
251.5027361348512
 20
149.305546220763
 30
0.0
 11
252.5028669427511
 21
150.3054832424183
 31
0.0
  0
LINE
  5
2F3
330
2
100
AcDbEntity
  8
0
  6
Continuous
 62
     7
100
AcDbLine
 10
250.502799113196
 20
149.305546220763
 30
0.0
 11
249.5028620915407
 21
148.8055777099354
 31
0.0
  0
LINE
  5
2F4
330
2
100
AcDbEntity
  8
0
  6
Continuous
 62
     7
100
AcDbLine
 10
250.502799113196
 20
149.305546220763
 30
0.0
 11
250.502799113196
 21
149.305546220763
 31
0.0
  0
LINE
  5
2F5
330
2
100
AcDbEntity
  8
0
  6
Continuous
 62
     7
100
AcDbLine
 10
249.5028620915407
 20
148.8055777099354
 30
0.0
 11
247.8647088156167
 21
148.8055777099354
 31
0.0
  0
LINE
  5
2F6
330
2
100
AcDbEntity
  8
0
  6
Continuous
 62
     7
100
AcDbLine
 10
256.5028088156166
 20
150.3054832424183
 30
0.0
 11
255.5028717939614
 21
149.305546220763
 31
0.0
  0
LINE
  5
2F7
330
2
100
AcDbEntity
  8
0
  6
Continuous
 62
     7
100
AcDbLine
 10
252.5028669427511
 20
167.3055753280249
 30
0.0
 11
256.5028088156166
 21
167.3055753280249
 31
0.0
  0
LINE
  5
2F8
330
2
100
AcDbEntity
  8
0
  6
Continuous
 62
     7
100
AcDbLine
 10
250.502799113196
 20
168.3055123496802
 30
0.0
 11
255.5028717939614
 21
168.3055123496802
 31
0.0
  0
LINE
  5
2F9
330
2
100
AcDbEntity
  8
0
  6
Continuous
 62
     7
100
AcDbLine
 10
251.5027361348512
 20
168.3055123496802
 30
0.0
 11
252.5028669427511
 21
167.3055753280249
 31
0.0
  0
LINE
  5
2FA
330
2
100
AcDbEntity
  8
0
  6
Continuous
 62
     7
100
AcDbLine
 10
255.5028717939614
 20
168.3055123496802
 30
0.0
 11
256.5028088156166
 21
167.3055753280249
 31
0.0
  0
LINE
  5
2FB
330
2
100
AcDbEntity
  8
0
  6
Continuous
 62
     7
100
AcDbLine
 10
247.8647088156167
 20
168.8054808605079
 30
0.0
 11
249.5028620915407
 21
168.8054808605079
 31
0.0
  0
LINE
  5
2FC
330
2
100
AcDbEntity
  8
0
  6
Continuous
 62
     7
100
AcDbLine
 10
244.8540810368378
 20
245.4079828335249
 30
0.0
 11
244.8540810368378
 21
238.2824626230084
 31
0.0
  0
LINE
  5
2FD
330
2
100
AcDbEntity
  8
0
  6
Continuous
 62
     7
100
AcDbLine
 10
245.3542433339099
 20
237.7873387682935
 30
0.0
 11
246.8645796166513
 21
237.7875339021801
 31
0.0
  0
ARC
  5
2FE
330
2
100
AcDbEntity
  8
0
  6
Continuous
 62
     7
100
AcDbCircle
 10
245.354271522648
 20
238.2875292541037
 30
0.0
 40
0.5001904866045285
100
AcDbArc
 50
180.0032289612978
 51
269.9967710387007
  0
LINE
  5
2FF
330
2
100
AcDbEntity
  8
0
  6
Continuous
 62
     7
100
AcDbLine
 10
244.8540810368378
 20
239.0155559859778
 30
0.0
 11
245.8542118447376
 21
239.0155559859778
 31
0.0
  0
LINE
  5
300
330
2
100
AcDbEntity
  8
0
  6
Continuous
 62
     7
100
AcDbLine
 10
244.8540810368378
 20
244.6155908797364
 30
0.0
 11
245.8542118447376
 21
244.6155908797364
 31
0.0
  0
ARC
  5
301
330
2
100
AcDbEntity
  8
0
  6
Continuous
 62
     7
100
AcDbCircle
 10
243.7539565267725
 20
241.8155734328571
 30
0.0
 40
3.500167153646943
100
AcDbArc
 50
306.8730698183308
 51
53.12693018166931
  0
ARC
  5
302
330
2
100
AcDbEntity
  8
0
  6
Continuous
 62
     7
100
AcDbCircle
 10
243.7607390453302
 20
144.8318938732004
 30
0.0
 40
3.499973363379153
100
AcDbArc
 50
306.8714838199069
 51
53.12851618009307
  0
LINE
  5
303
330
2
100
AcDbEntity
  8
0
  6
Continuous
 62
     7
100
AcDbLine
 10
244.8606697691509
 20
147.6320082132019
 30
0.0
 11
245.8608005770508
 21
147.6318144269574
 31
0.0
  0
LINE
  5
304
330
2
100
AcDbEntity
  8
0
  6
Continuous
 62
     7
100
AcDbLine
 10
244.8606697691509
 20
142.0319733194434
 30
0.0
 11
245.8608005770508
 21
142.0319733194434
 31
0.0
  0
LINE
  5
305
330
2
100
AcDbEntity
  8
0
  6
Continuous
 62
     7
100
AcDbLine
 10
244.8606697691509
 20
148.3100662827314
 30
0.0
 11
244.8606697691509
 21
141.2436508767896
 31
0.0
  0
ARC
  5
306
330
2
100
AcDbEntity
  8
0
  6
Continuous
 62
     7
100
AcDbCircle
 10
245.3608602892567
 20
148.3098442249586
 30
0.0
 40
0.5001905693966612
100
AcDbArc
 50
90.0032328892483
 51
179.9745637475291
  0
LINE
  5
307
330
2
100
AcDbEntity
  8
0
  6
Continuous
 62
     7
100
AcDbLine
 10
246.8645796166513
 20
148.8098405109297
 30
0.0
 11
245.3608320662231
 21
148.810034793559
 31
0.0
  0
ARC
  5
308
330
2
100
AcDbEntity
  8
0
  6
Continuous
100
AcDbCircle
 10
246.8647088156167
 20
149.8098405025835
 30
0.0
 40
1.0
100
AcDbArc
 50
269.9925974445447
 51
0.0000000000000127
  0
LINE
  5
309
330
2
100
AcDbEntity
  8
0
  6
Continuous
 62
     7
100
AcDbLine
 10
244.8622815536596
 20
49.62267275034946
 30
0.0
 11
245.8624123615595
 21
49.62247896410495
 31
0.0
  0
ARC
  5
30A
330
2
100
AcDbEntity
  8
0
  6
Continuous
 62
     7
100
AcDbCircle
 10
245.3624720737654
 20
50.30050876210611
 30
0.0
 40
0.5001905693966612
100
AcDbArc
 50
90.0032328892483
 51
179.9745637475291
  0
LINE
  5
30B
330
2
100
AcDbEntity
  8
0
  6
Continuous
 62
     7
100
AcDbLine
 10
246.8645796166512
 20
50.80050525631815
 30
0.0
 11
245.3624438507318
 21
50.8006993307066
 31
0.0
  0
LINE
  5
30C
330
2
100
AcDbEntity
  8
0
  6
Continuous
 62
     7
100
AcDbLine
 10
244.8622815536596
 20
50.30073081987893
 30
0.0
 11
244.8622815536596
 21
43.23431541393711
 31
0.0
  0
ARC
  5
30D
330
2
100
AcDbEntity
  8
0
  6
Continuous
 62
     7
100
AcDbCircle
 10
243.7623508298389
 20
46.82255841034794
 30
0.0
 40
3.499973363379153
100
AcDbArc
 50
306.8714838199069
 51
53.12851618009307
  0
LINE
  5
30E
330
2
100
AcDbEntity
  8
0
  6
Continuous
 62
     7
100
AcDbLine
 10
244.8622815536596
 20
44.0226378565909
 30
0.0
 11
245.8624123615595
 21
44.0226378565909
 31
0.0
  0
LINE
  5
30F
330
2
100
AcDbEntity
  8
0
  6
Continuous
 62
     7
100
AcDbLine
 10
244.8556928213465
 20
108.4188628970524
 30
0.0
 11
244.8556928213465
 21
101.293342686536
 31
0.0
  0
ARC
  5
310
330
2
100
AcDbEntity
  8
0
  6
Continuous
 62
     7
100
AcDbCircle
 10
245.3558833071566
 20
101.2984093176312
 30
0.0
 40
0.5001904866045285
100
AcDbArc
 50
180.0032289612978
 51
269.9967710387007
  0
LINE
  5
311
330
2
100
AcDbEntity
  8
0
  6
Continuous
 62
     7
100
AcDbLine
 10
245.3558551184186
 20
100.798218831821
 30
0.0
 11
246.8645796166513
 21
100.7984137574668
 31
0.0
  0
ARC
  5
312
330
2
100
AcDbEntity
  8
0
  6
Continuous
 62
     7
100
AcDbCircle
 10
243.7555683112812
 20
104.8264534963847
 30
0.0
 40
3.500167153646943
100
AcDbArc
 50
306.8730698183308
 51
53.12693018166931
  0
LINE
  5
313
330
2
100
AcDbEntity
  8
0
  6
Continuous
 62
     7
100
AcDbLine
 10
244.8556928213465
 20
102.0264360495054
 30
0.0
 11
245.8558236292463
 21
102.0264360495054
 31
0.0
  0
LINE
  5
314
330
2
100
AcDbEntity
  8
0
  6
Continuous
 62
     7
100
AcDbLine
 10
244.8556928213465
 20
107.6264709432639
 30
0.0
 11
245.8558236292463
 21
107.6264709432639
 31
0.0
  0
LINE
  5
315
330
2
100
AcDbEntity
  8
0
  6
Continuous
 62
     7
100
AcDbLine
 10
250.5027991131962
 20
75.32444057126379
 30
0.0
 11
255.5028717939615
 21
75.32444057126379
 31
0.0
  0
LINE
  5
316
330
2
100
AcDbEntity
  8
0
  6
Continuous
 62
     7
100
AcDbLine
 10
255.5028717939615
 20
56.32447444234663
 30
0.0
 11
250.5027991131962
 21
56.32447444234663
 31
0.0
  0
LINE
  5
317
330
2
100
AcDbEntity
  8
0
  6
Continuous
 62
     7
100
AcDbLine
 10
250.5027991131962
 20
75.32444057126379
 30
0.0
 11
250.5027991131962
 21
56.32447444234663
 31
0.0
  0
LINE
  5
318
330
2
100
AcDbEntity
  8
0
  6
Continuous
 62
     7
100
AcDbLine
 10
249.5028620915408
 20
75.8244090820915
 30
0.0
 11
249.5028620915408
 21
55.82450593151897
 31
0.0
  0
LINE
  5
319
330
2
100
AcDbEntity
  8
0
  6
Continuous
 62
     7
100
AcDbLine
 10
249.5028620915408
 20
55.82450593151897
 30
0.0
 11
247.8647088156166
 21
55.82450593151897
 31
0.0
  0
LINE
  5
31A
330
2
100
AcDbEntity
  8
0
  6
Continuous
 62
     7
100
AcDbLine
 10
250.5027991131962
 20
56.32447444234663
 30
0.0
 11
250.5027991131962
 21
56.32447444234663
 31
0.0
  0
LINE
  5
31B
330
2
100
AcDbEntity
  8
0
  6
Continuous
 62
     7
100
AcDbLine
 10
250.5027991131962
 20
56.32447444234663
 30
0.0
 11
249.5028620915408
 21
55.82450593151897
 31
0.0
  0
LINE
  5
31C
330
2
100
AcDbEntity
  8
0
  6
Continuous
 62
     7
100
AcDbLine
 10
247.8647088156166
 20
75.82445750680514
 30
0.0
 11
249.5028620915408
 21
75.8244090820915
 31
0.0
  0
LINE
  5
31D
330
2
100
AcDbEntity
  8
0
  6
Continuous
 62
     7
100
AcDbLine
 10
249.5028620915408
 20
75.8244090820915
 30
0.0
 11
250.5027991131962
 21
75.32444057126379
 31
0.0
  0
LINE
  5
31E
330
2
100
AcDbEntity
  8
0
  6
Continuous
 62
     7
100
AcDbLine
 10
256.5028088156167
 20
74.32450354960849
 30
0.0
 11
256.5028088156167
 21
57.32441146400185
 31
0.0
  0
LINE
  5
31F
330
2
100
AcDbEntity
  8
0
  6
Continuous
 62
     7
100
AcDbLine
 10
255.5028717939615
 20
75.32444057126379
 30
0.0
 11
255.5028717939615
 21
56.32447444234663
 31
0.0
  0
LINE
  5
320
330
2
100
AcDbEntity
  8
0
  6
Continuous
 62
     7
100
AcDbLine
 10
252.5028669427512
 20
75.32444057126379
 30
0.0
 11
252.5028669427512
 21
56.32447444234663
 31
0.0
  0
LINE
  5
321
330
2
100
AcDbEntity
  8
0
  6
Continuous
 62
     7
100
AcDbLine
 10
256.5028088156167
 20
57.32441146400185
 30
0.0
 11
255.5028717939615
 21
56.32447444234663
 31
0.0
  0
LINE
  5
322
330
2
100
AcDbEntity
  8
0
  6
Continuous
 62
     7
100
AcDbLine
 10
251.5027361348514
 20
56.32447444234663
 30
0.0
 11
252.5028669427512
 21
57.32441146400185
 31
0.0
  0
LINE
  5
323
330
2
100
AcDbEntity
  8
0
  6
Continuous
 62
     7
100
AcDbLine
 10
252.5028669427512
 20
57.32441146400185
 30
0.0
 11
256.5028088156167
 21
57.32441146400185
 31
0.0
  0
LINE
  5
324
330
2
100
AcDbEntity
  8
0
  6
Continuous
 62
     7
100
AcDbLine
 10
255.5028717939615
 20
75.32444057126379
 30
0.0
 11
256.5028088156167
 21
74.32450354960849
 31
0.0
  0
LINE
  5
325
330
2
100
AcDbEntity
  8
0
  6
Continuous
 62
     7
100
AcDbLine
 10
251.5027361348514
 20
75.32444057126379
 30
0.0
 11
252.5028669427512
 21
74.32450354960849
 31
0.0
  0
LINE
  5
326
330
2
100
AcDbEntity
  8
0
  6
Continuous
 62
     7
100
AcDbLine
 10
252.5028669427512
 20
74.32450354960849
 30
0.0
 11
256.5028088156167
 21
74.32450354960849
 31
0.0
  0
LINE
  5
327
330
2
100
AcDbEntity
  8
0
  6
Continuous
 62
     7
100
AcDbLine
 10
317.9603532216817
 20
239.8246080165733
 30
0.0
 11
350.9626006731027
 21
239.8246080165733
 31
0.0
  0
LINE
  5
328
330
2
100
AcDbEntity
  8
0
  6
Continuous
 62
     7
100
AcDbLine
 10
350.9626006731027
 20
235.8246661437076
 30
0.0
 11
317.9603532216817
 21
235.8246661437076
 31
0.0
  0
LINE
  5
329
330
2
100
AcDbEntity
  8
0
  6
Continuous
 62
     7
100
AcDbLine
 10
317.9603532216817
 20
235.8246661437076
 30
0.0
 11
317.9603532216817
 21
239.8246080165733
 31
0.0
  0
LINE
  5
32A
330
2
100
AcDbEntity
  8
0
  6
Continuous
 62
     7
100
AcDbLine
 10
350.9626006731027
 20
239.8246080165733
 30
0.0
 11
350.9626006731027
 21
235.8246661437076
 31
0.0
  0
LINE
  5
32B
330
2
100
AcDbEntity
  8
0
  6
Continuous
 62
     7
100
AcDbLine
 10
337.4625770405419
 20
179.3244575068051
 30
0.0
 11
337.4625770405419
 21
199.3244575068052
 31
0.0
  0
LINE
  5
32C
330
2
100
AcDbEntity
  8
0
  6
Continuous
 62
     7
100
AcDbLine
 10
338.9625099154378
 20
198.3245299359615
 30
0.0
 11
338.9625099154378
 21
180.3245299359614
 31
0.0
  0
LINE
  5
32D
330
2
100
AcDbEntity
  8
0
  6
Continuous
 62
     7
100
AcDbLine
 10
311.4625770405419
 20
179.3244575068051
 30
0.0
 11
311.4625770405419
 21
199.3244575068052
 31
0.0
  0
LINE
  5
32E
330
2
100
AcDbEntity
  8
0
  6
Continuous
 62
     7
100
AcDbLine
 10
309.9625099154378
 20
198.3245299359615
 30
0.0
 11
309.9625099154378
 21
180.3245299359615
 31
0.0
  0
LWPOLYLINE
  5
32F
330
2
100
AcDbEntity
  8
0
  6
Continuous
 62
     7
100
AcDbPolyline
 90
        4
 70
     1
 43
0.0
 10
310.9625770405419
 20
199.8244575068051
 10
337.9625770405419
 20
199.8244575068051
 10
337.9625770405419
 20
178.8244575068052
 10
310.9625770405419
 20
178.8244575068052
  0
LINE
  5
330
330
2
100
AcDbEntity
  8
0
  6
Continuous
 62
     7
100
AcDbLine
 10
318.4625770405419
 20
195.8244575068052
 30
0.0
 11
320.9625770405419
 21
195.8244575068052
 31
0.0
  0
LINE
  5
331
330
2
100
AcDbEntity
  8
0
  6
Continuous
 62
     7
100
AcDbLine
 10
318.4625770405419
 20
196.8244575068051
 30
0.0
 11
320.9625770405419
 21
196.8244575068051
 31
0.0
  0
LINE
  5
332
330
2
100
AcDbEntity
  8
0
  6
Continuous
 62
     7
100
AcDbLine
 10
320.0099065289399
 20
192.0744575068052
 30
0.0
 11
321.6475495206275
 21
192.0744575068052
 31
0.0
  0
LINE
  5
333
330
2
100
AcDbEntity
  8
0
  6
Continuous
 62
     7
100
AcDbLine
 10
319.5245729290955
 20
192.8244575068051
 30
0.0
 11
322.2205828697761
 21
192.8244575068051
 31
0.0
  0
LINE
  5
334
330
2
100
AcDbEntity
  8
0
  6
Continuous
 62
     7
100
AcDbLine
 10
319.7983041152903
 20
189.4494575068051
 30
0.0
 11
321.371891703579
 21
189.4494575068051
 31
0.0
  0
LINE
  5
335
330
2
100
AcDbEntity
  8
0
  6
Continuous
 62
     7
100
AcDbLine
 10
319.7032632847872
 20
188.6994575068051
 30
0.0
 11
321.2768508730755
 21
188.6994575068051
 31
0.0
  0
LINE
  5
336
330
2
100
AcDbEntity
  8
0
  6
Continuous
 62
     7
100
AcDbLine
 10
318.8545721185899
 20
185.3244575068051
 30
0.0
 11
321.5505820592707
 21
185.3244575068051
 31
0.0
  0
LINE
  5
337
330
2
100
AcDbEntity
  8
0
  6
Continuous
 62
     7
100
AcDbLine
 10
319.4276054677384
 20
186.0744575068052
 30
0.0
 11
321.0652484594261
 21
186.0744575068052
 31
0.0
  0
LINE
  5
338
330
2
100
AcDbEntity
  8
0
  6
Continuous
 62
     7
100
AcDbLine
 10
311.9625099154378
 20
178.3245299359615
 30
0.0
 11
336.9625099154378
 21
178.3245299359615
 31
0.0
  0
LINE
  5
339
330
2
100
AcDbEntity
  8
0
  6
Continuous
 62
     7
100
AcDbLine
 10
311.4625770405419
 20
179.3244575068051
 30
0.0
 11
337.4625770405419
 21
179.3244575068051
 31
0.0
  0
ARC
  5
33A
330
2
100
AcDbEntity
  8
0
  6
Continuous
 62
     7
100
AcDbCircle
 10
311.9625099154378
 20
180.3245299359615
 30
0.0
 40
2.0
100
AcDbArc
 50
180.0
 51
270.0
  0
LINE
  5
33B
330
2
100
AcDbEntity
  8
0
  6
Continuous
 62
     7
100
AcDbLine
 10
317.168434797308
 20
192.7720990100407
 30
0.0
 11
316.3975495206275
 21
192.0744575068052
 31
0.0
  0
LINE
  5
33C
330
2
100
AcDbEntity
  8
0
  6
Continuous
 62
     7
100
AcDbLine
 10
316.7931503987741
 20
189.230390062959
 30
0.0
 11
316.3361841854694
 21
189.597930592536
 31
0.0
  0
LINE
  5
33D
330
2
100
AcDbEntity
  8
0
  6
Continuous
 62
     7
100
AcDbLine
 10
316.2299975457836
 20
188.5360654802284
 30
0.0
 11
316.7820045895918
 21
188.9185249506513
 31
0.0
  0
LINE
  5
33E
330
2
100
AcDbEntity
  8
0
  6
Continuous
 62
     7
100
AcDbLine
 10
316.5788579168836
 20
189.081916977228
 30
0.0
 11
316.121891703579
 21
189.4494575068051
 31
0.0
  0
LINE
  5
33F
330
2
100
AcDbEntity
  8
0
  6
Continuous
 62
     7
100
AcDbLine
 10
316.3361841854694
 20
189.597930592536
 30
0.0
 11
316.5653008397172
 21
191.889094363371
 31
0.0
  0
LINE
  5
340
330
2
100
AcDbEntity
  8
0
  6
Continuous
 62
     7
100
AcDbLine
 10
316.0268508730756
 20
188.6994575068051
 30
0.0
 11
316.5788579168836
 21
189.081916977228
 31
0.0
  0
LINE
  5
341
330
2
100
AcDbEntity
  8
0
  6
Continuous
 62
     7
100
AcDbLine
 10
314.2745729290955
 20
192.8244575068051
 30
0.0
 11
316.9705828697761
 21
192.8244575068051
 31
0.0
  0
ARC
  5
342
330
2
100
AcDbEntity
  8
0
  6
Continuous
 62
     7
100
AcDbCircle
 10
315.9625770405419
 20
196.3244575068052
 30
0.0
 40
0.5
100
AcDbArc
 50
0.0
 51
90.0
  0
ARC
  5
343
330
2
100
AcDbEntity
  8
0
  6
Continuous
 62
     7
100
AcDbCircle
 10
315.9625770405419
 20
196.3244575068052
 30
0.0
 40
0.5
100
AcDbArc
 50
270.0
 51
0.0
  0
LINE
  5
344
330
2
100
AcDbEntity
  8
0
  6
Continuous
 62
     7
100
AcDbLine
 10
313.9269314258597
 20
192.622309434337
 30
0.0
 11
314.5745433855059
 21
191.9067061877156
 31
0.0
  0
ARC
  5
345
330
2
100
AcDbEntity
  8
0
  6
Continuous
 62
     7
100
AcDbCircle
 10
314.2745729290955
 20
192.4244575068052
 30
0.0
 40
0.4
100
AcDbArc
 50
150.354656864283
 51
174.2893999999983
  0
ARC
  5
346
330
2
100
AcDbEntity
  8
0
  6
Continuous
 62
     7
100
AcDbCircle
 10
314.2745729290955
 20
192.4244575068052
 30
0.0
 40
0.4
100
AcDbArc
 50
90.0
 51
113.9347431357139
  0
LINE
  5
347
330
2
100
AcDbEntity
  8
0
  6
Continuous
 62
     7
100
AcDbLine
 10
314.1122945692937
 20
192.7900607534266
 30
0.0
 11
314.7599065289398
 21
192.0744575068052
 31
0.0
  0
LINE
  5
348
330
2
100
AcDbEntity
  8
0
  6
Continuous
 62
     7
100
AcDbLine
 10
313.9962970714823
 20
189.0669980363823
 30
0.0
 11
314.4532632847872
 21
188.6994575068051
 31
0.0
  0
LINE
  5
349
330
2
100
AcDbEntity
  8
0
  6
Continuous
 62
     7
100
AcDbLine
 10
314.5483041152904
 20
189.4494575068051
 30
0.0
 11
313.9962970714823
 21
189.0669980363823
 31
0.0
  0
LINE
  5
34A
330
2
100
AcDbEntity
  8
0
  6
Continuous
 62
     7
100
AcDbLine
 10
314.3451574425824
 20
189.6128495333819
 30
0.0
 11
313.793150398774
 21
189.230390062959
 31
0.0
  0
LINE
  5
34B
330
2
100
AcDbEntity
  8
0
  6
Continuous
 62
     7
100
AcDbLine
 10
313.7820045895919
 20
188.9185249506513
 30
0.0
 11
314.2389708028968
 21
188.5509844210742
 31
0.0
  0
LINE
  5
34C
330
2
100
AcDbEntity
  8
0
  6
Continuous
 62
     7
100
AcDbLine
 10
314.3451574425824
 20
189.6128495333819
 30
0.0
 11
314.5745433855059
 21
191.9067061877156
 31
0.0
  0
LINE
  5
34D
330
2
100
AcDbEntity
  8
0
  6
Continuous
 62
     7
100
AcDbLine
 10
314.4532632847872
 20
188.6994575068051
 30
0.0
 11
316.0268508730756
 21
188.6994575068051
 31
0.0
  0
LINE
  5
34E
330
2
100
AcDbEntity
  8
0
  6
Continuous
 62
     7
100
AcDbLine
 10
314.7599065289398
 20
192.0744575068052
 30
0.0
 11
316.3975495206275
 21
192.0744575068052
 31
0.0
  0
LINE
  5
34F
330
2
100
AcDbEntity
  8
0
  6
Continuous
 62
     7
100
AcDbLine
 10
314.5483041152904
 20
189.4494575068051
 30
0.0
 11
316.121891703579
 21
189.4494575068051
 31
0.0
  0
LINE
  5
350
330
2
100
AcDbEntity
  8
0
  6
Continuous
 62
     7
100
AcDbLine
 10
316.4625770405419
 20
196.3244575068052
 30
0.0
 11
316.4625770405419
 21
196.3244575068052
 31
0.0
  0
ARC
  5
351
330
2
100
AcDbEntity
  8
0
  6
Continuous
 62
     7
100
AcDbCircle
 10
316.9705828697761
 20
192.4244575068052
 30
0.0
 40
0.4
100
AcDbArc
 50
354.2893999999984
 51
23.93474313571744
  0
LINE
  5
352
330
2
100
AcDbEntity
  8
0
  6
Continuous
 62
     7
100
AcDbLine
 10
317.3361861163976
 20
192.5867358666066
 30
0.0
 11
316.5653008397172
 21
191.889094363371
 31
0.0
  0
ARC
  5
353
330
2
100
AcDbEntity
  8
0
  6
Continuous
 62
     7
100
AcDbCircle
 10
316.9705828697761
 20
192.4244575068052
 30
0.0
 40
0.4
100
AcDbArc
 50
60.35465686428628
 51
90.0
  0
LINE
  5
354
330
2
100
AcDbEntity
  8
0
  6
Continuous
 62
     7
100
AcDbLine
 10
317.0041193789994
 20
188.7398767597153
 30
0.0
 11
316.7820045895918
 21
188.9185249506513
 31
0.0
  0
LINE
  5
355
330
2
100
AcDbEntity
  8
0
  6
Continuous
 62
     7
100
AcDbLine
 10
316.7931503987741
 20
189.230390062959
 30
0.0
 11
317.0725275052559
 21
189.4239571947407
 31
0.0
  0
LINE
  5
356
330
2
100
AcDbEntity
  8
0
  6
Continuous
 62
     7
100
AcDbLine
 10
317.0725275052559
 20
189.4239571947407
 30
0.0
 11
317.3685977410928
 21
192.3846559715252
 31
0.0
  0
ARC
  5
357
330
2
100
AcDbEntity
  8
0
  6
Continuous
 62
     7
100
AcDbCircle
 10
319.5245729290955
 20
192.4244575068052
 30
0.0
 40
0.4
100
AcDbArc
 50
150.354656864283
 51
174.2893999999983
  0
ARC
  5
358
330
2
100
AcDbEntity
  8
0
  6
Continuous
 62
     7
100
AcDbCircle
 10
319.5245729290955
 20
192.4244575068052
 30
0.0
 40
0.4
100
AcDbArc
 50
90.0
 51
113.9347431357139
  0
LINE
  5
359
330
2
100
AcDbEntity
  8
0
  6
Continuous
 62
     7
100
AcDbLine
 10
319.3622945692937
 20
192.7900607534266
 30
0.0
 11
320.0099065289399
 21
192.0744575068052
 31
0.0
  0
LINE
  5
35A
330
2
100
AcDbEntity
  8
0
  6
Continuous
 62
     7
100
AcDbLine
 10
319.1769314258597
 20
192.622309434337
 30
0.0
 11
319.8245433855059
 21
191.9067061877156
 31
0.0
  0
LINE
  5
35B
330
2
100
AcDbEntity
  8
0
  6
Continuous
 62
     7
100
AcDbLine
 10
319.0320045895918
 20
188.9185249506513
 30
0.0
 11
318.7526274831102
 21
188.7249578188696
 31
0.0
  0
LINE
  5
35C
330
2
100
AcDbEntity
  8
0
  6
Continuous
 62
     7
100
AcDbLine
 10
318.8210356093664
 20
189.409038253895
 30
0.0
 11
319.0431503987741
 21
189.230390062959
 31
0.0
  0
LINE
  5
35D
330
2
100
AcDbEntity
  8
0
  6
Continuous
 62
     7
100
AcDbLine
 10
319.5951574425824
 20
189.6128495333819
 30
0.0
 11
319.0431503987741
 21
189.230390062959
 31
0.0
  0
LINE
  5
35E
330
2
100
AcDbEntity
  8
0
  6
Continuous
 62
     7
100
AcDbLine
 10
319.0320045895918
 20
188.9185249506513
 30
0.0
 11
319.4889708028968
 21
188.5509844210742
 31
0.0
  0
LINE
  5
35F
330
2
100
AcDbEntity
  8
0
  6
Continuous
 62
     7
100
AcDbLine
 10
319.2462970714823
 20
189.0669980363823
 30
0.0
 11
319.7032632847872
 21
188.6994575068051
 31
0.0
  0
LINE
  5
360
330
2
100
AcDbEntity
  8
0
  6
Continuous
 62
     7
100
AcDbLine
 10
319.7983041152903
 20
189.4494575068051
 30
0.0
 11
319.2462970714823
 21
189.0669980363823
 31
0.0
  0
LINE
  5
361
330
2
100
AcDbEntity
  8
0
  6
Continuous
 62
     7
100
AcDbLine
 10
318.8210356093664
 20
189.409038253895
 30
0.0
 11
319.1265580577785
 21
192.4642590420851
 31
0.0
  0
LINE
  5
362
330
2
100
AcDbEntity
  8
0
  6
Continuous
 62
     7
100
AcDbLine
 10
319.5951574425824
 20
189.6128495333819
 30
0.0
 11
319.8245433855059
 21
191.9067061877156
 31
0.0
  0
ARC
  5
363
330
2
100
AcDbEntity
  8
0
  6
Continuous
 62
     7
100
AcDbCircle
 10
318.4625770405419
 20
196.3244575068052
 30
0.0
 40
0.5
100
AcDbArc
 50
180.0
 51
270.0
  0
LINE
  5
364
330
2
100
AcDbEntity
  8
0
  6
Continuous
 62
     7
100
AcDbLine
 10
317.9625770405419
 20
196.3244575068052
 30
0.0
 11
317.9625770405419
 21
196.3244575068052
 31
0.0
  0
ARC
  5
365
330
2
100
AcDbEntity
  8
0
  6
Continuous
 62
     7
100
AcDbCircle
 10
318.4625770405419
 20
196.3244575068052
 30
0.0
 40
0.5
100
AcDbArc
 50
90.0
 51
180.0
  0
LINE
  5
366
330
2
100
AcDbEntity
  8
0
  6
Continuous
 62
     7
100
AcDbLine
 10
312.9625770405419
 20
196.3244575068052
 30
0.0
 11
312.9625770405419
 21
196.3244575068052
 31
0.0
  0
ARC
  5
367
330
2
100
AcDbEntity
  8
0
  6
Continuous
 62
     7
100
AcDbCircle
 10
313.4625770405419
 20
196.3244575068052
 30
0.0
 40
0.5
100
AcDbArc
 50
90.0
 51
180.0
  0
ARC
  5
368
330
2
100
AcDbEntity
  8
0
  6
Continuous
 62
     7
100
AcDbCircle
 10
313.4625770405419
 20
196.3244575068052
 30
0.0
 40
0.5
100
AcDbArc
 50
180.0
 51
270.0
  0
LINE
  5
369
330
2
100
AcDbEntity
  8
0
  6
Continuous
 62
     7
100
AcDbLine
 10
313.7820045895919
 20
188.9185249506513
 30
0.0
 11
313.5026274831103
 21
188.7249578188696
 31
0.0
  0
LINE
  5
36A
330
2
100
AcDbEntity
  8
0
  6
Continuous
 62
     7
100
AcDbLine
 10
313.5710356093664
 20
189.409038253895
 30
0.0
 11
313.793150398774
 21
189.230390062959
 31
0.0
  0
LINE
  5
36B
330
2
100
AcDbEntity
  8
0
  6
Continuous
 62
     7
100
AcDbLine
 10
313.5710356093664
 20
189.409038253895
 30
0.0
 11
313.8765580577786
 21
192.4642590420851
 31
0.0
  0
LINE
  5
36C
330
2
100
AcDbEntity
  8
0
  6
Continuous
 62
     7
100
AcDbLine
 10
313.4625770405419
 20
195.8244575068052
 30
0.0
 11
315.9625770405419
 21
195.8244575068052
 31
0.0
  0
LINE
  5
36D
330
2
100
AcDbEntity
  8
0
  6
Continuous
 62
     7
100
AcDbLine
 10
313.4625770405419
 20
196.8244575068051
 30
0.0
 11
315.9625770405419
 21
196.8244575068051
 31
0.0
  0
LINE
  5
36E
330
2
100
AcDbEntity
  8
0
  6
Continuous
 62
     7
100
AcDbLine
 10
316.6482235625062
 20
185.5266055792732
 30
0.0
 11
316.0006116028603
 21
186.2422088258945
 31
0.0
  0
ARC
  5
36F
330
2
100
AcDbEntity
  8
0
  6
Continuous
 62
     7
100
AcDbCircle
 10
316.3005820592707
 20
185.724457506805
 30
0.0
 40
0.4
100
AcDbArc
 50
270.0
 51
293.9347431357139
  0
LINE
  5
370
330
2
100
AcDbEntity
  8
0
  6
Continuous
 62
     7
100
AcDbLine
 10
316.4628604190721
 20
185.3588542601837
 30
0.0
 11
315.8152484594261
 21
186.0744575068052
 31
0.0
  0
LINE
  5
371
330
2
100
AcDbEntity
  8
0
  6
Continuous
 62
     7
100
AcDbLine
 10
314.1776054677384
 20
186.0744575068052
 30
0.0
 11
315.8152484594261
 21
186.0744575068052
 31
0.0
  0
LINE
  5
372
330
2
100
AcDbEntity
  8
0
  6
Continuous
 62
     7
100
AcDbLine
 10
317.1625770405419
 20
185.3244575068051
 30
0.0
 11
317.9125770405418
 21
185.3244575068051
 31
0.0
  0
LINE
  5
373
330
2
100
AcDbEntity
  8
0
  6
Continuous
 62
     7
100
AcDbLine
 10
317.23757713127
 20
186.0744575068052
 30
0.0
 11
317.9875771312702
 21
186.0744575068052
 31
0.0
  0
ARC
  5
374
330
2
100
AcDbEntity
  8
0
  6
Continuous
 62
     7
100
AcDbCircle
 10
316.3005820592707
 20
185.724457506805
 30
0.0
 40
0.4
100
AcDbArc
 50
330.3546568642832
 51
354.2893999999984
  0
LINE
  5
375
330
2
100
AcDbEntity
  8
0
  6
Continuous
 62
     7
100
AcDbLine
 10
317.1625770405419
 20
185.3244575068051
 30
0.0
 11
317.23757713127
 21
186.0744575068052
 31
0.0
  0
LINE
  5
376
330
2
100
AcDbEntity
  8
0
  6
Continuous
 62
     7
100
AcDbLine
 10
318.4889688719686
 20
185.5621791470036
 30
0.0
 11
319.2598541486489
 21
186.2598206502391
 31
0.0
  0
LINE
  5
377
330
2
100
AcDbEntity
  8
0
  6
Continuous
 62
     7
100
AcDbLine
 10
318.6567201910579
 20
185.3768160035696
 30
0.0
 11
319.4276054677384
 21
186.0744575068052
 31
0.0
  0
ARC
  5
378
330
2
100
AcDbEntity
  8
0
  6
Continuous
 62
     7
100
AcDbCircle
 10
318.8545721185899
 20
185.724457506805
 30
0.0
 40
0.4
100
AcDbArc
 50
240.3546568642862
 51
270.0
  0
ARC
  5
379
330
2
100
AcDbEntity
  8
0
  6
Continuous
 62
     7
100
AcDbCircle
 10
318.8545721185899
 20
185.724457506805
 30
0.0
 40
0.4
100
AcDbArc
 50
174.2893999999983
 51
203.9347431357174
  0
LINE
  5
37A
330
2
100
AcDbEntity
  8
0
  6
Continuous
 62
     7
100
AcDbLine
 10
317.9125770405418
 20
185.3244575068051
 30
0.0
 11
317.9875771312702
 21
186.0744575068052
 31
0.0
  0
ARC
  5
37B
330
2
100
AcDbEntity
  8
0
  6
Continuous
 62
     7
100
AcDbCircle
 10
313.6045721185899
 20
185.724457506805
 30
0.0
 40
0.4
100
AcDbArc
 50
240.3546568642862
 51
270.0
  0
ARC
  5
37C
330
2
100
AcDbEntity
  8
0
  6
Continuous
 62
     7
100
AcDbCircle
 10
313.6045721185899
 20
185.724457506805
 30
0.0
 40
0.4
100
AcDbArc
 50
174.2893999999983
 51
203.9347431357174
  0
LINE
  5
37D
330
2
100
AcDbEntity
  8
0
  6
Continuous
 62
     7
100
AcDbLine
 10
313.406720191058
 20
185.3768160035696
 30
0.0
 11
314.1776054677384
 21
186.0744575068052
 31
0.0
  0
LINE
  5
37E
330
2
100
AcDbEntity
  8
0
  6
Continuous
 62
     7
100
AcDbLine
 10
313.2389688719686
 20
185.5621791470036
 30
0.0
 11
314.0098541486489
 21
186.2598206502391
 31
0.0
  0
LINE
  5
37F
330
2
100
AcDbEntity
  8
0
  6
Continuous
 62
     7
100
AcDbLine
 10
313.6045721185899
 20
185.3244575068051
 30
0.0
 11
316.3005820592707
 21
185.3244575068051
 31
0.0
  0
LINE
  5
380
330
2
100
AcDbEntity
  8
0
  6
Continuous
 62
     7
100
AcDbLine
 10
316.0006116028603
 20
186.2422088258945
 30
0.0
 11
316.2299975457836
 21
188.5360654802284
 31
0.0
  0
LINE
  5
381
330
2
100
AcDbEntity
  8
0
  6
Continuous
 62
     7
100
AcDbLine
 10
313.2065572472732
 20
185.7642590420851
 30
0.0
 11
313.5026274831103
 21
188.7249578188696
 31
0.0
  0
LINE
  5
382
330
2
100
AcDbEntity
  8
0
  6
Continuous
 62
     7
100
AcDbLine
 10
314.0098541486489
 20
186.2598206502391
 30
0.0
 11
314.2389708028968
 21
188.5509844210742
 31
0.0
  0
LINE
  5
383
330
2
100
AcDbEntity
  8
0
  6
Continuous
 62
     7
100
AcDbLine
 10
316.6985969305874
 20
185.6846559715252
 30
0.0
 11
317.0041193789994
 21
188.7398767597153
 31
0.0
  0
LINE
  5
384
330
2
100
AcDbEntity
  8
0
  6
Continuous
 62
     7
100
AcDbLine
 10
318.4565572472731
 20
185.7642590420851
 30
0.0
 11
318.7526274831102
 21
188.7249578188696
 31
0.0
  0
LINE
  5
385
330
2
100
AcDbEntity
  8
0
  6
Continuous
 62
     7
100
AcDbLine
 10
319.2598541486489
 20
186.2598206502391
 30
0.0
 11
319.4889708028968
 21
188.5509844210742
 31
0.0
  0
LINE
  5
386
330
2
100
AcDbEntity
  8
0
  6
Continuous
 62
     7
100
AcDbLine
 10
334.3940132853909
 20
182.2994575068052
 30
0.0
 11
335.3381658383641
 21
182.2994575068052
 31
0.0
  0
LINE
  5
387
330
2
100
AcDbEntity
  8
0
  6
Continuous
 62
     7
100
AcDbLine
 10
334.336988787089
 20
181.8494575068051
 30
0.0
 11
335.281141340062
 21
181.8494575068051
 31
0.0
  0
LINE
  5
388
330
2
100
AcDbEntity
  8
0
  6
Continuous
 62
     7
100
AcDbLine
 10
334.5209747335807
 20
183.874457506805
 30
0.0
 11
335.5035605285934
 21
183.874457506805
 31
0.0
  0
LINE
  5
389
330
2
100
AcDbEntity
  8
0
  6
Continuous
 62
     7
100
AcDbLine
 10
334.1715940968597
 20
180.2744575068052
 30
0.0
 11
335.1541798918725
 21
180.2744575068052
 31
0.0
  0
LINE
  5
38A
330
2
100
AcDbEntity
  8
0
  6
Continuous
 62
     7
100
AcDbLine
 10
333.8277740873707
 20
179.8244575068052
 30
0.0
 11
335.445380051779
 21
179.8244575068052
 31
0.0
  0
LINE
  5
38B
330
2
100
AcDbEntity
  8
0
  6
Continuous
 62
     7
100
AcDbLine
 10
334.2297745736739
 20
184.3244575068051
 30
0.0
 11
335.8473805380825
 21
184.3244575068051
 31
0.0
  0
LINE
  5
38C
330
2
100
AcDbEntity
  8
0
  6
Continuous
 62
     7
100
AcDbLine
 10
330.6576521818367
 20
182.275205955059
 30
0.0
 11
330.8409656508839
 21
184.1083384279731
 31
0.0
  0
LINE
  5
38D
330
2
100
AcDbEntity
  8
0
  6
Continuous
 62
     7
100
AcDbLine
 10
329.1667413274983
 20
182.3885413582437
 30
0.0
 11
329.304211320047
 21
183.7632396207448
 31
0.0
  0
LINE
  5
38E
330
2
100
AcDbEntity
  8
0
  6
Continuous
 62
     7
100
AcDbLine
 10
329.6085473193703
 20
182.2841573195665
 30
0.0
 11
329.7861894608725
 21
184.0605765856371
 31
0.0
  0
LINE
  5
38F
330
2
100
AcDbEntity
  8
0
  6
Continuous
 62
     7
100
AcDbLine
 10
332.7585473193703
 20
182.2841573195665
 30
0.0
 11
332.9361894608724
 21
184.0605765856371
 31
0.0
  0
LINE
  5
390
330
2
100
AcDbEntity
  8
0
  6
Continuous
 62
     7
100
AcDbLine
 10
334.2721252817662
 20
182.397492722751
 30
0.0
 11
334.4097568475202
 21
183.7738067153515
 31
0.0
  0
LINE
  5
391
330
2
100
AcDbEntity
  8
0
  6
Continuous
 62
     7
100
AcDbLine
 10
333.8076521818366
 20
182.275205955059
 30
0.0
 11
333.9909656508839
 21
184.1083384279731
 31
0.0
  0
LINE
  5
392
330
2
100
AcDbEntity
  8
0
  6
Continuous
 62
     7
100
AcDbLine
 10
331.1221252817661
 20
182.397492722751
 30
0.0
 11
331.2597568475203
 21
183.7738067153515
 31
0.0
  0
LINE
  5
393
330
2
100
AcDbEntity
  8
0
  6
Continuous
 62
     7
100
AcDbLine
 10
332.3167413274981
 20
182.3885413582437
 30
0.0
 11
332.4542113200469
 21
183.7632396207448
 31
0.0
  0
LINE
  5
394
330
2
100
AcDbEntity
  8
0
  6
Continuous
 62
     7
100
AcDbLine
 10
327.9721252817662
 20
182.397492722751
 30
0.0
 11
328.1097568475202
 21
183.7738067153515
 31
0.0
  0
LINE
  5
395
330
2
100
AcDbEntity
  8
0
  6
Continuous
 62
     7
100
AcDbLine
 10
327.5076521818367
 20
182.275205955059
 30
0.0
 11
327.6909656508838
 21
184.1083384279731
 31
0.0
  0
LINE
  5
396
330
2
100
AcDbEntity
  8
0
  6
Continuous
 62
     7
100
AcDbLine
 10
326.4585473193701
 20
182.2841573195665
 30
0.0
 11
326.6361894608724
 21
184.0605765856371
 31
0.0
  0
LINE
  5
397
330
2
100
AcDbEntity
  8
0
  6
Continuous
 62
     7
100
AcDbLine
 10
326.0167413274983
 20
182.3885413582437
 30
0.0
 11
326.1542113200469
 21
183.7632396207448
 31
0.0
  0
LINE
  5
398
330
2
100
AcDbEntity
  8
0
  6
Continuous
 62
     7
100
AcDbLine
 10
324.3576521818368
 20
182.275205955059
 30
0.0
 11
324.5409656508839
 21
184.1083384279731
 31
0.0
  0
LINE
  5
399
330
2
100
AcDbEntity
  8
0
  6
Continuous
 62
     7
100
AcDbLine
 10
324.8221252817661
 20
182.397492722751
 30
0.0
 11
324.9597568475202
 21
183.7738067153515
 31
0.0
  0
LINE
  5
39A
330
2
100
AcDbEntity
  8
0
  6
Continuous
 62
     7
100
AcDbLine
 10
327.3084121393979
 20
179.9670904909242
 30
0.0
 11
327.770943305406
 21
180.3856753928655
 31
0.0
  0
LINE
  5
39B
330
2
100
AcDbEntity
  8
0
  6
Continuous
 62
     7
100
AcDbLine
 10
327.4090629308517
 20
179.8558726048638
 30
0.0
 11
327.8715940968599
 21
180.2744575068052
 31
0.0
  0
ARC
  5
39C
330
2
100
AcDbEntity
  8
0
  6
Continuous
 62
     7
100
AcDbCircle
 10
327.5277740873708
 20
180.0644575068052
 30
0.0
 40
0.24
100
AcDbArc
 50
240.3546568642862
 51
270.0
  0
LINE
  5
39D
330
2
100
AcDbEntity
  8
0
  6
Continuous
 62
     7
100
AcDbLine
 10
327.2889651645805
 20
180.0883384279731
 30
0.0
 11
327.4666073060828
 21
181.8647576940439
 31
0.0
  0
LINE
  5
39E
330
2
100
AcDbEntity
  8
0
  6
Continuous
 62
     7
100
AcDbLine
 10
326.4175024436163
 20
181.8737090585513
 30
0.0
 11
326.2842335699718
 21
181.9808979731128
 31
0.0
  0
LINE
  5
39F
330
2
100
AcDbEntity
  8
0
  6
Continuous
 62
     7
100
AcDbLine
 10
325.831141340062
 20
181.8494575068051
 30
0.0
 11
326.1623455663472
 21
182.0789331890589
 31
0.0
  0
LINE
  5
3A0
330
2
100
AcDbEntity
  8
0
  6
Continuous
 62
     7
100
AcDbLine
 10
325.9530293436869
 20
181.7514222908592
 30
0.0
 11
326.2842335699718
 21
181.9808979731128
 31
0.0
  0
LINE
  5
3A1
330
2
100
AcDbEntity
  8
0
  6
Continuous
 62
     7
100
AcDbLine
 10
326.2909210554813
 20
182.1680170404975
 30
0.0
 11
326.4585473193701
 21
182.2841573195665
 31
0.0
  0
LINE
  5
3A2
330
2
100
AcDbEntity
  8
0
  6
Continuous
 62
     7
100
AcDbLine
 10
326.2909210554813
 20
182.1680170404975
 30
0.0
 11
326.0167413274983
 21
182.3885413582437
 31
0.0
  0
LINE
  5
3A3
330
2
100
AcDbEntity
  8
0
  6
Continuous
 62
     7
100
AcDbLine
 10
326.1623455663472
 20
182.0789331890589
 30
0.0
 11
325.8881658383641
 21
182.2994575068052
 31
0.0
  0
LINE
  5
3A4
330
2
100
AcDbEntity
  8
0
  6
Continuous
 62
     7
100
AcDbLine
 10
324.9440132853911
 20
182.2994575068052
 30
0.0
 11
325.8881658383641
 21
182.2994575068052
 31
0.0
  0
LINE
  5
3A5
330
2
100
AcDbEntity
  8
0
  6
Continuous
 62
     7
100
AcDbLine
 10
324.886988787089
 20
181.8494575068051
 30
0.0
 11
325.831141340062
 21
181.8494575068051
 31
0.0
  0
LINE
  5
3A6
330
2
100
AcDbEntity
  8
0
  6
Continuous
 62
     7
100
AcDbLine
 10
324.4842335699718
 20
181.9808979731128
 30
0.0
 11
324.7584132979548
 21
181.7603736553666
 31
0.0
  0
LINE
  5
3A7
330
2
100
AcDbEntity
  8
0
  6
Continuous
 62
     7
100
AcDbLine
 10
324.4842335699718
 20
181.9808979731128
 30
0.0
 11
324.3166073060828
 21
181.8647576940439
 31
0.0
  0
LINE
  5
3A8
330
2
100
AcDbEntity
  8
0
  6
Continuous
 62
     7
100
AcDbLine
 10
324.612809059106
 20
182.0699818245514
 30
0.0
 11
324.886988787089
 21
181.8494575068051
 31
0.0
  0
LINE
  5
3A9
330
2
100
AcDbEntity
  8
0
  6
Continuous
 62
     7
100
AcDbLine
 10
324.8221252817661
 20
182.397492722751
 30
0.0
 11
324.4909210554813
 21
182.1680170404975
 31
0.0
  0
LINE
  5
3AA
330
2
100
AcDbEntity
  8
0
  6
Continuous
 62
     7
100
AcDbLine
 10
324.3576521818368
 20
182.275205955059
 30
0.0
 11
324.4909210554813
 21
182.1680170404975
 31
0.0
  0
LINE
  5
3AB
330
2
100
AcDbEntity
  8
0
  6
Continuous
 62
     7
100
AcDbLine
 10
324.9440132853911
 20
182.2994575068052
 30
0.0
 11
324.612809059106
 21
182.0699818245514
 31
0.0
  0
ARC
  5
3AC
330
2
100
AcDbEntity
  8
0
  6
Continuous
 62
     7
100
AcDbCircle
 10
327.5277740873708
 20
180.0644575068052
 30
0.0
 40
0.24
100
AcDbArc
 50
174.2893999999983
 51
203.9347431357174
  0
LINE
  5
3AD
330
2
100
AcDbEntity
  8
0
  6
Continuous
 62
     7
100
AcDbLine
 10
326.5575770949789
 20
180.2744575068052
 30
0.0
 11
327.0075770949788
 21
180.2744575068052
 31
0.0
  0
LINE
  5
3AE
330
2
100
AcDbEntity
  8
0
  6
Continuous
 62
     7
100
AcDbLine
 10
326.9625770405419
 20
179.8244575068052
 30
0.0
 11
327.0075770949788
 21
180.2744575068052
 31
0.0
  0
LINE
  5
3AF
330
2
100
AcDbEntity
  8
0
  6
Continuous
 62
     7
100
AcDbLine
 10
326.5125770405418
 20
179.8244575068052
 30
0.0
 11
326.5575770949789
 21
180.2744575068052
 31
0.0
  0
LINE
  5
3B0
330
2
100
AcDbEntity
  8
0
  6
Continuous
 62
     7
100
AcDbLine
 10
326.5125770405418
 20
179.8244575068052
 30
0.0
 11
326.9625770405419
 21
179.8244575068052
 31
0.0
  0
ARC
  5
3B1
330
2
100
AcDbEntity
  8
0
  6
Continuous
 62
     7
100
AcDbCircle
 10
325.9953800517792
 20
180.0644575068052
 30
0.0
 40
0.24
100
AcDbArc
 50
270.0
 51
293.9347431357139
  0
LINE
  5
3B2
330
2
100
AcDbEntity
  8
0
  6
Continuous
 62
     7
100
AcDbLine
 10
326.2039649537205
 20
179.9457463502859
 30
0.0
 11
325.815397777933
 21
180.3751082982588
 31
0.0
  0
ARC
  5
3B3
330
2
100
AcDbEntity
  8
0
  6
Continuous
 62
     7
100
AcDbCircle
 10
325.9953800517792
 20
180.0644575068052
 30
0.0
 40
0.24
100
AcDbArc
 50
330.3546568642832
 51
354.2893999999984
  0
LINE
  5
3B4
330
2
100
AcDbEntity
  8
0
  6
Continuous
 62
     7
100
AcDbLine
 10
326.09274706766
 20
179.8450955588323
 30
0.0
 11
325.7041798918724
 21
180.2744575068052
 31
0.0
  0
LINE
  5
3B5
330
2
100
AcDbEntity
  8
0
  6
Continuous
 62
     7
100
AcDbLine
 10
324.3777740873706
 20
179.8244575068052
 30
0.0
 11
325.9953800517792
 21
179.8244575068052
 31
0.0
  0
LINE
  5
3B6
330
2
100
AcDbEntity
  8
0
  6
Continuous
 62
     7
100
AcDbLine
 10
324.2590629308515
 20
179.8558726048638
 30
0.0
 11
324.7215940968599
 21
180.2744575068052
 31
0.0
  0
ARC
  5
3B7
330
2
100
AcDbEntity
  8
0
  6
Continuous
 62
     7
100
AcDbCircle
 10
324.3777740873706
 20
180.0644575068052
 30
0.0
 40
0.24
100
AcDbArc
 50
240.3546568642862
 51
270.0
  0
LINE
  5
3B8
330
2
100
AcDbEntity
  8
0
  6
Continuous
 62
     7
100
AcDbLine
 10
324.7215940968599
 20
180.2744575068052
 30
0.0
 11
325.7041798918724
 21
180.2744575068052
 31
0.0
  0
ARC
  5
3B9
330
2
100
AcDbEntity
  8
0
  6
Continuous
 62
     7
100
AcDbCircle
 10
324.3777740873706
 20
180.0644575068052
 30
0.0
 40
0.24
100
AcDbArc
 50
174.2893999999983
 51
203.9347431357174
  0
LINE
  5
3BA
330
2
100
AcDbEntity
  8
0
  6
Continuous
 62
     7
100
AcDbLine
 10
324.1584121393978
 20
179.9670904909242
 30
0.0
 11
324.6209433054062
 21
180.3856753928655
 31
0.0
  0
LINE
  5
3BB
330
2
100
AcDbEntity
  8
0
  6
Continuous
 62
     7
100
AcDbLine
 10
326.2341889745692
 20
180.0405765856371
 30
0.0
 11
326.4175024436163
 21
181.8737090585513
 31
0.0
  0
LINE
  5
3BC
330
2
100
AcDbEntity
  8
0
  6
Continuous
 62
     7
100
AcDbLine
 10
325.815397777933
 20
180.3751082982588
 30
0.0
 11
325.9530293436869
 21
181.7514222908592
 31
0.0
  0
LINE
  5
3BD
330
2
100
AcDbEntity
  8
0
  6
Continuous
 62
     7
100
AcDbLine
 10
324.6209433054062
 20
180.3856753928655
 30
0.0
 11
324.7584132979548
 21
181.7603736553666
 31
0.0
  0
LINE
  5
3BE
330
2
100
AcDbEntity
  8
0
  6
Continuous
 62
     7
100
AcDbLine
 10
324.1389651645807
 20
180.0883384279731
 30
0.0
 11
324.3166073060828
 21
181.8647576940439
 31
0.0
  0
LINE
  5
3BF
330
2
100
AcDbEntity
  8
0
  6
Continuous
 62
     7
100
AcDbLine
 10
330.9128090591062
 20
182.0699818245514
 30
0.0
 11
331.1869887870888
 21
181.8494575068051
 31
0.0
  0
LINE
  5
3C0
330
2
100
AcDbEntity
  8
0
  6
Continuous
 62
     7
100
AcDbLine
 10
331.1221252817661
 20
182.397492722751
 30
0.0
 11
330.7909210554813
 21
182.1680170404975
 31
0.0
  0
LINE
  5
3C1
330
2
100
AcDbEntity
  8
0
  6
Continuous
 62
     7
100
AcDbLine
 10
331.244013285391
 20
182.2994575068052
 30
0.0
 11
330.9128090591062
 21
182.0699818245514
 31
0.0
  0
LINE
  5
3C2
330
2
100
AcDbEntity
  8
0
  6
Continuous
 62
     7
100
AcDbLine
 10
330.6777740873708
 20
179.8244575068052
 30
0.0
 11
332.2953800517792
 21
179.8244575068052
 31
0.0
  0
LINE
  5
3C3
330
2
100
AcDbEntity
  8
0
  6
Continuous
 62
     7
100
AcDbLine
 10
331.0215940968599
 20
180.2744575068052
 30
0.0
 11
332.0041798918723
 21
180.2744575068052
 31
0.0
  0
LINE
  5
3C4
330
2
100
AcDbEntity
  8
0
  6
Continuous
 62
     7
100
AcDbLine
 10
330.7842335699718
 20
181.9808979731128
 30
0.0
 11
331.0584132979548
 21
181.7603736553666
 31
0.0
  0
LINE
  5
3C5
330
2
100
AcDbEntity
  8
0
  6
Continuous
 62
     7
100
AcDbLine
 10
330.7842335699718
 20
181.9808979731128
 30
0.0
 11
330.6166073060829
 21
181.8647576940439
 31
0.0
  0
LINE
  5
3C6
330
2
100
AcDbEntity
  8
0
  6
Continuous
 62
     7
100
AcDbLine
 10
330.6576521818367
 20
182.275205955059
 30
0.0
 11
330.7909210554813
 21
182.1680170404975
 31
0.0
  0
LINE
  5
3C7
330
2
100
AcDbEntity
  8
0
  6
Continuous
 62
     7
100
AcDbLine
 10
330.5590629308515
 20
179.8558726048638
 30
0.0
 11
331.0215940968599
 21
180.2744575068052
 31
0.0
  0
ARC
  5
3C8
330
2
100
AcDbEntity
  8
0
  6
Continuous
 62
     7
100
AcDbCircle
 10
330.6777740873708
 20
180.0644575068052
 30
0.0
 40
0.24
100
AcDbArc
 50
240.3546568642862
 51
270.0
  0
ARC
  5
3C9
330
2
100
AcDbEntity
  8
0
  6
Continuous
 62
     7
100
AcDbCircle
 10
330.6777740873708
 20
180.0644575068052
 30
0.0
 40
0.24
100
AcDbArc
 50
174.2893999999983
 51
203.9347431357174
  0
LINE
  5
3CA
330
2
100
AcDbEntity
  8
0
  6
Continuous
 62
     7
100
AcDbLine
 10
330.4584121393978
 20
179.9670904909242
 30
0.0
 11
330.9209433054061
 21
180.3856753928655
 31
0.0
  0
LINE
  5
3CB
330
2
100
AcDbEntity
  8
0
  6
Continuous
 62
     7
100
AcDbLine
 10
330.9209433054061
 20
180.3856753928655
 30
0.0
 11
331.0584132979548
 21
181.7603736553666
 31
0.0
  0
LINE
  5
3CC
330
2
100
AcDbEntity
  8
0
  6
Continuous
 62
     7
100
AcDbLine
 10
330.4389651645806
 20
180.0883384279731
 30
0.0
 11
330.6166073060829
 21
181.8647576940439
 31
0.0
  0
LINE
  5
3CD
330
2
100
AcDbEntity
  8
0
  6
Continuous
 62
     7
100
AcDbLine
 10
329.103029343687
 20
181.7514222908592
 30
0.0
 11
329.4342335699719
 21
181.9808979731128
 31
0.0
  0
LINE
  5
3CE
330
2
100
AcDbEntity
  8
0
  6
Continuous
 62
     7
100
AcDbLine
 10
328.9811413400621
 20
181.8494575068051
 30
0.0
 11
329.312345566347
 21
182.0789331890589
 31
0.0
  0
LINE
  5
3CF
330
2
100
AcDbEntity
  8
0
  6
Continuous
 62
     7
100
AcDbLine
 10
329.5675024436164
 20
181.8737090585513
 30
0.0
 11
329.4342335699719
 21
181.9808979731128
 31
0.0
  0
LINE
  5
3D0
330
2
100
AcDbEntity
  8
0
  6
Continuous
 62
     7
100
AcDbLine
 10
329.4409210554813
 20
182.1680170404975
 30
0.0
 11
329.1667413274983
 21
182.3885413582437
 31
0.0
  0
LINE
  5
3D1
330
2
100
AcDbEntity
  8
0
  6
Continuous
 62
     7
100
AcDbLine
 10
329.312345566347
 20
182.0789331890589
 30
0.0
 11
329.038165838364
 21
182.2994575068052
 31
0.0
  0
LINE
  5
3D2
330
2
100
AcDbEntity
  8
0
  6
Continuous
 62
     7
100
AcDbLine
 10
329.4409210554813
 20
182.1680170404975
 30
0.0
 11
329.6085473193703
 21
182.2841573195665
 31
0.0
  0
LINE
  5
3D3
330
2
100
AcDbEntity
  8
0
  6
Continuous
 62
     7
100
AcDbLine
 10
329.24274706766
 20
179.8450955588323
 30
0.0
 11
328.8541798918725
 21
180.2744575068052
 31
0.0
  0
ARC
  5
3D4
330
2
100
AcDbEntity
  8
0
  6
Continuous
 62
     7
100
AcDbCircle
 10
329.145380051779
 20
180.0644575068052
 30
0.0
 40
0.24
100
AcDbArc
 50
270.0
 51
293.9347431357139
  0
LINE
  5
3D5
330
2
100
AcDbEntity
  8
0
  6
Continuous
 62
     7
100
AcDbLine
 10
329.3539649537204
 20
179.9457463502859
 30
0.0
 11
328.9653977779328
 21
180.3751082982588
 31
0.0
  0
ARC
  5
3D6
330
2
100
AcDbEntity
  8
0
  6
Continuous
 62
     7
100
AcDbCircle
 10
329.145380051779
 20
180.0644575068052
 30
0.0
 40
0.24
100
AcDbArc
 50
330.3546568642832
 51
354.2893999999984
  0
LINE
  5
3D7
330
2
100
AcDbEntity
  8
0
  6
Continuous
 62
     7
100
AcDbLine
 10
328.9653977779328
 20
180.3751082982588
 30
0.0
 11
329.103029343687
 21
181.7514222908592
 31
0.0
  0
LINE
  5
3D8
330
2
100
AcDbEntity
  8
0
  6
Continuous
 62
     7
100
AcDbLine
 10
329.3841889745693
 20
180.0405765856371
 30
0.0
 11
329.5675024436164
 21
181.8737090585513
 31
0.0
  0
LINE
  5
3D9
330
2
100
AcDbEntity
  8
0
  6
Continuous
 62
     7
100
AcDbLine
 10
333.9342335699719
 20
181.9808979731128
 30
0.0
 11
333.7666073060827
 21
181.8647576940439
 31
0.0
  0
LINE
  5
3DA
330
2
100
AcDbEntity
  8
0
  6
Continuous
 62
     7
100
AcDbLine
 10
331.244013285391
 20
182.2994575068052
 30
0.0
 11
332.1881658383642
 21
182.2994575068052
 31
0.0
  0
LINE
  5
3DB
330
2
100
AcDbEntity
  8
0
  6
Continuous
 62
     7
100
AcDbLine
 10
332.7175024436165
 20
181.8737090585513
 30
0.0
 11
332.5842335699717
 21
181.9808979731128
 31
0.0
  0
LINE
  5
3DC
330
2
100
AcDbEntity
  8
0
  6
Continuous
 62
     7
100
AcDbLine
 10
331.1869887870888
 20
181.8494575068051
 30
0.0
 11
332.1311413400622
 21
181.8494575068051
 31
0.0
  0
LINE
  5
3DD
330
2
100
AcDbEntity
  8
0
  6
Continuous
 62
     7
100
AcDbLine
 10
332.1311413400622
 20
181.8494575068051
 30
0.0
 11
332.462345566347
 21
182.0789331890589
 31
0.0
  0
LINE
  5
3DE
330
2
100
AcDbEntity
  8
0
  6
Continuous
 62
     7
100
AcDbLine
 10
332.2530293436869
 20
181.7514222908592
 30
0.0
 11
332.5842335699717
 21
181.9808979731128
 31
0.0
  0
LINE
  5
3DF
330
2
100
AcDbEntity
  8
0
  6
Continuous
 62
     7
100
AcDbLine
 10
332.5909210554812
 20
182.1680170404975
 30
0.0
 11
332.3167413274981
 21
182.3885413582437
 31
0.0
  0
LINE
  5
3E0
330
2
100
AcDbEntity
  8
0
  6
Continuous
 62
     7
100
AcDbLine
 10
332.462345566347
 20
182.0789331890589
 30
0.0
 11
332.1881658383642
 21
182.2994575068052
 31
0.0
  0
LINE
  5
3E1
330
2
100
AcDbEntity
  8
0
  6
Continuous
 62
     7
100
AcDbLine
 10
332.5909210554812
 20
182.1680170404975
 30
0.0
 11
332.7585473193703
 21
182.2841573195665
 31
0.0
  0
LINE
  5
3E2
330
2
100
AcDbEntity
  8
0
  6
Continuous
 62
     7
100
AcDbLine
 10
334.0628090591061
 20
182.0699818245514
 30
0.0
 11
334.336988787089
 21
181.8494575068051
 31
0.0
  0
LINE
  5
3E3
330
2
100
AcDbEntity
  8
0
  6
Continuous
 62
     7
100
AcDbLine
 10
333.9342335699719
 20
181.9808979731128
 30
0.0
 11
334.2084132979548
 21
181.7603736553666
 31
0.0
  0
LINE
  5
3E4
330
2
100
AcDbEntity
  8
0
  6
Continuous
 62
     7
100
AcDbLine
 10
334.2721252817662
 20
182.397492722751
 30
0.0
 11
333.9409210554813
 21
182.1680170404975
 31
0.0
  0
LINE
  5
3E5
330
2
100
AcDbEntity
  8
0
  6
Continuous
 62
     7
100
AcDbLine
 10
334.3940132853909
 20
182.2994575068052
 30
0.0
 11
334.0628090591061
 21
182.0699818245514
 31
0.0
  0
LINE
  5
3E6
330
2
100
AcDbEntity
  8
0
  6
Continuous
 62
     7
100
AcDbLine
 10
333.8076521818366
 20
182.275205955059
 30
0.0
 11
333.9409210554813
 21
182.1680170404975
 31
0.0
  0
LINE
  5
3E7
330
2
100
AcDbEntity
  8
0
  6
Continuous
 62
     7
100
AcDbLine
 10
333.7090629308516
 20
179.8558726048638
 30
0.0
 11
334.1715940968597
 21
180.2744575068052
 31
0.0
  0
LINE
  5
3E8
330
2
100
AcDbEntity
  8
0
  6
Continuous
 62
     7
100
AcDbLine
 10
333.6084121393978
 20
179.9670904909242
 30
0.0
 11
334.0709433054062
 21
180.3856753928655
 31
0.0
  0
ARC
  5
3E9
330
2
100
AcDbEntity
  8
0
  6
Continuous
 62
     7
100
AcDbCircle
 10
333.8277740873707
 20
180.0644575068052
 30
0.0
 40
0.24
100
AcDbArc
 50
240.3546568642862
 51
270.0
  0
LINE
  5
3EA
330
2
100
AcDbEntity
  8
0
  6
Continuous
 62
     7
100
AcDbLine
 10
332.8125770405418
 20
179.8244575068052
 30
0.0
 11
332.8575770949787
 21
180.2744575068052
 31
0.0
  0
LINE
  5
3EB
330
2
100
AcDbEntity
  8
0
  6
Continuous
 62
     7
100
AcDbLine
 10
332.8125770405418
 20
179.8244575068052
 30
0.0
 11
333.2625770405418
 21
179.8244575068052
 31
0.0
  0
ARC
  5
3EC
330
2
100
AcDbEntity
  8
0
  6
Continuous
 62
     7
100
AcDbCircle
 10
332.2953800517792
 20
180.0644575068052
 30
0.0
 40
0.24
100
AcDbArc
 50
330.3546568642832
 51
354.2893999999984
  0
LINE
  5
3ED
330
2
100
AcDbEntity
  8
0
  6
Continuous
 62
     7
100
AcDbLine
 10
333.2625770405418
 20
179.8244575068052
 30
0.0
 11
333.3075770949788
 21
180.2744575068052
 31
0.0
  0
LINE
  5
3EE
330
2
100
AcDbEntity
  8
0
  6
Continuous
 62
     7
100
AcDbLine
 10
332.8575770949787
 20
180.2744575068052
 30
0.0
 11
333.3075770949788
 21
180.2744575068052
 31
0.0
  0
ARC
  5
3EF
330
2
100
AcDbEntity
  8
0
  6
Continuous
 62
     7
100
AcDbCircle
 10
333.8277740873707
 20
180.0644575068052
 30
0.0
 40
0.24
100
AcDbArc
 50
174.2893999999983
 51
203.9347431357174
  0
LINE
  5
3F0
330
2
100
AcDbEntity
  8
0
  6
Continuous
 62
     7
100
AcDbLine
 10
332.3927470676598
 20
179.8450955588323
 30
0.0
 11
332.0041798918723
 21
180.2744575068052
 31
0.0
  0
ARC
  5
3F1
330
2
100
AcDbEntity
  8
0
  6
Continuous
 62
     7
100
AcDbCircle
 10
332.2953800517792
 20
180.0644575068052
 30
0.0
 40
0.24
100
AcDbArc
 50
270.0
 51
293.9347431357139
  0
LINE
  5
3F2
330
2
100
AcDbEntity
  8
0
  6
Continuous
 62
     7
100
AcDbLine
 10
332.5039649537205
 20
179.9457463502859
 30
0.0
 11
332.1153977779329
 21
180.3751082982588
 31
0.0
  0
LINE
  5
3F3
330
2
100
AcDbEntity
  8
0
  6
Continuous
 62
     7
100
AcDbLine
 10
332.5341889745691
 20
180.0405765856371
 30
0.0
 11
332.7175024436165
 21
181.8737090585513
 31
0.0
  0
LINE
  5
3F4
330
2
100
AcDbEntity
  8
0
  6
Continuous
 62
     7
100
AcDbLine
 10
333.5889651645807
 20
180.0883384279731
 30
0.0
 11
333.7666073060827
 21
181.8647576940439
 31
0.0
  0
LINE
  5
3F5
330
2
100
AcDbEntity
  8
0
  6
Continuous
 62
     7
100
AcDbLine
 10
332.1153977779329
 20
180.3751082982588
 30
0.0
 11
332.2530293436869
 21
181.7514222908592
 31
0.0
  0
LINE
  5
3F6
330
2
100
AcDbEntity
  8
0
  6
Continuous
 62
     7
100
AcDbLine
 10
334.0709433054062
 20
180.3856753928655
 30
0.0
 11
334.2084132979548
 21
181.7603736553666
 31
0.0
  0
LINE
  5
3F7
330
2
100
AcDbEntity
  8
0
  6
Continuous
 62
     7
100
AcDbLine
 10
327.6342335699719
 20
181.9808979731128
 30
0.0
 11
327.4666073060828
 21
181.8647576940439
 31
0.0
  0
LINE
  5
3F8
330
2
100
AcDbEntity
  8
0
  6
Continuous
 62
     7
100
AcDbLine
 10
327.7628090591061
 20
182.0699818245514
 30
0.0
 11
328.036988787089
 21
181.8494575068051
 31
0.0
  0
LINE
  5
3F9
330
2
100
AcDbEntity
  8
0
  6
Continuous
 62
     7
100
AcDbLine
 10
327.6342335699719
 20
181.9808979731128
 30
0.0
 11
327.9084132979547
 21
181.7603736553666
 31
0.0
  0
LINE
  5
3FA
330
2
100
AcDbEntity
  8
0
  6
Continuous
 62
     7
100
AcDbLine
 10
327.5076521818367
 20
182.275205955059
 30
0.0
 11
327.6409210554811
 21
182.1680170404975
 31
0.0
  0
LINE
  5
3FB
330
2
100
AcDbEntity
  8
0
  6
Continuous
 62
     7
100
AcDbLine
 10
327.9721252817662
 20
182.397492722751
 30
0.0
 11
327.6409210554811
 21
182.1680170404975
 31
0.0
  0
LINE
  5
3FC
330
2
100
AcDbEntity
  8
0
  6
Continuous
 62
     7
100
AcDbLine
 10
328.0940132853909
 20
182.2994575068052
 30
0.0
 11
327.7628090591061
 21
182.0699818245514
 31
0.0
  0
LINE
  5
3FD
330
2
100
AcDbEntity
  8
0
  6
Continuous
 62
     7
100
AcDbLine
 10
327.770943305406
 20
180.3856753928655
 30
0.0
 11
327.9084132979547
 21
181.7603736553666
 31
0.0
  0
LINE
  5
3FE
330
2
100
AcDbEntity
  8
0
  6
Continuous
 62
     7
100
AcDbLine
 10
328.0940132853909
 20
182.2994575068052
 30
0.0
 11
329.038165838364
 21
182.2994575068052
 31
0.0
  0
LINE
  5
3FF
330
2
100
AcDbEntity
  8
0
  6
Continuous
 62
     7
100
AcDbLine
 10
328.036988787089
 20
181.8494575068051
 30
0.0
 11
328.9811413400621
 21
181.8494575068051
 31
0.0
  0
LINE
  5
400
330
2
100
AcDbEntity
  8
0
  6
Continuous
 62
     7
100
AcDbLine
 10
327.8715940968599
 20
180.2744575068052
 30
0.0
 11
328.8541798918725
 21
180.2744575068052
 31
0.0
  0
LINE
  5
401
330
2
100
AcDbEntity
  8
0
  6
Continuous
 62
     7
100
AcDbLine
 10
327.5277740873708
 20
179.8244575068052
 30
0.0
 11
329.145380051779
 21
179.8244575068052
 31
0.0
  0
LINE
  5
402
330
2
100
AcDbEntity
  8
0
  6
Continuous
 62
     7
100
AcDbLine
 10
327.668434797308
 20
192.7720990100407
 30
0.0
 11
326.8975495206275
 21
192.0744575068052
 31
0.0
  0
LINE
  5
403
330
2
100
AcDbEntity
  8
0
  6
Continuous
 62
     7
100
AcDbLine
 10
327.8361861163976
 20
192.5867358666066
 30
0.0
 11
327.0653008397172
 21
191.889094363371
 31
0.0
  0
LINE
  5
404
330
2
100
AcDbEntity
  8
0
  6
Continuous
 62
     7
100
AcDbLine
 10
327.5041193789994
 20
188.7398767597153
 30
0.0
 11
327.2820045895918
 21
188.9185249506513
 31
0.0
  0
LINE
  5
405
330
2
100
AcDbEntity
  8
0
  6
Continuous
 62
     7
100
AcDbLine
 10
327.2931503987741
 20
189.230390062959
 30
0.0
 11
327.5725275052559
 21
189.4239571947407
 31
0.0
  0
LINE
  5
406
330
2
100
AcDbEntity
  8
0
  6
Continuous
 62
     7
100
AcDbLine
 10
324.7745729290955
 20
192.8244575068051
 30
0.0
 11
327.4705828697761
 21
192.8244575068051
 31
0.0
  0
LINE
  5
407
330
2
100
AcDbEntity
  8
0
  6
Continuous
 62
     7
100
AcDbLine
 10
327.1985969305874
 20
185.6846559715252
 30
0.0
 11
327.5041193789994
 21
188.7398767597153
 31
0.0
  0
LINE
  5
408
330
2
100
AcDbEntity
  8
0
  6
Continuous
 62
     7
100
AcDbLine
 10
323.4625770405419
 20
196.8244575068051
 30
0.0
 11
325.9625770405419
 21
196.8244575068051
 31
0.0
  0
LINE
  5
409
330
2
100
AcDbEntity
  8
0
  6
Continuous
 62
     7
100
AcDbLine
 10
323.4625770405419
 20
195.8244575068052
 30
0.0
 11
325.9625770405419
 21
195.8244575068052
 31
0.0
  0
LINE
  5
40A
330
2
100
AcDbEntity
  8
0
  6
Continuous
 62
     7
100
AcDbLine
 10
322.418434797308
 20
192.7720990100407
 30
0.0
 11
321.6475495206275
 21
192.0744575068052
 31
0.0
  0
LINE
  5
40B
330
2
100
AcDbEntity
  8
0
  6
Continuous
 62
     7
100
AcDbLine
 10
322.5861861163977
 20
192.5867358666066
 30
0.0
 11
321.8153008397172
 21
191.889094363371
 31
0.0
  0
ARC
  5
40C
330
2
100
AcDbEntity
  8
0
  6
Continuous
 62
     7
100
AcDbCircle
 10
322.2205828697761
 20
192.4244575068052
 30
0.0
 40
0.4
100
AcDbArc
 50
354.2893999999984
 51
23.93474313571744
  0
ARC
  5
40D
330
2
100
AcDbEntity
  8
0
  6
Continuous
 62
     7
100
AcDbCircle
 10
322.2205828697761
 20
192.4244575068052
 30
0.0
 40
0.4
100
AcDbArc
 50
60.35465686428628
 51
90.0
  0
LINE
  5
40E
330
2
100
AcDbEntity
  8
0
  6
Continuous
 62
     7
100
AcDbLine
 10
321.2768508730755
 20
188.6994575068051
 30
0.0
 11
321.8288579168836
 21
189.081916977228
 31
0.0
  0
LINE
  5
40F
330
2
100
AcDbEntity
  8
0
  6
Continuous
 62
     7
100
AcDbLine
 10
321.8288579168836
 20
189.081916977228
 30
0.0
 11
321.371891703579
 21
189.4494575068051
 31
0.0
  0
LINE
  5
410
330
2
100
AcDbEntity
  8
0
  6
Continuous
 62
     7
100
AcDbLine
 10
322.043150398774
 20
189.230390062959
 30
0.0
 11
321.5861841854693
 21
189.597930592536
 31
0.0
  0
LINE
  5
411
330
2
100
AcDbEntity
  8
0
  6
Continuous
 62
     7
100
AcDbLine
 10
321.4799975457836
 20
188.5360654802284
 30
0.0
 11
322.0320045895919
 21
188.9185249506513
 31
0.0
  0
LINE
  5
412
330
2
100
AcDbEntity
  8
0
  6
Continuous
 62
     7
100
AcDbLine
 10
322.2541193789993
 20
188.7398767597153
 30
0.0
 11
322.0320045895919
 21
188.9185249506513
 31
0.0
  0
LINE
  5
413
330
2
100
AcDbEntity
  8
0
  6
Continuous
 62
     7
100
AcDbLine
 10
322.043150398774
 20
189.230390062959
 30
0.0
 11
322.322527505256
 21
189.4239571947407
 31
0.0
  0
LINE
  5
414
330
2
100
AcDbEntity
  8
0
  6
Continuous
 62
     7
100
AcDbLine
 10
322.322527505256
 20
189.4239571947407
 30
0.0
 11
322.6185977410928
 21
192.3846559715252
 31
0.0
  0
LINE
  5
415
330
2
100
AcDbEntity
  8
0
  6
Continuous
 62
     7
100
AcDbLine
 10
321.5861841854693
 20
189.597930592536
 30
0.0
 11
321.8153008397172
 21
191.889094363371
 31
0.0
  0
LINE
  5
416
330
2
100
AcDbEntity
  8
0
  6
Continuous
 62
     7
100
AcDbLine
 10
322.9625770405419
 20
196.3244575068052
 30
0.0
 11
322.9625770405419
 21
196.3244575068052
 31
0.0
  0
ARC
  5
417
330
2
100
AcDbEntity
  8
0
  6
Continuous
 62
     7
100
AcDbCircle
 10
323.4625770405419
 20
196.3244575068052
 30
0.0
 40
0.5
100
AcDbArc
 50
90.0
 51
180.0
  0
ARC
  5
418
330
2
100
AcDbEntity
  8
0
  6
Continuous
 62
     7
100
AcDbCircle
 10
323.4625770405419
 20
196.3244575068052
 30
0.0
 40
0.5
100
AcDbArc
 50
180.0
 51
270.0
  0
LINE
  5
419
330
2
100
AcDbEntity
  8
0
  6
Continuous
 62
     7
100
AcDbLine
 10
321.4625770405419
 20
196.3244575068052
 30
0.0
 11
321.4625770405419
 21
196.3244575068052
 31
0.0
  0
LINE
  5
41A
330
2
100
AcDbEntity
  8
0
  6
Continuous
 62
     7
100
AcDbLine
 10
326.5268508730756
 20
188.6994575068051
 30
0.0
 11
327.0788579168836
 21
189.081916977228
 31
0.0
  0
LINE
  5
41B
330
2
100
AcDbEntity
  8
0
  6
Continuous
 62
     7
100
AcDbLine
 10
327.2931503987741
 20
189.230390062959
 30
0.0
 11
326.8361841854694
 21
189.597930592536
 31
0.0
  0
LINE
  5
41C
330
2
100
AcDbEntity
  8
0
  6
Continuous
 62
     7
100
AcDbLine
 10
326.7299975457836
 20
188.5360654802284
 30
0.0
 11
327.2820045895918
 21
188.9185249506513
 31
0.0
  0
LINE
  5
41D
330
2
100
AcDbEntity
  8
0
  6
Continuous
 62
     7
100
AcDbLine
 10
327.0788579168836
 20
189.081916977228
 30
0.0
 11
326.621891703579
 21
189.4494575068051
 31
0.0
  0
LINE
  5
41E
330
2
100
AcDbEntity
  8
0
  6
Continuous
 62
     7
100
AcDbLine
 10
326.8361841854694
 20
189.597930592536
 30
0.0
 11
327.0653008397172
 21
191.889094363371
 31
0.0
  0
LINE
  5
41F
330
2
100
AcDbEntity
  8
0
  6
Continuous
 62
     7
100
AcDbLine
 10
325.2599065289398
 20
192.0744575068052
 30
0.0
 11
326.8975495206275
 21
192.0744575068052
 31
0.0
  0
LINE
  5
420
330
2
100
AcDbEntity
  8
0
  6
Continuous
 62
     7
100
AcDbLine
 10
325.0483041152904
 20
189.4494575068051
 30
0.0
 11
326.621891703579
 21
189.4494575068051
 31
0.0
  0
LINE
  5
421
330
2
100
AcDbEntity
  8
0
  6
Continuous
 62
     7
100
AcDbLine
 10
324.9532632847872
 20
188.6994575068051
 30
0.0
 11
326.5268508730756
 21
188.6994575068051
 31
0.0
  0
LINE
  5
422
330
2
100
AcDbEntity
  8
0
  6
Continuous
 62
     7
100
AcDbLine
 10
324.4269314258596
 20
192.622309434337
 30
0.0
 11
325.0745433855059
 21
191.9067061877156
 31
0.0
  0
ARC
  5
423
330
2
100
AcDbEntity
  8
0
  6
Continuous
 62
     7
100
AcDbCircle
 10
324.7745729290955
 20
192.4244575068052
 30
0.0
 40
0.4
100
AcDbArc
 50
150.354656864283
 51
174.2893999999983
  0
LINE
  5
424
330
2
100
AcDbEntity
  8
0
  6
Continuous
 62
     7
100
AcDbLine
 10
324.6122945692937
 20
192.7900607534266
 30
0.0
 11
325.2599065289398
 21
192.0744575068052
 31
0.0
  0
ARC
  5
425
330
2
100
AcDbEntity
  8
0
  6
Continuous
 62
     7
100
AcDbCircle
 10
324.7745729290955
 20
192.4244575068052
 30
0.0
 40
0.4
100
AcDbArc
 50
90.0
 51
113.9347431357139
  0
LINE
  5
426
330
2
100
AcDbEntity
  8
0
  6
Continuous
 62
     7
100
AcDbLine
 10
324.8451574425824
 20
189.6128495333819
 30
0.0
 11
324.2931503987741
 21
189.230390062959
 31
0.0
  0
LINE
  5
427
330
2
100
AcDbEntity
  8
0
  6
Continuous
 62
     7
100
AcDbLine
 10
324.4962970714823
 20
189.0669980363823
 30
0.0
 11
324.9532632847872
 21
188.6994575068051
 31
0.0
  0
LINE
  5
428
330
2
100
AcDbEntity
  8
0
  6
Continuous
 62
     7
100
AcDbLine
 10
324.2820045895919
 20
188.9185249506513
 30
0.0
 11
324.7389708028968
 21
188.5509844210742
 31
0.0
  0
LINE
  5
429
330
2
100
AcDbEntity
  8
0
  6
Continuous
 62
     7
100
AcDbLine
 10
325.0483041152904
 20
189.4494575068051
 30
0.0
 11
324.4962970714823
 21
189.0669980363823
 31
0.0
  0
LINE
  5
42A
330
2
100
AcDbEntity
  8
0
  6
Continuous
 62
     7
100
AcDbLine
 10
324.8451574425824
 20
189.6128495333819
 30
0.0
 11
325.0745433855059
 21
191.9067061877156
 31
0.0
  0
LINE
  5
42B
330
2
100
AcDbEntity
  8
0
  6
Continuous
 62
     7
100
AcDbLine
 10
324.2820045895919
 20
188.9185249506513
 30
0.0
 11
324.0026274831103
 21
188.7249578188696
 31
0.0
  0
LINE
  5
42C
330
2
100
AcDbEntity
  8
0
  6
Continuous
 62
     7
100
AcDbLine
 10
324.0710356093664
 20
189.409038253895
 30
0.0
 11
324.2931503987741
 21
189.230390062959
 31
0.0
  0
LINE
  5
42D
330
2
100
AcDbEntity
  8
0
  6
Continuous
 62
     7
100
AcDbLine
 10
324.0710356093664
 20
189.409038253895
 30
0.0
 11
324.3765580577786
 21
192.4642590420851
 31
0.0
  0
ARC
  5
42E
330
2
100
AcDbEntity
  8
0
  6
Continuous
 62
     7
100
AcDbCircle
 10
325.9625770405419
 20
196.3244575068052
 30
0.0
 40
0.5
100
AcDbArc
 50
0.0
 51
90.0
  0
LINE
  5
42F
330
2
100
AcDbEntity
  8
0
  6
Continuous
 62
     7
100
AcDbLine
 10
326.4625770405419
 20
196.3244575068052
 30
0.0
 11
326.4625770405419
 21
196.3244575068052
 31
0.0
  0
ARC
  5
430
330
2
100
AcDbEntity
  8
0
  6
Continuous
 62
     7
100
AcDbCircle
 10
325.9625770405419
 20
196.3244575068052
 30
0.0
 40
0.5
100
AcDbArc
 50
270.0
 51
0.0
  0
ARC
  5
431
330
2
100
AcDbEntity
  8
0
  6
Continuous
 62
     7
100
AcDbCircle
 10
320.9625770405419
 20
196.3244575068052
 30
0.0
 40
0.5
100
AcDbArc
 50
0.0
 51
90.0
  0
ARC
  5
432
330
2
100
AcDbEntity
  8
0
  6
Continuous
 62
     7
100
AcDbCircle
 10
320.9625770405419
 20
196.3244575068052
 30
0.0
 40
0.5
100
AcDbArc
 50
270.0
 51
0.0
  0
LINE
  5
433
330
2
100
AcDbEntity
  8
0
  6
Continuous
 62
     7
100
AcDbLine
 10
323.7389688719686
 20
185.5621791470036
 30
0.0
 11
324.5098541486489
 21
186.2598206502391
 31
0.0
  0
ARC
  5
434
330
2
100
AcDbEntity
  8
0
  6
Continuous
 62
     7
100
AcDbCircle
 10
324.1045721185899
 20
185.724457506805
 30
0.0
 40
0.4
100
AcDbArc
 50
174.2893999999983
 51
203.9347431357174
  0
ARC
  5
435
330
2
100
AcDbEntity
  8
0
  6
Continuous
 62
     7
100
AcDbCircle
 10
321.5505820592707
 20
185.724457506805
 30
0.0
 40
0.4
100
AcDbArc
 50
270.0
 51
293.9347431357139
  0
LINE
  5
436
330
2
100
AcDbEntity
  8
0
  6
Continuous
 62
     7
100
AcDbLine
 10
321.8982235625063
 20
185.5266055792732
 30
0.0
 11
321.2506116028603
 21
186.2422088258945
 31
0.0
  0
LINE
  5
437
330
2
100
AcDbEntity
  8
0
  6
Continuous
 62
     7
100
AcDbLine
 10
321.7128604190721
 20
185.3588542601837
 30
0.0
 11
321.0652484594261
 21
186.0744575068052
 31
0.0
  0
ARC
  5
438
330
2
100
AcDbEntity
  8
0
  6
Continuous
 62
     7
100
AcDbCircle
 10
321.5505820592707
 20
185.724457506805
 30
0.0
 40
0.4
100
AcDbArc
 50
330.3546568642832
 51
354.2893999999984
  0
LINE
  5
439
330
2
100
AcDbEntity
  8
0
  6
Continuous
 62
     7
100
AcDbLine
 10
326.5160916946015
 20
184.2930424087465
 30
0.0
 11
326.0535605285932
 21
183.874457506805
 31
0.0
  0
ARC
  5
43A
330
2
100
AcDbEntity
  8
0
  6
Continuous
 62
     7
100
AcDbCircle
 10
324.7797745736739
 20
184.0844575068052
 30
0.0
 40
0.24
100
AcDbArc
 50
150.354656864283
 51
174.2893999999983
  0
LINE
  5
43B
330
2
100
AcDbEntity
  8
0
  6
Continuous
 62
     7
100
AcDbLine
 10
324.6824075577931
 20
184.303819454778
 30
0.0
 11
325.0709747335807
 21
183.874457506805
 31
0.0
  0
LINE
  5
43C
330
2
100
AcDbEntity
  8
0
  6
Continuous
 62
     7
100
AcDbLine
 10
324.5711896717326
 20
184.2031686633243
 30
0.0
 11
324.9597568475202
 21
183.7738067153515
 31
0.0
  0
LINE
  5
43D
330
2
100
AcDbEntity
  8
0
  6
Continuous
 62
     7
100
AcDbLine
 10
326.6167424860553
 20
184.181824522686
 30
0.0
 11
326.1542113200469
 21
183.7632396207448
 31
0.0
  0
ARC
  5
43E
330
2
100
AcDbEntity
  8
0
  6
Continuous
 62
     7
100
AcDbCircle
 10
326.3973805380824
 20
184.0844575068052
 30
0.0
 40
0.24
100
AcDbArc
 50
354.2893999999984
 51
23.93474313571744
  0
LINE
  5
43F
330
2
100
AcDbEntity
  8
0
  6
Continuous
 62
     7
100
AcDbLine
 10
325.0709747335807
 20
183.874457506805
 30
0.0
 11
326.0535605285932
 21
183.874457506805
 31
0.0
  0
ARC
  5
440
330
2
100
AcDbEntity
  8
0
  6
Continuous
 62
     7
100
AcDbCircle
 10
326.3973805380824
 20
184.0844575068052
 30
0.0
 40
0.24
100
AcDbArc
 50
60.35465686428628
 51
90.0
  0
LINE
  5
441
330
2
100
AcDbEntity
  8
0
  6
Continuous
 62
     7
100
AcDbLine
 10
324.7797745736739
 20
184.3244575068051
 30
0.0
 11
326.3973805380824
 21
184.3244575068051
 31
0.0
  0
ARC
  5
442
330
2
100
AcDbEntity
  8
0
  6
Continuous
 62
     7
100
AcDbCircle
 10
324.7797745736739
 20
184.0844575068052
 30
0.0
 40
0.24
100
AcDbArc
 50
90.0
 51
113.9347431357139
  0
LINE
  5
443
330
2
100
AcDbEntity
  8
0
  6
Continuous
 62
     7
100
AcDbLine
 10
326.962860419072
 20
185.3588542601837
 30
0.0
 11
326.3152484594261
 21
186.0744575068052
 31
0.0
  0
LINE
  5
444
330
2
100
AcDbEntity
  8
0
  6
Continuous
 62
     7
100
AcDbLine
 10
327.1482235625062
 20
185.5266055792732
 30
0.0
 11
326.5006116028603
 21
186.2422088258945
 31
0.0
  0
ARC
  5
445
330
2
100
AcDbEntity
  8
0
  6
Continuous
 62
     7
100
AcDbCircle
 10
326.8005820592707
 20
185.724457506805
 30
0.0
 40
0.4
100
AcDbArc
 50
330.3546568642832
 51
354.2893999999984
  0
ARC
  5
446
330
2
100
AcDbEntity
  8
0
  6
Continuous
 62
     7
100
AcDbCircle
 10
326.8005820592707
 20
185.724457506805
 30
0.0
 40
0.4
100
AcDbArc
 50
270.0
 51
293.9347431357139
  0
LINE
  5
447
330
2
100
AcDbEntity
  8
0
  6
Continuous
 62
     7
100
AcDbLine
 10
324.6776054677384
 20
186.0744575068052
 30
0.0
 11
326.3152484594261
 21
186.0744575068052
 31
0.0
  0
LINE
  5
448
330
2
100
AcDbEntity
  8
0
  6
Continuous
 62
     7
100
AcDbLine
 10
324.1045721185899
 20
185.3244575068051
 30
0.0
 11
326.8005820592707
 21
185.3244575068051
 31
0.0
  0
ARC
  5
449
330
2
100
AcDbEntity
  8
0
  6
Continuous
 62
     7
100
AcDbCircle
 10
324.1045721185899
 20
185.724457506805
 30
0.0
 40
0.4
100
AcDbArc
 50
240.3546568642862
 51
270.0
  0
LINE
  5
44A
330
2
100
AcDbEntity
  8
0
  6
Continuous
 62
     7
100
AcDbLine
 10
323.906720191058
 20
185.3768160035696
 30
0.0
 11
324.6776054677384
 21
186.0744575068052
 31
0.0
  0
LINE
  5
44B
330
2
100
AcDbEntity
  8
0
  6
Continuous
 62
     7
100
AcDbLine
 10
323.7065572472732
 20
185.7642590420851
 30
0.0
 11
324.0026274831103
 21
188.7249578188696
 31
0.0
  0
LINE
  5
44C
330
2
100
AcDbEntity
  8
0
  6
Continuous
 62
     7
100
AcDbLine
 10
321.2506116028603
 20
186.2422088258945
 30
0.0
 11
321.4799975457836
 21
188.5360654802284
 31
0.0
  0
LINE
  5
44D
330
2
100
AcDbEntity
  8
0
  6
Continuous
 62
     7
100
AcDbLine
 10
321.9485969305874
 20
185.6846559715252
 30
0.0
 11
322.2541193789993
 21
188.7398767597153
 31
0.0
  0
LINE
  5
44E
330
2
100
AcDbEntity
  8
0
  6
Continuous
 62
     7
100
AcDbLine
 10
326.5006116028603
 20
186.2422088258945
 30
0.0
 11
326.7299975457836
 21
188.5360654802284
 31
0.0
  0
LINE
  5
44F
330
2
100
AcDbEntity
  8
0
  6
Continuous
 62
     7
100
AcDbLine
 10
324.5098541486489
 20
186.2598206502391
 30
0.0
 11
324.7389708028968
 21
188.5509844210742
 31
0.0
  0
LINE
  5
450
330
2
100
AcDbEntity
  8
0
  6
Continuous
 62
     7
100
AcDbLine
 10
330.5099065289399
 20
192.0744575068052
 30
0.0
 11
332.1475495206275
 21
192.0744575068052
 31
0.0
  0
LINE
  5
451
330
2
100
AcDbEntity
  8
0
  6
Continuous
 62
     7
100
AcDbLine
 10
330.2983041152903
 20
189.4494575068051
 30
0.0
 11
331.871891703579
 21
189.4494575068051
 31
0.0
  0
LINE
  5
452
330
2
100
AcDbEntity
  8
0
  6
Continuous
 62
     7
100
AcDbLine
 10
330.2032632847872
 20
188.6994575068051
 30
0.0
 11
331.7768508730755
 21
188.6994575068051
 31
0.0
  0
LINE
  5
453
330
2
100
AcDbEntity
  8
0
  6
Continuous
 62
     7
100
AcDbLine
 10
330.0245729290955
 20
192.8244575068051
 30
0.0
 11
332.7205828697761
 21
192.8244575068051
 31
0.0
  0
ARC
  5
454
330
2
100
AcDbEntity
  8
0
  6
Continuous
 62
     7
100
AcDbCircle
 10
330.9625770405419
 20
196.3244575068052
 30
0.0
 40
0.5
100
AcDbArc
 50
270.0
 51
0.0
  0
ARC
  5
455
330
2
100
AcDbEntity
  8
0
  6
Continuous
 62
     7
100
AcDbCircle
 10
330.9625770405419
 20
196.3244575068052
 30
0.0
 40
0.5
100
AcDbArc
 50
0.0
 51
90.0
  0
ARC
  5
456
330
2
100
AcDbEntity
  8
0
  6
Continuous
 62
     7
100
AcDbCircle
 10
330.0245729290955
 20
192.4244575068052
 30
0.0
 40
0.4
100
AcDbArc
 50
150.354656864283
 51
174.2893999999983
  0
ARC
  5
457
330
2
100
AcDbEntity
  8
0
  6
Continuous
 62
     7
100
AcDbCircle
 10
330.0245729290955
 20
192.4244575068052
 30
0.0
 40
0.4
100
AcDbArc
 50
90.0
 51
113.9347431357139
  0
LINE
  5
458
330
2
100
AcDbEntity
  8
0
  6
Continuous
 62
     7
100
AcDbLine
 10
330.0951574425824
 20
189.6128495333819
 30
0.0
 11
329.5431503987741
 21
189.230390062959
 31
0.0
  0
LINE
  5
459
330
2
100
AcDbEntity
  8
0
  6
Continuous
 62
     7
100
AcDbLine
 10
329.5320045895918
 20
188.9185249506513
 30
0.0
 11
329.9889708028968
 21
188.5509844210742
 31
0.0
  0
LINE
  5
45A
330
2
100
AcDbEntity
  8
0
  6
Continuous
 62
     7
100
AcDbLine
 10
329.5320045895918
 20
188.9185249506513
 30
0.0
 11
329.2526274831102
 21
188.7249578188696
 31
0.0
  0
LINE
  5
45B
330
2
100
AcDbEntity
  8
0
  6
Continuous
 62
     7
100
AcDbLine
 10
329.3210356093666
 20
189.409038253895
 30
0.0
 11
329.5431503987741
 21
189.230390062959
 31
0.0
  0
LINE
  5
45C
330
2
100
AcDbEntity
  8
0
  6
Continuous
 62
     7
100
AcDbLine
 10
329.3210356093666
 20
189.409038253895
 30
0.0
 11
329.6265580577785
 21
192.4642590420851
 31
0.0
  0
LINE
  5
45D
330
2
100
AcDbEntity
  8
0
  6
Continuous
 62
     7
100
AcDbLine
 10
329.8622945692939
 20
192.7900607534266
 30
0.0
 11
330.5099065289399
 21
192.0744575068052
 31
0.0
  0
LINE
  5
45E
330
2
100
AcDbEntity
  8
0
  6
Continuous
 62
     7
100
AcDbLine
 10
329.6769314258597
 20
192.622309434337
 30
0.0
 11
330.3245433855059
 21
191.9067061877156
 31
0.0
  0
LINE
  5
45F
330
2
100
AcDbEntity
  8
0
  6
Continuous
 62
     7
100
AcDbLine
 10
329.7462970714823
 20
189.0669980363823
 30
0.0
 11
330.2032632847872
 21
188.6994575068051
 31
0.0
  0
LINE
  5
460
330
2
100
AcDbEntity
  8
0
  6
Continuous
 62
     7
100
AcDbLine
 10
330.2983041152903
 20
189.4494575068051
 30
0.0
 11
329.7462970714823
 21
189.0669980363823
 31
0.0
  0
LINE
  5
461
330
2
100
AcDbEntity
  8
0
  6
Continuous
 62
     7
100
AcDbLine
 10
330.0951574425824
 20
189.6128495333819
 30
0.0
 11
330.3245433855059
 21
191.9067061877156
 31
0.0
  0
LINE
  5
462
330
2
100
AcDbEntity
  8
0
  6
Continuous
 62
     7
100
AcDbLine
 10
328.4625770405419
 20
196.8244575068051
 30
0.0
 11
330.9625770405419
 21
196.8244575068051
 31
0.0
  0
LINE
  5
463
330
2
100
AcDbEntity
  8
0
  6
Continuous
 62
     7
100
AcDbLine
 10
328.4625770405419
 20
195.8244575068052
 30
0.0
 11
330.9625770405419
 21
195.8244575068052
 31
0.0
  0
ARC
  5
464
330
2
100
AcDbEntity
  8
0
  6
Continuous
 62
     7
100
AcDbCircle
 10
332.7205828697761
 20
192.4244575068052
 30
0.0
 40
0.4
100
AcDbArc
 50
60.35465686428628
 51
90.0
  0
ARC
  5
465
330
2
100
AcDbEntity
  8
0
  6
Continuous
 62
     7
100
AcDbCircle
 10
332.7205828697761
 20
192.4244575068052
 30
0.0
 40
0.4
100
AcDbArc
 50
354.2893999999984
 51
23.93474313571744
  0
LINE
  5
466
330
2
100
AcDbEntity
  8
0
  6
Continuous
 62
     7
100
AcDbLine
 10
332.7541193789993
 20
188.7398767597153
 30
0.0
 11
332.5320045895919
 21
188.9185249506513
 31
0.0
  0
LINE
  5
467
330
2
100
AcDbEntity
  8
0
  6
Continuous
 62
     7
100
AcDbLine
 10
332.543150398774
 20
189.230390062959
 30
0.0
 11
332.822527505256
 21
189.4239571947407
 31
0.0
  0
LINE
  5
468
330
2
100
AcDbEntity
  8
0
  6
Continuous
 62
     7
100
AcDbLine
 10
332.822527505256
 20
189.4239571947407
 30
0.0
 11
333.1185977410928
 21
192.3846559715252
 31
0.0
  0
LINE
  5
469
330
2
100
AcDbEntity
  8
0
  6
Continuous
 62
     7
100
AcDbLine
 10
331.7768508730755
 20
188.6994575068051
 30
0.0
 11
332.3288579168836
 21
189.081916977228
 31
0.0
  0
LINE
  5
46A
330
2
100
AcDbEntity
  8
0
  6
Continuous
 62
     7
100
AcDbLine
 10
332.3288579168836
 20
189.081916977228
 30
0.0
 11
331.871891703579
 21
189.4494575068051
 31
0.0
  0
LINE
  5
46B
330
2
100
AcDbEntity
  8
0
  6
Continuous
 62
     7
100
AcDbLine
 10
332.0861841854692
 20
189.597930592536
 30
0.0
 11
332.3153008397172
 21
191.889094363371
 31
0.0
  0
LINE
  5
46C
330
2
100
AcDbEntity
  8
0
  6
Continuous
 62
     7
100
AcDbLine
 10
332.918434797308
 20
192.7720990100407
 30
0.0
 11
332.1475495206275
 21
192.0744575068052
 31
0.0
  0
LINE
  5
46D
330
2
100
AcDbEntity
  8
0
  6
Continuous
 62
     7
100
AcDbLine
 10
333.0861861163977
 20
192.5867358666066
 30
0.0
 11
332.3153008397172
 21
191.889094363371
 31
0.0
  0
LINE
  5
46E
330
2
100
AcDbEntity
  8
0
  6
Continuous
 62
     7
100
AcDbLine
 10
332.543150398774
 20
189.230390062959
 30
0.0
 11
332.0861841854692
 21
189.597930592536
 31
0.0
  0
LINE
  5
46F
330
2
100
AcDbEntity
  8
0
  6
Continuous
 62
     7
100
AcDbLine
 10
331.9799975457836
 20
188.5360654802284
 30
0.0
 11
332.5320045895919
 21
188.9185249506513
 31
0.0
  0
LINE
  5
470
330
2
100
AcDbEntity
  8
0
  6
Continuous
 62
     7
100
AcDbLine
 10
331.4625770405419
 20
196.3244575068052
 30
0.0
 11
331.4625770405419
 21
196.3244575068052
 31
0.0
  0
LINE
  5
471
330
2
100
AcDbEntity
  8
0
  6
Continuous
 62
     7
100
AcDbLine
 10
330.8711896717327
 20
184.2031686633243
 30
0.0
 11
331.2597568475203
 21
183.7738067153515
 31
0.0
  0
ARC
  5
472
330
2
100
AcDbEntity
  8
0
  6
Continuous
 62
     7
100
AcDbCircle
 10
331.0797745736741
 20
184.0844575068052
 30
0.0
 40
0.24
100
AcDbArc
 50
150.354656864283
 51
174.2893999999983
  0
LINE
  5
473
330
2
100
AcDbEntity
  8
0
  6
Continuous
 62
     7
100
AcDbLine
 10
330.9824075577931
 20
184.303819454778
 30
0.0
 11
331.3709747335806
 21
183.874457506805
 31
0.0
  0
LINE
  5
474
330
2
100
AcDbEntity
  8
0
  6
Continuous
 62
     7
100
AcDbLine
 10
332.8160916946016
 20
184.2930424087465
 30
0.0
 11
332.3535605285933
 21
183.874457506805
 31
0.0
  0
LINE
  5
475
330
2
100
AcDbEntity
  8
0
  6
Continuous
 62
     7
100
AcDbLine
 10
334.1324075577932
 20
184.303819454778
 30
0.0
 11
334.5209747335807
 21
183.874457506805
 31
0.0
  0
ARC
  5
476
330
2
100
AcDbEntity
  8
0
  6
Continuous
 62
     7
100
AcDbCircle
 10
334.2297745736739
 20
184.0844575068052
 30
0.0
 40
0.24
100
AcDbArc
 50
150.354656864283
 51
174.2893999999983
  0
LINE
  5
477
330
2
100
AcDbEntity
  8
0
  6
Continuous
 62
     7
100
AcDbLine
 10
334.0211896717327
 20
184.2031686633243
 30
0.0
 11
334.4097568475202
 21
183.7738067153515
 31
0.0
  0
LINE
  5
478
330
2
100
AcDbEntity
  8
0
  6
Continuous
 62
     7
100
AcDbLine
 10
329.6660916946016
 20
184.2930424087465
 30
0.0
 11
329.2035605285932
 21
183.874457506805
 31
0.0
  0
ARC
  5
479
330
2
100
AcDbEntity
  8
0
  6
Continuous
 62
     7
100
AcDbCircle
 10
329.5473805380825
 20
184.0844575068052
 30
0.0
 40
0.24
100
AcDbArc
 50
354.2893999999984
 51
23.93474313571744
  0
LINE
  5
47A
330
2
100
AcDbEntity
  8
0
  6
Continuous
 62
     7
100
AcDbLine
 10
329.7667424860551
 20
184.181824522686
 30
0.0
 11
329.304211320047
 21
183.7632396207448
 31
0.0
  0
LINE
  5
47B
330
2
100
AcDbEntity
  8
0
  6
Continuous
 62
     7
100
AcDbLine
 10
332.9167424860552
 20
184.181824522686
 30
0.0
 11
332.4542113200469
 21
183.7632396207448
 31
0.0
  0
ARC
  5
47C
330
2
100
AcDbEntity
  8
0
  6
Continuous
 62
     7
100
AcDbCircle
 10
332.6973805380824
 20
184.0844575068052
 30
0.0
 40
0.24
100
AcDbArc
 50
354.2893999999984
 51
23.93474313571744
  0
LINE
  5
47D
330
2
100
AcDbEntity
  8
0
  6
Continuous
 62
     7
100
AcDbLine
 10
331.3709747335806
 20
183.874457506805
 30
0.0
 11
332.3535605285933
 21
183.874457506805
 31
0.0
  0
LINE
  5
47E
330
2
100
AcDbEntity
  8
0
  6
Continuous
 62
     7
100
AcDbLine
 10
331.0797745736741
 20
184.3244575068051
 30
0.0
 11
332.6973805380824
 21
184.3244575068051
 31
0.0
  0
LINE
  5
47F
330
2
100
AcDbEntity
  8
0
  6
Continuous
 62
     7
100
AcDbLine
 10
329.3545721185899
 20
185.3244575068051
 30
0.0
 11
332.0505820592707
 21
185.3244575068051
 31
0.0
  0
LINE
  5
480
330
2
100
AcDbEntity
  8
0
  6
Continuous
 62
     7
100
AcDbLine
 10
329.9276054677384
 20
186.0744575068052
 30
0.0
 11
331.5652484594261
 21
186.0744575068052
 31
0.0
  0
ARC
  5
481
330
2
100
AcDbEntity
  8
0
  6
Continuous
 62
     7
100
AcDbCircle
 10
331.0797745736741
 20
184.0844575068052
 30
0.0
 40
0.24
100
AcDbArc
 50
90.0
 51
113.9347431357139
  0
ARC
  5
482
330
2
100
AcDbEntity
  8
0
  6
Continuous
 62
     7
100
AcDbCircle
 10
329.5473805380825
 20
184.0844575068052
 30
0.0
 40
0.24
100
AcDbArc
 50
60.35465686428628
 51
90.0
  0
ARC
  5
483
330
2
100
AcDbEntity
  8
0
  6
Continuous
 62
     7
100
AcDbCircle
 10
329.3545721185899
 20
185.724457506805
 30
0.0
 40
0.4
100
AcDbArc
 50
174.2893999999983
 51
203.9347431357174
  0
ARC
  5
484
330
2
100
AcDbEntity
  8
0
  6
Continuous
 62
     7
100
AcDbCircle
 10
329.3545721185899
 20
185.724457506805
 30
0.0
 40
0.4
100
AcDbArc
 50
240.3546568642862
 51
270.0
  0
LINE
  5
485
330
2
100
AcDbEntity
  8
0
  6
Continuous
 62
     7
100
AcDbLine
 10
329.1567201910579
 20
185.3768160035696
 30
0.0
 11
329.9276054677384
 21
186.0744575068052
 31
0.0
  0
LINE
  5
486
330
2
100
AcDbEntity
  8
0
  6
Continuous
 62
     7
100
AcDbLine
 10
328.9889688719686
 20
185.5621791470036
 30
0.0
 11
329.7598541486489
 21
186.2598206502391
 31
0.0
  0
LINE
  5
487
330
2
100
AcDbEntity
  8
0
  6
Continuous
 62
     7
100
AcDbLine
 10
328.4125770405418
 20
185.3244575068051
 30
0.0
 11
328.4875771312702
 21
186.0744575068052
 31
0.0
  0
ARC
  5
488
330
2
100
AcDbEntity
  8
0
  6
Continuous
 62
     7
100
AcDbCircle
 10
332.6973805380824
 20
184.0844575068052
 30
0.0
 40
0.24
100
AcDbArc
 50
60.35465686428628
 51
90.0
  0
ARC
  5
489
330
2
100
AcDbEntity
  8
0
  6
Continuous
 62
     7
100
AcDbCircle
 10
334.2297745736739
 20
184.0844575068052
 30
0.0
 40
0.24
100
AcDbArc
 50
90.0
 51
113.9347431357139
  0
ARC
  5
48A
330
2
100
AcDbEntity
  8
0
  6
Continuous
 62
     7
100
AcDbCircle
 10
332.0505820592707
 20
185.724457506805
 30
0.0
 40
0.4
100
AcDbArc
 50
270.0
 51
293.9347431357139
  0
LINE
  5
48B
330
2
100
AcDbEntity
  8
0
  6
Continuous
 62
     7
100
AcDbLine
 10
332.3982235625063
 20
185.5266055792732
 30
0.0
 11
331.7506116028603
 21
186.2422088258945
 31
0.0
  0
LINE
  5
48C
330
2
100
AcDbEntity
  8
0
  6
Continuous
 62
     7
100
AcDbLine
 10
332.2128604190721
 20
185.3588542601837
 30
0.0
 11
331.5652484594261
 21
186.0744575068052
 31
0.0
  0
ARC
  5
48D
330
2
100
AcDbEntity
  8
0
  6
Continuous
 62
     7
100
AcDbCircle
 10
332.0505820592707
 20
185.724457506805
 30
0.0
 40
0.4
100
AcDbArc
 50
330.3546568642832
 51
354.2893999999984
  0
LINE
  5
48E
330
2
100
AcDbEntity
  8
0
  6
Continuous
 62
     7
100
AcDbLine
 10
328.9565572472732
 20
185.7642590420851
 30
0.0
 11
329.2526274831102
 21
188.7249578188696
 31
0.0
  0
LINE
  5
48F
330
2
100
AcDbEntity
  8
0
  6
Continuous
 62
     7
100
AcDbLine
 10
329.7598541486489
 20
186.2598206502391
 30
0.0
 11
329.9889708028968
 21
188.5509844210742
 31
0.0
  0
LINE
  5
490
330
2
100
AcDbEntity
  8
0
  6
Continuous
 62
     7
100
AcDbLine
 10
332.4485969305874
 20
185.6846559715252
 30
0.0
 11
332.7541193789993
 21
188.7398767597153
 31
0.0
  0
LINE
  5
491
330
2
100
AcDbEntity
  8
0
  6
Continuous
 62
     7
100
AcDbLine
 10
331.7506116028603
 20
186.2422088258945
 30
0.0
 11
331.9799975457836
 21
188.5360654802284
 31
0.0
  0
ARC
  5
492
330
2
100
AcDbEntity
  8
0
  6
Continuous
 62
     7
100
AcDbCircle
 10
327.4705828697761
 20
192.4244575068052
 30
0.0
 40
0.4
100
AcDbArc
 50
354.2893999999984
 51
23.93474313571744
  0
ARC
  5
493
330
2
100
AcDbEntity
  8
0
  6
Continuous
 62
     7
100
AcDbCircle
 10
327.4705828697761
 20
192.4244575068052
 30
0.0
 40
0.4
100
AcDbArc
 50
60.35465686428628
 51
90.0
  0
LINE
  5
494
330
2
100
AcDbEntity
  8
0
  6
Continuous
 62
     7
100
AcDbLine
 10
327.5725275052559
 20
189.4239571947407
 30
0.0
 11
327.8685977410928
 21
192.3846559715252
 31
0.0
  0
LINE
  5
495
330
2
100
AcDbEntity
  8
0
  6
Continuous
 62
     7
100
AcDbLine
 10
327.9625770405419
 20
196.3244575068052
 30
0.0
 11
327.9625770405419
 21
196.3244575068052
 31
0.0
  0
ARC
  5
496
330
2
100
AcDbEntity
  8
0
  6
Continuous
 62
     7
100
AcDbCircle
 10
327.929774573674
 20
184.0844575068052
 30
0.0
 40
0.24
100
AcDbArc
 50
150.354656864283
 51
174.2893999999983
  0
LINE
  5
497
330
2
100
AcDbEntity
  8
0
  6
Continuous
 62
     7
100
AcDbLine
 10
327.7211896717326
 20
184.2031686633243
 30
0.0
 11
328.1097568475202
 21
183.7738067153515
 31
0.0
  0
LINE
  5
498
330
2
100
AcDbEntity
  8
0
  6
Continuous
 62
     7
100
AcDbLine
 10
327.8324075577931
 20
184.303819454778
 30
0.0
 11
328.2209747335806
 21
183.874457506805
 31
0.0
  0
ARC
  5
499
330
2
100
AcDbEntity
  8
0
  6
Continuous
 62
     7
100
AcDbCircle
 10
327.929774573674
 20
184.0844575068052
 30
0.0
 40
0.24
100
AcDbArc
 50
90.0
 51
113.9347431357139
  0
LINE
  5
49A
330
2
100
AcDbEntity
  8
0
  6
Continuous
 62
     7
100
AcDbLine
 10
327.6625770405419
 20
185.3244575068051
 30
0.0
 11
327.7375771312702
 21
186.0744575068052
 31
0.0
  0
LINE
  5
49B
330
2
100
AcDbEntity
  8
0
  6
Continuous
 62
     7
100
AcDbLine
 10
328.2209747335806
 20
183.874457506805
 30
0.0
 11
329.2035605285932
 21
183.874457506805
 31
0.0
  0
LINE
  5
49C
330
2
100
AcDbEntity
  8
0
  6
Continuous
 62
     7
100
AcDbLine
 10
327.929774573674
 20
184.3244575068051
 30
0.0
 11
329.5473805380825
 21
184.3244575068051
 31
0.0
  0
LINE
  5
49D
330
2
100
AcDbEntity
  8
0
  6
Continuous
 62
     7
100
AcDbLine
 10
327.6625770405419
 20
185.3244575068051
 30
0.0
 11
328.4125770405418
 21
185.3244575068051
 31
0.0
  0
LINE
  5
49E
330
2
100
AcDbEntity
  8
0
  6
Continuous
 62
     7
100
AcDbLine
 10
327.7375771312702
 20
186.0744575068052
 30
0.0
 11
328.4875771312702
 21
186.0744575068052
 31
0.0
  0
ARC
  5
49F
330
2
100
AcDbEntity
  8
0
  6
Continuous
 62
     7
100
AcDbCircle
 10
328.4625770405419
 20
196.3244575068052
 30
0.0
 40
0.5
100
AcDbArc
 50
90.0
 51
180.0
  0
ARC
  5
4A0
330
2
100
AcDbEntity
  8
0
  6
Continuous
 62
     7
100
AcDbCircle
 10
328.4625770405419
 20
196.3244575068052
 30
0.0
 40
0.5
100
AcDbArc
 50
180.0
 51
270.0
  0
LINE
  5
4A1
330
2
100
AcDbEntity
  8
0
  6
Continuous
 62
     7
100
AcDbLine
 10
335.9085473193702
 20
182.2841573195665
 30
0.0
 11
336.0861894608725
 21
184.0605765856371
 31
0.0
  0
LINE
  5
4A2
330
2
100
AcDbEntity
  8
0
  6
Continuous
 62
     7
100
AcDbLine
 10
335.4667413274983
 20
182.3885413582437
 30
0.0
 11
335.6042113200469
 21
183.7632396207448
 31
0.0
  0
ARC
  5
4A3
330
2
100
AcDbEntity
  8
0
  6
Continuous
 62
     7
100
AcDbCircle
 10
336.9625099154378
 20
180.3245299359615
 30
0.0
 40
2.0
100
AcDbArc
 50
270.0
 51
0.0
  0
LINE
  5
4A4
330
2
100
AcDbEntity
  8
0
  6
Continuous
 62
     7
100
AcDbLine
 10
335.8675024436166
 20
181.8737090585513
 30
0.0
 11
335.7342335699718
 21
181.9808979731128
 31
0.0
  0
LINE
  5
4A5
330
2
100
AcDbEntity
  8
0
  6
Continuous
 62
     7
100
AcDbLine
 10
335.7409210554813
 20
182.1680170404975
 30
0.0
 11
335.9085473193702
 21
182.2841573195665
 31
0.0
  0
ARC
  5
4A6
330
2
100
AcDbEntity
  8
0
  6
Continuous
 62
     7
100
AcDbCircle
 10
335.445380051779
 20
180.0644575068052
 30
0.0
 40
0.24
100
AcDbArc
 50
330.3546568642832
 51
354.2893999999984
  0
LINE
  5
4A7
330
2
100
AcDbEntity
  8
0
  6
Continuous
 62
     7
100
AcDbLine
 10
335.6841889745692
 20
180.0405765856371
 30
0.0
 11
335.8675024436166
 21
181.8737090585513
 31
0.0
  0
LINE
  5
4A8
330
2
100
AcDbEntity
  8
0
  6
Continuous
 62
     7
100
AcDbLine
 10
335.281141340062
 20
181.8494575068051
 30
0.0
 11
335.6123455663469
 21
182.0789331890589
 31
0.0
  0
LINE
  5
4A9
330
2
100
AcDbEntity
  8
0
  6
Continuous
 62
     7
100
AcDbLine
 10
335.6123455663469
 20
182.0789331890589
 30
0.0
 11
335.3381658383641
 21
182.2994575068052
 31
0.0
  0
LINE
  5
4AA
330
2
100
AcDbEntity
  8
0
  6
Continuous
 62
     7
100
AcDbLine
 10
335.54274706766
 20
179.8450955588323
 30
0.0
 11
335.1541798918725
 21
180.2744575068052
 31
0.0
  0
ARC
  5
4AB
330
2
100
AcDbEntity
  8
0
  6
Continuous
 62
     7
100
AcDbCircle
 10
335.445380051779
 20
180.0644575068052
 30
0.0
 40
0.24
100
AcDbArc
 50
270.0
 51
293.9347431357139
  0
LINE
  5
4AC
330
2
100
AcDbEntity
  8
0
  6
Continuous
 62
     7
100
AcDbLine
 10
335.2653977779328
 20
180.3751082982588
 30
0.0
 11
335.403029343687
 21
181.7514222908592
 31
0.0
  0
LINE
  5
4AD
330
2
100
AcDbEntity
  8
0
  6
Continuous
 62
     7
100
AcDbLine
 10
335.403029343687
 20
181.7514222908592
 30
0.0
 11
335.7342335699718
 21
181.9808979731128
 31
0.0
  0
LINE
  5
4AE
330
2
100
AcDbEntity
  8
0
  6
Continuous
 62
     7
100
AcDbLine
 10
335.7409210554813
 20
182.1680170404975
 30
0.0
 11
335.4667413274983
 21
182.3885413582437
 31
0.0
  0
LINE
  5
4AF
330
2
100
AcDbEntity
  8
0
  6
Continuous
 62
     7
100
AcDbLine
 10
335.6539649537203
 20
179.9457463502859
 30
0.0
 11
335.2653977779328
 21
180.3751082982588
 31
0.0
  0
ARC
  5
4B0
330
2
100
AcDbEntity
  8
0
  6
Continuous
 62
     7
100
AcDbCircle
 10
335.8473805380825
 20
184.0844575068052
 30
0.0
 40
0.24
100
AcDbArc
 50
354.2893999999984
 51
23.93474313571744
  0
ARC
  5
4B1
330
2
100
AcDbEntity
  8
0
  6
Continuous
 62
     7
100
AcDbCircle
 10
335.8473805380825
 20
184.0844575068052
 30
0.0
 40
0.24
100
AcDbArc
 50
60.35465686428628
 51
90.0
  0
LINE
  5
4B2
330
2
100
AcDbEntity
  8
0
  6
Continuous
 62
     7
100
AcDbLine
 10
335.9660916946016
 20
184.2930424087465
 30
0.0
 11
335.5035605285934
 21
183.874457506805
 31
0.0
  0
LINE
  5
4B3
330
2
100
AcDbEntity
  8
0
  6
Continuous
 62
     7
100
AcDbLine
 10
336.0667424860553
 20
184.181824522686
 30
0.0
 11
335.6042113200469
 21
183.7632396207448
 31
0.0
  0
LINE
  5
4B4
330
2
100
AcDbEntity
  8
0
  6
Continuous
 62
     7
100
AcDbLine
 10
311.4625770405419
 20
199.3244575068052
 30
0.0
 11
337.4625770405419
 21
199.3244575068052
 31
0.0
  0
LINE
  5
4B5
330
2
100
AcDbEntity
  8
0
  6
Continuous
 62
     7
100
AcDbLine
 10
311.9625099154378
 20
200.3245299359615
 30
0.0
 11
336.9625099154378
 21
200.3245299359615
 31
0.0
  0
ARC
  5
4B6
330
2
100
AcDbEntity
  8
0
  6
Continuous
 62
     7
100
AcDbCircle
 10
311.9625099154378
 20
198.3245299359615
 30
0.0
 40
2.0
100
AcDbArc
 50
90.0
 51
180.0
  0
ARC
  5
4B7
330
2
100
AcDbEntity
  8
0
  6
Continuous
 62
     7
100
AcDbCircle
 10
336.9625099154378
 20
198.3245299359615
 30
0.0
 40
2.0
100
AcDbArc
 50
0.0
 51
90.0
  0
CIRCLE
  5
4B8
330
2
100
AcDbEntity
  8
0
  6
Continuous
 62
     7
100
AcDbCircle
 10
299.9626737175031
 20
174.0256576118449
 30
0.0
 40
1.6
  0
CIRCLE
  5
4B9
330
2
100
AcDbEntity
  8
0
  6
Continuous
 62
     7
100
AcDbCircle
 10
356.9626737175032
 20
174.0256576118449
 30
0.0
 40
1.6
  0
ARC
  5
4BA
330
2
100
AcDbEntity
  8
0
  6
Continuous
 62
     7
 48
2.0
100
AcDbCircle
 10
355.262640646125
 20
176.0247058097162
 30
0.0
 40
2.000103288135683
100
AcDbArc
 50
347.8902884518324
 51
359.996293755052
  0
ARC
  5
4BB
330
2
100
AcDbEntity
  8
0
  6
Continuous
 62
     7
 48
2.0
100
AcDbCircle
 10
301.6627072214915
 20
176.0247058097162
 30
0.0
 40
2.000103288135762
100
AcDbArc
 50
267.1331843784825
 51
269.999069511637
  0
LINE
  5
4BC
330
2
100
AcDbEntity
  8
0
  6
Continuous
 62
     7
100
AcDbLine
 10
350.9552954542647
 20
135.8244575068052
 30
0.0
 11
305.9696648402863
 21
135.8244575068052
 31
0.0
  0
LINE
  5
4BD
330
2
100
AcDbEntity
  8
0
  6
Continuous
 62
     7
100
AcDbLine
 10
227.3625770405418
 20
135.8244575068052
 30
0.0
 11
136.3662246442866
 21
135.8244575068052
 31
0.0
  0
LINE
  5
4BE
330
2
100
AcDbEntity
  8
0
  6
Continuous
 62
     7
100
AcDbLine
 10
357.4626794493058
 20
140.8244575068051
 30
0.0
 11
299.4626684183106
 21
140.8244575068051
 31
0.0
  0
ARC
  5
4BF
330
2
100
AcDbEntity
  8
0
  6
Continuous
 62
     7
100
AcDbCircle
 10
299.4626684183106
 20
144.824457506805
 30
0.0
 40
4.0
100
AcDbArc
 50
180.0
 51
270.0
  0
LINE
  5
4C0
330
2
100
AcDbEntity
  8
0
  6
Continuous
100
AcDbLine
 10
107.8647088156166
 20
48.83950237051799
 30
0.0
 11
107.8647088156166
 21
102.8097985402308
 31
0.0
  0
LINE
  5
4C1
330
2
100
AcDbEntity
  8
0
  6
Continuous
100
AcDbLine
 10
107.8647088156166
 20
146.8611307088449
 30
0.0
 11
107.8647088156166
 21
239.7142053302264
 31
0.0
  0
LINE
  5
4C2
330
2
100
AcDbEntity
  8
0
  6
Continuous
100
AcDbLine
 10
247.8647088156166
 20
47.10438506810458
 30
0.0
 11
247.8647088156166
 21
104.5445299455057
 31
0.0
  0
ARC
  5
4C3
330
2
100
AcDbEntity
  8
0
  6
Continuous
100
AcDbCircle
 10
243.8647088156166
 20
104.5445299455057
 30
0.0
 40
4.0
100
AcDbArc
 50
0.0
 51
89.00000000000018
  0
ARC
  5
4C4
330
2
100
AcDbEntity
  8
0
  6
Continuous
100
AcDbCircle
 10
246.8647088156166
 20
51.80050524797196
 30
0.0
 40
1.0
100
AcDbArc
 50
269.9925974445447
 51
0.0
  0
ARC
  5
4C5
330
2
100
AcDbEntity
  8
0
  6
Continuous
100
AcDbCircle
 10
246.8647088156166
 20
99.79841376581301
 30
0.0
 40
1.0
100
AcDbArc
 50
0.0
 51
90.007402555451
  0
LINE
  5
4C6
330
2
100
AcDbEntity
  8
0
  6
Continuous
100
AcDbLine
 10
247.8647088156167
 20
145.1128873068229
 30
0.0
 11
247.8647088156166
 21
241.5364080001374
 31
0.0
  0
ARC
  5
4C7
330
2
100
AcDbEntity
  8
0
  6
Continuous
100
AcDbCircle
 10
243.8647088156166
 20
241.5364080001374
 30
0.0
 40
4.0
100
AcDbArc
 50
0.0
 51
89.00992909121555
  0
ARC
  5
4C8
330
2
100
AcDbEntity
  8
0
  6
Continuous
100
AcDbCircle
 10
246.8647088156167
 20
236.7875339105263
 30
0.0
 40
1.0
100
AcDbArc
 50
0.0000000000000127
 51
90.007402555451
  0
LINE
  5
4C9
330
2
100
AcDbEntity
  8
0
  6
Continuous
100
AcDbLine
 10
299.4626684183106
 20
245.8244575068052
 30
0.0
 11
357.4626794493058
 21
245.8244575068052
 31
0.0
  0
ARC
  5
4CA
330
2
100
AcDbEntity
  8
0
  6
Continuous
100
AcDbCircle
 10
299.4626684183106
 20
241.8244575068052
 30
0.0
 40
4.0
100
AcDbArc
 50
90.0
 51
180.0
  0
LINE
  5
4CB
330
2
100
AcDbEntity
  8
0
  6
Continuous
 62
     7
100
AcDbLine
 10
227.3625770405418
 20
140.8244575068051
 30
0.0
 11
111.7948819631912
 21
142.8617402289491
 31
0.0
  0
LINE
  5
4CC
330
2
100
AcDbEntity
  8
0
  6
Continuous
 62
     7
 48
2.0
100
AcDbLine
 10
227.8609663865768
 20
140.824457506805
 30
0.0
 11
243.9321724084066
 21
141.1134556960201
 31
0.0
  0
LINE
  5
4CD
330
2
100
AcDbEntity
  8
0
  6
Continuous
 62
     7
100
AcDbLine
 10
248.8647106509073
 20
225.8244575595932
 30
0.0
 11
248.8647106509073
 21
205.8244575595932
 31
0.0
  0
LINE
  5
4CE
330
2
100
AcDbEntity
  8
0
  6
Continuous
 62
     7
100
AcDbLine
 10
249.8647106509074
 20
224.8244575595932
 30
0.0
 11
249.8647106509074
 21
206.8244575595932
 31
0.0
  0
LINE
  5
4CF
330
2
100
AcDbEntity
  8
0
  6
Continuous
 62
     7
100
AcDbLine
 10
249.8647106509074
 20
206.8244575595932
 30
0.0
 11
248.8647106509073
 21
205.8244575595932
 31
0.0
  0
LINE
  5
4D0
330
2
100
AcDbEntity
  8
0
  6
Continuous
 62
     7
100
AcDbLine
 10
247.8647106509074
 20
205.8244575595932
 30
0.0
 11
248.8647106509073
 21
205.8244575595932
 31
0.0
  0
LINE
  5
4D1
330
2
100
AcDbEntity
  8
0
  6
Continuous
 62
     7
100
AcDbLine
 10
249.8647106509074
 20
224.8244575595932
 30
0.0
 11
248.8647106509073
 21
225.8244575595932
 31
0.0
  0
LINE
  5
4D2
330
2
100
AcDbEntity
  8
0
  6
Continuous
 62
     7
100
AcDbLine
 10
247.8647106509074
 20
225.8244575595932
 30
0.0
 11
248.8647106509073
 21
225.8244575595932
 31
0.0
  0
CIRCLE
  5
4D3
330
2
100
AcDbEntity
  8
0
  6
Continuous
 62
     7
100
AcDbCircle
 10
328.4625572625675
 20
215.8244575068052
 30
0.0
 40
10.00016016849517
  0
CIRCLE
  5
4D4
330
2
100
AcDbEntity
  8
0
  6
Continuous
 62
     7
100
AcDbCircle
 10
328.4625572625675
 20
215.8244575068052
 30
0.0
 40
9.000000052789083
  0
LINE
  5
4D5
330
2
100
AcDbEntity
  8
0
  6
Continuous
 62
     7
100
AcDbLine
 10
249.8647106499459
 20
84.82445755959316
 30
0.0
 11
248.8647106499459
 21
85.82445755959316
 31
0.0
  0
LINE
  5
4D6
330
2
100
AcDbEntity
  8
0
  6
Continuous
 62
     7
100
AcDbLine
 10
247.8647106499459
 20
85.82445755959316
 30
0.0
 11
248.8647106499459
 21
85.82445755959316
 31
0.0
  0
LINE
  5
4D7
330
2
100
AcDbEntity
  8
0
  6
Continuous
 62
     7
100
AcDbLine
 10
248.8647106499459
 20
85.82445755959316
 30
0.0
 11
248.8647106499459
 21
75.82445750680517
 31
0.0
  0
LINE
  5
4D8
330
2
100
AcDbEntity
  8
0
  6
Continuous
 62
     7
100
AcDbLine
 10
249.8647106499459
 20
84.82445755959316
 30
0.0
 11
249.8647106499459
 21
75.64346344798646
 31
0.0
  0
ENDSEC
  0
SECTION
  2
OBJECTS
  0
DICTIONARY
  5
B
330
0
100
AcDbDictionary
281
     1
  3
ACAD_COLOR
350
41
  3
ACAD_GROUP
350
3B
  3
ACAD_LAYOUT
350
16
  3
ACAD_MATERIAL
350
D
  3
ACAD_MLEADERSTYLE
350
44
  3
ACAD_MLINESTYLE
350
3C
  3
ACAD_PLOTSETTINGS
350
3D
  3
ACAD_PLOTSTYLENAME
350
A
  3
ACAD_SCALELIST
350
42
  3
ACAD_TABLESTYLE
350
43
  3
ACAD_VISUALSTYLE
350
2E
  3
ACDB_RECOMPOSE_DATA
350
4E5
  3
AcDbVariableDictionary
350
4DA
  0
DICTIONARY
  5
1E
330
1D
100
AcDbDictionary
280
     1
281
     1
  3
ACAD_LAYERFILTERS
360
1F
  3
ACAD_LAYERSTATES
360
20
  3
ACLYDICTIONARY
360
21
  0
DICTIONARY
  5
7
330
6
100
AcDbDictionary
280
     1
281
     1
  3
ADSK_XREC_LAYER_RECONCILED
360
8
  0
DICTIONARY
  5
3
330
2
100
AcDbDictionary
280
     1
281
     1
  3
ACAD_SORTENTS
360
4D9
  0
DICTIONARY
  5
41
102
{ACAD_REACTORS
330
B
102
}
330
B
100
AcDbDictionary
281
     1
  0
DICTIONARY
  5
3B
102
{ACAD_REACTORS
330
B
102
}
330
B
100
AcDbDictionary
281
     1
  0
DICTIONARY
  5
16
102
{ACAD_REACTORS
330
B
102
}
330
B
100
AcDbDictionary
281
     1
  3
Model
350
15
  3
ﾚｲｱｳﾄ1
350
1C
  0
DICTIONARY
  5
D
102
{ACAD_REACTORS
330
B
102
}
330
B
100
AcDbDictionary
281
     1
  3
ByBlock
350
3E
  3
ByLayer
350
11
  3
Global
350
C
  0
DICTIONARY
  5
44
102
{ACAD_REACTORS
330
B
102
}
330
B
100
AcDbDictionary
281
     1
  0
DICTIONARY
  5
3C
102
{ACAD_REACTORS
330
B
102
}
330
B
100
AcDbDictionary
281
     1
  3
STANDARD
350
4B
  0
DICTIONARY
  5
3D
102
{ACAD_REACTORS
330
B
102
}
330
B
100
AcDbDictionary
281
     1
  0
ACDBDICTIONARYWDFLT
  5
A
102
{ACAD_REACTORS
330
B
102
}
330
B
100
AcDbDictionary
281
     1
  3
Normal
350
9
100
AcDbDictionaryWithDefault
340
9
  0
DICTIONARY
  5
42
102
{ACAD_REACTORS
330
B
102
}
330
B
100
AcDbDictionary
281
     1
  3
A0
350
50
  3
A1
350
51
  3
A2
350
52
  3
A3
350
53
  3
A4
350
54
  3
A5
350
55
  3
A6
350
56
  3
A7
350
57
  3
A8
350
58
  3
A9
350
59
  3
B0
350
5A
  3
B1
350
5B
  3
B2
350
5C
  3
B3
350
5D
  3
B4
350
5E
  3
B5
350
5F
  3
B6
350
60
  0
DICTIONARY
  5
43
102
{ACAD_REACTORS
330
B
102
}
330
B
100
AcDbDictionary
281
     1
  3
Standard
350
4C
  0
DICTIONARY
  5
2E
102
{ACAD_REACTORS
330
B
102
}
330
B
100
AcDbDictionary
281
     1
  3
2dWireframe
350
2D
  3
Realistic
350
4E
  3
Wireframe
350
4F
  0
XRECORD
  5
4E5
102
{ACAD_REACTORS
330
B
102
}
330
B
100
AcDbXrecord
280
     1
 90
        1
330
4C
  0
DICTIONARY
  5
4DA
102
{ACAD_REACTORS
330
B
102
}
330
B
100
AcDbDictionary
281
     1
  3
CANNOSCALE
350
4DD
  3
CMLEADERSTYLE
350
4DC
  3
CTABLESTYLE
350
4DB
  3
DIMASSOC
350
4E1
  3
HIDETEXT
350
4E0
  3
INDEXCTL
350
4DF
  3
SOLIDHIST
350
4E2
  3
SORTENTS
350
4DE
  3
XCLIPFRAME
350
4E3
  0
DICTIONARY
  5
1F
102
{ACAD_REACTORS
330
1E
102
}
330
1E
100
AcDbDictionary
281
     1
  0
DICTIONARY
  5
20
102
{ACAD_REACTORS
330
1E
102
}
330
1E
100
AcDbDictionary
281
     1
  0
DICTIONARY
  5
21
102
{ACAD_REACTORS
330
1E
102
}
330
1E
100
AcDbDictionary
281
     1
1001
ACAD
1000
<All
  0
XRECORD
  5
8
102
{ACAD_REACTORS
330
7
102
}
330
7
100
AcDbXrecord
280
     1
290
     1
  0
SORTENTSTABLE
  5
4D9
102
{ACAD_REACTORS
330
3
102
}
330
3
100
AcDbSortentsTable
330
2
  0
LAYOUT
  5
15
102
{ACAD_XDICTIONARY
360
17
102
}
102
{ACAD_REACTORS
330
16
102
}
330
16
100
AcDbPlotSettings
  1

  2
\\DEVSVR02\LP-8700
  4
A3
  6

 40
5.873749732971191
 41
5.873747825622557
 42
5.873748779296875
 43
5.873748779296875
 44
297.0106506347656
 45
419.9466552734373
 46
0.0
 47
0.0
 48
0.0
 49
0.0
140
0.0
141
0.0
142
1.0
143
1.0
 70
 11952
 72
     1
 73
     1
 74
     2
  7
ﾍﾟﾝ設定.ctb
 75
    16
147
1.0
148
0.0
149
0.0
100
AcDbLayout
  1
Model
 70
     1
 71
     0
 10
0.0
 20
0.0
 11
12.0
 21
9.0
 12
0.0
 22
0.0
 32
0.0
 14
0.0
 24
0.0
 34
0.0
 15
0.0
 25
0.0
 35
0.0
146
0.0
 13
0.0
 23
0.0
 33
0.0
 16
1.0
 26
0.0
 36
0.0
 17
0.0
 27
1.0
 37
0.0
 76
     0
330
2
331
2C
  0
LAYOUT
  5
1C
102
{ACAD_XDICTIONARY
360
4E7
102
}
102
{ACAD_REACTORS
330
16
102
}
330
16
100
AcDbPlotSettings
  1

  2
なし
  4

  6

 40
0.0
 41
0.0
 42
0.0
 43
0.0
 44
0.0
 45
0.0
 46
0.0
 47
0.0
 48
0.0
 49
0.0
140
0.0
141
0.0
142
1.0
143
1.0
 70
   688
 72
     0
 73
     0
 74
     5
  7
ﾍﾟﾝ設定.ctb
 75
    16
147
1.0
148
0.0
149
0.0
100
AcDbLayout
  1
ﾚｲｱｳﾄ1
 70
     0
 71
     1
 10
0.0
 20
0.0
 11
12.0
 21
9.0
 12
0.0
 22
0.0
 32
0.0
 14
1.000000000000000E+20
 24
1.000000000000000E+20
 34
1.000000000000000E+20
 15
-1.000000000000000E+20
 25
-1.000000000000000E+20
 35
-1.000000000000000E+20
146
0.0
 13
0.0
 23
0.0
 33
0.0
 16
1.0
 26
0.0
 36
0.0
 17
0.0
 27
1.0
 37
0.0
 76
     0
330
19
  0
MATERIAL
  5
3E
102
{ACAD_XDICTIONARY
360
3F
102
}
102
{ACAD_REACTORS
330
D
102
}
330
D
100
AcDbMaterial
  1
ByBlock
 73
     1
 78
     1
172
     1
176
     1
270
     1
274
     1
  0
MATERIAL
  5
11
102
{ACAD_XDICTIONARY
360
12
102
}
102
{ACAD_REACTORS
330
D
102
}
330
D
100
AcDbMaterial
  1
ByLayer
 73
     1
 78
     1
172
     1
176
     1
270
     1
274
     1
  0
MATERIAL
  5
C
102
{ACAD_XDICTIONARY
360
E
102
}
102
{ACAD_REACTORS
330
D
102
}
330
D
100
AcDbMaterial
  1
Global
 73
     1
 78
     1
172
     1
176
     1
270
     1
274
     1
  0
MLINESTYLE
  5
4B
102
{ACAD_REACTORS
330
3C
102
}
330
3C
100
AcDbMlineStyle
  2
STANDARD
 70
     0
  3

 62
     0
 51
90.0
 52
90.0
 71
     2
 49
0.5
 62
   256
  6
BYLAYER
 49
-0.5
 62
   256
  6
BYLAYER
  0
ACDBPLACEHOLDER
  5
9
102
{ACAD_REACTORS
330
A
102
}
330
A
  0
SCALE
  5
50
102
{ACAD_REACTORS
330
42
102
}
330
42
100
AcDbScale
 70
     0
300
1:1
140
1.0
141
1.0
290
     1
  0
SCALE
  5
51
102
{ACAD_REACTORS
330
42
102
}
330
42
100
AcDbScale
 70
     0
300
1/128" = 1'-0"
140
0.0078125
141
12.0
290
     0
  0
SCALE
  5
52
102
{ACAD_REACTORS
330
42
102
}
330
42
100
AcDbScale
 70
     0
300
1/64" = 1'-0"
140
0.015625
141
12.0
290
     0
  0
SCALE
  5
53
102
{ACAD_REACTORS
330
42
102
}
330
42
100
AcDbScale
 70
     0
300
1/32" = 1'-0"
140
0.03125
141
12.0
290
     0
  0
SCALE
  5
54
102
{ACAD_REACTORS
330
42
102
}
330
42
100
AcDbScale
 70
     0
300
1/16" = 1'-0"
140
0.0625
141
12.0
290
     0
  0
SCALE
  5
55
102
{ACAD_REACTORS
330
42
102
}
330
42
100
AcDbScale
 70
     0
300
3/32" = 1'-0"
140
0.09375
141
12.0
290
     0
  0
SCALE
  5
56
102
{ACAD_REACTORS
330
42
102
}
330
42
100
AcDbScale
 70
     0
300
1/8" = 1'-0"
140
0.125
141
12.0
290
     0
  0
SCALE
  5
57
102
{ACAD_REACTORS
330
42
102
}
330
42
100
AcDbScale
 70
     0
300
3/16" = 1'-0"
140
0.1875
141
12.0
290
     0
  0
SCALE
  5
58
102
{ACAD_REACTORS
330
42
102
}
330
42
100
AcDbScale
 70
     0
300
1/4" = 1'-0"
140
0.25
141
12.0
290
     0
  0
SCALE
  5
59
102
{ACAD_REACTORS
330
42
102
}
330
42
100
AcDbScale
 70
     0
300
3/8" = 1'-0"
140
0.375
141
12.0
290
     0
  0
SCALE
  5
5A
102
{ACAD_REACTORS
330
42
102
}
330
42
100
AcDbScale
 70
     0
300
1/2" = 1'-0"
140
0.5
141
12.0
290
     0
  0
SCALE
  5
5B
102
{ACAD_REACTORS
330
42
102
}
330
42
100
AcDbScale
 70
     0
300
3/4" = 1'-0"
140
0.75
141
12.0
290
     0
  0
SCALE
  5
5C
102
{ACAD_REACTORS
330
42
102
}
330
42
100
AcDbScale
 70
     0
300
1" = 1'-0"
140
1.0
141
12.0
290
     0
  0
SCALE
  5
5D
102
{ACAD_REACTORS
330
42
102
}
330
42
100
AcDbScale
 70
     0
300
1-1/2" = 1'-0"
140
1.5
141
12.0
290
     0
  0
SCALE
  5
5E
102
{ACAD_REACTORS
330
42
102
}
330
42
100
AcDbScale
 70
     0
300
3" = 1'-0"
140
3.0
141
12.0
290
     0
  0
SCALE
  5
5F
102
{ACAD_REACTORS
330
42
102
}
330
42
100
AcDbScale
 70
     0
300
6" = 1'-0"
140
6.0
141
12.0
290
     0
  0
SCALE
  5
60
102
{ACAD_REACTORS
330
42
102
}
330
42
100
AcDbScale
 70
     0
300
1'-0" = 1'-0"
140
12.0
141
12.0
290
     0
  0
TABLESTYLE
  5
4C
102
{ACAD_XDICTIONARY
360
4D
102
}
102
{ACAD_REACTORS
330
43
102
}
330
43
100
AcDbTableStyle
  3
Standard
 70
     0
 71
     0
 40
0.06
 41
0.06
280
     0
281
     0
  7
STANDARD
140
0.18
170
     2
 62
     0
 63
     7
283
     0
274
    -2
284
     1
 64
     0
275
    -2
285
     1
 65
     0
276
    -2
286
     1
 66
     0
277
    -2
287
     1
 67
     0
278
    -2
288
     1
 68
     0
279
    -2
289
     1
 69
     0
  7
STANDARD
140
0.25
170
     5
 62
     0
 63
     7
283
     0
274
    -2
284
     1
 64
     0
275
    -2
285
     1
 65
     0
276
    -2
286
     1
 66
     0
277
    -2
287
     1
 67
     0
278
    -2
288
     1
 68
     0
279
    -2
289
     1
 69
     0
  7
STANDARD
140
0.18
170
     5
 62
     0
 63
     7
283
     0
274
    -2
284
     1
 64
     0
275
    -2
285
     1
 65
     0
276
    -2
286
     1
 66
     0
277
    -2
287
     1
 67
     0
278
    -2
288
     1
 68
     0
279
    -2
289
     1
 69
     0
  0
VISUALSTYLE
  5
2D
102
{ACAD_XDICTIONARY
360
4E9
102
}
102
{ACAD_REACTORS
330
2E
102
}
330
2E
100
AcDbVisualStyle
  2

 70
     4
 71
     0
 72
     2
 73
     0
 90
        0
 40
-0.6
 41
-30.0
 62
     5
 63
     7
 74
     1
 91
        4
 64
     7
 65
   257
 75
     1
175
     1
 42
1.0
 92
        0
 66
   257
 43
1.0
 76
     1
 77
     6
 78
     2
 67
     7
 79
     5
170
     0
171
     0
290
     0
174
     0
 93
        1
 44
0.0
173
     0
291
     0
 45
0.0
1001
ACAD
1000
AcDbSavedByObjectVersion
1070
     0
  0
VISUALSTYLE
  5
4E
102
{ACAD_XDICTIONARY
360
4EC
102
}
102
{ACAD_REACTORS
330
2E
102
}
330
2E
100
AcDbVisualStyle
  2

 70
     8
 71
     2
 72
     2
 73
     0
 90
        0
 40
-0.6
 41
-30.0
 62
     5
 63
     7
 74
     1
 91
        0
 64
     7
 65
   257
 75
     1
175
     1
 42
1.0
 92
        8
 66
     8
 43
1.0
 76
     1
 77
     6
 78
     2
 67
     7
 79
     5
170
     0
171
     0
290
     0
174
     0
 93
       13
 44
0.0
173
     0
291
     0
 45
0.0
1001
ACAD
1000
AcDbSavedByObjectVersion
1070
     0
  0
VISUALSTYLE
  5
4F
102
{ACAD_XDICTIONARY
360
4EE
102
}
102
{ACAD_REACTORS
330
2E
102
}
330
2E
100
AcDbVisualStyle
  2

 70
     5
 71
     0
 72
     2
 73
     0
 90
        0
 40
-0.6
 41
-30.0
 62
     5
 63
     7
 74
     1
 91
        4
 64
     7
 65
   257
 75
     1
175
     1
 42
1.0
 92
        0
 66
   257
 43
1.0
 76
     1
 77
     6
 78
     2
 67
     7
 79
     3
170
     0
171
     0
290
     0
174
     0
 93
        1
 44
0.0
173
     0
291
     0
 45
0.0
1001
ACAD
1000
AcDbSavedByObjectVersion
1070
     0
  0
DICTIONARYVAR
  5
4DD
102
{ACAD_REACTORS
330
4DA
102
}
330
4DA
100
DictionaryVariables
280
     0
  1
1:1
  0
DICTIONARYVAR
  5
4DC
102
{ACAD_REACTORS
330
4DA
102
}
330
4DA
100
DictionaryVariables
280
     0
  1
STANDARD
  0
DICTIONARYVAR
  5
4DB
102
{ACAD_REACTORS
330
4DA
102
}
330
4DA
100
DictionaryVariables
280
     0
  1
STANDARD
  0
DICTIONARYVAR
  5
4E1
102
{ACAD_REACTORS
330
4DA
102
}
330
4DA
100
DictionaryVariables
280
     0
  1
1
  0
DICTIONARYVAR
  5
4E0
102
{ACAD_REACTORS
330
4DA
102
}
330
4DA
100
DictionaryVariables
280
     0
  1
1
  0
DICTIONARYVAR
  5
4DF
102
{ACAD_REACTORS
330
4DA
102
}
330
4DA
100
DictionaryVariables
280
     0
  1
0
  0
DICTIONARYVAR
  5
4E2
102
{ACAD_REACTORS
330
4DA
102
}
330
4DA
100
DictionaryVariables
280
     0
  1
1
  0
DICTIONARYVAR
  5
4DE
102
{ACAD_REACTORS
330
4DA
102
}
330
4DA
100
DictionaryVariables
280
     0
  1
127
  0
DICTIONARYVAR
  5
4E3
102
{ACAD_REACTORS
330
4DA
102
}
330
4DA
100
DictionaryVariables
280
     0
  1
2
  0
DICTIONARY
  5
17
330
15
100
AcDbDictionary
280
     1
281
     1
  3
ACAD_XREC_ROUNDTRIP
360
4E6
  3
ADSK_XREC_LAYOUTTHUMBNAIL
360
18
  0
DICTIONARY
  5
4E7
330
1C
100
AcDbDictionary
280
     1
281
     1
  3
ACAD_XREC_ROUNDTRIP
360
4E8
  0
DICTIONARY
  5
3F
330
3E
100
AcDbDictionary
280
     1
281
     1
  3
ACAD_XREC_ROUNDTRIP
360
40
  0
DICTIONARY
  5
12
330
11
100
AcDbDictionary
280
     1
281
     1
  3
ACAD_XREC_ROUNDTRIP
360
13
  0
DICTIONARY
  5
E
330
C
100
AcDbDictionary
280
     1
281
     1
  3
ACAD_XREC_ROUNDTRIP
360
F
  0
DICTIONARY
  5
4D
330
4C
100
AcDbDictionary
280
     1
281
     1
  3
ACAD_ROUNDTRIP_2008_TABLESTYLE_CELLSTYLEMAP
360
4E4
  3
ACAD_XREC_ROUNDTRIP
360
4EB
  0
DICTIONARY
  5
4E9
330
2D
100
AcDbDictionary
280
     1
281
     1
  3
ACAD_XREC_ROUNDTRIP
360
4EA
  0
DICTIONARY
  5
4EC
330
4E
100
AcDbDictionary
280
     1
281
     1
  3
ACAD_XREC_ROUNDTRIP
360
4ED
  0
DICTIONARY
  5
4EE
330
4F
100
AcDbDictionary
280
     1
281
     1
  3
ACAD_XREC_ROUNDTRIP
360
4EF
  0
XRECORD
  5
4E6
102
{ACAD_REACTORS
330
17
102
}
330
17
100
AcDbXrecord
280
     1
102
SHADEPLOT
 70
     0
102
SHADEPLOTRESLEVEL
 70
     2
102
SHADEPLOTCUSTOMDPI
 70
   300
  0
XRECORD
  5
18
102
{ACAD_REACTORS
330
17
102
}
330
17
100
AcDbXrecord
280
     1
310
280000000001000072000000010008000000000000720000000000000000000000010000000000000000000000000000C8C8C8000000000000000000000000000000000000000000000000000000000000000000330000006600000099000000CC000000FF00000000330000333300006633000099330000CC330000FF3300
310
0000660000336600006666000099660000CC660000FF66000000990000339900006699000099990000CC990000FF99000000CC000033CC000066CC000099CC0000CCCC0000FFCC000000FF000033FF000066FF000099FF0000CCFF0000FFFF000000003300330033006600330099003300CC003300FF003300003333003333
310
33006633330099333300CC333300FF33330000663300336633006666330099663300CC663300FF66330000993300339933006699330099993300CC993300FF99330000CC330033CC330066CC330099CC3300CCCC3300FFCC330000FF330033FF330066FF330099FF3300CCFF3300FFFF330000006600330066006600660099
310
006600CC006600FF00660000336600333366006633660099336600CC336600FF33660000666600336666006666660099666600CC666600FF66660000996600339966006699660099996600CC996600FF99660000CC660033CC660066CC660099CC6600CCCC6600FFCC660000FF660033FF660066FF660099FF6600CCFF6600
310
FFFF660000009900330099006600990099009900CC009900FF00990000339900333399006633990099339900CC339900FF33990000669900336699006666990099669900CC669900FF66990000999900339999006699990099999900CC999900FF99990000CC990033CC990066CC990099CC9900CCCC9900FFCC990000FF99
310
0033FF990066FF990099FF9900CCFF9900FFFF99000000CC003300CC006600CC009900CC00CC00CC00FF00CC000033CC003333CC006633CC009933CC00CC33CC00FF33CC000066CC003366CC006666CC009966CC00CC66CC00FF66CC000099CC003399CC006699CC009999CC00CC99CC00FF99CC0000CCCC0033CCCC0066CC
310
CC0099CCCC00CCCCCC00FFCCCC0000FFCC0033FFCC0066FFCC0099FFCC00CCFFCC00FFFFCC000000FF003300FF006600FF009900FF00CC00FF00FF00FF000033FF003333FF006633FF009933FF00CC33FF00FF33FF000066FF003366FF006666FF009966FF00CC66FF00FF66FF000099FF003399FF006699FF009999FF00CC
310
99FF00FF99FF0000CCFF0033CCFF0066CCFF0099CCFF00CCCCFF00FFCCFF0000FFFF0033FFFF0066FFFF0099FFFF00CCFFFF00FFFFFF00000000000D0D0D001A1A1A00282828003535350043434300505050005D5D5D006B6B6B00787878008686860093939300A1A1A100AEAEAE00BBBBBB00C9C9C900D6D6D600E4E4E400
310
F1F1F100FFFFFF000000000000000000000000000000000000000000000000000000000000000000000000000000000000000000000000000000000000000000000000000000000000000000000000000000000000000000000000000000000000000000000000000000000000000000000000000000000000000000000000
310
00000000000000000000000000000000000000000000000000000000000000000000000000000000000000000000000000000000000000000000000000000000000000000000000000000000000000000000000000000000000000000000000000000000000000000000000000000000000000000000000000000000000000
310
00000000000000000000000000000000000000000000000000000000000000000000000000000000000000000000000000000000000000000000000000000000000000000000000000000000000000000000000000000000000000000000000000000000000000000000000000000000000000000000000000000000000000
310
00000000000000000000000000000000000000000000000000000000000000000000000000000000000000000000000000000000000000000000000000000000000000000000000000000000000000000000000000000000000000000000000000000000000000000000000000000000000000000000000000000000000000
310
00000000000000000000000000000000000000000000000000000000000000000000000000000000000000000000000000000000000000000000000000000000000000000000000000000000000000000000000000000000000000000000000000000000000000000000000000000000000000000000000000000000000000
310
00000000000000000000000000000000000000000000000000000000000000000000000000000000000000000000000000000000000000000000000000000000000000000000000000000000000000000000000000000000000000000000000000000000000000000000000000000000000000000000000000000000000000
310
00000000000000000000000000000000000000000000000000000000000000000000000000000000000000000000000000000000000000000000000000000000000000000000000000000000000000000000000000000000000000000000000000000000000000000000000000000000000000000000000000000000000000
310
00000000000000000000000000000000000000000000000000000000000000000000000000000000000000000000000000000000000000000000000000000000000000000000000000000000000000000000000000000000000000000000000000000000000000000000000000000000000000000000000000000000000000
310
00000000000000000000000000000000000000000000000000000000000000000000000000000000000000000000000000000000000000000000000000000000000000000000000000000000000000000000000000000000000000000000000000000000000000000000000000000000000000000000000000000000000000
310
00000000000000000000000000000000000000000000000000000000000000000000000000000000000000000000000000000000000000000000000000000000000000000000000000000000000000000000000000000000000000000000000000000000000000000000000000000000000000000000000000000000000000
310
00000000000000000000000000000000000000000000000000000000000000000000000000000000000000000000000000000000000000000000000000000000000000000000000000000000000000000000000000000000000000000000000000000000000000000000000000000000000000000000000000000000000000
310
00000000000000000000000000000000000000000000000000000000000000000000000000000000000000000000000000000000000000000000000000000000000000000000000000000000000000000000000000000000000000000000000000000000000000000000000000000000000000000000000000000000000000
310
00000000000000000000000000000000000000000000000000000000000000000000000000000000000000000000000000000000000000000000000000000000000000000000000000000000000000000000000000000000000000000000000000000000000000000000000000000000000000000000000000000000000000
310
00000000000000000000000000000000000000000000000000000000000000000000000000000000000000000000000000000000000000000000000000000000000000000000000000000000000000000000000000000000000000000000000000000000000000000000000000000000000000000000000000000000000000
310
00000000000000000000000000000000000000000000000000000000000000000000000000000000000000000000000000000000000000000000000000000000000000000000000000000000000000000000000000000000000000000000000000000000000000000000000000000000000000000000000000000000000000
310
00000000000000000000000000000000000000000000000000000000000000000000000000000000000000000000000000000000000000000000000000000000000000000000000000000000000000000000000000000000000000000000000000000000000000000000000000000000000000000000000000000000000000
310
00000000000000000000000000000000000000000000000000000000000000000000000000000000000000000000000000000000000000000000000000000000000000000000000000000000000000000000000000000000000000000000000000000000000000000000000000000000000000000000000000000000000000
310
00000000000000000000000000000000000000000000000000000000000000000000000000000000000000000000000000000000000000000000000000000000000000000000000000000000000000000000000000000000000000000000000000000000000000000000000000000000000000000000000000000000000000
310
00000000000000000000000000000000000000000000000000000000000000000000000000000000000000000000000000000000000000000000000000000000000000000000000000000000000000000000000000000000000000000000000000000000000000000000000000000000000000000000000000000000000000
310
00000000000000000000000000000000000000000000000000000000000000000000000000000000000000000000000000000000000000000000000000000000000000000000000000000000000000000000000000000000000000000000000000000000000000000000000000000000000000000000000000000000000000
310
00000000000000000000000000000000000000000000000000000000000000000000000000000000000000000000000000000000000000000000000000000000000000000000000000000000000000000000000000000000000000000000000000000000000000000000000000000000000000000000000000000000000000
310
00000000000000000000000000000000000000000000000000000000000000000000000000000000000000000000000000000000000000000000000000000000000000000000000000000000000000000000000000000000000000000000000000000000000000000000000000000000000000000000000000000000000000
310
00000000000000000000000000000000000000000000000000000000000000000000000000000000000000000000000000000000000000000000000000000000000000000000000000000000000000000000000000000000000000000000000000000000000000000000000000000000000000000000000000000000000000
310
00000000000000000000000000000000000000000000000000000000000000000000000000000000000000000000000000000000000000000000000000000000000000000000000000000000000000000000000000000000000000000000000000000000000000000000000000000000000000000000000000000000000000
310
00000000000000000000000000000000000000000000000000000000000000000000000000000000000000000000000000000000000000000000000000000000000000000000000000000000000000000000000000000000000000000000000000000000000000000000000000000000000000000000000000000000000000
310
00000000000000000000000000000000000000000000000000000000000000000000000000000000000000000000000000000000000000000000000000000000000000000000000000000000000000000000000000000000000000000000000000000000000000000000000000000000000000000000000000000000000000
310
00000000000000000000000000000000000000000000000000000000000000000000000000000000000000000000000000000000000000000000000000000000000000000000000000000000000000000000000000000000000000000000000000000000000000000000000000000000000000000000000000000000000000
310
00000000000000000000000000000000000000000000000000000000000000000000000000000000000000000000000000000000000000000000000000000000000000000000000000000000000000000000000000000000000000000000000000000000000000000000000000000000000000000000000000000000000000
310
00000000000000000000000000000000000000000000000000000000000000000000000000000000000000000000000000000000000000000000000000000000000000000000000000000000000000000000000000000000000000000000000000000000000000000000000000000000000000000000000000000000000000
310
00000000000000000000000000000000000000000000000000000000000000000000000000000000000000000000000000000000000000000000000000000000000000000000000000000000000000000000000000000000000000000000000000000000000000000000000000000000000000000000000000000000000000
310
00000000000000000000000000000000000000000000000000000000000000000000000000000000000000000000000000000000000000000000000000000000000000000000000000000000000000000000000000000000000000000000000000000000000000000000000000000000000000000000000000000000000000
310
00000000000000000000000000000000000000000000000000000000000000000000000000000000000000000000000000000000000000000000000000000000000000000000000000000000000000000000000000000000000000000000000000000000000000000000000000000000000000000000000000000000000000
310
00000000000000000000000000000000000000000000000000000000000000000000000000000000000000000000000000000000000000000000000000000000000000000000000000000000000000000000000000000000000000000000000000000000000000000000000000000000000000000000000000000000000000
310
00000000000000000000000000000000000000000000000000000000000000000000000000000000000000000000000000000000000000000000000000000000000000000000000000000000000000000000000000000000000000000000000000000000000000000000000000000000000000000000000000000000000000
310
00000000000000000000000000000000000000000000000000000000000000000000000000000000000000000000000000000000000000000000000000000000000000000000000000000000000000000000000000000000000000000000000000000000000000000000000000000000000000000000000000000000000000
310
00000000000000000000000000000000000000000000000000000000000000000000000000000000000000000000000000000000000000000000000000000000000000000000000000000000000000000000000000000000000000000000000000000000000000000000000000000000000000000000000000000000000000
310
00000000000000000000000000000000000000000000000000000000000000000000000000000000000000000000000000000000000000000000000000000000000000000000000000000000000000000000000000000000000000000000000000000000000000000000000000000000000000000000000000000000000000
310
00000000000000000000000000000000000000000000000000000000000000000000000000000000000000000000000000000000000000000000000000000000000000000000000000000000000000000000000000000000000000000000000000000000000000000000000000000000000000000000000000000000000000
310
00000000000000000000000000000000000000000000000000000000000000000000000000000000000000000000000000000000000000000000000000000000000000000000000000000000000000000000000000000000000000000000000000000000000000000000000000000000000000000000000000F5F5F5F5F5F5
310
F5F5F5F5F5F5F5F5F5F5F5F5F5F5F5F5F5F5F5F5F5F5F5F5F5F5F5F5F5F5F5F5F5F5F5F5F5F5F5F5F5F5F5F5F5F5F5F5F5F5F5F5F5F5F5F5F5F5F5F5F5F5F5F5F5F5F5F5F5F5F5F5F5F5F5F5F5F5F5F5F5F5F5F5F5000000000000000000000000000000000000000000000000000000000000000000000000000000000000
310
000000000000000000000000000000000000000000000000000000000000000000000000000000000000000000000000000000000000000000000000000000000000000000000000000000000000000000000000000000000000000000000000000000000000000000000000000000000000000000000000000000F5000000
310
0000000000000000000000000000000000000000000000000000000000000000000000000000000000000000000000000000000000000000000000000000000000000000000000000000000000000000000000000000F500000000000000000000000000000000000000000000000000000000000000000000000000000000
310
0000000000000000000000000000000000000000000000000000000000000000000000000000000000000000000000000000000000000000000000000000000000000000000000000000000000000000000000000000000000000000000000000000000000000000000000000000000000000000000000000000000000F500
310
00000000000000000000000000000000000000000000000000000000000000000000000000000000000000000000000000000000000000000000000000000000000000000000000000000000000000000000000000000000F50000000000000000000000000000000000000000000000000000000000000000000000000000
310
00000000000000000000000000000000000000000000000000000000000000000000000000000000000000000000000000000000000000000000000000000000000000000000000000000000000000000000000000000000000000000000000000000000000000000000000000000000000000000000000000000000000000
310
F50000000000000000000000000000000000000000000000000000000000000000000000000000000000000000000000000000000000000000000000000000000000000000000000000000000000000000000000000000000000F5000000000000000000000000000000000000000000000000000000000000000000000000
310
00000000000000000000000000000000000000000000000000000000000000000000000000000000000000000000000000000000000000000000000000000000000000000000000000000000000000000000000000000000000000000000000000000000000000000000000000000000000000000000000000000000000000
310
0000F50000000000000000000000000000000000000000000000000000000000000000000000000000000000000000000000000000000000000000000000000000000000000000000000000000000000000000000000000000000000F500000000000000000000000000000000000000000000000000000000000000000000
310
00000000000000000000000000000000000000000000000000000000000000000000000000000000000000000000000000000000000000000000000000000000000000000000000000000000000000000000000000000000000000000000000000000000000000000000000000000000000000000000000000000000000000
310
00000000F50000000000000000000000000000000000000000000000000000000000000000000000000000000000000000000000000000000000000000000000000000000000000000000000000000000000000000000000000000000000F50000000000000000000000000000000000000000000000000000000000000000
310
00000000000000000000000000000000000000000000000000000000000000000000000000000000000000000000000000000000000000000000000000000000000000000000000000000000000000000000000000000000000000000000000000000000000000000000000000000000000000000000000000000000000000
310
000000000000F50000000000000000000000000000000000000000000000000000000000000000000000000000000000000000000000000000000000000000000000000000000000000000000000000000000000000000000000000000000000F5000000000000000000000000000000000000000000000000000000000000
310
00000000000000000000000000000000000000000000000000000000000000000000000000000000000000000000000000000000000000000000000000000000000000000000000000000000000000000000000000000000000000000000000000000000000000000000000000000000000000000000000000000000000000
310
0000000000000000F50000000000000000000000000000000000000000000000000000000000000000000000000000000000000000000000000000000000000000000000000000000000000000000000000000000000000000000000000000000000F500000000000000000000000000000000000000000000000000000000
310
00000000000000000000000000000000000000000000000000000000000000000000000000000000000000000000000000000000000000000000000000000000000000000000000000000000000000000000000000000000000000000000000000000000000000000000000000000000000000000000000000000000000000
310
00000000000000000000F50000000000000000000000000000000000000000000000000000000000000000000000000000000000000000000000000000000000000000000000000000000000000000000000000000000000000000000000000000000000F50000000000000000000000000000000000000000000000000000
310
00000000000000000000000000000000000000000000000000000000000000000000000000000000000000000000000000000000000000000000000000000000000000000000000000000000000000000000000000000000000000000000000000000000000000000000000000000000000000000000000000000000000000
310
000000000000000000000000F50000000000000000000000000000000000000000000000000000000000000000000000000000000000000000000000000000000000000000000000000000000000000000000000000000000000000000000000000000000000F5000000000000000000000000000000000000000000000000
310
00000000000000000000000000000000000000000000000000000000000000000000000000000000000000000000000000000000000000000000000000000000000000000000000000000000000000000000000000000000000000000000000000000000000000000000000000000000000000000000000000000000000000
310
0000000000000000000000000000F50000000000000000000000000000000000000000000000000000000000000000000000000000000000000000000000000000000000000000000000000000000000000000000000000000000000000000000000000000000000F500000000000000000000000000000000000000000000
310
00000000000000000000000000000000000000000000000000000000000000000000000000000000000000000000000000000000000000000000000000000000000000000000000000000000000000000000000000000000000000000000000000000000000000000000000000000000000000000000000000000000000000
310
00000000000000000000000000000000F50000000000000000000000000000000000000000000000000000000000000000000000000000000000000000000000000000000000000000000000000000000000000000000000000000000000000000000000000000000000F50000000000000000000000000000000000000000
310
00000000000000000000000000000000000000000000000000000000000000000000000000000000000000000000000000000000000000000000000000000000000000000000000000000000000000000000000000000000000000000000000000000000000000000000000000000000000000000000000000000000000000
310
000000000000000000000000000000000000F50000000000000000000000000000000000000000000000000000000000000000000000000000000000000000000000000000000000000000000000000000000000000000000000000000000000000000000000000000000000F5000000000000000000000000000000000000
310
00000000000000000000000000000000000000000000000000000000000000000000000000000000000000000000000000000000000000000000000000000000000000000000000000000000000000000000000000000000000000000000000000000000000000000000000000000000000000000000000000000000000000
310
0000000000000000000000000000000000000000F50000000000000000000000000000000000000000000000000000000000000000000000000000000000000000000000000000000000000000000000000000000000000000000000000000000000000000000000000000000000F500000000000000000000000000000000
310
00000000000000000000000000000000000000000000000000000000000000000000000000000000000000000000000000000000000000000000000000000000000000000000000000000000000000000000000000000000000000000000000000000000000000000000000000000000000000000000000000000000000000
310
00000000000000000000000000000000000000000000F50000000000000000000000000000000000000000000000000000000000000000000000000000000000000000000000000000000000000000000000000000000000000000000000000000000000000000000000000000000000F50000000000000000000000000000
310
00000000000000000000000000000000000000000000000000000000000000000000000000000000000000000000000000000000000000000000000000000000000000000000000000000000000000000000000000000000000000000000000000000000000000000000000000000000000000000000000000000000000000
310
000000000000000000000000000000000000000000000000F50000000000000000000000000000000000000000000000000000000000000000000000000000000000000000000000000000000000000000000000000000000000000000000000000000000000000000000000000000000000F5000000000000000000000000
310
00000000000000000000000000000000000000000000000000000000000000000000000000000000000000000000000000000000000000000000000000000000000000000000000000000000000000000000000000000000000000000000000000000000000000000000000000000000000000000000000000000000000000
310
0000000000000000000000000000000000000000000000000000F50000000000000000000000000000000000000000000000000000000000000000000000000000000000000000000000000000000000000000000000000000000000000000000000000000000000000000000000000000000000F500000000000000000000
310
00000000000000000000000000000000000000000000000000000000000000000000000000000000000000000000000000000000000000000000000000000000000000000000000000000000000000000000000000000000000000000000000000000000000000000000000000000000000000000000000000000000000000
310
00000000000000000000000000000000000000000000000000000000F50000000000000000000000000000000000000000000000000000000000000000000000000000000000000000000000000000000000000000000000000000000000000000000000000000000000000000000000000000000000F50000000000000000
310
00000000000000000000000000000000000000000000000000000000000000000000000000000000000000000000000000000000000000000000000000000000000000000000000000000000000000000000000000000000000000000000000000000000000000000000000000000000000000000000000000000000000000
310
000000000000000000000000000000000000000000000000000000000000F50000000000000000000000000000000000000000000000000000000000000000000000000000000000000000000000000000000000000000000000000000000000000000000000000000000000000000000000000000000000F5000000000000
310
00000000000000000000000000000000000000000000000000000000000000000000000000000000000000000000000000000000000000000000000000000000000000000000000000000000000000000000000000000000000000000000000000000000000000000000000000000000000000000000000000000000000000
310
0000000000000000000000000000000000000000000000000000000000000000F50000000000000000000000000000000000000000000000000000000000000000000000000000000000000000000000000000000000000000000000000000000000000000000000000000000000000000000000000000000000F500000000
310
00000000000000000000000000000000000000000000000000000000000000000000000000000000000000000000000000000000000000000000000000000000000000000000000000000000000000000000000000000000000000000000000000000000000000000000000000000000000000000000000000000000000000
310
00000000000000000000000000000000000000000000000000000000000000000000F50000000000000000000000000000000000000000000000000000000000000000000000000000000000000000000000000000000000000000000000000000000000000000000000000000000000000000000000000000000000F50000
310
00000000000000000000000000000000000000000000000000000000000000000000000000000000000000000000000000000000000000000000000000000000000000000000000000000000000000000000000000000000000000000000000000000000000000000000000000000000000000000000000000000000000000
310
000000000000000000000000000000000000000000000000000000000000000000000000F50000000000000000000000000000000000000000000000000000000000000000000000000000000000000000000000000000000000000000000000000000000000000000000000000000000000000000000000000000000000F5
310
00000000000000000000000000000000000000000000000000000000000000000000000000000000000000000000000000000000000000000000000000000000000000000000000000000000000000000000000000000000000000000000000000000000000000000000000000000000000000000000000000000000000000
310
0000000000000000000000000000000000000000000000000000000000000000000000000000F500000000000000000000000000000000000000000000000000000000000000000000000000000000000000000000000000000000000000000000000000000000000000000000000000000000000000000000000000000000
310
00F50000000000000000000000000000000000000000000000000000000000000000000000000000000000000000000000000000000000000000000000000000000000000000000000000000000000000000000000000000000000000000000000000000000000000000000000000000000000000000000000000000000000
310
00000000000000000000000000000000000000000000000000000000000000000000000000000000F50000000000000000000000000000000000000000000000000000000000000000000000000000000000000000000000000000000000000000000000000000000000000000000000000000000000000000000000000000
310
000000F5000000000000000000000000000000000000000000000000000000000000000000000000000000000000000000000000000000000000000000000000000000000000000000000000000000000000000000000000000000000000000000000000000000000000000000000000000000000000000000000000000000
310
000000000000000000000000000000000000000000000000000000000000000000000000000000000000F5000000000000000000000000000000000000000000000000000000000000000000000000000000000000000000000000000000000000000000000000000000000000000000000000000000000000000000000000
310
0000000000F500000000000000000000000000000000000000000000000000000000000000000000000000000000000000000000000000000000000000000000000000000000000000000000000000000000000000000000000000000000000000000000000000000000000000000000000000000000000000000000000000
310
0000000000000000000000000000000000000000000000000000000000000000000000000000000000000000F500000000000000000000000000000000000000000000000000000000000000000000000000000000000000000000000000000000000000000000000000000000000000000000000000000000000000000000
310
00000000000000F50000000000000000000000000000000000000000000000000000000000000000000000000000000000000000000000000000000000000000000000000000000000000000000000000000000000000000000000000000000000000000000000000000000000000000000000000000000000000000000000
310
00000000000000000000000000000000000000000000000000000000000000000000000000000000000000000000F50000000000000000000000000000000000000000000000000000000000000000000000000000000000000000000000000000000000000000000000000000000000000000000000000000000000000000
310
000000000000000000F5000000000000000000000000000000000000000000000000000000000000000000000000000000000000000000000000000000000000000000000000000000000000000000000000000000000000000000000000000000000000000000000000000000000000000000000000000000000000000000
310
000000000000000000000000000000000000000000000000000000000000000000000000000000000000000000000000F5000000000000000000000000000000000000000000000000000000000000000000000000000000000000000000000000000000000000000000000000000000000000000000000000000000000000
310
0000000000000000000000F500000000000000000000000000000000000000000000000000000000000000000000000000000000000000000000000000000000000000000000000000000000000000000000000000000000000000000000000000000000000000000000000000000000000000000000000000000000000000
310
0000000000000000000000000000000000000000000000000000000000000000000000000000000000000000000000000000F500000000000000000000000000000000000000000000000000000000000000000000000000000000000000000000000000000000000000000000000000000000000000000000000000000000
310
00000000000000000000000000F50000000000000000000000000000000000000000000000000000000000000000000000000000000000000000000000000000000000000000000000000000000000000000000000000000000000000000000000000000000000000000000000000000000000000000000000000000000000
310
00000000000000000000000000000000000000000000000000000000000000000000000000000000000000000000000000000000F50000000000000000000000000000000000000000000000000000000000000000000000000000000000000000000000000000000000000000000000000000000000000000000000000000
310
000000000000000000000000000000F5000000000000000000000000000000000000000000000000000000000000000000000000000000000000000000000000000000000000000000000000000000000000000000000000000000000000000000000000000000000000000000000000000000000000000000000000000000
310
000000000000000000000000000000000000000000000000000000000000000000000000000000000000000000000000000000000000F5000000000000000000000000000000000000000000000000000000000000000000000000000000000000000000000000000000000000000000000000000000000000000000000000
310
0000000000000000000000000000000000F500000000000000000000000000000000000000000000000000000000000000000000000000000000000000000000000000000000000000000000000000000000000000000000000000000000000000000000000000000000000000000000000000000000000000000000000000
310
00000000000000000000000000000000000000000000000000000000000000000000000000000000000000000000000000000000F5F5F5F5F500000000000000000000000000000000000000000000000000000000000000000000000000000000000000000000000000000000000000000000000000000000000000000000
310
00000000000000000000000000000000000000F50000000000000000000000000000000000000000000000000000000000000000000000000000000000000000000000000000000000000000000000000000000000000000000000000000000000000000000000000000000000000000000000000000000000000000000000
310
00000000000000000000000000000000000000000000000000000000000000000000000000000000000000000000000000000000000000000000F50000000000000000000000000000000000000000000000000000000000000000000000000000000000000000000000000000000000000000000000000000000000000000
310
000000000000000000000000000000000000000000F5000000000000000000000000000000000000000000000000000000000000000000000000000000000000000000000000000000000000000000000000000000000000000000000000000000000000000000000000000000000000000000000000000000000000000000
310
000000000000000000000000000000000000000000000000000000000000000000000000000000000000000000000000000000000000000000000000F5000000000000000000000000000000000000000000000000000000000000000000000000000000000000000000000000000000000000000000000000000000000000
310
0000000000000000000000000000000000000000000000F500000000000000000000000000000000000000000000000000000000000000000000000000000000000000000000000000000000000000000000000000000000000000000000000000000000000000000000000000000000000000000000000000000000000000
310
0000000000000000000000000000000000000000000000000000000000000000000000000000000000000000000000000000000000000000000000000000F500000000000000000000000000000000000000000000000000000000000000000000000000000000000000000000000000000000000000000000000000000000
310
00000000000000000000000000000000000000000000000000F50000000000000000000000000000000000000000000000000000000000000000000000000000000000000000000000000000000000000000000000000000000000000000000000000000000000000000000000000000000000000000000000000000000000
310
00000000000000000000000000000000000000000000000000000000000000000000000000000000000000000000000000000000000000000000000000000000F50000000000000000000000000000000000000000000000000000000000000000000000000000000000000000000000000000000000000000000000000000
310
000000000000000000000000000000000000000000000000000000F5000000000000000000000000000000000000000000000000000000000000000000000000000000000000000000000000000000000000000000000000000000000000000000000000000000000000000000000000000000000000000000000000000000
310
000000000000000000000000000000000000000000000000000000000000000000000000000000000000000000000000000000000000000000000000000000000000F5000000000000000000000000000000000000000000000000000000000000000000000000000000000000000000000000000000000000000000000000
310
0000000000000000000000000000000000000000000000000000000000F500000000000000000000000000000000000000000000000000000000000000000000000000000000000000000000000000000000000000000000000000000000000000000000000000000000000000000000000000000000000000000000000000
310
0000000000000000000000000000000000000000000000000000000000000000000000000000000000000000000000000000000000000000000000000000000000000000F500000000000000000000000000000000000000000000000000000000000000000000000000000000000000000000000000000000000000000000
310
00000000000000000000000000000000000000000000000000000000000000F50000000000000000000000000000000000000000000000000000000000000000000000000000000000000000000000000000000000000000000000000000000000000000000000000000000000000000000000000000000000000000000000
310
00000000000000000000000000000000000000000000000000000000000000000000000000000000000000000000000000000000000000000000000000000000000000000000F50000000000000000000000000000000000000000000000000000000000000000000000000000000000000000000000000000000000000000
310
000000000000000000000000000000000000000000000000000000000000000000F5000000000000000000000000000000000000000000000000000000000000000000000000000000000000000000000000000000000000000000000000000000000000000000000000000000000000000000000000000000000000000000
310
000000000000000000000000000000000000000000000000000000000000000000000000000000000000000000000000000000000000000000000000000000000000000000000000F5000000000000000000000000000000000000000000000000000000000000000000000000000000000000000000000000000000000000
310
0000000000000000000000000000000000000000000000000000000000000000000000F500000000000000000000000000000000000000000000000000000000000000000000000000000000000000000000000000000000000000000000000000000000000000000000000000000000000000000000000000000000000000
310
0000000000000000000000000000000000000000000000000000000000000000000000000000000000000000000000000000000000000000000000000000000000000000000000000000F500000000000000000000000000000000000000000000000000000000000000000000000000000000000000000000000000000000
310
00000000000000000000000000000000000000000000000000000000000000000000000000F50000000000000000000000000000000000000000000000000000000000000000000000000000000000000000000000000000000000000000000000000000000000000000000000000000000000000000000000000000000000
310
00000000000000000000000000000000000000000000000000000000000000000000000000000000000000000000000000000000000000000000000000000000000000000000000000000000F50000000000000000000000000000000000000000000000000000000000000000000000000000000000000000000000000000
310
000000000000000000000000000000000000000000000000000000000000000000000000000000F5000000000000000000000000000000000000000000000000000000000000000000000000000000000000000000000000000000000000000000000000000000000000000000000000000000000000000000000000000000
310
000000000000000000000000000000000000000000000000000000000000000000000000000000000000000000000000000000000000000000000000000000000000000000000000000000000000F5000000000000000000000000000000000000000000000000000000000000000000000000000000000000000000000000
310
0000000000000000000000000000000000000000000000000000000000000000000000000000000000F500000000000000000000000000000000000000000000000000000000000000000000000000000000000000000000000000000000000000000000000000000000000000000000000000000000000000000000000000
310
0000000000000000000000000000000000000000000000000000000000000000000000000000000000000000000000000000000000000000000000000000000000000000000000000000000000000000F500000000000000000000000000000000000000000000000000000000000000000000000000000000000000000000
310
00000000000000000000000000000000000000000000000000000000000000000000000000000000000000F50000000000000000000000000000000000000000000000000000000000000000000000000000000000000000000000000000000000000000000000000000000000000000000000000000000000000000000000
310
00000000000000000000000000000000000000000000000000000000000000000000000000000000000000000000000000000000000000000000000000000000000000000000000000000000000000000000F50000000000000000000000000000000000000000000000000000000000000000000000000000000000000000
310
000000000000000000000000000000000000000000000000000000000000000000000000000000000000000000F5000000000000000000000000000000000000000000000000000000000000000000000000000000000000000000000000000000000000000000000000000000000000000000000000000000000000000000
310
000000000000000000000000000000000000000000000000000000000000000000000000000000000000000000000000000000000000000000000000000000000000000000000000000000000000000000000000F5000000000000000000000000000000000000000000000000000000000000000000000000000000000000
310
0000000000000000000000000000000000000000000000000000000000000000000000000000000000000000000000F500000000000000000000000000000000000000000000000000000000000000000000000000000000000000000000000000000000000000000000000000000000000000000000000000000000000000
310
0000000000000000000000000000000000000000000000000000000000000000000000000000000000000000000000000000000000000000000000000000000000000000000000000000000000000000000000000000F500000000000000000000000000000000000000000000000000000000000000000000000000000000
310
00000000000000000000000000000000000000000000000000000000000000000000000000000000000000000000000000F50000000000000000000000000000000000000000000000000000000000000000000000000000000000000000000000000000000000000000000000000000000000000000000000000000000000
310
00000000000000000000000000000000000000000000000000000000000000000000000000000000000000000000000000000000000000000000000000000000000000000000000000000000000000000000000000000000F50000000000000000000000000000000000000000000000000000000000000000000000000000
310
000000000000000000000000000000000000000000000000000000000000000000000000000000000000000000000000000000F5000000000000000000000000000000000000000000000000000000000000000000000000000000000000000000000000000000000000000000000000000000000000000000000000000000
310
000000000000000000000000000000000000000000000000000000000000000000000000000000000000000000000000000000000000000000000000000000000000000000000000000000000000000000000000000000000000F5000000000000000000000000000000000000000000000000000000000000000000000000
310
0000000000000000000000000000000000000000000000000000000000000000000000000000000000000000000000000000000000F500000000000000000000000000000000000000000000000000000000000000000000000000000000000000000000000000000000000000000000000000000000000000000000000000
310
0000000000000000000000000000000000000000000000000000000000000000000000000000000000000000000000000000000000000000000000000000000000000000000000000000000000000000000000000000000000000000F500000000000000000000000000000000000000000000000000000000000000000000
310
00000000000000000000000000000000000000000000000000000000000000000000000000000000000000000000000000000000000000F50000000000000000000000000000000000000000000000000000000000000000000000000000000000000000000000000000000000000000000000000000000000000000000000
310
00000000000000000000000000000000000000000000000000000000000000000000000000000000000000000000000000000000000000000000000000000000000000000000000000000000000000000000000000000000000000000000F50000000000000000000000000000000000000000000000000000000000000000
310
000000000000000000000000000000000000000000000000000000000000000000000000000000000000000000000000000000000000000000F5000000000000000000000000000000000000000000000000000000000000000000000000000000000000000000000000000000000000000000000000000000000000000000
310
000000000000000000000000000000000000000000000000000000000000000000000000000000000000000000000000000000000000000000000000000000000000000000000000000000000000000000000000000000000000000000000000F5000000000000000000000000000000000000000000000000000000000000
310
0000000000000000000000000000000000000000000000000000000000000000000000000000000000000000000000000000000000000000000000F500000000000000000000000000000000000000000000000000000000000000000000000000000000000000000000000000000000000000000000000000000000000000
310
0000000000000000000000000000000000000000000000000000000000000000000000000000000000000000000000000000000000000000000000000000000000000000000000000000000000000000000000000000000000000000000000000000F500000000000000000000000000000000000000000000000000000000
310
00000000000000000000000000000000000000000000000000000000000000000000000000000000000000000000000000000000000000000000000000F50000000000000000000000000000000000000000000000000000000000000000000000000000000000000000000000000000000000000000000000000000000000
310
00000000000000000000000000000000000000000000000000000000000000000000000000000000000000000000000000000000000000000000000000000000000000000000000000000000000000000000000000000000000000000000000000000000F50000000000000000000000000000000000000000000000000000
310
000000000000000000000000000000000000000000000000000000000000000000000000000000000000000000000000000000000000000000000000000000F5000000000000000000000000000000000000000000000000000000000000000000000000000000000000000000000000000000000000000000000000000000
310
000000000000000000000000000000000000000000000000000000000000000000000000000000000000000000000000000000000000000000000000000000000000000000000000000000000000000000000000000000000000000000000000000000000000F5000000000000000000000000000000000000000000000000
310
0000000000000000000000000000000000000000000000000000000000000000000000000000000000000000000000000000000000000000000000000000000000F500000000000000000000000000000000000000000000000000000000000000000000000000000000000000000000000000000000000000000000000000
310
0000000000000000000000000000000000000000000000000000000000000000000000000000000000000000000000000000000000000000000000000000000000000000000000000000000000000000000000000000000000000000000000000000000000000000F500000000000000000000000000000000000000000000
310
00000000000000000000000000000000000000000000000000000000000000000000000000000000000000000000000000000000000000000000000000000000000000F50000000000000000000000000000000000000000000000000000000000000000000000000000000000000000000000000000000000000000000000
310
00000000000000000000000000000000000000000000000000000000000000000000000000000000000000000000000000000000000000000000000000000000000000000000000000000000000000000000000000000000000000000000000000000000000000000000F50000000000000000000000000000000000000000
310
000000000000000000000000000000000000000000000000000000000000000000000000000000000000000000000000000000000000000000000000000000000000000000F5000000000000000000000000000000000000000000000000000000000000000000000000000000000000000000000000000000000000000000
310
000000000000000000000000000000000000000000000000000000000000000000000000000000000000000000000000000000000000000000000000000000000000000000000000000000000000000000000000000000000000000000000000000000000000000000000000F5000000000000000000000000000000000000
310
0000000000000000000000000000000000000000000000000000000000000000000000000000000000000000000000000000000000000000000000000000000000000000000000F500000000000000000000000000000000000000000000000000000000000000000000000000000000000000000000000000000000000000
310
0000000000000000000000000000000000000000000000000000000000000000000000000000000000000000000000000000000000000000000000000000000000000000000000000000000000000000000000000000000000000000000000000000000000000000000000000000F500000000000000000000000000000000
310
00000000000000000000000000000000000000000000000000000000000000000000000000000000000000000000000000000000000000000000000000000000000000000000000000F50000000000000000000000000000000000000000000000000000000000000000000000000000000000000000000000000000000000
310
00000000000000000000000000000000000000000000000000000000000000000000000000000000000000000000000000000000000000000000000000000000000000000000000000000000000000000000000000000000000000000000000000000000000000000000000000000000F50000000000000000000000000000
310
000000000000000000000000000000000000000000000000000000000000000000000000000000000000000000000000000000000000000000000000000000000000000000000000000000F5000000000000000000000000000000000000000000000000000000000000000000000000000000000000000000000000000000
310
000000000000000000000000000000000000000000000000000000000000000000000000000000000000000000000000000000000000000000000000000000000000000000000000000000000000000000000000000000000000000000000000000000000000000000000000000000000000F5000000000000000000000000
310
0000000000000000000000000000000000000000000000000000000000000000000000000000000000000000000000000000000000000000000000000000000000000000000000000000000000F500000000000000000000000000000000000000000000000000000000000000000000000000000000000000000000000000
310
0000000000000000000000000000000000000000000000000000000000000000000000000000000000000000000000000000000000000000000000000000000000000000000000000000000000000000000000000000000000000000000000000000000000000000000000000000000000000000F500000000000000000000
310
00000000000000000000000000000000000000000000000000000000000000000000000000000000000000000000000000000000000000000000000000000000000000000000000000000000000000F50000000000000000000000000000000000000000000000000000000000000000000000000000000000000000000000
310
00000000000000000000000000000000000000000000000000000000000000000000000000000000000000000000000000000000000000000000000000000000000000000000000000000000000000000000000000000000000000000000000000000000000000000000000000000000000000000000F50000000000000000
310
000000000000000000000000000000000000000000000000000000000000000000000000000000000000000000000000000000000000000000000000000000000000000000000000000000000000000000F5000000000000000000000000000000000000000000000000000000000000000000000000000000000000000000
310
000000000000000000000000000000000000000000000000000000000000000000000000000000000000000000000000000000000000000000000000000000000000000000000000000000000000000000000000000000000000000000000000000000000000000000000000000000000000000000000000F5F5F5F5F5F5F5
310
F5F5F5F5F5F5F5F5F5F5F5F5F5F5F5F5F5F5F5F5F5F5F5F5F5F5F5F5F5F5F5F5F5F5F5F5F5F5F5F5F5F5F5F5F5F5F5F5F5F5F5F5F5F5F5F5F5F5F5F5F5F5F5F5F5F5F5F5F5F5F5F5F5F5F5F5F5F5F5F5F5F5F5F500000000000000000000000000000000000000000000000000000000000000000000000000000000000000
310
00000000000000000000000000000000000000000000000000000000000000000000000000000000000000000000000000000000000000000000000000000000000000000000000000000000000000000000000000000000000000000000000000000000000000000000000000000000000000000000000000000000000000
310
00000000000000000000000000000000000000000000000000000000000000000000000000000000000000000000000000000000000000000000000000000000000000000000000000000000000000000000000000000000000000000000000000000000000000000000000000000000000000000000000000000000000000
310
00000000000000000000000000000000000000000000000000000000000000000000000000000000000000000000000000000000000000000000000000000000000000000000000000000000000000000000000000000000000000000000000000000000000000000000000000000000000000000000000000000000000000
310
00000000000000000000000000000000000000000000000000000000000000000000000000000000000000000000000000000000000000000000000000000000000000000000000000000000000000000000000000000000000000000000000000000000000000000000000000000000000000000000000000000000000000
310
00000000000000000000000000000000000000000000000000000000000000000000000000000000000000000000000000000000000000000000000000000000000000000000000000000000000000000000000000000000000000000000000000000000000000000000000000000000000000000000000000000000000000
310
00000000000000000000000000000000000000000000000000000000000000000000000000000000000000000000000000000000000000000000000000000000000000000000000000000000000000000000000000000000000000000000000000000000000000000000000000000000000000000000000000000000000000
310
00000000000000000000000000000000000000000000000000000000000000000000000000000000000000000000000000000000000000000000000000000000000000000000000000000000000000000000000000000000000000000000000000000000000000000000000000000000000000000000000000000000000000
310
00000000000000000000000000000000000000000000000000000000000000000000000000000000000000000000000000000000000000000000000000000000000000000000000000000000000000000000000000000000000000000000000000000000000000000000000000000000000000000000000000000000000000
310
00000000000000000000000000000000000000000000000000000000000000000000000000000000000000000000000000000000000000000000000000000000000000000000000000000000000000000000000000000000000000000000000000000000000000000000000000000000000000000000000000000000000000
310
00000000000000000000000000000000000000000000000000000000000000000000000000000000000000000000000000000000000000000000000000000000000000000000000000000000000000000000000000000000000000000000000000000000000000000000000000000000000000000000000000000000000000
310
00000000000000000000000000000000000000000000000000000000000000000000000000000000000000000000000000000000000000000000000000000000000000000000000000000000000000000000000000000000000000000000000000000000000000000000000000000000000000000000000000000000000000
310
00000000000000000000000000000000000000000000000000000000000000000000000000000000000000000000000000000000000000000000000000000000000000000000000000000000000000000000000000000000000000000000000000000000000000000000000000000000000000000000000000000000000000
310
00000000000000000000000000000000000000000000000000000000000000000000000000000000000000000000000000000000000000000000000000000000000000000000000000000000000000000000000000000000000000000000000000000000000000000000000000000000000000000000000000000000000000
310
00000000000000000000000000000000000000000000000000000000000000000000000000000000000000000000000000000000000000000000000000000000000000000000000000000000000000000000000000000000000000000000000000000000000000000000000000000000000000000000000000000000000000
310
00000000000000000000000000000000000000000000000000000000000000000000000000000000000000000000000000000000000000000000000000000000000000000000000000000000000000000000000000000000000000000000000000000000000000000000000000000000000000000000000000000000000000
310
00000000000000000000000000000000000000000000000000000000000000000000000000000000000000000000000000000000000000000000000000000000000000000000000000000000000000000000000000000000000000000000000000000000000000000000000000000000000000000000000000000000000000
310
00000000000000000000000000000000000000000000000000000000000000000000000000000000000000000000000000000000000000000000000000000000000000000000000000000000000000000000000000000000000000000000000000000000000000000000000000000000000000000000000000000000000000
310
00000000000000000000000000000000000000000000000000000000000000000000000000000000000000000000000000000000000000000000000000000000000000000000000000000000000000000000000000000000000000000000000000000000000000000000000000000000000000000000000000000000000000
310
00000000000000000000000000000000000000000000000000000000000000000000000000000000000000000000000000000000000000000000000000000000000000000000000000000000000000000000000000000000000000000000000000000000000000000000000000000000000000000000000000000000000000
310
00000000000000000000000000000000000000000000000000000000000000000000000000000000000000000000000000000000000000000000000000000000000000000000000000000000000000000000000000000000000000000000000000000000000000000000000000000000000000000000000000000000000000
310
00000000000000000000000000000000000000000000000000000000000000000000000000000000000000000000000000000000000000000000000000000000000000000000000000000000000000000000000000000000000000000000000000000000000000000000000000000000000000000000000000000000000000
310
00000000000000000000000000000000000000000000000000000000000000000000000000000000000000000000000000000000000000000000000000000000000000000000000000000000000000000000000000000000000000000000000000000000000000000000000000000000000000000000000000000000000000
310
00000000000000000000000000000000000000000000000000000000000000000000000000000000000000000000000000000000000000000000000000000000000000000000000000000000000000000000000000000000000000000000000000000000000000000000000000000000000000000000000000000000000000
310
00000000000000000000000000000000000000000000000000000000000000000000000000000000000000000000000000000000000000000000000000000000000000000000000000000000000000000000000000000000000000000000000000000000000000000000000000000000000000000000000000000000000000
310
00000000000000000000000000000000000000000000000000000000000000000000000000000000000000000000000000000000000000000000000000000000000000000000000000000000000000000000000000000000000000000000000000000000000000000000000000000000000000000000000000000000000000
310
00000000000000000000000000000000000000000000000000000000000000000000000000000000000000000000000000000000000000000000000000000000000000000000000000000000000000000000000000000000000000000000000000000000000000000000000000000000000000000000000000000000000000
310
00000000000000000000000000000000000000000000000000000000000000000000000000000000000000000000000000000000000000000000000000000000000000000000000000000000000000000000000000000000000000000000000000000000000000000000000000000000000000000000000000000000000000
310
00000000000000000000000000000000000000000000000000000000000000000000000000000000000000000000000000000000000000000000000000000000000000000000000000000000000000000000000000000000000000000000000000000000000000000000000000000000000000000000000000000000000000
310
00000000000000000000000000000000000000000000000000000000000000000000000000000000000000000000000000000000000000000000000000000000000000000000000000000000000000000000000000000000000000000000000000000000000000000000000000000000000000000000000000000000000000
310
00000000000000000000000000000000000000000000000000000000000000000000000000000000000000000000000000000000000000000000000000000000000000000000000000000000000000000000000000000000000000000000000000000000000000000000000000000000000000000000000000000000000000
310
00000000000000000000000000000000000000000000000000000000000000000000000000000000000000000000000000000000000000000000000000000000000000000000000000000000000000000000000000000000000000000000000000000000000000000000000000000000000000000000000000000000000000
310
00000000000000000000000000000000000000000000000000000000000000000000000000000000000000000000000000000000000000000000000000000000000000000000000000000000000000000000000000000000000000000000000000000000000000000000000000000000000000000000000000000000000000
310
00000000000000000000000000000000000000000000000000000000000000000000000000000000000000000000000000000000000000000000000000000000000000000000000000000000000000000000000000000000000000000000000000000000000000000000000000000000000000000000000000000000000000
310
00000000000000000000000000000000000000000000000000000000000000000000000000000000000000000000000000000000000000000000000000000000000000000000000000000000000000000000000000000000000000000000000000000000000000000000000000000000000000000000000000000000000000
310
00000000000000000000000000000000000000000000000000000000000000000000000000000000000000000000000000000000000000000000000000000000000000000000000000000000000000000000000000000000000000000000000000000000000000000000000000000000000000000000000000000000000000
310
00000000000000000000000000000000000000000000000000000000000000000000000000000000000000000000000000000000000000000000000000000000000000000000000000000000000000000000000000000000000000000000000000000000000000000000000000000000000000000000000000000000000000
310
00000000000000000000000000000000000000000000000000000000000000000000000000000000000000000000000000000000000000000000000000000000000000000000000000000000000000000000000000000000000000000000000000000000000000000000000000000000000000000000000000000000000000
310
00000000000000000000000000000000000000000000000000000000000000000000000000000000000000000000000000000000000000000000000000000000000000000000000000000000000000000000000000000000000000000000000000000000000000000000000000000000000000000000000000000000000000
310
00000000000000000000000000000000000000000000000000000000000000000000000000000000000000000000000000000000000000000000000000000000000000000000000000000000000000000000000000000000000000000000000000000000000000000000000000000000000000000000000000000000000000
310
00000000000000000000000000000000000000000000000000000000000000000000000000000000000000000000000000000000000000000000000000000000000000000000000000000000000000000000000000000000000000000000000000000000000000000000000000000000000000000000000000000000000000
310
00000000000000000000000000000000000000000000000000000000000000000000000000000000000000000000000000000000000000000000000000000000000000000000000000000000000000000000000000000000000000000000000000000000000000000000000000000000000000000000000000000000000000
310
00000000000000000000000000000000000000000000000000000000000000000000000000000000000000000000000000000000000000000000000000000000000000000000000000000000000000000000000000000000000000000000000000000000000000000000000000000000000000000000000000000000000000
310
00000000000000000000000000000000000000000000000000000000000000000000000000000000000000000000000000000000000000000000000000000000000000000000000000000000000000000000000000000000000000000000000000000000000000000000000000000000000000000000000000000000000000
310
00000000000000000000000000000000000000000000000000000000000000000000000000000000000000000000000000000000000000000000000000000000000000000000000000000000000000000000000000000000000000000000000000000000000000000000000000000000000000000000000000000000000000
310
00000000000000000000000000000000000000000000000000000000000000000000000000000000000000000000000000000000000000000000000000000000000000000000000000000000000000000000000000000000000000000000000000000000000000000000000000000000000000000000000000000000000000
310
00000000000000000000000000000000000000000000000000000000000000000000000000000000000000000000000000000000000000000000000000000000000000000000000000000000000000000000000000000000000000000000000000000000000000000000000000000000000000000000000000000000000000
310
00000000000000000000000000000000000000000000000000000000000000000000000000000000000000000000000000000000000000000000000000000000000000000000000000000000000000000000000000000000000000000000000000000000000000000000000000000000000000000000000000000000000000
310
00000000000000000000000000000000000000000000000000000000000000000000000000000000000000000000000000000000000000000000000000000000000000000000000000000000000000000000000000000000000000000000000000000000000000000000000000000000000000000000000000000000000000
310
00000000000000000000000000000000000000000000000000000000000000000000000000000000000000000000000000000000000000000000000000000000000000000000000000000000000000000000000000000000000000000000000000000000000000000000000000000000000000000000000000000000000000
310
00000000000000000000000000000000000000000000000000000000000000000000000000000000000000000000000000000000000000000000000000000000000000000000000000000000000000000000000000000000000000000000000000000000000000000000000000000000000000000000000000000000000000
310
00000000000000000000000000000000000000000000000000000000000000000000000000000000000000000000000000000000000000000000000000000000000000000000000000000000000000000000000000000000000000000000000000000000000000000000000000000000000000000000000000000000000000
310
00000000000000000000000000000000000000000000000000000000000000000000000000000000000000000000000000000000000000000000000000000000000000000000000000000000000000000000000000000000000000000000000000000000000000000000000000000000000000000000000000000000000000
310
00000000000000000000000000000000000000000000000000000000000000000000000000000000000000000000000000000000000000000000000000000000000000000000000000000000000000000000000000000000000000000000000000000000000000000000000000000000000000000000000000000000000000
310
00000000000000000000000000000000000000000000000000000000000000000000000000000000000000000000000000000000000000000000000000000000000000000000000000000000000000000000000000000000000000000000000000000000000000000000000000000000000000000000000000000000000000
310
00000000000000000000000000000000000000000000000000000000000000000000000000000000000000000000000000000000000000000000000000000000000000000000000000000000000000000000000000000000000000000000000000000000000000000000000000000000000000000000000000000000000000
310
00000000000000000000000000000000000000000000000000000000000000000000000000000000000000000000000000000000000000000000000000000000000000000000000000000000000000000000000000000000000000000000000000000000000000000000000000000000000000000000000000000000000000
310
00000000000000000000000000000000000000000000000000000000000000000000000000000000000000000000000000000000000000000000000000000000000000000000000000000000000000000000000000000000000000000000000000000000000000000000000000000000000000000000000000000000000000
310
00000000000000000000000000000000000000000000000000000000000000000000000000000000000000000000000000000000000000000000000000000000000000000000000000000000000000000000000000000000000000000000000000000000000000000000000000000000000000000000000000000000000000
310
00000000000000000000000000000000000000000000000000000000000000000000000000000000000000000000000000000000000000000000000000000000000000000000000000000000000000000000000000000000000000000000000000000000000000000000000000000000000000000000000000000000000000
310
00000000000000000000000000000000000000000000000000000000000000000000000000000000000000000000000000000000000000000000000000000000000000000000000000000000000000000000000000000000000000000000000000000000000000000000000000000000000000000000000000000000000000
310
00000000000000000000000000000000000000000000000000000000000000000000000000000000000000000000000000000000000000000000000000000000000000000000000000000000000000000000000000000000000000000000000000000000000000000000000000000000000000000000000000000000000000
310
00000000000000000000000000000000000000000000000000000000000000000000000000000000000000000000000000000000000000000000000000000000000000000000000000000000000000000000000000000000000000000000000000000000000000000000000000000000000000000000000000000000000000
310
00000000000000000000000000000000000000000000000000000000000000000000000000000000000000000000000000000000000000000000000000000000000000000000000000000000000000000000000000000000000000000000000000000000000000000000000000000000000000000000000000000000000000
310
00000000000000000000000000000000000000000000
  0
XRECORD
  5
4E8
102
{ACAD_REACTORS
330
4E7
102
}
330
4E7
100
AcDbXrecord
280
     1
102
SHADEPLOT
 70
     0
102
SHADEPLOTRESLEVEL
 70
     2
102
SHADEPLOTCUSTOMDPI
 70
   300
  0
XRECORD
  5
40
102
{ACAD_REACTORS
330
3F
102
}
330
3F
100
AcDbXrecord
280
     1
102
MATERIAL
148
0.0
149
0.0
149
0.0
 93
        0
 94
      127
282
     0
 72
     1
 77
     1
171
     1
175
     1
179
     1
273
     0
  0
XRECORD
  5
13
102
{ACAD_REACTORS
330
12
102
}
330
12
100
AcDbXrecord
280
     1
102
MATERIAL
148
0.0
149
0.0
149
0.0
 93
        0
 94
      127
282
     0
 72
     1
 77
     1
171
     1
175
     1
179
     1
273
     0
  0
XRECORD
  5
F
102
{ACAD_REACTORS
330
E
102
}
330
E
100
AcDbXrecord
280
     1
102
MATERIAL
148
0.0
149
0.0
149
0.0
 93
        0
 94
      127
282
     0
 72
     1
 77
     1
171
     1
175
     1
179
     1
273
     0
  0
CELLSTYLEMAP
  5
4E4
102
{ACAD_REACTORS
330
4D
102
}
330
4D
100
AcDbCellStyleMap
 90
        3
300
CELLSTYLE
  1
TABLEFORMAT_BEGIN
 90
        5
170
     1
 91
        0
 92
    32768
 62
   257
 93
        1
300
CONTENTFORMAT
  1
CONTENTFORMAT_BEGIN
 90
        0
 91
        0
 92
      512
 93
        0
300

 40
0.0
140
1.0
 94
        5
 62
     0
340
24
144
0.25
309
CONTENTFORMAT_END
171
     1
301
MARGIN
  1
CELLMARGIN_BEGIN
 40
0.06
 40
0.06
 40
0.06
 40
0.06
 40
0.18
 40
0.18
309
CELLMARGIN_END
 94
        6
 95
        1
302
GRIDFORMAT
  1
GRIDFORMAT_BEGIN
 90
        0
 91
        1
 62
     0
 92
       -2
340
0
 93
        0
 40
0.045
309
GRIDFORMAT_END
 95
        2
302
GRIDFORMAT
  1
GRIDFORMAT_BEGIN
 90
        0
 91
        1
 62
     0
 92
       -2
340
0
 93
        0
 40
0.045
309
GRIDFORMAT_END
 95
        4
302
GRIDFORMAT
  1
GRIDFORMAT_BEGIN
 90
        0
 91
        1
 62
     0
 92
       -2
340
0
 93
        0
 40
0.045
309
GRIDFORMAT_END
 95
        8
302
GRIDFORMAT
  1
GRIDFORMAT_BEGIN
 90
        0
 91
        1
 62
     0
 92
       -2
340
0
 93
        0
 40
0.045
309
GRIDFORMAT_END
 95
       16
302
GRIDFORMAT
  1
GRIDFORMAT_BEGIN
 90
        0
 91
        1
 62
     0
 92
       -2
340
0
 93
        0
 40
0.045
309
GRIDFORMAT_END
 95
       32
302
GRIDFORMAT
  1
GRIDFORMAT_BEGIN
 90
        0
 91
        1
 62
     0
 92
       -2
340
0
 93
        0
 40
0.045
309
GRIDFORMAT_END
309
TABLEFORMAT_END
  1
CELLSTYLE_BEGIN
 90
        1
 91
        1
300
_TITLE
309
CELLSTYLE_END
300
CELLSTYLE
  1
TABLEFORMAT_BEGIN
 90
        5
170
     1
 91
        0
 92
        0
 62
   257
 93
        1
300
CONTENTFORMAT
  1
CONTENTFORMAT_BEGIN
 90
        0
 91
        0
 92
      512
 93
        0
300

 40
0.0
140
1.0
 94
        5
 62
     0
340
24
144
0.18
309
CONTENTFORMAT_END
171
     1
301
MARGIN
  1
CELLMARGIN_BEGIN
 40
0.06
 40
0.06
 40
0.06
 40
0.06
 40
0.18
 40
0.18
309
CELLMARGIN_END
 94
        6
 95
        1
302
GRIDFORMAT
  1
GRIDFORMAT_BEGIN
 90
        0
 91
        1
 62
     0
 92
       -2
340
0
 93
        0
 40
0.045
309
GRIDFORMAT_END
 95
        2
302
GRIDFORMAT
  1
GRIDFORMAT_BEGIN
 90
        0
 91
        1
 62
     0
 92
       -2
340
0
 93
        0
 40
0.045
309
GRIDFORMAT_END
 95
        4
302
GRIDFORMAT
  1
GRIDFORMAT_BEGIN
 90
        0
 91
        1
 62
     0
 92
       -2
340
0
 93
        0
 40
0.045
309
GRIDFORMAT_END
 95
        8
302
GRIDFORMAT
  1
GRIDFORMAT_BEGIN
 90
        0
 91
        1
 62
     0
 92
       -2
340
0
 93
        0
 40
0.045
309
GRIDFORMAT_END
 95
       16
302
GRIDFORMAT
  1
GRIDFORMAT_BEGIN
 90
        0
 91
        1
 62
     0
 92
       -2
340
0
 93
        0
 40
0.045
309
GRIDFORMAT_END
 95
       32
302
GRIDFORMAT
  1
GRIDFORMAT_BEGIN
 90
        0
 91
        1
 62
     0
 92
       -2
340
0
 93
        0
 40
0.045
309
GRIDFORMAT_END
309
TABLEFORMAT_END
  1
CELLSTYLE_BEGIN
 90
        2
 91
        1
300
_HEADER
309
CELLSTYLE_END
300
CELLSTYLE
  1
TABLEFORMAT_BEGIN
 90
        5
170
     1
 91
        0
 92
        0
 62
   257
 93
        1
300
CONTENTFORMAT
  1
CONTENTFORMAT_BEGIN
 90
        0
 91
        0
 92
      512
 93
        0
300

 40
0.0
140
1.0
 94
        2
 62
     0
340
24
144
0.18
309
CONTENTFORMAT_END
171
     1
301
MARGIN
  1
CELLMARGIN_BEGIN
 40
0.06
 40
0.06
 40
0.06
 40
0.06
 40
0.18
 40
0.18
309
CELLMARGIN_END
 94
        6
 95
        1
302
GRIDFORMAT
  1
GRIDFORMAT_BEGIN
 90
        0
 91
        1
 62
     0
 92
       -2
340
0
 93
        0
 40
0.045
309
GRIDFORMAT_END
 95
        2
302
GRIDFORMAT
  1
GRIDFORMAT_BEGIN
 90
        0
 91
        1
 62
     0
 92
       -2
340
0
 93
        0
 40
0.045
309
GRIDFORMAT_END
 95
        4
302
GRIDFORMAT
  1
GRIDFORMAT_BEGIN
 90
        0
 91
        1
 62
     0
 92
       -2
340
0
 93
        0
 40
0.045
309
GRIDFORMAT_END
 95
        8
302
GRIDFORMAT
  1
GRIDFORMAT_BEGIN
 90
        0
 91
        1
 62
     0
 92
       -2
340
0
 93
        0
 40
0.045
309
GRIDFORMAT_END
 95
       16
302
GRIDFORMAT
  1
GRIDFORMAT_BEGIN
 90
        0
 91
        1
 62
     0
 92
       -2
340
0
 93
        0
 40
0.045
309
GRIDFORMAT_END
 95
       32
302
GRIDFORMAT
  1
GRIDFORMAT_BEGIN
 90
        0
 91
        1
 62
     0
 92
       -2
340
0
 93
        0
 40
0.045
309
GRIDFORMAT_END
309
TABLEFORMAT_END
  1
CELLSTYLE_BEGIN
 90
        3
 91
        2
300
_DATA
309
CELLSTYLE_END
  0
XRECORD
  5
4EB
102
{ACAD_REACTORS
330
4D
102
}
330
4D
100
AcDbXrecord
280
     1
102
ACAD_ROUNDTRIP_PRE2007_TABLESTYLE
 90
      512
 91
        0
  1

 92
      512
 93
        0
  2

 94
      512
 95
        0
  3

  0
XRECORD
  5
4EA
102
{ACAD_REACTORS
330
4E9
102
}
330
4E9
100
AcDbXrecord
280
     1
102
RTVSPropertyOp0
 70
     1
102
RTVSPropertyOp1
 70
     1
102
RTVSPropertyOp2
 70
     1
102
RTVSPropertyOp3
 70
     1
102
RTVSPropertyOp4
 70
     1
102
RTVSPropertyOp5
 70
     1
102
RTVSPropertyOp6
 70
     1
102
RTVSPropertyOp7
 70
     1
102
RTVSPropertyOp8
 70
     1
102
RTVSPropertyOp9
 70
     1
102
RTVSPropertyOp10
 70
     1
102
RTVSPropertyOp11
 70
     1
102
RTVSPropertyOp12
 70
     1
102
RTVSPropertyOp13
 70
     1
102
RTVSPropertyOp14
 70
     1
102
RTVSPropertyOp15
 70
     1
102
RTVSPropertyOp16
 70
     1
102
RTVSPropertyOp17
 70
     1
102
RTVSPropertyOp18
 70
     1
102
RTVSPropertyOp19
 70
     1
102
RTVSPropertyOp20
 70
     1
102
RTVSPropertyOp21
 70
     1
102
RTVSPropertyOp22
 70
     1
102
RTVSPropertyOp23
 70
     1
102
RTVSPropertyOp24
 70
     1
102
RTVSPropertyOp25
 70
     1
102
RTVSPropertyOp26
 70
     1
102
RTVSPropertyOp27
 70
     1
102
RTVSPropertyOp28
 70
     1
102
RTVSPropertyOp29
 70
     1
102
RTVSPropertyOp30
 70
     1
102
RTVSPropertyOp31
 70
     1
102
RTVSPropertyOp32
 70
     1
  0
XRECORD
  5
4ED
102
{ACAD_REACTORS
330
4EC
102
}
330
4EC
100
AcDbXrecord
280
     1
102
RTVSPropertyOp0
 70
     1
102
RTVSPropertyOp1
 70
     1
102
RTVSPropertyOp2
 70
     1
102
RTVSPropertyOp3
 70
     1
102
RTVSPropertyOp4
 70
     1
102
RTVSPropertyOp5
 70
     1
102
RTVSPropertyOp6
 70
     1
102
RTVSPropertyOp7
 70
     1
102
RTVSPropertyOp8
 70
     1
102
RTVSPropertyOp9
 70
     1
102
RTVSPropertyOp10
 70
     1
102
RTVSPropertyOp11
 70
     1
102
RTVSPropertyOp12
 70
     1
102
RTVSPropertyOp13
 70
     1
102
RTVSPropertyOp14
 70
     1
102
RTVSPropertyOp15
 70
     1
102
RTVSPropertyOp16
 70
     1
102
RTVSPropertyOp17
 70
     1
102
RTVSPropertyOp18
 70
     1
102
RTVSPropertyOp19
 70
     1
102
RTVSPropertyOp20
 70
     1
102
RTVSPropertyOp21
 70
     1
102
RTVSPropertyOp22
 70
     1
102
RTVSPropertyOp23
 70
     1
102
RTVSPropertyOp24
 70
     1
102
RTVSPropertyOp25
 70
     1
102
RTVSPropertyOp26
 70
     1
102
RTVSPropertyOp27
 70
     1
102
RTVSPropertyOp28
 70
     1
102
RTVSPropertyOp29
 70
     1
102
RTVSPropertyOp30
 70
     1
102
RTVSPropertyOp31
 70
     1
102
RTVSPropertyOp32
 70
     1
  0
XRECORD
  5
4EF
102
{ACAD_REACTORS
330
4EE
102
}
330
4EE
100
AcDbXrecord
280
     1
102
RTVSPropertyOp0
 70
     1
102
RTVSPropertyOp1
 70
     1
102
RTVSPropertyOp2
 70
     1
102
RTVSPropertyOp3
 70
     1
102
RTVSPropertyOp4
 70
     1
102
RTVSPropertyOp5
 70
     1
102
RTVSPropertyOp6
 70
     1
102
RTVSPropertyOp7
 70
     1
102
RTVSPropertyOp8
 70
     1
102
RTVSPropertyOp9
 70
     1
102
RTVSPropertyOp10
 70
     1
102
RTVSPropertyOp11
 70
     1
102
RTVSPropertyOp12
 70
     1
102
RTVSPropertyOp13
 70
     1
102
RTVSPropertyOp14
 70
     1
102
RTVSPropertyOp15
 70
     1
102
RTVSPropertyOp16
 70
     1
102
RTVSPropertyOp17
 70
     1
102
RTVSPropertyOp18
 70
     1
102
RTVSPropertyOp19
 70
     1
102
RTVSPropertyOp20
 70
     1
102
RTVSPropertyOp21
 70
     1
102
RTVSPropertyOp22
 70
     1
102
RTVSPropertyOp23
 70
     1
102
RTVSPropertyOp24
 70
     1
102
RTVSPropertyOp25
 70
     1
102
RTVSPropertyOp26
 70
     1
102
RTVSPropertyOp27
 70
     1
102
RTVSPropertyOp28
 70
     1
102
RTVSPropertyOp29
 70
     1
102
RTVSPropertyOp30
 70
     1
102
RTVSPropertyOp31
 70
     1
102
RTVSPropertyOp32
 70
     1
  0
ENDSEC
  0
EOF
