  0
SECTION
  2
HEADER
  9
$ACADVER
  1
AC1015
  9
$ACADMAINTVER
 70
    18
  9
$DWGCODEPAGE
  3
ANSI_932
  9
$INSBASE
 10
0.0
 20
0.0
 30
0.0
  9
$EXTMIN
 10
5.250393341423574
 20
9.596248019538103
 30
0.0
  9
$EXTMAX
 10
597.8749167860756
 20
591.7853013404405
 30
150.0
  9
$LIMMIN
 10
0.0
 20
0.0
  9
$LIMMAX
 10
630.0
 20
445.5
  9
$ORTHOMODE
 70
     0
  9
$REGENMODE
 70
     1
  9
$FILLMODE
 70
     1
  9
$QTEXTMODE
 70
     0
  9
$MIRRTEXT
 70
     1
  9
$LTSCALE
 40
1.0
  9
$ATTMODE
 70
     1
  9
$TEXTSIZE
 40
4.5
  9
$TRACEWID
 40
1.0
  9
$TEXTSTYLE
  7
STANDARD
  9
$CLAYER
  8
0
  9
$CELTYPE
  6
BYLAYER
  9
$CECOLOR
 62
   256
  9
$CELTSCALE
 40
1.0
  9
$DISPSILH
 70
     0
  9
$DIMSCALE
 40
1.5
  9
$DIMASZ
 40
2.5
  9
$DIMEXO
 40
1.0
  9
$DIMDLI
 40
1.0
  9
$DIMRND
 40
0.0
  9
$DIMDLE
 40
0.0
  9
$DIMEXE
 40
1.0
  9
$DIMTP
 40
0.0
  9
$DIMTM
 40
0.0
  9
$DIMTXT
 40
3.0
  9
$DIMCEN
 40
2.5
  9
$DIMTSZ
 40
0.0
  9
$DIMTOL
 70
     0
  9
$DIMLIM
 70
     0
  9
$DIMTIH
 70
     0
  9
$DIMTOH
 70
     0
  9
$DIMSE1
 70
     0
  9
$DIMSE2
 70
     0
  9
$DIMTAD
 70
     1
  9
$DIMZIN
 70
     8
  9
$DIMBLK
  1

  9
$DIMASO
 70
     1
  9
$DIMSHO
 70
     1
  9
$DIMPOST
  1

  9
$DIMAPOST
  1

  9
$DIMALT
 70
     0
  9
$DIMALTD
 70
     4
  9
$DIMALTF
 40
0.0394
  9
$DIMLFAC
 40
1.0
  9
$DIMTOFL
 70
     1
  9
$DIMTVP
 40
0.0
  9
$DIMTIX
 70
     0
  9
$DIMSOXD
 70
     0
  9
$DIMSAH
 70
     1
  9
$DIMBLK1
  1
OPEN
  9
$DIMBLK2
  1
OPEN
  9
$DIMSTYLE
  2
STANDARD
  9
$DIMCLRD
 70
   256
  9
$DIMCLRE
 70
   256
  9
$DIMCLRT
 70
   256
  9
$DIMTFAC
 40
1.0
  9
$DIMGAP
 40
1.0
  9
$DIMJUST
 70
     0
  9
$DIMSD1
 70
     0
  9
$DIMSD2
 70
     0
  9
$DIMTOLJ
 70
     1
  9
$DIMTZIN
 70
     0
  9
$DIMALTZ
 70
     0
  9
$DIMALTTZ
 70
     0
  9
$DIMUPT
 70
     1
  9
$DIMDEC
 70
     4
  9
$DIMTDEC
 70
     4
  9
$DIMALTU
 70
     8
  9
$DIMALTTD
 70
     4
  9
$DIMTXSTY
  7
STANDARD
  9
$DIMAUNIT
 70
     0
  9
$DIMADEC
 70
     0
  9
$DIMALTRND
 40
0.0
  9
$DIMAZIN
 70
     0
  9
$DIMDSEP
 70
    46
  9
$DIMATFIT
 70
     3
  9
$DIMFRAC
 70
     0
  9
$DIMLDRBLK
  1
OPEN
  9
$DIMLUNIT
 70
     6
  9
$DIMLWD
 70
    -2
  9
$DIMLWE
 70
    -2
  9
$DIMTMOVE
 70
     0
  9
$LUNITS
 70
     2
  9
$LUPREC
 70
     4
  9
$SKETCHINC
 40
1.0
  9
$FILLETRAD
 40
10.0
  9
$AUNITS
 70
     0
  9
$AUPREC
 70
     0
  9
$MENU
  1
acad
  9
$ELEVATION
 40
0.0
  9
$PELEVATION
 40
0.0
  9
$THICKNESS
 40
0.0
  9
$LIMCHECK
 70
     0
  9
$CHAMFERA
 40
0.0
  9
$CHAMFERB
 40
0.0
  9
$CHAMFERC
 40
20.0
  9
$CHAMFERD
 40
0.0
  9
$SKPOLY
 70
     0
  9
$TDCREATE
 40
2451494.546824537
  9
$TDUCREATE
 40
2451494.171824537
  9
$TDUPDATE
 40
2452433.471656609
  9
$TDUUPDATE
 40
2452433.096656609
  9
$TDINDWG
 40
1.3546403704
  9
$TDUSRTIMER
 40
1.3546403704
  9
$USRTIMER
 70
     1
  9
$ANGBASE
 50
0.0
  9
$ANGDIR
 70
     0
  9
$PDMODE
 70
     0
  9
$PDSIZE
 40
0.0
  9
$PLINEWID
 40
0.0
  9
$SPLFRAME
 70
     0
  9
$SPLINETYPE
 70
     6
  9
$SPLINESEGS
 70
     8
  9
$HANDSEED
  5
398
  9
$SURFTAB1
 70
     6
  9
$SURFTAB2
 70
     6
  9
$SURFTYPE
 70
     6
  9
$SURFU
 70
     6
  9
$SURFV
 70
     6
  9
$UCSBASE
  2

  9
$UCSNAME
  2

  9
$UCSORG
 10
0.0
 20
0.0
 30
0.0
  9
$UCSXDIR
 10
1.0
 20
0.0
 30
0.0
  9
$UCSYDIR
 10
0.0
 20
1.0
 30
0.0
  9
$UCSORTHOREF
  2

  9
$UCSORTHOVIEW
 70
     0
  9
$UCSORGTOP
 10
0.0
 20
0.0
 30
0.0
  9
$UCSORGBOTTOM
 10
0.0
 20
0.0
 30
0.0
  9
$UCSORGLEFT
 10
0.0
 20
0.0
 30
0.0
  9
$UCSORGRIGHT
 10
0.0
 20
0.0
 30
0.0
  9
$UCSORGFRONT
 10
0.0
 20
0.0
 30
0.0
  9
$UCSORGBACK
 10
0.0
 20
0.0
 30
0.0
  9
$PUCSBASE
  2

  9
$PUCSNAME
  2

  9
$PUCSORG
 10
0.0
 20
0.0
 30
0.0
  9
$PUCSXDIR
 10
1.0
 20
0.0
 30
0.0
  9
$PUCSYDIR
 10
0.0
 20
1.0
 30
0.0
  9
$PUCSORTHOREF
  2

  9
$PUCSORTHOVIEW
 70
     0
  9
$PUCSORGTOP
 10
0.0
 20
0.0
 30
0.0
  9
$PUCSORGBOTTOM
 10
0.0
 20
0.0
 30
0.0
  9
$PUCSORGLEFT
 10
0.0
 20
0.0
 30
0.0
  9
$PUCSORGRIGHT
 10
0.0
 20
0.0
 30
0.0
  9
$PUCSORGFRONT
 10
0.0
 20
0.0
 30
0.0
  9
$PUCSORGBACK
 10
0.0
 20
0.0
 30
0.0
  9
$USERI1
 70
     0
  9
$USERI2
 70
     0
  9
$USERI3
 70
     0
  9
$USERI4
 70
     0
  9
$USERI5
 70
     0
  9
$USERR1
 40
0.0
  9
$USERR2
 40
0.0
  9
$USERR3
 40
0.0
  9
$USERR4
 40
0.0
  9
$USERR5
 40
0.0
  9
$WORLDVIEW
 70
     1
  9
$SHADEDGE
 70
     3
  9
$SHADEDIF
 70
    70
  9
$TILEMODE
 70
     1
  9
$MAXACTVP
 70
    48
  9
$PINSBASE
 10
0.0
 20
0.0
 30
0.0
  9
$PLIMCHECK
 70
     0
  9
$PEXTMIN
 10
1.000000000000000E+20
 20
1.000000000000000E+20
 30
1.000000000000000E+20
  9
$PEXTMAX
 10
-1.000000000000000E+20
 20
-1.000000000000000E+20
 30
-1.000000000000000E+20
  9
$PLIMMIN
 10
0.0
 20
0.0
  9
$PLIMMAX
 10
420.0
 20
297.0
  9
$UNITMODE
 70
     0
  9
$VISRETAIN
 70
     1
  9
$PLINEGEN
 70
     0
  9
$PSLTSCALE
 70
     1
  9
$TREEDEPTH
 70
  3020
  9
$CMLSTYLE
  2
STANDARD
  9
$CMLJUST
 70
     0
  9
$CMLSCALE
 40
20.0
  9
$PROXYGRAPHICS
 70
     1
  9
$MEASUREMENT
 70
     0
  9
$CELWEIGHT
370
    -1
  9
$ENDCAPS
280
     0
  9
$JOINSTYLE
280
     0
  9
$LWDISPLAY
290
     0
  9
$INSUNITS
 70
     0
  9
$HYPERLINKBASE
  1

  9
$STYLESHEET
  1

  9
$XEDIT
290
     1
  9
$CEPSNTYPE
380
     0
  9
$PSTYLEMODE
290
     1
  9
$FINGERPRINTGUID
  2
{78B91EA9-F70E-4F81-9AE7-DFBF4CA0523D}
  9
$VERSIONGUID
  2
{CCB8FDE4-79A7-11D6-8F2C-0002B31FFEC4}
  9
$EXTNAMES
290
     1
  9
$PSVPSCALE
 40
0.0
  9
$OLESTARTUP
290
     0
  0
ENDSEC
  0
SECTION
  2
CLASSES
  0
CLASS
  1
DICTIONARYVAR
  2
AcDbDictionaryVar
  3
ObjectDBX Classes
 90
        0
280
     0
281
     0
  0
CLASS
  1
ACDBDICTIONARYWDFLT
  2
AcDbDictionaryWithDefault
  3
ObjectDBX Classes
 90
        0
280
     0
281
     0
  0
CLASS
  1
ACDBPLACEHOLDER
  2
AcDbPlaceHolder
  3
ObjectDBX Classes
 90
        0
280
     0
281
     0
  0
CLASS
  1
LAYOUT
  2
AcDbLayout
  3
ObjectDBX Classes
 90
        0
280
     0
281
     0
  0
CLASS
  1
ACME_DOCUMENT
  2
AcMeDbDoc
  3
AcMeServices
 90
    32768
280
     1
281
     0
  0
CLASS
  1
AMGSETTINGSOBJ
  2
AmgSettingsObj
  3
"AcadM|Product Description: AutoCAD Mechanical 2000|Company: Autodesk"
 90
    32768
280
     1
281
     0
  0
CLASS
  1
ACMESCOPE
  2
AcMeScope
  3
AcMeServices
 90
    32768
280
     1
281
     0
  0
CLASS
  1
ACMECOMMANDHISTORY
  2
AcMeCommandHistory
  3
AcMeServices
 90
    32768
280
     1
281
     0
  0
CLASS
  1
ACIMSYSVARMAN
  2
AcImSysVarManager
  3
AcMeServices
 90
    32768
280
     1
281
     0
  0
CLASS
  1
ACIMREALSYSVAR
  2
AcImRealSysVar
  3
AcMeServices
 90
    32768
280
     1
281
     0
  0
CLASS
  1
ACIMINTSYSVAR
  2
AcImIntSysVar
  3
AcMeServices
 90
    32768
280
     1
281
     0
  0
CLASS
  1
ACMEDRAWINGMAN
  2
AcMeDrawingMan
  3
AcMeServices
 90
    32768
280
     1
281
     0
  0
CLASS
  1
ACMEVIEW
  2
AcMeView
  3
AcMeServices
 90
    32768
280
     1
281
     0
  0
CLASS
  1
ACDBENTITYCACHE
  2
AcMeEntityCache
  3
AcMeServices
 90
    32768
280
     1
281
     0
  0
CLASS
  1
GSMANAGER
  2
AcMeGSManager
  3
AcMeServices
 90
    32768
280
     1
281
     0
  0
CLASS
  1
AMDTINTERNALREACTOR
  2
AmdtInternalReactor
  3
AcMeServices
 90
    32768
280
     1
281
     0
  0
CLASS
  1
ACMESTATEMGR
  2
AcMeStateMgr
  3
AcMeServices
 90
    32768
280
     1
281
     0
  0
CLASS
  1
ACGREFMASTER
  2
AcGrefMaster
  3
AcAttribServices
 90
    32768
280
     1
281
     0
  0
CLASS
  1
ACME_DATABASE
  2
AcMeDbDatabase
  3
AcMeServices
 90
    32768
280
     1
281
     0
  0
CLASS
  1
ACRFINSADJUSTERMGR
  2
AcRfInsAdjusterMgr
  3
AcMeServices
 90
    32768
280
     1
281
     0
  0
CLASS
  1
ACGREFMASTER
  2
AcGrefacadMaster
  3
AcGrefServices
 90
    32768
280
     1
281
     0
  0
CLASS
  1
AMIMASTER
  2
AmiMaster
  3
AmiServices
 90
    32768
280
     1
281
     0
  0
CLASS
  1
ACMDATADICTIONARY
  2
AcmDataDictionary
  3
"AcmSymBB|Product Description: AutoCAD Mechanical 2000|Company: Autodesk"
 90
    32768
280
     1
281
     0
  0
CLASS
  1
ACMDATAENTRYBLOCK
  2
AcmDataEntryBlock
  3
"AcmSymBB|Product Description: AutoCAD Mechanical 2000|Company: Autodesk"
 90
    32768
280
     1
281
     0
  0
CLASS
  1
ACIMSTRSYSVAR
  2
AcImStrSysVar
  3
AcMeServices
 90
    32768
280
     1
281
     0
  0
CLASS
  1
ACMSTANDARDANSI
  2
AcmStandardANSI
  3
"Amdt_StdImp|Product Description: AutoCAD Mechanical 2000|Company: Autodesk"
 90
    32768
280
     1
281
     0
  0
CLASS
  1
AMGOBJPROPCFG
  2
AmgObjPropCfg
  3
"AmgLay|Product Description: AutoCAD Mechanical 2000|Company: Autodesk"
 90
    32769
280
     1
281
     0
  0
CLASS
  1
ACMSURFSTANDARDANSI
  2
AcmSurfTextStdANSI
  3
"Amdt_StdImp|Product Description: AutoCAD Mechanical 2000|Company: Autodesk"
 90
    32768
280
     1
281
     0
  0
CLASS
  1
ACMFCFSTANDARDANSI
  2
AcmFCFStdANSI
  3
"Amdt_StdImp|Product Description: AutoCAD Mechanical 2000|Company: Autodesk"
 90
    32768
280
     1
281
     0
  0
CLASS
  1
ACMWELDSTANDARDANSI
  2
AcmWeldingStdANSI
  3
"Amdt_StdImp|Product Description: AutoCAD Mechanical 2000|Company: Autodesk"
 90
    32768
280
     1
281
     0
  0
CLASS
  1
ACMIDSTANDARDANSI
  2
AcmIdStdANSI
  3
"Amdt_StdImp|Product Description: AutoCAD Mechanical 2000|Company: Autodesk"
 90
    32768
280
     1
281
     0
  0
CLASS
  1
ACMDATUMSTANDARDANSI
  2
AcmDatumStdANSI
  3
"Amdt_StdImp|Product Description: AutoCAD Mechanical 2000|Company: Autodesk"
 90
    32768
280
     1
281
     0
  0
CLASS
  1
ACMBOMSTANDARDANSI
  2
AcmBOMStdANSI
  3
"Amdt_StdImp|Product Description: AutoCAD Mechanical 2000|Company: Autodesk"
 90
    32768
280
     1
281
     0
  0
CLASS
  1
ACMDETAILSTANDARDANSI
  2
AmdtDetailSymStdANSI
  3
"Amdt_StdImp|Product Description: AutoCAD Mechanical 2000|Company: Autodesk"
 90
    32768
280
     1
281
     0
  0
CLASS
  1
ACMSECTIONSTANDARDANSI
  2
AmdtSectionSymStdANSI
  3
"Amdt_StdImp|Product Description: AutoCAD Mechanical 2000|Company: Autodesk"
 90
    32768
280
     1
281
     0
  0
CLASS
  1
ACMCENTERLINESTANDARDANSI
  2
AmdtCenterLineStdANSI
  3
"Amdt_StdImp|Product Description: AutoCAD Mechanical 2000|Company: Autodesk"
 90
    32768
280
     1
281
     0
  0
CLASS
  1
"AcAmgLayStd"
  2
AcAmgLayStd
  3
"AcAmgLayStd|Product Description: AutoCAD Mechanical 2000|Company: Autodesk"
 90
    32768
280
     1
281
     0
  0
CLASS
  1
"AcAmgDimStd"
  2
AcAmgDimStd
  3
"AcAmgDimStd|Product Description: AutoCAD Mechanical 2000|Company: Autodesk"
 90
    32768
280
     1
281
     0
  0
CLASS
  1
AcAmgTitleStd
  2
AcAmgTitleStd
  3
"TITLEAPP"
 90
    32768
280
     1
281
     0
  0
CLASS
  1
ACMSTANDARDISO
  2
AcmStandardISO
  3
"Amdt_StdImp|Product Description: AutoCAD Mechanical 2000|Company: Autodesk"
 90
    32768
280
     1
281
     0
  0
CLASS
  1
AMDTEDGESTANDARDISO
  2
AmdtEdgeStdISO
  3
"Amdt_StdImp|Product Description: AutoCAD Mechanical 2000|Company: Autodesk"
 90
    32768
280
     1
281
     0
  0
CLASS
  1
ACMSURFSTANDARDISO
  2
AcmSurfTextStdISO
  3
"Amdt_StdImp|Product Description: AutoCAD Mechanical 2000|Company: Autodesk"
 90
    32768
280
     1
281
     0
  0
CLASS
  1
ACMFCFSTANDARDISO
  2
AcmFCFStdISO
  3
"Amdt_StdImp|Product Description: AutoCAD Mechanical 2000|Company: Autodesk"
 90
    32768
280
     1
281
     0
  0
CLASS
  1
ACMWELDSTANDARDISO
  2
AcmWeldingStdISO
  3
"Amdt_StdImp|Product Description: AutoCAD Mechanical 2000|Company: Autodesk"
 90
    32768
280
     1
281
     0
  0
CLASS
  1
ACMIDSTANDARDISO
  2
AcmIdStdISO
  3
"Amdt_StdImp|Product Description: AutoCAD Mechanical 2000|Company: Autodesk"
 90
    32768
280
     1
281
     0
  0
CLASS
  1
ACMDATUMSTANDARDISO
  2
AcmDatumStdISO
  3
"Amdt_StdImp|Product Description: AutoCAD Mechanical 2000|Company: Autodesk"
 90
    32768
280
     1
281
     0
  0
CLASS
  1
ACMBOMSTANDARDISO
  2
AcmBOMStdISO
  3
"Amdt_StdImp|Product Description: AutoCAD Mechanical 2000|Company: Autodesk"
 90
    32768
280
     1
281
     0
  0
CLASS
  1
ACMDETAILSTANDARDISO
  2
AmdtDetailSymStdISO
  3
"Amdt_StdImp|Product Description: AutoCAD Mechanical 2000|Company: Autodesk"
 90
    32768
280
     1
281
     0
  0
CLASS
  1
ACMSECTIONSTANDARDISO
  2
AmdtSectionSymStdISO
  3
"Amdt_StdImp|Product Description: AutoCAD Mechanical 2000|Company: Autodesk"
 90
    32768
280
     1
281
     0
  0
CLASS
  1
ACMCENTERLINESTANDARDISO
  2
AmdtCenterLineStdISO
  3
"Amdt_StdImp|Product Description: AutoCAD Mechanical 2000|Company: Autodesk"
 90
    32768
280
     1
281
     0
  0
CLASS
  1
ACMTHREADLINESTANDARDCSN
  2
AmdtThreadLineStdCSN
  3
"Amdt_StdImp|Product Description: AutoCAD Mechanical 2000|Company: Autodesk"
 90
    32768
280
     1
281
     0
  0
CLASS
  1
ACAMGFILTERDAT
  2
AcAmgFilterDat
  3
"AcadM|Product Description: AutoCAD Mechanical 2000|Company: Autodesk"
 90
    32768
280
     1
281
     0
  0
CLASS
  1
AMDTFORMULAUPDATEDISPATCHER
  2
AmdtFormulaUpdateDispatcher
  3
AcMeServices
 90
    32768
280
     1
281
     0
  0
CLASS
  1
LAYER_INDEX
  2
AcDbLayerIndex
  3
ObjectDBX Classes
 90
    32768
280
     0
281
     0
  0
CLASS
  1
IDBUFFER
  2
AcDbIdBuffer
  3
ObjectDBX Classes
 90
    32768
280
     0
281
     0
  0
CLASS
  1
MATERIAL
  2
AcDbMaterial
  3
ObjectDBX Classes
 90
     1024
280
     0
281
     0
  0
CLASS
  1
VISUALSTYLE
  2
AcDbVisualStyle
  3
ObjectDBX Classes
 90
     4095
280
     0
281
     0
  0
CLASS
  1
TABLESTYLE
  2
AcDbTableStyle
  3
ObjectDBX Classes
 90
     4095
280
     0
281
     0
  0
CLASS
  1
SORTENTSTABLE
  2
AcDbSortentsTable
  3
ObjectDBX Classes
 90
    32768
280
     0
281
     0
  0
ENDSEC
  0
SECTION
  2
TABLES
  0
TABLE
  2
VPORT
  5
1F
330
0
100
AcDbSymbolTable
 70
     1
  0
VPORT
  5
20
330
1F
100
AcDbSymbolTableRecord
100
AcDbViewportTableRecord
  2
*Active
 70
     0
 10
0.0
 20
0.0
 11
1.0
 21
1.0
 12
381.715394475488
 22
492.1636985360037
 13
0.0
 23
0.0
 14
0.5
 24
0.5
 15
10.0
 25
10.0
 16
0.0
 26
0.0
 36
1.0
 17
0.0
 27
0.0
 37
0.0
 40
311.337027290298
 41
1.712451861360718
 42
50.0
 43
0.0
 44
0.0
 50
0.0
 51
0.0
 71
     0
 72
   100
 73
     1
 74
     1
 75
     1
 76
     1
 77
     0
 78
     0
281
     0
 65
     1
110
0.0
120
0.0
130
0.0
111
1.0
121
0.0
131
0.0
112
0.0
122
1.0
132
0.0
 79
     0
146
0.0
  0
ENDTAB
  0
TABLE
  2
LTYPE
  5
1A
330
0
100
AcDbSymbolTable
 70
     2
  0
LTYPE
  5
1B
330
1A
100
AcDbSymbolTableRecord
100
AcDbLinetypeTableRecord
  2
BYBLOCK
 70
     0
  3

 72
    65
 73
     0
 40
0.0
  0
LTYPE
  5
1C
330
1A
100
AcDbSymbolTableRecord
100
AcDbLinetypeTableRecord
  2
BYLAYER
 70
     0
  3

 72
    65
 73
     0
 40
0.0
  0
LTYPE
  5
B
330
1A
100
AcDbSymbolTableRecord
100
AcDbLinetypeTableRecord
  2
CONTINUOUS
 70
     0
  3
Solid line
 72
    65
 73
     0
 40
0.0
  0
LTYPE
  5
E3
330
1A
100
AcDbSymbolTableRecord
100
AcDbLinetypeTableRecord
  2
CENTER
 70
     0
  3
Center ____ _ ____ _ ____ _ ____ _ ____ _ ____
 72
    65
 73
     4
 40
50.8
 49
31.75
 74
     0
 49
-6.349999999999999
 74
     0
 49
6.349999999999999
 74
     0
 49
-6.349999999999999
 74
     0
  0
ENDTAB
  0
TABLE
  2
LAYER
  5
13
102
{ACAD_XDICTIONARY
360
14
102
}
330
0
100
AcDbSymbolTable
 70
     1
  0
LAYER
  5
5
330
13
100
AcDbSymbolTableRecord
100
AcDbLayerTableRecord
  2
0
 70
     0
 62
     7
  6
CONTINUOUS
370
    -3
390
6
  0
ENDTAB
  0
TABLE
  2
STYLE
  5
17
330
0
100
AcDbSymbolTable
 70
     1
  0
STYLE
  5
18
330
17
100
AcDbSymbolTableRecord
100
AcDbTextStyleTableRecord
  2
STANDARD
 70
     0
 40
4.5
 41
1.0
 50
0.0
 71
     0
 42
4.5
  3
isocp.shx
  4
bigfont.shx
  0
ENDTAB
  0
TABLE
  2
VIEW
  5
1D
330
0
100
AcDbSymbolTable
 70
     0
  0
ENDTAB
  0
TABLE
  2
UCS
  5
1E
330
0
100
AcDbSymbolTable
 70
     0
  0
ENDTAB
  0
TABLE
  2
APPID
  5
23
330
0
100
AcDbSymbolTable
 70
     1
  0
APPID
  5
24
330
23
100
AcDbSymbolTableRecord
100
AcDbRegAppTableRecord
  2
ACAD
 70
     0
  0
ENDTAB
  0
TABLE
  2
DIMSTYLE
  5
25
330
0
100
AcDbSymbolTable
 70
     1
100
AcDbDimStyleTable
 71
     1
340
26
  0
DIMSTYLE
105
26
330
25
100
AcDbSymbolTableRecord
100
AcDbDimStyleTableRecord
  2
STANDARD
 70
     0
340
18
  0
ENDTAB
  0
TABLE
  2
BLOCK_RECORD
  5
1
330
0
100
AcDbSymbolTable
 70
     1
  0
BLOCK_RECORD
  5
2
102
{ACAD_XDICTIONARY
360
3
102
}
330
1
100
AcDbSymbolTableRecord
100
AcDbBlockTableRecord
  2
*MODEL_SPACE
340
D
  0
BLOCK_RECORD
  5
F
330
1
100
AcDbSymbolTableRecord
100
AcDbBlockTableRecord
  2
*PAPER_SPACE
340
12
  0
BLOCK_RECORD
  5
2F
330
1
100
AcDbSymbolTableRecord
100
AcDbBlockTableRecord
  2
_OPEN
340
0
  0
ENDTAB
  0
ENDSEC
  0
SECTION
  2
BLOCKS
  0
BLOCK
  5
4
330
2
100
AcDbEntity
  8
0
100
AcDbBlockBegin
  2
*MODEL_SPACE
 70
     0
 10
0.0
 20
0.0
 30
0.0
  3
*MODEL_SPACE
  1

  0
ENDBLK
  5
C
330
2
100
AcDbEntity
  8
0
100
AcDbBlockEnd
  0
BLOCK
  5
10
330
F
100
AcDbEntity
 67
     1
  8
0
100
AcDbBlockBegin
  2
*PAPER_SPACE
 70
     0
 10
0.0
 20
0.0
 30
0.0
  3
*PAPER_SPACE
  1

  0
ENDBLK
  5
11
330
F
100
AcDbEntity
 67
     1
  8
0
100
AcDbBlockEnd
  0
BLOCK
  5
30
330
2F
100
AcDbEntity
  8
0
100
AcDbBlockBegin
  2
_OPEN
 70
     0
 10
0.0
 20
0.0
 30
0.0
  3
_OPEN
  1

  0
LINE
  5
31
330
2F
100
AcDbEntity
  8
0
  6
ByBlock
 62
     0
100
AcDbLine
 10
-1.0
 20
0.1666666666666666
 30
0.0
 11
0.0
 21
0.0
 31
0.0
  0
LINE
  5
32
330
2F
100
AcDbEntity
  8
0
  6
ByBlock
 62
     0
100
AcDbLine
 10
0.0
 20
0.0
 30
0.0
 11
-1.0
 21
-0.1666666666666666
 31
0.0
  0
LINE
  5
33
330
2F
100
AcDbEntity
  8
0
  6
ByBlock
 62
     0
100
AcDbLine
 10
0.0
 20
0.0
 30
0.0
 11
-1.0
 21
0.0
 31
0.0
  0
ENDBLK
  5
34
330
2F
100
AcDbEntity
  8
0
100
AcDbBlockEnd
  0
ENDSEC
  0
SECTION
  2
ENTITIES
  0
LINE
  5
39
330
2
100
AcDbEntity
  8
0
 48
0.08
100
AcDbLine
 10
397.5
 20
551.3000023239654
 30
0.0
 11
398.5
 21
551.3000023239654
 31
0.0
  0
LINE
  5
3A
330
2
100
AcDbEntity
  8
0
 48
0.08
100
AcDbLine
 10
397.5
 20
557.6999992722077
 30
0.0
 11
398.5
 21
557.6999992722077
 31
0.0
  0
LINE
  5
3B
330
2
100
AcDbEntity
  8
0
100
AcDbLine
 10
383.5
 20
563.0
 30
0.0
 11
384.5
 21
563.0
 31
0.0
  0
LINE
  5
3C
330
2
100
AcDbEntity
  8
0
100
AcDbLine
 10
383.5
 20
546.0
 30
0.0
 11
384.5
 21
546.0
 31
0.0
  0
LINE
  5
3D
330
2
100
AcDbEntity
  8
0
 48
0.08
100
AcDbLine
 10
397.5
 20
563.4999999999999
 30
0.0
 11
397.5
 21
545.5
 31
0.0
  0
LINE
  5
3E
330
2
100
AcDbEntity
  8
0
 48
0.08
100
AcDbLine
 10
387.3999999999999
 20
563.4999999999999
 30
0.0
 11
387.3999999999999
 21
545.5
 31
0.0
  0
LINE
  5
3F
330
2
100
AcDbEntity
  8
0
 48
0.08
100
AcDbLine
 10
388.9999992019134
 20
545.0
 30
0.0
 11
396.0000007980865
 21
545.0
 31
0.0
  0
LINE
  5
40
330
2
100
AcDbEntity
  8
0
100
AcDbLine
 10
386.5
 20
546.9999992019134
 30
0.0
 11
387.3999999999999
 21
546.9999992019134
 31
0.0
  0
LINE
  5
41
330
2
100
AcDbEntity
  8
0
100
AcDbLine
 10
387.3999999999999
 20
546.4999992019134
 30
0.0
 11
384.5
 21
546.4999992019134
 31
0.0
  0
LINE
  5
42
330
2
100
AcDbEntity
  8
0
100
AcDbLine
 10
386.5
 20
546.9999992019134
 30
0.0
 11
386.0
 21
546.4999992019134
 31
0.0
  0
LINE
  5
43
330
2
100
AcDbEntity
  8
0
 48
0.08
100
AcDbLine
 10
387.3999999999999
 20
545.5
 30
0.0
 11
388.5
 21
545.4999999999999
 31
0.0
  0
LINE
  5
44
330
2
100
AcDbEntity
  8
0
 48
0.08
100
AcDbLine
 10
388.9999992019134
 20
545.0
 30
0.0
 11
388.5
 21
545.4999992019134
 31
0.0
  0
LINE
  5
45
330
2
100
AcDbEntity
  8
0
100
AcDbLine
 10
384.5
 20
546.0
 30
0.0
 11
384.5
 21
546.4999992019134
 31
0.0
  0
LINE
  5
46
330
2
100
AcDbEntity
  8
0
 48
0.08
100
AcDbLine
 10
396.5
 20
545.4999992019134
 30
0.0
 11
396.0000007980865
 21
545.0
 31
0.0
  0
LINE
  5
47
330
2
100
AcDbEntity
  8
0
 48
0.08
100
AcDbLine
 10
396.5
 20
545.4999999999999
 30
0.0
 11
397.5
 21
545.5
 31
0.0
  0
LINE
  5
48
330
2
100
AcDbEntity
  8
0
 48
0.08
100
AcDbLine
 10
388.9999992019134
 20
564.0
 30
0.0
 11
396.0000007980865
 21
564.0
 31
0.0
  0
LINE
  5
49
330
2
100
AcDbEntity
  8
0
100
AcDbLine
 10
387.3999999999999
 20
562.5000007980865
 30
0.0
 11
384.5
 21
562.5000007980865
 31
0.0
  0
LINE
  5
4A
330
2
100
AcDbEntity
  8
0
100
AcDbLine
 10
386.5
 20
562.0000007980865
 30
0.0
 11
387.3999999999998
 21
562.0000007980865
 31
0.0
  0
LINE
  5
4B
330
2
100
AcDbEntity
  8
0
 48
0.08
100
AcDbLine
 10
387.3999999999999
 20
563.4999999999999
 30
0.0
 11
388.5
 21
563.5000000000001
 31
0.0
  0
LINE
  5
4C
330
2
100
AcDbEntity
  8
0
100
AcDbLine
 10
386.5
 20
562.0000007980865
 30
0.0
 11
386.0
 21
562.5000007980865
 31
0.0
  0
LINE
  5
4D
330
2
100
AcDbEntity
  8
0
100
AcDbLine
 10
384.5
 20
563.0
 30
0.0
 11
384.5
 21
562.5000007980865
 31
0.0
  0
LINE
  5
4E
330
2
100
AcDbEntity
  8
0
 48
0.08
100
AcDbLine
 10
388.9999992019134
 20
564.0
 30
0.0
 11
388.5
 21
563.5000007980866
 31
0.0
  0
LINE
  5
4F
330
2
100
AcDbEntity
  8
0
 48
0.08
100
AcDbLine
 10
396.5
 20
563.5000007980866
 30
0.0
 11
396.0000007980865
 21
564.0
 31
0.0
  0
LINE
  5
50
330
2
100
AcDbEntity
  8
0
 48
0.08
100
AcDbLine
 10
396.5
 20
563.5000000000001
 30
0.0
 11
397.5
 21
563.4999999999999
 31
0.0
  0
LINE
  5
51
330
2
100
AcDbEntity
  8
0
 48
0.08
100
AcDbLine
 10
398.5
 20
551.3000023239654
 30
0.0
 11
398.5
 21
557.6999992722077
 31
0.0
  0
LINE
  5
52
330
2
100
AcDbEntity
  8
0
 48
0.08
100
AcDbLine
 10
399.7001689910888
 20
552.2599243515534
 30
0.0
 11
399.7001689910888
 21
556.7398834579988
 31
0.0
  0
ARC
  5
53
330
2
100
AcDbEntity
  8
0
 48
0.08
100
AcDbCircle
 10
399.3535708522527
 20
554.499903904776
 30
0.0
 40
2.266635980633024
100
AcDbArc
 50
278.7957778980408
 51
81.20422210195918
  0
LINE
  5
54
330
2
100
AcDbEntity
  8
0
 48
0.08
100
AcDbLine
 10
398.9002178192138
 20
551.7797894924068
 30
0.0
 11
398.9002178192138
 21
556.7398834579988
 31
0.0
  0
LINE
  5
55
330
2
100
AcDbEntity
  8
0
 48
0.08
100
AcDbLine
 10
398.900072479248
 20
555.140029560904
 30
0.0
 11
399.700023651123
 21
554.0199913376373
 31
0.0
  0
LINE
  5
56
330
2
100
AcDbEntity
  8
0
 48
0.08
100
AcDbLine
 10
399.7001689910888
 20
556.7398834579988
 30
0.0
 11
398.9002178192138
 21
556.7398834579988
 31
0.0
  0
LINE
  5
57
330
2
100
AcDbEntity
  8
0
 48
0.08
100
AcDbLine
 10
399.7001689910888
 20
552.2599243515534
 30
0.0
 11
398.9002178192138
 21
552.2599243515534
 31
0.0
  0
LINE
  5
58
330
2
100
AcDbEntity
  8
0
 48
0.08
100
AcDbLine
 10
398.900072479248
 20
556.7399803513092
 30
0.0
 11
398.5
 21
556.7399803513092
 31
0.0
  0
LINE
  5
59
330
2
100
AcDbEntity
  8
0
100
AcDbLine
 10
384.5
 20
562.5000007980865
 30
0.0
 11
384.5
 21
546.4999992019134
 31
0.0
  0
LINE
  5
5A
330
2
100
AcDbEntity
  8
0
100
AcDbLine
 10
386.5
 20
562.0000007980865
 30
0.0
 11
386.5
 21
546.9999992019134
 31
0.0
  0
CIRCLE
  5
5B
330
2
100
AcDbEntity
  8
0
 48
0.08
100
AcDbCircle
 10
402.0600055694579
 20
546.1823398941559
 30
0.0
 40
1.28001040011787
  0
LINE
  5
5C
330
2
100
AcDbEntity
  8
0
 48
0.08
100
AcDbLine
 10
403.0235126495361
 20
544.0334884995025
 30
0.0
 11
402.4808616638183
 21
544.9734505051178
 31
0.0
  0
LINE
  5
5D
330
2
100
AcDbEntity
  8
0
 48
0.08
100
AcDbLine
 10
402.4808616638183
 20
544.9734505051178
 30
0.0
 11
403.0235126495361
 21
544.0334884995025
 31
0.0
  0
ARC
  5
5E
330
2
100
AcDbEntity
  8
0
 48
0.08
100
AcDbCircle
 10
400.259882766872
 20
549.2999138130016
 30
0.0
 40
1.600005295618013
100
AcDbArc
 50
128.9000245451869
 51
115.3081043381784
  0
LINE
  5
5F
330
2
100
AcDbEntity
  8
0
 48
0.08
100
AcDbLine
 10
401.0964984893798
 20
548.3311912888092
 30
0.0
 11
401.6392463684081
 21
547.3911808365387
 31
0.0
  0
LINE
  5
60
330
2
100
AcDbEntity
  8
0
 48
0.08
100
AcDbLine
 10
400.680874633789
 20
548.0911381119293
 30
0.0
 11
401.2235740661621
 21
547.151176106314
 31
0.0
  0
CIRCLE
  5
61
330
2
100
AcDbEntity
  8
0
 48
0.08
100
AcDbCircle
 10
400.2600669860839
 20
549.3000275009674
 30
0.0
 40
1.279960632324218
  0
LINE
  5
62
330
2
100
AcDbEntity
  8
0
 48
0.08
100
AcDbLine
 10
399.5759033203125
 20
550.7463539475006
 30
0.0
 11
398.9002178192138
 21
551.7797894924068
 31
0.0
  0
LINE
  5
63
330
2
100
AcDbEntity
  8
0
 48
0.08
100
AcDbLine
 10
399.255138015747
 20
550.5451065414947
 30
0.0
 11
398.5
 21
551.6999779099029
 31
0.0
  0
LINE
  5
64
330
2
100
AcDbEntity
  8
0
 48
0.08
100
AcDbLine
 10
403.4392333984373
 20
544.2734932297272
 30
0.0
 11
402.8965339660644
 21
545.2134552353424
 31
0.0
  0
LINE
  5
65
330
2
100
AcDbEntity
  8
0
 48
0.08
100
AcDbLine
 10
402.8965339660644
 20
545.2135036819977
 30
0.0
 11
403.4392333984373
 21
544.2734932297272
 31
0.0
  0
CIRCLE
  5
66
330
2
100
AcDbEntity
  8
0
 48
0.08
100
AcDbCircle
 10
401.6441749776448
 20
525.7191538563772
 30
0.0
 40
1.279968444827809
  0
LINE
  5
67
330
2
100
AcDbEntity
  8
0
 48
0.08
100
AcDbLine
 10
402.3731569876904
 20
526.7712753335747
 30
0.0
 11
402.81304472601
 21
527.7634871596108
 31
0.0
  0
LINE
  5
68
330
2
100
AcDbEntity
  8
0
 48
0.08
100
AcDbLine
 10
402.8130643612257
 20
527.76353144885
 30
0.0
 11
402.3731569876904
 21
526.7712753335747
 31
0.0
  0
LINE
  5
69
330
2
100
AcDbEntity
  8
0
 48
0.08
100
AcDbLine
 10
401.9343195703757
 20
526.96577676193
 30
0.0
 11
402.374226943911
 21
527.9580328772054
 31
0.0
  0
LINE
  5
6A
330
2
100
AcDbEntity
  8
0
 48
0.08
100
AcDbLine
 10
402.3742465791267
 20
527.9580771664446
 30
0.0
 11
401.9343392055914
 21
526.9658210511692
 31
0.0
  0
LINE
  5
6B
330
2
100
AcDbEntity
  8
0
 48
0.08
100
AcDbLine
 10
403.3933928171189
 20
530.2568658384341
 30
0.0
 11
403.8333001906542
 21
531.2491219537093
 31
0.0
  0
LINE
  5
6C
330
2
100
AcDbEntity
  8
0
 48
0.08
100
AcDbLine
 10
403.8322302344337
 20
530.0623644100787
 30
0.0
 11
404.2721179727532
 21
531.0545762361148
 31
0.0
  0
LINE
  5
6D
330
2
100
AcDbEntity
  8
0
 48
0.08
100
AcDbLine
 10
404.272137607969
 20
531.0546205253542
 30
0.0
 11
403.8322302344337
 21
530.0623644100787
 31
0.0
  0
LINE
  5
6E
330
2
100
AcDbEntity
  8
0
 48
0.08
100
AcDbLine
 10
403.8333001906542
 20
531.2491219537093
 30
0.0
 11
403.3934124523346
 21
530.2569101276733
 31
0.0
  0
LINE
  5
6F
330
2
100
AcDbEntity
  8
0
 48
0.08
100
AcDbLine
 10
404.8101121128038
 20
533.5570606164203
 30
0.0
 11
404.8169226179236
 21
534.6424376751875
 31
0.0
  0
LINE
  5
70
330
2
100
AcDbEntity
  8
0
 48
0.08
100
AcDbLine
 10
404.8168808134521
 20
534.6424621591534
 30
0.0
 11
404.8101121128038
 21
533.5570606164203
 31
0.0
  0
CIRCLE
  5
71
330
2
100
AcDbEntity
  8
0
 48
0.08
100
AcDbCircle
 10
404.5623018359155
 20
532.3012877201461
 30
0.0
 40
1.280028133128512
  0
LINE
  5
72
330
2
100
AcDbEntity
  8
0
 48
0.08
100
AcDbLine
 10
404.3301361819425
 20
533.5600336920462
 30
0.0
 11
404.3368803986251
 21
534.6453934303079
 31
0.0
  0
LINE
  5
73
330
2
100
AcDbEntity
  8
0
 48
0.08
100
AcDbLine
 10
404.3368803986251
 20
534.6453934303079
 30
0.0
 11
404.3301361819425
 21
533.5600336920462
 31
0.0
  0
CIRCLE
  5
74
330
2
100
AcDbEntity
  8
0
 48
0.08
100
AcDbCircle
 10
403.1032285891724
 20
529.010198643642
 30
0.0
 40
1.280052355866376
  0
CIRCLE
  5
75
330
2
100
AcDbEntity
  8
0
 48
0.08
100
AcDbCircle
 10
402.4080743413472
 20
518.5597454985489
 30
0.0
 40
1.280057525634765
  0
LINE
  5
76
330
2
100
AcDbEntity
  8
0
 48
0.08
100
AcDbLine
 10
402.1313981931915
 20
523.4151185852139
 30
0.0
 11
402.0162522266406
 21
524.4944163803856
 31
0.0
  0
LINE
  5
77
330
2
100
AcDbEntity
  8
0
 48
0.08
100
AcDbLine
 10
402.0162522266406
 20
524.4944163803856
 30
0.0
 11
402.1313981931915
 21
523.4151185852139
 31
0.0
  0
LINE
  5
78
330
2
100
AcDbEntity
  8
0
 48
0.08
100
AcDbLine
 10
401.6540793727278
 20
523.3641994804663
 30
0.0
 11
401.5389137709611
 21
524.4434529863988
 31
0.0
  0
LINE
  5
79
330
2
100
AcDbEntity
  8
0
 48
0.08
100
AcDbLine
 10
401.5389137709611
 20
524.4434529863988
 30
0.0
 11
401.6540793727278
 21
523.3641994804663
 31
0.0
  0
LINE
  5
7A
330
2
100
AcDbEntity
  8
0
 48
0.08
100
AcDbLine
 10
402.0360413815907
 20
519.7844633393246
 30
0.0
 11
401.9208707610163
 21
520.8638250589515
 31
0.0
  0
LINE
  5
7B
330
2
100
AcDbEntity
  8
0
 48
0.08
100
AcDbLine
 10
401.9208707610163
 20
520.8638250589515
 30
0.0
 11
402.0360610168065
 21
519.7845076285639
 31
0.0
  0
LINE
  5
7C
330
2
100
AcDbEntity
  8
0
 48
0.08
100
AcDbLine
 10
402.5132912587919
 20
519.835466003743
 30
0.0
 11
402.3981699462645
 21
520.9146998744599
 31
0.0
  0
LINE
  5
7D
330
2
100
AcDbEntity
  8
0
 48
0.08
100
AcDbLine
 10
402.3981699462645
 20
520.9146998744599
 30
0.0
 11
402.5132912587919
 21
519.835466003743
 31
0.0
  0
CIRCLE
  5
7E
330
2
100
AcDbEntity
  8
0
 48
0.08
100
AcDbCircle
 10
402.0261566217236
 20
522.1394620044748
 30
0.0
 40
1.279986176586027
  0
LINE
  5
7F
330
2
100
AcDbEntity
  8
0
 48
0.08
100
AcDbLine
 10
404.1101196842665
 20
538.2078504182848
 30
0.0
 11
404.2193549427601
 21
537.1280109911699
 31
0.0
  0
LINE
  5
80
330
2
100
AcDbEntity
  8
0
 48
0.08
100
AcDbLine
 10
404.5876436410772
 20
538.2561561677779
 30
0.0
 11
404.6968788995707
 21
537.1763167406632
 31
0.0
  0
LINE
  5
81
330
2
100
AcDbEntity
  8
0
 48
0.08
100
AcDbLine
 10
404.6968788995707
 20
537.1763167406632
 30
0.0
 11
404.5876918417389
 21
538.2561610436989
 31
0.0
  0
LINE
  5
82
330
2
100
AcDbEntity
  8
0
 48
0.08
100
AcDbLine
 10
404.2193549427601
 20
537.1280109911699
 30
0.0
 11
404.1101196842665
 21
538.2078504182848
 31
0.0
  0
LINE
  5
83
330
2
100
AcDbEntity
  8
0
 48
0.08
100
AcDbLine
 10
403.8570398799167
 20
540.7096575702273
 30
0.0
 11
403.7477948695812
 21
541.7895933986659
 31
0.0
  0
LINE
  5
84
330
2
100
AcDbEntity
  8
0
 48
0.08
100
AcDbLine
 10
404.3345638367274
 20
540.7579633197205
 30
0.0
 11
404.2253188263917
 21
541.837899148159
 31
0.0
  0
CIRCLE
  5
85
330
2
100
AcDbEntity
  8
0
 48
0.08
100
AcDbCircle
 10
404.2223658608279
 20
539.4829093069634
 30
0.0
 40
1.28001040011787
  0
CIRCLE
  5
86
330
2
100
AcDbEntity
  8
0
 48
0.08
100
AcDbCircle
 10
403.8600410461425
 20
543.0646522873444
 30
0.0
 40
1.28001040011787
  0
CIRCLE
  5
87
330
2
100
AcDbEntity
  8
0
 48
0.08
100
AcDbCircle
 10
404.5846906755134
 20
535.9011663265821
 30
0.0
 40
1.280028133128512
  0
LINE
  5
88
330
2
100
AcDbEntity
  8
0
 48
0.08
100
AcDbLine
 10
405.5946257374714
 20
506.4403276813974
 30
0.0
 11
405.703860995965
 21
507.5201671085122
 31
0.0
  0
LINE
  5
89
330
2
100
AcDbEntity
  8
0
 48
0.08
100
AcDbLine
 10
406.0721496942821
 20
506.3920219319043
 30
0.0
 11
406.1813849527756
 21
507.471861359019
 31
0.0
  0
LINE
  5
8A
330
2
100
AcDbEntity
  8
0
 48
0.08
100
AcDbLine
 10
406.1813849527756
 20
507.471861359019
 30
0.0
 11
406.0721978949438
 21
506.3920170559832
 31
0.0
  0
LINE
  5
8B
330
2
100
AcDbEntity
  8
0
 48
0.08
100
AcDbLine
 10
405.703860995965
 20
507.5201671085122
 30
0.0
 11
405.5946257374714
 21
506.4403276813974
 31
0.0
  0
CIRCLE
  5
8C
330
2
100
AcDbEntity
  8
0
 48
0.08
100
AcDbCircle
 10
403.5445116226628
 20
498.4658382055263
 30
0.0
 40
1.28001040011787
  0
LINE
  5
8D
330
2
100
AcDbEntity
  8
0
 48
0.08
100
AcDbLine
 10
404.508018702741
 20
500.6146896001796
 30
0.0
 11
403.9653677170232
 21
499.6747275945644
 31
0.0
  0
LINE
  5
8E
330
2
100
AcDbEntity
  8
0
 48
0.08
100
AcDbLine
 10
403.9653677170232
 20
499.6747275945644
 30
0.0
 11
404.508018702741
 21
500.6146896001796
 31
0.0
  0
LINE
  5
8F
330
2
100
AcDbEntity
  8
0
 48
0.08
100
AcDbLine
 10
405.3415459331216
 20
503.9385205294548
 30
0.0
 11
405.2323009227861
 21
502.8585847010162
 31
0.0
  0
LINE
  5
90
330
2
100
AcDbEntity
  8
0
 48
0.08
100
AcDbLine
 10
405.8190698899323
 20
503.8902147799616
 30
0.0
 11
405.7098248795966
 21
502.8102789515231
 31
0.0
  0
CIRCLE
  5
91
330
2
100
AcDbEntity
  8
0
 48
0.08
100
AcDbCircle
 10
405.7068719140328
 20
505.1652687927188
 30
0.0
 40
1.28001040011787
  0
LINE
  5
92
330
2
100
AcDbEntity
  8
0
 48
0.08
100
AcDbLine
 10
404.9237394516422
 20
500.374684869955
 30
0.0
 11
404.3810400192693
 21
499.4347228643398
 31
0.0
  0
LINE
  5
93
330
2
100
AcDbEntity
  8
0
 48
0.08
100
AcDbLine
 10
404.3810400192693
 20
499.4346744176844
 30
0.0
 11
404.9237394516422
 21
500.374684869955
 31
0.0
  0
CIRCLE
  5
94
330
2
100
AcDbEntity
  8
0
 48
0.08
100
AcDbCircle
 10
405.3445470993474
 20
501.5835258123378
 30
0.0
 40
1.28001040011787
  0
CIRCLE
  5
95
330
2
100
AcDbEntity
  8
0
 48
0.08
100
AcDbCircle
 10
404.2274288732509
 20
515.4533388412783
 30
0.0
 40
1.280052355866376
  0
LINE
  5
96
330
2
100
AcDbEntity
  8
0
 48
0.08
100
AcDbLine
 10
403.3849216412963
 20
516.4169549151657
 30
0.0
 11
402.8363828711401
 21
517.3535422913499
 31
0.0
  0
LINE
  5
97
330
2
100
AcDbEntity
  8
0
 48
0.08
100
AcDbLine
 10
403.7991203434581
 20
516.6595420484772
 30
0.0
 11
403.2505815733018
 21
517.5961294246612
 31
0.0
  0
LINE
  5
98
330
2
100
AcDbEntity
  8
0
 48
0.08
100
AcDbLine
 10
403.2505815733018
 20
517.5961294246612
 30
0.0
 11
403.7990958594922
 21
516.6595838529485
 31
0.0
  0
LINE
  5
99
330
2
100
AcDbEntity
  8
0
 48
0.08
100
AcDbLine
 10
405.2042761732
 20
513.3105482578951
 30
0.0
 11
404.6557618870096
 21
514.2470938296079
 31
0.0
  0
LINE
  5
9A
330
2
100
AcDbEntity
  8
0
 48
0.08
100
AcDbLine
 10
405.6184993593276
 20
513.5530935867349
 30
0.0
 11
405.0699605891713
 21
514.4896809629192
 31
0.0
  0
LINE
  5
9B
330
2
100
AcDbEntity
  8
0
 48
0.08
100
AcDbLine
 10
405.0699605891713
 20
514.4896809629192
 30
0.0
 11
405.6184748753617
 21
513.5531353912064
 31
0.0
  0
LINE
  5
9C
330
2
100
AcDbEntity
  8
0
 48
0.08
100
AcDbLine
 10
404.6557374030438
 20
514.2471356340791
 30
0.0
 11
405.2042761732
 21
513.3105482578951
 31
0.0
  0
LINE
  5
9D
330
2
100
AcDbEntity
  8
0
 48
0.08
100
AcDbLine
 10
406.2946181660087
 20
511.0911174832619
 30
0.0
 11
406.3014286711284
 21
510.0057404244946
 31
0.0
  0
LINE
  5
9E
330
2
100
AcDbEntity
  8
0
 48
0.08
100
AcDbLine
 10
406.301386866657
 20
510.0057159405288
 30
0.0
 11
406.2946181660087
 21
511.0911174832619
 31
0.0
  0
CIRCLE
  5
9F
330
2
100
AcDbEntity
  8
0
 48
0.08
100
AcDbCircle
 10
406.0468078891204
 20
512.346890379536
 30
0.0
 40
1.280028133128512
  0
LINE
  5
A0
330
2
100
AcDbEntity
  8
0
 48
0.08
100
AcDbLine
 10
405.8146422351474
 20
511.088144407636
 30
0.0
 11
405.82138645183
 21
510.0027846693742
 31
0.0
  0
LINE
  5
A1
330
2
100
AcDbEntity
  8
0
 48
0.08
100
AcDbLine
 10
405.82138645183
 20
510.0027846693742
 30
0.0
 11
405.8146422351474
 21
511.088144407636
 31
0.0
  0
CIRCLE
  5
A2
330
2
100
AcDbEntity
  8
0
 48
0.08
100
AcDbCircle
 10
406.0691967287183
 20
508.7470117731
 30
0.0
 40
1.280028133128512
  0
CIRCLE
  5
A3
330
2
100
AcDbEntity
  8
0
 48
0.08
100
AcDbCircle
 10
400.3624703543095
 20
496.7821590747706
 30
0.0
 40
1.28001040011787
  0
LINE
  5
A4
330
2
100
AcDbEntity
  8
0
 48
0.08
100
AcDbLine
 10
402.5454257479818
 20
497.6657266281464
 30
0.0
 11
401.5860044851811
 21
497.1580784169663
 31
0.0
  0
LINE
  5
A5
330
2
100
AcDbEntity
  8
0
 48
0.08
100
AcDbLine
 10
402.3209548339822
 20
498.0899616850787
 30
0.0
 11
401.3615335711815
 21
497.5823134738986
 31
0.0
  0
LINE
  5
A6
330
2
100
AcDbEntity
  8
0
 48
0.08
100
AcDbLine
 10
393.0271925237004
 20
492.0707426327568
 30
0.0
 11
394.1103327163651
 21
492.1400678614616
 31
0.0
  0
LINE
  5
A7
330
2
100
AcDbEntity
  8
0
 48
0.08
100
AcDbLine
 10
393.0577825036021
 20
491.5917089766174
 30
0.0
 11
394.1409898727465
 21
491.661020733968
 31
0.0
  0
CIRCLE
  5
A8
330
2
100
AcDbEntity
  8
0
 48
0.08
100
AcDbCircle
 10
395.3803936092715
 20
491.9807923372034
 30
0.0
 40
1.28001040011787
  0
LINE
  5
A9
330
2
100
AcDbEntity
  8
0
 48
0.08
100
AcDbLine
 10
397.3388780889443
 20
493.2885949475115
 30
0.0
 11
396.3794568261436
 21
492.7809467363314
 31
0.0
  0
LINE
  5
AA
330
2
100
AcDbEntity
  8
0
 48
0.08
100
AcDbLine
 10
397.5633490029439
 20
492.8643598905792
 30
0.0
 11
396.6039277401432
 21
492.3567116793991
 31
0.0
  0
CIRCLE
  5
AB
330
2
100
AcDbEntity
  8
0
 48
0.08
100
AcDbCircle
 10
398.5624348776249
 20
493.6644714679591
 30
0.0
 40
1.28001040011787
  0
LINE
  5
AC
330
2
100
AcDbEntity
  8
0
 48
0.08
100
AcDbLine
 10
398.9832909719853
 20
494.8733608569972
 30
0.0
 11
399.525941957703
 21
495.8133228626124
 31
0.0
  0
LINE
  5
AD
330
2
100
AcDbEntity
  8
0
 48
0.08
100
AcDbLine
 10
399.3989632742314
 20
494.6333076801173
 30
0.0
 11
399.9416627066043
 21
495.5733181323878
 31
0.0
  0
LINE
  5
AE
330
2
100
AcDbEntity
  8
0
  6
Continuous
 62
     7
 48
2.0
100
AcDbLine
 10
498.5001221867383
 20
576.5028097128519
 30
0.0
 11
494.5011433017284
 21
576.5001935946629
 31
0.0
  0
ARC
  5
AF
330
2
100
AcDbEntity
  8
0
  6
Continuous
 62
     7
 48
2.0
100
AcDbCircle
 10
492.3002487887559
 20
560.0010504632522
 30
0.0
 40
1.999937879678725
100
AcDbArc
 50
0.0017435558828549
 51
90.00380809175707
  0
LINE
  5
B0
330
2
100
AcDbEntity
  8
0
  6
Continuous
 62
     7
 48
2.0
100
AcDbLine
 10
490.5011954840555
 20
584.5001861232744
 30
0.0
 11
490.5000327648604
 21
580.5020792776608
 31
0.0
  0
ARC
  5
B1
330
2
100
AcDbEntity
  8
0
  6
Continuous
 62
     7
 48
2.0
100
AcDbCircle
 10
488.206233849596
 20
578.700304358697
 30
0.0
 40
0.9998862487766302
100
AcDbArc
 50
359.9914531536318
 51
90.00299519872704
  0
ARC
  5
B2
330
2
100
AcDbEntity
  8
0
  6
Continuous
 62
     7
 48
2.0
100
AcDbCircle
 10
488.206233849596
 20
565.3000549009657
 30
0.0
 40
0.9998862487766395
100
AcDbArc
 50
269.9970048012714
 51
0.0085468463681895
  0
CIRCLE
  5
B3
330
2
100
AcDbEntity
  8
0
  6
Continuous
 62
     7
 48
2.0
100
AcDbCircle
 10
483.0037883275253
 20
566.5001302639487
 30
0.0
 40
1.699895463234558
  0
LINE
  5
B4
330
2
100
AcDbEntity
  8
0
  6
Continuous
 62
     7
 48
2.0
100
AcDbLine
 10
476.0999493200934
 20
554.5000930243983
 30
0.0
 11
476.0964611625079
 21
559.9997548172159
 31
0.0
  0
ARC
  5
B5
330
2
100
AcDbEntity
  8
0
  6
Continuous
 62
     7
 48
2.0
100
AcDbCircle
 10
478.0962337274437
 20
560.0012152430342
 30
0.0
 40
1.999773098207185
100
AcDbArc
 50
89.99700737022314
 51
180.0418428686699
  0
LINE
  5
B6
330
2
100
AcDbEntity
  8
0
  6
Continuous
 62
     7
 48
2.0
100
AcDbLine
 10
489.2061200872478
 20
565.3002040546067
 30
0.0
 11
489.2061200872478
 21
578.7001552050562
 31
0.0
  0
ARC
  5
B7
330
2
100
AcDbEntity
  8
0
  6
Continuous
 62
     7
 48
2.0
100
AcDbCircle
 10
494.5000743937185
 20
580.5002355056342
 30
0.0
 40
4.000042053790497
100
AcDbArc
 50
179.9735901878499
 51
270.0153108186238
  0
LINE
  5
B8
330
2
100
AcDbEntity
  8
0
  6
Continuous
 62
     7
 48
2.0
100
AcDbLine
 10
492.3001158654061
 20
562.0009883385137
 30
0.0
 11
478.096338178078
 21
562.0009883385137
 31
0.0
  0
LINE
  5
B9
330
2
100
AcDbEntity
  8
0
  6
Continuous
 62
     7
 48
2.0
100
AcDbLine
 10
494.3001866675087
 20
514.7001180828974
 30
0.0
 11
494.3001866675087
 21
560.0011113229437
 31
0.0
  0
LINE
  5
BA
330
2
100
AcDbEntity
  8
0
  6
Continuous
 62
     7
 48
2.0
100
AcDbLine
 10
498.5001221867383
 20
487.5022751374758
 30
0.0
 11
494.5011433017284
 21
487.5001434856182
 31
0.0
  0
LINE
  5
BB
330
2
100
AcDbEntity
  8
0
  6
Continuous
 62
     7
 48
2.0
100
AcDbLine
 10
490.5013892705879
 20
479.5002478502729
 30
0.0
 11
490.5002265513928
 21
483.5017459602055
 31
0.0
  0
ARC
  5
BC
330
2
100
AcDbEntity
  8
0
  6
Continuous
 62
     7
 48
2.0
100
AcDbCircle
 10
494.5002394121299
 20
483.4999364295984
 30
0.0
 40
4.000207056548561
100
AcDbArc
 50
90.00093162504462
 51
179.974081724078
  0
LINE
  5
BD
330
2
100
AcDbEntity
  8
0
  6
Continuous
 62
     7
 48
2.0
100
AcDbLine
 10
498.5001221867383
 20
580.4999991590221
 30
0.0
 11
498.5001221867383
 21
483.4999991590219
 31
0.0
  0
ARC
  5
BE
330
2
100
AcDbEntity
  8
0
  6
Continuous
 48
2.0
100
AcDbCircle
 10
494.5001221867383
 20
580.4999991590221
 30
0.0
 40
4.0
100
AcDbArc
 50
0.0
 51
90.0
  0
ARC
  5
BF
330
2
100
AcDbEntity
  8
0
  6
Continuous
 62
     7
 48
2.0
100
AcDbCircle
 10
494.5001221867383
 20
483.4999991590219
 30
0.0
 40
4.0
100
AcDbArc
 50
270.0
 51
0.0
  0
ARC
  5
C0
330
2
100
AcDbEntity
  8
0
  6
Continuous
 62
     7
 48
2.0
100
AcDbCircle
 10
436.499965812853
 20
580.5002351111357
 30
0.0
 40
4.000041713625058
100
AcDbArc
 50
270.017988965126
 51
0.0347427422972201
  0
LINE
  5
C1
330
2
100
AcDbEntity
  8
0
  6
Continuous
 62
     7
 48
2.0
100
AcDbLine
 10
432.5001111557431
 20
576.5022283532544
 30
0.0
 11
436.5012216926109
 21
576.5001935946629
 31
0.0
  0
LINE
  5
C2
330
2
100
AcDbEntity
  8
0
  6
Continuous
 62
     7
 48
2.0
100
AcDbLine
 10
440.5011695102834
 20
584.499992336742
 30
0.0
 11
440.5000067910885
 21
580.5026606372583
 31
0.0
  0
ARC
  5
C3
330
2
100
AcDbEntity
  8
0
  6
Continuous
 62
     7
 48
2.0
100
AcDbCircle
 10
442.806208044434
 20
578.700304358697
 30
0.0
 40
0.9998862487766302
100
AcDbArc
 50
89.99700480127131
 51
180.0085468463682
  0
ARC
  5
C4
330
2
100
AcDbEntity
  8
0
  6
Continuous
 62
     7
 48
2.0
100
AcDbCircle
 10
452.9001523571029
 20
560.0010504632522
 30
0.0
 40
1.999937879678725
100
AcDbArc
 50
0.0017435558828549
 51
90.00380809175707
  0
LINE
  5
C5
330
2
100
AcDbEntity
  8
0
  6
Continuous
 62
     7
 48
2.0
100
AcDbLine
 10
454.9000902358556
 20
554.5000930243983
 30
0.0
 11
454.9000902358556
 21
560.0011113229437
 31
0.0
  0
ARC
  5
C6
330
2
100
AcDbEntity
  8
0
  6
Continuous
 62
     7
 48
2.0
100
AcDbCircle
 10
438.6999845537255
 20
560.0010504632522
 30
0.0
 40
1.999937879678725
100
AcDbArc
 50
89.99619190824294
 51
179.9982564441139
  0
ARC
  5
C7
330
2
100
AcDbEntity
  8
0
  6
Continuous
 62
     7
 48
2.0
100
AcDbCircle
 10
442.806208044434
 20
565.3000549009657
 30
0.0
 40
0.9998862487766302
100
AcDbArc
 50
179.9914531536318
 51
270.0029951987271
  0
LINE
  5
C8
330
2
100
AcDbEntity
  8
0
  6
Continuous
 62
     7
 48
2.0
100
AcDbLine
 10
452.9000194337529
 20
562.0009883385137
 30
0.0
 11
438.7001174770754
 21
562.0009883385137
 31
0.0
  0
LINE
  5
C9
330
2
100
AcDbEntity
  8
0
  6
Continuous
 62
     7
 48
2.0
100
AcDbLine
 10
441.8063218067821
 20
578.7001552050562
 30
0.0
 11
441.8063218067821
 21
565.3002040546067
 31
0.0
  0
LINE
  5
CA
330
2
100
AcDbEntity
  8
0
  6
Continuous
 62
     7
 48
2.0
100
AcDbLine
 10
436.7000466749728
 20
514.7001180828974
 30
0.0
 11
436.7000466749728
 21
560.0011113229437
 31
0.0
  0
LINE
  5
CB
330
2
100
AcDbEntity
  8
0
  6
Continuous
 62
     7
 48
2.0
100
AcDbLine
 10
363.4958688673517
 20
582.8890236965058
 30
0.0
 11
363.4962564404167
 21
584.4891190954945
 31
0.0
  0
LINE
  5
CC
330
2
100
AcDbEntity
  8
0
  6
Continuous
 62
     7
 48
2.0
100
AcDbLine
 10
363.4958688673517
 20
582.8890236965058
 30
0.0
 11
362.9978682249253
 21
582.88912041444
 31
0.0
  0
LINE
  5
CD
330
2
100
AcDbEntity
  8
0
  6
Continuous
 62
     7
 48
2.0
100
AcDbLine
 10
363.4962564404167
 20
584.4891190954945
 30
0.0
 11
379.5691165489456
 21
584.2113524706088
 31
0.0
  0
ARC
  5
CE
330
2
100
AcDbEntity
  8
0
  6
Continuous
 62
     7
 48
2.0
100
AcDbCircle
 10
436.5001309316661
 20
483.5002677742703
 30
0.0
 40
3.999875860072322
100
AcDbArc
 50
359.9989671209213
 51
89.98437551525176
  0
LINE
  5
CF
330
2
100
AcDbEntity
  8
0
  6
Continuous
 62
     7
 48
2.0
100
AcDbLine
 10
440.5013632968159
 20
479.5000540637403
 30
0.0
 11
440.5000067910885
 21
483.5019397467381
 31
0.0
  0
LINE
  5
D0
330
2
100
AcDbEntity
  8
0
  6
Continuous
 62
     7
 48
2.0
100
AcDbLine
 10
432.5001111557431
 20
487.5020813509433
 30
0.0
 11
436.5012216926109
 21
487.5001434856182
 31
0.0
  0
LINE
  5
D1
330
2
100
AcDbEntity
  8
0
  6
Continuous
 62
     7
 48
2.0
100
AcDbLine
 10
363.4960626538843
 20
481.1095269141293
 30
0.0
 11
363.4962575709602
 21
479.4999991590219
 31
0.0
  0
LINE
  5
D2
330
2
100
AcDbEntity
  8
0
  6
Continuous
 62
     7
 48
2.0
100
AcDbLine
 10
363.4960626538843
 20
481.1095269141293
 30
0.0
 11
362.9978682249253
 21
481.1095269141293
 31
0.0
  0
ARC
  5
D3
330
2
100
AcDbEntity
  8
0
  6
Continuous
 48
2.0
100
AcDbCircle
 10
379.5000000000001
 20
483.7884289590398
 30
0.0
 40
4.0
100
AcDbArc
 50
270.9969305158103
 51
0.0
  0
LINE
  5
D4
330
2
100
AcDbEntity
  8
0
  6
Continuous
 62
     7
100
AcDbLine
 10
363.4978682249254
 20
447.4999991590221
 30
0.0
 11
363.4978682249252
 21
445.9999991590219
 31
0.0
  0
LINE
  5
D5
330
2
100
AcDbEntity
  8
0
  6
Continuous
 62
     7
100
AcDbLine
 10
362.9976788367752
 20
445.9999991590219
 30
0.0
 11
363.4978682249252
 21
445.9999991590219
 31
0.0
  0
LINE
  5
D6
330
2
100
AcDbEntity
  8
0
  6
Continuous
 62
     7
100
AcDbLine
 10
363.4978682249254
 20
447.4999991590221
 30
0.0
 11
379.5698096257491
 21
447.2194623783482
 31
0.0
  0
LINE
  5
D7
330
2
100
AcDbEntity
  8
0
  6
Continuous
 62
     7
100
AcDbLine
 10
362.9978682249253
 20
584.501352158398
 30
0.0
 11
362.9978682249252
 21
474.499999159022
 31
0.0
  0
LINE
  5
D8
330
2
100
AcDbEntity
  8
0
  6
Continuous
 62
     7
 48
2.0
100
AcDbLine
 10
432.5001111557431
 20
580.4999991590221
 30
0.0
 11
432.5001111557431
 21
483.4999991590219
 31
0.0
  0
LINE
  5
D9
330
2
100
AcDbEntity
  8
0
  6
Continuous
 62
     7
100
AcDbLine
 10
265.2774925952913
 20
481.2253804281963
 30
0.0
 11
272.0015158286699
 21
474.499999159022
 31
0.0
  0
ARC
  5
DA
330
2
100
AcDbEntity
  8
0
  6
Continuous
 62
     7
100
AcDbCircle
 10
273.4911173982616
 20
434.5011926615431
 30
0.0
 40
1.99988805822308
100
AcDbArc
 50
89.9970044058053
 51
180.0029955941963
  0
ARC
  5
DB
330
2
100
AcDbEntity
  8
0
  6
Continuous
 62
     7
100
AcDbCircle
 10
266.7764096825781
 20
437.5514492812794
 30
0.0
 40
2.000271825383169
100
AcDbArc
 50
91.46255562255758
 51
179.9995659170731
  0
LINE
  5
DC
330
2
100
AcDbEntity
  8
0
  6
Continuous
 62
     7
100
AcDbLine
 10
362.9976744271911
 20
442.0018356008709
 30
0.0
 11
266.7253554665267
 21
439.5510694558238
 31
0.0
  0
LINE
  5
DD
330
2
100
AcDbEntity
  8
0
  6
Continuous
 62
     7
100
AcDbLine
 10
273.4803692852645
 20
436.5119333901409
 30
0.0
 11
362.9976744271911
 21
437.0014664664013
 31
0.0
  0
LINE
  5
DE
330
2
100
AcDbEntity
  8
0
  6
Continuous
 62
     7
100
AcDbLine
 10
363.0
 20
447.5018525011488
 30
0.0
 11
247.4301958058066
 21
445.4847310678776
 31
0.0
  0
ARC
  5
DF
330
2
100
AcDbEntity
  8
0
  6
Continuous
100
AcDbCircle
 10
247.5
 20
441.4853401924476
 30
0.0
 40
4.0
100
AcDbArc
 50
90.99992218684397
 51
180.0
  0
LINE
  5
E0
330
2
100
AcDbEntity
  8
0
  6
Continuous
 62
     7
100
AcDbLine
 10
362.9978682249253
 20
584.501352158398
 30
0.0
 11
247.4269048097974
 21
582.3890790633249
 31
0.0
  0
ARC
  5
E1
330
2
100
AcDbEntity
  8
0
  6
Continuous
100
AcDbCircle
 10
247.5
 20
578.3897469824433
 30
0.0
 40
4.0
100
AcDbArc
 50
91.0470697558015
 51
180.0
  0
LINE
  5
E2
330
2
100
AcDbEntity
  8
0
  6
CENTER
 62
     4
100
AcDbLine
 10
193.5956444060649
 20
554.4999991590221
 30
0.0
 11
412.6153649892954
 21
554.4999991590221
 31
0.0
  0
ARC
  5
E4
330
2
100
AcDbEntity
  8
0
  6
Continuous
100
AcDbCircle
 10
247.5
 20
485.5366723610618
 30
0.0
 40
4.0
100
AcDbArc
 50
180.0
 51
268.9997532084416
  0
LINE
  5
E5
330
2
100
AcDbEntity
  8
0
  6
Continuous
 62
     7
100
AcDbLine
 10
363.4978682249254
 20
381.4999991590221
 30
0.0
 11
363.4978682249252
 21
382.9999991590221
 31
0.0
  0
LINE
  5
E6
330
2
100
AcDbEntity
  8
0
  6
Continuous
 62
     7
100
AcDbLine
 10
362.9978638153413
 20
382.9999991590221
 30
0.0
 11
363.4978682249252
 21
382.9999991590221
 31
0.0
  0
LINE
  5
E7
330
2
100
AcDbEntity
  8
0
  6
Continuous
 62
     7
100
AcDbLine
 10
363.4978682249254
 20
381.4999991590221
 30
0.0
 11
379.5698096257491
 21
381.780535939696
 31
0.0
  0
ARC
  5
E8
330
2
100
AcDbEntity
  8
0
  6
Continuous
100
AcDbCircle
 10
379.5
 20
385.7799267203215
 30
0.0
 40
4.0
100
AcDbArc
 50
271.0000000000001
 51
0.0
  0
CIRCLE
  5
E9
330
2
100
AcDbEntity
  8
0
  6
Continuous
 62
     7
100
AcDbCircle
 10
313.5
 20
414.4999991554629
 30
0.0
 40
2.175185767199706
  0
CIRCLE
  5
EA
330
2
100
AcDbEntity
  8
0
  6
Continuous
 62
     7
100
AcDbCircle
 10
313.5
 20
414.4999991554629
 30
0.0
 40
3.175182074999998
  0
ARC
  5
EB
330
2
100
AcDbEntity
  8
0
  6
Continuous
 62
     7
100
AcDbCircle
 10
273.4892116555277
 20
394.4879561652268
 30
0.0
 40
1.999920292666059
100
AcDbArc
 50
179.9970956105422
 51
269.6911519859643
  0
LINE
  5
EC
330
2
100
AcDbEntity
  8
0
  6
CENTER
 62
     4
100
AcDbLine
 10
197.4584070009532
 20
414.499999159022
 30
0.0
 11
407.5956444060649
 21
414.499999159022
 31
0.0
  0
ARC
  5
ED
330
2
100
AcDbEntity
  8
0
  6
Continuous
 62
     7
100
AcDbCircle
 10
266.7779225504989
 20
391.4488902966884
 30
0.0
 40
2.000621938590096
100
AcDbArc
 50
180.0102073444771
 51
268.5276711158872
  0
LINE
  5
EE
330
2
100
AcDbEntity
  8
0
  6
Continuous
 62
     7
100
AcDbLine
 10
362.9978682249253
 20
386.9985503126415
 30
0.0
 11
266.7265182529311
 21
389.4489288622203
 31
0.0
  0
LINE
  5
EF
330
2
100
AcDbEntity
  8
0
  6
Continuous
 62
     7
100
AcDbLine
 10
362.9978682249253
 20
391.9989194471111
 30
0.0
 11
273.4784313079237
 21
392.4880649279034
 31
0.0
  0
LINE
  5
F0
330
2
100
AcDbEntity
  8
0
  6
Continuous
 62
     7
100
AcDbLine
 10
363.0
 20
381.4981458097771
 30
0.0
 11
247.4301824553322
 21
383.5156533803424
 31
0.0
  0
ARC
  5
F1
330
2
100
AcDbEntity
  8
0
  6
Continuous
100
AcDbCircle
 10
247.5
 20
387.5150440227349
 30
0.0
 40
4.0
100
AcDbArc
 50
180.0
 51
268.9998865525652
  0
LINE
  5
F2
330
2
100
AcDbEntity
  8
0
  6
Continuous
 62
     7
100
AcDbLine
 10
264.7761378572525
 20
437.5514644356915
 30
0.0
 11
264.7773006436568
 21
391.4485338823529
 31
0.0
  0
LINE
  5
F3
330
2
100
AcDbEntity
  8
0
  6
Continuous
 62
     7
100
AcDbLine
 10
271.4912293427717
 20
434.5010881014323
 30
0.0
 11
271.4892913654312
 21
394.4880575435039
 31
0.0
  0
CIRCLE
  5
F4
330
2
100
AcDbEntity
  8
0
  6
Continuous
 62
     7
100
AcDbCircle
 10
348.5
 20
429.499999155463
 30
0.0
 40
2.000380211068724
  0
CIRCLE
  5
F5
330
2
100
AcDbEntity
  8
0
  6
Continuous
 62
     7
100
AcDbCircle
 10
348.5
 20
429.499999155463
 30
0.0
 40
1.500188259434509
  0
ARC
  5
F6
330
2
100
AcDbEntity
  8
0
  6
Continuous
 62
     7
 48
2.0
100
AcDbCircle
 10
465.5000197779743
 20
554.5000960505417
 30
0.0
 40
10.59992954211934
100
AcDbArc
 50
180.0000163572086
 51
359.9999836427914
  0
LINE
  5
F7
330
2
100
AcDbEntity
  8
0
  6
Continuous
 62
     7
 48
2.0
100
AcDbLine
 10
492.3001158654061
 20
512.700144174061
 30
0.0
 11
438.7001174770754
 21
512.700144174061
 31
0.0
  0
LINE
  5
F8
330
2
100
AcDbEntity
  8
0
  6
Continuous
 62
     7
 48
2.0
100
AcDbLine
 10
442.8062603145671
 20
579.7001906061075
 30
0.0
 11
488.2061815794628
 21
579.7001906061075
 31
0.0
  0
LINE
  5
F9
330
2
100
AcDbEntity
  8
0
  6
Continuous
 62
     7
 48
2.0
100
AcDbLine
 10
442.8062603145671
 20
564.3001686535553
 30
0.0
 11
488.2061815794628
 21
564.3001686535553
 31
0.0
  0
LINE
  5
FA
330
2
100
AcDbEntity
  8
0
  6
CENTER
 62
     4
 48
2.0
100
AcDbLine
 10
455.4988880905696
 20
554.4999991590219
 30
0.0
 11
475.50111190943
 21
554.4999991590221
 31
0.0
  0
LINE
  5
FB
330
2
100
AcDbEntity
  8
0
  6
Continuous
 62
     7
 48
2.0
100
AcDbLine
 10
363.4958688673517
 20
582.8890236965058
 30
0.0
 11
363.4960626538843
 21
481.1095269141293
 31
0.0
  0
LINE
  5
FC
330
2
100
AcDbEntity
  8
0
  6
Continuous
 62
     7
100
AcDbLine
 10
363.4978682249252
 20
445.9999991590219
 30
0.0
 11
363.4978682249252
 21
382.9999991590221
 31
0.0
  0
CIRCLE
  5
FD
330
2
100
AcDbEntity
  8
0
  6
Continuous
 62
     7
100
AcDbCircle
 10
436.5000589734157
 20
580.5001414123355
 30
0.0
 40
2.75
  0
ARC
  5
FE
330
2
100
AcDbEntity
  8
0
  6
Continuous
 62
     7
100
AcDbCircle
 10
438.7500589734157
 20
578.2501414123353
 30
0.0
 40
1.767766952966368
100
AcDbArc
 50
98.13010235415621
 51
171.8698976458451
  0
ARC
  5
FF
330
2
100
AcDbEntity
  8
0
  6
Continuous
 62
     7
100
AcDbCircle
 10
434.2500589734156
 20
578.2501414123357
 30
0.0
 40
1.767766952966368
100
AcDbArc
 50
8.13010235415483
 51
81.8698976458438
  0
ARC
  5
100
330
2
100
AcDbEntity
  8
0
  6
Continuous
 62
     7
100
AcDbCircle
 10
434.2500589734156
 20
582.7501414123357
 30
0.0
 40
1.767766952966368
100
AcDbArc
 50
278.1301023541561
 51
351.8698976458452
  0
ARC
  5
101
330
2
100
AcDbEntity
  8
0
  6
Continuous
 62
     7
100
AcDbCircle
 10
438.7500589734157
 20
582.7501414123355
 30
0.0
 40
1.767766952966368
100
AcDbArc
 50
188.1301023541548
 51
261.8698976458438
  0
CIRCLE
  5
102
330
2
100
AcDbEntity
  8
0
  6
Continuous
 62
     7
100
AcDbCircle
 10
494.4999156224382
 20
580.4999795562274
 30
0.0
 40
2.75
  0
ARC
  5
103
330
2
100
AcDbEntity
  8
0
  6
Continuous
 62
     7
100
AcDbCircle
 10
496.7499156224383
 20
578.2499795562273
 30
0.0
 40
1.767766952966368
100
AcDbArc
 50
98.13010235415621
 51
171.8698976458451
  0
ARC
  5
104
330
2
100
AcDbEntity
  8
0
  6
Continuous
 62
     7
100
AcDbCircle
 10
492.2499156224382
 20
578.2499795562274
 30
0.0
 40
1.767766952966368
100
AcDbArc
 50
8.13010235415483
 51
81.8698976458438
  0
ARC
  5
105
330
2
100
AcDbEntity
  8
0
  6
Continuous
 62
     7
100
AcDbCircle
 10
492.2499156224382
 20
582.7499795562276
 30
0.0
 40
1.767766952966368
100
AcDbArc
 50
278.1301023541561
 51
351.8698976458452
  0
ARC
  5
106
330
2
100
AcDbEntity
  8
0
  6
Continuous
 62
     7
100
AcDbCircle
 10
496.7499156224383
 20
582.7499795562273
 30
0.0
 40
1.767766952966368
100
AcDbArc
 50
188.1301023541548
 51
261.8698976458438
  0
CIRCLE
  5
107
330
2
100
AcDbEntity
  8
0
  6
Continuous
 62
     7
100
AcDbCircle
 10
436.5000589734157
 20
483.5001956679454
 30
0.0
 40
2.75
  0
ARC
  5
108
330
2
100
AcDbEntity
  8
0
  6
Continuous
 62
     7
100
AcDbCircle
 10
438.7500589734157
 20
481.2501956679453
 30
0.0
 40
1.767766952966368
100
AcDbArc
 50
98.13010235415621
 51
171.8698976458451
  0
ARC
  5
109
330
2
100
AcDbEntity
  8
0
  6
Continuous
 62
     7
100
AcDbCircle
 10
434.2500589734156
 20
481.2501956679455
 30
0.0
 40
1.767766952966368
100
AcDbArc
 50
8.13010235415483
 51
81.8698976458438
  0
ARC
  5
10A
330
2
100
AcDbEntity
  8
0
  6
Continuous
 62
     7
100
AcDbCircle
 10
434.2500589734156
 20
485.7501956679455
 30
0.0
 40
1.767766952966368
100
AcDbArc
 50
278.1301023541561
 51
351.8698976458452
  0
ARC
  5
10B
330
2
100
AcDbEntity
  8
0
  6
Continuous
 62
     7
100
AcDbCircle
 10
438.7500589734157
 20
485.7501956679454
 30
0.0
 40
1.767766952966368
100
AcDbArc
 50
188.1301023541548
 51
261.8698976458438
  0
CIRCLE
  5
10C
330
2
100
AcDbEntity
  8
0
  6
Continuous
 62
     7
100
AcDbCircle
 10
494.5137394263418
 20
483.5002925612118
 30
0.0
 40
2.75
  0
ARC
  5
10D
330
2
100
AcDbEntity
  8
0
  6
Continuous
 62
     7
100
AcDbCircle
 10
496.7637394263418
 20
481.2502925612117
 30
0.0
 40
1.767766952966368
100
AcDbArc
 50
98.13010235415621
 51
171.8698976458451
  0
ARC
  5
10E
330
2
100
AcDbEntity
  8
0
  6
Continuous
 62
     7
100
AcDbCircle
 10
492.2637394263417
 20
481.2502925612118
 30
0.0
 40
1.767766952966368
100
AcDbArc
 50
8.13010235415483
 51
81.8698976458438
  0
ARC
  5
10F
330
2
100
AcDbEntity
  8
0
  6
Continuous
 62
     7
100
AcDbCircle
 10
492.2637394263418
 20
485.7502925612118
 30
0.0
 40
1.767766952966368
100
AcDbArc
 50
278.1301023541561
 51
351.8698976458452
  0
ARC
  5
110
330
2
100
AcDbEntity
  8
0
  6
Continuous
 62
     7
100
AcDbCircle
 10
496.7637394263418
 20
485.7502925612118
 30
0.0
 40
1.767766952966368
100
AcDbArc
 50
188.1301023541548
 51
261.8698976458438
  0
CIRCLE
  5
111
330
2
100
AcDbEntity
  8
0
  6
Continuous
 62
     7
100
AcDbCircle
 10
445.5000869030786
 20
558.0000715881783
 30
0.0
 40
2.337499999999999
  0
ARC
  5
112
330
2
100
AcDbEntity
  8
0
  6
Continuous
 62
     7
100
AcDbCircle
 10
447.4125869030786
 20
556.0875715881783
 30
0.0
 40
1.502601910021413
100
AcDbArc
 50
98.13010235415621
 51
171.8698976458451
  0
ARC
  5
113
330
2
100
AcDbEntity
  8
0
  6
Continuous
 62
     7
100
AcDbCircle
 10
447.4125869030786
 20
559.9125715881784
 30
0.0
 40
1.502601910021413
100
AcDbArc
 50
188.1301023541548
 51
261.8698976458438
  0
ARC
  5
114
330
2
100
AcDbEntity
  8
0
  6
Continuous
 62
     7
100
AcDbCircle
 10
443.5875869030787
 20
556.0875715881785
 30
0.0
 40
1.502601910021413
100
AcDbArc
 50
8.13010235415483
 51
81.8698976458438
  0
ARC
  5
115
330
2
100
AcDbEntity
  8
0
  6
Continuous
 62
     7
100
AcDbCircle
 10
443.5875869030787
 20
559.9125715881785
 30
0.0
 40
1.502601910021413
100
AcDbArc
 50
278.1301023541561
 51
351.8698976458452
  0
CIRCLE
  5
116
330
2
100
AcDbEntity
  8
0
  6
Continuous
 62
     7
100
AcDbCircle
 10
485.4999526528701
 20
558.0000715881783
 30
0.0
 40
2.337499999999999
  0
ARC
  5
117
330
2
100
AcDbEntity
  8
0
  6
Continuous
 62
     7
100
AcDbCircle
 10
487.4124526528702
 20
556.0875715881783
 30
0.0
 40
1.502601910021413
100
AcDbArc
 50
98.13010235415621
 51
171.8698976458451
  0
ARC
  5
118
330
2
100
AcDbEntity
  8
0
  6
Continuous
 62
     7
100
AcDbCircle
 10
487.4124526528702
 20
559.9125715881784
 30
0.0
 40
1.502601910021413
100
AcDbArc
 50
188.1301023541548
 51
261.8698976458438
  0
ARC
  5
119
330
2
100
AcDbEntity
  8
0
  6
Continuous
 62
     7
100
AcDbCircle
 10
483.5874526528701
 20
556.0875715881785
 30
0.0
 40
1.502601910021413
100
AcDbArc
 50
8.13010235415483
 51
81.8698976458438
  0
ARC
  5
11A
330
2
100
AcDbEntity
  8
0
  6
Continuous
 62
     7
100
AcDbCircle
 10
483.5874526528702
 20
559.9125715881785
 30
0.0
 40
1.502601910021413
100
AcDbArc
 50
278.1301023541561
 51
351.8698976458452
  0
CIRCLE
  5
11B
330
2
100
AcDbEntity
  8
0
  6
Continuous
 62
     7
100
AcDbCircle
 10
444.4999546087611
 20
572.0001796298316
 30
0.0
 40
1.814999999999999
  0
ARC
  5
11C
330
2
100
AcDbEntity
  8
0
  6
Continuous
 62
     7
100
AcDbCircle
 10
445.9849546087611
 20
570.5151796298313
 30
0.0
 40
1.166726188957802
100
AcDbArc
 50
98.13010235415621
 51
171.8698976458451
  0
ARC
  5
11D
330
2
100
AcDbEntity
  8
0
  6
Continuous
 62
     7
100
AcDbCircle
 10
443.0149546087609
 20
570.5151796298314
 30
0.0
 40
1.166726188957802
100
AcDbArc
 50
8.13010235415483
 51
81.8698976458438
  0
ARC
  5
11E
330
2
100
AcDbEntity
  8
0
  6
Continuous
 62
     7
100
AcDbCircle
 10
443.0149546087611
 20
573.4851796298316
 30
0.0
 40
1.166726188957802
100
AcDbArc
 50
278.1301023541561
 51
351.8698976458452
  0
ARC
  5
11F
330
2
100
AcDbEntity
  8
0
  6
Continuous
 62
     7
100
AcDbCircle
 10
445.9849546087611
 20
573.4851796298314
 30
0.0
 40
1.166726188957802
100
AcDbArc
 50
188.1301023541548
 51
261.8698976458438
  0
CIRCLE
  5
120
330
2
100
AcDbEntity
  8
0
  6
Continuous
 62
     7
100
AcDbCircle
 10
486.4998911606551
 20
572.0001796298316
 30
0.0
 40
1.814999999999999
  0
ARC
  5
121
330
2
100
AcDbEntity
  8
0
  6
Continuous
 62
     7
100
AcDbCircle
 10
487.9848911606551
 20
570.5151796298313
 30
0.0
 40
1.166726188957802
100
AcDbArc
 50
98.13010235415621
 51
171.8698976458451
  0
ARC
  5
122
330
2
100
AcDbEntity
  8
0
  6
Continuous
 62
     7
100
AcDbCircle
 10
485.014891160655
 20
570.5151796298314
 30
0.0
 40
1.166726188957802
100
AcDbArc
 50
8.13010235415483
 51
81.8698976458438
  0
ARC
  5
123
330
2
100
AcDbEntity
  8
0
  6
Continuous
 62
     7
100
AcDbCircle
 10
485.0148911606551
 20
573.4851796298316
 30
0.0
 40
1.166726188957802
100
AcDbArc
 50
278.1301023541561
 51
351.8698976458452
  0
ARC
  5
124
330
2
100
AcDbEntity
  8
0
  6
Continuous
 62
     7
100
AcDbCircle
 10
487.9848911606551
 20
573.4851796298314
 30
0.0
 40
1.166726188957802
100
AcDbArc
 50
188.1301023541548
 51
261.8698976458438
  0
LINE
  5
125
330
2
100
AcDbEntity
  8
0
  6
Continuous
 62
     7
100
AcDbLine
 10
363.0
 20
447.5018525011488
 30
0.0
 11
363.0
 21
381.4981458097771
 31
0.0
  0
LINE
  5
126
330
2
100
AcDbEntity
  8
0
  6
CENTER
 62
     4
 48
2.0
100
AcDbLine
 10
313.5
 20
422.7834465162366
 30
0.0
 11
313.5
 21
406.2834465162366
 31
0.0
  0
CIRCLE
  5
127
330
2
100
AcDbEntity
  8
0
  6
Continuous
 62
     7
100
AcDbCircle
 10
278.5
 20
429.499999155463
 30
0.0
 40
2.000380211068724
  0
CIRCLE
  5
128
330
2
100
AcDbEntity
  8
0
  6
Continuous
 62
     7
100
AcDbCircle
 10
278.5
 20
429.499999155463
 30
0.0
 40
1.500188259434509
  0
CIRCLE
  5
129
330
2
100
AcDbEntity
  8
0
  6
Continuous
 62
     7
100
AcDbCircle
 10
278.5
 20
399.499999155463
 30
0.0
 40
1.500188259434509
  0
CIRCLE
  5
12A
330
2
100
AcDbEntity
  8
0
  6
Continuous
 62
     7
100
AcDbCircle
 10
278.5
 20
399.499999155463
 30
0.0
 40
2.000380211068724
  0
CIRCLE
  5
12B
330
2
100
AcDbEntity
  8
0
  6
Continuous
 62
     7
100
AcDbCircle
 10
348.5
 20
399.499999155463
 30
0.0
 40
2.000380211068724
  0
CIRCLE
  5
12C
330
2
100
AcDbEntity
  8
0
  6
Continuous
 62
     7
100
AcDbCircle
 10
348.5
 20
399.499999155463
 30
0.0
 40
1.500188259434509
  0
LINE
  5
12D
330
2
100
AcDbEntity
  8
0
  6
CENTER
 62
     4
 48
2.0
100
AcDbLine
 10
278.5
 20
433.7834465162366
 30
0.0
 11
278.5
 21
425.2165517946894
 31
0.0
  0
LINE
  5
12E
330
2
100
AcDbEntity
  8
0
  6
CENTER
 62
     4
 48
2.0
100
AcDbLine
 10
274.2165526392264
 20
429.4999991590221
 30
0.0
 11
282.7834473607736
 21
429.4999991590221
 31
0.0
  0
LINE
  5
12F
330
2
100
AcDbEntity
  8
0
  6
CENTER
 62
     4
 48
2.0
100
AcDbLine
 10
344.2165526392264
 20
429.4999991590221
 30
0.0
 11
352.7834473607736
 21
429.4999991590221
 31
0.0
  0
LINE
  5
130
330
2
100
AcDbEntity
  8
0
  6
CENTER
 62
     4
 48
2.0
100
AcDbLine
 10
348.5
 20
433.7834465162366
 30
0.0
 11
348.5
 21
425.2165517946894
 31
0.0
  0
LINE
  5
131
330
2
100
AcDbEntity
  8
0
  6
CENTER
 62
     4
 48
2.0
100
AcDbLine
 10
274.2165526392264
 20
399.4999991590221
 30
0.0
 11
282.7834473607736
 21
399.4999991590221
 31
0.0
  0
LINE
  5
132
330
2
100
AcDbEntity
  8
0
  6
CENTER
 62
     4
 48
2.0
100
AcDbLine
 10
278.5
 20
403.7834465162366
 30
0.0
 11
278.5
 21
395.2165517946894
 31
0.0
  0
LINE
  5
133
330
2
100
AcDbEntity
  8
0
  6
CENTER
 62
     4
 48
2.0
100
AcDbLine
 10
344.2165526392264
 20
399.4999991590221
 30
0.0
 11
352.7834473607736
 21
399.4999991590221
 31
0.0
  0
LINE
  5
134
330
2
100
AcDbEntity
  8
0
  6
CENTER
 62
     4
 48
2.0
100
AcDbLine
 10
348.5
 20
403.7834465162366
 30
0.0
 11
348.5
 21
395.2165517946894
 31
0.0
  0
LINE
  5
135
330
2
100
AcDbEntity
  8
0
  6
CENTER
 62
     4
 48
2.0
100
AcDbLine
 10
278.5
 20
478.7834465162366
 30
0.0
 11
278.5
 21
470.2165517946893
 31
0.0
  0
LINE
  5
136
330
2
100
AcDbEntity
  8
0
  6
CENTER
 62
     4
 48
2.0
100
AcDbLine
 10
348.5
 20
478.7834465162366
 30
0.0
 11
348.5
 21
470.2165517946893
 31
0.0
  0
LINE
  5
137
330
2
100
AcDbEntity
  8
0
  6
CENTER
 62
     4
 48
2.0
100
AcDbLine
 10
313.5
 20
478.7834465162366
 30
0.0
 11
313.5
 21
471.4219425019463
 31
0.0
  0
LINE
  5
138
330
2
100
AcDbEntity
  8
0
  6
Continuous
 62
     7
100
AcDbLine
 10
487.9927381916972
 20
474.499999159022
 30
0.0
 11
492.9929897257605
 21
479.5002428151879
 31
0.0
  0
LINE
  5
139
330
2
100
AcDbEntity
  8
0
  6
Continuous
 62
     7
100
AcDbLine
 10
443.0071075777188
 20
474.499999159022
 30
0.0
 11
438.0068560436554
 21
479.5002428151879
 31
0.0
  0
LINE
  5
13A
330
2
100
AcDbEntity
  8
0
  6
CENTER
 62
     4
 48
2.0
100
AcDbLine
 10
480.4999228847033
 20
469.0000812081373
 30
0.0
 11
480.4999294099305
 21
477.2834465145559
 31
0.0
  0
LINE
  5
13B
330
2
100
AcDbEntity
  8
0
  6
CENTER
 62
     4
 48
2.0
100
AcDbLine
 10
450.4999315611492
 20
469.0000812081373
 30
0.0
 11
450.4999250359221
 21
477.2834465145559
 31
0.0
  0
LINE
  5
13C
330
2
100
AcDbEntity
  8
0
  6
Continuous
 62
     7
100
AcDbLine
 10
442.9999125152457
 20
564.500159327516
 30
0.0
 11
479.4999392405973
 21
564.500159327516
 31
0.0
  0
LINE
  5
13D
330
2
100
AcDbEntity
  8
0
  6
Continuous
 62
     7
100
AcDbLine
 10
442.9999125152457
 20
579.5001835835677
 30
0.0
 11
487.9997914971561
 21
579.5001835835677
 31
0.0
  0
LINE
  5
13E
330
2
100
AcDbEntity
  8
0
  6
Continuous
 62
     7
100
AcDbLine
 10
478.9999707297698
 20
569.5001351151591
 30
0.0
 11
454.9999319200871
 21
569.5001351151591
 31
0.0
  0
LINE
  5
13F
330
2
100
AcDbEntity
  8
0
  6
Continuous
 62
     7
100
AcDbLine
 10
454.9999319200871
 20
565.5001932422935
 30
0.0
 11
478.9999707297698
 21
565.5001932422935
 31
0.0
  0
LINE
  5
140
330
2
100
AcDbEntity
  8
0
  6
Continuous
 62
     7
100
AcDbLine
 10
478.9999707297698
 20
570.000200519109
 30
0.0
 11
454.9999319200871
 21
570.000200519109
 31
0.0
  0
LINE
  5
141
330
2
100
AcDbEntity
  8
0
  6
Continuous
 62
     7
100
AcDbLine
 10
454.9999319200871
 20
574.0001423919746
 30
0.0
 11
478.9999707297698
 21
574.0001423919746
 31
0.0
  0
LINE
  5
142
330
2
100
AcDbEntity
  8
0
  6
Continuous
 62
     7
100
AcDbLine
 10
454.9999319200871
 20
569.5001351151591
 30
0.0
 11
454.9999319200871
 21
565.5001932422935
 31
0.0
  0
LINE
  5
143
330
2
100
AcDbEntity
  8
0
  6
Continuous
 62
     7
100
AcDbLine
 10
441.9999754935905
 20
578.5001496687901
 30
0.0
 11
441.9999754935905
 21
565.5001932422935
 31
0.0
  0
ARC
  5
144
330
2
100
AcDbEntity
  8
0
  6
Continuous
 62
     7
100
AcDbCircle
 10
443.000191126719
 20
565.5003749383438
 30
0.0
 40
1.000215649631611
100
AcDbArc
 50
180.0104081723721
 51
269.9840401799868
  0
ARC
  5
145
330
2
100
AcDbEntity
  8
0
  6
Continuous
 62
     7
100
AcDbCircle
 10
443.000191126719
 20
578.4999679727398
 30
0.0
 40
1.000215649631611
100
AcDbArc
 50
90.01595982001315
 51
179.9895918276246
  0
LINE
  5
146
330
2
100
AcDbEntity
  8
0
  6
Continuous
 62
     7
100
AcDbLine
 10
454.9999319200871
 20
570.000200519109
 30
0.0
 11
454.9999319200871
 21
574.0001423919746
 31
0.0
  0
LINE
  5
147
330
2
100
AcDbEntity
  8
0
  6
Continuous
 62
     7
100
AcDbLine
 10
487.9997914971561
 20
569.0001666043315
 30
0.0
 11
482.4999440918078
 21
569.0001666043315
 31
0.0
  0
ARC
  5
148
330
2
100
AcDbEntity
  8
0
  6
Continuous
 62
     7
100
AcDbCircle
 10
482.5003074664631
 20
566.9997353801693
 30
0.0
 40
2.000431257165244
100
AcDbArc
 50
90.0104076729332
 51
179.9868165704839
  0
LINE
  5
149
330
2
100
AcDbEntity
  8
0
  6
Continuous
 62
     7
100
AcDbLine
 10
478.9999707297698
 20
565.5001932422935
 30
0.0
 11
478.9999707297698
 21
569.5001351151591
 31
0.0
  0
ARC
  5
14A
330
2
100
AcDbEntity
  8
0
  6
Continuous
 62
     7
100
AcDbCircle
 10
479.4999915106528
 20
565.5000440888743
 30
0.0
 40
0.9998847627245387
100
AcDbArc
 50
269.9970048012714
 51
0.0085468463681895
  0
LINE
  5
14B
330
2
100
AcDbEntity
  8
0
  6
Continuous
 62
     7
100
AcDbLine
 10
480.4998762622527
 20
565.5001932422935
 30
0.0
 11
480.4998762622527
 21
567.0001956678986
 31
0.0
  0
LINE
  5
14C
330
2
100
AcDbEntity
  8
0
  6
Continuous
 62
     7
100
AcDbLine
 10
478.9999707297698
 20
574.0001423919746
 30
0.0
 11
478.9999707297698
 21
570.000200519109
 31
0.0
  0
LINE
  5
14D
330
2
100
AcDbEntity
  8
0
  6
Continuous
 62
     7
100
AcDbLine
 10
488.999922305056
 20
578.5001496687901
 30
0.0
 11
488.999922305056
 21
570.000200519109
 31
0.0
  0
ARC
  5
14E
330
2
100
AcDbEntity
  8
0
  6
Continuous
 62
     7
100
AcDbCircle
 10
488.0000375041313
 20
570.0000513861144
 30
0.0
 40
0.9998848120461627
100
AcDbArc
 50
269.985903214666
 51
0.0085456755657961
  0
ARC
  5
14F
330
2
100
AcDbEntity
  8
0
  6
Continuous
 62
     7
100
AcDbCircle
 10
488.0000375041313
 20
578.5002988017845
 30
0.0
 40
0.999884812046154
100
AcDbArc
 50
359.9914543244342
 51
90.01409678533228
  0
LINE
  5
150
330
2
100
AcDbEntity
  8
0
  6
CENTER
 62
     4
100
AcDbLine
 10
465.4999567024157
 20
466.9295453816543
 30
0.0
 11
465.5000164563826
 21
587.7834473022381
 31
0.0
  0
LINE
  5
151
330
2
100
AcDbEntity
  8
0
  6
Continuous
 62
     7
100
AcDbLine
 10
327.8272470146167
 20
545.9750515837995
 30
0.0
 11
323.5147279293616
 21
545.9750515837995
 31
0.0
  0
LINE
  5
152
330
2
100
AcDbEntity
  8
0
  6
Continuous
 62
     7
100
AcDbLine
 10
327.4521737383738
 20
545.4749861798496
 30
0.0
 11
323.0147594185339
 21
545.4749861798496
 31
0.0
  0
LINE
  5
153
330
2
100
AcDbEntity
  8
0
  6
Continuous
 62
     7
100
AcDbLine
 10
327.114694993565
 20
544.975017669022
 30
0.0
 11
322.5147909077062
 21
544.975017669022
 31
0.0
  0
LINE
  5
154
330
2
100
AcDbEntity
  8
0
  6
Continuous
 62
     7
100
AcDbLine
 10
326.8147138870685
 20
544.4750491581944
 30
0.0
 11
322.1811878877877
 21
544.4750491581944
 31
0.0
  0
LINE
  5
155
330
2
100
AcDbEntity
  8
0
  6
Continuous
 62
     7
100
AcDbLine
 10
326.5147327805717
 20
543.9749837542445
 30
0.0
 11
321.8476817609915
 21
543.9749837542445
 31
0.0
  0
LINE
  5
156
330
2
100
AcDbEntity
  8
0
  6
Continuous
 62
     7
100
AcDbLine
 10
326.042185023342
 20
542.9750467325892
 30
0.0
 11
321.1672013634057
 21
542.9750467325892
 31
0.0
  0
LINE
  5
157
330
2
100
AcDbEntity
  8
0
  6
Continuous
 62
     7
100
AcDbLine
 10
325.8058626981658
 20
542.4749813286394
 30
0.0
 11
320.8896994612719
 21
542.4749813286394
 31
0.0
  0
LINE
  5
158
330
2
100
AcDbEntity
  8
0
  6
Continuous
 62
     7
100
AcDbLine
 10
325.6512212750493
 20
541.9750128178117
 30
0.0
 11
320.6397152058581
 21
541.9750128178117
 31
0.0
  0
LINE
  5
159
330
2
100
AcDbEntity
  8
0
  6
Continuous
 62
     7
100
AcDbLine
 10
325.496579851933
 20
541.475044306984
 30
0.0
 11
320.403392880682
 21
541.475044306984
 31
0.0
  0
LINE
  5
15A
330
2
100
AcDbEntity
  8
0
  6
Continuous
 62
     7
100
AcDbLine
 10
325.3420353219387
 20
540.9749789030341
 30
0.0
 11
320.1671674486282
 21
540.9749789030341
 31
0.0
  0
LINE
  5
15B
330
2
100
AcDbEntity
  8
0
  6
Continuous
 62
     7
100
AcDbLine
 10
322.5146940145839
 20
544.9749207758998
 30
0.0
 11
324.1396885678961
 21
546.5999153292118
 31
0.0
  0
LINE
  5
15C
330
2
100
AcDbEntity
  8
0
  6
Continuous
 62
     7
100
AcDbLine
 10
326.2784104553958
 20
543.4750152434169
 30
0.0
 11
321.4934405060329
 21
543.4750152434169
 31
0.0
  0
LINE
  5
15D
330
2
100
AcDbEntity
  8
0
  6
Continuous
 62
     7
100
AcDbLine
 10
323.6396231639462
 20
528.9749594981929
 30
0.0
 11
323.1396546531184
 21
529.3499358813136
 31
0.0
  0
LINE
  5
15E
330
2
100
AcDbEntity
  8
0
  6
Continuous
 62
     7
100
AcDbLine
 10
326.6130792996591
 20
529.9749934129704
 30
0.0
 11
322.3895081006326
 21
529.9749934129704
 31
0.0
  0
LINE
  5
15F
330
2
100
AcDbEntity
  8
0
  6
Continuous
 62
     7
100
AcDbLine
 10
327.250054685353
 20
529.4750249021426
 30
0.0
 11
322.9729015897204
 21
529.4750249021426
 31
0.0
  0
LINE
  5
160
330
2
100
AcDbEntity
  8
0
  6
Continuous
 62
     7
100
AcDbLine
 10
325.202218546527
 20
540.4750103922065
 30
0.0
 11
320.0478920151342
 21
540.4750103922065
 31
0.0
  0
LINE
  5
161
330
2
100
AcDbEntity
  8
0
  6
Continuous
 62
     7
100
AcDbLine
 10
325.0771295256978
 20
539.9750418813789
 30
0.0
 11
319.8896655464944
 21
539.9750418813789
 31
0.0
  0
LINE
  5
162
330
2
100
AcDbEntity
  8
0
  6
Continuous
 62
     7
100
AcDbLine
 10
324.952137397991
 20
539.4749764774288
 30
0.0
 11
319.7561468240292
 21
539.4749764774288
 31
0.0
  0
LINE
  5
163
330
2
100
AcDbEntity
  8
0
  6
Continuous
 62
     7
100
AcDbLine
 10
324.8115454776013
 20
538.9750079666014
 30
0.0
 11
319.6226281015638
 21
538.9750079666014
 31
0.0
  0
LINE
  5
164
330
2
100
AcDbEntity
  8
0
  6
Continuous
 62
     7
100
AcDbLine
 10
324.7177529352599
 20
538.4750394557737
 30
0.0
 11
319.5073252860824
 21
538.4750394557737
 31
0.0
  0
LINE
  5
165
330
2
100
AcDbEntity
  8
0
  6
Continuous
 62
     7
100
AcDbLine
 10
324.624057286041
 20
537.9749740518238
 30
0.0
 11
319.4102383775845
 21
537.9749740518238
 31
0.0
  0
LINE
  5
166
330
2
100
AcDbEntity
  8
0
  6
Continuous
 62
     7
100
AcDbLine
 10
324.5302647436996
 20
537.4750055409962
 30
0.0
 11
319.4056844008386
 21
537.4750055409962
 31
0.0
  0
LINE
  5
167
330
2
100
AcDbEntity
  8
0
  6
Continuous
 62
     7
100
AcDbLine
 10
324.4365690944804
 20
536.9750370301686
 30
0.0
 11
319.4011304240927
 21
536.9750370301686
 31
0.0
  0
LINE
  5
168
330
2
100
AcDbEntity
  8
0
  6
Continuous
 62
     7
100
AcDbLine
 10
324.3718444888153
 20
536.4750685193408
 30
0.0
 11
319.3964795542245
 21
536.4750685193408
 31
0.0
  0
LINE
  5
169
330
2
100
AcDbEntity
  8
0
  6
Continuous
 62
     7
100
AcDbLine
 10
324.3360909267037
 20
535.975003115391
 30
0.0
 11
319.3919255774785
 21
535.975003115391
 31
0.0
  0
LINE
  5
16A
330
2
100
AcDbEntity
  8
0
  6
Continuous
 62
     7
100
AcDbLine
 10
324.3003373645922
 20
535.4750346045634
 30
0.0
 11
319.4270008877344
 21
535.4750346045634
 31
0.0
  0
LINE
  5
16B
330
2
100
AcDbEntity
  8
0
  6
Continuous
 62
     7
100
AcDbLine
 10
324.264680695603
 20
534.9750660937356
 30
0.0
 11
319.5017054849917
 21
534.9750660937356
 31
0.0
  0
LINE
  5
16C
330
2
100
AcDbEntity
  8
0
  6
Continuous
 62
     7
100
AcDbLine
 10
324.3229134620773
 20
534.4750006897859
 30
0.0
 11
319.576410082249
 21
534.4750006897859
 31
0.0
  0
LINE
  5
16D
330
2
100
AcDbEntity
  8
0
  6
Continuous
 62
     7
100
AcDbLine
 10
324.3811462285515
 20
533.9750321789581
 30
0.0
 11
319.7329893678106
 21
533.9750321789581
 31
0.0
  0
LINE
  5
16E
330
2
100
AcDbEntity
  8
0
  6
Continuous
 62
     7
100
AcDbLine
 10
324.4866628386855
 20
533.4750636681304
 30
0.0
 11
319.8896655464944
 21
533.4750636681304
 31
0.0
  0
LINE
  5
16F
330
2
100
AcDbEntity
  8
0
  6
Continuous
 62
     7
100
AcDbLine
 10
324.6396570787235
 20
532.9749982641807
 30
0.0
 11
320.1396498019083
 21
532.9749982641807
 31
0.0
  0
LINE
  5
170
330
2
100
AcDbEntity
  8
0
  6
Continuous
 62
     7
100
AcDbLine
 10
324.8063132489996
 20
532.4750297533531
 30
0.0
 11
320.3896340573219
 21
532.4750297533531
 31
0.0
  0
LINE
  5
171
330
2
100
AcDbEntity
  8
0
  6
Continuous
 62
     7
100
AcDbLine
 10
325.0324617963391
 20
531.9750612425253
 30
0.0
 11
320.7060869946017
 21
531.9750612425253
 31
0.0
  0
LINE
  5
172
330
2
100
AcDbEntity
  8
0
  6
Continuous
 62
     7
100
AcDbLine
 10
325.3181996138644
 20
531.4749958385755
 30
0.0
 11
321.0225399318814
 21
531.4749958385755
 31
0.0
  0
LINE
  5
173
330
2
100
AcDbEntity
  8
0
  6
Continuous
 62
     7
100
AcDbLine
 10
325.7232128648837
 20
530.9750273277479
 30
0.0
 11
321.4169918325751
 21
530.9750273277479
 31
0.0
  0
LINE
  5
174
330
2
100
AcDbEntity
  8
0
  6
Continuous
 62
     7
100
AcDbLine
 10
326.1681460822714
 20
530.4750588169201
 30
0.0
 11
321.8895395898049
 21
530.4750588169201
 31
0.0
  0
LINE
  5
175
330
2
100
AcDbEntity
  8
0
  6
Continuous
 62
     7
100
AcDbLine
 10
317.2646370784048
 20
528.2249098388292
 30
0.0
 11
318.1396788654754
 21
527.8499334557084
 31
0.0
  0
LINE
  5
176
330
2
100
AcDbEntity
  8
0
  6
Continuous
 62
     7
100
AcDbLine
 10
305.6396909498064
 20
528.3499019665359
 30
0.0
 11
306.389643716048
 21
527.9749255834153
 31
0.0
  0
LINE
  5
177
330
2
100
AcDbEntity
  8
0
  6
Continuous
 62
     7
100
AcDbLine
 10
311.6397006522271
 20
527.4749570725877
 30
0.0
 11
308.5147036733099
 21
538.5999346903583
 31
0.0
  0
LINE
  5
178
330
2
100
AcDbEntity
  8
0
  6
Continuous
 62
     7
100
AcDbLine
 10
295.639642481398
 20
528.2249098388292
 30
0.0
 11
296.6396763961754
 21
527.7249413280014
 31
0.0
  0
LINE
  5
179
330
2
100
AcDbEntity
  8
0
  6
Continuous
 62
     7
100
AcDbLine
 10
298.1396788217806
 20
527.9749255834153
 30
0.0
 11
298.6397442257305
 21
528.2249098388292
 31
0.0
  0
LINE
  5
17A
330
2
100
AcDbEntity
  8
0
  6
Continuous
 62
     7
100
AcDbLine
 10
287.1396933317169
 20
527.9749255834153
 30
0.0
 11
288.1397272464944
 21
528.2249098388292
 31
0.0
  0
LINE
  5
17B
330
2
100
AcDbEntity
  8
0
  6
Continuous
 62
     7
100
AcDbLine
 10
296.6396763961754
 20
527.4749570725877
 30
0.0
 11
286.6397248208892
 21
527.4749570725877
 31
0.0
  0
LINE
  5
17C
330
2
100
AcDbEntity
  8
0
  6
Continuous
 62
     7
100
AcDbLine
 10
296.1395140991034
 20
527.9751193696597
 30
0.0
 11
287.1398871179614
 21
527.9751193696597
 31
0.0
  0
LINE
  5
17D
330
2
100
AcDbEntity
  8
0
  6
Continuous
 62
     7
100
AcDbLine
 10
286.6397248208892
 20
527.7249413280014
 30
0.0
 11
287.1396933317169
 21
527.9749255834153
 31
0.0
  0
LINE
  5
17E
330
2
100
AcDbEntity
  8
0
  6
Continuous
 62
     7
100
AcDbLine
 10
286.6397248208892
 20
527.4749570725877
 30
0.0
 11
286.6397248208892
 21
527.7249413280014
 31
0.0
  0
LINE
  5
17F
330
2
100
AcDbEntity
  8
0
  6
Continuous
 62
     7
100
AcDbLine
 10
307.1396933754116
 20
527.4749570725877
 30
0.0
 11
297.6397103109531
 21
527.4749570725877
 31
0.0
  0
LINE
  5
180
330
2
100
AcDbEntity
  8
0
  6
Continuous
 62
     7
100
AcDbLine
 10
306.3894499298034
 20
527.9751193696597
 30
0.0
 11
298.139872608025
 21
527.9751193696597
 31
0.0
  0
LINE
  5
181
330
2
100
AcDbEntity
  8
0
  6
Continuous
 62
     7
100
AcDbLine
 10
296.6396763961754
 20
527.7249413280014
 30
0.0
 11
296.6396763961754
 21
527.4749570725877
 31
0.0
  0
LINE
  5
182
330
2
100
AcDbEntity
  8
0
  6
Continuous
 62
     7
100
AcDbLine
 10
297.6397103109531
 20
527.4749570725877
 30
0.0
 11
297.6397103109531
 21
527.7249413280014
 31
0.0
  0
LINE
  5
183
330
2
100
AcDbEntity
  8
0
  6
Continuous
 62
     7
100
AcDbLine
 10
297.6397103109531
 20
527.7249413280014
 30
0.0
 11
298.1396788217806
 21
527.9749255834153
 31
0.0
  0
LINE
  5
184
330
2
100
AcDbEntity
  8
0
  6
Continuous
 62
     7
100
AcDbLine
 10
306.389643716048
 20
527.9749255834153
 30
0.0
 11
307.1396933754116
 21
527.7249413280014
 31
0.0
  0
LINE
  5
185
330
2
100
AcDbEntity
  8
0
  6
Continuous
 62
     7
100
AcDbLine
 10
307.1396933754116
 20
527.7249413280014
 30
0.0
 11
307.1396933754116
 21
527.4749570725877
 31
0.0
  0
LINE
  5
186
330
2
100
AcDbEntity
  8
0
  6
Continuous
 62
     7
100
AcDbLine
 10
318.3896631208893
 20
527.4749570725877
 30
0.0
 11
311.6397006522271
 21
527.4749570725877
 31
0.0
  0
LINE
  5
187
330
2
100
AcDbEntity
  8
0
  6
Continuous
 62
     7
100
AcDbLine
 10
317.8477398881258
 20
527.9751193696597
 30
0.0
 11
311.4992056249597
 21
527.9751193696597
 31
0.0
  0
LINE
  5
188
330
2
100
AcDbEntity
  8
0
  6
Continuous
 62
     7
100
AcDbLine
 10
318.1396788654754
 20
527.8499334557084
 30
0.0
 11
318.3896631208893
 21
527.7249413280014
 31
0.0
  0
LINE
  5
189
330
2
100
AcDbEntity
  8
0
  6
Continuous
 62
     7
100
AcDbLine
 10
318.3896631208893
 20
527.7249413280014
 30
0.0
 11
318.3896631208893
 21
527.4749570725877
 31
0.0
  0
LINE
  5
18A
330
2
100
AcDbEntity
  8
0
  6
Continuous
 62
     7
100
AcDbLine
 10
294.6397054597427
 20
549.2248469041792
 30
0.0
 11
293.889655800379
 21
549.4748311595929
 31
0.0
  0
LINE
  5
18B
330
2
100
AcDbEntity
  8
0
  6
Continuous
 62
     7
100
AcDbLine
 10
299.0059033347262
 20
545.4749861798496
 30
0.0
 11
294.2768407169036
 21
545.4749861798496
 31
0.0
  0
LINE
  5
18C
330
2
100
AcDbEntity
  8
0
  6
Continuous
 62
     7
100
AcDbLine
 10
298.865117628092
 20
544.975017669022
 30
0.0
 11
294.1318886060126
 21
544.975017669022
 31
0.0
  0
LINE
  5
18D
330
2
100
AcDbEntity
  8
0
  6
Continuous
 62
     7
100
AcDbLine
 10
298.7242350283355
 20
544.4750491581944
 30
0.0
 11
293.9870333882437
 21
544.4750491581944
 31
0.0
  0
LINE
  5
18E
330
2
100
AcDbEntity
  8
0
  6
Continuous
 62
     7
100
AcDbLine
 10
298.583352428579
 20
543.9749837542445
 30
0.0
 11
293.8420812773525
 21
543.9749837542445
 31
0.0
  0
LINE
  5
18F
330
2
100
AcDbEntity
  8
0
  6
Continuous
 62
     7
100
AcDbLine
 10
298.4425667219449
 20
543.4750152434169
 30
0.0
 11
293.6972260595837
 21
543.4750152434169
 31
0.0
  0
LINE
  5
190
330
2
100
AcDbEntity
  8
0
  6
Continuous
 62
     7
100
AcDbLine
 10
298.3016841221883
 20
542.9750467325892
 30
0.0
 11
293.5522739486926
 21
542.9750467325892
 31
0.0
  0
LINE
  5
191
330
2
100
AcDbEntity
  8
0
  6
Continuous
 62
     7
100
AcDbLine
 10
298.1608015224319
 20
542.4749813286394
 30
0.0
 11
293.4073218378015
 21
542.4749813286394
 31
0.0
  0
LINE
  5
192
330
2
100
AcDbEntity
  8
0
  6
Continuous
 62
     7
100
AcDbLine
 10
298.0200158157977
 20
541.9750128178117
 30
0.0
 11
293.2624666200326
 21
541.9750128178117
 31
0.0
  0
LINE
  5
193
330
2
100
AcDbEntity
  8
0
  6
Continuous
 62
     7
100
AcDbLine
 10
297.879133216041
 20
541.475044306984
 30
0.0
 11
293.1175145091414
 21
541.475044306984
 31
0.0
  0
LINE
  5
194
330
2
100
AcDbEntity
  8
0
  6
Continuous
 62
     7
100
AcDbLine
 10
297.7383475094068
 20
540.9749789030341
 30
0.0
 11
292.9726592913727
 21
540.9749789030341
 31
0.0
  0
LINE
  5
195
330
2
100
AcDbEntity
  8
0
  6
Continuous
 62
     7
100
AcDbLine
 10
292.8897187787237
 20
549.9748965635428
 30
0.0
 11
302.88967035401
 21
549.9748965635428
 31
0.0
  0
LINE
  5
196
330
2
100
AcDbEntity
  8
0
  6
Continuous
 62
     7
100
AcDbLine
 10
302.3902832019158
 20
549.4750249458375
 30
0.0
 11
293.8891713347678
 21
549.4750249458375
 31
0.0
  0
LINE
  5
197
330
2
100
AcDbEntity
  8
0
  6
Continuous
 62
     7
100
AcDbLine
 10
297.5974649096505
 20
540.4750103922065
 30
0.0
 11
292.8277071804815
 21
540.4750103922065
 31
0.0
  0
LINE
  5
198
330
2
100
AcDbEntity
  8
0
  6
Continuous
 62
     7
100
AcDbLine
 10
297.4565823098941
 20
539.9750418813789
 30
0.0
 11
292.6828519627127
 21
539.9750418813789
 31
0.0
  0
LINE
  5
199
330
2
100
AcDbEntity
  8
0
  6
Continuous
 62
     7
100
AcDbLine
 10
297.3157966032598
 20
539.4749764774288
 30
0.0
 11
292.5378998518215
 21
539.4749764774288
 31
0.0
  0
LINE
  5
19A
330
2
100
AcDbEntity
  8
0
  6
Continuous
 62
     7
100
AcDbLine
 10
297.1749140035033
 20
538.9750079666014
 30
0.0
 11
292.3930446340527
 21
538.9750079666014
 31
0.0
  0
LINE
  5
19B
330
2
100
AcDbEntity
  8
0
  6
Continuous
 62
     7
100
AcDbLine
 10
296.8932456971127
 20
537.9749740518238
 30
0.0
 11
292.1031404122704
 21
537.9749740518238
 31
0.0
  0
LINE
  5
19C
330
2
100
AcDbEntity
  8
0
  6
Continuous
 62
     7
100
AcDbLine
 10
296.7523630973563
 20
537.4750055409962
 30
0.0
 11
291.9582851945015
 21
537.4750055409962
 31
0.0
  0
LINE
  5
19D
330
2
100
AcDbEntity
  8
0
  6
Continuous
 62
     7
100
AcDbLine
 10
296.611577390722
 20
536.9750370301686
 30
0.0
 11
291.8133330836105
 21
536.9750370301686
 31
0.0
  0
LINE
  5
19E
330
2
100
AcDbEntity
  8
0
  6
Continuous
 62
     7
100
AcDbLine
 10
296.4706947909655
 20
536.4750685193408
 30
0.0
 11
291.6684778658416
 21
536.4750685193408
 31
0.0
  0
LINE
  5
19F
330
2
100
AcDbEntity
  8
0
  6
Continuous
 62
     7
100
AcDbLine
 10
296.329812191209
 20
535.975003115391
 30
0.0
 11
291.5235257549506
 21
535.975003115391
 31
0.0
  0
LINE
  5
1A0
330
2
100
AcDbEntity
  8
0
  6
Continuous
 62
     7
100
AcDbLine
 10
296.1890264845748
 20
535.4750346045634
 30
0.0
 11
291.3786705371816
 21
535.4750346045634
 31
0.0
  0
LINE
  5
1A1
330
2
100
AcDbEntity
  8
0
  6
Continuous
 62
     7
100
AcDbLine
 10
296.0481438848184
 20
534.9750660937356
 30
0.0
 11
291.2337184262906
 21
534.9750660937356
 31
0.0
  0
LINE
  5
1A2
330
2
100
AcDbEntity
  8
0
  6
Continuous
 62
     7
100
AcDbLine
 10
295.907358178184
 20
534.4750006897859
 30
0.0
 11
291.0888632085217
 21
534.4750006897859
 31
0.0
  0
LINE
  5
1A3
330
2
100
AcDbEntity
  8
0
  6
Continuous
 62
     7
100
AcDbLine
 10
295.7664755784277
 20
533.9750321789581
 30
0.0
 11
290.9439110976304
 21
533.9750321789581
 31
0.0
  0
LINE
  5
1A4
330
2
100
AcDbEntity
  8
0
  6
Continuous
 62
     7
100
AcDbLine
 10
295.6255929786712
 20
533.4750636681304
 30
0.0
 11
290.7990558798617
 21
533.4750636681304
 31
0.0
  0
LINE
  5
1A5
330
2
100
AcDbEntity
  8
0
  6
Continuous
 62
     7
100
AcDbLine
 10
295.484807272037
 20
532.9749982641807
 30
0.0
 11
290.6541037689706
 21
532.9749982641807
 31
0.0
  0
LINE
  5
1A6
330
2
100
AcDbEntity
  8
0
  6
Continuous
 62
     7
100
AcDbLine
 10
295.3439246722805
 20
532.4750297533531
 30
0.0
 11
290.5091516580796
 21
532.4750297533531
 31
0.0
  0
LINE
  5
1A7
330
2
100
AcDbEntity
  8
0
  6
Continuous
 62
     7
100
AcDbLine
 10
295.2031389656463
 20
531.9750612425253
 30
0.0
 11
290.3642964403106
 21
531.9750612425253
 31
0.0
  0
LINE
  5
1A8
330
2
100
AcDbEntity
  8
0
  6
Continuous
 62
     7
100
AcDbLine
 10
295.0622563658899
 20
531.4749958385755
 30
0.0
 11
290.2193443294195
 21
531.4749958385755
 31
0.0
  0
LINE
  5
1A9
330
2
100
AcDbEntity
  8
0
  6
Continuous
 62
     7
100
AcDbLine
 10
294.9213737661333
 20
530.9750273277479
 30
0.0
 11
290.0744891116506
 21
530.9750273277479
 31
0.0
  0
LINE
  5
1AA
330
2
100
AcDbEntity
  8
0
  6
Continuous
 62
     7
100
AcDbLine
 10
294.7805880594991
 20
530.4750588169201
 30
0.0
 11
289.9295370007595
 21
530.4750588169201
 31
0.0
  0
LINE
  5
1AB
330
2
100
AcDbEntity
  8
0
  6
Continuous
 62
     7
100
AcDbLine
 10
297.0341282968692
 20
538.4750394557737
 30
0.0
 11
292.2480925231615
 21
538.4750394557737
 31
0.0
  0
LINE
  5
1AC
330
2
100
AcDbEntity
  8
0
  6
Continuous
 62
     7
100
AcDbLine
 10
294.6397054597427
 20
529.9749934129704
 30
0.0
 11
289.7846817829907
 21
529.9749934129704
 31
0.0
  0
LINE
  5
1AD
330
2
100
AcDbEntity
  8
0
  6
Continuous
 62
     7
100
AcDbLine
 10
294.6397054597427
 20
529.4750249021426
 30
0.0
 11
289.6397296720995
 21
529.4750249021426
 31
0.0
  0
LINE
  5
1AE
330
2
100
AcDbEntity
  8
0
  6
Continuous
 62
     7
100
AcDbLine
 10
294.7646006943273
 20
528.9750563913149
 30
0.0
 11
289.3897454166857
 21
528.9750563913149
 31
0.0
  0
LINE
  5
1AF
330
2
100
AcDbEntity
  8
0
  6
Continuous
 62
     7
100
AcDbLine
 10
295.264569205155
 20
528.4749909873652
 30
0.0
 11
288.6398895435666
 21
528.4749909873652
 31
0.0
  0
LINE
  5
1B0
330
2
100
AcDbEntity
  8
0
  6
Continuous
 62
     7
100
AcDbLine
 10
289.6397296720995
 20
529.4749280090204
 30
0.0
 11
295.117000979963
 21
548.3741252907941
 31
0.0
  0
LINE
  5
1B1
330
2
100
AcDbEntity
  8
0
  6
Continuous
 62
     7
100
AcDbLine
 10
289.3897454166857
 20
528.9749594981929
 30
0.0
 11
289.6397296720995
 21
529.4749280090204
 31
0.0
  0
LINE
  5
1B2
330
2
100
AcDbEntity
  8
0
  6
Continuous
 62
     7
100
AcDbLine
 10
288.1397272464944
 20
528.2249098388292
 30
0.0
 11
288.6396957573221
 21
528.474894094243
 31
0.0
  0
LINE
  5
1B3
330
2
100
AcDbEntity
  8
0
  6
Continuous
 62
     7
100
AcDbLine
 10
288.6396957573221
 20
528.474894094243
 30
0.0
 11
289.3897454166857
 21
528.9749594981929
 31
0.0
  0
LINE
  5
1B4
330
2
100
AcDbEntity
  8
0
  6
Continuous
 62
     7
100
AcDbLine
 10
293.889655800379
 20
549.4748311595929
 30
0.0
 11
292.8897187787237
 21
549.7584373284288
 31
0.0
  0
LINE
  5
1B5
330
2
100
AcDbEntity
  8
0
  6
Continuous
 62
     7
100
AcDbLine
 10
292.8897187787237
 20
549.7584373284288
 30
0.0
 11
292.8897187787237
 21
549.9748965635428
 31
0.0
  0
LINE
  5
1B6
330
2
100
AcDbEntity
  8
0
  6
Continuous
 62
     7
100
AcDbLine
 10
309.3245363891039
 20
544.975017669022
 30
0.0
 11
304.0097548472595
 21
544.975017669022
 31
0.0
  0
LINE
  5
1B7
330
2
100
AcDbEntity
  8
0
  6
Continuous
 62
     7
100
AcDbLine
 10
309.1723172940439
 20
544.4750491581944
 30
0.0
 11
303.8630586601678
 21
544.4750491581944
 31
0.0
  0
LINE
  5
1B8
330
2
100
AcDbEntity
  8
0
  6
Continuous
 62
     7
100
AcDbLine
 10
309.0201950921059
 20
543.9749837542445
 30
0.0
 11
303.7163624730762
 21
543.9749837542445
 31
0.0
  0
LINE
  5
1B9
330
2
100
AcDbEntity
  8
0
  6
Continuous
 62
     7
100
AcDbLine
 10
303.6397200133737
 20
549.9748965635428
 30
0.0
 11
313.6396715886599
 21
549.9748965635428
 31
0.0
  0
LINE
  5
1BA
330
2
100
AcDbEntity
  8
0
  6
Continuous
 62
     7
100
AcDbLine
 10
315.8894329942619
 20
549.4750249458375
 30
0.0
 11
304.1393978448345
 21
549.4750249458375
 31
0.0
  0
LINE
  5
1BB
330
2
100
AcDbEntity
  8
0
  6
Continuous
 62
     7
100
AcDbLine
 10
309.7809998880398
 20
546.4750200946272
 30
0.0
 11
304.4497465154122
 21
546.4750200946272
 31
0.0
  0
LINE
  5
1BC
330
2
100
AcDbEntity
  8
0
  6
Continuous
 62
     7
100
AcDbLine
 10
309.628877686102
 20
545.9750515837995
 30
0.0
 11
304.3030503283206
 21
545.9750515837995
 31
0.0
  0
LINE
  5
1BD
330
2
100
AcDbEntity
  8
0
  6
Continuous
 62
     7
100
AcDbLine
 10
309.4766585910419
 20
545.4749861798496
 30
0.0
 11
304.1563541412289
 21
545.4749861798496
 31
0.0
  0
LINE
  5
1BE
330
2
100
AcDbEntity
  8
0
  6
Continuous
 62
     7
100
AcDbLine
 10
317.0562199724377
 20
548.9749595418875
 30
0.0
 11
304.9969019767773
 21
548.9749595418875
 31
0.0
  0
LINE
  5
1BF
330
2
100
AcDbEntity
  8
0
  6
Continuous
 62
     7
100
AcDbLine
 10
310.3896824820358
 20
548.47499103106
 30
0.0
 11
305.0594949337529
 21
548.47499103106
 31
0.0
  0
LINE
  5
1C0
330
2
100
AcDbEntity
  8
0
  6
Continuous
 62
     7
100
AcDbLine
 10
310.2375602800979
 20
547.9750225202324
 30
0.0
 11
304.889738183565
 21
547.9750225202324
 31
0.0
  0
LINE
  5
1C1
330
2
100
AcDbEntity
  8
0
  6
Continuous
 62
     7
100
AcDbLine
 10
310.0853411850378
 20
547.4749571162824
 30
0.0
 11
304.7430419964734
 21
547.4749571162824
 31
0.0
  0
LINE
  5
1C2
330
2
100
AcDbEntity
  8
0
  6
Continuous
 62
     7
100
AcDbLine
 10
309.9332189830999
 20
546.9749886054549
 30
0.0
 11
304.5963458093816
 21
546.9749886054549
 31
0.0
  0
LINE
  5
1C3
330
2
100
AcDbEntity
  8
0
  6
Continuous
 62
     7
100
AcDbLine
 10
315.0545049598044
 20
539.4749764774288
 30
0.0
 11
302.3963874686178
 21
539.4749764774288
 31
0.0
  0
LINE
  5
1C4
330
2
100
AcDbEntity
  8
0
  6
Continuous
 62
     7
100
AcDbLine
 10
313.7666015788119
 20
538.9750079666014
 30
0.0
 11
302.2496912815261
 21
538.9750079666014
 31
0.0
  0
LINE
  5
1C5
330
2
100
AcDbEntity
  8
0
  6
Continuous
 62
     7
100
AcDbLine
 10
313.1379590016318
 20
538.4750394557737
 30
0.0
 11
308.5497789835656
 21
538.4750394557737
 31
0.0
  0
LINE
  5
1C6
330
2
100
AcDbEntity
  8
0
  6
Continuous
 62
     7
100
AcDbLine
 10
313.3022897369735
 20
537.9749740518238
 30
0.0
 11
308.6901771177108
 21
537.9749740518238
 31
0.0
  0
LINE
  5
1C7
330
2
100
AcDbEntity
  8
0
  6
Continuous
 62
     7
100
AcDbLine
 10
313.4667173654376
 20
537.4750055409962
 30
0.0
 11
308.8306721449783
 21
537.4750055409962
 31
0.0
  0
LINE
  5
1C8
330
2
100
AcDbEntity
  8
0
  6
Continuous
 62
     7
100
AcDbLine
 10
313.6310481007793
 20
536.9750370301686
 30
0.0
 11
308.9710702791235
 21
536.9750370301686
 31
0.0
  0
LINE
  5
1C9
330
2
100
AcDbEntity
  8
0
  6
Continuous
 62
     7
100
AcDbLine
 10
308.5896020568118
 20
539.7249607328428
 30
0.0
 11
309.8325470290787
 21
539.7249607328428
 31
0.0
  0
LINE
  5
1CA
330
2
100
AcDbEntity
  8
0
  6
Continuous
 62
     7
100
AcDbLine
 10
310.3896824820358
 20
548.4748941379377
 30
0.0
 11
307.7646540139461
 21
539.8499528605498
 31
0.0
  0
LINE
  5
1CB
330
2
100
AcDbEntity
  8
0
  6
Continuous
 62
     7
100
AcDbLine
 10
299.6396812473858
 20
547.724844478574
 30
0.0
 11
294.6397054597427
 21
529.9748965198482
 31
0.0
  0
LINE
  5
1CC
330
2
100
AcDbEntity
  8
0
  6
Continuous
 62
     7
100
AcDbLine
 10
299.3896969919721
 20
529.2249437536066
 30
0.0
 11
304.8896412904428
 21
547.9749256271101
 31
0.0
  0
LINE
  5
1CD
330
2
100
AcDbEntity
  8
0
  6
Continuous
 62
     7
100
AcDbLine
 10
306.7493109858526
 20
536.4750685193408
 30
0.0
 11
301.5164041323122
 21
536.4750685193408
 31
0.0
  0
LINE
  5
1CE
330
2
100
AcDbEntity
  8
0
  6
Continuous
 62
     7
100
AcDbLine
 10
306.5986421807486
 20
535.975003115391
 30
0.0
 11
301.3697079452206
 21
535.975003115391
 31
0.0
  0
LINE
  5
1CF
330
2
100
AcDbEntity
  8
0
  6
Continuous
 62
     7
100
AcDbLine
 10
306.4479733756444
 20
535.4750346045634
 30
0.0
 11
301.2230117581289
 21
535.4750346045634
 31
0.0
  0
LINE
  5
1D0
330
2
100
AcDbEntity
  8
0
  6
Continuous
 62
     7
100
AcDbLine
 10
306.2972076774182
 20
534.9750660937356
 30
0.0
 11
301.0764124641595
 21
534.9750660937356
 31
0.0
  0
LINE
  5
1D1
330
2
100
AcDbEntity
  8
0
  6
Continuous
 62
     7
100
AcDbLine
 10
306.1465388723141
 20
534.4750006897859
 30
0.0
 11
300.9297162770677
 21
534.4750006897859
 31
0.0
  0
LINE
  5
1D2
330
2
100
AcDbEntity
  8
0
  6
Continuous
 62
     7
100
AcDbLine
 10
305.99587006721
 20
533.9750321789581
 30
0.0
 11
300.7830200899761
 21
533.9750321789581
 31
0.0
  0
LINE
  5
1D3
330
2
100
AcDbEntity
  8
0
  6
Continuous
 62
     7
100
AcDbLine
 10
305.845201262106
 20
533.4750636681304
 30
0.0
 11
300.6364207960067
 21
533.4750636681304
 31
0.0
  0
LINE
  5
1D4
330
2
100
AcDbEntity
  8
0
  6
Continuous
 62
     7
100
AcDbLine
 10
305.6945324570018
 20
532.9749982641807
 30
0.0
 11
300.489724608915
 21
532.9749982641807
 31
0.0
  0
LINE
  5
1D5
330
2
100
AcDbEntity
  8
0
  6
Continuous
 62
     7
100
AcDbLine
 10
305.5438636518978
 20
532.4750297533531
 30
0.0
 11
300.3430284218234
 21
532.4750297533531
 31
0.0
  0
LINE
  5
1D6
330
2
100
AcDbEntity
  8
0
  6
Continuous
 62
     7
100
AcDbLine
 10
305.3930979536715
 20
531.9750612425253
 30
0.0
 11
300.196429127854
 21
531.9750612425253
 31
0.0
  0
LINE
  5
1D7
330
2
100
AcDbEntity
  8
0
  6
Continuous
 62
     7
100
AcDbLine
 10
305.2424291485674
 20
531.4749958385755
 30
0.0
 11
300.0497329407623
 21
531.4749958385755
 31
0.0
  0
LINE
  5
1D8
330
2
100
AcDbEntity
  8
0
  6
Continuous
 62
     7
100
AcDbLine
 10
305.0917603434634
 20
530.9750273277479
 30
0.0
 11
299.9030367536706
 21
530.9750273277479
 31
0.0
  0
LINE
  5
1D9
330
2
100
AcDbEntity
  8
0
  6
Continuous
 62
     7
100
AcDbLine
 10
304.9410915383593
 20
530.4750588169201
 30
0.0
 11
299.7563405665788
 21
530.4750588169201
 31
0.0
  0
LINE
  5
1DA
330
2
100
AcDbEntity
  8
0
  6
Continuous
 62
     7
100
AcDbLine
 10
304.7904227332552
 20
529.9749934129704
 30
0.0
 11
299.6097412726095
 21
529.9749934129704
 31
0.0
  0
LINE
  5
1DB
330
2
100
AcDbEntity
  8
0
  6
Continuous
 62
     7
100
AcDbLine
 10
304.6397539281512
 20
529.4750249021426
 30
0.0
 11
299.4630450855178
 21
529.4750249021426
 31
0.0
  0
LINE
  5
1DC
330
2
100
AcDbEntity
  8
0
  6
Continuous
 62
     7
100
AcDbLine
 10
304.8896412904428
 20
528.9750563913149
 30
0.0
 11
299.3163488984261
 21
528.9750563913149
 31
0.0
  0
LINE
  5
1DD
330
2
100
AcDbEntity
  8
0
  6
Continuous
 62
     7
100
AcDbLine
 10
305.4729378864083
 20
528.4749909873652
 30
0.0
 11
298.8898253742666
 21
528.4749909873652
 31
0.0
  0
LINE
  5
1DE
330
2
100
AcDbEntity
  8
0
  6
Continuous
 62
     7
100
AcDbLine
 10
294.8896897151566
 20
528.724975242779
 30
0.0
 11
295.639642481398
 21
528.2249098388292
 31
0.0
  0
LINE
  5
1DF
330
2
100
AcDbEntity
  8
0
  6
Continuous
 62
     7
100
AcDbLine
 10
298.6397442257305
 20
528.2249098388292
 30
0.0
 11
299.1397127365582
 21
528.724975242779
 31
0.0
  0
LINE
  5
1E0
330
2
100
AcDbEntity
  8
0
  6
Continuous
 62
     7
100
AcDbLine
 10
299.1397127365582
 20
528.724975242779
 30
0.0
 11
299.3896969919721
 21
529.2249437536066
 31
0.0
  0
LINE
  5
1E1
330
2
100
AcDbEntity
  8
0
  6
Continuous
 62
     7
100
AcDbLine
 10
294.6397054597427
 20
529.9748965198482
 30
0.0
 11
294.6397054597427
 21
529.2249437536066
 31
0.0
  0
LINE
  5
1E2
330
2
100
AcDbEntity
  8
0
  6
Continuous
 62
     7
100
AcDbLine
 10
294.6397054597427
 20
529.2249437536066
 30
0.0
 11
294.8896897151566
 21
528.724975242779
 31
0.0
  0
LINE
  5
1E3
330
2
100
AcDbEntity
  8
0
  6
Continuous
 62
     7
100
AcDbLine
 10
308.7157569019857
 20
542.9750467325892
 30
0.0
 11
303.423066992015
 21
542.9750467325892
 31
0.0
  0
LINE
  5
1E4
330
2
100
AcDbEntity
  8
0
  6
Continuous
 62
     7
100
AcDbLine
 10
308.5636347000478
 20
542.4749813286394
 30
0.0
 11
303.2763708049233
 21
542.4749813286394
 31
0.0
  0
LINE
  5
1E5
330
2
100
AcDbEntity
  8
0
  6
Continuous
 62
     7
100
AcDbLine
 10
308.4114156049877
 20
541.9750128178117
 30
0.0
 11
303.1296746178317
 21
541.9750128178117
 31
0.0
  0
LINE
  5
1E6
330
2
100
AcDbEntity
  8
0
  6
Continuous
 62
     7
100
AcDbLine
 10
308.2592934030499
 20
541.475044306984
 30
0.0
 11
302.9830753238623
 21
541.475044306984
 31
0.0
  0
LINE
  5
1E7
330
2
100
AcDbEntity
  8
0
  6
Continuous
 62
     7
100
AcDbLine
 10
308.1070743079898
 20
540.9749789030341
 30
0.0
 11
302.8363791367706
 21
540.9749789030341
 31
0.0
  0
LINE
  5
1E8
330
2
100
AcDbEntity
  8
0
  6
Continuous
 62
     7
100
AcDbLine
 10
307.3896776308254
 20
538.5999346903583
 30
0.0
 11
304.639657035029
 21
529.4749280090204
 31
0.0
  0
LINE
  5
1E9
330
2
100
AcDbEntity
  8
0
  6
Continuous
 62
     7
100
AcDbLine
 10
304.639657035029
 20
529.4749280090204
 30
0.0
 11
304.8896412904428
 21
528.9749594981929
 31
0.0
  0
LINE
  5
1EA
330
2
100
AcDbEntity
  8
0
  6
Continuous
 62
     7
100
AcDbLine
 10
305.1397224389789
 20
528.724975242779
 30
0.0
 11
305.6396909498064
 21
528.3499019665359
 31
0.0
  0
LINE
  5
1EB
330
2
100
AcDbEntity
  8
0
  6
Continuous
 62
     7
100
AcDbLine
 10
304.8896412904428
 20
528.9749594981929
 30
0.0
 11
305.1397224389789
 21
528.724975242779
 31
0.0
  0
LINE
  5
1EC
330
2
100
AcDbEntity
  8
0
  6
Continuous
 62
     7
100
AcDbLine
 10
307.7646540139461
 20
539.8499528605498
 30
0.0
 11
308.5896020568118
 21
539.7249607328428
 31
0.0
  0
LINE
  5
1ED
330
2
100
AcDbEntity
  8
0
  6
Continuous
 62
     7
100
AcDbLine
 10
308.5147036733099
 20
538.5999346903583
 30
0.0
 11
307.3896776308254
 21
538.5999346903583
 31
0.0
  0
LINE
  5
1EE
330
2
100
AcDbEntity
  8
0
  6
Continuous
 62
     7
100
AcDbLine
 10
307.9549521060519
 20
540.4750103922065
 30
0.0
 11
302.6896829496788
 21
540.4750103922065
 31
0.0
  0
LINE
  5
1EF
330
2
100
AcDbEntity
  8
0
  6
Continuous
 62
     7
100
AcDbLine
 10
307.8027330109918
 20
539.9750418813789
 30
0.0
 11
302.5430836557094
 21
539.9750418813789
 31
0.0
  0
LINE
  5
1F0
330
2
100
AcDbEntity
  8
0
  6
Continuous
 62
     7
100
AcDbLine
 10
307.352083099391
 20
538.4750394557737
 30
0.0
 11
302.1030919875567
 21
538.4750394557737
 31
0.0
  0
LINE
  5
1F1
330
2
100
AcDbEntity
  8
0
  6
Continuous
 62
     7
100
AcDbLine
 10
307.2013174011648
 20
537.9749740518238
 30
0.0
 11
301.9563958004651
 21
537.9749740518238
 31
0.0
  0
LINE
  5
1F2
330
2
100
AcDbEntity
  8
0
  6
Continuous
 62
     7
100
AcDbLine
 10
307.0506485960608
 20
537.4750055409962
 30
0.0
 11
301.8096996133734
 21
537.4750055409962
 31
0.0
  0
LINE
  5
1F3
330
2
100
AcDbEntity
  8
0
  6
Continuous
 62
     7
100
AcDbLine
 10
306.8999797909565
 20
536.9750370301686
 30
0.0
 11
301.6631003194039
 21
536.9750370301686
 31
0.0
  0
LINE
  5
1F4
330
2
100
AcDbEntity
  8
0
  6
Continuous
 62
     7
100
AcDbLine
 10
302.3897018431823
 20
549.4748311595929
 30
0.0
 11
301.3896679284048
 21
549.2248469041792
 31
0.0
  0
LINE
  5
1F5
330
2
100
AcDbEntity
  8
0
  6
Continuous
 62
     7
100
AcDbLine
 10
300.6396182690411
 20
548.912366584912
 30
0.0
 11
300.1396497582135
 21
548.4748941379377
 31
0.0
  0
LINE
  5
1F6
330
2
100
AcDbEntity
  8
0
  6
Continuous
 62
     7
100
AcDbLine
 10
301.3896679284048
 20
549.2248469041792
 30
0.0
 11
300.6396182690411
 21
548.912366584912
 31
0.0
  0
LINE
  5
1F7
330
2
100
AcDbEntity
  8
0
  6
Continuous
 62
     7
100
AcDbLine
 10
299.5693368406298
 20
547.4749571162824
 30
0.0
 11
294.8564553742235
 21
547.4749571162824
 31
0.0
  0
LINE
  5
1F8
330
2
100
AcDbEntity
  8
0
  6
Continuous
 62
     7
100
AcDbLine
 10
295.117000979963
 20
548.3741252907941
 30
0.0
 11
294.9350356963711
 21
548.9748626487653
 31
0.0
  0
LINE
  5
1F9
330
2
100
AcDbEntity
  8
0
  6
Continuous
 62
     7
100
AcDbLine
 10
299.4284542408734
 20
546.9749886054549
 30
0.0
 11
294.7115032633325
 21
546.9749886054549
 31
0.0
  0
LINE
  5
1FA
330
2
100
AcDbEntity
  8
0
  6
Continuous
 62
     7
100
AcDbLine
 10
299.2875716411167
 20
546.4750200946272
 30
0.0
 11
294.5666480455636
 21
546.4750200946272
 31
0.0
  0
LINE
  5
1FB
330
2
100
AcDbEntity
  8
0
  6
Continuous
 62
     7
100
AcDbLine
 10
299.1467859344826
 20
545.9750515837995
 30
0.0
 11
294.4216959346725
 21
545.9750515837995
 31
0.0
  0
LINE
  5
1FC
330
2
100
AcDbEntity
  8
0
  6
Continuous
 62
     7
100
AcDbLine
 10
294.9350356963711
 20
548.9748626487653
 30
0.0
 11
294.6397054597427
 21
549.2248469041792
 31
0.0
  0
LINE
  5
1FD
330
2
100
AcDbEntity
  8
0
  6
Continuous
 62
     7
100
AcDbLine
 10
300.1398435444579
 20
548.47499103106
 30
0.0
 11
295.0864796464532
 21
548.47499103106
 31
0.0
  0
LINE
  5
1FE
330
2
100
AcDbEntity
  8
0
  6
Continuous
 62
     7
100
AcDbLine
 10
299.8064343107839
 20
547.9750225202324
 30
0.0
 11
295.0013105919925
 21
547.9750225202324
 31
0.0
  0
LINE
  5
1FF
330
2
100
AcDbEntity
  8
0
  6
Continuous
 62
     7
100
AcDbLine
 10
300.7899963947784
 20
548.9749595418875
 30
0.0
 11
294.9350356963711
 21
548.9749595418875
 31
0.0
  0
LINE
  5
200
330
2
100
AcDbEntity
  8
0
  6
Continuous
 62
     7
100
AcDbLine
 10
300.1396497582135
 20
548.4748941379377
 30
0.0
 11
299.6396812473858
 21
547.724844478574
 31
0.0
  0
LINE
  5
201
330
2
100
AcDbEntity
  8
0
  6
Continuous
 62
     7
100
AcDbLine
 10
304.8896412904428
 20
547.9749256271101
 30
0.0
 11
305.126060508741
 21
548.6710058173787
 31
0.0
  0
LINE
  5
202
330
2
100
AcDbEntity
  8
0
  6
Continuous
 62
     7
100
AcDbLine
 10
305.126060508741
 20
548.6710058173787
 30
0.0
 11
304.8965207021227
 21
549.2113787601859
 31
0.0
  0
LINE
  5
203
330
2
100
AcDbEntity
  8
0
  6
Continuous
 62
     7
100
AcDbLine
 10
302.88967035401
 20
549.9748965635428
 30
0.0
 11
302.88967035401
 21
549.7248154150069
 31
0.0
  0
LINE
  5
204
330
2
100
AcDbEntity
  8
0
  6
Continuous
 62
     7
100
AcDbLine
 10
302.88967035401
 20
549.7248154150069
 30
0.0
 11
302.3897018431823
 21
549.4748311595929
 31
0.0
  0
LINE
  5
205
330
2
100
AcDbEntity
  8
0
  6
Continuous
 62
     7
100
AcDbLine
 10
304.1396885242013
 20
549.4749280527153
 30
0.0
 11
303.6397200133737
 21
549.724912308129
 31
0.0
  0
LINE
  5
206
330
2
100
AcDbEntity
  8
0
  6
Continuous
 62
     7
100
AcDbLine
 10
303.6397200133737
 20
549.724912308129
 30
0.0
 11
303.6397200133737
 21
549.9748965635428
 31
0.0
  0
LINE
  5
207
330
2
100
AcDbEntity
  8
0
  6
Continuous
 62
     7
100
AcDbLine
 10
308.8679759970458
 20
543.4750152434169
 30
0.0
 11
303.5697631791066
 21
543.4750152434169
 31
0.0
  0
LINE
  5
208
330
2
100
AcDbEntity
  8
0
  6
Continuous
 62
     7
100
AcDbLine
 10
304.8965207021227
 20
549.2113787601859
 30
0.0
 11
304.1396885242013
 21
549.4749280527153
 31
0.0
  0
LINE
  5
209
330
2
100
AcDbEntity
  8
0
  6
Continuous
 62
     7
100
AcDbLine
 10
320.8896994612719
 20
542.474884435517
 30
0.0
 11
321.3058554213504
 21
543.2249340948808
 31
0.0
  0
LINE
  5
20A
330
2
100
AcDbEntity
  8
0
  6
Continuous
 62
     7
100
AcDbLine
 10
319.0146237594238
 20
543.4749183502946
 30
0.0
 11
318.6396473763031
 21
542.7248686909308
 31
0.0
  0
LINE
  5
20B
330
2
100
AcDbEntity
  8
0
  6
Continuous
 62
     7
100
AcDbLine
 10
313.6396715886599
 20
542.474884435517
 30
0.0
 11
314.1261719554943
 21
543.4816039757301
 31
0.0
  0
LINE
  5
20C
330
2
100
AcDbEntity
  8
0
  6
Continuous
 62
     7
100
AcDbLine
 10
318.7647363971322
 20
542.9750467325892
 30
0.0
 11
313.8813230355599
 21
542.9750467325892
 31
0.0
  0
LINE
  5
20D
330
2
100
AcDbEntity
  8
0
  6
Continuous
 62
     7
100
AcDbLine
 10
318.4730880991494
 20
542.4749813286394
 30
0.0
 11
313.6397684817822
 21
542.4749813286394
 31
0.0
  0
LINE
  5
20E
330
2
100
AcDbEntity
  8
0
  6
Continuous
 62
     7
100
AcDbLine
 10
318.1397757585977
 20
541.9750128178117
 30
0.0
 11
313.2881433411245
 21
541.9750128178117
 31
0.0
  0
LINE
  5
20F
330
2
100
AcDbEntity
  8
0
  6
Continuous
 62
     7
100
AcDbLine
 10
317.7455176441485
 20
541.475044306984
 30
0.0
 11
312.9366150935891
 21
541.475044306984
 31
0.0
  0
LINE
  5
210
330
2
100
AcDbEntity
  8
0
  6
Continuous
 62
     7
100
AcDbLine
 10
317.2887634658459
 20
540.9749789030341
 30
0.0
 11
312.4199809657339
 21
540.9749789030341
 31
0.0
  0
LINE
  5
211
330
2
100
AcDbEntity
  8
0
  6
Continuous
 62
     7
100
AcDbLine
 10
316.6264020821214
 20
540.3499213713773
 30
0.0
 11
316.0543450883373
 21
539.9749449882565
 31
0.0
  0
LINE
  5
212
330
2
100
AcDbEntity
  8
0
  6
Continuous
 62
     7
100
AcDbLine
 10
316.0146189082135
 20
529.7249122644343
 30
0.0
 11
316.3896921844564
 21
528.8499673704859
 31
0.0
  0
LINE
  5
213
330
2
100
AcDbEntity
  8
0
  6
Continuous
 62
     7
100
AcDbLine
 10
316.7711604067682
 20
540.4750103922065
 30
0.0
 11
311.7282609659668
 21
540.4750103922065
 31
0.0
  0
LINE
  5
214
330
2
100
AcDbEntity
  8
0
  6
Continuous
 62
     7
100
AcDbLine
 10
316.8478997595929
 20
528.4749909873652
 30
0.0
 11
311.3587105976922
 21
528.4749909873652
 31
0.0
  0
LINE
  5
215
330
2
100
AcDbEntity
  8
0
  6
Continuous
 62
     7
100
AcDbLine
 10
316.3360133947281
 20
528.9750563913149
 30
0.0
 11
311.218312463547
 21
528.9750563913149
 31
0.0
  0
LINE
  5
216
330
2
100
AcDbEntity
  8
0
  6
Continuous
 62
     7
100
AcDbLine
 10
312.8626856413098
 20
541.3699152693391
 30
0.0
 11
313.6396715886599
 21
542.474884435517
 31
0.0
  0
LINE
  5
217
330
2
100
AcDbEntity
  8
0
  6
Continuous
 62
     7
100
AcDbLine
 10
316.0543450883373
 20
539.9749449882565
 30
0.0
 11
314.5543426627322
 21
539.2248953288929
 31
0.0
  0
LINE
  5
218
330
2
100
AcDbEntity
  8
0
  6
Continuous
 62
     7
100
AcDbLine
 10
311.4674246808605
 20
540.3165901373222
 30
0.0
 11
312.1396691630548
 21
540.7248977544981
 31
0.0
  0
LINE
  5
219
330
2
100
AcDbEntity
  8
0
  6
Continuous
 62
     7
100
AcDbLine
 10
314.288564828391
 20
534.9750660937356
 30
0.0
 11
309.5328566019488
 21
534.9750660937356
 31
0.0
  0
LINE
  5
21A
330
2
100
AcDbEntity
  8
0
  6
Continuous
 62
     7
100
AcDbLine
 10
310.5516877824435
 20
539.9166153286601
 30
0.0
 11
311.4674246808605
 21
540.3165901373222
 31
0.0
  0
LINE
  5
21B
330
2
100
AcDbEntity
  8
0
  6
Continuous
 62
     7
100
AcDbLine
 10
309.8325470290787
 20
539.7249607328428
 30
0.0
 11
310.5516877824435
 21
539.9166153286601
 31
0.0
  0
LINE
  5
21C
330
2
100
AcDbEntity
  8
0
  6
Continuous
 62
     7
100
AcDbLine
 10
313.8896558440738
 20
539.0140558948694
 30
0.0
 11
313.0147109501254
 21
538.8499189457722
 31
0.0
  0
LINE
  5
21D
330
2
100
AcDbEntity
  8
0
  6
Continuous
 62
     7
100
AcDbLine
 10
316.0545388745819
 20
539.9750418813789
 30
0.0
 11
310.6854002911532
 21
539.9750418813789
 31
0.0
  0
LINE
  5
21E
330
2
100
AcDbEntity
  8
0
  6
Continuous
 62
     7
100
AcDbLine
 10
314.7817508206609
 20
533.4750636681304
 30
0.0
 11
309.9542447906289
 21
533.4750636681304
 31
0.0
  0
LINE
  5
21F
330
2
100
AcDbEntity
  8
0
  6
Continuous
 62
     7
100
AcDbLine
 10
314.9461784491249
 20
532.9749982641807
 30
0.0
 11
310.0947398178963
 21
532.9749982641807
 31
0.0
  0
LINE
  5
220
330
2
100
AcDbEntity
  8
0
  6
Continuous
 62
     7
100
AcDbLine
 10
315.1105091844669
 20
532.4750297533531
 30
0.0
 11
310.2351379520414
 21
532.4750297533531
 31
0.0
  0
LINE
  5
221
330
2
100
AcDbEntity
  8
0
  6
Continuous
 62
     7
100
AcDbLine
 10
315.2749368129308
 20
531.9750612425253
 30
0.0
 11
310.3756329793089
 21
531.9750612425253
 31
0.0
  0
LINE
  5
222
330
2
100
AcDbEntity
  8
0
  6
Continuous
 62
     7
100
AcDbLine
 10
315.4392675482726
 20
531.4749958385755
 30
0.0
 11
310.5160311134542
 21
531.4749958385755
 31
0.0
  0
LINE
  5
223
330
2
100
AcDbEntity
  8
0
  6
Continuous
 62
     7
100
AcDbLine
 10
315.6036951767368
 20
530.9750273277479
 30
0.0
 11
310.6565261407217
 21
530.9750273277479
 31
0.0
  0
LINE
  5
224
330
2
100
AcDbEntity
  8
0
  6
Continuous
 62
     7
100
AcDbLine
 10
315.7680259120785
 20
530.4750588169201
 30
0.0
 11
310.7969242748669
 21
530.4750588169201
 31
0.0
  0
LINE
  5
225
330
2
100
AcDbEntity
  8
0
  6
Continuous
 62
     7
100
AcDbLine
 10
315.9324535405425
 20
529.9749934129704
 30
0.0
 11
310.9374193021343
 21
529.9749934129704
 31
0.0
  0
LINE
  5
226
330
2
100
AcDbEntity
  8
0
  6
Continuous
 62
     7
100
AcDbLine
 10
316.1217827014258
 20
529.4750249021426
 30
0.0
 11
311.0778174362796
 21
529.4750249021426
 31
0.0
  0
LINE
  5
227
330
2
100
AcDbEntity
  8
0
  6
Continuous
 62
     7
100
AcDbLine
 10
314.4529924568551
 20
534.4750006897859
 30
0.0
 11
309.6733516292162
 21
534.4750006897859
 31
0.0
  0
LINE
  5
228
330
2
100
AcDbEntity
  8
0
  6
Continuous
 62
     7
100
AcDbLine
 10
314.617323192197
 20
533.9750321789581
 30
0.0
 11
309.8138466564837
 21
533.9750321789581
 31
0.0
  0
LINE
  5
229
330
2
100
AcDbEntity
  8
0
  6
Continuous
 62
     7
100
AcDbLine
 10
313.0147109501254
 20
538.8499189457722
 30
0.0
 11
316.0146189082135
 21
529.7249122644343
 31
0.0
  0
LINE
  5
22A
330
2
100
AcDbEntity
  8
0
  6
Continuous
 62
     7
100
AcDbLine
 10
314.5543426627322
 20
539.2248953288929
 30
0.0
 11
313.8896558440738
 21
539.0140558948694
 31
0.0
  0
LINE
  5
22B
330
2
100
AcDbEntity
  8
0
  6
Continuous
 62
     7
100
AcDbLine
 10
313.7954757292434
 20
536.4750685193408
 30
0.0
 11
309.1115653063909
 21
536.4750685193408
 31
0.0
  0
LINE
  5
22C
330
2
100
AcDbEntity
  8
0
  6
Continuous
 62
     7
100
AcDbLine
 10
313.9598064645852
 20
535.975003115391
 30
0.0
 11
309.2519634405361
 21
535.975003115391
 31
0.0
  0
LINE
  5
22D
330
2
100
AcDbEntity
  8
0
  6
Continuous
 62
     7
100
AcDbLine
 10
314.1242340930493
 20
535.4750346045634
 30
0.0
 11
309.3924584678036
 21
535.4750346045634
 31
0.0
  0
LINE
  5
22E
330
2
100
AcDbEntity
  8
0
  6
Continuous
 62
     7
100
AcDbLine
 10
312.1396691630548
 20
540.7248977544981
 30
0.0
 11
312.8626856413098
 21
541.3699152693391
 31
0.0
  0
LINE
  5
22F
330
2
100
AcDbEntity
  8
0
  6
Continuous
 62
     7
100
AcDbLine
 10
320.285280164655
 20
541.2248662653257
 30
0.0
 11
320.6396183127358
 21
541.9749159246895
 31
0.0
  0
LINE
  5
230
330
2
100
AcDbEntity
  8
0
  6
Continuous
 62
     7
100
AcDbLine
 10
320.6396183127358
 20
541.9749159246895
 30
0.0
 11
320.8896994612719
 21
542.474884435517
 31
0.0
  0
LINE
  5
231
330
2
100
AcDbEntity
  8
0
  6
Continuous
 62
     7
100
AcDbLine
 10
321.8896364829272
 20
530.4749619237979
 30
0.0
 11
321.1808632936435
 21
531.2249146900395
 31
0.0
  0
LINE
  5
232
330
2
100
AcDbEntity
  8
0
  6
Continuous
 62
     7
100
AcDbLine
 10
319.576410082249
 20
534.4749037966637
 30
0.0
 11
319.3896970356667
 21
535.7249219668549
 31
0.0
  0
LINE
  5
233
330
2
100
AcDbEntity
  8
0
  6
Continuous
 62
     7
100
AcDbLine
 10
319.3896970356667
 20
535.7249219668549
 30
0.0
 11
319.4102383775845
 21
537.9748771587015
 31
0.0
  0
LINE
  5
234
330
2
100
AcDbEntity
  8
0
  6
Continuous
 62
     7
100
AcDbLine
 10
319.4102383775845
 20
537.9748771587015
 30
0.0
 11
319.5558687403314
 21
538.7249268180653
 31
0.0
  0
LINE
  5
235
330
2
100
AcDbEntity
  8
0
  6
Continuous
 62
     7
100
AcDbLine
 10
321.1808632936435
 20
531.2249146900395
 30
0.0
 11
320.3896340573219
 21
532.4749328602308
 31
0.0
  0
LINE
  5
236
330
2
100
AcDbEntity
  8
0
  6
Continuous
 62
     7
100
AcDbLine
 10
320.3896340573219
 20
532.4749328602308
 30
0.0
 11
319.8896655464944
 21
533.4749667750083
 31
0.0
  0
LINE
  5
237
330
2
100
AcDbEntity
  8
0
  6
Continuous
 62
     7
100
AcDbLine
 10
319.8896655464944
 20
533.4749667750083
 30
0.0
 11
319.576410082249
 21
534.4749037966637
 31
0.0
  0
LINE
  5
238
330
2
100
AcDbEntity
  8
0
  6
Continuous
 62
     7
100
AcDbLine
 10
319.5558687403314
 20
538.7249268180653
 30
0.0
 11
319.8896655464944
 21
539.9749449882565
 31
0.0
  0
LINE
  5
239
330
2
100
AcDbEntity
  8
0
  6
Continuous
 62
     7
100
AcDbLine
 10
323.1396546531184
 20
529.3499358813136
 30
0.0
 11
322.6396861422909
 21
529.7249122644343
 31
0.0
  0
LINE
  5
23A
330
2
100
AcDbEntity
  8
0
  6
Continuous
 62
     7
100
AcDbLine
 10
322.6396861422909
 20
529.7249122644343
 30
0.0
 11
321.8896364829272
 21
530.4749619237979
 31
0.0
  0
LINE
  5
23B
330
2
100
AcDbEntity
  8
0
  6
Continuous
 62
     7
100
AcDbLine
 10
319.8896655464944
 20
539.9749449882565
 30
0.0
 11
320.285280164655
 21
541.2248662653257
 31
0.0
  0
LINE
  5
23C
330
2
100
AcDbEntity
  8
0
  6
Continuous
 62
     7
100
AcDbLine
 10
318.6396473763031
 20
542.7248686909308
 30
0.0
 11
318.1396788654754
 21
541.9749159246895
 31
0.0
  0
LINE
  5
23D
330
2
100
AcDbEntity
  8
0
  6
Continuous
 62
     7
100
AcDbLine
 10
318.1396788654754
 20
541.9749159246895
 30
0.0
 11
317.7454207510262
 21
541.4749474138618
 31
0.0
  0
LINE
  5
23E
330
2
100
AcDbEntity
  8
0
  6
Continuous
 62
     7
100
AcDbLine
 10
316.3896921844564
 20
528.8499673704859
 30
0.0
 11
316.6396764398703
 21
528.5999831150721
 31
0.0
  0
LINE
  5
23F
330
2
100
AcDbEntity
  8
0
  6
Continuous
 62
     7
100
AcDbLine
 10
317.0603863766946
 20
540.7248977544981
 30
0.0
 11
316.6264020821214
 21
540.3499213713773
 31
0.0
  0
LINE
  5
240
330
2
100
AcDbEntity
  8
0
  6
Continuous
 62
     7
100
AcDbLine
 10
316.6396764398703
 20
528.5999831150721
 30
0.0
 11
317.2646370784048
 21
528.2249098388292
 31
0.0
  0
LINE
  5
241
330
2
100
AcDbEntity
  8
0
  6
Continuous
 62
     7
100
AcDbLine
 10
317.7454207510262
 20
541.4749474138618
 30
0.0
 11
317.0603863766946
 21
540.7248977544981
 31
0.0
  0
LINE
  5
242
330
2
100
AcDbEntity
  8
0
  6
Continuous
 62
     7
100
AcDbLine
 10
315.8896267805065
 20
549.4749280527153
 30
0.0
 11
316.6396764398703
 21
549.2249437973014
 31
0.0
  0
LINE
  5
243
330
2
100
AcDbEntity
  8
0
  6
Continuous
 62
     7
100
AcDbLine
 10
319.1709123656186
 20
546.9749886054549
 30
0.0
 11
314.3062962697635
 21
546.9749886054549
 31
0.0
  0
LINE
  5
244
330
2
100
AcDbEntity
  8
0
  6
Continuous
 62
     7
100
AcDbLine
 10
317.889500823817
 20
548.47499103106
 30
0.0
 11
313.107922133733
 21
548.47499103106
 31
0.0
  0
LINE
  5
245
330
2
100
AcDbEntity
  8
0
  6
Continuous
 62
     7
100
AcDbLine
 10
318.4609764588678
 20
547.9750225202324
 30
0.0
 11
313.8704710058676
 21
547.9750225202324
 31
0.0
  0
LINE
  5
246
330
2
100
AcDbEntity
  8
0
  6
Continuous
 62
     7
100
AcDbLine
 10
318.9521276955703
 20
547.4749571162824
 30
0.0
 11
314.1396400994876
 21
547.4749571162824
 31
0.0
  0
LINE
  5
247
330
2
100
AcDbEntity
  8
0
  6
Continuous
 62
     7
100
AcDbLine
 10
319.0147206525461
 20
543.4750152434169
 30
0.0
 11
314.1244278792937
 21
543.4750152434169
 31
0.0
  0
LINE
  5
248
330
2
100
AcDbEntity
  8
0
  6
Continuous
 62
     7
100
AcDbLine
 10
319.2959044933254
 20
546.4750200946272
 30
0.0
 11
314.4209208333892
 21
546.4750200946272
 31
0.0
  0
LINE
  5
249
330
2
100
AcDbEntity
  8
0
  6
Continuous
 62
     7
100
AcDbLine
 10
319.3896970356667
 20
545.9750515837995
 30
0.0
 11
314.4834168972427
 21
545.9750515837995
 31
0.0
  0
LINE
  5
24A
330
2
100
AcDbEntity
  8
0
  6
Continuous
 62
     7
100
AcDbLine
 10
319.3896970356667
 20
545.4749861798496
 30
0.0
 11
314.5147133757306
 21
545.4749861798496
 31
0.0
  0
LINE
  5
24B
330
2
100
AcDbEntity
  8
0
  6
Continuous
 62
     7
100
AcDbLine
 10
319.3896970356667
 20
544.975017669022
 30
0.0
 11
314.4730493331616
 21
544.975017669022
 31
0.0
  0
LINE
  5
24C
330
2
100
AcDbEntity
  8
0
  6
Continuous
 62
     7
100
AcDbLine
 10
319.3272009718133
 20
544.4750491581944
 30
0.0
 11
314.3897212480236
 21
544.4750491581944
 31
0.0
  0
LINE
  5
24D
330
2
100
AcDbEntity
  8
0
  6
Continuous
 62
     7
100
AcDbLine
 10
319.1813768228219
 20
543.9749837542445
 30
0.0
 11
314.2570745636585
 21
543.9749837542445
 31
0.0
  0
LINE
  5
24E
330
2
100
AcDbEntity
  8
0
  6
Continuous
 62
     7
100
AcDbLine
 10
315.1396740142651
 20
549.724912308129
 30
0.0
 11
315.8896267805065
 21
549.4749280527153
 31
0.0
  0
LINE
  5
24F
330
2
100
AcDbEntity
  8
0
  6
Continuous
 62
     7
100
AcDbLine
 10
314.5147133757306
 20
545.2249050313136
 30
0.0
 11
314.5147133757306
 21
545.7248735421412
 31
0.0
  0
LINE
  5
250
330
2
100
AcDbEntity
  8
0
  6
Continuous
 62
     7
100
AcDbLine
 10
314.3896243549014
 20
544.474952265072
 30
0.0
 11
314.5147133757306
 21
545.2249050313136
 31
0.0
  0
LINE
  5
251
330
2
100
AcDbEntity
  8
0
  6
Continuous
 62
     7
100
AcDbLine
 10
314.5147133757306
 20
545.7248735421412
 30
0.0
 11
314.3896243549014
 21
546.7249074569187
 31
0.0
  0
LINE
  5
252
330
2
100
AcDbEntity
  8
0
  6
Continuous
 62
     7
100
AcDbLine
 10
313.1081159199776
 20
548.4748941379377
 30
0.0
 11
310.3989842217721
 21
548.4748941379377
 31
0.0
  0
LINE
  5
253
330
2
100
AcDbEntity
  8
0
  6
Continuous
 62
     7
100
AcDbLine
 10
314.1396400994876
 20
547.4748602231602
 30
0.0
 11
313.9106816516028
 21
547.9333584776634
 31
0.0
  0
LINE
  5
254
330
2
100
AcDbEntity
  8
0
  6
Continuous
 62
     7
100
AcDbLine
 10
313.9106816516028
 20
547.9333584776634
 30
0.0
 11
313.6291102383343
 21
548.2249098825238
 31
0.0
  0
LINE
  5
255
330
2
100
AcDbEntity
  8
0
  6
Continuous
 62
     7
100
AcDbLine
 10
313.6291102383343
 20
548.2249098825238
 30
0.0
 11
313.1081159199776
 21
548.4748941379377
 31
0.0
  0
LINE
  5
256
330
2
100
AcDbEntity
  8
0
  6
Continuous
 62
     7
100
AcDbLine
 10
313.6396715886599
 20
549.9748965635428
 30
0.0
 11
315.1396740142651
 21
549.724912308129
 31
0.0
  0
LINE
  5
257
330
2
100
AcDbEntity
  8
0
  6
Continuous
 62
     7
100
AcDbLine
 10
314.3896243549014
 20
546.7249074569187
 30
0.0
 11
314.1396400994876
 21
547.4748602231602
 31
0.0
  0
LINE
  5
258
330
2
100
AcDbEntity
  8
0
  6
Continuous
 62
     7
100
AcDbLine
 10
314.1261719554943
 20
543.4816039757301
 30
0.0
 11
314.3896243549014
 21
544.474952265072
 31
0.0
  0
LINE
  5
259
330
2
100
AcDbEntity
  8
0
  6
Continuous
 62
     7
100
AcDbLine
 10
321.3058554213504
 20
543.2249340948808
 30
0.0
 11
321.680831804471
 21
543.7249026057084
 31
0.0
  0
LINE
  5
25A
330
2
100
AcDbEntity
  8
0
  6
Continuous
 62
     7
100
AcDbLine
 10
319.3896970356667
 20
546.0999468183842
 30
0.0
 11
319.3896970356667
 21
544.7249365204859
 31
0.0
  0
LINE
  5
25B
330
2
100
AcDbEntity
  8
0
  6
Continuous
 62
     7
100
AcDbLine
 10
319.3896970356667
 20
544.7249365204859
 30
0.0
 11
319.2647049079598
 21
544.2248711165359
 31
0.0
  0
LINE
  5
25C
330
2
100
AcDbEntity
  8
0
  6
Continuous
 62
     7
100
AcDbLine
 10
321.680831804471
 20
543.7249026057084
 30
0.0
 11
322.5146940145839
 21
544.9749207758998
 31
0.0
  0
LINE
  5
25D
330
2
100
AcDbEntity
  8
0
  6
Continuous
 62
     7
100
AcDbLine
 10
316.6396764398703
 20
549.2249437973014
 30
0.0
 11
317.8896946100615
 21
548.4748941379377
 31
0.0
  0
LINE
  5
25E
330
2
100
AcDbEntity
  8
0
  6
Continuous
 62
     7
100
AcDbLine
 10
317.8896946100615
 20
548.4748941379377
 30
0.0
 11
318.8896316317169
 21
547.5999492439894
 31
0.0
  0
LINE
  5
25F
330
2
100
AcDbEntity
  8
0
  6
Continuous
 62
     7
100
AcDbLine
 10
318.8896316317169
 20
547.5999492439894
 30
0.0
 11
319.1396158871307
 21
547.0998838400395
 31
0.0
  0
LINE
  5
260
330
2
100
AcDbEntity
  8
0
  6
Continuous
 62
     7
100
AcDbLine
 10
319.1396158871307
 20
547.0998838400395
 30
0.0
 11
319.3896970356667
 21
546.0999468183842
 31
0.0
  0
LINE
  5
261
330
2
100
AcDbEntity
  8
0
  6
Continuous
 62
     7
100
AcDbLine
 10
319.2647049079598
 20
544.2248711165359
 30
0.0
 11
319.0146237594238
 21
543.4749183502946
 31
0.0
  0
LINE
  5
262
330
2
100
AcDbEntity
  8
0
  6
Continuous
 62
     7
100
AcDbLine
 10
332.889621972991
 20
528.2249098388292
 30
0.0
 11
332.3896534621633
 21
527.9749255834153
 31
0.0
  0
LINE
  5
263
330
2
100
AcDbEntity
  8
0
  6
Continuous
 62
     7
100
AcDbLine
 10
325.5146019726721
 20
527.9749255834153
 30
0.0
 11
324.5146649510168
 21
528.474894094243
 31
0.0
  0
LINE
  5
264
330
2
100
AcDbEntity
  8
0
  6
Continuous
 62
     7
100
AcDbLine
 10
331.6396038027996
 20
527.7249413280014
 30
0.0
 11
330.6396667811443
 21
527.4749570725877
 31
0.0
  0
LINE
  5
265
330
2
100
AcDbEntity
  8
0
  6
Continuous
 62
     7
100
AcDbLine
 10
332.38994414153
 20
527.9751193696597
 30
0.0
 11
325.5144081864275
 21
527.9751193696597
 31
0.0
  0
LINE
  5
266
330
2
100
AcDbEntity
  8
0
  6
Continuous
 62
     7
100
AcDbLine
 10
330.6396667811443
 20
527.4749570725877
 30
0.0
 11
329.1396643555391
 21
527.3499649448808
 31
0.0
  0
LINE
  5
267
330
2
100
AcDbEntity
  8
0
  6
Continuous
 62
     7
100
AcDbLine
 10
327.38967767452
 20
527.4749570725877
 30
0.0
 11
326.1396595043288
 21
527.7249413280014
 31
0.0
  0
LINE
  5
268
330
2
100
AcDbEntity
  8
0
  6
Continuous
 62
     7
100
AcDbLine
 10
326.1396595043288
 20
527.7249413280014
 30
0.0
 11
325.5146019726721
 21
527.9749255834153
 31
0.0
  0
LINE
  5
269
330
2
100
AcDbEntity
  8
0
  6
Continuous
 62
     7
100
AcDbLine
 10
329.1396643555391
 20
527.3499649448808
 30
0.0
 11
327.38967767452
 21
527.4749570725877
 31
0.0
  0
LINE
  5
26A
330
2
100
AcDbEntity
  8
0
  6
Continuous
 62
     7
100
AcDbLine
 10
330.6400543536334
 20
527.4750539657098
 30
0.0
 11
327.3883211708087
 21
527.4750539657098
 31
0.0
  0
LINE
  5
26B
330
2
100
AcDbEntity
  8
0
  6
Continuous
 62
     7
100
AcDbLine
 10
332.3896534621633
 20
527.9749255834153
 30
0.0
 11
331.6396038027996
 21
527.7249413280014
 31
0.0
  0
LINE
  5
26C
330
2
100
AcDbEntity
  8
0
  6
Continuous
 62
     7
100
AcDbLine
 10
337.8895977606341
 20
549.6202677360954
 30
0.0
 11
338.6396474199978
 21
549.4545804970421
 31
0.0
  0
LINE
  5
26D
330
2
100
AcDbEntity
  8
0
  6
Continuous
 62
     7
100
AcDbLine
 10
338.6456547935776
 20
546.8498995846257
 30
0.0
 11
338.049762091719
 21
547.4748602231602
 31
0.0
  0
LINE
  5
26E
330
2
100
AcDbEntity
  8
0
  6
Continuous
 62
     7
100
AcDbLine
 10
338.5471144882458
 20
549.4750249458375
 30
0.0
 11
329.765109459685
 21
549.4750249458375
 31
0.0
  0
LINE
  5
26F
330
2
100
AcDbEntity
  8
0
  6
Continuous
 62
     7
100
AcDbLine
 10
341.1840608103726
 20
548.9749595418875
 30
0.0
 11
328.2649132478354
 21
548.9749595418875
 31
0.0
  0
LINE
  5
270
330
2
100
AcDbEntity
  8
0
  6
Continuous
 62
     7
100
AcDbLine
 10
340.9952161151007
 20
548.47499103106
 30
0.0
 11
336.3434742088363
 21
548.47499103106
 31
0.0
  0
LINE
  5
271
330
2
100
AcDbEntity
  8
0
  6
Continuous
 62
     7
100
AcDbLine
 10
340.8063714198288
 20
547.9750225202324
 30
0.0
 11
337.3355628875891
 21
547.9750225202324
 31
0.0
  0
LINE
  5
272
330
2
100
AcDbEntity
  8
0
  6
Continuous
 62
     7
100
AcDbLine
 10
340.6174298314346
 20
547.4749571162824
 30
0.0
 11
338.0496651985967
 21
547.4749571162824
 31
0.0
  0
LINE
  5
273
330
2
100
AcDbEntity
  8
0
  6
Continuous
 62
     7
100
AcDbLine
 10
326.5146358874496
 20
543.9748868611222
 30
0.0
 11
325.8058626981658
 21
542.474884435517
 31
0.0
  0
LINE
  5
274
330
2
100
AcDbEntity
  8
0
  6
Continuous
 62
     7
100
AcDbLine
 10
330.8896510365581
 20
528.724975242779
 30
0.0
 11
331.8661399226281
 21
528.9312607000566
 31
0.0
  0
LINE
  5
275
330
2
100
AcDbEntity
  8
0
  6
Continuous
 62
     7
100
AcDbLine
 10
333.3486046931053
 20
528.4749909873652
 30
0.0
 11
324.5144711647723
 21
528.4749909873652
 31
0.0
  0
LINE
  5
276
330
2
100
AcDbEntity
  8
0
  6
Continuous
 62
     7
100
AcDbLine
 10
329.2013852744146
 20
528.7046276871058
 30
0.0
 11
330.8896510365581
 21
528.724975242779
 31
0.0
  0
LINE
  5
277
330
2
100
AcDbEntity
  8
0
  6
Continuous
 62
     7
100
AcDbLine
 10
325.3896098449652
 20
531.3499068177462
 30
0.0
 11
326.7631667460296
 21
529.8063024871273
 31
0.0
  0
LINE
  5
278
330
2
100
AcDbEntity
  8
0
  6
Continuous
 62
     7
100
AcDbLine
 10
324.7646492064306
 20
538.7249268180653
 30
0.0
 11
324.3896728233098
 21
536.7249558816324
 31
0.0
  0
LINE
  5
279
330
2
100
AcDbEntity
  8
0
  6
Continuous
 62
     7
100
AcDbLine
 10
324.3896728233098
 20
536.7249558816324
 30
0.0
 11
324.264680695603
 21
534.9749692006135
 31
0.0
  0
LINE
  5
27A
330
2
100
AcDbEntity
  8
0
  6
Continuous
 62
     7
100
AcDbLine
 10
324.4102141652275
 20
533.7249510304221
 30
0.0
 11
324.6396570787235
 21
532.9749013710585
 31
0.0
  0
LINE
  5
27B
330
2
100
AcDbEntity
  8
0
  6
Continuous
 62
     7
100
AcDbLine
 10
324.6396570787235
 20
532.9749013710585
 30
0.0
 11
324.8896413341376
 21
532.2249486048169
 31
0.0
  0
LINE
  5
27C
330
2
100
AcDbEntity
  8
0
  6
Continuous
 62
     7
100
AcDbLine
 10
324.8896413341376
 20
532.2249486048169
 30
0.0
 11
325.3896098449652
 21
531.3499068177462
 31
0.0
  0
LINE
  5
27D
330
2
100
AcDbEntity
  8
0
  6
Continuous
 62
     7
100
AcDbLine
 10
324.264680695603
 20
534.9749692006135
 30
0.0
 11
324.4102141652275
 21
533.7249510304221
 31
0.0
  0
LINE
  5
27E
330
2
100
AcDbEntity
  8
0
  6
Continuous
 62
     7
100
AcDbLine
 10
325.2646177172583
 20
540.7248977544981
 30
0.0
 11
324.7646492064306
 21
538.7249268180653
 31
0.0
  0
LINE
  5
27F
330
2
100
AcDbEntity
  8
0
  6
Continuous
 62
     7
100
AcDbLine
 10
326.7631667460296
 20
529.8063024871273
 30
0.0
 11
327.1808729960641
 21
529.5156231203669
 31
0.0
  0
LINE
  5
280
330
2
100
AcDbEntity
  8
0
  6
Continuous
 62
     7
100
AcDbLine
 10
327.1808729960641
 20
529.5156231203669
 30
0.0
 11
327.8896461853478
 21
529.0999516258998
 31
0.0
  0
LINE
  5
281
330
2
100
AcDbEntity
  8
0
  6
Continuous
 62
     7
100
AcDbLine
 10
328.3040580692258
 20
528.9750563913149
 30
0.0
 11
323.6395262708239
 21
528.9750563913149
 31
0.0
  0
LINE
  5
282
330
2
100
AcDbEntity
  8
0
  6
Continuous
 62
     7
100
AcDbLine
 10
324.5146649510168
 20
528.474894094243
 30
0.0
 11
323.6396231639462
 21
528.9749594981929
 31
0.0
  0
LINE
  5
283
330
2
100
AcDbEntity
  8
0
  6
Continuous
 62
     7
100
AcDbLine
 10
327.8896461853478
 20
529.0999516258998
 30
0.0
 11
329.2013852744146
 21
528.7046276871058
 31
0.0
  0
LINE
  5
284
330
2
100
AcDbEntity
  8
0
  6
Continuous
 62
     7
100
AcDbLine
 10
325.8058626981658
 20
542.474884435517
 30
0.0
 11
325.2646177172583
 21
540.7248977544981
 31
0.0
  0
LINE
  5
285
330
2
100
AcDbEntity
  8
0
  6
Continuous
 62
     7
100
AcDbLine
 10
335.3896583133736
 20
530.7249461792117
 30
0.0
 11
336.139611079615
 21
531.3499068177462
 31
0.0
  0
LINE
  5
286
330
2
100
AcDbEntity
  8
0
  6
Continuous
 62
     7
100
AcDbLine
 10
336.139611079615
 20
530.7249461792117
 30
0.0
 11
335.6396425687875
 21
530.2249776683841
 31
0.0
  0
LINE
  5
287
330
2
100
AcDbEntity
  8
0
  6
Continuous
 62
     7
100
AcDbLine
 10
336.3896922281512
 20
530.9750273277479
 30
0.0
 11
335.6897363129925
 21
530.9750273277479
 31
0.0
  0
LINE
  5
288
330
2
100
AcDbEntity
  8
0
  6
Continuous
 62
     7
100
AcDbLine
 10
334.8895929094238
 20
530.349969796091
 30
0.0
 11
335.3896583133736
 21
530.7249461792117
 31
0.0
  0
LINE
  5
289
330
2
100
AcDbEntity
  8
0
  6
Continuous
 62
     7
100
AcDbLine
 10
335.6396425687875
 20
530.2249776683841
 30
0.0
 11
335.1396740579598
 21
529.7249122644343
 31
0.0
  0
LINE
  5
28A
330
2
100
AcDbEntity
  8
0
  6
Continuous
 62
     7
100
AcDbLine
 10
335.1396740579598
 20
529.7249122644343
 30
0.0
 11
334.1396401431823
 21
528.9749594981929
 31
0.0
  0
LINE
  5
28B
330
2
100
AcDbEntity
  8
0
  6
Continuous
 62
     7
100
AcDbLine
 10
335.3897552064959
 20
529.9749934129704
 30
0.0
 11
334.2496138369399
 21
529.9749934129704
 31
0.0
  0
LINE
  5
28C
330
2
100
AcDbEntity
  8
0
  6
Continuous
 62
     7
100
AcDbLine
 10
335.8897237173236
 20
530.4750588169201
 30
0.0
 11
335.0564428659442
 21
530.4750588169201
 31
0.0
  0
LINE
  5
28D
330
2
100
AcDbEntity
  8
0
  6
Continuous
 62
     7
100
AcDbLine
 10
336.139611079615
 20
531.3499068177462
 30
0.0
 11
336.6395795904427
 21
531.8499722216963
 31
0.0
  0
LINE
  5
28E
330
2
100
AcDbEntity
  8
0
  6
Continuous
 62
     7
100
AcDbLine
 10
336.6395795904427
 20
531.8499722216963
 30
0.0
 11
337.0146528666858
 21
532.2249486048169
 31
0.0
  0
LINE
  5
28F
330
2
100
AcDbEntity
  8
0
  6
Continuous
 62
     7
100
AcDbLine
 10
337.0146528666858
 20
532.2249486048169
 30
0.0
 11
337.2646371220995
 21
532.09995647711
 31
0.0
  0
LINE
  5
290
330
2
100
AcDbEntity
  8
0
  6
Continuous
 62
     7
100
AcDbLine
 10
337.2646371220995
 20
532.09995647711
 30
0.0
 11
337.2646371220995
 21
531.9749643494031
 31
0.0
  0
LINE
  5
291
330
2
100
AcDbEntity
  8
0
  6
Continuous
 62
     7
100
AcDbLine
 10
337.2646371220995
 20
531.9749643494031
 30
0.0
 11
336.8896607389788
 21
531.4748989454533
 31
0.0
  0
LINE
  5
292
330
2
100
AcDbEntity
  8
0
  6
Continuous
 62
     7
100
AcDbLine
 10
336.8896607389788
 20
531.4748989454533
 30
0.0
 11
336.139611079615
 21
530.7249461792117
 31
0.0
  0
LINE
  5
293
330
2
100
AcDbEntity
  8
0
  6
Continuous
 62
     7
100
AcDbLine
 10
336.8897576321011
 20
531.4749958385755
 30
0.0
 11
336.2647001004443
 21
531.4749958385755
 31
0.0
  0
LINE
  5
294
330
2
100
AcDbEntity
  8
0
  6
Continuous
 62
     7
100
AcDbLine
 10
337.2646371220995
 20
531.9750612425253
 30
0.0
 11
336.7647655043942
 21
531.9750612425253
 31
0.0
  0
LINE
  5
295
330
2
100
AcDbEntity
  8
0
  6
Continuous
 62
     7
100
AcDbLine
 10
331.8661399226281
 20
528.9312607000566
 30
0.0
 11
332.6808172945349
 21
529.2045961979333
 31
0.0
  0
LINE
  5
296
330
2
100
AcDbEntity
  8
0
  6
Continuous
 62
     7
100
AcDbLine
 10
332.6808172945349
 20
529.2045961979333
 30
0.0
 11
333.6836611098578
 21
529.6436189348638
 31
0.0
  0
LINE
  5
297
330
2
100
AcDbEntity
  8
0
  6
Continuous
 62
     7
100
AcDbLine
 10
333.348410906861
 20
528.474894094243
 30
0.0
 11
332.889621972991
 21
528.2249098388292
 31
0.0
  0
LINE
  5
298
330
2
100
AcDbEntity
  8
0
  6
Continuous
 62
     7
100
AcDbLine
 10
333.6836611098578
 20
529.6436189348638
 30
0.0
 11
334.8895929094238
 21
530.349969796091
 31
0.0
  0
LINE
  5
299
330
2
100
AcDbEntity
  8
0
  6
Continuous
 62
     7
100
AcDbLine
 10
334.8064586105303
 20
529.4750249021426
 30
0.0
 11
333.2986078420226
 21
529.4750249021426
 31
0.0
  0
LINE
  5
29A
330
2
100
AcDbEntity
  8
0
  6
Continuous
 62
     7
100
AcDbLine
 10
334.1397370363046
 20
528.9750563913149
 30
0.0
 11
331.9965580651812
 21
528.9750563913149
 31
0.0
  0
LINE
  5
29B
330
2
100
AcDbEntity
  8
0
  6
Continuous
 62
     7
100
AcDbLine
 10
334.1396401431823
 20
528.9749594981929
 30
0.0
 11
333.348410906861
 21
528.474894094243
 31
0.0
  0
LINE
  5
29C
330
2
100
AcDbEntity
  8
0
  6
Continuous
 62
     7
100
AcDbLine
 10
330.8896510365581
 20
549.724912308129
 30
0.0
 11
331.3896195473858
 21
549.8499044358359
 31
0.0
  0
LINE
  5
29D
330
2
100
AcDbEntity
  8
0
  6
Continuous
 62
     7
100
AcDbLine
 10
331.3896195473858
 20
548.4545465822646
 30
0.0
 11
330.3896825257305
 21
547.9952731827834
 31
0.0
  0
LINE
  5
29E
330
2
100
AcDbEntity
  8
0
  6
Continuous
 62
     7
100
AcDbLine
 10
331.4603515266308
 20
548.47499103106
 30
0.0
 11
327.1398872053508
 21
548.47499103106
 31
0.0
  0
LINE
  5
29F
330
2
100
AcDbEntity
  8
0
  6
Continuous
 62
     7
100
AcDbLine
 10
329.7646249940738
 20
549.4749280527153
 30
0.0
 11
330.8896510365581
 21
549.724912308129
 31
0.0
  0
LINE
  5
2A0
330
2
100
AcDbEntity
  8
0
  6
Continuous
 62
     7
100
AcDbLine
 10
330.3896825257305
 20
547.9952731827834
 30
0.0
 11
329.8896171217806
 21
547.7451920342473
 31
0.0
  0
LINE
  5
2A1
330
2
100
AcDbEntity
  8
0
  6
Continuous
 62
     7
100
AcDbLine
 10
329.8896171217806
 20
547.7451920342473
 30
0.0
 11
329.389648610953
 21
547.4546095606092
 31
0.0
  0
LINE
  5
2A2
330
2
100
AcDbEntity
  8
0
  6
Continuous
 62
     7
100
AcDbLine
 10
325.3896098449652
 20
547.4748602231602
 30
0.0
 11
326.6396280151565
 21
548.2249098825238
 31
0.0
  0
LINE
  5
2A3
330
2
100
AcDbEntity
  8
0
  6
Continuous
 62
     7
100
AcDbLine
 10
328.7647848655407
 20
546.9749886054549
 30
0.0
 11
324.6755075339574
 21
546.9749886054549
 31
0.0
  0
LINE
  5
2A4
330
2
100
AcDbEntity
  8
0
  6
Continuous
 62
     7
100
AcDbLine
 10
324.1396885678961
 20
546.5999153292118
 30
0.0
 11
325.3896098449652
 21
547.4748602231602
 31
0.0
  0
LINE
  5
2A5
330
2
100
AcDbEntity
  8
0
  6
Continuous
 62
     7
100
AcDbLine
 10
328.0146383130548
 20
546.2249389460911
 30
0.0
 11
327.2646855468133
 21
545.2249050313136
 31
0.0
  0
LINE
  5
2A6
330
2
100
AcDbEntity
  8
0
  6
Continuous
 62
     7
100
AcDbLine
 10
326.6396280151565
 20
548.2249098825238
 30
0.0
 11
327.6396619299339
 21
548.7248783933514
 31
0.0
  0
LINE
  5
2A7
330
2
100
AcDbEntity
  8
0
  6
Continuous
 62
     7
100
AcDbLine
 10
327.2646855468133
 20
545.2249050313136
 30
0.0
 11
326.5146358874496
 21
543.9748868611222
 31
0.0
  0
LINE
  5
2A8
330
2
100
AcDbEntity
  8
0
  6
Continuous
 62
     7
100
AcDbLine
 10
328.8896801001254
 20
547.0998838400395
 30
0.0
 11
328.0146383130548
 21
546.2249389460911
 31
0.0
  0
LINE
  5
2A9
330
2
100
AcDbEntity
  8
0
  6
Continuous
 62
     7
100
AcDbLine
 10
327.6396619299339
 20
548.7248783933514
 30
0.0
 11
328.8896801001254
 21
549.2249437973014
 31
0.0
  0
LINE
  5
2AA
330
2
100
AcDbEntity
  8
0
  6
Continuous
 62
     7
100
AcDbLine
 10
328.2647194615908
 20
546.4750200946272
 30
0.0
 11
324.0147933333114
 21
546.4750200946272
 31
0.0
  0
LINE
  5
2AB
330
2
100
AcDbEntity
  8
0
  6
Continuous
 62
     7
100
AcDbLine
 10
330.3491812006285
 20
547.9750225202324
 30
0.0
 11
326.2231813757113
 21
547.9750225202324
 31
0.0
  0
LINE
  5
2AC
330
2
100
AcDbEntity
  8
0
  6
Continuous
 62
     7
100
AcDbLine
 10
329.4184258682622
 20
547.4749571162824
 30
0.0
 11
325.3898036312097
 21
547.4749571162824
 31
0.0
  0
LINE
  5
2AD
330
2
100
AcDbEntity
  8
0
  6
Continuous
 62
     7
100
AcDbLine
 10
329.389648610953
 20
547.4546095606092
 30
0.0
 11
328.8896801001254
 21
547.0998838400395
 31
0.0
  0
LINE
  5
2AE
330
2
100
AcDbEntity
  8
0
  6
Continuous
 62
     7
100
AcDbLine
 10
328.8896801001254
 20
549.2249437973014
 30
0.0
 11
329.7646249940738
 21
549.4749280527153
 31
0.0
  0
LINE
  5
2AF
330
2
100
AcDbEntity
  8
0
  6
Continuous
 62
     7
100
AcDbLine
 10
335.8896268242013
 20
549.9748965635428
 30
0.0
 11
336.8896607389788
 21
549.8295568801628
 31
0.0
  0
LINE
  5
2B0
330
2
100
AcDbEntity
  8
0
  6
Continuous
 62
     7
100
AcDbLine
 10
337.1571826495206
 20
548.0999177548169
 30
0.0
 11
335.8896268242013
 21
548.684183282005
 31
0.0
  0
LINE
  5
2B1
330
2
100
AcDbEntity
  8
0
  6
Continuous
 62
     7
100
AcDbLine
 10
334.1396401431823
 20
550.0998886912498
 30
0.0
 11
335.8896268242013
 21
549.9748965635428
 31
0.0
  0
LINE
  5
2B2
330
2
100
AcDbEntity
  8
0
  6
Continuous
 62
     7
100
AcDbLine
 10
335.8896268242013
 20
548.684183282005
 30
0.0
 11
334.63960865401
 21
548.9545150930921
 31
0.0
  0
LINE
  5
2B3
330
2
100
AcDbEntity
  8
0
  6
Continuous
 62
     7
100
AcDbLine
 10
337.3896292498065
 20
549.724912308129
 30
0.0
 11
337.8895977606341
 21
549.6202677360954
 31
0.0
  0
LINE
  5
2B4
330
2
100
AcDbEntity
  8
0
  6
Continuous
 62
     7
100
AcDbLine
 10
338.049762091719
 20
547.4748602231602
 30
0.0
 11
337.1571826495206
 21
548.0999177548169
 31
0.0
  0
LINE
  5
2B5
330
2
100
AcDbEntity
  8
0
  6
Continuous
 62
     7
100
AcDbLine
 10
336.8896607389788
 20
549.8295568801628
 30
0.0
 11
337.3896292498065
 21
549.724912308129
 31
0.0
  0
LINE
  5
2B6
330
2
100
AcDbEntity
  8
0
  6
Continuous
 62
     7
100
AcDbLine
 10
331.3896195473858
 20
549.8499044358359
 30
0.0
 11
332.3896534621633
 21
549.9748965635428
 31
0.0
  0
LINE
  5
2B7
330
2
100
AcDbEntity
  8
0
  6
Continuous
 62
     7
100
AcDbLine
 10
333.7248406868154
 20
548.9545150930921
 30
0.0
 11
333.1396062284048
 21
548.8702180767317
 31
0.0
  0
LINE
  5
2B8
330
2
100
AcDbEntity
  8
0
  6
Continuous
 62
     7
100
AcDbLine
 10
332.3249288564981
 20
548.7248783933514
 30
0.0
 11
331.3896195473858
 21
548.4545465822646
 31
0.0
  0
LINE
  5
2B9
330
2
100
AcDbEntity
  8
0
  6
Continuous
 62
     7
100
AcDbLine
 10
333.1396062284048
 20
548.8702180767317
 30
0.0
 11
332.3249288564981
 21
548.7248783933514
 31
0.0
  0
LINE
  5
2BA
330
2
100
AcDbEntity
  8
0
  6
Continuous
 62
     7
100
AcDbLine
 10
332.3896534621633
 20
549.9748965635428
 30
0.0
 11
334.1396401431823
 21
550.0998886912498
 31
0.0
  0
LINE
  5
2BB
330
2
100
AcDbEntity
  8
0
  6
Continuous
 62
     7
100
AcDbLine
 10
334.63960865401
 20
548.9545150930921
 30
0.0
 11
333.7248406868154
 21
548.9545150930921
 31
0.0
  0
LINE
  5
2BC
330
2
100
AcDbEntity
  8
0
  6
Continuous
 62
     7
100
AcDbLine
 10
340.7646104841375
 20
549.724912308129
 30
0.0
 11
341.1395868672582
 21
549.9748965635428
 31
0.0
  0
LINE
  5
2BD
330
2
100
AcDbEntity
  8
0
  6
Continuous
 62
     7
100
AcDbLine
 10
341.3730023987668
 20
549.4750249458375
 30
0.0
 11
340.389730994139
 21
549.4750249458375
 31
0.0
  0
LINE
  5
2BE
330
2
100
AcDbEntity
  8
0
  6
Continuous
 62
     7
100
AcDbLine
 10
341.5146601435012
 20
549.8499044358359
 30
0.0
 11
339.3896001862393
 21
544.2248711165359
 31
0.0
  0
LINE
  5
2BF
330
2
100
AcDbEntity
  8
0
  6
Continuous
 62
     7
100
AcDbLine
 10
340.3896341010168
 20
549.4749280527153
 30
0.0
 11
340.7646104841375
 21
549.724912308129
 31
0.0
  0
LINE
  5
2C0
330
2
100
AcDbEntity
  8
0
  6
Continuous
 62
     7
100
AcDbLine
 10
339.0146238031185
 20
544.474952265072
 30
0.0
 11
339.0839023855298
 21
545.5998814144343
 31
0.0
  0
LINE
  5
2C1
330
2
100
AcDbEntity
  8
0
  6
Continuous
 62
     7
100
AcDbLine
 10
339.0839023855298
 20
545.5998814144343
 30
0.0
 11
338.9619139446127
 21
546.2249389460911
 31
0.0
  0
LINE
  5
2C2
330
2
100
AcDbEntity
  8
0
  6
Continuous
 62
     7
100
AcDbLine
 10
338.9619139446127
 20
546.2249389460911
 30
0.0
 11
338.816380474988
 21
546.5999153292118
 31
0.0
  0
LINE
  5
2C3
330
2
100
AcDbEntity
  8
0
  6
Continuous
 62
     7
100
AcDbLine
 10
339.1396159308255
 20
549.3499359250083
 30
0.0
 11
339.639584441653
 21
549.2249437973014
 31
0.0
  0
LINE
  5
2C4
330
2
100
AcDbEntity
  8
0
  6
Continuous
 62
     7
100
AcDbLine
 10
339.639584441653
 20
549.2249437973014
 30
0.0
 11
339.8896655901891
 21
549.2249437973014
 31
0.0
  0
LINE
  5
2C5
330
2
100
AcDbEntity
  8
0
  6
Continuous
 62
     7
100
AcDbLine
 10
340.2396435477685
 20
546.4750200946272
 30
0.0
 11
338.8648270361148
 21
546.4750200946272
 31
0.0
  0
LINE
  5
2C6
330
2
100
AcDbEntity
  8
0
  6
Continuous
 62
     7
100
AcDbLine
 10
340.0507988524966
 20
545.9750515837995
 30
0.0
 11
339.0106511851062
 21
545.9750515837995
 31
0.0
  0
LINE
  5
2C7
330
2
100
AcDbEntity
  8
0
  6
Continuous
 62
     7
100
AcDbLine
 10
339.8618572641025
 20
545.4749861798496
 30
0.0
 11
339.0762478288717
 21
545.4749861798496
 31
0.0
  0
LINE
  5
2C8
330
2
100
AcDbEntity
  8
0
  6
Continuous
 62
     7
100
AcDbLine
 10
339.6730125688306
 20
544.975017669022
 30
0.0
 11
339.0454358159951
 21
544.975017669022
 31
0.0
  0
LINE
  5
2C9
330
2
100
AcDbEntity
  8
0
  6
Continuous
 62
     7
100
AcDbLine
 10
339.4840709804364
 20
544.4750491581944
 30
0.0
 11
339.0146238031185
 21
544.4750491581944
 31
0.0
  0
LINE
  5
2CA
330
2
100
AcDbEntity
  8
0
  6
Continuous
 62
     7
100
AcDbLine
 10
339.3896001862393
 20
544.2248711165359
 30
0.0
 11
339.1396159308255
 21
544.2248711165359
 31
0.0
  0
LINE
  5
2CB
330
2
100
AcDbEntity
  8
0
  6
Continuous
 62
     7
100
AcDbLine
 10
339.1396159308255
 20
544.2248711165359
 30
0.0
 11
339.0146238031185
 21
544.474952265072
 31
0.0
  0
LINE
  5
2CC
330
2
100
AcDbEntity
  8
0
  6
Continuous
 62
     7
100
AcDbLine
 10
339.8896655901891
 20
549.2249437973014
 30
0.0
 11
340.3896341010168
 21
549.4749280527153
 31
0.0
  0
LINE
  5
2CD
330
2
100
AcDbEntity
  8
0
  6
Continuous
 62
     7
100
AcDbLine
 10
341.1395868672582
 20
549.9748965635428
 30
0.0
 11
341.389571122672
 21
549.9748965635428
 31
0.0
  0
LINE
  5
2CE
330
2
100
AcDbEntity
  8
0
  6
Continuous
 62
     7
100
AcDbLine
 10
341.389571122672
 20
549.9748965635428
 30
0.0
 11
341.5146601435012
 21
549.8499044358359
 31
0.0
  0
LINE
  5
2CF
330
2
100
AcDbEntity
  8
0
  6
Continuous
 62
     7
100
AcDbLine
 10
338.816380474988
 20
546.5999153292118
 30
0.0
 11
338.6456547935776
 21
546.8498995846257
 31
0.0
  0
LINE
  5
2D0
330
2
100
AcDbEntity
  8
0
  6
Continuous
 62
     7
100
AcDbLine
 10
340.4285851361627
 20
546.9749886054549
 30
0.0
 11
338.5263793600835
 21
546.9749886054549
 31
0.0
  0
LINE
  5
2D1
330
2
100
AcDbEntity
  8
0
  6
Continuous
 62
     7
100
AcDbLine
 10
338.6396474199978
 20
549.4545804970421
 30
0.0
 11
339.1396159308255
 21
549.3499359250083
 31
0.0
  0
LINE
  5
2D2
330
2
100
AcDbEntity
  8
0
  6
Continuous
 62
     7
100
AcDbLine
 10
438.4992670948911
 20
511.4998004341777
 30
0.0
 11
492.4989183976269
 21
511.4998004341777
 31
0.0
  0
ARC
  5
2D3
330
2
100
AcDbEntity
  8
0
  6
Continuous
 62
     7
100
AcDbCircle
 10
492.4988649370424
 20
509.4997518130853
 30
0.0
 40
2.000048621806688
100
AcDbArc
 50
0.0022254474570924
 51
89.99846850429753
  0
LINE
  5
2D4
330
2
100
AcDbEntity
  8
0
  6
Continuous
 62
     7
100
AcDbLine
 10
494.4989135573403
 20
491.2259804269949
 30
0.0
 11
494.4989135573403
 21
509.4998294977449
 31
0.0
  0
ARC
  5
2D5
330
2
100
AcDbEntity
  8
0
  6
Continuous
 62
     7
100
AcDbCircle
 10
492.4991750243965
 20
491.2457985050908
 30
0.0
 40
1.999838454482581
100
AcDbArc
 50
284.4742137282567
 51
0.001289602001436
  0
ARC
  5
2D6
330
2
100
AcDbEntity
  8
0
  6
Continuous
 62
     7
100
AcDbCircle
 10
494.4990749782075
 20
483.5000019568442
 30
0.0
 40
5.999971796209486
100
AcDbArc
 50
104.4780927412872
 51
165.5232357421442
  0
ARC
  5
2D7
330
2
100
AcDbEntity
  8
0
  6
Continuous
 62
     7
100
AcDbCircle
 10
486.7531211001104
 20
485.4998994973595
 30
0.0
 40
1.999982852679754
100
AcDbArc
 50
270.000486457617
 51
345.5229400956391
  0
LINE
  5
2D8
330
2
100
AcDbEntity
  8
0
  6
Continuous
 62
     7
100
AcDbLine
 10
486.7727180610091
 20
483.500013537874
 30
0.0
 11
444.2398000438273
 21
483.4995290722628
 31
0.0
  0
ARC
  5
2D9
330
2
100
AcDbEntity
  8
0
  6
Continuous
 62
     7
100
AcDbCircle
 10
444.2453189825868
 20
485.4995259235979
 30
0.0
 40
1.999996851399983
100
AcDbArc
 50
194.4773705472578
 51
270.0004606831216
  0
ARC
  5
2DA
330
2
100
AcDbEntity
  8
0
  6
Continuous
 62
     7
100
AcDbCircle
 10
436.4993198324855
 20
483.4998307147726
 30
0.0
 40
5.999936396757376
100
AcDbArc
 50
14.47471797711098
 51
75.54457834448982
  0
ARC
  5
2DB
330
2
100
AcDbEntity
  8
0
  6
Continuous
 62
     7
100
AcDbCircle
 10
438.499036456207
 20
491.245713146037
 30
0.0
 40
1.999849306760554
100
AcDbArc
 50
179.9962648639655
 51
255.5259039056531
  0
LINE
  5
2DC
330
2
100
AcDbEntity
  8
0
  6
Continuous
 62
     7
100
AcDbLine
 10
436.4992719351778
 20
491.2276276100731
 30
0.0
 11
436.4992719351778
 21
509.4998294977449
 31
0.0
  0
ARC
  5
2DD
330
2
100
AcDbEntity
  8
0
  6
Continuous
 62
     7
100
AcDbCircle
 10
438.4993205554758
 20
509.4997518130853
 30
0.0
 40
2.000048621806688
100
AcDbArc
 50
90.0015314957041
 51
179.9977745525429
  0
CIRCLE
  5
2DE
330
2
100
AcDbEntity
  8
0
  6
Continuous
 62
     7
100
AcDbCircle
 10
475.4997710199622
 20
497.4998100929036
 30
0.0
 40
10.00014536153076
  0
CIRCLE
  5
2DF
330
2
100
AcDbEntity
  8
0
  6
Continuous
 62
     7
100
AcDbCircle
 10
475.4997710199622
 20
497.4998100929036
 30
0.0
 40
7.499915234903562
  0
CIRCLE
  5
2E0
330
2
100
AcDbEntity
  8
0
  6
Continuous
 62
     7
100
AcDbCircle
 10
475.4997710199622
 20
497.4998100929036
 30
0.0
 40
6.000009702420651
  0
CIRCLE
  5
2E1
330
2
100
AcDbEntity
  8
0
  6
Continuous
 62
     7
100
AcDbCircle
 10
475.4997710199622
 20
497.4998100929036
 30
0.0
 40
9.000014553630979
  0
CIRCLE
  5
2E2
330
2
100
AcDbEntity
  8
0
  6
Continuous
 62
     7
100
AcDbCircle
 10
475.4997710199622
 20
497.4998100929036
 30
0.0
 40
9.499983064458616
  0
CIRCLE
  5
2E3
330
2
100
AcDbEntity
  8
0
  6
Continuous
 62
     7
100
AcDbCircle
 10
473.7642214141589
 20
501.1036528819972
 30
0.0
 40
0.7000624036517208
  0
CIRCLE
  5
2E4
330
2
100
AcDbEntity
  8
0
  6
Continuous
 62
     7
100
AcDbCircle
 10
472.3724486061108
 20
495.0057811261006
 30
0.0
 40
0.6999541983349295
  0
CIRCLE
  5
2E5
330
2
100
AcDbEntity
  8
0
  6
Continuous
 62
     7
100
AcDbCircle
 10
471.6000166355066
 20
498.3898703139234
 30
0.0
 40
0.7000727565807205
  0
CIRCLE
  5
2E6
330
2
100
AcDbEntity
  8
0
  6
Continuous
 62
     7
100
AcDbCircle
 10
477.2351268395208
 20
501.1036528819972
 30
0.0
 40
0.6998878023104897
  0
CIRCLE
  5
2E7
330
2
100
AcDbEntity
  8
0
  6
Continuous
 62
     7
100
AcDbCircle
 10
479.3993316181733
 20
498.3898703139234
 30
0.0
 40
0.7000727565807205
  0
CIRCLE
  5
2E8
330
2
100
AcDbEntity
  8
0
  6
Continuous
 62
     7
100
AcDbCircle
 10
478.6270934338134
 20
495.0057811261006
 30
0.0
 40
0.6999541983349295
  0
CIRCLE
  5
2E9
330
2
100
AcDbEntity
  8
0
  6
Continuous
 62
     7
100
AcDbCircle
 10
475.4997710199622
 20
497.4998100929036
 30
0.0
 40
0.6999559151586914
  0
CIRCLE
  5
2EA
330
2
100
AcDbEntity
  8
0
  6
Continuous
 62
     7
100
AcDbCircle
 10
475.4997710199622
 20
493.4998682200379
 30
0.0
 40
0.6999559151586914
  0
ARC
  5
2EB
330
2
100
AcDbEntity
  8
0
  6
Continuous
 62
     7
100
AcDbCircle
 10
489.5866024923742
 20
509.4122616681899
 30
0.0
 40
1.502601910021413
100
AcDbArc
 50
278.1301023541561
 51
351.8698976458452
  0
ARC
  5
2EC
330
2
100
AcDbEntity
  8
0
  6
Continuous
 62
     7
100
AcDbCircle
 10
489.5866024923742
 20
505.5872616681899
 30
0.0
 40
1.502601910021413
100
AcDbArc
 50
8.13010235415483
 51
81.8698976458438
  0
CIRCLE
  5
2ED
330
2
100
AcDbEntity
  8
0
  6
Continuous
 62
     7
100
AcDbCircle
 10
491.4991024923743
 20
507.4997616681898
 30
0.0
 40
2.337499999999999
  0
ARC
  5
2EE
330
2
100
AcDbEntity
  8
0
  6
Continuous
 62
     7
100
AcDbCircle
 10
493.4116024923743
 20
509.4122616681898
 30
0.0
 40
1.502601910021413
100
AcDbArc
 50
188.1301023541548
 51
261.8698976458438
  0
ARC
  5
2EF
330
2
100
AcDbEntity
  8
0
  6
Continuous
 62
     7
100
AcDbCircle
 10
493.4116024923743
 20
505.5872616681897
 30
0.0
 40
1.502601910021413
100
AcDbArc
 50
98.13010235415621
 51
171.8698976458451
  0
ARC
  5
2F0
330
2
100
AcDbEntity
  8
0
  6
Continuous
 62
     7
100
AcDbCircle
 10
437.5867767863881
 20
509.4122616681899
 30
0.0
 40
1.502601910021413
100
AcDbArc
 50
278.1301023541561
 51
351.8698976458452
  0
ARC
  5
2F1
330
2
100
AcDbEntity
  8
0
  6
Continuous
 62
     7
100
AcDbCircle
 10
437.5867767863879
 20
505.5872616681899
 30
0.0
 40
1.502601910021413
100
AcDbArc
 50
8.13010235415483
 51
81.8698976458438
  0
CIRCLE
  5
2F2
330
2
100
AcDbEntity
  8
0
  6
Continuous
 62
     7
100
AcDbCircle
 10
439.4992767863882
 20
507.4997616681898
 30
0.0
 40
2.337499999999999
  0
ARC
  5
2F3
330
2
100
AcDbEntity
  8
0
  6
Continuous
 62
     7
100
AcDbCircle
 10
441.4117767863881
 20
509.4122616681898
 30
0.0
 40
1.502601910021413
100
AcDbArc
 50
188.1301023541548
 51
261.8698976458438
  0
ARC
  5
2F4
330
2
100
AcDbEntity
  8
0
  6
Continuous
 62
     7
100
AcDbCircle
 10
441.4117767863881
 20
505.5872616681897
 30
0.0
 40
1.502601910021413
100
AcDbArc
 50
98.13010235415621
 51
171.8698976458451
  0
ARC
  5
2F5
330
2
100
AcDbEntity
  8
0
  6
Continuous
 62
     7
100
AcDbCircle
 10
443.0867695314201
 20
488.4124214959622
 30
0.0
 40
1.502601910021413
100
AcDbArc
 50
278.1301023541561
 51
351.8698976458452
  0
ARC
  5
2F6
330
2
100
AcDbEntity
  8
0
  6
Continuous
 62
     7
100
AcDbCircle
 10
443.08676953142
 20
484.5874214959621
 30
0.0
 40
1.502601910021413
100
AcDbArc
 50
8.13010235415483
 51
81.8698976458438
  0
CIRCLE
  5
2F7
330
2
100
AcDbEntity
  8
0
  6
Continuous
 62
     7
100
AcDbCircle
 10
444.99926953142
 20
486.499921495962
 30
0.0
 40
2.337499999999999
  0
ARC
  5
2F8
330
2
100
AcDbEntity
  8
0
  6
Continuous
 62
     7
100
AcDbCircle
 10
446.9117695314201
 20
488.4124214959621
 30
0.0
 40
1.502601910021413
100
AcDbArc
 50
188.1301023541548
 51
261.8698976458438
  0
ARC
  5
2F9
330
2
100
AcDbEntity
  8
0
  6
Continuous
 62
     7
100
AcDbCircle
 10
446.9117695314201
 20
484.5874214959619
 30
0.0
 40
1.502601910021413
100
AcDbArc
 50
98.13010235415621
 51
171.8698976458451
  0
ARC
  5
2FA
330
2
100
AcDbEntity
  8
0
  6
Continuous
 62
     7
100
AcDbCircle
 10
484.0866097473426
 20
488.4124214959622
 30
0.0
 40
1.502601910021413
100
AcDbArc
 50
278.1301023541561
 51
351.8698976458452
  0
ARC
  5
2FB
330
2
100
AcDbEntity
  8
0
  6
Continuous
 62
     7
100
AcDbCircle
 10
484.0866097473425
 20
484.5874214959621
 30
0.0
 40
1.502601910021413
100
AcDbArc
 50
8.13010235415483
 51
81.8698976458438
  0
CIRCLE
  5
2FC
330
2
100
AcDbEntity
  8
0
  6
Continuous
 62
     7
100
AcDbCircle
 10
485.9991097473426
 20
486.499921495962
 30
0.0
 40
2.337499999999999
  0
ARC
  5
2FD
330
2
100
AcDbEntity
  8
0
  6
Continuous
 62
     7
100
AcDbCircle
 10
487.9116097473427
 20
488.4124214959621
 30
0.0
 40
1.502601910021413
100
AcDbArc
 50
188.1301023541548
 51
261.8698976458438
  0
ARC
  5
2FE
330
2
100
AcDbEntity
  8
0
  6
Continuous
 62
     7
100
AcDbCircle
 10
487.9116097473427
 20
484.5874214959619
 30
0.0
 40
1.502601910021413
100
AcDbArc
 50
98.13010235415621
 51
171.8698976458451
  0
LINE
  5
2FF
330
2
100
AcDbEntity
  8
0
  6
Continuous
 62
     7
100
AcDbLine
 10
385.1381532759241
 20
507.4810225127248
 30
0.0
 11
386.1380902975794
 21
506.981054001897
 31
0.0
  0
LINE
  5
300
330
2
100
AcDbEntity
  8
0
  6
Continuous
 62
     7
100
AcDbLine
 10
385.1381532759241
 20
507.4810225127248
 30
0.0
 11
385.1381532759241
 21
487.4811193621523
 31
0.0
  0
LINE
  5
301
330
2
100
AcDbEntity
  8
0
  6
Continuous
 62
     7
100
AcDbLine
 10
388.1381581271345
 20
506.981054001897
 30
0.0
 11
388.1381581271345
 21
487.9810878729799
 31
0.0
  0
LINE
  5
302
330
2
100
AcDbEntity
  8
0
  6
Continuous
 62
     7
100
AcDbLine
 10
391.1381629783448
 20
506.981054001897
 30
0.0
 11
391.1381629783448
 21
487.9810878729799
 31
0.0
  0
LINE
  5
303
330
2
100
AcDbEntity
  8
0
  6
Continuous
 62
     7
100
AcDbLine
 10
386.1380902975794
 20
506.981054001897
 30
0.0
 11
386.1380902975794
 21
487.9810878729799
 31
0.0
  0
LINE
  5
304
330
2
100
AcDbEntity
  8
0
  6
Continuous
 62
     7
100
AcDbLine
 10
392.1381
 20
505.9811169802418
 30
0.0
 11
392.1381
 21
488.9810248946352
 31
0.0
  0
LINE
  5
305
330
2
100
AcDbEntity
  8
0
  6
Continuous
 62
     7
100
AcDbLine
 10
388.1381581271345
 20
488.9810248946352
 30
0.0
 11
392.1381
 21
488.9810248946352
 31
0.0
  0
LINE
  5
306
330
2
100
AcDbEntity
  8
0
  6
Continuous
 62
     7
100
AcDbLine
 10
391.1381629783448
 20
487.9810878729799
 30
0.0
 11
386.1380902975794
 21
487.9810878729799
 31
0.0
  0
LINE
  5
307
330
2
100
AcDbEntity
  8
0
  6
Continuous
 62
     7
100
AcDbLine
 10
387.1380273192345
 20
487.9810878729799
 30
0.0
 11
388.1381581271345
 21
488.9810248946352
 31
0.0
  0
LINE
  5
308
330
2
100
AcDbEntity
  8
0
  6
Continuous
 62
     7
100
AcDbLine
 10
386.1380902975794
 20
487.9810878729799
 30
0.0
 11
385.1381532759241
 21
487.4811193621523
 31
0.0
  0
LINE
  5
309
330
2
100
AcDbEntity
  8
0
  6
Continuous
 62
     7
100
AcDbLine
 10
386.1380902975794
 20
487.9810878729799
 30
0.0
 11
386.1380902975794
 21
487.9810878729799
 31
0.0
  0
LINE
  5
30A
330
2
100
AcDbEntity
  8
0
  6
Continuous
 62
     7
100
AcDbLine
 10
385.1381532759241
 20
487.4811193621523
 30
0.0
 11
383.5000000000001
 21
487.4811193621523
 31
0.0
  0
LINE
  5
30B
330
2
100
AcDbEntity
  8
0
  6
Continuous
 62
     7
100
AcDbLine
 10
392.1381
 20
488.9810248946352
 30
0.0
 11
391.1381629783448
 21
487.9810878729799
 31
0.0
  0
LINE
  5
30C
330
2
100
AcDbEntity
  8
0
  6
Continuous
 62
     7
100
AcDbLine
 10
388.1381581271345
 20
505.9811169802418
 30
0.0
 11
392.1381
 21
505.9811169802418
 31
0.0
  0
LINE
  5
30D
330
2
100
AcDbEntity
  8
0
  6
Continuous
 62
     7
100
AcDbLine
 10
386.1380902975794
 20
506.981054001897
 30
0.0
 11
391.1381629783448
 21
506.981054001897
 31
0.0
  0
LINE
  5
30E
330
2
100
AcDbEntity
  8
0
  6
Continuous
 62
     7
100
AcDbLine
 10
387.1380273192345
 20
506.981054001897
 30
0.0
 11
388.1381581271345
 21
505.9811169802418
 31
0.0
  0
LINE
  5
30F
330
2
100
AcDbEntity
  8
0
  6
Continuous
 62
     7
100
AcDbLine
 10
391.1381629783448
 20
506.981054001897
 30
0.0
 11
392.1381
 21
505.9811169802418
 31
0.0
  0
LINE
  5
310
330
2
100
AcDbEntity
  8
0
  6
Continuous
 62
     7
100
AcDbLine
 10
383.5000000000001
 20
507.4810225127248
 30
0.0
 11
385.1381532759241
 21
507.4810225127248
 31
0.0
  0
LINE
  5
311
330
2
100
AcDbEntity
  8
0
  6
Continuous
 62
     7
100
AcDbLine
 10
380.4893722212212
 20
584.0835244857418
 30
0.0
 11
380.4893722212212
 21
576.9580042752253
 31
0.0
  0
LINE
  5
312
330
2
100
AcDbEntity
  8
0
  6
Continuous
 62
     7
100
AcDbLine
 10
380.9895345182933
 20
576.4628804205103
 30
0.0
 11
382.4998708010347
 21
576.4630755543969
 31
0.0
  0
ARC
  5
313
330
2
100
AcDbEntity
  8
0
  6
Continuous
 62
     7
100
AcDbCircle
 10
380.9895627070314
 20
576.9630709063205
 30
0.0
 40
0.5001904866045285
100
AcDbArc
 50
180.003228961298
 51
269.9967710387003
  0
LINE
  5
314
330
2
100
AcDbEntity
  8
0
  6
Continuous
 62
     7
100
AcDbLine
 10
380.4893722212212
 20
577.6910976381947
 30
0.0
 11
381.489503029121
 21
577.6910976381947
 31
0.0
  0
LINE
  5
315
330
2
100
AcDbEntity
  8
0
  6
Continuous
 62
     7
100
AcDbLine
 10
380.4893722212212
 20
583.2911325319533
 30
0.0
 11
381.489503029121
 21
583.2911325319533
 31
0.0
  0
ARC
  5
316
330
2
100
AcDbEntity
  8
0
  6
Continuous
 62
     7
100
AcDbCircle
 10
379.3892477111559
 20
580.4911150850739
 30
0.0
 40
3.500167153646943
100
AcDbArc
 50
306.8730698183298
 51
53.12693018167017
  0
ARC
  5
317
330
2
100
AcDbEntity
  8
0
  6
Continuous
 62
     7
100
AcDbCircle
 10
379.3960302297136
 20
483.5074355254173
 30
0.0
 40
3.499973363379153
100
AcDbArc
 50
306.8714838199073
 51
53.12851618009267
  0
LINE
  5
318
330
2
100
AcDbEntity
  8
0
  6
Continuous
 62
     7
100
AcDbLine
 10
380.4959609535343
 20
486.3075498654188
 30
0.0
 11
381.4960917614342
 21
486.3073560791742
 31
0.0
  0
LINE
  5
319
330
2
100
AcDbEntity
  8
0
  6
Continuous
 62
     7
100
AcDbLine
 10
380.4959609535343
 20
480.7075149716602
 30
0.0
 11
381.4960917614342
 21
480.7075149716602
 31
0.0
  0
LINE
  5
31A
330
2
100
AcDbEntity
  8
0
  6
Continuous
 62
     7
100
AcDbLine
 10
380.4959609535343
 20
486.9856079349483
 30
0.0
 11
380.4959609535343
 21
479.9191925290065
 31
0.0
  0
ARC
  5
31B
330
2
100
AcDbEntity
  8
0
  6
Continuous
 62
     7
100
AcDbCircle
 10
380.9961514736401
 20
486.9853858771755
 30
0.0
 40
0.5001905693966612
100
AcDbArc
 50
90.00323288924832
 51
179.9745637475294
  0
LINE
  5
31C
330
2
100
AcDbEntity
  8
0
  6
Continuous
 62
     7
100
AcDbLine
 10
382.4998708010347
 20
487.4853821631465
 30
0.0
 11
380.9961232506065
 21
487.4855764457759
 31
0.0
  0
ARC
  5
31D
330
2
100
AcDbEntity
  8
0
  6
Continuous
100
AcDbCircle
 10
382.5000000000001
 20
488.4853821548004
 30
0.0
 40
1.0
100
AcDbArc
 50
269.9925974445447
 51
0.0
  0
LINE
  5
31E
330
2
100
AcDbEntity
  8
0
  6
Continuous
 62
     7
100
AcDbLine
 10
380.497572738043
 20
388.2982144025664
 30
0.0
 11
381.4977035459429
 21
388.2980206163219
 31
0.0
  0
ARC
  5
31F
330
2
100
AcDbEntity
  8
0
  6
Continuous
 62
     7
100
AcDbCircle
 10
380.9977632581488
 20
388.976050414323
 30
0.0
 40
0.5001905693966612
100
AcDbArc
 50
90.00323288924832
 51
179.9745637475294
  0
LINE
  5
320
330
2
100
AcDbEntity
  8
0
  6
Continuous
 62
     7
100
AcDbLine
 10
382.4998708010346
 20
389.4760469085351
 30
0.0
 11
380.9977350351152
 21
389.4762409829235
 31
0.0
  0
LINE
  5
321
330
2
100
AcDbEntity
  8
0
  6
Continuous
 62
     7
100
AcDbLine
 10
380.497572738043
 20
388.9762724720958
 30
0.0
 11
380.497572738043
 21
381.909857066154
 31
0.0
  0
ARC
  5
322
330
2
100
AcDbEntity
  8
0
  6
Continuous
 62
     7
100
AcDbCircle
 10
379.3976420142223
 20
385.4981000625648
 30
0.0
 40
3.499973363379153
100
AcDbArc
 50
306.8714838199073
 51
53.12851618009267
  0
LINE
  5
323
330
2
100
AcDbEntity
  8
0
  6
Continuous
 62
     7
100
AcDbLine
 10
380.497572738043
 20
382.6981795088078
 30
0.0
 11
381.4977035459429
 21
382.6981795088078
 31
0.0
  0
LINE
  5
324
330
2
100
AcDbEntity
  8
0
  6
Continuous
 62
     7
100
AcDbLine
 10
380.4909840057299
 20
447.0944045492693
 30
0.0
 11
380.4909840057299
 21
439.9688843387528
 31
0.0
  0
ARC
  5
325
330
2
100
AcDbEntity
  8
0
  6
Continuous
 62
     7
100
AcDbCircle
 10
380.99117449154
 20
439.9739509698481
 30
0.0
 40
0.5001904866045285
100
AcDbArc
 50
180.003228961298
 51
269.9967710387003
  0
LINE
  5
326
330
2
100
AcDbEntity
  8
0
  6
Continuous
 62
     7
100
AcDbLine
 10
380.991146302802
 20
439.4737604840379
 30
0.0
 11
382.4998708010347
 21
439.4739554096837
 31
0.0
  0
ARC
  5
327
330
2
100
AcDbEntity
  8
0
  6
Continuous
 62
     7
100
AcDbCircle
 10
379.3908594956646
 20
443.5019951486016
 30
0.0
 40
3.500167153646943
100
AcDbArc
 50
306.8730698183298
 51
53.12693018167017
  0
LINE
  5
328
330
2
100
AcDbEntity
  8
0
  6
Continuous
 62
     7
100
AcDbLine
 10
380.4909840057299
 20
440.7019777017223
 30
0.0
 11
381.4911148136297
 21
440.7019777017223
 31
0.0
  0
LINE
  5
329
330
2
100
AcDbEntity
  8
0
  6
Continuous
 62
     7
100
AcDbLine
 10
380.4909840057299
 20
446.3020125954808
 30
0.0
 11
381.4911148136297
 21
446.3020125954808
 31
0.0
  0
LINE
  5
32A
330
2
100
AcDbEntity
  8
0
  6
Continuous
 62
     7
100
AcDbLine
 10
386.1380902975795
 20
413.9999822234806
 30
0.0
 11
391.1381629783449
 21
413.9999822234806
 31
0.0
  0
LINE
  5
32B
330
2
100
AcDbEntity
  8
0
  6
Continuous
 62
     7
100
AcDbLine
 10
391.1381629783449
 20
395.0000160945635
 30
0.0
 11
386.1380902975795
 21
395.0000160945635
 31
0.0
  0
LINE
  5
32C
330
2
100
AcDbEntity
  8
0
  6
Continuous
 62
     7
100
AcDbLine
 10
386.1380902975795
 20
413.9999822234806
 30
0.0
 11
386.1380902975795
 21
395.0000160945635
 31
0.0
  0
LINE
  5
32D
330
2
100
AcDbEntity
  8
0
  6
Continuous
 62
     7
100
AcDbLine
 10
385.1381532759242
 20
414.4999507343084
 30
0.0
 11
385.1381532759242
 21
394.5000475837359
 31
0.0
  0
LINE
  5
32E
330
2
100
AcDbEntity
  8
0
  6
Continuous
 62
     7
100
AcDbLine
 10
385.1381532759242
 20
394.5000475837359
 30
0.0
 11
383.5
 21
394.5000475837359
 31
0.0
  0
LINE
  5
32F
330
2
100
AcDbEntity
  8
0
  6
Continuous
 62
     7
100
AcDbLine
 10
386.1380902975795
 20
395.0000160945635
 30
0.0
 11
386.1380902975795
 21
395.0000160945635
 31
0.0
  0
LINE
  5
330
330
2
100
AcDbEntity
  8
0
  6
Continuous
 62
     7
100
AcDbLine
 10
386.1380902975795
 20
395.0000160945635
 30
0.0
 11
385.1381532759242
 21
394.5000475837359
 31
0.0
  0
LINE
  5
331
330
2
100
AcDbEntity
  8
0
  6
Continuous
 62
     7
100
AcDbLine
 10
383.5
 20
414.499999159022
 30
0.0
 11
385.1381532759242
 21
414.4999507343084
 31
0.0
  0
LINE
  5
332
330
2
100
AcDbEntity
  8
0
  6
Continuous
 62
     7
100
AcDbLine
 10
385.1381532759242
 20
414.4999507343084
 30
0.0
 11
386.1380902975795
 21
413.9999822234806
 31
0.0
  0
LINE
  5
333
330
2
100
AcDbEntity
  8
0
  6
Continuous
 62
     7
100
AcDbLine
 10
392.1381000000001
 20
413.0000452018253
 30
0.0
 11
392.1381000000001
 21
395.9999531162188
 31
0.0
  0
LINE
  5
334
330
2
100
AcDbEntity
  8
0
  6
Continuous
 62
     7
100
AcDbLine
 10
391.1381629783449
 20
413.9999822234806
 30
0.0
 11
391.1381629783449
 21
395.0000160945635
 31
0.0
  0
LINE
  5
335
330
2
100
AcDbEntity
  8
0
  6
Continuous
 62
     7
100
AcDbLine
 10
388.1381581271346
 20
413.9999822234806
 30
0.0
 11
388.1381581271346
 21
395.0000160945635
 31
0.0
  0
LINE
  5
336
330
2
100
AcDbEntity
  8
0
  6
Continuous
 62
     7
100
AcDbLine
 10
392.1381000000001
 20
395.9999531162188
 30
0.0
 11
391.1381629783449
 21
395.0000160945635
 31
0.0
  0
LINE
  5
337
330
2
100
AcDbEntity
  8
0
  6
Continuous
 62
     7
100
AcDbLine
 10
387.1380273192348
 20
395.0000160945635
 30
0.0
 11
388.1381581271346
 21
395.9999531162188
 31
0.0
  0
LINE
  5
338
330
2
100
AcDbEntity
  8
0
  6
Continuous
 62
     7
100
AcDbLine
 10
388.1381581271346
 20
395.9999531162188
 30
0.0
 11
392.1381000000001
 21
395.9999531162188
 31
0.0
  0
LINE
  5
339
330
2
100
AcDbEntity
  8
0
  6
Continuous
 62
     7
100
AcDbLine
 10
391.1381629783449
 20
413.9999822234806
 30
0.0
 11
392.1381000000001
 21
413.0000452018253
 31
0.0
  0
LINE
  5
33A
330
2
100
AcDbEntity
  8
0
  6
Continuous
 62
     7
100
AcDbLine
 10
387.1380273192348
 20
413.9999822234806
 30
0.0
 11
388.1381581271346
 21
413.0000452018253
 31
0.0
  0
LINE
  5
33B
330
2
100
AcDbEntity
  8
0
  6
Continuous
 62
     7
100
AcDbLine
 10
388.1381581271346
 20
413.0000452018253
 30
0.0
 11
392.1381000000001
 21
413.0000452018253
 31
0.0
  0
LINE
  5
33C
330
2
100
AcDbEntity
  8
0
  6
Continuous
 62
     7
100
AcDbLine
 10
454.9977959591141
 20
578.5001496687901
 30
0.0
 11
488.0000434105352
 21
578.5001496687901
 31
0.0
  0
LINE
  5
33D
330
2
100
AcDbEntity
  8
0
  6
Continuous
 62
     7
100
AcDbLine
 10
488.0000434105352
 20
574.5002077959245
 30
0.0
 11
454.9977959591141
 21
574.5002077959245
 31
0.0
  0
LINE
  5
33E
330
2
100
AcDbEntity
  8
0
  6
Continuous
 62
     7
100
AcDbLine
 10
454.9977959591141
 20
574.5002077959245
 30
0.0
 11
454.9977959591141
 21
578.5001496687901
 31
0.0
  0
LINE
  5
33F
330
2
100
AcDbEntity
  8
0
  6
Continuous
 62
     7
100
AcDbLine
 10
488.0000434105352
 20
578.5001496687901
 30
0.0
 11
488.0000434105352
 21
574.5002077959245
 31
0.0
  0
LINE
  5
340
330
2
100
AcDbEntity
  8
0
  6
Continuous
 62
     7
100
AcDbLine
 10
487.9927381916972
 20
474.499999159022
 30
0.0
 11
443.0071075777188
 21
474.499999159022
 31
0.0
  0
LINE
  5
341
330
2
100
AcDbEntity
  8
0
  6
Continuous
 62
     7
100
AcDbLine
 10
362.9978682249252
 20
474.499999159022
 30
0.0
 11
272.00151582867
 21
474.499999159022
 31
0.0
  0
LINE
  5
342
330
2
100
AcDbEntity
  8
0
  6
Continuous
 62
     7
100
AcDbLine
 10
494.5001221867383
 20
479.4999991590219
 30
0.0
 11
436.5001111557431
 21
479.4999991590219
 31
0.0
  0
ARC
  5
343
330
2
100
AcDbEntity
  8
0
  6
Continuous
 62
     7
100
AcDbCircle
 10
436.5001111557431
 20
483.4999991590219
 30
0.0
 40
4.0
100
AcDbArc
 50
180.0
 51
270.0
  0
LINE
  5
344
330
2
100
AcDbEntity
  8
0
  6
Continuous
100
AcDbLine
 10
243.5
 20
387.5150440227349
 30
0.0
 11
243.5
 21
441.4853401924476
 31
0.0
  0
LINE
  5
345
330
2
100
AcDbEntity
  8
0
  6
Continuous
100
AcDbLine
 10
243.5
 20
485.5366723610618
 30
0.0
 11
243.5
 21
578.3897469824433
 31
0.0
  0
LINE
  5
346
330
2
100
AcDbEntity
  8
0
  6
Continuous
100
AcDbLine
 10
383.5
 20
385.7799267203215
 30
0.0
 11
383.5
 21
443.2200715977225
 31
0.0
  0
ARC
  5
347
330
2
100
AcDbEntity
  8
0
  6
Continuous
100
AcDbCircle
 10
379.5
 20
443.2200715977225
 30
0.0
 40
4.0
100
AcDbArc
 50
0.0
 51
88.99999999999989
  0
ARC
  5
348
330
2
100
AcDbEntity
  8
0
  6
Continuous
100
AcDbCircle
 10
382.5
 20
390.4760469001889
 30
0.0
 40
1.0
100
AcDbArc
 50
269.9925974445447
 51
0.0
  0
ARC
  5
349
330
2
100
AcDbEntity
  8
0
  6
Continuous
100
AcDbCircle
 10
382.5
 20
438.4739554180298
 30
0.0
 40
1.0
100
AcDbArc
 50
0.0
 51
90.00740255545037
  0
LINE
  5
34A
330
2
100
AcDbEntity
  8
0
  6
Continuous
100
AcDbLine
 10
383.5000000000001
 20
483.7884289590398
 30
0.0
 11
383.5
 21
580.2119496523543
 31
0.0
  0
ARC
  5
34B
330
2
100
AcDbEntity
  8
0
  6
Continuous
100
AcDbCircle
 10
379.5
 20
580.2119496523543
 30
0.0
 40
4.0
100
AcDbArc
 50
0.0
 51
89.00992909121617
  0
ARC
  5
34C
330
2
100
AcDbEntity
  8
0
  6
Continuous
100
AcDbCircle
 10
382.5000000000001
 20
575.4630755627432
 30
0.0
 40
1.0
100
AcDbArc
 50
0.0
 51
90.00740255545037
  0
LINE
  5
34D
330
2
100
AcDbEntity
  8
0
  6
Continuous
100
AcDbLine
 10
436.5001111557431
 20
584.4999991590221
 30
0.0
 11
494.5001221867383
 21
584.4999991590221
 31
0.0
  0
ARC
  5
34E
330
2
100
AcDbEntity
  8
0
  6
Continuous
100
AcDbCircle
 10
436.5001111557431
 20
580.4999991590221
 30
0.0
 40
4.0
100
AcDbArc
 50
90.0
 51
180.0
  0
LINE
  5
34F
330
2
100
AcDbEntity
  8
0
  6
Continuous
 62
     7
100
AcDbLine
 10
362.9978682249252
 20
479.4999991590219
 30
0.0
 11
247.4301731475746
 21
481.537281881166
 31
0.0
  0
LINE
  5
350
330
2
100
AcDbEntity
  8
0
  6
Continuous
 62
     7
 48
2.0
100
AcDbLine
 10
363.4962575709602
 20
479.4999991590219
 30
0.0
 11
379.56746359279
 21
479.7889973482369
 31
0.0
  0
LINE
  5
351
330
2
100
AcDbEntity
  8
0
  6
Continuous
 62
     7
100
AcDbLine
 10
385.5000018343293
 20
423.49999921181
 30
0.0
 11
384.5000018343293
 21
424.49999921181
 31
0.0
  0
LINE
  5
352
330
2
100
AcDbEntity
  8
0
  6
Continuous
 62
     7
100
AcDbLine
 10
383.5000018343293
 20
424.49999921181
 30
0.0
 11
384.5000018343293
 21
424.49999921181
 31
0.0
  0
LINE
  5
353
330
2
100
AcDbEntity
  8
0
  6
Continuous
 62
     7
100
AcDbLine
 10
384.5000018343293
 20
424.49999921181
 30
0.0
 11
384.5000018343293
 21
414.499999159022
 31
0.0
  0
LINE
  5
354
330
2
100
AcDbEntity
  8
0
  6
Continuous
 62
     7
100
AcDbLine
 10
385.5000018343293
 20
423.49999921181
 30
0.0
 11
385.5000018343293
 21
414.3190051002033
 31
0.0
  0
LINE
  5
355
330
2
100
AcDbEntity
  8
0
  6
Continuous
 62
     7
100
AcDbLine
 10
234.0
 20
539.5
 30
0.0
 11
238.0
 21
539.5000000000001
 31
0.0
  0
LINE
  5
356
330
2
100
AcDbEntity
  8
0
  6
Continuous
 62
     7
100
AcDbLine
 10
233.5
 20
540.0
 30
0.0
 11
234.0
 21
539.5
 31
0.0
  0
LINE
  5
357
330
2
100
AcDbEntity
  8
0
  6
Continuous
 62
     7
100
AcDbLine
 10
239.0
 20
539.5000000000001
 30
0.0
 11
243.5
 21
539.5
 31
0.0
  0
LINE
  5
358
330
2
100
AcDbEntity
  8
0
  6
Continuous
 62
     7
100
AcDbLine
 10
238.5
 20
540.0
 30
0.0
 11
239.0
 21
539.5
 31
0.0
  0
LINE
  5
359
330
2
100
AcDbEntity
  8
0
  6
Continuous
 62
     7
100
AcDbLine
 10
238.5
 20
540.0
 30
0.0
 11
238.0
 21
539.5
 31
0.0
  0
LINE
  5
35A
330
2
100
AcDbEntity
  8
0
  6
Continuous
 62
     7
100
AcDbLine
 10
234.0
 20
569.5
 30
0.0
 11
238.0
 21
569.5
 31
0.0
  0
LINE
  5
35B
330
2
100
AcDbEntity
  8
0
  6
Continuous
 62
     7
100
AcDbLine
 10
233.5
 20
569.0
 30
0.0
 11
234.0
 21
569.5
 31
0.0
  0
LINE
  5
35C
330
2
100
AcDbEntity
  8
0
  6
Continuous
 62
     7
100
AcDbLine
 10
239.0
 20
569.5
 30
0.0
 11
243.5
 21
569.5
 31
0.0
  0
LINE
  5
35D
330
2
100
AcDbEntity
  8
0
  6
Continuous
 62
     7
100
AcDbLine
 10
238.5
 20
569.0
 30
0.0
 11
239.0
 21
569.5
 31
0.0
  0
LINE
  5
35E
330
2
100
AcDbEntity
  8
0
  6
Continuous
 62
     7
100
AcDbLine
 10
238.5
 20
569.0
 30
0.0
 11
238.0
 21
569.5
 31
0.0
  0
LINE
  5
35F
330
2
100
AcDbEntity
  8
0
  6
Continuous
 62
     7
100
AcDbLine
 10
233.5
 20
569.0
 30
0.0
 11
233.5
 21
540.0
 31
0.0
  0
LINE
  5
360
330
2
100
AcDbEntity
  8
0
  6
Continuous
 62
     7
100
AcDbLine
 10
234.0
 20
539.5
 30
0.0
 11
234.0000000000005
 21
569.5
 31
0.0
  0
LINE
  5
361
330
2
100
AcDbEntity
  8
0
  6
Continuous
 62
     7
100
AcDbLine
 10
238.0
 20
569.5
 30
0.0
 11
238.0
 21
539.5
 31
0.0
  0
LINE
  5
362
330
2
100
AcDbEntity
  8
0
  6
Continuous
 62
     7
100
AcDbLine
 10
239.0
 20
569.5
 30
0.0
 11
239.0
 21
539.5
 31
0.0
  0
LINE
  5
363
330
2
100
AcDbEntity
  8
0
  6
Continuous
 62
     7
100
AcDbLine
 10
238.5
 20
569.0
 30
0.0
 11
238.5
 21
540.0
 31
0.0
  0
LINE
  5
364
330
2
100
AcDbEntity
  8
0
  6
Continuous
 62
     7
100
AcDbLine
 10
238.5
 20
428.9998070514307
 30
0.0
 11
238.5
 21
399.9998070514308
 31
0.0
  0
LINE
  5
365
330
2
100
AcDbEntity
  8
0
  6
Continuous
 62
     7
100
AcDbLine
 10
239.0
 20
429.4998070514307
 30
0.0
 11
239.0
 21
399.4998070514308
 31
0.0
  0
LINE
  5
366
330
2
100
AcDbEntity
  8
0
  6
Continuous
 62
     7
100
AcDbLine
 10
238.0
 20
429.4998070514307
 30
0.0
 11
238.0
 21
399.4998070514308
 31
0.0
  0
LINE
  5
367
330
2
100
AcDbEntity
  8
0
  6
Continuous
 62
     7
100
AcDbLine
 10
234.0
 20
399.4998070514308
 30
0.0
 11
234.0000000000005
 21
429.4998070514307
 31
0.0
  0
LINE
  5
368
330
2
100
AcDbEntity
  8
0
  6
Continuous
 62
     7
100
AcDbLine
 10
233.5
 20
428.9998070514307
 30
0.0
 11
233.5
 21
399.9998070514308
 31
0.0
  0
LINE
  5
369
330
2
100
AcDbEntity
  8
0
  6
Continuous
 62
     7
100
AcDbLine
 10
239.0
 20
399.4998070514308
 30
0.0
 11
243.5
 21
399.4998070514308
 31
0.0
  0
LINE
  5
36A
330
2
100
AcDbEntity
  8
0
  6
Continuous
 62
     7
100
AcDbLine
 10
238.5
 20
399.9998070514308
 30
0.0
 11
238.0
 21
399.4998070514308
 31
0.0
  0
LINE
  5
36B
330
2
100
AcDbEntity
  8
0
  6
Continuous
 62
     7
100
AcDbLine
 10
238.5
 20
399.9998070514308
 30
0.0
 11
239.0
 21
399.4998070514308
 31
0.0
  0
LINE
  5
36C
330
2
100
AcDbEntity
  8
0
  6
Continuous
 62
     7
100
AcDbLine
 10
233.5
 20
399.9998070514308
 30
0.0
 11
234.0
 21
399.4998070514308
 31
0.0
  0
LINE
  5
36D
330
2
100
AcDbEntity
  8
0
  6
Continuous
 62
     7
100
AcDbLine
 10
234.0
 20
399.4998070514308
 30
0.0
 11
238.0
 21
399.4998070514308
 31
0.0
  0
LINE
  5
36E
330
2
100
AcDbEntity
  8
0
  6
Continuous
 62
     7
100
AcDbLine
 10
239.0
 20
429.4998070514307
 30
0.0
 11
243.5
 21
429.4998070514307
 31
0.0
  0
LINE
  5
36F
330
2
100
AcDbEntity
  8
0
  6
Continuous
 62
     7
100
AcDbLine
 10
238.5
 20
428.9998070514307
 30
0.0
 11
238.0
 21
429.4998070514307
 31
0.0
  0
LINE
  5
370
330
2
100
AcDbEntity
  8
0
  6
Continuous
 62
     7
100
AcDbLine
 10
238.5
 20
428.9998070514307
 30
0.0
 11
239.0
 21
429.4998070514307
 31
0.0
  0
LINE
  5
371
330
2
100
AcDbEntity
  8
0
  6
Continuous
 62
     7
100
AcDbLine
 10
233.5
 20
428.9998070514307
 30
0.0
 11
234.0
 21
429.4998070514307
 31
0.0
  0
LINE
  5
372
330
2
100
AcDbEntity
  8
0
  6
Continuous
 62
     7
100
AcDbLine
 10
234.0
 20
429.4998070514307
 30
0.0
 11
238.0
 21
429.4998070514307
 31
0.0
  0
CIRCLE
  5
373
330
2
100
AcDbEntity
  8
0
100
AcDbCircle
 10
465.5
 20
554.4999999999999
 30
0.0
 40
9.5
  0
CIRCLE
  5
374
330
2
100
AcDbEntity
  8
0
100
AcDbCircle
 10
465.5
 20
554.4999999999999
 30
0.0
 40
9.0
  0
CIRCLE
  5
375
330
2
100
AcDbEntity
  8
0
  6
Continuous
 62
     7
100
AcDbCircle
 10
465.5
 20
554.4999999999999
 30
0.0
 40
2.337499999999999
  0
ARC
  5
376
330
2
100
AcDbEntity
  8
0
  6
Continuous
 62
     7
100
AcDbCircle
 10
467.4125
 20
552.5875
 30
0.0
 40
1.502601910021413
100
AcDbArc
 50
98.13010235415616
 51
171.8698976458451
  0
ARC
  5
377
330
2
100
AcDbEntity
  8
0
  6
Continuous
 62
     7
100
AcDbCircle
 10
467.4125
 20
556.4125000000001
 30
0.0
 40
1.502601910021413
100
AcDbArc
 50
188.1301023541548
 51
261.8698976458439
  0
ARC
  5
378
330
2
100
AcDbEntity
  8
0
  6
Continuous
 62
     7
100
AcDbCircle
 10
463.5874999999999
 20
552.5875000000001
 30
0.0
 40
1.502601910021413
100
AcDbArc
 50
8.130102354154843
 51
81.86989764584383
  0
ARC
  5
379
330
2
100
AcDbEntity
  8
0
  6
Continuous
 62
     7
100
AcDbCircle
 10
463.5875
 20
556.4125000000002
 30
0.0
 40
1.502601910021413
100
AcDbArc
 50
278.1301023541561
 51
351.8698976458451
  0
ARC
  5
37A
330
2
100
AcDbEntity
  8
0
100
AcDbCircle
 10
438.2006844299292
 20
517.9125019878394
 30
0.0
 40
1.502601910021413
100
AcDbArc
 50
278.1301023541564
 51
351.8698976458436
  0
ARC
  5
37B
330
2
100
AcDbEntity
  8
0
100
AcDbCircle
 10
438.2006844299291
 20
514.0875019878394
 30
0.0
 40
1.502601910021413
100
AcDbArc
 50
8.130102354156324
 51
81.86989764584362
  0
CIRCLE
  5
37C
330
2
100
AcDbEntity
  8
0
100
AcDbCircle
 10
440.1131844299293
 20
516.0000019878394
 30
0.0
 40
2.337499999999999
  0
ARC
  5
37D
330
2
100
AcDbEntity
  8
0
 48
2.0
100
AcDbCircle
 10
438.700149958924
 20
514.7002474619331
 30
0.0
 40
2.000103288135762
100
AcDbArc
 50
180.003706244948
 51
269.999069511637
  0
ARC
  5
37E
330
2
100
AcDbEntity
  8
0
100
AcDbCircle
 10
442.0256844299292
 20
517.9125019878394
 30
0.0
 40
1.502601910021413
100
AcDbArc
 50
188.1301023541562
 51
261.8698976458436
  0
ARC
  5
37F
330
2
100
AcDbEntity
  8
0
100
AcDbCircle
 10
442.0256844299292
 20
514.0875019878392
 30
0.0
 40
1.502601910021413
100
AcDbArc
 50
98.13010235415639
 51
171.8698976458437
  0
ARC
  5
380
330
2
100
AcDbEntity
  8
0
100
AcDbCircle
 10
489.0006842136241
 20
517.9137020928792
 30
0.0
 40
1.502601910021413
100
AcDbArc
 50
278.1301023541564
 51
351.8698976458436
  0
ARC
  5
381
330
2
100
AcDbEntity
  8
0
100
AcDbCircle
 10
489.0006842136239
 20
514.0887020928792
 30
0.0
 40
1.502601910021413
100
AcDbArc
 50
8.130102354156324
 51
81.86989764584362
  0
CIRCLE
  5
382
330
2
100
AcDbEntity
  8
0
100
AcDbCircle
 10
490.9131842136241
 20
516.0012020928791
 30
0.0
 40
2.337499999999999
  0
ARC
  5
383
330
2
100
AcDbEntity
  8
0
100
AcDbCircle
 10
492.8256842136241
 20
517.9137020928791
 30
0.0
 40
1.502601910021413
100
AcDbArc
 50
188.1301023541562
 51
261.8698976458436
  0
ARC
  5
384
330
2
100
AcDbEntity
  8
0
100
AcDbCircle
 10
492.8256842136241
 20
514.0887020928789
 30
0.0
 40
1.502601910021413
100
AcDbArc
 50
98.13010235415639
 51
171.8698976458437
  0
ARC
  5
385
330
2
100
AcDbEntity
  8
0
 48
2.0
100
AcDbCircle
 10
492.3000833835575
 20
514.7002474619331
 30
0.0
 40
2.000103288135685
100
AcDbArc
 50
270.000930488363
 51
359.996293755052
  0
ENDSEC
  0
SECTION
  2
OBJECTS
  0
DICTIONARY
  5
8
330
0
100
AcDbDictionary
281
     1
  3
ACAD_COLOR
350
2D
  3
ACAD_GROUP
350
28
  3
ACAD_LAYOUT
350
E
  3
ACAD_MATERIAL
350
A
  3
ACAD_MLINESTYLE
350
29
  3
ACAD_PLOTSETTINGS
350
2A
  3
ACAD_PLOTSTYLENAME
350
7
  3
ACAD_TABLESTYLE
350
2E
  3
ACAD_VISUALSTYLE
350
22
  3
AcDbVariableDictionary
350
386
  0
DICTIONARY
  5
14
330
13
100
AcDbDictionary
280
     1
281
     1
  3
ACAD_LAYERFILTERS
360
15
  3
ACAD_LAYERSTATES
360
16
  0
DICTIONARY
  5
3
330
2
100
AcDbDictionary
280
     1
281
     1
  0
DICTIONARY
  5
2D
102
{ACAD_REACTORS
330
8
102
}
330
8
100
AcDbDictionary
281
     1
  0
DICTIONARY
  5
28
102
{ACAD_REACTORS
330
8
102
}
330
8
100
AcDbDictionary
281
     1
  0
DICTIONARY
  5
E
102
{ACAD_REACTORS
330
8
102
}
330
8
100
AcDbDictionary
281
     1
  3
Model
350
D
  3
ﾚｲｱｳﾄ1
350
12
  0
DICTIONARY
  5
A
102
{ACAD_REACTORS
330
8
102
}
330
8
100
AcDbDictionary
281
     1
  3
ByBlock
350
2C
  3
ByLayer
350
2B
  3
Global
350
9
  0
DICTIONARY
  5
29
102
{ACAD_REACTORS
330
8
102
}
330
8
100
AcDbDictionary
281
     1
  3
STANDARD
350
35
  0
DICTIONARY
  5
2A
102
{ACAD_REACTORS
330
8
102
}
330
8
100
AcDbDictionary
281
     1
  0
ACDBDICTIONARYWDFLT
  5
7
102
{ACAD_REACTORS
330
8
102
}
330
8
100
AcDbDictionary
281
     1
  3
Normal
350
6
100
AcDbDictionaryWithDefault
340
6
  0
DICTIONARY
  5
2E
102
{ACAD_REACTORS
330
8
102
}
330
8
100
AcDbDictionary
281
     1
  3
Standard
350
36
  0
DICTIONARY
  5
22
102
{ACAD_REACTORS
330
8
102
}
330
8
100
AcDbDictionary
281
     1
  3
2dWireframe
350
21
  3
3dWireframe
350
38
  3
Realistic
350
37
  0
DICTIONARY
  5
386
102
{ACAD_REACTORS
330
8
102
}
330
8
100
AcDbDictionary
281
     1
  3
CTABLESTYLE
350
387
  3
DIMASSOC
350
38B
  3
HIDETEXT
350
38A
  3
INDEXCTL
350
389
  3
SORTENTS
350
388
  0
DICTIONARY
  5
15
102
{ACAD_REACTORS
330
14
102
}
330
14
100
AcDbDictionary
280
     1
281
     1
  0
DICTIONARY
  5
16
102
{ACAD_REACTORS
330
14
102
}
330
14
100
AcDbDictionary
281
     1
  0
LAYOUT
  5
D
102
{ACAD_XDICTIONARY
360
38E
102
}
102
{ACAD_REACTORS
330
E
102
}
330
E
100
AcDbPlotSettings
  1

  2
\\KSRDSV003D\EPSON LP-8300C
  4
A3
  6

 40
5.873749732971191
 41
5.873747825622558
 42
5.873748779296875
 43
5.873748779296875
 44
297.0106506347656
 45
419.9466552734374
 46
0.0
 47
0.0
 48
805.0
 49
516.0
140
1228.0
141
803.0
142
1.0
143
1.5
 70
 11936
 72
     1
 73
     1
 74
     2
  7
Auto CADﾌﾟﾘﾝﾀ設定.ctb
 75
     0
147
0.6666666666666666
148
0.0
149
0.0
100
AcDbLayout
  1
Model
 70
     1
 71
     0
 10
0.0
 20
0.0
 11
12.0
 21
9.0
 12
0.0
 22
0.0
 32
0.0
 14
0.0
 24
0.0
 34
0.0
 15
0.0
 25
0.0
 35
0.0
146
0.0
 13
0.0
 23
0.0
 33
0.0
 16
1.0
 26
0.0
 36
0.0
 17
0.0
 27
1.0
 37
0.0
 76
     0
330
2
  0
LAYOUT
  5
12
102
{ACAD_XDICTIONARY
360
390
102
}
102
{ACAD_REACTORS
330
E
102
}
330
E
100
AcDbPlotSettings
  1

  2
C:\Program Files\MDT5\plotters\DWF Classic.pc3
  4

  6

 40
0.0
 41
0.0
 42
0.0
 43
0.0
 44
0.0
 45
0.0
 46
0.0
 47
0.0
 48
0.0
 49
0.0
140
0.0
141
0.0
142
1.0
143
1.0
 70
   688
 72
     0
 73
     0
 74
     5
  7
Auto CADﾌﾟﾘﾝﾀ設定.ctb
 75
    16
147
1.0
148
0.0
149
0.0
100
AcDbLayout
  1
ﾚｲｱｳﾄ1
 70
     1
 71
     1
 10
0.0
 20
0.0
 11
420.0
 21
297.0
 12
0.0
 22
0.0
 32
0.0
 14
1.000000000000000E+20
 24
1.000000000000000E+20
 34
1.000000000000000E+20
 15
-1.000000000000000E+20
 25
-1.000000000000000E+20
 35
-1.000000000000000E+20
146
0.0
 13
0.0
 23
0.0
 33
0.0
 16
1.0
 26
0.0
 36
0.0
 17
0.0
 27
1.0
 37
0.0
 76
     0
330
F
  0
MATERIAL
  5
2C
102
{ACAD_XDICTIONARY
360
394
102
}
102
{ACAD_REACTORS
330
A
102
}
330
A
100
AcDbMaterial
  1
ByBlock
  0
MATERIAL
  5
2B
102
{ACAD_XDICTIONARY
360
392
102
}
102
{ACAD_REACTORS
330
A
102
}
330
A
100
AcDbMaterial
  1
ByLayer
  0
MATERIAL
  5
9
102
{ACAD_XDICTIONARY
360
38C
102
}
102
{ACAD_REACTORS
330
A
102
}
330
A
100
AcDbMaterial
  1
Global
  0
MLINESTYLE
  5
35
102
{ACAD_REACTORS
330
29
102
}
330
29
100
AcDbMlineStyle
  2
STANDARD
 70
     0
  3

 62
   256
 51
90.0
 52
90.0
 71
     2
 49
0.5
 62
   256
  6
BYLAYER
 49
-0.5
 62
   256
  6
BYLAYER
  0
ACDBPLACEHOLDER
  5
6
102
{ACAD_REACTORS
330
7
102
}
330
7
  0
TABLESTYLE
  5
36
102
{ACAD_XDICTIONARY
360
396
102
}
102
{ACAD_REACTORS
330
2E
102
}
330
2E
100
AcDbTableStyle
  3
Standard
 70
     0
 71
     0
 40
0.06
 41
0.06
280
     0
281
     0
  7
STANDARD
140
0.18
170
     2
 62
     0
 63
     7
283
     0
274
    -2
284
     1
 64
     0
275
    -2
285
     1
 65
     0
276
    -2
286
     1
 66
     0
277
    -2
287
     1
 67
     0
278
    -2
288
     1
 68
     0
279
    -2
289
     1
 69
     0
  7
STANDARD
140
0.25
170
     5
 62
     0
 63
     7
283
     0
274
    -2
284
     1
 64
     0
275
    -2
285
     1
 65
     0
276
    -2
286
     1
 66
     0
277
    -2
287
     1
 67
     0
278
    -2
288
     1
 68
     0
279
    -2
289
     1
 69
     0
  7
STANDARD
140
0.18
170
     5
 62
     0
 63
     7
283
     0
274
    -2
284
     1
 64
     0
275
    -2
285
     1
 65
     0
276
    -2
286
     1
 66
     0
277
    -2
287
     1
 67
     0
278
    -2
288
     1
 68
     0
279
    -2
289
     1
 69
     0
  0
VISUALSTYLE
  5
21
102
{ACAD_REACTORS
330
22
102
}
330
22
100
AcDbVisualStyle
  2
2dWireframe
 70
     4
 71
     0
 72
     2
 73
     0
 90
        0
 40
-0.6
 41
-30.0
 62
     5
 63
     7
 74
     1
 91
        4
 64
     7
 65
   257
 75
     1
175
     1
 42
1.0
 92
        0
 66
   257
 43
1.0
 76
     1
 77
     6
 78
     2
 67
     7
 79
     5
170
     0
171
     0
290
     0
174
     0
 93
        1
 44
0.0
173
     0
291
     0
 45
0.0
1001
ACAD
1000
AcDbSavedByObjectVersion
1070
     0
  0
VISUALSTYLE
  5
38
102
{ACAD_REACTORS
330
22
102
}
330
22
100
AcDbVisualStyle
  2
3dWireframe
 70
     5
 71
     0
 72
     2
 73
     0
 90
        0
 40
-0.6
 41
-30.0
 62
     5
 63
     7
 74
     1
 91
        4
 64
     7
 65
   257
 75
     1
175
     1
 42
1.0
 92
        0
 66
   257
 43
1.0
 76
     1
 77
     6
 78
     2
 67
     7
 79
     5
170
     0
171
     0
290
     0
174
     0
 93
        1
 44
0.0
173
     0
291
     0
 45
0.0
1001
ACAD
1000
AcDbSavedByObjectVersion
1070
     0
  0
VISUALSTYLE
  5
37
102
{ACAD_REACTORS
330
22
102
}
330
22
100
AcDbVisualStyle
  2
Realistic
 70
     8
 71
     2
 72
     2
 73
     0
 90
        0
 40
-0.6
 41
-30.0
 62
     5
 63
     7
 74
     1
 91
        0
 64
     7
 65
   257
 75
     1
175
     1
 42
1.0
 92
        8
 66
     8
 43
1.0
 76
     1
 77
     6
 78
     2
 67
     7
 79
     5
170
     0
171
     0
290
     0
174
     0
 93
       13
 44
0.0
173
     0
291
     0
 45
0.0
1001
ACAD
1000
AcDbSavedByObjectVersion
1070
     0
  0
DICTIONARYVAR
  5
387
102
{ACAD_REACTORS
330
386
102
}
330
386
100
DictionaryVariables
280
     0
  1
STANDARD
  0
DICTIONARYVAR
  5
38B
102
{ACAD_REACTORS
330
386
102
}
330
386
100
DictionaryVariables
280
     0
  1
1
  0
DICTIONARYVAR
  5
38A
102
{ACAD_REACTORS
330
386
102
}
330
386
100
DictionaryVariables
280
     0
  1
1
  0
DICTIONARYVAR
  5
389
102
{ACAD_REACTORS
330
386
102
}
330
386
100
DictionaryVariables
280
     0
  1
0
  0
DICTIONARYVAR
  5
388
102
{ACAD_REACTORS
330
386
102
}
330
386
100
DictionaryVariables
280
     0
  1
127
  0
DICTIONARY
  5
38E
330
D
100
AcDbDictionary
280
     1
281
     1
  3
ACAD_XREC_ROUNDTRIP
360
38F
  0
DICTIONARY
  5
390
330
12
100
AcDbDictionary
280
     1
281
     1
  3
ACAD_XREC_ROUNDTRIP
360
391
  0
DICTIONARY
  5
394
330
2C
100
AcDbDictionary
280
     1
281
     1
  3
ACAD_XREC_ROUNDTRIP
360
395
  0
DICTIONARY
  5
392
330
2B
100
AcDbDictionary
280
     1
281
     1
  3
ACAD_XREC_ROUNDTRIP
360
393
  0
DICTIONARY
  5
38C
330
9
100
AcDbDictionary
280
     1
281
     1
  3
ACAD_XREC_ROUNDTRIP
360
38D
  0
DICTIONARY
  5
396
330
36
100
AcDbDictionary
280
     1
281
     1
  3
ACAD_XREC_ROUNDTRIP
360
397
  0
XRECORD
  5
38F
102
{ACAD_REACTORS
330
38E
102
}
330
38E
100
AcDbXrecord
280
     1
102
SHADEPLOT
 70
     0
102
SHADEPLOTRESLEVEL
 70
     2
102
SHADEPLOTCUSTOMDPI
 70
   300
  0
XRECORD
  5
391
102
{ACAD_REACTORS
330
390
102
}
330
390
100
AcDbXrecord
280
     1
102
SHADEPLOT
 70
     0
102
SHADEPLOTRESLEVEL
 70
     2
102
SHADEPLOTCUSTOMDPI
 70
   300
  0
XRECORD
  5
395
102
{ACAD_REACTORS
330
394
102
}
330
394
100
AcDbXrecord
280
     1
102
MATERIAL
148
0.0
149
0.0
149
0.0
 93
        0
 94
       63
282
     0
 72
     1
 77
     1
171
     1
175
     1
179
     1
273
     0
  0
XRECORD
  5
393
102
{ACAD_REACTORS
330
392
102
}
330
392
100
AcDbXrecord
280
     1
102
MATERIAL
148
0.0
149
0.0
149
0.0
 93
        0
 94
       63
282
     0
 72
     1
 77
     1
171
     1
175
     1
179
     1
273
     0
  0
XRECORD
  5
38D
102
{ACAD_REACTORS
330
38C
102
}
330
38C
100
AcDbXrecord
280
     1
102
MATERIAL
148
0.0
149
0.0
149
0.0
 93
        0
 94
       63
282
     0
 72
     1
 77
     1
171
     1
175
     1
179
     1
273
     0
  0
XRECORD
  5
397
102
{ACAD_REACTORS
330
396
102
}
330
396
100
AcDbXrecord
280
     1
102
ACAD_ROUNDTRIP_PRE2007_TABLESTYLE
 90
      512
 91
        0
  1

 92
      512
 93
        0
  2

 94
      512
 95
        0
  3

  0
ENDSEC
  0
EOF
