  0
SECTION
  2
HEADER
  9
$ACADVER
  1
AC1015
  9
$ACADMAINTVER
 70
    18
  9
$DWGCODEPAGE
  3
ANSI_932
  9
$INSBASE
 10
0.0
 20
0.0
 30
0.0
  9
$EXTMIN
 10
44.85286741382991
 20
41.60778168170106
 30
0.0
  9
$EXTMAX
 10
348.3551936414542
 20
247.893083174162
 30
0.0
  9
$LIMMIN
 10
0.0
 20
0.0
  9
$LIMMAX
 10
420.0
 20
297.0
  9
$ORTHOMODE
 70
     1
  9
$REGENMODE
 70
     1
  9
$FILLMODE
 70
     1
  9
$QTEXTMODE
 70
     0
  9
$MIRRTEXT
 70
     0
  9
$LTSCALE
 40
5.0
  9
$ATTMODE
 70
     1
  9
$TEXTSIZE
 40
3.0
  9
$TRACEWID
 40
0.05
  9
$TEXTSTYLE
  7
STANDARD
  9
$CLAYER
  8
0
  9
$CELTYPE
  6
CONTINUOUS
  9
$CECOLOR
 62
   256
  9
$CELTSCALE
 40
1.0
  9
$DISPSILH
 70
     0
  9
$DIMSCALE
 40
1.0
  9
$DIMASZ
 40
2.0
  9
$DIMEXO
 40
1.0
  9
$DIMDLI
 40
6.0
  9
$DIMRND
 40
0.0
  9
$DIMDLE
 40
0.0
  9
$DIMEXE
 40
2.0
  9
$DIMTP
 40
495.0
  9
$DIMTM
 40
0.0
  9
$DIMTXT
 40
3.0
  9
$DIMCEN
 40
0.0
  9
$DIMTSZ
 40
0.0
  9
$DIMTOL
 70
     0
  9
$DIMLIM
 70
     0
  9
$DIMTIH
 70
     0
  9
$DIMTOH
 70
     0
  9
$DIMSE1
 70
     0
  9
$DIMSE2
 70
     0
  9
$DIMTAD
 70
     3
  9
$DIMZIN
 70
     8
  9
$DIMBLK
  1
ARROW
  9
$DIMASO
 70
     1
  9
$DIMSHO
 70
     0
  9
$DIMPOST
  1

  9
$DIMAPOST
  1

  9
$DIMALT
 70
     0
  9
$DIMALTD
 70
     2
  9
$DIMALTF
 40
25.4
  9
$DIMLFAC
 40
1.0
  9
$DIMTOFL
 70
     1
  9
$DIMTVP
 40
0.0
  9
$DIMTIX
 70
     1
  9
$DIMSOXD
 70
     0
  9
$DIMSAH
 70
     1
  9
$DIMBLK1
  1
OPEN
  9
$DIMBLK2
  1
OPEN
  9
$DIMSTYLE
  2
IMAO
  9
$DIMCLRD
 70
     0
  9
$DIMCLRE
 70
     0
  9
$DIMCLRT
 70
     0
  9
$DIMTFAC
 40
1.0
  9
$DIMGAP
 40
1.0
  9
$DIMJUST
 70
     0
  9
$DIMSD1
 70
     0
  9
$DIMSD2
 70
     0
  9
$DIMTOLJ
 70
     1
  9
$DIMTZIN
 70
     0
  9
$DIMALTZ
 70
     0
  9
$DIMALTTZ
 70
     0
  9
$DIMUPT
 70
     1
  9
$DIMDEC
 70
     4
  9
$DIMTDEC
 70
     4
  9
$DIMALTU
 70
     2
  9
$DIMALTTD
 70
     2
  9
$DIMTXSTY
  7
STANDARD
  9
$DIMAUNIT
 70
     0
  9
$DIMADEC
 70
     0
  9
$DIMALTRND
 40
0.0
  9
$DIMAZIN
 70
     0
  9
$DIMDSEP
 70
    46
  9
$DIMATFIT
 70
     3
  9
$DIMFRAC
 70
     0
  9
$DIMLDRBLK
  1
OPEN
  9
$DIMLUNIT
 70
     2
  9
$DIMLWD
 70
    -2
  9
$DIMLWE
 70
    -2
  9
$DIMTMOVE
 70
     0
  9
$LUNITS
 70
     2
  9
$LUPREC
 70
     2
  9
$SKETCHINC
 40
0.1
  9
$FILLETRAD
 40
4.0
  9
$AUNITS
 70
     0
  9
$AUPREC
 70
     2
  9
$MENU
  1
STDR12J
  9
$ELEVATION
 40
0.0
  9
$PELEVATION
 40
0.0
  9
$THICKNESS
 40
0.0
  9
$LIMCHECK
 70
     0
  9
$CHAMFERA
 40
0.0
  9
$CHAMFERB
 40
0.0
  9
$CHAMFERC
 40
0.0
  9
$CHAMFERD
 40
0.0
  9
$SKPOLY
 70
     0
  9
$TDCREATE
 40
2450690.700083218
  9
$TDUCREATE
 40
2450690.325083218
  9
$TDUPDATE
 40
2456470.573191759
  9
$TDUUPDATE
 40
2456470.198191759
  9
$TDINDWG
 40
0.3240295139
  9
$TDUSRTIMER
 40
0.3240293287
  9
$USRTIMER
 70
     1
  9
$ANGBASE
 50
0.0
  9
$ANGDIR
 70
     0
  9
$PDMODE
 70
     3
  9
$PDSIZE
 40
0.0
  9
$PLINEWID
 40
0.0
  9
$SPLFRAME
 70
     0
  9
$SPLINETYPE
 70
     6
  9
$SPLINESEGS
 70
     8
  9
$HANDSEED
  5
4DE
  9
$SURFTAB1
 70
     6
  9
$SURFTAB2
 70
     6
  9
$SURFTYPE
 70
     6
  9
$SURFU
 70
     6
  9
$SURFV
 70
     6
  9
$UCSBASE
  2

  9
$UCSNAME
  2

  9
$UCSORG
 10
0.0
 20
0.0
 30
0.0
  9
$UCSXDIR
 10
1.0
 20
0.0
 30
0.0
  9
$UCSYDIR
 10
0.0
 20
1.0
 30
0.0
  9
$UCSORTHOREF
  2

  9
$UCSORTHOVIEW
 70
     0
  9
$UCSORGTOP
 10
0.0
 20
0.0
 30
0.0
  9
$UCSORGBOTTOM
 10
0.0
 20
0.0
 30
0.0
  9
$UCSORGLEFT
 10
0.0
 20
0.0
 30
0.0
  9
$UCSORGRIGHT
 10
0.0
 20
0.0
 30
0.0
  9
$UCSORGFRONT
 10
0.0
 20
0.0
 30
0.0
  9
$UCSORGBACK
 10
0.0
 20
0.0
 30
0.0
  9
$PUCSBASE
  2

  9
$PUCSNAME
  2

  9
$PUCSORG
 10
0.0
 20
0.0
 30
0.0
  9
$PUCSXDIR
 10
1.0
 20
0.0
 30
0.0
  9
$PUCSYDIR
 10
0.0
 20
1.0
 30
0.0
  9
$PUCSORTHOREF
  2

  9
$PUCSORTHOVIEW
 70
     0
  9
$PUCSORGTOP
 10
0.0
 20
0.0
 30
0.0
  9
$PUCSORGBOTTOM
 10
0.0
 20
0.0
 30
0.0
  9
$PUCSORGLEFT
 10
0.0
 20
0.0
 30
0.0
  9
$PUCSORGRIGHT
 10
0.0
 20
0.0
 30
0.0
  9
$PUCSORGFRONT
 10
0.0
 20
0.0
 30
0.0
  9
$PUCSORGBACK
 10
0.0
 20
0.0
 30
0.0
  9
$USERI1
 70
     3
  9
$USERI2
 70
     1
  9
$USERI3
 70
     1
  9
$USERI4
 70
     1
  9
$USERI5
 70
     1
  9
$USERR1
 40
1.0
  9
$USERR2
 40
3.0
  9
$USERR3
 40
3.0
  9
$USERR4
 40
1.5
  9
$USERR5
 40
10.0
  9
$WORLDVIEW
 70
     1
  9
$SHADEDGE
 70
     3
  9
$SHADEDIF
 70
    70
  9
$TILEMODE
 70
     1
  9
$MAXACTVP
 70
    16
  9
$PINSBASE
 10
0.0
 20
0.0
 30
0.0
  9
$PLIMCHECK
 70
     0
  9
$PEXTMIN
 10
1.000000000000000E+20
 20
1.000000000000000E+20
 30
1.000000000000000E+20
  9
$PEXTMAX
 10
-1.000000000000000E+20
 20
-1.000000000000000E+20
 30
-1.000000000000000E+20
  9
$PLIMMIN
 10
0.0
 20
0.0
  9
$PLIMMAX
 10
12.0
 20
9.0
  9
$UNITMODE
 70
     0
  9
$VISRETAIN
 70
     0
  9
$PLINEGEN
 70
     0
  9
$PSLTSCALE
 70
     0
  9
$TREEDEPTH
 70
     0
  9
$CMLSTYLE
  2
STANDARD
  9
$CMLJUST
 70
     0
  9
$CMLSCALE
 40
1.0
  9
$PROXYGRAPHICS
 70
     1
  9
$MEASUREMENT
 70
     0
  9
$CELWEIGHT
370
    -1
  9
$ENDCAPS
280
     0
  9
$JOINSTYLE
280
     0
  9
$LWDISPLAY
290
     0
  9
$INSUNITS
 70
     0
  9
$HYPERLINKBASE
  1

  9
$STYLESHEET
  1

  9
$XEDIT
290
     1
  9
$CEPSNTYPE
380
     0
  9
$PSTYLEMODE
290
     1
  9
$FINGERPRINTGUID
  2
{F81F090F-81CF-4457-93B2-3C4126BF5813}
  9
$VERSIONGUID
  2
{F58657A8-1582-4C0A-A741-6AFE07E7C510}
  9
$EXTNAMES
290
     1
  9
$PSVPSCALE
 40
0.0
  9
$OLESTARTUP
290
     0
  0
ENDSEC
  0
SECTION
  2
CLASSES
  0
CLASS
  1
ACDBDICTIONARYWDFLT
  2
AcDbDictionaryWithDefault
  3
ObjectDBX Classes
 90
        0
280
     0
281
     0
  0
CLASS
  1
ACDBPLACEHOLDER
  2
AcDbPlaceHolder
  3
ObjectDBX Classes
 90
        0
280
     0
281
     0
  0
CLASS
  1
LAYOUT
  2
AcDbLayout
  3
ObjectDBX Classes
 90
        0
280
     0
281
     0
  0
CLASS
  1
DIMASSOC
  2
AcDbDimAssoc
  3
"AcDbDimAssoc|Product Desc:     AcDim ARX App For Dimension|Company:          Autodesk, Inc.|WEB Address:      www.autodesk.com"
 90
    32768
280
     0
281
     0
  0
CLASS
  1
DICTIONARYVAR
  2
AcDbDictionaryVar
  3
ObjectDBX Classes
 90
        0
280
     0
281
     0
  0
CLASS
  1
MATERIAL
  2
AcDbMaterial
  3
ObjectDBX Classes
 90
     1153
280
     0
281
     0
  0
CLASS
  1
VISUALSTYLE
  2
AcDbVisualStyle
  3
ObjectDBX Classes
 90
     4095
280
     0
281
     0
  0
CLASS
  1
TABLESTYLE
  2
AcDbTableStyle
  3
ObjectDBX Classes
 90
     4095
280
     0
281
     0
  0
CLASS
  1
SCALE
  2
AcDbScale
  3
ObjectDBX Classes
 90
     1153
280
     0
281
     0
  0
CLASS
  1
MLEADERSTYLE
  2
AcDbMLeaderStyle
  3
ACDB_MLEADERSTYLE_CLASS
 90
    36863
280
     0
281
     0
  0
CLASS
  1
SORTENTSTABLE
  2
AcDbSortentsTable
  3
ObjectDBX Classes
 90
        0
280
     0
281
     0
  0
CLASS
  1
CELLSTYLEMAP
  2
AcDbCellStyleMap
  3
ObjectDBX Classes
 90
     1152
280
     0
281
     0
  0
ENDSEC
  0
SECTION
  2
TABLES
  0
TABLE
  2
VPORT
  5
2B
330
0
100
AcDbSymbolTable
 70
     1
  0
VPORT
  5
2C
330
2B
100
AcDbSymbolTableRecord
100
AcDbViewportTableRecord
  2
*Active
 70
     0
 10
0.0
 20
0.0
 11
1.0
 21
1.0
 12
391.4403043404974
 22
98.24620372492837
 13
0.0
 23
0.0
 14
1.0
 24
1.0
 15
10.0
 25
10.0
 16
0.0
 26
0.0
 36
1.0
 17
0.0
 27
0.0
 37
0.0
 40
488.3217210614702
 41
2.240398293029871
 42
50.0
 43
0.0
 44
0.0
 50
0.0
 51
0.0
 71
     0
 72
   500
 73
     1
 74
     0
 75
     0
 76
     1
 77
     0
 78
     0
281
     0
 65
     1
110
0.0
120
0.0
130
0.0
111
1.0
121
0.0
131
0.0
112
0.0
122
1.0
132
0.0
 79
     0
146
0.0
1001
ACAD_NAV_VCDISPLAY
1070
     3
  0
ENDTAB
  0
TABLE
  2
LTYPE
  5
26
330
0
100
AcDbSymbolTable
 70
     2
  0
LTYPE
  5
27
330
26
100
AcDbSymbolTableRecord
100
AcDbLinetypeTableRecord
  2
BYBLOCK
 70
     0
  3

 72
    65
 73
     0
 40
0.0
  0
LTYPE
  5
28
330
26
100
AcDbSymbolTableRecord
100
AcDbLinetypeTableRecord
  2
BYLAYER
 70
     0
  3

 72
    65
 73
     0
 40
0.0
  0
LTYPE
  5
10
330
26
100
AcDbSymbolTableRecord
100
AcDbLinetypeTableRecord
  2
CONTINUOUS
 70
     0
  3
実線
 72
    65
 73
     0
 40
0.0
  0
LTYPE
  5
B3
330
26
100
AcDbSymbolTableRecord
100
AcDbLinetypeTableRecord
  2
CENTER
 70
     0
  3
____ _ ____ _ ____ _ ____ _ ____ _ ____ _ ____
 72
    65
 73
     4
 40
2.0
 49
1.25
 74
     0
 49
-0.25
 74
     0
 49
0.25
 74
     0
 49
-0.25
 74
     0
  0
ENDTAB
  0
TABLE
  2
LAYER
  5
1D
102
{ACAD_XDICTIONARY
360
1E
102
}
330
0
100
AcDbSymbolTable
 70
     1
  0
LAYER
  5
6
102
{ACAD_XDICTIONARY
360
7
102
}
330
1D
100
AcDbSymbolTableRecord
100
AcDbLayerTableRecord
  2
0
 70
     0
 62
     7
  6
CONTINUOUS
370
    -3
390
9
  0
ENDTAB
  0
TABLE
  2
STYLE
  5
23
330
0
100
AcDbSymbolTable
 70
     2
  0
STYLE
  5
24
330
23
100
AcDbSymbolTableRecord
100
AcDbTextStyleTableRecord
  2
STANDARD
 70
     0
 40
0.0
 41
1.0
 50
0.0
 71
     0
 42
3.0
  3
ROMANS.shx
  4
bigfont.shx
  0
STYLE
  5
33
330
23
100
AcDbSymbolTableRecord
100
AcDbTextStyleTableRecord
  2
K
 70
     0
 40
0.0
 41
1.0
 50
0.0
 71
     0
 42
1.0
  3
ROMANS
  4
EXTFONT
  0
ENDTAB
  0
TABLE
  2
VIEW
  5
29
330
0
100
AcDbSymbolTable
 70
     0
  0
ENDTAB
  0
TABLE
  2
UCS
  5
2A
330
0
100
AcDbSymbolTable
 70
     0
  0
ENDTAB
  0
TABLE
  2
APPID
  5
30
330
0
100
AcDbSymbolTable
 70
     2
  0
APPID
  5
22
330
30
100
AcDbSymbolTableRecord
100
AcDbRegAppTableRecord
  2
ACAD
 70
     0
  0
APPID
  5
2F
330
30
100
AcDbSymbolTableRecord
100
AcDbRegAppTableRecord
  2
ACAD_NAV_VCDISPLAY
 70
     0
  0
ENDTAB
  0
TABLE
  2
DIMSTYLE
  5
31
330
0
100
AcDbSymbolTable
 70
     1
100
AcDbDimStyleTable
 71
     1
340
32
  0
DIMSTYLE
105
32
330
31
100
AcDbSymbolTableRecord
100
AcDbDimStyleTableRecord
  2
IMAO
 70
     0
 41
1.5
 42
1.0
 43
6.0
 44
1.0
 47
495.0
 73
     0
 74
     0
 77
     1
 78
     8
140
3.0
141
0.0
172
     1
174
     1
271
     2
272
     2
279
     2
284
     8
285
     8
286
     8
340
33
341
34
342
34
  0
ENDTAB
  0
TABLE
  2
BLOCK_RECORD
  5
1
330
0
100
AcDbSymbolTable
 70
     2
  0
BLOCK_RECORD
  5
2
102
{ACAD_XDICTIONARY
360
3
102
}
330
1
100
AcDbSymbolTableRecord
100
AcDbBlockTableRecord
  2
*MODEL_SPACE
340
15
  0
BLOCK_RECORD
  5
19
330
1
100
AcDbSymbolTableRecord
100
AcDbBlockTableRecord
  2
*PAPER_SPACE
340
1C
  0
BLOCK_RECORD
  5
34
330
1
100
AcDbSymbolTableRecord
100
AcDbBlockTableRecord
  2
ARROW
340
0
  0
BLOCK_RECORD
  5
45
330
1
100
AcDbSymbolTableRecord
100
AcDbBlockTableRecord
  2
_OPEN
340
0
  0
ENDTAB
  0
ENDSEC
  0
SECTION
  2
BLOCKS
  0
BLOCK
  5
5
330
2
100
AcDbEntity
  8
0
100
AcDbBlockBegin
  2
*MODEL_SPACE
 70
     0
 10
0.0
 20
0.0
 30
0.0
  3
*MODEL_SPACE
  1

  0
ENDBLK
  5
14
330
2
100
AcDbEntity
  8
0
100
AcDbBlockEnd
  0
BLOCK
  5
1A
330
19
100
AcDbEntity
 67
     1
  8
0
100
AcDbBlockBegin
  2
*PAPER_SPACE
 70
     0
 10
0.0
 20
0.0
 30
0.0
  3
*PAPER_SPACE
  1

  0
ENDBLK
  5
1B
330
19
100
AcDbEntity
 67
     1
  8
0
100
AcDbBlockEnd
  0
BLOCK
  5
35
330
34
100
AcDbEntity
  8
0
100
AcDbBlockBegin
  2
ARROW
 70
     0
 10
1.0
 20
0.5
 30
0.0
  3
ARROW
  1

  0
LINE
  5
36
330
34
100
AcDbEntity
  8
0
100
AcDbLine
 10
1.0
 20
0.5
 30
0.0
 11
-0.5000000000000214
 21
0.0980762113533018
 31
0.0
  0
LINE
  5
37
330
34
100
AcDbEntity
  8
0
100
AcDbLine
 10
0.0
 20
0.5
 30
0.0
 11
1.0
 21
0.5
 31
0.0
  0
LINE
  5
38
330
34
100
AcDbEntity
  8
0
100
AcDbLine
 10
1.0
 20
0.5
 30
0.0
 11
-0.4999999999999575
 21
0.9019237886467408
 31
0.0
  0
ENDBLK
  5
39
330
34
100
AcDbEntity
  8
0
100
AcDbBlockEnd
  0
BLOCK
  5
46
330
45
100
AcDbEntity
  8
0
100
AcDbBlockBegin
  2
_OPEN
 70
     0
 10
0.0
 20
0.0
 30
0.0
  3
_OPEN
  1

  0
LINE
  5
47
330
45
100
AcDbEntity
  8
0
  6
ByBlock
 62
     0
100
AcDbLine
 10
-1.0
 20
0.1666666666666666
 30
0.0
 11
0.0
 21
0.0
 31
0.0
  0
LINE
  5
48
330
45
100
AcDbEntity
  8
0
  6
ByBlock
 62
     0
100
AcDbLine
 10
0.0
 20
0.0
 30
0.0
 11
-1.0
 21
-0.1666666666666666
 31
0.0
  0
LINE
  5
49
330
45
100
AcDbEntity
  8
0
  6
ByBlock
 62
     0
100
AcDbLine
 10
0.0
 20
0.0
 30
0.0
 11
-1.0
 21
0.0
 31
0.0
  0
ENDBLK
  5
4A
330
45
100
AcDbEntity
  8
0
100
AcDbBlockEnd
  0
ENDSEC
  0
SECTION
  2
ENTITIES
  0
LINE
  5
61
330
2
100
AcDbEntity
  8
0
  6
Continuous
 62
     7
100
AcDbLine
 10
61.75722300776499
 20
194.6096350309461
 30
0.0
 11
94.75722300776501
 21
194.6096350309461
 31
0.0
  0
LINE
  5
62
330
2
100
AcDbEntity
  8
0
  6
Continuous
 62
     7
100
AcDbLine
 10
94.75722300776501
 20
234.6096350309461
 30
0.0
 11
61.75722300776499
 21
234.6096350309461
 31
0.0
  0
LINE
  5
63
330
2
100
AcDbEntity
  8
0
  6
Continuous
 62
     7
100
AcDbLine
 10
61.75722300776499
 20
234.6096350309461
 30
0.0
 11
60.75722300776498
 21
233.6096350309461
 31
0.0
  0
LINE
  5
64
330
2
100
AcDbEntity
  8
0
  6
Continuous
 62
     7
100
AcDbLine
 10
60.75722300776498
 20
233.6096350309461
 30
0.0
 11
60.75722300776498
 21
195.6096350309461
 31
0.0
  0
LINE
  5
65
330
2
100
AcDbEntity
  8
0
  6
Continuous
 62
     7
100
AcDbLine
 10
61.75722300776499
 20
194.6096350309461
 30
0.0
 11
60.75722300776498
 21
195.6096350309461
 31
0.0
  0
LINE
  5
66
330
2
100
AcDbEntity
  8
0
  6
Continuous
 62
     7
100
AcDbLine
 10
61.75722300776499
 20
234.6096350309461
 30
0.0
 11
61.75722300776499
 21
194.6096350309461
 31
0.0
  0
LINE
  5
67
330
2
100
AcDbEntity
  8
0
  6
Continuous
 62
     7
100
AcDbLine
 10
74.75722300776499
 20
234.6096350309461
 30
0.0
 11
74.75722300776499
 21
194.6096350309461
 31
0.0
  0
LINE
  5
68
330
2
100
AcDbEntity
  8
0
  6
Continuous
 62
     7
100
AcDbLine
 10
94.75722300776501
 20
94.60963503094616
 30
0.0
 11
61.75722300776499
 21
94.60963503094616
 31
0.0
  0
LINE
  5
69
330
2
100
AcDbEntity
  8
0
  6
Continuous
 62
     7
100
AcDbLine
 10
61.75722300776499
 20
54.60963503094615
 30
0.0
 11
94.75722300776501
 21
54.60963503094615
 31
0.0
  0
LINE
  5
6A
330
2
100
AcDbEntity
  8
0
  6
Continuous
 62
     7
100
AcDbLine
 10
60.75722300776498
 20
93.60963503094614
 30
0.0
 11
60.75722300776498
 21
55.60963503094615
 31
0.0
  0
LINE
  5
6B
330
2
100
AcDbEntity
  8
0
  6
Continuous
 62
     7
100
AcDbLine
 10
61.75722300776499
 20
94.60963503094616
 30
0.0
 11
61.75722300776499
 21
54.60963503094615
 31
0.0
  0
LINE
  5
6C
330
2
100
AcDbEntity
  8
0
  6
Continuous
 62
     7
100
AcDbLine
 10
74.75722300776499
 20
94.60963503094616
 30
0.0
 11
74.75722300776499
 21
54.60963503094615
 31
0.0
  0
LINE
  5
6D
330
2
100
AcDbEntity
  8
0
  6
Continuous
 62
     7
100
AcDbLine
 10
61.75722300776499
 20
54.60963503094615
 30
0.0
 11
60.75722300776498
 21
55.60963503094615
 31
0.0
  0
LINE
  5
6E
330
2
100
AcDbEntity
  8
0
  6
Continuous
 62
     7
100
AcDbLine
 10
61.75722300776499
 20
94.60963503094616
 30
0.0
 11
60.75722300776498
 21
93.60963503094614
 31
0.0
  0
LINE
  5
6F
330
2
100
AcDbEntity
  8
0
  6
Continuous
 62
     7
 48
2.0
100
AcDbLine
 10
348.3551936414542
 20
236.6124455847759
 30
0.0
 11
344.3562147564443
 21
236.609829466587
 31
0.0
  0
ARC
  5
70
330
2
100
AcDbEntity
  8
0
  6
Continuous
 62
     7
 48
2.0
100
AcDbCircle
 10
342.1553202434718
 20
220.1106863351762
 30
0.0
 40
1.999937879678725
100
AcDbArc
 50
0.0017435558840762
 51
90.00380809175544
  0
LINE
  5
71
330
2
100
AcDbEntity
  8
0
  6
Continuous
 62
     7
 48
2.0
100
AcDbLine
 10
340.3562669387714
 20
244.6098219951985
 30
0.0
 11
340.3551042195763
 21
240.6117151495848
 31
0.0
  0
ARC
  5
72
330
2
100
AcDbEntity
  8
0
  6
Continuous
 62
     7
 48
2.0
100
AcDbCircle
 10
338.0613053043119
 20
238.809940230621
 30
0.0
 40
0.9998862487766302
100
AcDbArc
 50
359.9914531536314
 51
90.00299519872866
  0
ARC
  5
73
330
2
100
AcDbEntity
  8
0
  6
Continuous
 62
     7
 48
2.0
100
AcDbCircle
 10
338.0613053043119
 20
225.4096907728898
 30
0.0
 40
0.9998862487766395
100
AcDbArc
 50
269.9970048012714
 51
0.0085468463685969
  0
CIRCLE
  5
74
330
2
100
AcDbEntity
  8
0
  6
Continuous
 62
     7
 48
2.0
100
AcDbCircle
 10
332.8588597822411
 20
226.6097661358728
 30
0.0
 40
1.699895463234558
  0
LINE
  5
75
330
2
100
AcDbEntity
  8
0
  6
Continuous
 62
     7
 48
2.0
100
AcDbLine
 10
325.9550207748093
 20
214.6097288963223
 30
0.0
 11
325.9515326172238
 21
220.10939068914
 31
0.0
  0
ARC
  5
76
330
2
100
AcDbEntity
  8
0
  6
Continuous
 62
     7
 48
2.0
100
AcDbCircle
 10
327.9513051821596
 20
220.1108511149583
 30
0.0
 40
1.999773098207185
100
AcDbArc
 50
89.99700737022314
 51
180.0418428686699
  0
LINE
  5
77
330
2
100
AcDbEntity
  8
0
  6
Continuous
 62
     7
 48
2.0
100
AcDbLine
 10
339.0611915419638
 20
225.4098399265307
 30
0.0
 11
339.0611915419638
 21
238.8097910769801
 31
0.0
  0
ARC
  5
78
330
2
100
AcDbEntity
  8
0
  6
Continuous
 62
     7
 48
2.0
100
AcDbCircle
 10
344.3551458484344
 20
240.6098713775584
 30
0.0
 40
4.000042053790497
100
AcDbArc
 50
179.9735901878491
 51
270.0153108186222
  0
LINE
  5
79
330
2
100
AcDbEntity
  8
0
  6
Continuous
 62
     7
 48
2.0
100
AcDbLine
 10
342.155187320122
 20
222.1106242104377
 30
0.0
 11
327.9514096327939
 21
222.1106242104377
 31
0.0
  0
ARC
  5
7A
330
2
100
AcDbEntity
  8
0
  6
Continuous
 62
     7
 48
2.0
100
AcDbCircle
 10
342.1551548382733
 20
174.8098833338571
 30
0.0
 40
2.000103288135683
100
AcDbArc
 50
270.000930488363
 51
272.8668032126944
  0
LINE
  5
7B
330
2
100
AcDbEntity
  8
0
  6
Continuous
 62
     7
 48
2.0
100
AcDbLine
 10
344.1552581222247
 20
174.8097539548214
 30
0.0
 11
344.1552581222247
 21
220.1107471948677
 31
0.0
  0
LINE
  5
7C
330
2
100
AcDbEntity
  8
0
  6
Continuous
 62
     7
 48
2.0
100
AcDbLine
 10
348.3551936414542
 20
147.6119110093998
 30
0.0
 11
344.3562147564443
 21
147.6097793575422
 31
0.0
  0
LINE
  5
7D
330
2
100
AcDbEntity
  8
0
  6
Continuous
 62
     7
 48
2.0
100
AcDbLine
 10
340.3564607253038
 20
139.6098837221969
 30
0.0
 11
340.3552980061088
 21
143.6113818321295
 31
0.0
  0
ARC
  5
7E
330
2
100
AcDbEntity
  8
0
  6
Continuous
 62
     7
 48
2.0
100
AcDbCircle
 10
344.3553108668459
 20
143.6095723015224
 30
0.0
 40
4.000207056548561
100
AcDbArc
 50
90.00093162504624
 51
179.9740817240795
  0
LINE
  5
7F
330
2
100
AcDbEntity
  8
0
  6
Continuous
 62
     7
 48
2.0
100
AcDbLine
 10
348.3551936414542
 20
240.6096350309461
 30
0.0
 11
348.3551936414542
 21
143.6096350309459
 31
0.0
  0
ARC
  5
80
330
2
100
AcDbEntity
  8
0
  6
Continuous
 48
2.0
100
AcDbCircle
 10
344.3551936414542
 20
240.6096350309461
 30
0.0
 40
4.0
100
AcDbArc
 50
0.0
 51
90.0
  0
ARC
  5
81
330
2
100
AcDbEntity
  8
0
  6
Continuous
 62
     7
 48
2.0
100
AcDbCircle
 10
344.3551936414542
 20
143.6096350309459
 30
0.0
 40
4.0
100
AcDbArc
 50
270.0
 51
0.0
  0
ARC
  5
82
330
2
100
AcDbEntity
  8
0
  6
Continuous
 62
     7
 48
2.0
100
AcDbCircle
 10
286.3550372675689
 20
240.6098709830598
 30
0.0
 40
4.000041713625058
100
AcDbArc
 50
270.017988965126
 51
0.0347427422968137
  0
LINE
  5
83
330
2
100
AcDbEntity
  8
0
  6
Continuous
 62
     7
 48
2.0
100
AcDbLine
 10
282.355182610459
 20
236.6118642251784
 30
0.0
 11
286.3562931473268
 21
236.609829466587
 31
0.0
  0
LINE
  5
84
330
2
100
AcDbEntity
  8
0
  6
Continuous
 62
     7
 48
2.0
100
AcDbLine
 10
290.3562409649994
 20
244.609628208666
 30
0.0
 11
290.3550782458044
 21
240.6122965091822
 31
0.0
  0
ARC
  5
85
330
2
100
AcDbEntity
  8
0
  6
Continuous
 62
     7
 48
2.0
100
AcDbCircle
 10
292.6612794991499
 20
238.809940230621
 30
0.0
 40
0.9998862487766302
100
AcDbArc
 50
89.99700480127129
 51
180.0085468463686
  0
ARC
  5
86
330
2
100
AcDbEntity
  8
0
  6
Continuous
 62
     7
 48
2.0
100
AcDbCircle
 10
302.7552238118187
 20
220.1106863351762
 30
0.0
 40
1.999937879678725
100
AcDbArc
 50
0.0017435558840762
 51
90.00380809175544
  0
LINE
  5
87
330
2
100
AcDbEntity
  8
0
  6
Continuous
 62
     7
 48
2.0
100
AcDbLine
 10
304.7551616905715
 20
214.6097288963223
 30
0.0
 11
304.7551616905715
 21
220.1107471948677
 31
0.0
  0
ARC
  5
88
330
2
100
AcDbEntity
  8
0
  6
Continuous
 62
     7
 48
2.0
100
AcDbCircle
 10
288.5550560084414
 20
220.1106863351762
 30
0.0
 40
1.999937879678725
100
AcDbArc
 50
89.99619190824457
 51
179.9982564441155
  0
ARC
  5
89
330
2
100
AcDbEntity
  8
0
  6
Continuous
 62
     7
 48
2.0
100
AcDbCircle
 10
292.6612794991499
 20
225.4096907728898
 30
0.0
 40
0.9998862487766302
100
AcDbArc
 50
179.9914531536314
 51
270.0029951987287
  0
LINE
  5
8A
330
2
100
AcDbEntity
  8
0
  6
Continuous
 62
     7
 48
2.0
100
AcDbLine
 10
302.7550908884689
 20
222.1106242104377
 30
0.0
 11
288.5551889317913
 21
222.1106242104377
 31
0.0
  0
LINE
  5
8B
330
2
100
AcDbEntity
  8
0
  6
Continuous
 62
     7
 48
2.0
100
AcDbLine
 10
291.661393261498
 20
238.8097910769801
 30
0.0
 11
291.661393261498
 21
225.4098399265307
 31
0.0
  0
LINE
  5
8C
330
2
100
AcDbEntity
  8
0
  6
Continuous
 62
     7
100
AcDbLine
 10
254.257223007765
 20
223.1096350309461
 30
0.0
 11
254.757223007765
 21
222.6096350309461
 31
0.0
  0
ARC
  5
8D
330
2
100
AcDbEntity
  8
0
  6
Continuous
 62
     7
 48
2.0
100
AcDbCircle
 10
288.5552214136398
 20
174.8098833338571
 30
0.0
 40
2.000103288135762
100
AcDbArc
 50
180.003706244948
 51
192.1097095661431
  0
LINE
  5
8E
330
2
100
AcDbEntity
  8
0
  6
Continuous
 62
     7
100
AcDbLine
 10
254.257223007765
 20
206.1096350309461
 30
0.0
 11
254.757223007765
 21
206.6096350309461
 31
0.0
  0
LINE
  5
8F
330
2
100
AcDbEntity
  8
0
  6
Continuous
 62
     7
 48
2.0
100
AcDbLine
 10
286.5551181296887
 20
174.8097539548214
 30
0.0
 11
286.5551181296887
 21
220.1107471948677
 31
0.0
  0
LINE
  5
90
330
2
100
AcDbEntity
  8
0
  6
Continuous
 62
     7
100
AcDbLine
 10
254.757223007765
 20
222.6096350309461
 30
0.0
 11
254.757223007765
 21
206.6096350309461
 31
0.0
  0
LINE
  5
91
330
2
100
AcDbEntity
  8
0
  6
Continuous
 62
     7
100
AcDbLine
 10
244.757223007765
 20
222.1096350309461
 30
0.0
 11
244.757223007765
 21
206.1096350309461
 31
0.0
  0
LINE
  5
92
330
2
100
AcDbEntity
  8
0
  6
Continuous
 62
     7
100
AcDbLine
 10
250.257223007765
 20
223.1096350309461
 30
0.0
 11
249.257223007765
 21
222.1096350309461
 31
0.0
  0
LINE
  5
93
330
2
100
AcDbEntity
  8
0
  6
Continuous
 62
     7
100
AcDbLine
 10
249.257223007765
 20
222.1096350309461
 30
0.0
 11
244.757223007765
 21
222.1096350309461
 31
0.0
  0
LINE
  5
94
330
2
100
AcDbEntity
  8
0
  6
Continuous
 62
     7
100
AcDbLine
 10
244.757223007765
 20
223.1096350309461
 30
0.0
 11
244.757223007765
 21
221.6096350309461
 31
0.0
  0
LINE
  5
95
330
2
100
AcDbEntity
  8
0
  6
Continuous
 62
     7
100
AcDbLine
 10
244.757223007765
 20
223.1096350309461
 30
0.0
 11
234.757223007765
 21
223.1096350309461
 31
0.0
  0
LINE
  5
96
330
2
100
AcDbEntity
  8
0
  6
Continuous
 62
     7
 48
2.0
100
AcDbLine
 10
214.7530918751168
 20
242.9986595684299
 30
0.0
 11
214.7534794481817
 21
244.5987549674185
 31
0.0
  0
LINE
  5
97
330
2
100
AcDbEntity
  8
0
  6
Continuous
 62
     7
 48
2.0
100
AcDbLine
 10
214.7530918751168
 20
242.9986595684299
 30
0.0
 11
214.2550912326903
 21
242.9987562863641
 31
0.0
  0
LINE
  5
98
330
2
100
AcDbEntity
  8
0
  6
Continuous
 62
     7
 48
2.0
100
AcDbLine
 10
214.7534794481817
 20
244.5987549674185
 30
0.0
 11
230.8263395567105
 21
244.3209883425328
 31
0.0
  0
LINE
  5
99
330
2
100
AcDbEntity
  8
0
  6
Continuous
 62
     7
100
AcDbLine
 10
250.257223007765
 20
206.1096350309461
 30
0.0
 11
249.257223007765
 21
207.1096350309461
 31
0.0
  0
LINE
  5
9A
330
2
100
AcDbEntity
  8
0
  6
Continuous
 62
     7
100
AcDbLine
 10
249.257223007765
 20
207.1096350309461
 30
0.0
 11
244.757223007765
 21
207.1096350309461
 31
0.0
  0
LINE
  5
9B
330
2
100
AcDbEntity
  8
0
  6
Continuous
 62
     7
100
AcDbLine
 10
244.757223007765
 20
206.1096350309461
 30
0.0
 11
234.757223007765
 21
206.1096350309461
 31
0.0
  0
LINE
  5
9C
330
2
100
AcDbEntity
  8
0
  6
Continuous
 62
     7
100
AcDbLine
 10
254.257223007765
 20
206.1096350309461
 30
0.0
 11
250.257223007765
 21
206.1096350309461
 31
0.0
  0
LINE
  5
9D
330
2
100
AcDbEntity
  8
0
  6
Continuous
 62
     7
100
AcDbLine
 10
254.257223007765
 20
223.1096350309461
 30
0.0
 11
250.257223007765
 21
223.1096350309461
 31
0.0
  0
ARC
  5
9E
330
2
100
AcDbEntity
  8
0
  6
Continuous
 62
     7
 48
2.0
100
AcDbCircle
 10
286.355202386382
 20
143.6099036461943
 30
0.0
 40
3.999875860072322
100
AcDbArc
 50
359.9989671209213
 51
89.98437551525176
  0
LINE
  5
9F
330
2
100
AcDbEntity
  8
0
  6
Continuous
 62
     7
 48
2.0
100
AcDbLine
 10
290.3564347515319
 20
139.6096899356642
 30
0.0
 11
290.3550782458044
 21
143.611575618662
 31
0.0
  0
LINE
  5
A0
330
2
100
AcDbEntity
  8
0
  6
Continuous
 62
     7
 48
2.0
100
AcDbLine
 10
282.355182610459
 20
147.6117172228673
 30
0.0
 11
286.3562931473268
 21
147.6097793575422
 31
0.0
  0
LINE
  5
A1
330
2
100
AcDbEntity
  8
0
  6
Continuous
 62
     7
 48
2.0
100
AcDbLine
 10
214.7532856616493
 20
141.2191627860533
 30
0.0
 11
214.7534805787252
 21
139.6096350309459
 31
0.0
  0
LINE
  5
A2
330
2
100
AcDbEntity
  8
0
  6
Continuous
 62
     7
 48
2.0
100
AcDbLine
 10
214.7532856616493
 20
141.2191627860533
 30
0.0
 11
214.2550912326903
 21
141.2191627860533
 31
0.0
  0
ARC
  5
A3
330
2
100
AcDbEntity
  8
0
  6
Continuous
 48
2.0
100
AcDbCircle
 10
230.7572230077651
 20
143.8980648309638
 30
0.0
 40
4.0
100
AcDbArc
 50
270.9969305158087
 51
0.0
  0
LINE
  5
A4
330
2
100
AcDbEntity
  8
0
  6
Continuous
 62
     7
100
AcDbLine
 10
214.7550912326904
 20
107.6096350309461
 30
0.0
 11
214.7550912326901
 21
106.109635030946
 31
0.0
  0
LINE
  5
A5
330
2
100
AcDbEntity
  8
0
  6
Continuous
 62
     7
100
AcDbLine
 10
214.2549018445402
 20
106.109635030946
 30
0.0
 11
214.7550912326901
 21
106.109635030946
 31
0.0
  0
LINE
  5
A6
330
2
100
AcDbEntity
  8
0
  6
Continuous
 62
     7
100
AcDbLine
 10
214.7550912326904
 20
107.6096350309461
 30
0.0
 11
230.8270326335141
 21
107.3290982502722
 31
0.0
  0
LINE
  5
A7
330
2
100
AcDbEntity
  8
0
  6
Continuous
 62
     7
100
AcDbLine
 10
214.2550912326903
 20
244.610988030322
 30
0.0
 11
214.2550912326901
 21
134.6096350309461
 31
0.0
  0
LINE
  5
A8
330
2
100
AcDbEntity
  8
0
  6
Continuous
 62
     7
 48
2.0
100
AcDbLine
 10
282.355182610459
 20
240.6096350309461
 30
0.0
 11
282.355182610459
 21
143.6096350309459
 31
0.0
  0
LINE
  5
A9
330
2
100
AcDbEntity
  8
0
  6
Continuous
 62
     7
100
AcDbLine
 10
116.5347156030563
 20
141.3350163001203
 30
0.0
 11
123.2587388364349
 21
134.6096350309461
 31
0.0
  0
ARC
  5
AA
330
2
100
AcDbEntity
  8
0
  6
Continuous
 62
     7
100
AcDbCircle
 10
124.7483404060266
 20
94.6108285334672
 30
0.0
 40
1.99988805822308
100
AcDbArc
 50
89.99700440580694
 51
180.0029955941963
  0
ARC
  5
AB
330
2
100
AcDbEntity
  8
0
  6
Continuous
 62
     7
100
AcDbCircle
 10
118.0336326903431
 20
97.66108515320343
 30
0.0
 40
2.000271825383169
100
AcDbArc
 50
91.4625556225576
 51
179.9995659170735
  0
LINE
  5
AC
330
2
100
AcDbEntity
  8
0
  6
Continuous
 62
     7
100
AcDbLine
 10
214.2548974349561
 20
102.1114714727949
 30
0.0
 11
117.9825784742917
 21
99.6607053277478
 31
0.0
  0
LINE
  5
AD
330
2
100
AcDbEntity
  8
0
  6
Continuous
 62
     7
100
AcDbLine
 10
124.7375922930294
 20
96.62156926206494
 30
0.0
 11
214.2548974349561
 21
97.11110233832531
 31
0.0
  0
LINE
  5
AE
330
2
100
AcDbEntity
  8
0
  6
Continuous
 62
     7
100
AcDbLine
 10
214.257223007765
 20
107.6114883730728
 30
0.0
 11
98.68741881357159
 21
105.5943669398017
 31
0.0
  0
ARC
  5
AF
330
2
100
AcDbEntity
  8
0
  6
Continuous
100
AcDbCircle
 10
98.75722300776502
 20
101.5949760643717
 30
0.0
 40
4.0
100
AcDbArc
 50
90.99992218684231
 51
180.0
  0
LINE
  5
B0
330
2
100
AcDbEntity
  8
0
  6
Continuous
 62
     7
100
AcDbLine
 10
214.2550912326903
 20
244.610988030322
 30
0.0
 11
98.68412781756244
 21
242.498714935249
 31
0.0
  0
ARC
  5
B1
330
2
100
AcDbEntity
  8
0
  6
Continuous
100
AcDbCircle
 10
98.75722300776502
 20
238.4993828543673
 30
0.0
 40
4.0
100
AcDbArc
 50
91.04706975579986
 51
180.0
  0
LINE
  5
B2
330
2
100
AcDbEntity
  8
0
  6
CENTER
 62
     4
 48
2.0
100
AcDbLine
 10
44.85286741382991
 20
214.6096350309461
 30
0.0
 11
263.8725879970603
 21
214.6096350309461
 31
0.0
  0
ARC
  5
B4
330
2
100
AcDbEntity
  8
0
  6
Continuous
100
AcDbCircle
 10
98.75722300776502
 20
145.6463082329858
 30
0.0
 40
4.0
100
AcDbArc
 50
180.0
 51
268.9997532084416
  0
LINE
  5
B5
330
2
100
AcDbEntity
  8
0
  6
Continuous
 62
     7
100
AcDbLine
 10
214.7550912326904
 20
41.60963503094606
 30
0.0
 11
214.7550912326901
 21
43.10963503094606
 31
0.0
  0
LINE
  5
B6
330
2
100
AcDbEntity
  8
0
  6
Continuous
 62
     7
100
AcDbLine
 10
214.2550868231062
 20
43.10963503094606
 30
0.0
 11
214.7550912326901
 21
43.10963503094606
 31
0.0
  0
LINE
  5
B7
330
2
100
AcDbEntity
  8
0
  6
Continuous
 62
     7
100
AcDbLine
 10
214.7550912326904
 20
41.60963503094606
 30
0.0
 11
230.8270326335141
 21
41.89017181161989
 31
0.0
  0
ARC
  5
B8
330
2
100
AcDbEntity
  8
0
  6
Continuous
100
AcDbCircle
 10
230.757223007765
 20
45.88956259224548
 30
0.0
 40
4.0
100
AcDbArc
 50
270.9999999999985
 51
0.0
  0
CIRCLE
  5
B9
330
2
100
AcDbEntity
  8
0
  6
Continuous
 62
     7
100
AcDbCircle
 10
164.757223007765
 20
74.60963502738697
 30
0.0
 40
2.175185767199706
  0
CIRCLE
  5
BA
330
2
100
AcDbEntity
  8
0
  6
Continuous
 62
     7
100
AcDbCircle
 10
164.757223007765
 20
74.60963502738697
 30
0.0
 40
3.175182074999998
  0
ARC
  5
BB
330
2
100
AcDbEntity
  8
0
  6
Continuous
 62
     7
100
AcDbCircle
 10
124.7464346632927
 20
54.59759203715079
 30
0.0
 40
1.999920292666059
100
AcDbArc
 50
179.9970956105426
 51
269.6911519859643
  0
LINE
  5
BC
330
2
100
AcDbEntity
  8
0
  6
CENTER
 62
     4
 48
2.0
100
AcDbLine
 10
48.71563000871821
 20
74.60963503094607
 30
0.0
 11
258.8528674138299
 21
74.60963503094607
 31
0.0
  0
ARC
  5
BD
330
2
100
AcDbEntity
  8
0
  6
Continuous
 62
     7
100
AcDbCircle
 10
118.0351455582638
 20
51.55852616861239
 30
0.0
 40
2.000621938590096
100
AcDbArc
 50
180.0102073444787
 51
268.5276711158872
  0
LINE
  5
BE
330
2
100
AcDbEntity
  8
0
  6
Continuous
 62
     7
100
AcDbLine
 10
214.2550912326903
 20
47.10818618456555
 30
0.0
 11
117.9837412606961
 21
49.55856473414431
 31
0.0
  0
LINE
  5
BF
330
2
100
AcDbEntity
  8
0
  6
Continuous
 62
     7
100
AcDbLine
 10
214.2550912326903
 20
52.1085553190351
 30
0.0
 11
124.7356543156886
 21
52.59770079982732
 31
0.0
  0
LINE
  5
C0
330
2
100
AcDbEntity
  8
0
  6
Continuous
 62
     7
100
AcDbLine
 10
214.257223007765
 20
41.60778168170106
 30
0.0
 11
98.68740546309721
 21
43.6252892522664
 31
0.0
  0
ARC
  5
C1
330
2
100
AcDbEntity
  8
0
  6
Continuous
100
AcDbCircle
 10
98.75722300776502
 20
47.62467989465888
 30
0.0
 40
4.0
100
AcDbArc
 50
180.0
 51
268.9998865525652
  0
LINE
  5
C2
330
2
100
AcDbEntity
  8
0
  6
Continuous
 62
     7
100
AcDbLine
 10
116.0333608650174
 20
97.66110030761552
 30
0.0
 11
116.0345236514217
 21
51.55816975427685
 31
0.0
  0
LINE
  5
C3
330
2
100
AcDbEntity
  8
0
  6
Continuous
 62
     7
100
AcDbLine
 10
122.7484523505367
 20
94.61072397335639
 30
0.0
 11
122.7465143731962
 21
54.59769341542792
 31
0.0
  0
CIRCLE
  5
C4
330
2
100
AcDbEntity
  8
0
  6
Continuous
 62
     7
100
AcDbCircle
 10
199.757223007765
 20
89.60963502738698
 30
0.0
 40
2.000380211068724
  0
CIRCLE
  5
C5
330
2
100
AcDbEntity
  8
0
  6
Continuous
 62
     7
100
AcDbCircle
 10
199.757223007765
 20
89.60963502738698
 30
0.0
 40
1.500188259434509
  0
CIRCLE
  5
C6
330
2
100
AcDbEntity
  8
0
  6
Continuous
 62
     7
 48
2.0
100
AcDbCircle
 10
315.3550912326902
 20
214.6097288963223
 30
0.0
 40
8.700046377327346
  0
ARC
  5
C7
330
2
100
AcDbEntity
  8
0
  6
Continuous
 62
     7
 48
2.0
100
AcDbCircle
 10
315.3550912326902
 20
214.6097319224658
 30
0.0
 40
10.59992954211934
100
AcDbArc
 50
180.0000163572082
 51
359.9999836427918
  0
LINE
  5
C8
330
2
100
AcDbEntity
  8
0
  6
Continuous
 62
     7
 48
2.0
100
AcDbLine
 10
342.155187320122
 20
172.8097800459849
 30
0.0
 11
288.5551889317913
 21
172.8097800459849
 31
0.0
  0
LINE
  5
C9
330
2
100
AcDbEntity
  8
0
  6
Continuous
 62
     7
 48
2.0
100
AcDbLine
 10
292.661331769283
 20
239.8098264780315
 30
0.0
 11
338.0612530341787
 21
239.8098264780315
 31
0.0
  0
LINE
  5
CA
330
2
100
AcDbEntity
  8
0
  6
Continuous
 62
     7
 48
2.0
100
AcDbLine
 10
292.661331769283
 20
224.4098045254793
 30
0.0
 11
338.0612530341787
 21
224.4098045254793
 31
0.0
  0
LINE
  5
CB
330
2
100
AcDbEntity
  8
0
  6
CENTER
 62
     4
 48
2.0
100
AcDbLine
 10
305.3539595452855
 20
214.609635030946
 30
0.0
 11
325.3561833641459
 21
214.6096350309461
 31
0.0
  0
LINE
  5
CC
330
2
100
AcDbEntity
  8
0
  6
Continuous
 62
     7
 48
2.0
100
AcDbLine
 10
214.7530918751168
 20
242.9986595684299
 30
0.0
 11
214.7532856616493
 21
141.2191627860533
 31
0.0
  0
LINE
  5
CD
330
2
100
AcDbEntity
  8
0
  6
Continuous
 62
     7
100
AcDbLine
 10
249.257223007765
 20
222.1096350309461
 30
0.0
 11
249.257223007765
 21
207.1096350309461
 31
0.0
  0
LINE
  5
CE
330
2
100
AcDbEntity
  8
0
  6
Continuous
 62
     7
100
AcDbLine
 10
250.257223007765
 20
223.1096350309461
 30
0.0
 11
250.257223007765
 21
206.1096350309461
 31
0.0
  0
LINE
  5
CF
330
2
100
AcDbEntity
  8
0
  6
Continuous
 62
     7
100
AcDbLine
 10
254.257223007765
 20
223.1096350309461
 30
0.0
 11
254.257223007765
 21
206.1096350309461
 31
0.0
  0
LINE
  5
D0
330
2
100
AcDbEntity
  8
0
  6
Continuous
 62
     7
100
AcDbLine
 10
254.257223007765
 20
83.10963503094614
 30
0.0
 11
254.257223007765
 21
66.10963503094613
 31
0.0
  0
LINE
  5
D1
330
2
100
AcDbEntity
  8
0
  6
Continuous
 62
     7
100
AcDbLine
 10
250.257223007765
 20
83.10963503094614
 30
0.0
 11
250.257223007765
 21
66.10963503094613
 31
0.0
  0
LINE
  5
D2
330
2
100
AcDbEntity
  8
0
  6
Continuous
 62
     7
100
AcDbLine
 10
249.257223007765
 20
82.10963503094614
 30
0.0
 11
249.257223007765
 21
67.10963503094612
 31
0.0
  0
LINE
  5
D3
330
2
100
AcDbEntity
  8
0
  6
Continuous
 62
     7
100
AcDbLine
 10
254.257223007765
 20
83.10963503094614
 30
0.0
 11
250.257223007765
 21
83.10963503094614
 31
0.0
  0
LINE
  5
D4
330
2
100
AcDbEntity
  8
0
  6
Continuous
 62
     7
100
AcDbLine
 10
254.257223007765
 20
66.10963503094613
 30
0.0
 11
250.257223007765
 21
66.10963503094613
 31
0.0
  0
LINE
  5
D5
330
2
100
AcDbEntity
  8
0
  6
Continuous
 62
     7
100
AcDbLine
 10
249.257223007765
 20
67.10963503094612
 30
0.0
 11
244.757223007765
 21
67.10963503094612
 31
0.0
  0
LINE
  5
D6
330
2
100
AcDbEntity
  8
0
  6
Continuous
 62
     7
100
AcDbLine
 10
250.257223007765
 20
66.10963503094613
 30
0.0
 11
249.257223007765
 21
67.10963503094612
 31
0.0
  0
LINE
  5
D7
330
2
100
AcDbEntity
  8
0
  6
Continuous
 62
     7
100
AcDbLine
 10
249.257223007765
 20
82.10963503094614
 30
0.0
 11
244.757223007765
 21
82.10963503094614
 31
0.0
  0
LINE
  5
D8
330
2
100
AcDbEntity
  8
0
  6
Continuous
 62
     7
100
AcDbLine
 10
250.257223007765
 20
83.10963503094614
 30
0.0
 11
249.257223007765
 21
82.10963503094614
 31
0.0
  0
LINE
  5
D9
330
2
100
AcDbEntity
  8
0
  6
Continuous
 62
     7
100
AcDbLine
 10
254.757223007765
 20
82.60963503094611
 30
0.0
 11
254.757223007765
 21
66.60963503094612
 31
0.0
  0
LINE
  5
DA
330
2
100
AcDbEntity
  8
0
  6
Continuous
 62
     7
100
AcDbLine
 10
254.257223007765
 20
66.10963503094613
 30
0.0
 11
254.757223007765
 21
66.60963503094612
 31
0.0
  0
LINE
  5
DB
330
2
100
AcDbEntity
  8
0
  6
Continuous
 62
     7
100
AcDbLine
 10
254.257223007765
 20
83.10963503094614
 30
0.0
 11
254.757223007765
 21
82.60963503094611
 31
0.0
  0
LINE
  5
DC
330
2
100
AcDbEntity
  8
0
  6
Continuous
 62
     7
100
AcDbLine
 10
214.7550912326901
 20
106.109635030946
 30
0.0
 11
214.7550912326901
 21
43.10963503094606
 31
0.0
  0
CIRCLE
  5
DD
330
2
100
AcDbEntity
  8
0
  6
Continuous
 62
     7
100
AcDbCircle
 10
315.3550362390753
 20
214.6096350309461
 30
0.0
 40
4.0
  0
CIRCLE
  5
DE
330
2
100
AcDbEntity
  8
0
  6
Continuous
 62
     7
100
AcDbCircle
 10
315.3550912326902
 20
214.6097288963223
 30
0.0
 40
8.5
  0
CIRCLE
  5
DF
330
2
100
AcDbEntity
  8
0
  6
Continuous
 62
     7
100
AcDbCircle
 10
286.3551304281316
 20
240.6097772842595
 30
0.0
 40
2.75
  0
ARC
  5
E0
330
2
100
AcDbEntity
  8
0
  6
Continuous
 62
     7
100
AcDbCircle
 10
288.6051304281316
 20
238.3597772842594
 30
0.0
 40
1.767766952966368
100
AcDbArc
 50
98.13010235415472
 51
171.8698976458443
  0
ARC
  5
E1
330
2
100
AcDbEntity
  8
0
  6
Continuous
 62
     7
100
AcDbCircle
 10
284.1051304281316
 20
238.3597772842597
 30
0.0
 40
1.767766952966368
100
AcDbArc
 50
8.130102354155605
 51
81.86989764584527
  0
ARC
  5
E2
330
2
100
AcDbEntity
  8
0
  6
Continuous
 62
     7
100
AcDbCircle
 10
284.1051304281316
 20
242.8597772842597
 30
0.0
 40
1.767766952966368
100
AcDbArc
 50
278.1301023541547
 51
351.8698976458443
  0
ARC
  5
E3
330
2
100
AcDbEntity
  8
0
  6
Continuous
 62
     7
100
AcDbCircle
 10
288.6051304281316
 20
242.8597772842596
 30
0.0
 40
1.767766952966368
100
AcDbArc
 50
188.1301023541556
 51
261.8698976458453
  0
CIRCLE
  5
E4
330
2
100
AcDbEntity
  8
0
  6
Continuous
 62
     7
100
AcDbCircle
 10
344.3549870771541
 20
240.6096154281515
 30
0.0
 40
2.75
  0
ARC
  5
E5
330
2
100
AcDbEntity
  8
0
  6
Continuous
 62
     7
100
AcDbCircle
 10
346.6049870771541
 20
238.3596154281513
 30
0.0
 40
1.767766952966368
100
AcDbArc
 50
98.13010235415472
 51
171.8698976458443
  0
ARC
  5
E6
330
2
100
AcDbEntity
  8
0
  6
Continuous
 62
     7
100
AcDbCircle
 10
342.1049870771541
 20
238.3596154281515
 30
0.0
 40
1.767766952966368
100
AcDbArc
 50
8.130102354155605
 51
81.86989764584527
  0
ARC
  5
E7
330
2
100
AcDbEntity
  8
0
  6
Continuous
 62
     7
100
AcDbCircle
 10
342.1049870771542
 20
242.8596154281516
 30
0.0
 40
1.767766952966368
100
AcDbArc
 50
278.1301023541547
 51
351.8698976458443
  0
ARC
  5
E8
330
2
100
AcDbEntity
  8
0
  6
Continuous
 62
     7
100
AcDbCircle
 10
346.6049870771541
 20
242.8596154281514
 30
0.0
 40
1.767766952966368
100
AcDbArc
 50
188.1301023541556
 51
261.8698976458453
  0
CIRCLE
  5
E9
330
2
100
AcDbEntity
  8
0
  6
Continuous
 62
     7
100
AcDbCircle
 10
286.3551304281316
 20
143.6098315398695
 30
0.0
 40
2.75
  0
ARC
  5
EA
330
2
100
AcDbEntity
  8
0
  6
Continuous
 62
     7
100
AcDbCircle
 10
288.6051304281316
 20
141.3598315398693
 30
0.0
 40
1.767766952966368
100
AcDbArc
 50
98.13010235415472
 51
171.8698976458443
  0
ARC
  5
EB
330
2
100
AcDbEntity
  8
0
  6
Continuous
 62
     7
100
AcDbCircle
 10
284.1051304281316
 20
141.3598315398696
 30
0.0
 40
1.767766952966368
100
AcDbArc
 50
8.130102354155605
 51
81.86989764584527
  0
ARC
  5
EC
330
2
100
AcDbEntity
  8
0
  6
Continuous
 62
     7
100
AcDbCircle
 10
284.1051304281316
 20
145.8598315398696
 30
0.0
 40
1.767766952966368
100
AcDbArc
 50
278.1301023541547
 51
351.8698976458443
  0
ARC
  5
ED
330
2
100
AcDbEntity
  8
0
  6
Continuous
 62
     7
100
AcDbCircle
 10
288.6051304281316
 20
145.8598315398695
 30
0.0
 40
1.767766952966368
100
AcDbArc
 50
188.1301023541556
 51
261.8698976458453
  0
CIRCLE
  5
EE
330
2
100
AcDbEntity
  8
0
  6
Continuous
 62
     7
100
AcDbCircle
 10
344.3688108810576
 20
143.6099284331358
 30
0.0
 40
2.75
  0
ARC
  5
EF
330
2
100
AcDbEntity
  8
0
  6
Continuous
 62
     7
100
AcDbCircle
 10
346.6188108810576
 20
141.3599284331356
 30
0.0
 40
1.767766952966368
100
AcDbArc
 50
98.13010235415472
 51
171.8698976458443
  0
ARC
  5
F0
330
2
100
AcDbEntity
  8
0
  6
Continuous
 62
     7
100
AcDbCircle
 10
342.1188108810576
 20
141.3599284331358
 30
0.0
 40
1.767766952966368
100
AcDbArc
 50
8.130102354155605
 51
81.86989764584527
  0
ARC
  5
F1
330
2
100
AcDbEntity
  8
0
  6
Continuous
 62
     7
100
AcDbCircle
 10
342.1188108810577
 20
145.8599284331359
 30
0.0
 40
1.767766952966368
100
AcDbArc
 50
278.1301023541547
 51
351.8698976458443
  0
ARC
  5
F2
330
2
100
AcDbEntity
  8
0
  6
Continuous
 62
     7
100
AcDbCircle
 10
346.6188108810576
 20
145.8599284331358
 30
0.0
 40
1.767766952966368
100
AcDbArc
 50
188.1301023541556
 51
261.8698976458453
  0
CIRCLE
  5
F3
330
2
100
AcDbEntity
  8
0
  6
Continuous
 62
     7
100
AcDbCircle
 10
295.3551583577946
 20
218.1097074601024
 30
0.0
 40
2.337499999999999
  0
ARC
  5
F4
330
2
100
AcDbEntity
  8
0
  6
Continuous
 62
     7
100
AcDbCircle
 10
297.2676583577945
 20
216.1972074601023
 30
0.0
 40
1.502601910021413
100
AcDbArc
 50
98.13010235415472
 51
171.8698976458443
  0
ARC
  5
F5
330
2
100
AcDbEntity
  8
0
  6
Continuous
 62
     7
100
AcDbCircle
 10
297.2676583577945
 20
220.0222074601025
 30
0.0
 40
1.502601910021413
100
AcDbArc
 50
188.1301023541556
 51
261.8698976458453
  0
ARC
  5
F6
330
2
100
AcDbEntity
  8
0
  6
Continuous
 62
     7
100
AcDbCircle
 10
293.4426583577945
 20
216.1972074601025
 30
0.0
 40
1.502601910021413
100
AcDbArc
 50
8.130102354155605
 51
81.86989764584527
  0
ARC
  5
F7
330
2
100
AcDbEntity
  8
0
  6
Continuous
 62
     7
100
AcDbCircle
 10
293.4426583577945
 20
220.0222074601026
 30
0.0
 40
1.502601910021413
100
AcDbArc
 50
278.1301023541547
 51
351.8698976458443
  0
CIRCLE
  5
F8
330
2
100
AcDbEntity
  8
0
  6
Continuous
 62
     7
100
AcDbCircle
 10
335.3550241075861
 20
218.1097074601024
 30
0.0
 40
2.337499999999999
  0
ARC
  5
F9
330
2
100
AcDbEntity
  8
0
  6
Continuous
 62
     7
100
AcDbCircle
 10
337.2675241075862
 20
216.1972074601023
 30
0.0
 40
1.502601910021413
100
AcDbArc
 50
98.13010235415472
 51
171.8698976458443
  0
ARC
  5
FA
330
2
100
AcDbEntity
  8
0
  6
Continuous
 62
     7
100
AcDbCircle
 10
337.2675241075862
 20
220.0222074601025
 30
0.0
 40
1.502601910021413
100
AcDbArc
 50
188.1301023541556
 51
261.8698976458453
  0
ARC
  5
FB
330
2
100
AcDbEntity
  8
0
  6
Continuous
 62
     7
100
AcDbCircle
 10
333.442524107586
 20
216.1972074601025
 30
0.0
 40
1.502601910021413
100
AcDbArc
 50
8.130102354155605
 51
81.86989764584527
  0
ARC
  5
FC
330
2
100
AcDbEntity
  8
0
  6
Continuous
 62
     7
100
AcDbCircle
 10
333.4425241075861
 20
220.0222074601026
 30
0.0
 40
1.502601910021413
100
AcDbArc
 50
278.1301023541547
 51
351.8698976458443
  0
CIRCLE
  5
FD
330
2
100
AcDbEntity
  8
0
  6
Continuous
 62
     7
100
AcDbCircle
 10
294.355026063477
 20
232.1098155017555
 30
0.0
 40
1.814999999999999
  0
ARC
  5
FE
330
2
100
AcDbEntity
  8
0
  6
Continuous
 62
     7
100
AcDbCircle
 10
295.8400260634769
 20
230.6248155017553
 30
0.0
 40
1.166726188957802
100
AcDbArc
 50
98.13010235415472
 51
171.8698976458443
  0
ARC
  5
FF
330
2
100
AcDbEntity
  8
0
  6
Continuous
 62
     7
100
AcDbCircle
 10
292.8700260634769
 20
230.6248155017555
 30
0.0
 40
1.166726188957802
100
AcDbArc
 50
8.130102354155605
 51
81.86989764584527
  0
ARC
  5
100
330
2
100
AcDbEntity
  8
0
  6
Continuous
 62
     7
100
AcDbCircle
 10
292.870026063477
 20
233.5948155017556
 30
0.0
 40
1.166726188957802
100
AcDbArc
 50
278.1301023541547
 51
351.8698976458443
  0
ARC
  5
101
330
2
100
AcDbEntity
  8
0
  6
Continuous
 62
     7
100
AcDbCircle
 10
295.8400260634769
 20
233.5948155017555
 30
0.0
 40
1.166726188957802
100
AcDbArc
 50
188.1301023541556
 51
261.8698976458453
  0
CIRCLE
  5
102
330
2
100
AcDbEntity
  8
0
  6
Continuous
 62
     7
100
AcDbCircle
 10
336.3549626153711
 20
232.1098155017555
 30
0.0
 40
1.814999999999999
  0
ARC
  5
103
330
2
100
AcDbEntity
  8
0
  6
Continuous
 62
     7
100
AcDbCircle
 10
337.8399626153711
 20
230.6248155017553
 30
0.0
 40
1.166726188957802
100
AcDbArc
 50
98.13010235415472
 51
171.8698976458443
  0
ARC
  5
104
330
2
100
AcDbEntity
  8
0
  6
Continuous
 62
     7
100
AcDbCircle
 10
334.8699626153709
 20
230.6248155017555
 30
0.0
 40
1.166726188957802
100
AcDbArc
 50
8.130102354155605
 51
81.86989764584527
  0
ARC
  5
105
330
2
100
AcDbEntity
  8
0
  6
Continuous
 62
     7
100
AcDbCircle
 10
334.869962615371
 20
233.5948155017556
 30
0.0
 40
1.166726188957802
100
AcDbArc
 50
278.1301023541547
 51
351.8698976458443
  0
ARC
  5
106
330
2
100
AcDbEntity
  8
0
  6
Continuous
 62
     7
100
AcDbCircle
 10
337.8399626153711
 20
233.5948155017555
 30
0.0
 40
1.166726188957802
100
AcDbArc
 50
188.1301023541556
 51
261.8698976458453
  0
LINE
  5
107
330
2
100
AcDbEntity
  8
0
  6
Continuous
 62
     7
100
AcDbLine
 10
214.257223007765
 20
107.6114883730728
 30
0.0
 11
214.257223007765
 21
41.60778168170106
 31
0.0
  0
LINE
  5
108
330
2
100
AcDbEntity
  8
0
  6
CENTER
 62
     4
 48
2.0
100
AcDbLine
 10
164.757223007765
 20
82.89308238816058
 30
0.0
 11
164.757223007765
 21
66.3930823881606
 31
0.0
  0
CIRCLE
  5
109
330
2
100
AcDbEntity
  8
0
  6
Continuous
 62
     7
100
AcDbCircle
 10
129.757223007765
 20
89.60963502738698
 30
0.0
 40
2.000380211068724
  0
CIRCLE
  5
10A
330
2
100
AcDbEntity
  8
0
  6
Continuous
 62
     7
100
AcDbCircle
 10
129.757223007765
 20
89.60963502738698
 30
0.0
 40
1.500188259434509
  0
CIRCLE
  5
10B
330
2
100
AcDbEntity
  8
0
  6
Continuous
 62
     7
100
AcDbCircle
 10
129.757223007765
 20
59.60963502738697
 30
0.0
 40
1.500188259434509
  0
CIRCLE
  5
10C
330
2
100
AcDbEntity
  8
0
  6
Continuous
 62
     7
100
AcDbCircle
 10
129.757223007765
 20
59.60963502738697
 30
0.0
 40
2.000380211068724
  0
CIRCLE
  5
10D
330
2
100
AcDbEntity
  8
0
  6
Continuous
 62
     7
100
AcDbCircle
 10
199.757223007765
 20
59.60963502738697
 30
0.0
 40
2.000380211068724
  0
CIRCLE
  5
10E
330
2
100
AcDbEntity
  8
0
  6
Continuous
 62
     7
100
AcDbCircle
 10
199.757223007765
 20
59.60963502738697
 30
0.0
 40
1.500188259434509
  0
LINE
  5
10F
330
2
100
AcDbEntity
  8
0
  6
CENTER
 62
     4
 48
2.0
100
AcDbLine
 10
129.757223007765
 20
93.8930823881606
 30
0.0
 11
129.757223007765
 21
85.32618766661334
 31
0.0
  0
LINE
  5
110
330
2
100
AcDbEntity
  8
0
  6
CENTER
 62
     4
 48
2.0
100
AcDbLine
 10
125.4737756469914
 20
89.6096350309461
 30
0.0
 11
134.0406703685386
 21
89.6096350309461
 31
0.0
  0
LINE
  5
111
330
2
100
AcDbEntity
  8
0
  6
CENTER
 62
     4
 48
2.0
100
AcDbLine
 10
195.4737756469914
 20
89.6096350309461
 30
0.0
 11
204.0406703685386
 21
89.6096350309461
 31
0.0
  0
LINE
  5
112
330
2
100
AcDbEntity
  8
0
  6
CENTER
 62
     4
 48
2.0
100
AcDbLine
 10
199.757223007765
 20
93.8930823881606
 30
0.0
 11
199.757223007765
 21
85.32618766661334
 31
0.0
  0
LINE
  5
113
330
2
100
AcDbEntity
  8
0
  6
CENTER
 62
     4
 48
2.0
100
AcDbLine
 10
125.4737756469914
 20
59.60963503094607
 30
0.0
 11
134.0406703685386
 21
59.60963503094607
 31
0.0
  0
LINE
  5
114
330
2
100
AcDbEntity
  8
0
  6
CENTER
 62
     4
 48
2.0
100
AcDbLine
 10
129.757223007765
 20
63.8930823881606
 30
0.0
 11
129.757223007765
 21
55.32618766661335
 31
0.0
  0
LINE
  5
115
330
2
100
AcDbEntity
  8
0
  6
CENTER
 62
     4
 48
2.0
100
AcDbLine
 10
195.4737756469914
 20
59.60963503094607
 30
0.0
 11
204.0406703685386
 21
59.60963503094607
 31
0.0
  0
LINE
  5
116
330
2
100
AcDbEntity
  8
0
  6
CENTER
 62
     4
 48
2.0
100
AcDbLine
 10
199.757223007765
 20
63.8930823881606
 30
0.0
 11
199.757223007765
 21
55.32618766661335
 31
0.0
  0
LINE
  5
117
330
2
100
AcDbEntity
  8
0
  6
CENTER
 62
     4
 48
2.0
100
AcDbLine
 10
129.757223007765
 20
138.8930823881606
 30
0.0
 11
129.757223007765
 21
130.3261876666133
 31
0.0
  0
LINE
  5
118
330
2
100
AcDbEntity
  8
0
  6
CENTER
 62
     4
 48
2.0
100
AcDbLine
 10
199.757223007765
 20
138.8930823881606
 30
0.0
 11
199.757223007765
 21
130.3261876666133
 31
0.0
  0
LINE
  5
119
330
2
100
AcDbEntity
  8
0
  6
CENTER
 62
     4
 48
2.0
100
AcDbLine
 10
164.757223007765
 20
138.8930823881606
 30
0.0
 11
164.757223007765
 21
131.5315783738703
 31
0.0
  0
LINE
  5
11A
330
2
100
AcDbEntity
  8
0
  6
Continuous
 62
     7
100
AcDbLine
 10
337.847809646413
 20
134.6096350309461
 30
0.0
 11
342.8480611804764
 21
139.6098786871119
 31
0.0
  0
LINE
  5
11B
330
2
100
AcDbEntity
  8
0
  6
Continuous
 62
     7
100
AcDbLine
 10
292.8621790324347
 20
134.6096350309461
 30
0.0
 11
287.8619274983714
 21
139.6098786871119
 31
0.0
  0
LINE
  5
11C
330
2
100
AcDbEntity
  8
0
  6
CENTER
 62
     4
 48
2.0
100
AcDbLine
 10
330.3549943394191
 20
129.1097170800613
 30
0.0
 11
330.3550008646464
 21
137.39308238648
 31
0.0
  0
LINE
  5
11D
330
2
100
AcDbEntity
  8
0
  6
CENTER
 62
     4
 48
2.0
100
AcDbLine
 10
300.3550030158651
 20
129.1097170800613
 30
0.0
 11
300.3549964906381
 21
137.39308238648
 31
0.0
  0
LINE
  5
11E
330
2
100
AcDbEntity
  8
0
  6
Continuous
 62
     7
100
AcDbLine
 10
292.8549839699617
 20
224.60979519944
 30
0.0
 11
329.3550106953132
 21
224.60979519944
 31
0.0
  0
LINE
  5
11F
330
2
100
AcDbEntity
  8
0
  6
Continuous
 62
     7
100
AcDbLine
 10
292.8549839699617
 20
239.6098194554917
 30
0.0
 11
337.8548629518721
 21
239.6098194554917
 31
0.0
  0
LINE
  5
120
330
2
100
AcDbEntity
  8
0
  6
Continuous
 62
     7
100
AcDbLine
 10
328.8550421844857
 20
229.6097709870832
 30
0.0
 11
304.855003374803
 21
229.6097709870832
 31
0.0
  0
LINE
  5
121
330
2
100
AcDbEntity
  8
0
  6
Continuous
 62
     7
100
AcDbLine
 10
304.855003374803
 20
225.6098291142175
 30
0.0
 11
328.8550421844857
 21
225.6098291142175
 31
0.0
  0
LINE
  5
122
330
2
100
AcDbEntity
  8
0
  6
Continuous
 62
     7
100
AcDbLine
 10
328.8550421844857
 20
230.109836391033
 30
0.0
 11
304.855003374803
 21
230.109836391033
 31
0.0
  0
LINE
  5
123
330
2
100
AcDbEntity
  8
0
  6
Continuous
 62
     7
100
AcDbLine
 10
304.855003374803
 20
234.1097782638987
 30
0.0
 11
328.8550421844857
 21
234.1097782638987
 31
0.0
  0
LINE
  5
124
330
2
100
AcDbEntity
  8
0
  6
Continuous
 62
     7
100
AcDbLine
 10
304.855003374803
 20
229.6097709870832
 30
0.0
 11
304.855003374803
 21
225.6098291142175
 31
0.0
  0
LINE
  5
125
330
2
100
AcDbEntity
  8
0
  6
Continuous
 62
     7
100
AcDbLine
 10
291.8550469483064
 20
238.6097855407142
 30
0.0
 11
291.8550469483064
 21
225.6098291142175
 31
0.0
  0
ARC
  5
126
330
2
100
AcDbEntity
  8
0
  6
Continuous
 62
     7
100
AcDbCircle
 10
292.8552625814349
 20
225.6100108102678
 30
0.0
 40
1.000215649631611
100
AcDbArc
 50
180.0104081723737
 51
269.9840401799868
  0
ARC
  5
127
330
2
100
AcDbEntity
  8
0
  6
Continuous
 62
     7
100
AcDbCircle
 10
292.8552625814349
 20
238.6096038446639
 30
0.0
 40
1.000215649631611
100
AcDbArc
 50
90.01595982001317
 51
179.9895918276263
  0
LINE
  5
128
330
2
100
AcDbEntity
  8
0
  6
Continuous
 62
     7
100
AcDbLine
 10
304.855003374803
 20
230.109836391033
 30
0.0
 11
304.855003374803
 21
234.1097782638987
 31
0.0
  0
LINE
  5
129
330
2
100
AcDbEntity
  8
0
  6
Continuous
 62
     7
100
AcDbLine
 10
337.8548629518721
 20
229.1098024762555
 30
0.0
 11
332.3550155465237
 21
229.1098024762555
 31
0.0
  0
ARC
  5
12A
330
2
100
AcDbEntity
  8
0
  6
Continuous
 62
     7
100
AcDbCircle
 10
332.355378921179
 20
227.1093712520934
 30
0.0
 40
2.000431257165244
100
AcDbArc
 50
90.01040767293483
 51
179.9868165704831
  0
LINE
  5
12B
330
2
100
AcDbEntity
  8
0
  6
Continuous
 62
     7
100
AcDbLine
 10
328.8550421844857
 20
225.6098291142175
 30
0.0
 11
328.8550421844857
 21
229.6097709870832
 31
0.0
  0
ARC
  5
12C
330
2
100
AcDbEntity
  8
0
  6
Continuous
 62
     7
100
AcDbCircle
 10
329.3550629653687
 20
225.6096799607983
 30
0.0
 40
0.9998847627245387
100
AcDbArc
 50
269.9970048012714
 51
0.0085468463681898
  0
LINE
  5
12D
330
2
100
AcDbEntity
  8
0
  6
Continuous
 62
     7
100
AcDbLine
 10
330.3549477169686
 20
225.6098291142175
 30
0.0
 11
330.3549477169686
 21
227.1098315398227
 31
0.0
  0
LINE
  5
12E
330
2
100
AcDbEntity
  8
0
  6
Continuous
 62
     7
100
AcDbLine
 10
328.8550421844857
 20
234.1097782638987
 30
0.0
 11
328.8550421844857
 21
230.109836391033
 31
0.0
  0
LINE
  5
12F
330
2
100
AcDbEntity
  8
0
  6
Continuous
 62
     7
100
AcDbLine
 10
338.8549937597719
 20
238.6097855407142
 30
0.0
 11
338.8549937597719
 21
230.109836391033
 31
0.0
  0
ARC
  5
130
330
2
100
AcDbEntity
  8
0
  6
Continuous
 62
     7
100
AcDbCircle
 10
337.8551089588473
 20
230.1096872580385
 30
0.0
 40
0.9998848120461627
100
AcDbArc
 50
269.9859032146677
 51
0.0085456755657961
  0
ARC
  5
131
330
2
100
AcDbEntity
  8
0
  6
Continuous
 62
     7
100
AcDbCircle
 10
337.8551089588473
 20
238.6099346737086
 30
0.0
 40
0.999884812046154
100
AcDbArc
 50
359.9914543244342
 51
90.01409678533228
  0
LINE
  5
132
330
2
100
AcDbEntity
  8
0
  6
CENTER
 62
     4
 48
2.0
100
AcDbLine
 10
315.3550281571315
 20
127.0391812535783
 30
0.0
 11
315.3550879110985
 21
247.893083174162
 31
0.0
  0
LINE
  5
133
330
2
100
AcDbEntity
  8
0
  6
Continuous
 62
     7
100
AcDbLine
 10
179.0844700223816
 20
206.0846874557235
 30
0.0
 11
174.7719509371266
 21
206.0846874557235
 31
0.0
  0
LINE
  5
134
330
2
100
AcDbEntity
  8
0
  6
Continuous
 62
     7
100
AcDbLine
 10
178.7093967461387
 20
205.5846220517736
 30
0.0
 11
174.2719824262989
 21
205.5846220517736
 31
0.0
  0
LINE
  5
135
330
2
100
AcDbEntity
  8
0
  6
Continuous
 62
     7
100
AcDbLine
 10
178.3719180013299
 20
205.084653540946
 30
0.0
 11
173.7720139154712
 21
205.084653540946
 31
0.0
  0
LINE
  5
136
330
2
100
AcDbEntity
  8
0
  6
Continuous
 62
     7
100
AcDbLine
 10
178.0719368948334
 20
204.5846850301184
 30
0.0
 11
173.4384108955526
 21
204.5846850301184
 31
0.0
  0
LINE
  5
137
330
2
100
AcDbEntity
  8
0
  6
Continuous
 62
     7
100
AcDbLine
 10
177.7719557883366
 20
204.0846196261684
 30
0.0
 11
173.1049047687564
 21
204.0846196261684
 31
0.0
  0
LINE
  5
138
330
2
100
AcDbEntity
  8
0
  6
Continuous
 62
     7
100
AcDbLine
 10
177.2994080311069
 20
203.0846826045132
 30
0.0
 11
172.4244243711707
 21
203.0846826045132
 31
0.0
  0
LINE
  5
139
330
2
100
AcDbEntity
  8
0
  6
Continuous
 62
     7
100
AcDbLine
 10
177.0630857059308
 20
202.5846172005633
 30
0.0
 11
172.1469224690369
 21
202.5846172005633
 31
0.0
  0
LINE
  5
13A
330
2
100
AcDbEntity
  8
0
  6
Continuous
 62
     7
100
AcDbLine
 10
176.9084442828143
 20
202.0846486897357
 30
0.0
 11
171.8969382136231
 21
202.0846486897357
 31
0.0
  0
LINE
  5
13B
330
2
100
AcDbEntity
  8
0
  6
Continuous
 62
     7
100
AcDbLine
 10
176.753802859698
 20
201.584680178908
 30
0.0
 11
171.6606158884469
 21
201.584680178908
 31
0.0
  0
LINE
  5
13C
330
2
100
AcDbEntity
  8
0
  6
Continuous
 62
     7
100
AcDbLine
 10
176.5992583297036
 20
201.0846147749581
 30
0.0
 11
171.4243904563932
 21
201.0846147749581
 31
0.0
  0
LINE
  5
13D
330
2
100
AcDbEntity
  8
0
  6
Continuous
 62
     7
100
AcDbLine
 10
173.7719170223488
 20
205.0845566478238
 30
0.0
 11
175.3969115756611
 21
206.7095512011358
 31
0.0
  0
LINE
  5
13E
330
2
100
AcDbEntity
  8
0
  6
Continuous
 62
     7
100
AcDbLine
 10
177.5356334631608
 20
203.5846511153409
 30
0.0
 11
172.7506635137979
 21
203.5846511153409
 31
0.0
  0
LINE
  5
13F
330
2
100
AcDbEntity
  8
0
  6
Continuous
 62
     7
100
AcDbLine
 10
174.8968461717112
 20
189.0845953701169
 30
0.0
 11
174.3968776608834
 21
189.4595717532375
 31
0.0
  0
LINE
  5
140
330
2
100
AcDbEntity
  8
0
  6
Continuous
 62
     7
100
AcDbLine
 10
177.870302307424
 20
190.0846292848944
 30
0.0
 11
173.6467311083976
 21
190.0846292848944
 31
0.0
  0
LINE
  5
141
330
2
100
AcDbEntity
  8
0
  6
Continuous
 62
     7
100
AcDbLine
 10
178.507277693118
 20
189.5846607740667
 30
0.0
 11
174.2301245974854
 21
189.5846607740667
 31
0.0
  0
LINE
  5
142
330
2
100
AcDbEntity
  8
0
  6
Continuous
 62
     7
100
AcDbLine
 10
176.459441554292
 20
200.5846462641305
 30
0.0
 11
171.3051150228991
 21
200.5846462641305
 31
0.0
  0
LINE
  5
143
330
2
100
AcDbEntity
  8
0
  6
Continuous
 62
     7
100
AcDbLine
 10
176.3343525334628
 20
200.0846777533029
 30
0.0
 11
171.1468885542593
 21
200.0846777533029
 31
0.0
  0
LINE
  5
144
330
2
100
AcDbEntity
  8
0
  6
Continuous
 62
     7
100
AcDbLine
 10
176.209360405756
 20
199.5846123493528
 30
0.0
 11
171.0133698317942
 21
199.5846123493528
 31
0.0
  0
LINE
  5
145
330
2
100
AcDbEntity
  8
0
  6
Continuous
 62
     7
100
AcDbLine
 10
176.0687684853662
 20
199.0846438385253
 30
0.0
 11
170.8798511093288
 21
199.0846438385253
 31
0.0
  0
LINE
  5
146
330
2
100
AcDbEntity
  8
0
  6
Continuous
 62
     7
100
AcDbLine
 10
175.9749759430249
 20
198.5846753276977
 30
0.0
 11
170.7645482938474
 21
198.5846753276977
 31
0.0
  0
LINE
  5
147
330
2
100
AcDbEntity
  8
0
  6
Continuous
 62
     7
100
AcDbLine
 10
175.8812802938059
 20
198.0846099237478
 30
0.0
 11
170.6674613853495
 21
198.0846099237478
 31
0.0
  0
LINE
  5
148
330
2
100
AcDbEntity
  8
0
  6
Continuous
 62
     7
100
AcDbLine
 10
175.7874877514645
 20
197.5846414129201
 30
0.0
 11
170.6629074086036
 21
197.5846414129201
 31
0.0
  0
LINE
  5
149
330
2
100
AcDbEntity
  8
0
  6
Continuous
 62
     7
100
AcDbLine
 10
175.6937921022454
 20
197.0846729020925
 30
0.0
 11
170.6583534318577
 21
197.0846729020925
 31
0.0
  0
LINE
  5
14A
330
2
100
AcDbEntity
  8
0
  6
Continuous
 62
     7
100
AcDbLine
 10
175.6290674965803
 20
196.5847043912648
 30
0.0
 11
170.6537025619894
 21
196.5847043912648
 31
0.0
  0
LINE
  5
14B
330
2
100
AcDbEntity
  8
0
  6
Continuous
 62
     7
100
AcDbLine
 10
175.5933139344687
 20
196.084638987315
 30
0.0
 11
170.6491485852434
 21
196.084638987315
 31
0.0
  0
LINE
  5
14C
330
2
100
AcDbEntity
  8
0
  6
Continuous
 62
     7
100
AcDbLine
 10
175.5575603723572
 20
195.5846704764874
 30
0.0
 11
170.6842238954993
 21
195.5846704764874
 31
0.0
  0
LINE
  5
14D
330
2
100
AcDbEntity
  8
0
  6
Continuous
 62
     7
100
AcDbLine
 10
175.521903703368
 20
195.0847019656596
 30
0.0
 11
170.7589284927567
 21
195.0847019656596
 31
0.0
  0
LINE
  5
14E
330
2
100
AcDbEntity
  8
0
  6
Continuous
 62
     7
100
AcDbLine
 10
175.5801364698422
 20
194.5846365617099
 30
0.0
 11
170.833633090014
 21
194.5846365617099
 31
0.0
  0
LINE
  5
14F
330
2
100
AcDbEntity
  8
0
  6
Continuous
 62
     7
100
AcDbLine
 10
175.6383692363165
 20
194.0846680508822
 30
0.0
 11
170.9902123755755
 21
194.0846680508822
 31
0.0
  0
LINE
  5
150
330
2
100
AcDbEntity
  8
0
  6
Continuous
 62
     7
100
AcDbLine
 10
175.7438858464504
 20
193.5846995400545
 30
0.0
 11
171.1468885542593
 21
193.5846995400545
 31
0.0
  0
LINE
  5
151
330
2
100
AcDbEntity
  8
0
  6
Continuous
 62
     7
100
AcDbLine
 10
175.8968800864884
 20
193.0846341361047
 30
0.0
 11
171.3968728096732
 21
193.0846341361047
 31
0.0
  0
LINE
  5
152
330
2
100
AcDbEntity
  8
0
  6
Continuous
 62
     7
100
AcDbLine
 10
176.0635362567644
 20
192.584665625277
 30
0.0
 11
171.6468570650869
 21
192.584665625277
 31
0.0
  0
LINE
  5
153
330
2
100
AcDbEntity
  8
0
  6
Continuous
 62
     7
100
AcDbLine
 10
176.289684804104
 20
192.0846971144494
 30
0.0
 11
171.9633100023667
 21
192.0846971144494
 31
0.0
  0
LINE
  5
154
330
2
100
AcDbEntity
  8
0
  6
Continuous
 62
     7
100
AcDbLine
 10
176.5754226216294
 20
191.5846317104995
 30
0.0
 11
172.2797629396464
 21
191.5846317104995
 31
0.0
  0
LINE
  5
155
330
2
100
AcDbEntity
  8
0
  6
Continuous
 62
     7
100
AcDbLine
 10
176.9804358726487
 20
191.0846631996719
 30
0.0
 11
172.67421484034
 21
191.0846631996719
 31
0.0
  0
LINE
  5
156
330
2
100
AcDbEntity
  8
0
  6
Continuous
 62
     7
100
AcDbLine
 10
177.4253690900364
 20
190.5846946888442
 30
0.0
 11
173.1467625975699
 21
190.5846946888442
 31
0.0
  0
LINE
  5
157
330
2
100
AcDbEntity
  8
0
  6
Continuous
 62
     7
100
AcDbLine
 10
168.5218600861698
 20
188.3345457107531
 30
0.0
 11
169.3969018732404
 21
187.9595693276324
 31
0.0
  0
LINE
  5
158
330
2
100
AcDbEntity
  8
0
  6
Continuous
 62
     7
100
AcDbLine
 10
156.8969139575713
 20
188.4595378384599
 30
0.0
 11
157.646866723813
 21
188.0845614553393
 31
0.0
  0
LINE
  5
159
330
2
100
AcDbEntity
  8
0
  6
Continuous
 62
     7
100
AcDbLine
 10
162.8969236599921
 20
187.5845929445117
 30
0.0
 11
159.7719266810749
 21
198.7095705622823
 31
0.0
  0
LINE
  5
15A
330
2
100
AcDbEntity
  8
0
  6
Continuous
 62
     7
100
AcDbLine
 10
146.896865489163
 20
188.3345457107531
 30
0.0
 11
147.8968994039404
 21
187.8345771999255
 31
0.0
  0
LINE
  5
15B
330
2
100
AcDbEntity
  8
0
  6
Continuous
 62
     7
100
AcDbLine
 10
149.3969018295456
 20
188.0845614553393
 30
0.0
 11
149.8969672334955
 21
188.3345457107531
 31
0.0
  0
LINE
  5
15C
330
2
100
AcDbEntity
  8
0
  6
Continuous
 62
     7
100
AcDbLine
 10
138.3969163394819
 20
188.0845614553393
 30
0.0
 11
139.3969502542593
 21
188.3345457107531
 31
0.0
  0
LINE
  5
15D
330
2
100
AcDbEntity
  8
0
  6
Continuous
 62
     7
100
AcDbLine
 10
147.8968994039404
 20
187.5845929445117
 30
0.0
 11
137.8969478286542
 21
187.5845929445117
 31
0.0
  0
LINE
  5
15E
330
2
100
AcDbEntity
  8
0
  6
Continuous
 62
     7
100
AcDbLine
 10
147.3967371068684
 20
188.0847552415838
 30
0.0
 11
138.3971101257264
 21
188.0847552415838
 31
0.0
  0
LINE
  5
15F
330
2
100
AcDbEntity
  8
0
  6
Continuous
 62
     7
100
AcDbLine
 10
137.8969478286542
 20
187.8345771999255
 30
0.0
 11
138.3969163394819
 21
188.0845614553393
 31
0.0
  0
LINE
  5
160
330
2
100
AcDbEntity
  8
0
  6
Continuous
 62
     7
100
AcDbLine
 10
137.8969478286542
 20
187.5845929445117
 30
0.0
 11
137.8969478286542
 21
187.8345771999255
 31
0.0
  0
LINE
  5
161
330
2
100
AcDbEntity
  8
0
  6
Continuous
 62
     7
100
AcDbLine
 10
158.3969163831766
 20
187.5845929445117
 30
0.0
 11
148.8969333187181
 21
187.5845929445117
 31
0.0
  0
LINE
  5
162
330
2
100
AcDbEntity
  8
0
  6
Continuous
 62
     7
100
AcDbLine
 10
157.6466729375684
 20
188.0847552415838
 30
0.0
 11
149.39709561579
 21
188.0847552415838
 31
0.0
  0
LINE
  5
163
330
2
100
AcDbEntity
  8
0
  6
Continuous
 62
     7
100
AcDbLine
 10
147.8968994039404
 20
187.8345771999255
 30
0.0
 11
147.8968994039404
 21
187.5845929445117
 31
0.0
  0
LINE
  5
164
330
2
100
AcDbEntity
  8
0
  6
Continuous
 62
     7
100
AcDbLine
 10
148.8969333187181
 20
187.5845929445117
 30
0.0
 11
148.8969333187181
 21
187.8345771999255
 31
0.0
  0
LINE
  5
165
330
2
100
AcDbEntity
  8
0
  6
Continuous
 62
     7
100
AcDbLine
 10
148.8969333187181
 20
187.8345771999255
 30
0.0
 11
149.3969018295456
 21
188.0845614553393
 31
0.0
  0
LINE
  5
166
330
2
100
AcDbEntity
  8
0
  6
Continuous
 62
     7
100
AcDbLine
 10
157.646866723813
 20
188.0845614553393
 30
0.0
 11
158.3969163831766
 21
187.8345771999255
 31
0.0
  0
LINE
  5
167
330
2
100
AcDbEntity
  8
0
  6
Continuous
 62
     7
100
AcDbLine
 10
158.3969163831766
 20
187.8345771999255
 30
0.0
 11
158.3969163831766
 21
187.5845929445117
 31
0.0
  0
LINE
  5
168
330
2
100
AcDbEntity
  8
0
  6
Continuous
 62
     7
100
AcDbLine
 10
169.6468861286543
 20
187.5845929445117
 30
0.0
 11
162.8969236599921
 21
187.5845929445117
 31
0.0
  0
LINE
  5
169
330
2
100
AcDbEntity
  8
0
  6
Continuous
 62
     7
100
AcDbLine
 10
169.1049628958908
 20
188.0847552415838
 30
0.0
 11
162.7564286327247
 21
188.0847552415838
 31
0.0
  0
LINE
  5
16A
330
2
100
AcDbEntity
  8
0
  6
Continuous
 62
     7
100
AcDbLine
 10
169.3969018732404
 20
187.9595693276324
 30
0.0
 11
169.6468861286543
 21
187.8345771999255
 31
0.0
  0
LINE
  5
16B
330
2
100
AcDbEntity
  8
0
  6
Continuous
 62
     7
100
AcDbLine
 10
169.6468861286543
 20
187.8345771999255
 30
0.0
 11
169.6468861286543
 21
187.5845929445117
 31
0.0
  0
LINE
  5
16C
330
2
100
AcDbEntity
  8
0
  6
Continuous
 62
     7
100
AcDbLine
 10
145.8969284675077
 20
209.3344827761032
 30
0.0
 11
145.146878808144
 21
209.584467031517
 31
0.0
  0
LINE
  5
16D
330
2
100
AcDbEntity
  8
0
  6
Continuous
 62
     7
100
AcDbLine
 10
150.2631263424911
 20
205.5846220517736
 30
0.0
 11
145.5340637246686
 21
205.5846220517736
 31
0.0
  0
LINE
  5
16E
330
2
100
AcDbEntity
  8
0
  6
Continuous
 62
     7
100
AcDbLine
 10
150.1223406358569
 20
205.084653540946
 30
0.0
 11
145.3891116137775
 21
205.084653540946
 31
0.0
  0
LINE
  5
16F
330
2
100
AcDbEntity
  8
0
  6
Continuous
 62
     7
100
AcDbLine
 10
149.9814580361005
 20
204.5846850301184
 30
0.0
 11
145.2442563960087
 21
204.5846850301184
 31
0.0
  0
LINE
  5
170
330
2
100
AcDbEntity
  8
0
  6
Continuous
 62
     7
100
AcDbLine
 10
149.840575436344
 20
204.0846196261684
 30
0.0
 11
145.0993042851175
 21
204.0846196261684
 31
0.0
  0
LINE
  5
171
330
2
100
AcDbEntity
  8
0
  6
Continuous
 62
     7
100
AcDbLine
 10
149.6997897297099
 20
203.5846511153409
 30
0.0
 11
144.9544490673487
 21
203.5846511153409
 31
0.0
  0
LINE
  5
172
330
2
100
AcDbEntity
  8
0
  6
Continuous
 62
     7
100
AcDbLine
 10
149.5589071299532
 20
203.0846826045132
 30
0.0
 11
144.8094969564575
 21
203.0846826045132
 31
0.0
  0
LINE
  5
173
330
2
100
AcDbEntity
  8
0
  6
Continuous
 62
     7
100
AcDbLine
 10
149.4180245301968
 20
202.5846172005633
 30
0.0
 11
144.6645448455665
 21
202.5846172005633
 31
0.0
  0
LINE
  5
174
330
2
100
AcDbEntity
  8
0
  6
Continuous
 62
     7
100
AcDbLine
 10
149.2772388235627
 20
202.0846486897357
 30
0.0
 11
144.5196896277975
 21
202.0846486897357
 31
0.0
  0
LINE
  5
175
330
2
100
AcDbEntity
  8
0
  6
Continuous
 62
     7
100
AcDbLine
 10
149.136356223806
 20
201.584680178908
 30
0.0
 11
144.3747375169064
 21
201.584680178908
 31
0.0
  0
LINE
  5
176
330
2
100
AcDbEntity
  8
0
  6
Continuous
 62
     7
100
AcDbLine
 10
148.9955705171719
 20
201.0846147749581
 30
0.0
 11
144.2298822991376
 21
201.0846147749581
 31
0.0
  0
LINE
  5
177
330
2
100
AcDbEntity
  8
0
  6
Continuous
 62
     7
100
AcDbLine
 10
144.1469417864887
 20
210.0845324354668
 30
0.0
 11
154.146893361775
 21
210.0845324354668
 31
0.0
  0
LINE
  5
178
330
2
100
AcDbEntity
  8
0
  6
Continuous
 62
     7
100
AcDbLine
 10
153.6475062096808
 20
209.5846608177615
 30
0.0
 11
145.1463943425328
 21
209.5846608177615
 31
0.0
  0
LINE
  5
179
330
2
100
AcDbEntity
  8
0
  6
Continuous
 62
     7
100
AcDbLine
 10
148.8546879174155
 20
200.5846462641305
 30
0.0
 11
144.0849301882465
 21
200.5846462641305
 31
0.0
  0
LINE
  5
17A
330
2
100
AcDbEntity
  8
0
  6
Continuous
 62
     7
100
AcDbLine
 10
148.713805317659
 20
200.0846777533029
 30
0.0
 11
143.9400749704776
 21
200.0846777533029
 31
0.0
  0
LINE
  5
17B
330
2
100
AcDbEntity
  8
0
  6
Continuous
 62
     7
100
AcDbLine
 10
148.5730196110248
 20
199.5846123493528
 30
0.0
 11
143.7951228595864
 21
199.5846123493528
 31
0.0
  0
LINE
  5
17C
330
2
100
AcDbEntity
  8
0
  6
Continuous
 62
     7
100
AcDbLine
 10
148.4321370112683
 20
199.0846438385253
 30
0.0
 11
143.6502676418176
 21
199.0846438385253
 31
0.0
  0
LINE
  5
17D
330
2
100
AcDbEntity
  8
0
  6
Continuous
 62
     7
100
AcDbLine
 10
148.1504687048778
 20
198.0846099237478
 30
0.0
 11
143.3603634200353
 21
198.0846099237478
 31
0.0
  0
LINE
  5
17E
330
2
100
AcDbEntity
  8
0
  6
Continuous
 62
     7
100
AcDbLine
 10
148.0095861051212
 20
197.5846414129201
 30
0.0
 11
143.2155082022665
 21
197.5846414129201
 31
0.0
  0
LINE
  5
17F
330
2
100
AcDbEntity
  8
0
  6
Continuous
 62
     7
100
AcDbLine
 10
147.868800398487
 20
197.0846729020925
 30
0.0
 11
143.0705560913754
 21
197.0846729020925
 31
0.0
  0
LINE
  5
180
330
2
100
AcDbEntity
  8
0
  6
Continuous
 62
     7
100
AcDbLine
 10
147.7279177987304
 20
196.5847043912648
 30
0.0
 11
142.9257008736065
 21
196.5847043912648
 31
0.0
  0
LINE
  5
181
330
2
100
AcDbEntity
  8
0
  6
Continuous
 62
     7
100
AcDbLine
 10
147.587035198974
 20
196.084638987315
 30
0.0
 11
142.7807487627156
 21
196.084638987315
 31
0.0
  0
LINE
  5
182
330
2
100
AcDbEntity
  8
0
  6
Continuous
 62
     7
100
AcDbLine
 10
147.4462494923398
 20
195.5846704764874
 30
0.0
 11
142.6358935449466
 21
195.5846704764874
 31
0.0
  0
LINE
  5
183
330
2
100
AcDbEntity
  8
0
  6
Continuous
 62
     7
100
AcDbLine
 10
147.3053668925834
 20
195.0847019656596
 30
0.0
 11
142.4909414340556
 21
195.0847019656596
 31
0.0
  0
LINE
  5
184
330
2
100
AcDbEntity
  8
0
  6
Continuous
 62
     7
100
AcDbLine
 10
147.1645811859489
 20
194.5846365617099
 30
0.0
 11
142.3460862162866
 21
194.5846365617099
 31
0.0
  0
LINE
  5
185
330
2
100
AcDbEntity
  8
0
  6
Continuous
 62
     7
100
AcDbLine
 10
147.0236985861927
 20
194.0846680508822
 30
0.0
 11
142.2011341053954
 21
194.0846680508822
 31
0.0
  0
LINE
  5
186
330
2
100
AcDbEntity
  8
0
  6
Continuous
 62
     7
100
AcDbLine
 10
146.8828159864361
 20
193.5846995400545
 30
0.0
 11
142.0562788876267
 21
193.5846995400545
 31
0.0
  0
LINE
  5
187
330
2
100
AcDbEntity
  8
0
  6
Continuous
 62
     7
100
AcDbLine
 10
146.7420302798019
 20
193.0846341361047
 30
0.0
 11
141.9113267767355
 21
193.0846341361047
 31
0.0
  0
LINE
  5
188
330
2
100
AcDbEntity
  8
0
  6
Continuous
 62
     7
100
AcDbLine
 10
146.6011476800454
 20
192.584665625277
 30
0.0
 11
141.7663746658445
 21
192.584665625277
 31
0.0
  0
LINE
  5
189
330
2
100
AcDbEntity
  8
0
  6
Continuous
 62
     7
100
AcDbLine
 10
146.4603619734113
 20
192.0846971144494
 30
0.0
 11
141.6215194480755
 21
192.0846971144494
 31
0.0
  0
LINE
  5
18A
330
2
100
AcDbEntity
  8
0
  6
Continuous
 62
     7
100
AcDbLine
 10
146.3194793736549
 20
191.5846317104995
 30
0.0
 11
141.4765673371844
 21
191.5846317104995
 31
0.0
  0
LINE
  5
18B
330
2
100
AcDbEntity
  8
0
  6
Continuous
 62
     7
100
AcDbLine
 10
146.1785967738983
 20
191.0846631996719
 30
0.0
 11
141.3317121194155
 21
191.0846631996719
 31
0.0
  0
LINE
  5
18C
330
2
100
AcDbEntity
  8
0
  6
Continuous
 62
     7
100
AcDbLine
 10
146.0378110672641
 20
190.5846946888442
 30
0.0
 11
141.1867600085245
 21
190.5846946888442
 31
0.0
  0
LINE
  5
18D
330
2
100
AcDbEntity
  8
0
  6
Continuous
 62
     7
100
AcDbLine
 10
148.2913513046342
 20
198.5846753276977
 30
0.0
 11
143.5053155309265
 21
198.5846753276977
 31
0.0
  0
LINE
  5
18E
330
2
100
AcDbEntity
  8
0
  6
Continuous
 62
     7
100
AcDbLine
 10
145.8969284675077
 20
190.0846292848944
 30
0.0
 11
141.0419047907556
 21
190.0846292848944
 31
0.0
  0
LINE
  5
18F
330
2
100
AcDbEntity
  8
0
  6
Continuous
 62
     7
100
AcDbLine
 10
145.8969284675077
 20
189.5846607740667
 30
0.0
 11
140.8969526798645
 21
189.5846607740667
 31
0.0
  0
LINE
  5
190
330
2
100
AcDbEntity
  8
0
  6
Continuous
 62
     7
100
AcDbLine
 10
146.0218237020923
 20
189.084692263239
 30
0.0
 11
140.6469684244507
 21
189.084692263239
 31
0.0
  0
LINE
  5
191
330
2
100
AcDbEntity
  8
0
  6
Continuous
 62
     7
100
AcDbLine
 10
146.52179221292
 20
188.5846268592891
 30
0.0
 11
139.8971125513316
 21
188.5846268592891
 31
0.0
  0
LINE
  5
192
330
2
100
AcDbEntity
  8
0
  6
Continuous
 62
     7
100
AcDbLine
 10
140.8969526798645
 20
189.5845638809444
 30
0.0
 11
146.374223987728
 21
208.4837611627181
 31
0.0
  0
LINE
  5
193
330
2
100
AcDbEntity
  8
0
  6
Continuous
 62
     7
100
AcDbLine
 10
140.6469684244507
 20
189.0845953701169
 30
0.0
 11
140.8969526798645
 21
189.5845638809444
 31
0.0
  0
LINE
  5
194
330
2
100
AcDbEntity
  8
0
  6
Continuous
 62
     7
100
AcDbLine
 10
139.3969502542593
 20
188.3345457107531
 30
0.0
 11
139.8969187650871
 21
188.584529966167
 31
0.0
  0
LINE
  5
195
330
2
100
AcDbEntity
  8
0
  6
Continuous
 62
     7
100
AcDbLine
 10
139.8969187650871
 20
188.584529966167
 30
0.0
 11
140.6469684244507
 21
189.0845953701169
 31
0.0
  0
LINE
  5
196
330
2
100
AcDbEntity
  8
0
  6
Continuous
 62
     7
100
AcDbLine
 10
145.146878808144
 20
209.584467031517
 30
0.0
 11
144.1469417864887
 21
209.8680732003528
 31
0.0
  0
LINE
  5
197
330
2
100
AcDbEntity
  8
0
  6
Continuous
 62
     7
100
AcDbLine
 10
144.1469417864887
 20
209.8680732003528
 30
0.0
 11
144.1469417864887
 21
210.0845324354668
 31
0.0
  0
LINE
  5
198
330
2
100
AcDbEntity
  8
0
  6
Continuous
 62
     7
100
AcDbLine
 10
160.5817593968688
 20
205.084653540946
 30
0.0
 11
155.2669778550245
 21
205.084653540946
 31
0.0
  0
LINE
  5
199
330
2
100
AcDbEntity
  8
0
  6
Continuous
 62
     7
100
AcDbLine
 10
160.4295403018088
 20
204.5846850301184
 30
0.0
 11
155.1202816679326
 21
204.5846850301184
 31
0.0
  0
LINE
  5
19A
330
2
100
AcDbEntity
  8
0
  6
Continuous
 62
     7
100
AcDbLine
 10
160.2774180998708
 20
204.0846196261684
 30
0.0
 11
154.9735854808411
 21
204.0846196261684
 31
0.0
  0
LINE
  5
19B
330
2
100
AcDbEntity
  8
0
  6
Continuous
 62
     7
100
AcDbLine
 10
154.8969430211386
 20
210.0845324354668
 30
0.0
 11
164.8968945964249
 21
210.0845324354668
 31
0.0
  0
LINE
  5
19C
330
2
100
AcDbEntity
  8
0
  6
Continuous
 62
     7
100
AcDbLine
 10
167.1466560020269
 20
209.5846608177615
 30
0.0
 11
155.3966208525994
 21
209.5846608177615
 31
0.0
  0
LINE
  5
19D
330
2
100
AcDbEntity
  8
0
  6
Continuous
 62
     7
100
AcDbLine
 10
161.0382228958048
 20
206.5846559665512
 30
0.0
 11
155.7069695231771
 21
206.5846559665512
 31
0.0
  0
LINE
  5
19E
330
2
100
AcDbEntity
  8
0
  6
Continuous
 62
     7
100
AcDbLine
 10
160.886100693867
 20
206.0846874557235
 30
0.0
 11
155.5602733360856
 21
206.0846874557235
 31
0.0
  0
LINE
  5
19F
330
2
100
AcDbEntity
  8
0
  6
Continuous
 62
     7
100
AcDbLine
 10
160.7338815988069
 20
205.5846220517736
 30
0.0
 11
155.4135771489939
 21
205.5846220517736
 31
0.0
  0
LINE
  5
1A0
330
2
100
AcDbEntity
  8
0
  6
Continuous
 62
     7
100
AcDbLine
 10
168.3134429802027
 20
209.0845954138116
 30
0.0
 11
156.2541249845422
 21
209.0845954138116
 31
0.0
  0
LINE
  5
1A1
330
2
100
AcDbEntity
  8
0
  6
Continuous
 62
     7
100
AcDbLine
 10
161.6469054898008
 20
208.5846269029839
 30
0.0
 11
156.3167179415179
 21
208.5846269029839
 31
0.0
  0
LINE
  5
1A2
330
2
100
AcDbEntity
  8
0
  6
Continuous
 62
     7
100
AcDbLine
 10
161.4947832878629
 20
208.0846583921564
 30
0.0
 11
156.14696119133
 21
208.0846583921564
 31
0.0
  0
LINE
  5
1A3
330
2
100
AcDbEntity
  8
0
  6
Continuous
 62
     7
100
AcDbLine
 10
161.3425641928028
 20
207.5845929882064
 30
0.0
 11
156.0002650042384
 21
207.5845929882064
 31
0.0
  0
LINE
  5
1A4
330
2
100
AcDbEntity
  8
0
  6
Continuous
 62
     7
100
AcDbLine
 10
161.1904419908649
 20
207.0846244773788
 30
0.0
 11
155.8535688171465
 21
207.0846244773788
 31
0.0
  0
LINE
  5
1A5
330
2
100
AcDbEntity
  8
0
  6
Continuous
 62
     7
100
AcDbLine
 10
166.3117279675693
 20
199.5846123493528
 30
0.0
 11
153.6536104763828
 21
199.5846123493528
 31
0.0
  0
LINE
  5
1A6
330
2
100
AcDbEntity
  8
0
  6
Continuous
 62
     7
100
AcDbLine
 10
165.0238245865769
 20
199.0846438385253
 30
0.0
 11
153.5069142892911
 21
199.0846438385253
 31
0.0
  0
LINE
  5
1A7
330
2
100
AcDbEntity
  8
0
  6
Continuous
 62
     7
100
AcDbLine
 10
164.3951820093967
 20
198.5846753276977
 30
0.0
 11
159.8070019913306
 21
198.5846753276977
 31
0.0
  0
LINE
  5
1A8
330
2
100
AcDbEntity
  8
0
  6
Continuous
 62
     7
100
AcDbLine
 10
164.5595127447385
 20
198.0846099237478
 30
0.0
 11
159.9474001254757
 21
198.0846099237478
 31
0.0
  0
LINE
  5
1A9
330
2
100
AcDbEntity
  8
0
  6
Continuous
 62
     7
100
AcDbLine
 10
164.7239403732026
 20
197.5846414129201
 30
0.0
 11
160.0878951527432
 21
197.5846414129201
 31
0.0
  0
LINE
  5
1AA
330
2
100
AcDbEntity
  8
0
  6
Continuous
 62
     7
100
AcDbLine
 10
164.8882711085443
 20
197.0846729020925
 30
0.0
 11
160.2282932868885
 21
197.0846729020925
 31
0.0
  0
LINE
  5
1AB
330
2
100
AcDbEntity
  8
0
  6
Continuous
 62
     7
100
AcDbLine
 10
159.8468250645768
 20
199.8345966047668
 30
0.0
 11
161.0897700368437
 21
199.8345966047668
 31
0.0
  0
LINE
  5
1AC
330
2
100
AcDbEntity
  8
0
  6
Continuous
 62
     7
100
AcDbLine
 10
161.6469054898008
 20
208.5845300098618
 30
0.0
 11
159.0218770217111
 21
199.9595887324738
 31
0.0
  0
LINE
  5
1AD
330
2
100
AcDbEntity
  8
0
  6
Continuous
 62
     7
100
AcDbLine
 10
150.8969042551506
 20
207.834480350498
 30
0.0
 11
145.8969284675077
 21
190.0845323917722
 31
0.0
  0
LINE
  5
1AE
330
2
100
AcDbEntity
  8
0
  6
Continuous
 62
     7
100
AcDbLine
 10
150.646919999737
 20
189.3345796255306
 30
0.0
 11
156.1468642982078
 21
208.084561499034
 31
0.0
  0
LINE
  5
1AF
330
2
100
AcDbEntity
  8
0
  6
Continuous
 62
     7
100
AcDbLine
 10
158.0065339936176
 20
196.5847043912648
 30
0.0
 11
152.7736271400772
 21
196.5847043912648
 31
0.0
  0
LINE
  5
1B0
330
2
100
AcDbEntity
  8
0
  6
Continuous
 62
     7
100
AcDbLine
 10
157.8558651885136
 20
196.084638987315
 30
0.0
 11
152.6269309529856
 21
196.084638987315
 31
0.0
  0
LINE
  5
1B1
330
2
100
AcDbEntity
  8
0
  6
Continuous
 62
     7
100
AcDbLine
 10
157.7051963834094
 20
195.5846704764874
 30
0.0
 11
152.4802347658939
 21
195.5846704764874
 31
0.0
  0
LINE
  5
1B2
330
2
100
AcDbEntity
  8
0
  6
Continuous
 62
     7
100
AcDbLine
 10
157.5544306851831
 20
195.0847019656596
 30
0.0
 11
152.3336354719245
 21
195.0847019656596
 31
0.0
  0
LINE
  5
1B3
330
2
100
AcDbEntity
  8
0
  6
Continuous
 62
     7
100
AcDbLine
 10
157.403761880079
 20
194.5846365617099
 30
0.0
 11
152.1869392848327
 21
194.5846365617099
 31
0.0
  0
LINE
  5
1B4
330
2
100
AcDbEntity
  8
0
  6
Continuous
 62
     7
100
AcDbLine
 10
157.2530930749749
 20
194.0846680508822
 30
0.0
 11
152.040243097741
 21
194.0846680508822
 31
0.0
  0
LINE
  5
1B5
330
2
100
AcDbEntity
  8
0
  6
Continuous
 62
     7
100
AcDbLine
 10
157.102424269871
 20
193.5846995400545
 30
0.0
 11
151.8936438037717
 21
193.5846995400545
 31
0.0
  0
LINE
  5
1B6
330
2
100
AcDbEntity
  8
0
  6
Continuous
 62
     7
100
AcDbLine
 10
156.9517554647668
 20
193.0846341361047
 30
0.0
 11
151.74694761668
 21
193.0846341361047
 31
0.0
  0
LINE
  5
1B7
330
2
100
AcDbEntity
  8
0
  6
Continuous
 62
     7
100
AcDbLine
 10
156.8010866596628
 20
192.584665625277
 30
0.0
 11
151.6002514295884
 21
192.584665625277
 31
0.0
  0
LINE
  5
1B8
330
2
100
AcDbEntity
  8
0
  6
Continuous
 62
     7
100
AcDbLine
 10
156.6503209614364
 20
192.0846971144494
 30
0.0
 11
151.453652135619
 21
192.0846971144494
 31
0.0
  0
LINE
  5
1B9
330
2
100
AcDbEntity
  8
0
  6
Continuous
 62
     7
100
AcDbLine
 10
156.4996521563323
 20
191.5846317104995
 30
0.0
 11
151.3069559485272
 21
191.5846317104995
 31
0.0
  0
LINE
  5
1BA
330
2
100
AcDbEntity
  8
0
  6
Continuous
 62
     7
100
AcDbLine
 10
156.3489833512284
 20
191.0846631996719
 30
0.0
 11
151.1602597614355
 21
191.0846631996719
 31
0.0
  0
LINE
  5
1BB
330
2
100
AcDbEntity
  8
0
  6
Continuous
 62
     7
100
AcDbLine
 10
156.1983145461242
 20
190.5846946888442
 30
0.0
 11
151.0135635743438
 21
190.5846946888442
 31
0.0
  0
LINE
  5
1BC
330
2
100
AcDbEntity
  8
0
  6
Continuous
 62
     7
100
AcDbLine
 10
156.0476457410201
 20
190.0846292848944
 30
0.0
 11
150.8669642803745
 21
190.0846292848944
 31
0.0
  0
LINE
  5
1BD
330
2
100
AcDbEntity
  8
0
  6
Continuous
 62
     7
100
AcDbLine
 10
155.8969769359162
 20
189.5846607740667
 30
0.0
 11
150.7202680932828
 21
189.5846607740667
 31
0.0
  0
LINE
  5
1BE
330
2
100
AcDbEntity
  8
0
  6
Continuous
 62
     7
100
AcDbLine
 10
156.1468642982078
 20
189.084692263239
 30
0.0
 11
150.5735719061911
 21
189.084692263239
 31
0.0
  0
LINE
  5
1BF
330
2
100
AcDbEntity
  8
0
  6
Continuous
 62
     7
100
AcDbLine
 10
156.7301608941733
 20
188.5846268592891
 30
0.0
 11
150.1470483820316
 21
188.5846268592891
 31
0.0
  0
LINE
  5
1C0
330
2
100
AcDbEntity
  8
0
  6
Continuous
 62
     7
100
AcDbLine
 10
146.1469127229215
 20
188.834611114703
 30
0.0
 11
146.896865489163
 21
188.3345457107531
 31
0.0
  0
LINE
  5
1C1
330
2
100
AcDbEntity
  8
0
  6
Continuous
 62
     7
100
AcDbLine
 10
149.8969672334955
 20
188.3345457107531
 30
0.0
 11
150.3969357443232
 21
188.834611114703
 31
0.0
  0
LINE
  5
1C2
330
2
100
AcDbEntity
  8
0
  6
Continuous
 62
     7
100
AcDbLine
 10
150.3969357443232
 20
188.834611114703
 30
0.0
 11
150.646919999737
 21
189.3345796255306
 31
0.0
  0
LINE
  5
1C3
330
2
100
AcDbEntity
  8
0
  6
Continuous
 62
     7
100
AcDbLine
 10
145.8969284675077
 20
190.0845323917722
 30
0.0
 11
145.8969284675077
 21
189.3345796255306
 31
0.0
  0
LINE
  5
1C4
330
2
100
AcDbEntity
  8
0
  6
Continuous
 62
     7
100
AcDbLine
 10
145.8969284675077
 20
189.3345796255306
 30
0.0
 11
146.1469127229215
 21
188.834611114703
 31
0.0
  0
LINE
  5
1C5
330
2
100
AcDbEntity
  8
0
  6
Continuous
 62
     7
100
AcDbLine
 10
159.9729799097507
 20
203.0846826045132
 30
0.0
 11
154.6802899997799
 21
203.0846826045132
 31
0.0
  0
LINE
  5
1C6
330
2
100
AcDbEntity
  8
0
  6
Continuous
 62
     7
100
AcDbLine
 10
159.8208577078128
 20
202.5846172005633
 30
0.0
 11
154.5335938126883
 21
202.5846172005633
 31
0.0
  0
LINE
  5
1C7
330
2
100
AcDbEntity
  8
0
  6
Continuous
 62
     7
100
AcDbLine
 10
159.6686386127527
 20
202.0846486897357
 30
0.0
 11
154.3868976255967
 21
202.0846486897357
 31
0.0
  0
LINE
  5
1C8
330
2
100
AcDbEntity
  8
0
  6
Continuous
 62
     7
100
AcDbLine
 10
159.5165164108149
 20
201.584680178908
 30
0.0
 11
154.2402983316273
 21
201.584680178908
 31
0.0
  0
LINE
  5
1C9
330
2
100
AcDbEntity
  8
0
  6
Continuous
 62
     7
100
AcDbLine
 10
159.3642973157548
 20
201.0846147749581
 30
0.0
 11
154.0936021445356
 21
201.0846147749581
 31
0.0
  0
LINE
  5
1CA
330
2
100
AcDbEntity
  8
0
  6
Continuous
 62
     7
100
AcDbLine
 10
158.6469006385904
 20
198.7095705622823
 30
0.0
 11
155.896880042794
 21
189.5845638809444
 31
0.0
  0
LINE
  5
1CB
330
2
100
AcDbEntity
  8
0
  6
Continuous
 62
     7
100
AcDbLine
 10
155.896880042794
 20
189.5845638809444
 30
0.0
 11
156.1468642982078
 21
189.0845953701169
 31
0.0
  0
LINE
  5
1CC
330
2
100
AcDbEntity
  8
0
  6
Continuous
 62
     7
100
AcDbLine
 10
156.3969454467438
 20
188.834611114703
 30
0.0
 11
156.8969139575713
 21
188.4595378384599
 31
0.0
  0
LINE
  5
1CD
330
2
100
AcDbEntity
  8
0
  6
Continuous
 62
     7
100
AcDbLine
 10
156.1468642982078
 20
189.0845953701169
 30
0.0
 11
156.3969454467438
 21
188.834611114703
 31
0.0
  0
LINE
  5
1CE
330
2
100
AcDbEntity
  8
0
  6
Continuous
 62
     7
100
AcDbLine
 10
159.0218770217111
 20
199.9595887324738
 30
0.0
 11
159.8468250645768
 21
199.8345966047668
 31
0.0
  0
LINE
  5
1CF
330
2
100
AcDbEntity
  8
0
  6
Continuous
 62
     7
100
AcDbLine
 10
159.7719266810749
 20
198.7095705622823
 30
0.0
 11
158.6469006385904
 21
198.7095705622823
 31
0.0
  0
LINE
  5
1D0
330
2
100
AcDbEntity
  8
0
  6
Continuous
 62
     7
100
AcDbLine
 10
159.2121751138169
 20
200.5846462641305
 30
0.0
 11
153.9469059574438
 21
200.5846462641305
 31
0.0
  0
LINE
  5
1D1
330
2
100
AcDbEntity
  8
0
  6
Continuous
 62
     7
100
AcDbLine
 10
159.0599560187568
 20
200.0846777533029
 30
0.0
 11
153.8003066634744
 21
200.0846777533029
 31
0.0
  0
LINE
  5
1D2
330
2
100
AcDbEntity
  8
0
  6
Continuous
 62
     7
100
AcDbLine
 10
158.609306107156
 20
198.5846753276977
 30
0.0
 11
153.3603149953217
 21
198.5846753276977
 31
0.0
  0
LINE
  5
1D3
330
2
100
AcDbEntity
  8
0
  6
Continuous
 62
     7
100
AcDbLine
 10
158.4585404089298
 20
198.0846099237478
 30
0.0
 11
153.2136188082301
 21
198.0846099237478
 31
0.0
  0
LINE
  5
1D4
330
2
100
AcDbEntity
  8
0
  6
Continuous
 62
     7
100
AcDbLine
 10
158.3078716038258
 20
197.5846414129201
 30
0.0
 11
153.0669226211383
 21
197.5846414129201
 31
0.0
  0
LINE
  5
1D5
330
2
100
AcDbEntity
  8
0
  6
Continuous
 62
     7
100
AcDbLine
 10
158.1572027987215
 20
197.0846729020925
 30
0.0
 11
152.9203233271689
 21
197.0846729020925
 31
0.0
  0
LINE
  5
1D6
330
2
100
AcDbEntity
  8
0
  6
Continuous
 62
     7
100
AcDbLine
 10
153.6469248509472
 20
209.584467031517
 30
0.0
 11
152.6468909361698
 21
209.3344827761032
 31
0.0
  0
LINE
  5
1D7
330
2
100
AcDbEntity
  8
0
  6
Continuous
 62
     7
100
AcDbLine
 10
151.896841276806
 20
209.0220024568359
 30
0.0
 11
151.3968727659785
 21
208.5845300098618
 31
0.0
  0
LINE
  5
1D8
330
2
100
AcDbEntity
  8
0
  6
Continuous
 62
     7
100
AcDbLine
 10
152.6468909361698
 20
209.3344827761032
 30
0.0
 11
151.896841276806
 21
209.0220024568359
 31
0.0
  0
LINE
  5
1D9
330
2
100
AcDbEntity
  8
0
  6
Continuous
 62
     7
100
AcDbLine
 10
150.8265598483948
 20
207.5845929882064
 30
0.0
 11
146.1136783819885
 21
207.5845929882064
 31
0.0
  0
LINE
  5
1DA
330
2
100
AcDbEntity
  8
0
  6
Continuous
 62
     7
100
AcDbLine
 10
146.374223987728
 20
208.4837611627181
 30
0.0
 11
146.192258704136
 21
209.0844985206894
 31
0.0
  0
LINE
  5
1DB
330
2
100
AcDbEntity
  8
0
  6
Continuous
 62
     7
100
AcDbLine
 10
150.6856772486384
 20
207.0846244773788
 30
0.0
 11
145.9687262710974
 21
207.0846244773788
 31
0.0
  0
LINE
  5
1DC
330
2
100
AcDbEntity
  8
0
  6
Continuous
 62
     7
100
AcDbLine
 10
150.5447946488817
 20
206.5846559665512
 30
0.0
 11
145.8238710533285
 21
206.5846559665512
 31
0.0
  0
LINE
  5
1DD
330
2
100
AcDbEntity
  8
0
  6
Continuous
 62
     7
100
AcDbLine
 10
150.4040089422476
 20
206.0846874557235
 30
0.0
 11
145.6789189424374
 21
206.0846874557235
 31
0.0
  0
LINE
  5
1DE
330
2
100
AcDbEntity
  8
0
  6
Continuous
 62
     7
100
AcDbLine
 10
146.192258704136
 20
209.0844985206894
 30
0.0
 11
145.8969284675077
 21
209.3344827761032
 31
0.0
  0
LINE
  5
1DF
330
2
100
AcDbEntity
  8
0
  6
Continuous
 62
     7
100
AcDbLine
 10
151.3970665522229
 20
208.5846269029839
 30
0.0
 11
146.3437026542182
 21
208.5846269029839
 31
0.0
  0
LINE
  5
1E0
330
2
100
AcDbEntity
  8
0
  6
Continuous
 62
     7
100
AcDbLine
 10
151.0636573185488
 20
208.0846583921564
 30
0.0
 11
146.2585335997574
 21
208.0846583921564
 31
0.0
  0
LINE
  5
1E1
330
2
100
AcDbEntity
  8
0
  6
Continuous
 62
     7
100
AcDbLine
 10
152.0472194025433
 20
209.0845954138116
 30
0.0
 11
146.192258704136
 21
209.0845954138116
 31
0.0
  0
LINE
  5
1E2
330
2
100
AcDbEntity
  8
0
  6
Continuous
 62
     7
100
AcDbLine
 10
151.3968727659785
 20
208.5845300098618
 30
0.0
 11
150.8969042551506
 21
207.834480350498
 31
0.0
  0
LINE
  5
1E3
330
2
100
AcDbEntity
  8
0
  6
Continuous
 62
     7
100
AcDbLine
 10
156.1468642982078
 20
208.084561499034
 30
0.0
 11
156.383283516506
 21
208.7806416893027
 31
0.0
  0
LINE
  5
1E4
330
2
100
AcDbEntity
  8
0
  6
Continuous
 62
     7
100
AcDbLine
 10
156.383283516506
 20
208.7806416893027
 30
0.0
 11
156.1537437098877
 21
209.3210146321101
 31
0.0
  0
LINE
  5
1E5
330
2
100
AcDbEntity
  8
0
  6
Continuous
 62
     7
100
AcDbLine
 10
154.146893361775
 20
210.0845324354668
 30
0.0
 11
154.146893361775
 21
209.8344512869309
 31
0.0
  0
LINE
  5
1E6
330
2
100
AcDbEntity
  8
0
  6
Continuous
 62
     7
100
AcDbLine
 10
154.146893361775
 20
209.8344512869309
 30
0.0
 11
153.6469248509472
 21
209.584467031517
 31
0.0
  0
LINE
  5
1E7
330
2
100
AcDbEntity
  8
0
  6
Continuous
 62
     7
100
AcDbLine
 10
155.3969115319662
 20
209.5845639246393
 30
0.0
 11
154.8969430211386
 21
209.834548180053
 31
0.0
  0
LINE
  5
1E8
330
2
100
AcDbEntity
  8
0
  6
Continuous
 62
     7
100
AcDbLine
 10
154.8969430211386
 20
209.834548180053
 30
0.0
 11
154.8969430211386
 21
210.0845324354668
 31
0.0
  0
LINE
  5
1E9
330
2
100
AcDbEntity
  8
0
  6
Continuous
 62
     7
100
AcDbLine
 10
160.1251990048108
 20
203.5846511153409
 30
0.0
 11
154.8269861868716
 21
203.5846511153409
 31
0.0
  0
LINE
  5
1EA
330
2
100
AcDbEntity
  8
0
  6
Continuous
 62
     7
100
AcDbLine
 10
156.1537437098877
 20
209.3210146321101
 30
0.0
 11
155.3969115319662
 21
209.5845639246393
 31
0.0
  0
LINE
  5
1EB
330
2
100
AcDbEntity
  8
0
  6
Continuous
 62
     7
100
AcDbLine
 10
172.1469224690369
 20
202.584520307441
 30
0.0
 11
172.5630784291154
 21
203.3345699668048
 31
0.0
  0
LINE
  5
1EC
330
2
100
AcDbEntity
  8
0
  6
Continuous
 62
     7
100
AcDbLine
 10
170.2718467671888
 20
203.5845542222186
 30
0.0
 11
169.896870384068
 21
202.8345045628549
 31
0.0
  0
LINE
  5
1ED
330
2
100
AcDbEntity
  8
0
  6
Continuous
 62
     7
100
AcDbLine
 10
164.8968945964249
 20
202.584520307441
 30
0.0
 11
165.3833949632593
 21
203.5912398476542
 31
0.0
  0
LINE
  5
1EE
330
2
100
AcDbEntity
  8
0
  6
Continuous
 62
     7
100
AcDbLine
 10
170.0219594048972
 20
203.0846826045132
 30
0.0
 11
165.1385460433248
 21
203.0846826045132
 31
0.0
  0
LINE
  5
1EF
330
2
100
AcDbEntity
  8
0
  6
Continuous
 62
     7
100
AcDbLine
 10
169.7303111069144
 20
202.5846172005633
 30
0.0
 11
164.8969914895472
 21
202.5846172005633
 31
0.0
  0
LINE
  5
1F0
330
2
100
AcDbEntity
  8
0
  6
Continuous
 62
     7
100
AcDbLine
 10
169.3969987663627
 20
202.0846486897357
 30
0.0
 11
164.5453663488895
 21
202.0846486897357
 31
0.0
  0
LINE
  5
1F1
330
2
100
AcDbEntity
  8
0
  6
Continuous
 62
     7
100
AcDbLine
 10
169.0027406519134
 20
201.584680178908
 30
0.0
 11
164.1938381013541
 21
201.584680178908
 31
0.0
  0
LINE
  5
1F2
330
2
100
AcDbEntity
  8
0
  6
Continuous
 62
     7
100
AcDbLine
 10
168.5459864736109
 20
201.0846147749581
 30
0.0
 11
163.6772039734989
 21
201.0846147749581
 31
0.0
  0
LINE
  5
1F3
330
2
100
AcDbEntity
  8
0
  6
Continuous
 62
     7
100
AcDbLine
 10
167.8836250898864
 20
200.4595572433013
 30
0.0
 11
167.3115680961023
 21
200.0845808601806
 31
0.0
  0
LINE
  5
1F4
330
2
100
AcDbEntity
  8
0
  6
Continuous
 62
     7
100
AcDbLine
 10
167.2718419159784
 20
189.8345481363583
 30
0.0
 11
167.6469151922214
 21
188.9596032424099
 31
0.0
  0
LINE
  5
1F5
330
2
100
AcDbEntity
  8
0
  6
Continuous
 62
     7
100
AcDbLine
 10
168.0283834145332
 20
200.5846462641305
 30
0.0
 11
162.9854839737317
 21
200.5846462641305
 31
0.0
  0
LINE
  5
1F6
330
2
100
AcDbEntity
  8
0
  6
Continuous
 62
     7
100
AcDbLine
 10
168.1051227673579
 20
188.5846268592891
 30
0.0
 11
162.6159336054572
 21
188.5846268592891
 31
0.0
  0
LINE
  5
1F7
330
2
100
AcDbEntity
  8
0
  6
Continuous
 62
     7
100
AcDbLine
 10
167.593236402493
 20
189.084692263239
 30
0.0
 11
162.475535471312
 21
189.084692263239
 31
0.0
  0
LINE
  5
1F8
330
2
100
AcDbEntity
  8
0
  6
Continuous
 62
     7
100
AcDbLine
 10
164.1199086490748
 20
201.4795511412631
 30
0.0
 11
164.8968945964249
 21
202.584520307441
 31
0.0
  0
LINE
  5
1F9
330
2
100
AcDbEntity
  8
0
  6
Continuous
 62
     7
100
AcDbLine
 10
167.3115680961023
 20
200.0845808601806
 30
0.0
 11
165.8115656704972
 21
199.334531200817
 31
0.0
  0
LINE
  5
1FA
330
2
100
AcDbEntity
  8
0
  6
Continuous
 62
     7
100
AcDbLine
 10
162.7246476886255
 20
200.4262260092462
 30
0.0
 11
163.3968921708198
 21
200.8345336264221
 31
0.0
  0
LINE
  5
1FB
330
2
100
AcDbEntity
  8
0
  6
Continuous
 62
     7
100
AcDbLine
 10
165.545787836156
 20
195.0847019656596
 30
0.0
 11
160.7900796097137
 21
195.0847019656596
 31
0.0
  0
LINE
  5
1FC
330
2
100
AcDbEntity
  8
0
  6
Continuous
 62
     7
100
AcDbLine
 10
161.8089107902085
 20
200.0262512005841
 30
0.0
 11
162.7246476886255
 21
200.4262260092462
 31
0.0
  0
LINE
  5
1FD
330
2
100
AcDbEntity
  8
0
  6
Continuous
 62
     7
100
AcDbLine
 10
161.0897700368437
 20
199.8345966047668
 30
0.0
 11
161.8089107902085
 21
200.0262512005841
 31
0.0
  0
LINE
  5
1FE
330
2
100
AcDbEntity
  8
0
  6
Continuous
 62
     7
100
AcDbLine
 10
165.1468788518388
 20
199.1236917667935
 30
0.0
 11
164.2719339578904
 21
198.9595548176963
 31
0.0
  0
LINE
  5
1FF
330
2
100
AcDbEntity
  8
0
  6
Continuous
 62
     7
100
AcDbLine
 10
167.3117618823469
 20
200.0846777533029
 30
0.0
 11
161.9426232989182
 21
200.0846777533029
 31
0.0
  0
LINE
  5
200
330
2
100
AcDbEntity
  8
0
  6
Continuous
 62
     7
100
AcDbLine
 10
166.0389738284259
 20
193.5846995400545
 30
0.0
 11
161.2114677983939
 21
193.5846995400545
 31
0.0
  0
LINE
  5
201
330
2
100
AcDbEntity
  8
0
  6
Continuous
 62
     7
100
AcDbLine
 10
166.2034014568899
 20
193.0846341361047
 30
0.0
 11
161.3519628256613
 21
193.0846341361047
 31
0.0
  0
LINE
  5
202
330
2
100
AcDbEntity
  8
0
  6
Continuous
 62
     7
100
AcDbLine
 10
166.3677321922318
 20
192.584665625277
 30
0.0
 11
161.4923609598064
 21
192.584665625277
 31
0.0
  0
LINE
  5
203
330
2
100
AcDbEntity
  8
0
  6
Continuous
 62
     7
100
AcDbLine
 10
166.5321598206958
 20
192.0846971144494
 30
0.0
 11
161.6328559870738
 21
192.0846971144494
 31
0.0
  0
LINE
  5
204
330
2
100
AcDbEntity
  8
0
  6
Continuous
 62
     7
100
AcDbLine
 10
166.6964905560376
 20
191.5846317104995
 30
0.0
 11
161.7732541212192
 21
191.5846317104995
 31
0.0
  0
LINE
  5
205
330
2
100
AcDbEntity
  8
0
  6
Continuous
 62
     7
100
AcDbLine
 10
166.8609181845017
 20
191.0846631996719
 30
0.0
 11
161.9137491484866
 21
191.0846631996719
 31
0.0
  0
LINE
  5
206
330
2
100
AcDbEntity
  8
0
  6
Continuous
 62
     7
100
AcDbLine
 10
167.0252489198435
 20
190.5846946888442
 30
0.0
 11
162.0541472826319
 21
190.5846946888442
 31
0.0
  0
LINE
  5
207
330
2
100
AcDbEntity
  8
0
  6
Continuous
 62
     7
100
AcDbLine
 10
167.1896765483075
 20
190.0846292848944
 30
0.0
 11
162.1946423098993
 21
190.0846292848944
 31
0.0
  0
LINE
  5
208
330
2
100
AcDbEntity
  8
0
  6
Continuous
 62
     7
100
AcDbLine
 10
167.3790057091907
 20
189.5846607740667
 30
0.0
 11
162.3350404440446
 21
189.5846607740667
 31
0.0
  0
LINE
  5
209
330
2
100
AcDbEntity
  8
0
  6
Continuous
 62
     7
100
AcDbLine
 10
165.7102154646201
 20
194.5846365617099
 30
0.0
 11
160.9305746369812
 21
194.5846365617099
 31
0.0
  0
LINE
  5
20A
330
2
100
AcDbEntity
  8
0
  6
Continuous
 62
     7
100
AcDbLine
 10
165.874546199962
 20
194.0846680508822
 30
0.0
 11
161.0710696642486
 21
194.0846680508822
 31
0.0
  0
LINE
  5
20B
330
2
100
AcDbEntity
  8
0
  6
Continuous
 62
     7
100
AcDbLine
 10
164.2719339578904
 20
198.9595548176963
 30
0.0
 11
167.2718419159784
 21
189.8345481363583
 31
0.0
  0
LINE
  5
20C
330
2
100
AcDbEntity
  8
0
  6
Continuous
 62
     7
100
AcDbLine
 10
165.8115656704972
 20
199.334531200817
 30
0.0
 11
165.1468788518388
 21
199.1236917667935
 31
0.0
  0
LINE
  5
20D
330
2
100
AcDbEntity
  8
0
  6
Continuous
 62
     7
100
AcDbLine
 10
165.0526987370083
 20
196.5847043912648
 30
0.0
 11
160.3687883141558
 21
196.5847043912648
 31
0.0
  0
LINE
  5
20E
330
2
100
AcDbEntity
  8
0
  6
Continuous
 62
     7
100
AcDbLine
 10
165.2170294723502
 20
196.084638987315
 30
0.0
 11
160.5091864483011
 21
196.084638987315
 31
0.0
  0
LINE
  5
20F
330
2
100
AcDbEntity
  8
0
  6
Continuous
 62
     7
100
AcDbLine
 10
165.3814571008142
 20
195.5846704764874
 30
0.0
 11
160.6496814755685
 21
195.5846704764874
 31
0.0
  0
LINE
  5
210
330
2
100
AcDbEntity
  8
0
  6
Continuous
 62
     7
100
AcDbLine
 10
163.3968921708198
 20
200.8345336264221
 30
0.0
 11
164.1199086490748
 21
201.4795511412631
 31
0.0
  0
LINE
  5
211
330
2
100
AcDbEntity
  8
0
  6
Continuous
 62
     7
100
AcDbLine
 10
171.5425031724199
 20
201.3345021372497
 30
0.0
 11
171.8968413205008
 21
202.0845517966135
 31
0.0
  0
LINE
  5
212
330
2
100
AcDbEntity
  8
0
  6
Continuous
 62
     7
100
AcDbLine
 10
171.8968413205008
 20
202.0845517966135
 30
0.0
 11
172.1469224690369
 21
202.584520307441
 31
0.0
  0
LINE
  5
213
330
2
100
AcDbEntity
  8
0
  6
Continuous
 62
     7
100
AcDbLine
 10
173.1468594906921
 20
190.5845977957219
 30
0.0
 11
172.4380863014085
 21
191.3345505619635
 31
0.0
  0
LINE
  5
214
330
2
100
AcDbEntity
  8
0
  6
Continuous
 62
     7
100
AcDbLine
 10
170.833633090014
 20
194.5845396685877
 30
0.0
 11
170.6469200434317
 21
195.834557838779
 31
0.0
  0
LINE
  5
215
330
2
100
AcDbEntity
  8
0
  6
Continuous
 62
     7
100
AcDbLine
 10
170.6469200434317
 20
195.834557838779
 30
0.0
 11
170.6674613853495
 21
198.0845130306255
 31
0.0
  0
LINE
  5
216
330
2
100
AcDbEntity
  8
0
  6
Continuous
 62
     7
100
AcDbLine
 10
170.6674613853495
 20
198.0845130306255
 30
0.0
 11
170.8130917480964
 21
198.8345626899892
 31
0.0
  0
LINE
  5
217
330
2
100
AcDbEntity
  8
0
  6
Continuous
 62
     7
100
AcDbLine
 10
172.4380863014085
 20
191.3345505619635
 30
0.0
 11
171.6468570650869
 21
192.5845687321548
 31
0.0
  0
LINE
  5
218
330
2
100
AcDbEntity
  8
0
  6
Continuous
 62
     7
100
AcDbLine
 10
171.6468570650869
 20
192.5845687321548
 30
0.0
 11
171.1468885542593
 21
193.5846026469323
 31
0.0
  0
LINE
  5
219
330
2
100
AcDbEntity
  8
0
  6
Continuous
 62
     7
100
AcDbLine
 10
171.1468885542593
 20
193.5846026469323
 30
0.0
 11
170.833633090014
 21
194.5845396685877
 31
0.0
  0
LINE
  5
21A
330
2
100
AcDbEntity
  8
0
  6
Continuous
 62
     7
100
AcDbLine
 10
170.8130917480964
 20
198.8345626899892
 30
0.0
 11
171.1468885542593
 21
200.0845808601806
 31
0.0
  0
LINE
  5
21B
330
2
100
AcDbEntity
  8
0
  6
Continuous
 62
     7
100
AcDbLine
 10
174.3968776608834
 20
189.4595717532375
 30
0.0
 11
173.8969091500559
 21
189.8345481363583
 31
0.0
  0
LINE
  5
21C
330
2
100
AcDbEntity
  8
0
  6
Continuous
 62
     7
100
AcDbLine
 10
173.8969091500559
 20
189.8345481363583
 30
0.0
 11
173.1468594906921
 21
190.5845977957219
 31
0.0
  0
LINE
  5
21D
330
2
100
AcDbEntity
  8
0
  6
Continuous
 62
     7
100
AcDbLine
 10
171.1468885542593
 20
200.0845808601806
 30
0.0
 11
171.5425031724199
 21
201.3345021372497
 31
0.0
  0
LINE
  5
21E
330
2
100
AcDbEntity
  8
0
  6
Continuous
 62
     7
100
AcDbLine
 10
169.896870384068
 20
202.8345045628549
 30
0.0
 11
169.3969018732404
 21
202.0845517966135
 31
0.0
  0
LINE
  5
21F
330
2
100
AcDbEntity
  8
0
  6
Continuous
 62
     7
100
AcDbLine
 10
169.3969018732404
 20
202.0845517966135
 30
0.0
 11
169.0026437587912
 21
201.5845832857858
 31
0.0
  0
LINE
  5
220
330
2
100
AcDbEntity
  8
0
  6
Continuous
 62
     7
100
AcDbLine
 10
167.6469151922214
 20
188.9596032424099
 30
0.0
 11
167.8968994476353
 21
188.7096189869961
 31
0.0
  0
LINE
  5
221
330
2
100
AcDbEntity
  8
0
  6
Continuous
 62
     7
100
AcDbLine
 10
168.3176093844595
 20
200.8345336264221
 30
0.0
 11
167.8836250898864
 21
200.4595572433013
 31
0.0
  0
LINE
  5
222
330
2
100
AcDbEntity
  8
0
  6
Continuous
 62
     7
100
AcDbLine
 10
167.8968994476353
 20
188.7096189869961
 30
0.0
 11
168.5218600861698
 21
188.3345457107531
 31
0.0
  0
LINE
  5
223
330
2
100
AcDbEntity
  8
0
  6
Continuous
 62
     7
100
AcDbLine
 10
169.0026437587912
 20
201.5845832857858
 30
0.0
 11
168.3176093844595
 21
200.8345336264221
 31
0.0
  0
LINE
  5
224
330
2
100
AcDbEntity
  8
0
  6
Continuous
 62
     7
100
AcDbLine
 10
167.1468497882715
 20
209.5845639246393
 30
0.0
 11
167.8968994476353
 21
209.3345796692254
 31
0.0
  0
LINE
  5
225
330
2
100
AcDbEntity
  8
0
  6
Continuous
 62
     7
100
AcDbLine
 10
170.4281353733836
 20
207.0846244773788
 30
0.0
 11
165.5635192775284
 21
207.0846244773788
 31
0.0
  0
LINE
  5
226
330
2
100
AcDbEntity
  8
0
  6
Continuous
 62
     7
100
AcDbLine
 10
169.146723831582
 20
208.5846269029839
 30
0.0
 11
164.365145141498
 21
208.5846269029839
 31
0.0
  0
LINE
  5
227
330
2
100
AcDbEntity
  8
0
  6
Continuous
 62
     7
100
AcDbLine
 10
169.7181994666328
 20
208.0846583921564
 30
0.0
 11
165.1276940136325
 21
208.0846583921564
 31
0.0
  0
LINE
  5
228
330
2
100
AcDbEntity
  8
0
  6
Continuous
 62
     7
100
AcDbLine
 10
170.2093507033353
 20
207.5845929882064
 30
0.0
 11
165.3968631072525
 21
207.5845929882064
 31
0.0
  0
LINE
  5
229
330
2
100
AcDbEntity
  8
0
  6
Continuous
 62
     7
100
AcDbLine
 10
170.2719436603111
 20
203.5846511153409
 30
0.0
 11
165.3816508870586
 21
203.5846511153409
 31
0.0
  0
LINE
  5
22A
330
2
100
AcDbEntity
  8
0
  6
Continuous
 62
     7
100
AcDbLine
 10
170.5531275010903
 20
206.5846559665512
 30
0.0
 11
165.6781438411542
 21
206.5846559665512
 31
0.0
  0
LINE
  5
22B
330
2
100
AcDbEntity
  8
0
  6
Continuous
 62
     7
100
AcDbLine
 10
170.6469200434317
 20
206.0846874557235
 30
0.0
 11
165.7406399050077
 21
206.0846874557235
 31
0.0
  0
LINE
  5
22C
330
2
100
AcDbEntity
  8
0
  6
Continuous
 62
     7
100
AcDbLine
 10
170.6469200434317
 20
205.5846220517736
 30
0.0
 11
165.7719363834956
 21
205.5846220517736
 31
0.0
  0
LINE
  5
22D
330
2
100
AcDbEntity
  8
0
  6
Continuous
 62
     7
100
AcDbLine
 10
170.6469200434317
 20
205.084653540946
 30
0.0
 11
165.7302723409266
 21
205.084653540946
 31
0.0
  0
LINE
  5
22E
330
2
100
AcDbEntity
  8
0
  6
Continuous
 62
     7
100
AcDbLine
 10
170.5844239795783
 20
204.5846850301184
 30
0.0
 11
165.6469442557885
 21
204.5846850301184
 31
0.0
  0
LINE
  5
22F
330
2
100
AcDbEntity
  8
0
  6
Continuous
 62
     7
100
AcDbLine
 10
170.4385998305869
 20
204.0846196261684
 30
0.0
 11
165.5142975714234
 21
204.0846196261684
 31
0.0
  0
LINE
  5
230
330
2
100
AcDbEntity
  8
0
  6
Continuous
 62
     7
100
AcDbLine
 10
166.3968970220301
 20
209.834548180053
 30
0.0
 11
167.1468497882715
 21
209.5845639246393
 31
0.0
  0
LINE
  5
231
330
2
100
AcDbEntity
  8
0
  6
Continuous
 62
     7
100
AcDbLine
 10
165.7719363834956
 20
205.3345409032376
 30
0.0
 11
165.7719363834956
 21
205.8345094140652
 31
0.0
  0
LINE
  5
232
330
2
100
AcDbEntity
  8
0
  6
Continuous
 62
     7
100
AcDbLine
 10
165.6468473626664
 20
204.5845881369961
 30
0.0
 11
165.7719363834956
 21
205.3345409032376
 31
0.0
  0
LINE
  5
233
330
2
100
AcDbEntity
  8
0
  6
Continuous
 62
     7
100
AcDbLine
 10
165.7719363834956
 20
205.8345094140652
 30
0.0
 11
165.6468473626664
 21
206.8345433288428
 31
0.0
  0
LINE
  5
234
330
2
100
AcDbEntity
  8
0
  6
Continuous
 62
     7
100
AcDbLine
 10
164.3653389277425
 20
208.5845300098618
 30
0.0
 11
161.6562072295371
 21
208.5845300098618
 31
0.0
  0
LINE
  5
235
330
2
100
AcDbEntity
  8
0
  6
Continuous
 62
     7
100
AcDbLine
 10
165.3968631072525
 20
207.5844960950842
 30
0.0
 11
165.1679046593677
 21
208.0429943495874
 31
0.0
  0
LINE
  5
236
330
2
100
AcDbEntity
  8
0
  6
Continuous
 62
     7
100
AcDbLine
 10
165.1679046593677
 20
208.0429943495874
 30
0.0
 11
164.8863332460993
 21
208.3345457544478
 31
0.0
  0
LINE
  5
237
330
2
100
AcDbEntity
  8
0
  6
Continuous
 62
     7
100
AcDbLine
 10
164.8863332460993
 20
208.3345457544478
 30
0.0
 11
164.3653389277425
 21
208.5845300098618
 31
0.0
  0
LINE
  5
238
330
2
100
AcDbEntity
  8
0
  6
Continuous
 62
     7
100
AcDbLine
 10
164.8968945964249
 20
210.0845324354668
 30
0.0
 11
166.3968970220301
 21
209.834548180053
 31
0.0
  0
LINE
  5
239
330
2
100
AcDbEntity
  8
0
  6
Continuous
 62
     7
100
AcDbLine
 10
165.6468473626664
 20
206.8345433288428
 30
0.0
 11
165.3968631072525
 21
207.5844960950842
 31
0.0
  0
LINE
  5
23A
330
2
100
AcDbEntity
  8
0
  6
Continuous
 62
     7
100
AcDbLine
 10
165.3833949632593
 20
203.5912398476542
 30
0.0
 11
165.6468473626664
 21
204.5845881369961
 31
0.0
  0
LINE
  5
23B
330
2
100
AcDbEntity
  8
0
  6
Continuous
 62
     7
100
AcDbLine
 10
172.5630784291154
 20
203.3345699668048
 30
0.0
 11
172.938054812236
 21
203.8345384776325
 31
0.0
  0
LINE
  5
23C
330
2
100
AcDbEntity
  8
0
  6
Continuous
 62
     7
100
AcDbLine
 10
170.6469200434317
 20
206.2095826903083
 30
0.0
 11
170.6469200434317
 21
204.8345723924099
 31
0.0
  0
LINE
  5
23D
330
2
100
AcDbEntity
  8
0
  6
Continuous
 62
     7
100
AcDbLine
 10
170.6469200434317
 20
204.8345723924099
 30
0.0
 11
170.5219279157247
 21
204.33450698846
 31
0.0
  0
LINE
  5
23E
330
2
100
AcDbEntity
  8
0
  6
Continuous
 62
     7
100
AcDbLine
 10
172.938054812236
 20
203.8345384776325
 30
0.0
 11
173.7719170223488
 21
205.0845566478238
 31
0.0
  0
LINE
  5
23F
330
2
100
AcDbEntity
  8
0
  6
Continuous
 62
     7
100
AcDbLine
 10
167.8968994476353
 20
209.3345796692254
 30
0.0
 11
169.1469176178265
 21
208.5845300098618
 31
0.0
  0
LINE
  5
240
330
2
100
AcDbEntity
  8
0
  6
Continuous
 62
     7
100
AcDbLine
 10
169.1469176178265
 20
208.5845300098618
 30
0.0
 11
170.1468546394818
 21
207.7095851159133
 31
0.0
  0
LINE
  5
241
330
2
100
AcDbEntity
  8
0
  6
Continuous
 62
     7
100
AcDbLine
 10
170.1468546394818
 20
207.7095851159133
 30
0.0
 11
170.3968388948957
 21
207.2095197119635
 31
0.0
  0
LINE
  5
242
330
2
100
AcDbEntity
  8
0
  6
Continuous
 62
     7
100
AcDbLine
 10
170.3968388948957
 20
207.2095197119635
 30
0.0
 11
170.6469200434317
 21
206.2095826903083
 31
0.0
  0
LINE
  5
243
330
2
100
AcDbEntity
  8
0
  6
Continuous
 62
     7
100
AcDbLine
 10
170.5219279157247
 20
204.33450698846
 30
0.0
 11
170.2718467671888
 21
203.5845542222186
 31
0.0
  0
LINE
  5
244
330
2
100
AcDbEntity
  8
0
  6
Continuous
 62
     7
100
AcDbLine
 10
184.146844980756
 20
188.3345457107531
 30
0.0
 11
183.6468764699283
 21
188.0845614553393
 31
0.0
  0
LINE
  5
245
330
2
100
AcDbEntity
  8
0
  6
Continuous
 62
     7
100
AcDbLine
 10
176.771824980437
 20
188.0845614553393
 30
0.0
 11
175.7718879587818
 21
188.584529966167
 31
0.0
  0
LINE
  5
246
330
2
100
AcDbEntity
  8
0
  6
Continuous
 62
     7
100
AcDbLine
 10
182.8968268105645
 20
187.8345771999255
 30
0.0
 11
181.8968897889092
 21
187.5845929445117
 31
0.0
  0
LINE
  5
247
330
2
100
AcDbEntity
  8
0
  6
Continuous
 62
     7
100
AcDbLine
 10
183.647167149295
 20
188.0847552415838
 30
0.0
 11
176.7716311941924
 21
188.0847552415838
 31
0.0
  0
LINE
  5
248
330
2
100
AcDbEntity
  8
0
  6
Continuous
 62
     7
100
AcDbLine
 10
181.8968897889092
 20
187.5845929445117
 30
0.0
 11
180.3968873633041
 21
187.4596008168048
 31
0.0
  0
LINE
  5
249
330
2
100
AcDbEntity
  8
0
  6
Continuous
 62
     7
100
AcDbLine
 10
178.6469006822849
 20
187.5845929445117
 30
0.0
 11
177.3968825120937
 21
187.8345771999255
 31
0.0
  0
LINE
  5
24A
330
2
100
AcDbEntity
  8
0
  6
Continuous
 62
     7
100
AcDbLine
 10
177.3968825120937
 20
187.8345771999255
 30
0.0
 11
176.771824980437
 21
188.0845614553393
 31
0.0
  0
LINE
  5
24B
330
2
100
AcDbEntity
  8
0
  6
Continuous
 62
     7
100
AcDbLine
 10
180.3968873633041
 20
187.4596008168048
 30
0.0
 11
178.6469006822849
 21
187.5845929445117
 31
0.0
  0
LINE
  5
24C
330
2
100
AcDbEntity
  8
0
  6
Continuous
 62
     7
100
AcDbLine
 10
181.8972773613984
 20
187.5846898376339
 30
0.0
 11
178.6455441785737
 21
187.5846898376339
 31
0.0
  0
LINE
  5
24D
330
2
100
AcDbEntity
  8
0
  6
Continuous
 62
     7
100
AcDbLine
 10
183.6468764699283
 20
188.0845614553393
 30
0.0
 11
182.8968268105645
 21
187.8345771999255
 31
0.0
  0
LINE
  5
24E
330
2
100
AcDbEntity
  8
0
  6
Continuous
 62
     7
100
AcDbLine
 10
189.146820768399
 20
209.7299036080194
 30
0.0
 11
189.8968704277628
 21
209.5642163689661
 31
0.0
  0
LINE
  5
24F
330
2
100
AcDbEntity
  8
0
  6
Continuous
 62
     7
100
AcDbLine
 10
189.9028778013425
 20
206.9595354565498
 30
0.0
 11
189.306985099484
 21
207.5844960950842
 31
0.0
  0
LINE
  5
250
330
2
100
AcDbEntity
  8
0
  6
Continuous
 62
     7
100
AcDbLine
 10
189.8043374960108
 20
209.5846608177615
 30
0.0
 11
181.02233246745
 21
209.5846608177615
 31
0.0
  0
LINE
  5
251
330
2
100
AcDbEntity
  8
0
  6
Continuous
 62
     7
100
AcDbLine
 10
192.4412838181375
 20
209.0845954138116
 30
0.0
 11
179.5221362556003
 21
209.0845954138116
 31
0.0
  0
LINE
  5
252
330
2
100
AcDbEntity
  8
0
  6
Continuous
 62
     7
100
AcDbLine
 10
192.2524391228656
 20
208.5846269029839
 30
0.0
 11
187.6006972166012
 21
208.5846269029839
 31
0.0
  0
LINE
  5
253
330
2
100
AcDbEntity
  8
0
  6
Continuous
 62
     7
100
AcDbLine
 10
192.0635944275938
 20
208.0846583921564
 30
0.0
 11
188.592785895354
 21
208.0846583921564
 31
0.0
  0
LINE
  5
254
330
2
100
AcDbEntity
  8
0
  6
Continuous
 62
     7
100
AcDbLine
 10
191.8746528391996
 20
207.5845929882064
 30
0.0
 11
189.3068882063617
 21
207.5845929882064
 31
0.0
  0
LINE
  5
255
330
2
100
AcDbEntity
  8
0
  6
Continuous
 62
     7
100
AcDbLine
 10
177.7718588952145
 20
204.0845227330463
 30
0.0
 11
177.0630857059308
 21
202.584520307441
 31
0.0
  0
LINE
  5
256
330
2
100
AcDbEntity
  8
0
  6
Continuous
 62
     7
100
AcDbLine
 10
182.1468740443231
 20
188.834611114703
 30
0.0
 11
183.1233629303931
 21
189.0408965719805
 31
0.0
  0
LINE
  5
257
330
2
100
AcDbEntity
  8
0
  6
Continuous
 62
     7
100
AcDbLine
 10
184.6058277008703
 20
188.5846268592891
 30
0.0
 11
175.7716941725373
 21
188.5846268592891
 31
0.0
  0
LINE
  5
258
330
2
100
AcDbEntity
  8
0
  6
Continuous
 62
     7
100
AcDbLine
 10
180.4586082821796
 20
188.8142635590298
 30
0.0
 11
182.1468740443231
 21
188.834611114703
 31
0.0
  0
LINE
  5
259
330
2
100
AcDbEntity
  8
0
  6
Continuous
 62
     7
100
AcDbLine
 10
176.6468328527301
 20
191.4595426896703
 30
0.0
 11
178.0203897537945
 21
189.9159383590512
 31
0.0
  0
LINE
  5
25A
330
2
100
AcDbEntity
  8
0
  6
Continuous
 62
     7
100
AcDbLine
 10
176.0218722141956
 20
198.8345626899892
 30
0.0
 11
175.6468958310747
 21
196.8345917535565
 31
0.0
  0
LINE
  5
25B
330
2
100
AcDbEntity
  8
0
  6
Continuous
 62
     7
100
AcDbLine
 10
175.6468958310747
 20
196.8345917535565
 30
0.0
 11
175.521903703368
 21
195.0846050725375
 31
0.0
  0
LINE
  5
25C
330
2
100
AcDbEntity
  8
0
  6
Continuous
 62
     7
100
AcDbLine
 10
175.6674371729924
 20
193.834586902346
 30
0.0
 11
175.8968800864884
 21
193.0845372429825
 31
0.0
  0
LINE
  5
25D
330
2
100
AcDbEntity
  8
0
  6
Continuous
 62
     7
100
AcDbLine
 10
175.8968800864884
 20
193.0845372429825
 30
0.0
 11
176.1468643419025
 21
192.334584476741
 31
0.0
  0
LINE
  5
25E
330
2
100
AcDbEntity
  8
0
  6
Continuous
 62
     7
100
AcDbLine
 10
176.1468643419025
 20
192.334584476741
 30
0.0
 11
176.6468328527301
 21
191.4595426896703
 31
0.0
  0
LINE
  5
25F
330
2
100
AcDbEntity
  8
0
  6
Continuous
 62
     7
100
AcDbLine
 10
175.521903703368
 20
195.0846050725375
 30
0.0
 11
175.6674371729924
 21
193.834586902346
 31
0.0
  0
LINE
  5
260
330
2
100
AcDbEntity
  8
0
  6
Continuous
 62
     7
100
AcDbLine
 10
176.5218407250232
 20
200.8345336264221
 30
0.0
 11
176.0218722141956
 21
198.8345626899892
 31
0.0
  0
LINE
  5
261
330
2
100
AcDbEntity
  8
0
  6
Continuous
 62
     7
100
AcDbLine
 10
178.0203897537945
 20
189.9159383590512
 30
0.0
 11
178.438096003829
 21
189.6252589922908
 31
0.0
  0
LINE
  5
262
330
2
100
AcDbEntity
  8
0
  6
Continuous
 62
     7
100
AcDbLine
 10
178.438096003829
 20
189.6252589922908
 30
0.0
 11
179.1468691931127
 21
189.2095874978238
 31
0.0
  0
LINE
  5
263
330
2
100
AcDbEntity
  8
0
  6
Continuous
 62
     7
100
AcDbLine
 10
179.5612810769908
 20
189.084692263239
 30
0.0
 11
174.8967492785889
 21
189.084692263239
 31
0.0
  0
LINE
  5
264
330
2
100
AcDbEntity
  8
0
  6
Continuous
 62
     7
100
AcDbLine
 10
175.7718879587818
 20
188.584529966167
 30
0.0
 11
174.8968461717112
 21
189.0845953701169
 31
0.0
  0
LINE
  5
265
330
2
100
AcDbEntity
  8
0
  6
Continuous
 62
     7
100
AcDbLine
 10
179.1468691931127
 20
189.2095874978238
 30
0.0
 11
180.4586082821796
 21
188.8142635590298
 31
0.0
  0
LINE
  5
266
330
2
100
AcDbEntity
  8
0
  6
Continuous
 62
     7
100
AcDbLine
 10
177.0630857059308
 20
202.584520307441
 30
0.0
 11
176.5218407250232
 21
200.8345336264221
 31
0.0
  0
LINE
  5
267
330
2
100
AcDbEntity
  8
0
  6
Continuous
 62
     7
100
AcDbLine
 10
186.6468813211386
 20
190.8345820511358
 30
0.0
 11
187.39683408738
 21
191.4595426896703
 31
0.0
  0
LINE
  5
268
330
2
100
AcDbEntity
  8
0
  6
Continuous
 62
     7
100
AcDbLine
 10
187.39683408738
 20
190.8345820511358
 30
0.0
 11
186.8968655765525
 21
190.3346135403081
 31
0.0
  0
LINE
  5
269
330
2
100
AcDbEntity
  8
0
  6
Continuous
 62
     7
100
AcDbLine
 10
187.6469152359161
 20
191.0846631996719
 30
0.0
 11
186.9469593207575
 21
191.0846631996719
 31
0.0
  0
LINE
  5
26A
330
2
100
AcDbEntity
  8
0
  6
Continuous
 62
     7
100
AcDbLine
 10
186.1468159171887
 20
190.4596056680151
 30
0.0
 11
186.6468813211386
 21
190.8345820511358
 31
0.0
  0
LINE
  5
26B
330
2
100
AcDbEntity
  8
0
  6
Continuous
 62
     7
100
AcDbLine
 10
186.8968655765525
 20
190.3346135403081
 30
0.0
 11
186.3968970657247
 21
189.8345481363583
 31
0.0
  0
LINE
  5
26C
330
2
100
AcDbEntity
  8
0
  6
Continuous
 62
     7
100
AcDbLine
 10
186.3968970657247
 20
189.8345481363583
 30
0.0
 11
185.3968631509473
 21
189.0845953701169
 31
0.0
  0
LINE
  5
26D
330
2
100
AcDbEntity
  8
0
  6
Continuous
 62
     7
100
AcDbLine
 10
186.6469782142609
 20
190.0846292848944
 30
0.0
 11
185.5068368447048
 21
190.0846292848944
 31
0.0
  0
LINE
  5
26E
330
2
100
AcDbEntity
  8
0
  6
Continuous
 62
     7
100
AcDbLine
 10
187.1469467250886
 20
190.5846946888442
 30
0.0
 11
186.3136658737091
 21
190.5846946888442
 31
0.0
  0
LINE
  5
26F
330
2
100
AcDbEntity
  8
0
  6
Continuous
 62
     7
100
AcDbLine
 10
187.39683408738
 20
191.4595426896703
 30
0.0
 11
187.8968025982077
 21
191.9596080936203
 31
0.0
  0
LINE
  5
270
330
2
100
AcDbEntity
  8
0
  6
Continuous
 62
     7
100
AcDbLine
 10
187.8968025982077
 20
191.9596080936203
 30
0.0
 11
188.2718758744506
 21
192.334584476741
 31
0.0
  0
LINE
  5
271
330
2
100
AcDbEntity
  8
0
  6
Continuous
 62
     7
100
AcDbLine
 10
188.2718758744506
 20
192.334584476741
 30
0.0
 11
188.5218601298645
 21
192.209592349034
 31
0.0
  0
LINE
  5
272
330
2
100
AcDbEntity
  8
0
  6
Continuous
 62
     7
100
AcDbLine
 10
188.5218601298645
 20
192.209592349034
 30
0.0
 11
188.5218601298645
 21
192.0846002213271
 31
0.0
  0
LINE
  5
273
330
2
100
AcDbEntity
  8
0
  6
Continuous
 62
     7
100
AcDbLine
 10
188.5218601298645
 20
192.0846002213271
 30
0.0
 11
188.1468837467438
 21
191.5845348173773
 31
0.0
  0
LINE
  5
274
330
2
100
AcDbEntity
  8
0
  6
Continuous
 62
     7
100
AcDbLine
 10
188.1468837467438
 20
191.5845348173773
 30
0.0
 11
187.39683408738
 21
190.8345820511358
 31
0.0
  0
LINE
  5
275
330
2
100
AcDbEntity
  8
0
  6
Continuous
 62
     7
100
AcDbLine
 10
188.1469806398661
 20
191.5846317104995
 30
0.0
 11
187.5219231082093
 21
191.5846317104995
 31
0.0
  0
LINE
  5
276
330
2
100
AcDbEntity
  8
0
  6
Continuous
 62
     7
100
AcDbLine
 10
188.5218601298645
 20
192.0846971144494
 30
0.0
 11
188.021988512159
 21
192.0846971144494
 31
0.0
  0
LINE
  5
277
330
2
100
AcDbEntity
  8
0
  6
Continuous
 62
     7
100
AcDbLine
 10
183.1233629303931
 20
189.0408965719805
 30
0.0
 11
183.9380403022999
 21
189.3142320698574
 31
0.0
  0
LINE
  5
278
330
2
100
AcDbEntity
  8
0
  6
Continuous
 62
     7
100
AcDbLine
 10
183.9380403022999
 20
189.3142320698574
 30
0.0
 11
184.9408841176227
 21
189.7532548067877
 31
0.0
  0
LINE
  5
279
330
2
100
AcDbEntity
  8
0
  6
Continuous
 62
     7
100
AcDbLine
 10
184.6056339146258
 20
188.584529966167
 30
0.0
 11
184.146844980756
 21
188.3345457107531
 31
0.0
  0
LINE
  5
27A
330
2
100
AcDbEntity
  8
0
  6
Continuous
 62
     7
100
AcDbLine
 10
184.9408841176227
 20
189.7532548067877
 30
0.0
 11
186.1468159171887
 21
190.4596056680151
 31
0.0
  0
LINE
  5
27B
330
2
100
AcDbEntity
  8
0
  6
Continuous
 62
     7
100
AcDbLine
 10
186.0636816182951
 20
189.5846607740667
 30
0.0
 11
184.5558308497875
 21
189.5846607740667
 31
0.0
  0
LINE
  5
27C
330
2
100
AcDbEntity
  8
0
  6
Continuous
 62
     7
100
AcDbLine
 10
185.3969600440696
 20
189.084692263239
 30
0.0
 11
183.253781072946
 21
189.084692263239
 31
0.0
  0
LINE
  5
27D
330
2
100
AcDbEntity
  8
0
  6
Continuous
 62
     7
100
AcDbLine
 10
185.3968631509473
 20
189.0845953701169
 30
0.0
 11
184.6056339146258
 21
188.584529966167
 31
0.0
  0
LINE
  5
27E
330
2
100
AcDbEntity
  8
0
  6
Continuous
 62
     7
100
AcDbLine
 10
182.1468740443231
 20
209.834548180053
 30
0.0
 11
182.6468425551508
 21
209.95954030776
 31
0.0
  0
LINE
  5
27F
330
2
100
AcDbEntity
  8
0
  6
Continuous
 62
     7
100
AcDbLine
 10
182.6468425551508
 20
208.5641824541885
 30
0.0
 11
181.6469055334954
 21
208.1049090547074
 31
0.0
  0
LINE
  5
280
330
2
100
AcDbEntity
  8
0
  6
Continuous
 62
     7
100
AcDbLine
 10
182.7175745343958
 20
208.5846269029839
 30
0.0
 11
178.3971102131157
 21
208.5846269029839
 31
0.0
  0
LINE
  5
281
330
2
100
AcDbEntity
  8
0
  6
Continuous
 62
     7
100
AcDbLine
 10
181.0218480018387
 20
209.5845639246393
 30
0.0
 11
182.1468740443231
 21
209.834548180053
 31
0.0
  0
LINE
  5
282
330
2
100
AcDbEntity
  8
0
  6
Continuous
 62
     7
100
AcDbLine
 10
181.6469055334954
 20
208.1049090547074
 30
0.0
 11
181.1468401295456
 21
207.8548279061713
 31
0.0
  0
LINE
  5
283
330
2
100
AcDbEntity
  8
0
  6
Continuous
 62
     7
100
AcDbLine
 10
181.1468401295456
 20
207.8548279061713
 30
0.0
 11
180.646871618718
 21
207.5642454325332
 31
0.0
  0
LINE
  5
284
330
2
100
AcDbEntity
  8
0
  6
Continuous
 62
     7
100
AcDbLine
 10
176.6468328527301
 20
207.5844960950842
 30
0.0
 11
177.8968510229215
 21
208.3345457544478
 31
0.0
  0
LINE
  5
285
330
2
100
AcDbEntity
  8
0
  6
Continuous
 62
     7
100
AcDbLine
 10
180.0220078733057
 20
207.0846244773788
 30
0.0
 11
175.9327305417224
 21
207.0846244773788
 31
0.0
  0
LINE
  5
286
330
2
100
AcDbEntity
  8
0
  6
Continuous
 62
     7
100
AcDbLine
 10
175.3969115756611
 20
206.7095512011358
 30
0.0
 11
176.6468328527301
 21
207.5844960950842
 31
0.0
  0
LINE
  5
287
330
2
100
AcDbEntity
  8
0
  6
Continuous
 62
     7
100
AcDbLine
 10
179.2718613208197
 20
206.3345748180151
 30
0.0
 11
178.5219085545783
 21
205.3345409032376
 31
0.0
  0
LINE
  5
288
330
2
100
AcDbEntity
  8
0
  6
Continuous
 62
     7
100
AcDbLine
 10
177.8968510229215
 20
208.3345457544478
 30
0.0
 11
178.8968849376988
 21
208.8345142652755
 31
0.0
  0
LINE
  5
289
330
2
100
AcDbEntity
  8
0
  6
Continuous
 62
     7
100
AcDbLine
 10
178.5219085545783
 20
205.3345409032376
 30
0.0
 11
177.7718588952145
 21
204.0845227330463
 31
0.0
  0
LINE
  5
28A
330
2
100
AcDbEntity
  8
0
  6
Continuous
 62
     7
100
AcDbLine
 10
180.1469031078903
 20
207.2095197119635
 30
0.0
 11
179.2718613208197
 21
206.3345748180151
 31
0.0
  0
LINE
  5
28B
330
2
100
AcDbEntity
  8
0
  6
Continuous
 62
     7
100
AcDbLine
 10
178.8968849376988
 20
208.8345142652755
 30
0.0
 11
180.1469031078903
 21
209.3345796692254
 31
0.0
  0
LINE
  5
28C
330
2
100
AcDbEntity
  8
0
  6
Continuous
 62
     7
100
AcDbLine
 10
179.5219424693557
 20
206.5846559665512
 30
0.0
 11
175.2720163410763
 21
206.5846559665512
 31
0.0
  0
LINE
  5
28D
330
2
100
AcDbEntity
  8
0
  6
Continuous
 62
     7
100
AcDbLine
 10
181.6064042083934
 20
208.0846583921564
 30
0.0
 11
177.4804043834763
 21
208.0846583921564
 31
0.0
  0
LINE
  5
28E
330
2
100
AcDbEntity
  8
0
  6
Continuous
 62
     7
100
AcDbLine
 10
180.6756488760272
 20
207.5845929882064
 30
0.0
 11
176.6470266389747
 21
207.5845929882064
 31
0.0
  0
LINE
  5
28F
330
2
100
AcDbEntity
  8
0
  6
Continuous
 62
     7
100
AcDbLine
 10
180.646871618718
 20
207.5642454325332
 30
0.0
 11
180.1469031078903
 21
207.2095197119635
 31
0.0
  0
LINE
  5
290
330
2
100
AcDbEntity
  8
0
  6
Continuous
 62
     7
100
AcDbLine
 10
180.1469031078903
 20
209.3345796692254
 30
0.0
 11
181.0218480018387
 21
209.5845639246393
 31
0.0
  0
LINE
  5
291
330
2
100
AcDbEntity
  8
0
  6
Continuous
 62
     7
100
AcDbLine
 10
187.1468498319661
 20
210.0845324354668
 30
0.0
 11
188.1468837467438
 21
209.9391927520868
 31
0.0
  0
LINE
  5
292
330
2
100
AcDbEntity
  8
0
  6
Continuous
 62
     7
100
AcDbLine
 10
188.4144056572855
 20
208.209553626741
 30
0.0
 11
187.1468498319661
 21
208.793819153929
 31
0.0
  0
LINE
  5
293
330
2
100
AcDbEntity
  8
0
  6
Continuous
 62
     7
100
AcDbLine
 10
185.3968631509473
 20
210.2095245631738
 30
0.0
 11
187.1468498319661
 21
210.0845324354668
 31
0.0
  0
LINE
  5
294
330
2
100
AcDbEntity
  8
0
  6
Continuous
 62
     7
100
AcDbLine
 10
187.1468498319661
 20
208.793819153929
 30
0.0
 11
185.8968316617749
 21
209.0641509650161
 31
0.0
  0
LINE
  5
295
330
2
100
AcDbEntity
  8
0
  6
Continuous
 62
     7
100
AcDbLine
 10
188.6468522575715
 20
209.834548180053
 30
0.0
 11
189.146820768399
 21
209.7299036080194
 31
0.0
  0
LINE
  5
296
330
2
100
AcDbEntity
  8
0
  6
Continuous
 62
     7
100
AcDbLine
 10
189.306985099484
 20
207.5844960950842
 30
0.0
 11
188.4144056572855
 21
208.209553626741
 31
0.0
  0
LINE
  5
297
330
2
100
AcDbEntity
  8
0
  6
Continuous
 62
     7
100
AcDbLine
 10
188.1468837467438
 20
209.9391927520868
 30
0.0
 11
188.6468522575715
 21
209.834548180053
 31
0.0
  0
LINE
  5
298
330
2
100
AcDbEntity
  8
0
  6
Continuous
 62
     7
100
AcDbLine
 10
182.6468425551508
 20
209.95954030776
 30
0.0
 11
183.6468764699283
 21
210.0845324354668
 31
0.0
  0
LINE
  5
299
330
2
100
AcDbEntity
  8
0
  6
Continuous
 62
     7
100
AcDbLine
 10
184.9820636945803
 20
209.0641509650161
 30
0.0
 11
184.3968292361697
 21
208.9798539486557
 31
0.0
  0
LINE
  5
29A
330
2
100
AcDbEntity
  8
0
  6
Continuous
 62
     7
100
AcDbLine
 10
183.5821518642631
 20
208.8345142652755
 30
0.0
 11
182.6468425551508
 21
208.5641824541885
 31
0.0
  0
LINE
  5
29B
330
2
100
AcDbEntity
  8
0
  6
Continuous
 62
     7
100
AcDbLine
 10
184.3968292361697
 20
208.9798539486557
 30
0.0
 11
183.5821518642631
 21
208.8345142652755
 31
0.0
  0
LINE
  5
29C
330
2
100
AcDbEntity
  8
0
  6
Continuous
 62
     7
100
AcDbLine
 10
183.6468764699283
 20
210.0845324354668
 30
0.0
 11
185.3968631509473
 21
210.2095245631738
 31
0.0
  0
LINE
  5
29D
330
2
100
AcDbEntity
  8
0
  6
Continuous
 62
     7
100
AcDbLine
 10
185.8968316617749
 20
209.0641509650161
 30
0.0
 11
184.9820636945803
 21
209.0641509650161
 31
0.0
  0
LINE
  5
29E
330
2
100
AcDbEntity
  8
0
  6
Continuous
 62
     7
100
AcDbLine
 10
192.0218334919025
 20
209.834548180053
 30
0.0
 11
192.3968098750231
 21
210.0845324354668
 31
0.0
  0
LINE
  5
29F
330
2
100
AcDbEntity
  8
0
  6
Continuous
 62
     7
100
AcDbLine
 10
192.6302254065316
 20
209.5846608177615
 30
0.0
 11
191.6469540019039
 21
209.5846608177615
 31
0.0
  0
LINE
  5
2A0
330
2
100
AcDbEntity
  8
0
  6
Continuous
 62
     7
100
AcDbLine
 10
192.7718831512661
 20
209.95954030776
 30
0.0
 11
190.6468231940042
 21
204.33450698846
 31
0.0
  0
LINE
  5
2A1
330
2
100
AcDbEntity
  8
0
  6
Continuous
 62
     7
100
AcDbLine
 10
191.6468571087817
 20
209.5845639246393
 30
0.0
 11
192.0218334919025
 21
209.834548180053
 31
0.0
  0
LINE
  5
2A2
330
2
100
AcDbEntity
  8
0
  6
Continuous
 62
     7
100
AcDbLine
 10
190.2718468108835
 20
204.5845881369961
 30
0.0
 11
190.3411253932947
 21
205.7095172863583
 31
0.0
  0
LINE
  5
2A3
330
2
100
AcDbEntity
  8
0
  6
Continuous
 62
     7
100
AcDbLine
 10
190.3411253932947
 20
205.7095172863583
 30
0.0
 11
190.2191369523776
 21
206.3345748180151
 31
0.0
  0
LINE
  5
2A4
330
2
100
AcDbEntity
  8
0
  6
Continuous
 62
     7
100
AcDbLine
 10
190.2191369523776
 20
206.3345748180151
 30
0.0
 11
190.073603482753
 21
206.7095512011358
 31
0.0
  0
LINE
  5
2A5
330
2
100
AcDbEntity
  8
0
  6
Continuous
 62
     7
100
AcDbLine
 10
190.3968389385904
 20
209.4595717969323
 30
0.0
 11
190.896807449418
 21
209.3345796692254
 31
0.0
  0
LINE
  5
2A6
330
2
100
AcDbEntity
  8
0
  6
Continuous
 62
     7
100
AcDbLine
 10
190.896807449418
 20
209.3345796692254
 30
0.0
 11
191.1468885979541
 21
209.3345796692254
 31
0.0
  0
LINE
  5
2A7
330
2
100
AcDbEntity
  8
0
  6
Continuous
 62
     7
100
AcDbLine
 10
191.4968665555334
 20
206.5846559665512
 30
0.0
 11
190.1220500438797
 21
206.5846559665512
 31
0.0
  0
LINE
  5
2A8
330
2
100
AcDbEntity
  8
0
  6
Continuous
 62
     7
100
AcDbLine
 10
191.3080218602615
 20
206.0846874557235
 30
0.0
 11
190.2678741928712
 21
206.0846874557235
 31
0.0
  0
LINE
  5
2A9
330
2
100
AcDbEntity
  8
0
  6
Continuous
 62
     7
100
AcDbLine
 10
191.1190802718674
 20
205.5846220517736
 30
0.0
 11
190.3334708366367
 21
205.5846220517736
 31
0.0
  0
LINE
  5
2AA
330
2
100
AcDbEntity
  8
0
  6
Continuous
 62
     7
100
AcDbLine
 10
190.9302355765955
 20
205.084653540946
 30
0.0
 11
190.3026588237601
 21
205.084653540946
 31
0.0
  0
LINE
  5
2AB
330
2
100
AcDbEntity
  8
0
  6
Continuous
 62
     7
100
AcDbLine
 10
190.7412939882014
 20
204.5846850301184
 30
0.0
 11
190.2718468108835
 21
204.5846850301184
 31
0.0
  0
LINE
  5
2AC
330
2
100
AcDbEntity
  8
0
  6
Continuous
 62
     7
100
AcDbLine
 10
190.6468231940042
 20
204.33450698846
 30
0.0
 11
190.3968389385904
 21
204.33450698846
 31
0.0
  0
LINE
  5
2AD
330
2
100
AcDbEntity
  8
0
  6
Continuous
 62
     7
100
AcDbLine
 10
190.3968389385904
 20
204.33450698846
 30
0.0
 11
190.2718468108835
 21
204.5845881369961
 31
0.0
  0
LINE
  5
2AE
330
2
100
AcDbEntity
  8
0
  6
Continuous
 62
     7
100
AcDbLine
 10
191.1468885979541
 20
209.3345796692254
 30
0.0
 11
191.6468571087817
 21
209.5845639246393
 31
0.0
  0
LINE
  5
2AF
330
2
100
AcDbEntity
  8
0
  6
Continuous
 62
     7
100
AcDbLine
 10
192.3968098750231
 20
210.0845324354668
 30
0.0
 11
192.646794130437
 21
210.0845324354668
 31
0.0
  0
LINE
  5
2B0
330
2
100
AcDbEntity
  8
0
  6
Continuous
 62
     7
100
AcDbLine
 10
192.646794130437
 20
210.0845324354668
 30
0.0
 11
192.7718831512661
 21
209.95954030776
 31
0.0
  0
LINE
  5
2B1
330
2
100
AcDbEntity
  8
0
  6
Continuous
 62
     7
100
AcDbLine
 10
190.073603482753
 20
206.7095512011358
 30
0.0
 11
189.9028778013425
 21
206.9595354565498
 31
0.0
  0
LINE
  5
2B2
330
2
100
AcDbEntity
  8
0
  6
Continuous
 62
     7
100
AcDbLine
 10
191.6858081439277
 20
207.0846244773788
 30
0.0
 11
189.7836023678485
 21
207.0846244773788
 31
0.0
  0
LINE
  5
2B3
330
2
100
AcDbEntity
  8
0
  6
Continuous
 62
     7
100
AcDbLine
 10
189.8968704277628
 20
209.5642163689661
 30
0.0
 11
190.3968389385904
 21
209.4595717969323
 31
0.0
  0
LINE
  5
2B4
330
2
100
AcDbEntity
  8
0
  6
Continuous
 62
     7
100
AcDbLine
 10
288.3543385496071
 20
171.6094363061016
 30
0.0
 11
342.3539898523428
 21
171.6094363061016
 31
0.0
  0
ARC
  5
2B5
330
2
100
AcDbEntity
  8
0
  6
Continuous
 62
     7
100
AcDbCircle
 10
342.3539363917582
 20
169.6093876850094
 30
0.0
 40
2.000048621806688
100
AcDbArc
 50
0.0022254474562781
 51
89.99846850429589
  0
LINE
  5
2B6
330
2
100
AcDbEntity
  8
0
  6
Continuous
 62
     7
100
AcDbLine
 10
344.3539850120562
 20
151.3356162989188
 30
0.0
 11
344.3539850120562
 21
169.6094653696689
 31
0.0
  0
ARC
  5
2B7
330
2
100
AcDbEntity
  8
0
  6
Continuous
 62
     7
100
AcDbCircle
 10
342.3542464791125
 20
151.3554343770148
 30
0.0
 40
1.999838454482581
100
AcDbArc
 50
284.4742137282583
 51
0.001289602001436
  0
ARC
  5
2B8
330
2
100
AcDbEntity
  8
0
  6
Continuous
 62
     7
100
AcDbCircle
 10
344.3541464329233
 20
143.6096378287682
 30
0.0
 40
5.999971796209486
100
AcDbArc
 50
104.4780927412889
 51
165.5232357421454
  0
ARC
  5
2B9
330
2
100
AcDbEntity
  8
0
  6
Continuous
 62
     7
100
AcDbCircle
 10
336.6081925548262
 20
145.6095353692835
 30
0.0
 40
1.999982852679754
100
AcDbArc
 50
270.000486457617
 51
345.5229400956395
  0
LINE
  5
2BA
330
2
100
AcDbEntity
  8
0
  6
Continuous
 62
     7
100
AcDbLine
 10
336.627789515725
 20
143.609649409798
 30
0.0
 11
294.0948714985432
 21
143.6091649441868
 31
0.0
  0
ARC
  5
2BB
330
2
100
AcDbEntity
  8
0
  6
Continuous
 62
     7
100
AcDbCircle
 10
294.1003904373026
 20
145.6091617955219
 30
0.0
 40
1.999996851399983
100
AcDbArc
 50
194.4773705472596
 51
270.0004606831199
  0
ARC
  5
2BC
330
2
100
AcDbEntity
  8
0
  6
Continuous
 62
     7
100
AcDbCircle
 10
286.3543912872014
 20
143.6094665866965
 30
0.0
 40
5.999936396757376
100
AcDbArc
 50
14.47471797710922
 51
75.54457834449189
  0
ARC
  5
2BD
330
2
100
AcDbEntity
  8
0
  6
Continuous
 62
     7
100
AcDbCircle
 10
288.354107910923
 20
151.3553490179609
 30
0.0
 40
1.999849306760554
100
AcDbArc
 50
179.9962648639651
 51
255.525903905653
  0
LINE
  5
2BE
330
2
100
AcDbEntity
  8
0
  6
Continuous
 62
     7
100
AcDbLine
 10
286.3543433898938
 20
151.3372634819971
 30
0.0
 11
286.3543433898938
 21
169.6094653696689
 31
0.0
  0
ARC
  5
2BF
330
2
100
AcDbEntity
  8
0
  6
Continuous
 62
     7
100
AcDbCircle
 10
288.3543920101918
 20
169.6093876850094
 30
0.0
 40
2.000048621806688
100
AcDbArc
 50
90.0015314957041
 51
179.9977745525437
  0
CIRCLE
  5
2C0
330
2
100
AcDbEntity
  8
0
  6
Continuous
 62
     7
100
AcDbCircle
 10
325.354842474678
 20
157.6094459648276
 30
0.0
 40
10.00014536153076
  0
CIRCLE
  5
2C1
330
2
100
AcDbEntity
  8
0
  6
Continuous
 62
     7
100
AcDbCircle
 10
325.354842474678
 20
157.6094459648276
 30
0.0
 40
7.499915234903562
  0
CIRCLE
  5
2C2
330
2
100
AcDbEntity
  8
0
  6
Continuous
 62
     7
100
AcDbCircle
 10
325.354842474678
 20
157.6094459648276
 30
0.0
 40
6.000009702420651
  0
CIRCLE
  5
2C3
330
2
100
AcDbEntity
  8
0
  6
Continuous
 62
     7
100
AcDbCircle
 10
325.354842474678
 20
157.6094459648276
 30
0.0
 40
9.000014553630979
  0
CIRCLE
  5
2C4
330
2
100
AcDbEntity
  8
0
  6
Continuous
 62
     7
100
AcDbCircle
 10
325.354842474678
 20
157.6094459648276
 30
0.0
 40
9.499983064458616
  0
CIRCLE
  5
2C5
330
2
100
AcDbEntity
  8
0
  6
Continuous
 62
     7
100
AcDbCircle
 10
323.6192928688749
 20
161.2132887539211
 30
0.0
 40
0.7000624036517208
  0
CIRCLE
  5
2C6
330
2
100
AcDbEntity
  8
0
  6
Continuous
 62
     7
100
AcDbCircle
 10
322.2275200608267
 20
155.1154169980247
 30
0.0
 40
0.6999541983349295
  0
CIRCLE
  5
2C7
330
2
100
AcDbEntity
  8
0
  6
Continuous
 62
     7
100
AcDbCircle
 10
321.4550880902225
 20
158.4995061858475
 30
0.0
 40
0.7000727565807205
  0
CIRCLE
  5
2C8
330
2
100
AcDbEntity
  8
0
  6
Continuous
 62
     7
100
AcDbCircle
 10
327.0901982942368
 20
161.2132887539211
 30
0.0
 40
0.6998878023104897
  0
CIRCLE
  5
2C9
330
2
100
AcDbEntity
  8
0
  6
Continuous
 62
     7
100
AcDbCircle
 10
329.2544030728891
 20
158.4995061858475
 30
0.0
 40
0.7000727565807205
  0
CIRCLE
  5
2CA
330
2
100
AcDbEntity
  8
0
  6
Continuous
 62
     7
100
AcDbCircle
 10
328.4821648885294
 20
155.1154169980247
 30
0.0
 40
0.6999541983349295
  0
CIRCLE
  5
2CB
330
2
100
AcDbEntity
  8
0
  6
Continuous
 62
     7
100
AcDbCircle
 10
325.354842474678
 20
157.6094459648276
 30
0.0
 40
0.6999559151586914
  0
CIRCLE
  5
2CC
330
2
100
AcDbEntity
  8
0
  6
Continuous
 62
     7
100
AcDbCircle
 10
325.354842474678
 20
153.609504091962
 30
0.0
 40
0.6999559151586914
  0
ARC
  5
2CD
330
2
100
AcDbEntity
  8
0
  6
Continuous
 62
     7
100
AcDbCircle
 10
339.4416739470902
 20
169.5218975401139
 30
0.0
 40
1.502601910021413
100
AcDbArc
 50
278.1301023541547
 51
351.8698976458443
  0
ARC
  5
2CE
330
2
100
AcDbEntity
  8
0
  6
Continuous
 62
     7
100
AcDbCircle
 10
339.4416739470902
 20
165.6968975401139
 30
0.0
 40
1.502601910021413
100
AcDbArc
 50
8.130102354155605
 51
81.86989764584527
  0
CIRCLE
  5
2CF
330
2
100
AcDbEntity
  8
0
  6
Continuous
 62
     7
100
AcDbCircle
 10
341.3541739470902
 20
167.6093975401138
 30
0.0
 40
2.337499999999999
  0
ARC
  5
2D0
330
2
100
AcDbEntity
  8
0
  6
Continuous
 62
     7
100
AcDbCircle
 10
343.2666739470902
 20
169.5218975401139
 30
0.0
 40
1.502601910021413
100
AcDbArc
 50
188.1301023541556
 51
261.8698976458453
  0
ARC
  5
2D1
330
2
100
AcDbEntity
  8
0
  6
Continuous
 62
     7
100
AcDbCircle
 10
343.2666739470902
 20
165.6968975401136
 30
0.0
 40
1.502601910021413
100
AcDbArc
 50
98.13010235415472
 51
171.8698976458443
  0
ARC
  5
2D2
330
2
100
AcDbEntity
  8
0
  6
Continuous
 62
     7
100
AcDbCircle
 10
287.441848241104
 20
169.5218975401139
 30
0.0
 40
1.502601910021413
100
AcDbArc
 50
278.1301023541547
 51
351.8698976458443
  0
ARC
  5
2D3
330
2
100
AcDbEntity
  8
0
  6
Continuous
 62
     7
100
AcDbCircle
 10
287.4418482411038
 20
165.6968975401139
 30
0.0
 40
1.502601910021413
100
AcDbArc
 50
8.130102354155605
 51
81.86989764584527
  0
CIRCLE
  5
2D4
330
2
100
AcDbEntity
  8
0
  6
Continuous
 62
     7
100
AcDbCircle
 10
289.3543482411041
 20
167.6093975401138
 30
0.0
 40
2.337499999999999
  0
ARC
  5
2D5
330
2
100
AcDbEntity
  8
0
  6
Continuous
 62
     7
100
AcDbCircle
 10
291.2668482411041
 20
169.5218975401139
 30
0.0
 40
1.502601910021413
100
AcDbArc
 50
188.1301023541556
 51
261.8698976458453
  0
ARC
  5
2D6
330
2
100
AcDbEntity
  8
0
  6
Continuous
 62
     7
100
AcDbCircle
 10
291.2668482411041
 20
165.6968975401136
 30
0.0
 40
1.502601910021413
100
AcDbArc
 50
98.13010235415472
 51
171.8698976458443
  0
ARC
  5
2D7
330
2
100
AcDbEntity
  8
0
  6
Continuous
 62
     7
100
AcDbCircle
 10
292.941840986136
 20
148.5220573678862
 30
0.0
 40
1.502601910021413
100
AcDbArc
 50
278.1301023541547
 51
351.8698976458443
  0
ARC
  5
2D8
330
2
100
AcDbEntity
  8
0
  6
Continuous
 62
     7
100
AcDbCircle
 10
292.941840986136
 20
144.6970573678862
 30
0.0
 40
1.502601910021413
100
AcDbArc
 50
8.130102354155605
 51
81.86989764584527
  0
CIRCLE
  5
2D9
330
2
100
AcDbEntity
  8
0
  6
Continuous
 62
     7
100
AcDbCircle
 10
294.854340986136
 20
146.6095573678861
 30
0.0
 40
2.337499999999999
  0
ARC
  5
2DA
330
2
100
AcDbEntity
  8
0
  6
Continuous
 62
     7
100
AcDbCircle
 10
296.766840986136
 20
148.5220573678861
 30
0.0
 40
1.502601910021413
100
AcDbArc
 50
188.1301023541556
 51
261.8698976458453
  0
ARC
  5
2DB
330
2
100
AcDbEntity
  8
0
  6
Continuous
 62
     7
100
AcDbCircle
 10
296.766840986136
 20
144.6970573678859
 30
0.0
 40
1.502601910021413
100
AcDbArc
 50
98.13010235415472
 51
171.8698976458443
  0
ARC
  5
2DC
330
2
100
AcDbEntity
  8
0
  6
Continuous
 62
     7
100
AcDbCircle
 10
333.9416812020587
 20
148.5220573678862
 30
0.0
 40
1.502601910021413
100
AcDbArc
 50
278.1301023541547
 51
351.8698976458443
  0
ARC
  5
2DD
330
2
100
AcDbEntity
  8
0
  6
Continuous
 62
     7
100
AcDbCircle
 10
333.9416812020584
 20
144.6970573678862
 30
0.0
 40
1.502601910021413
100
AcDbArc
 50
8.130102354155605
 51
81.86989764584527
  0
CIRCLE
  5
2DE
330
2
100
AcDbEntity
  8
0
  6
Continuous
 62
     7
100
AcDbCircle
 10
335.8541812020585
 20
146.6095573678861
 30
0.0
 40
2.337499999999999
  0
ARC
  5
2DF
330
2
100
AcDbEntity
  8
0
  6
Continuous
 62
     7
100
AcDbCircle
 10
337.7666812020586
 20
148.5220573678861
 30
0.0
 40
1.502601910021413
100
AcDbArc
 50
188.1301023541556
 51
261.8698976458453
  0
ARC
  5
2E0
330
2
100
AcDbEntity
  8
0
  6
Continuous
 62
     7
100
AcDbCircle
 10
337.7666812020586
 20
144.6970573678859
 30
0.0
 40
1.502601910021413
100
AcDbArc
 50
98.13010235415472
 51
171.8698976458443
  0
LINE
  5
2E1
330
2
100
AcDbEntity
  8
0
  6
Continuous
 62
     7
100
AcDbLine
 10
236.3953762836891
 20
167.5906583846488
 30
0.0
 11
237.3953133053444
 21
167.090689873821
 31
0.0
  0
LINE
  5
2E2
330
2
100
AcDbEntity
  8
0
  6
Continuous
 62
     7
100
AcDbLine
 10
236.3953762836891
 20
167.5906583846488
 30
0.0
 11
236.3953762836891
 21
147.5907552340762
 31
0.0
  0
LINE
  5
2E3
330
2
100
AcDbEntity
  8
0
  6
Continuous
 62
     7
100
AcDbLine
 10
239.3953811348995
 20
167.090689873821
 30
0.0
 11
239.3953811348995
 21
148.0907237449039
 31
0.0
  0
LINE
  5
2E4
330
2
100
AcDbEntity
  8
0
  6
Continuous
 62
     7
100
AcDbLine
 10
242.3953859861098
 20
167.090689873821
 30
0.0
 11
242.3953859861098
 21
148.0907237449039
 31
0.0
  0
LINE
  5
2E5
330
2
100
AcDbEntity
  8
0
  6
Continuous
 62
     7
100
AcDbLine
 10
237.3953133053444
 20
167.090689873821
 30
0.0
 11
237.3953133053444
 21
148.0907237449039
 31
0.0
  0
LINE
  5
2E6
330
2
100
AcDbEntity
  8
0
  6
Continuous
 62
     7
100
AcDbLine
 10
243.395323007765
 20
166.0907528521658
 30
0.0
 11
243.395323007765
 21
149.0906607665592
 31
0.0
  0
LINE
  5
2E7
330
2
100
AcDbEntity
  8
0
  6
Continuous
 62
     7
100
AcDbLine
 10
239.3953811348995
 20
149.0906607665592
 30
0.0
 11
243.395323007765
 21
149.0906607665592
 31
0.0
  0
LINE
  5
2E8
330
2
100
AcDbEntity
  8
0
  6
Continuous
 62
     7
100
AcDbLine
 10
242.3953859861098
 20
148.0907237449039
 30
0.0
 11
237.3953133053444
 21
148.0907237449039
 31
0.0
  0
LINE
  5
2E9
330
2
100
AcDbEntity
  8
0
  6
Continuous
 62
     7
100
AcDbLine
 10
238.3952503269995
 20
148.0907237449039
 30
0.0
 11
239.3953811348995
 21
149.0906607665592
 31
0.0
  0
LINE
  5
2EA
330
2
100
AcDbEntity
  8
0
  6
Continuous
 62
     7
100
AcDbLine
 10
237.3953133053444
 20
148.0907237449039
 30
0.0
 11
236.3953762836891
 21
147.5907552340762
 31
0.0
  0
LINE
  5
2EB
330
2
100
AcDbEntity
  8
0
  6
Continuous
 62
     7
100
AcDbLine
 10
237.3953133053444
 20
148.0907237449039
 30
0.0
 11
237.3953133053444
 21
148.0907237449039
 31
0.0
  0
LINE
  5
2EC
330
2
100
AcDbEntity
  8
0
  6
Continuous
 62
     7
100
AcDbLine
 10
236.3953762836891
 20
147.5907552340762
 30
0.0
 11
234.7572230077651
 21
147.5907552340762
 31
0.0
  0
LINE
  5
2ED
330
2
100
AcDbEntity
  8
0
  6
Continuous
 62
     7
100
AcDbLine
 10
243.395323007765
 20
149.0906607665592
 30
0.0
 11
242.3953859861098
 21
148.0907237449039
 31
0.0
  0
LINE
  5
2EE
330
2
100
AcDbEntity
  8
0
  6
Continuous
 62
     7
100
AcDbLine
 10
239.3953811348995
 20
166.0907528521658
 30
0.0
 11
243.395323007765
 21
166.0907528521658
 31
0.0
  0
LINE
  5
2EF
330
2
100
AcDbEntity
  8
0
  6
Continuous
 62
     7
100
AcDbLine
 10
237.3953133053444
 20
167.090689873821
 30
0.0
 11
242.3953859861098
 21
167.090689873821
 31
0.0
  0
LINE
  5
2F0
330
2
100
AcDbEntity
  8
0
  6
Continuous
 62
     7
100
AcDbLine
 10
238.3952503269995
 20
167.090689873821
 30
0.0
 11
239.3953811348995
 21
166.0907528521658
 31
0.0
  0
LINE
  5
2F1
330
2
100
AcDbEntity
  8
0
  6
Continuous
 62
     7
100
AcDbLine
 10
242.3953859861098
 20
167.090689873821
 30
0.0
 11
243.395323007765
 21
166.0907528521658
 31
0.0
  0
LINE
  5
2F2
330
2
100
AcDbEntity
  8
0
  6
Continuous
 62
     7
100
AcDbLine
 10
234.7572230077651
 20
167.5906583846488
 30
0.0
 11
236.3953762836891
 21
167.5906583846488
 31
0.0
  0
LINE
  5
2F3
330
2
100
AcDbEntity
  8
0
  6
Continuous
 62
     7
100
AcDbLine
 10
231.7465952289861
 20
244.1931603576658
 30
0.0
 11
231.7465952289861
 21
237.0676401471493
 31
0.0
  0
LINE
  5
2F4
330
2
100
AcDbEntity
  8
0
  6
Continuous
 62
     7
100
AcDbLine
 10
232.2467575260583
 20
236.5725162924344
 30
0.0
 11
233.7570938087997
 21
236.572711426321
 31
0.0
  0
ARC
  5
2F5
330
2
100
AcDbEntity
  8
0
  6
Continuous
 62
     7
100
AcDbCircle
 10
232.2467857147964
 20
237.0727067782446
 30
0.0
 40
0.5001904866045285
100
AcDbArc
 50
180.0032289612977
 51
269.9967710387019
  0
LINE
  5
2F6
330
2
100
AcDbEntity
  8
0
  6
Continuous
 62
     7
100
AcDbLine
 10
231.7465952289861
 20
237.8007335101187
 30
0.0
 11
232.746726036886
 21
237.8007335101187
 31
0.0
  0
LINE
  5
2F7
330
2
100
AcDbEntity
  8
0
  6
Continuous
 62
     7
100
AcDbLine
 10
231.7465952289861
 20
243.4007684038773
 30
0.0
 11
232.746726036886
 21
243.4007684038773
 31
0.0
  0
ARC
  5
2F8
330
2
100
AcDbEntity
  8
0
  6
Continuous
 62
     7
100
AcDbCircle
 10
230.6464707189209
 20
240.600750956998
 30
0.0
 40
3.500167153646943
100
AcDbArc
 50
306.8730698183308
 51
53.12693018166925
  0
ARC
  5
2F9
330
2
100
AcDbEntity
  8
0
  6
Continuous
 62
     7
100
AcDbCircle
 10
230.6532532374786
 20
143.6170713973413
 30
0.0
 40
3.499973363379153
100
AcDbArc
 50
306.871483819906
 51
53.12851618009396
  0
LINE
  5
2FA
330
2
100
AcDbEntity
  8
0
  6
Continuous
 62
     7
100
AcDbLine
 10
231.7531839612993
 20
146.4171857373428
 30
0.0
 11
232.7533147691992
 21
146.4169919510982
 31
0.0
  0
LINE
  5
2FB
330
2
100
AcDbEntity
  8
0
  6
Continuous
 62
     7
100
AcDbLine
 10
231.7531839612993
 20
140.8171508435843
 30
0.0
 11
232.7533147691992
 21
140.8171508435843
 31
0.0
  0
LINE
  5
2FC
330
2
100
AcDbEntity
  8
0
  6
Continuous
 62
     7
100
AcDbLine
 10
231.7531839612993
 20
147.0952438068723
 30
0.0
 11
231.7531839612993
 21
140.0288284009304
 31
0.0
  0
ARC
  5
2FD
330
2
100
AcDbEntity
  8
0
  6
Continuous
 62
     7
100
AcDbCircle
 10
232.2533744814051
 20
147.0950217490995
 30
0.0
 40
0.5001905693966612
100
AcDbArc
 50
90.0032328892483
 51
179.974563747529
  0
LINE
  5
2FE
330
2
100
AcDbEntity
  8
0
  6
Continuous
 62
     7
100
AcDbLine
 10
233.7570938087997
 20
147.5950180350706
 30
0.0
 11
232.2533462583715
 21
147.5952123176999
 31
0.0
  0
ARC
  5
2FF
330
2
100
AcDbEntity
  8
0
  6
Continuous
100
AcDbCircle
 10
233.7572230077651
 20
148.5950180267244
 30
0.0
 40
1.0
100
AcDbArc
 50
269.9925974445447
 51
0.0
  0
LINE
  5
300
330
2
100
AcDbEntity
  8
0
  6
Continuous
 62
     7
100
AcDbLine
 10
231.754795745808
 20
48.40785027449036
 30
0.0
 11
232.7549265537078
 21
48.40765648824585
 31
0.0
  0
ARC
  5
301
330
2
100
AcDbEntity
  8
0
  6
Continuous
 62
     7
100
AcDbCircle
 10
232.2549862659138
 20
49.08568628624699
 30
0.0
 40
0.5001905693966612
100
AcDbArc
 50
90.0032328892483
 51
179.974563747529
  0
LINE
  5
302
330
2
100
AcDbEntity
  8
0
  6
Continuous
 62
     7
100
AcDbLine
 10
233.7570938087996
 20
49.58568278045904
 30
0.0
 11
232.2549580428802
 21
49.5858768548475
 31
0.0
  0
LINE
  5
303
330
2
100
AcDbEntity
  8
0
  6
Continuous
 62
     7
100
AcDbLine
 10
231.754795745808
 20
49.08590834401982
 30
0.0
 11
231.754795745808
 21
42.01949293807799
 31
0.0
  0
ARC
  5
304
330
2
100
AcDbEntity
  8
0
  6
Continuous
 62
     7
100
AcDbCircle
 10
230.6548650219872
 20
45.60773593448883
 30
0.0
 40
3.499973363379153
100
AcDbArc
 50
306.871483819906
 51
53.12851618009396
  0
LINE
  5
305
330
2
100
AcDbEntity
  8
0
  6
Continuous
 62
     7
100
AcDbLine
 10
231.754795745808
 20
42.80781538073179
 30
0.0
 11
232.7549265537078
 21
42.80781538073179
 31
0.0
  0
LINE
  5
306
330
2
100
AcDbEntity
  8
0
  6
Continuous
 62
     7
100
AcDbLine
 10
231.7482070134949
 20
107.2040404211933
 30
0.0
 11
231.7482070134949
 21
100.0785202106769
 31
0.0
  0
ARC
  5
307
330
2
100
AcDbEntity
  8
0
  6
Continuous
 62
     7
100
AcDbCircle
 10
232.2483974993049
 20
100.0835868417721
 30
0.0
 40
0.5001904866045285
100
AcDbArc
 50
180.0032289612977
 51
269.9967710387019
  0
LINE
  5
308
330
2
100
AcDbEntity
  8
0
  6
Continuous
 62
     7
100
AcDbLine
 10
232.248369310567
 20
99.58339635596189
 30
0.0
 11
233.7570938087997
 21
99.58359128160768
 31
0.0
  0
ARC
  5
309
330
2
100
AcDbEntity
  8
0
  6
Continuous
 62
     7
100
AcDbCircle
 10
230.6480825034296
 20
103.6116310205256
 30
0.0
 40
3.500167153646943
100
AcDbArc
 50
306.8730698183308
 51
53.12693018166925
  0
LINE
  5
30A
330
2
100
AcDbEntity
  8
0
  6
Continuous
 62
     7
100
AcDbLine
 10
231.7482070134949
 20
100.8116135736463
 30
0.0
 11
232.7483378213947
 21
100.8116135736463
 31
0.0
  0
LINE
  5
30B
330
2
100
AcDbEntity
  8
0
  6
Continuous
 62
     7
100
AcDbLine
 10
231.7482070134949
 20
106.4116484674048
 30
0.0
 11
232.7483378213947
 21
106.4116484674048
 31
0.0
  0
LINE
  5
30C
330
2
100
AcDbEntity
  8
0
  6
Continuous
 62
     7
100
AcDbLine
 10
244.757223007765
 20
83.10963503094608
 30
0.0
 11
234.757223007765
 21
83.10963503094617
 31
0.0
  0
LINE
  5
30D
330
2
100
AcDbEntity
  8
0
  6
Continuous
 62
     7
100
AcDbLine
 10
244.757223007765
 20
83.10963503094608
 30
0.0
 11
244.757223007765
 21
66.10963503094606
 31
0.0
  0
LINE
  5
30E
330
2
100
AcDbEntity
  8
0
  6
Continuous
 62
     7
100
AcDbLine
 10
244.757223007765
 20
66.10963503094606
 30
0.0
 11
243.395323007765
 21
66.10963503094604
 31
0.0
  0
LINE
  5
30F
330
2
100
AcDbEntity
  8
0
  6
Continuous
 62
     7
100
AcDbLine
 10
237.3953133053445
 20
74.1096180954047
 30
0.0
 11
242.3953859861099
 21
74.1096180954047
 31
0.0
  0
LINE
  5
310
330
2
100
AcDbEntity
  8
0
  6
Continuous
 62
     7
100
AcDbLine
 10
242.3953859861099
 20
55.10965196648752
 30
0.0
 11
237.3953133053445
 21
55.10965196648752
 31
0.0
  0
LINE
  5
311
330
2
100
AcDbEntity
  8
0
  6
Continuous
 62
     7
100
AcDbLine
 10
237.3953133053445
 20
74.1096180954047
 30
0.0
 11
237.3953133053445
 21
55.10965196648752
 31
0.0
  0
LINE
  5
312
330
2
100
AcDbEntity
  8
0
  6
Continuous
 62
     7
100
AcDbLine
 10
236.3953762836892
 20
74.6095866062324
 30
0.0
 11
236.3953762836892
 21
54.60968345565984
 31
0.0
  0
LINE
  5
313
330
2
100
AcDbEntity
  8
0
  6
Continuous
 62
     7
100
AcDbLine
 10
236.3953762836892
 20
54.60968345565984
 30
0.0
 11
234.757223007765
 21
54.60968345565984
 31
0.0
  0
LINE
  5
314
330
2
100
AcDbEntity
  8
0
  6
Continuous
 62
     7
100
AcDbLine
 10
237.3953133053445
 20
55.10965196648752
 30
0.0
 11
237.3953133053445
 21
55.10965196648752
 31
0.0
  0
LINE
  5
315
330
2
100
AcDbEntity
  8
0
  6
Continuous
 62
     7
100
AcDbLine
 10
237.3953133053445
 20
55.10965196648752
 30
0.0
 11
236.3953762836892
 21
54.60968345565984
 31
0.0
  0
LINE
  5
316
330
2
100
AcDbEntity
  8
0
  6
Continuous
 62
     7
100
AcDbLine
 10
234.757223007765
 20
74.60963503094603
 30
0.0
 11
236.3953762836892
 21
74.6095866062324
 31
0.0
  0
LINE
  5
317
330
2
100
AcDbEntity
  8
0
  6
Continuous
 62
     7
100
AcDbLine
 10
236.3953762836892
 20
74.6095866062324
 30
0.0
 11
237.3953133053445
 21
74.1096180954047
 31
0.0
  0
LINE
  5
318
330
2
100
AcDbEntity
  8
0
  6
Continuous
 62
     7
100
AcDbLine
 10
243.395323007765
 20
73.10968107374939
 30
0.0
 11
243.395323007765
 21
56.10958898814274
 31
0.0
  0
LINE
  5
319
330
2
100
AcDbEntity
  8
0
  6
Continuous
 62
     7
100
AcDbLine
 10
242.3953859861099
 20
74.1096180954047
 30
0.0
 11
242.3953859861099
 21
55.10965196648752
 31
0.0
  0
LINE
  5
31A
330
2
100
AcDbEntity
  8
0
  6
Continuous
 62
     7
100
AcDbLine
 10
239.3953811348996
 20
74.1096180954047
 30
0.0
 11
239.3953811348996
 21
55.10965196648752
 31
0.0
  0
LINE
  5
31B
330
2
100
AcDbEntity
  8
0
  6
Continuous
 62
     7
100
AcDbLine
 10
243.395323007765
 20
56.10958898814274
 30
0.0
 11
242.3953859861099
 21
55.10965196648752
 31
0.0
  0
LINE
  5
31C
330
2
100
AcDbEntity
  8
0
  6
Continuous
 62
     7
100
AcDbLine
 10
238.3952503269997
 20
55.10965196648752
 30
0.0
 11
239.3953811348996
 21
56.10958898814274
 31
0.0
  0
LINE
  5
31D
330
2
100
AcDbEntity
  8
0
  6
Continuous
 62
     7
100
AcDbLine
 10
239.3953811348996
 20
56.10958898814274
 30
0.0
 11
243.395323007765
 21
56.10958898814274
 31
0.0
  0
LINE
  5
31E
330
2
100
AcDbEntity
  8
0
  6
Continuous
 62
     7
100
AcDbLine
 10
242.3953859861099
 20
74.1096180954047
 30
0.0
 11
243.395323007765
 21
73.10968107374939
 31
0.0
  0
LINE
  5
31F
330
2
100
AcDbEntity
  8
0
  6
Continuous
 62
     7
100
AcDbLine
 10
238.3952503269997
 20
74.1096180954047
 30
0.0
 11
239.3953811348996
 21
73.10968107374939
 31
0.0
  0
LINE
  5
320
330
2
100
AcDbEntity
  8
0
  6
Continuous
 62
     7
100
AcDbLine
 10
239.3953811348996
 20
73.10968107374939
 30
0.0
 11
243.395323007765
 21
73.10968107374939
 31
0.0
  0
LINE
  5
321
330
2
100
AcDbEntity
  8
0
  6
Continuous
 62
     7
100
AcDbLine
 10
304.85286741383
 20
238.6097855407142
 30
0.0
 11
337.8551148652511
 21
238.6097855407142
 31
0.0
  0
LINE
  5
322
330
2
100
AcDbEntity
  8
0
  6
Continuous
 62
     7
100
AcDbLine
 10
337.8551148652511
 20
234.6098436678485
 30
0.0
 11
304.85286741383
 21
234.6098436678485
 31
0.0
  0
LINE
  5
323
330
2
100
AcDbEntity
  8
0
  6
Continuous
 62
     7
100
AcDbLine
 10
304.85286741383
 20
234.6098436678485
 30
0.0
 11
304.85286741383
 21
238.6097855407142
 31
0.0
  0
LINE
  5
324
330
2
100
AcDbEntity
  8
0
  6
Continuous
 62
     7
100
AcDbLine
 10
337.8551148652511
 20
238.6097855407142
 30
0.0
 11
337.8551148652511
 21
234.6098436678485
 31
0.0
  0
LINE
  5
325
330
2
100
AcDbEntity
  8
0
  6
Continuous
 62
     7
100
AcDbLine
 10
324.3550912326903
 20
178.109635030946
 30
0.0
 11
324.3550912326903
 21
198.1096350309461
 31
0.0
  0
LINE
  5
326
330
2
100
AcDbEntity
  8
0
  6
Continuous
 62
     7
100
AcDbLine
 10
325.8550241075861
 20
197.1097074601024
 30
0.0
 11
325.8550241075861
 21
179.1097074601023
 31
0.0
  0
LINE
  5
327
330
2
100
AcDbEntity
  8
0
  6
Continuous
 62
     7
100
AcDbLine
 10
298.3550912326903
 20
178.109635030946
 30
0.0
 11
298.3550912326903
 21
198.1096350309461
 31
0.0
  0
LINE
  5
328
330
2
100
AcDbEntity
  8
0
  6
Continuous
 62
     7
100
AcDbLine
 10
296.8550241075861
 20
197.1097074601024
 30
0.0
 11
296.8550241075861
 21
179.1097074601024
 31
0.0
  0
LWPOLYLINE
  5
329
330
2
100
AcDbEntity
  8
0
  6
Continuous
 62
     7
100
AcDbPolyline
 90
        4
 70
     1
 43
0.0
 10
297.8550912326903
 20
198.6096350309459
 10
324.8550912326903
 20
198.6096350309459
 10
324.8550912326903
 20
177.6096350309461
 10
297.8550912326903
 20
177.6096350309461
  0
LINE
  5
32A
330
2
100
AcDbEntity
  8
0
  6
Continuous
 62
     7
100
AcDbLine
 10
305.3550912326902
 20
194.6096350309461
 30
0.0
 11
307.8550912326903
 21
194.6096350309461
 31
0.0
  0
LINE
  5
32B
330
2
100
AcDbEntity
  8
0
  6
Continuous
 62
     7
100
AcDbLine
 10
305.3550912326902
 20
195.609635030946
 30
0.0
 11
307.8550912326903
 21
195.609635030946
 31
0.0
  0
LINE
  5
32C
330
2
100
AcDbEntity
  8
0
  6
Continuous
 62
     7
100
AcDbLine
 10
306.9024207210881
 20
190.8596350309461
 30
0.0
 11
308.5400637127758
 21
190.8596350309461
 31
0.0
  0
LINE
  5
32D
330
2
100
AcDbEntity
  8
0
  6
Continuous
 62
     7
100
AcDbLine
 10
306.4170871212439
 20
191.609635030946
 30
0.0
 11
309.1130970619245
 21
191.609635030946
 31
0.0
  0
LINE
  5
32E
330
2
100
AcDbEntity
  8
0
  6
Continuous
 62
     7
100
AcDbLine
 10
306.6908183074387
 20
188.2346350309459
 30
0.0
 11
308.2644058957273
 21
188.2346350309459
 31
0.0
  0
LINE
  5
32F
330
2
100
AcDbEntity
  8
0
  6
Continuous
 62
     7
100
AcDbLine
 10
306.5957774769356
 20
187.484635030946
 30
0.0
 11
308.1693650652239
 21
187.484635030946
 31
0.0
  0
LINE
  5
330
330
2
100
AcDbEntity
  8
0
  6
Continuous
 62
     7
100
AcDbLine
 10
305.7470863107383
 20
184.109635030946
 30
0.0
 11
308.4430962514192
 21
184.109635030946
 31
0.0
  0
LINE
  5
331
330
2
100
AcDbEntity
  8
0
  6
Continuous
 62
     7
100
AcDbLine
 10
306.3201196598868
 20
184.8596350309461
 30
0.0
 11
307.9577626515745
 21
184.8596350309461
 31
0.0
  0
LINE
  5
332
330
2
100
AcDbEntity
  8
0
  6
Continuous
 62
     7
100
AcDbLine
 10
298.8550241075861
 20
177.1097074601024
 30
0.0
 11
323.8550241075861
 21
177.1097074601024
 31
0.0
  0
LINE
  5
333
330
2
100
AcDbEntity
  8
0
  6
Continuous
 62
     7
100
AcDbLine
 10
298.3550912326903
 20
178.109635030946
 30
0.0
 11
324.3550912326903
 21
178.109635030946
 31
0.0
  0
ARC
  5
334
330
2
100
AcDbEntity
  8
0
  6
Continuous
 62
     7
100
AcDbCircle
 10
298.8550241075861
 20
179.1097074601024
 30
0.0
 40
2.0
100
AcDbArc
 50
180.0
 51
270.0
  0
LINE
  5
335
330
2
100
AcDbEntity
  8
0
  6
Continuous
 62
     7
100
AcDbLine
 10
304.0609489894564
 20
191.5572765341816
 30
0.0
 11
303.2900637127759
 21
190.8596350309461
 31
0.0
  0
LINE
  5
336
330
2
100
AcDbEntity
  8
0
  6
Continuous
 62
     7
100
AcDbLine
 10
303.6856645909224
 20
188.0155675870998
 30
0.0
 11
303.2286983776178
 21
188.3831081166769
 31
0.0
  0
LINE
  5
337
330
2
100
AcDbEntity
  8
0
  6
Continuous
 62
     7
100
AcDbLine
 10
303.122511737932
 20
187.3212430043693
 30
0.0
 11
303.6745187817403
 21
187.7037024747922
 31
0.0
  0
LINE
  5
338
330
2
100
AcDbEntity
  8
0
  6
Continuous
 62
     7
100
AcDbLine
 10
303.471372109032
 20
187.8670945013689
 30
0.0
 11
303.0144058957274
 21
188.2346350309459
 31
0.0
  0
LINE
  5
339
330
2
100
AcDbEntity
  8
0
  6
Continuous
 62
     7
100
AcDbLine
 10
303.2286983776178
 20
188.3831081166769
 30
0.0
 11
303.4578150318655
 21
190.6742718875119
 31
0.0
  0
LINE
  5
33A
330
2
100
AcDbEntity
  8
0
  6
Continuous
 62
     7
100
AcDbLine
 10
302.919365065224
 20
187.484635030946
 30
0.0
 11
303.471372109032
 21
187.8670945013689
 31
0.0
  0
LINE
  5
33B
330
2
100
AcDbEntity
  8
0
  6
Continuous
 62
     7
100
AcDbLine
 10
301.1670871212439
 20
191.609635030946
 30
0.0
 11
303.8630970619245
 21
191.609635030946
 31
0.0
  0
ARC
  5
33C
330
2
100
AcDbEntity
  8
0
  6
Continuous
 62
     7
100
AcDbCircle
 10
302.8550912326902
 20
195.1096350309461
 30
0.0
 40
0.5
100
AcDbArc
 50
0.0
 51
90.0
  0
ARC
  5
33D
330
2
100
AcDbEntity
  8
0
  6
Continuous
 62
     7
100
AcDbCircle
 10
302.8550912326902
 20
195.1096350309461
 30
0.0
 40
0.5
100
AcDbArc
 50
270.0
 51
0.0
  0
LINE
  5
33E
330
2
100
AcDbEntity
  8
0
  6
Continuous
 62
     7
100
AcDbLine
 10
300.8194456180081
 20
191.4074869584779
 30
0.0
 11
301.4670575776543
 21
190.6918837118565
 31
0.0
  0
ARC
  5
33F
330
2
100
AcDbEntity
  8
0
  6
Continuous
 62
     7
100
AcDbCircle
 10
301.1670871212439
 20
191.2096350309461
 30
0.0
 40
0.4
100
AcDbArc
 50
150.3546568642833
 51
174.289399999998
  0
ARC
  5
340
330
2
100
AcDbEntity
  8
0
  6
Continuous
 62
     7
100
AcDbCircle
 10
301.1670871212439
 20
191.2096350309461
 30
0.0
 40
0.4
100
AcDbArc
 50
90.0
 51
113.9347431357138
  0
LINE
  5
341
330
2
100
AcDbEntity
  8
0
  6
Continuous
 62
     7
100
AcDbLine
 10
301.0048087614421
 20
191.5752382775675
 30
0.0
 11
301.6524207210882
 21
190.8596350309461
 31
0.0
  0
LINE
  5
342
330
2
100
AcDbEntity
  8
0
  6
Continuous
 62
     7
100
AcDbLine
 10
300.8888112636307
 20
187.8521755605232
 30
0.0
 11
301.3457774769356
 21
187.484635030946
 31
0.0
  0
LINE
  5
343
330
2
100
AcDbEntity
  8
0
  6
Continuous
 62
     7
100
AcDbLine
 10
301.4408183074388
 20
188.2346350309459
 30
0.0
 11
300.8888112636307
 21
187.8521755605232
 31
0.0
  0
LINE
  5
344
330
2
100
AcDbEntity
  8
0
  6
Continuous
 62
     7
100
AcDbLine
 10
301.2376716347308
 20
188.3980270575228
 30
0.0
 11
300.6856645909224
 21
188.0155675870998
 31
0.0
  0
LINE
  5
345
330
2
100
AcDbEntity
  8
0
  6
Continuous
 62
     7
100
AcDbLine
 10
300.6745187817403
 20
187.7037024747922
 30
0.0
 11
301.1314849950452
 21
187.3361619452151
 31
0.0
  0
LINE
  5
346
330
2
100
AcDbEntity
  8
0
  6
Continuous
 62
     7
100
AcDbLine
 10
301.2376716347308
 20
188.3980270575228
 30
0.0
 11
301.4670575776543
 21
190.6918837118565
 31
0.0
  0
LINE
  5
347
330
2
100
AcDbEntity
  8
0
  6
Continuous
 62
     7
100
AcDbLine
 10
301.3457774769356
 20
187.484635030946
 30
0.0
 11
302.919365065224
 21
187.484635030946
 31
0.0
  0
LINE
  5
348
330
2
100
AcDbEntity
  8
0
  6
Continuous
 62
     7
100
AcDbLine
 10
301.6524207210882
 20
190.8596350309461
 30
0.0
 11
303.2900637127759
 21
190.8596350309461
 31
0.0
  0
LINE
  5
349
330
2
100
AcDbEntity
  8
0
  6
Continuous
 62
     7
100
AcDbLine
 10
301.4408183074388
 20
188.2346350309459
 30
0.0
 11
303.0144058957274
 21
188.2346350309459
 31
0.0
  0
LINE
  5
34A
330
2
100
AcDbEntity
  8
0
  6
Continuous
 62
     7
100
AcDbLine
 10
303.3550912326902
 20
195.1096350309461
 30
0.0
 11
303.3550912326902
 21
195.1096350309461
 31
0.0
  0
ARC
  5
34B
330
2
100
AcDbEntity
  8
0
  6
Continuous
 62
     7
100
AcDbCircle
 10
303.8630970619245
 20
191.2096350309461
 30
0.0
 40
0.4
100
AcDbArc
 50
354.289399999998
 51
23.93474313571744
  0
LINE
  5
34C
330
2
100
AcDbEntity
  8
0
  6
Continuous
 62
     7
100
AcDbLine
 10
304.228700308546
 20
191.3719133907475
 30
0.0
 11
303.4578150318655
 21
190.6742718875119
 31
0.0
  0
ARC
  5
34D
330
2
100
AcDbEntity
  8
0
  6
Continuous
 62
     7
100
AcDbCircle
 10
303.8630970619245
 20
191.2096350309461
 30
0.0
 40
0.4
100
AcDbArc
 50
60.35465686428622
 51
90.0
  0
LINE
  5
34E
330
2
100
AcDbEntity
  8
0
  6
Continuous
 62
     7
100
AcDbLine
 10
303.8966335711478
 20
187.5250542838562
 30
0.0
 11
303.6745187817403
 21
187.7037024747922
 31
0.0
  0
LINE
  5
34F
330
2
100
AcDbEntity
  8
0
  6
Continuous
 62
     7
100
AcDbLine
 10
303.6856645909224
 20
188.0155675870998
 30
0.0
 11
303.9650416974043
 21
188.2091347188815
 31
0.0
  0
LINE
  5
350
330
2
100
AcDbEntity
  8
0
  6
Continuous
 62
     7
100
AcDbLine
 10
303.9650416974043
 20
188.2091347188815
 30
0.0
 11
304.2611119332412
 21
191.1698334956661
 31
0.0
  0
ARC
  5
351
330
2
100
AcDbEntity
  8
0
  6
Continuous
 62
     7
100
AcDbCircle
 10
306.4170871212439
 20
191.2096350309461
 30
0.0
 40
0.4
100
AcDbArc
 50
150.3546568642833
 51
174.289399999998
  0
ARC
  5
352
330
2
100
AcDbEntity
  8
0
  6
Continuous
 62
     7
100
AcDbCircle
 10
306.4170871212439
 20
191.2096350309461
 30
0.0
 40
0.4
100
AcDbArc
 50
90.0
 51
113.9347431357138
  0
LINE
  5
353
330
2
100
AcDbEntity
  8
0
  6
Continuous
 62
     7
100
AcDbLine
 10
306.2548087614421
 20
191.5752382775675
 30
0.0
 11
306.9024207210881
 21
190.8596350309461
 31
0.0
  0
LINE
  5
354
330
2
100
AcDbEntity
  8
0
  6
Continuous
 62
     7
100
AcDbLine
 10
306.0694456180081
 20
191.4074869584779
 30
0.0
 11
306.7170575776543
 21
190.6918837118565
 31
0.0
  0
LINE
  5
355
330
2
100
AcDbEntity
  8
0
  6
Continuous
 62
     7
100
AcDbLine
 10
305.9245187817403
 20
187.7037024747922
 30
0.0
 11
305.6451416752586
 21
187.5101353430105
 31
0.0
  0
LINE
  5
356
330
2
100
AcDbEntity
  8
0
  6
Continuous
 62
     7
100
AcDbLine
 10
305.7135498015148
 20
188.1942157780359
 30
0.0
 11
305.9356645909224
 21
188.0155675870998
 31
0.0
  0
LINE
  5
357
330
2
100
AcDbEntity
  8
0
  6
Continuous
 62
     7
100
AcDbLine
 10
306.4876716347308
 20
188.3980270575228
 30
0.0
 11
305.9356645909224
 21
188.0155675870998
 31
0.0
  0
LINE
  5
358
330
2
100
AcDbEntity
  8
0
  6
Continuous
 62
     7
100
AcDbLine
 10
305.9245187817403
 20
187.7037024747922
 30
0.0
 11
306.3814849950452
 21
187.3361619452151
 31
0.0
  0
LINE
  5
359
330
2
100
AcDbEntity
  8
0
  6
Continuous
 62
     7
100
AcDbLine
 10
306.1388112636306
 20
187.8521755605232
 30
0.0
 11
306.5957774769356
 21
187.484635030946
 31
0.0
  0
LINE
  5
35A
330
2
100
AcDbEntity
  8
0
  6
Continuous
 62
     7
100
AcDbLine
 10
306.6908183074387
 20
188.2346350309459
 30
0.0
 11
306.1388112636306
 21
187.8521755605232
 31
0.0
  0
LINE
  5
35B
330
2
100
AcDbEntity
  8
0
  6
Continuous
 62
     7
100
AcDbLine
 10
305.7135498015148
 20
188.1942157780359
 30
0.0
 11
306.0190722499269
 21
191.2494365662259
 31
0.0
  0
LINE
  5
35C
330
2
100
AcDbEntity
  8
0
  6
Continuous
 62
     7
100
AcDbLine
 10
306.4876716347308
 20
188.3980270575228
 30
0.0
 11
306.7170575776543
 21
190.6918837118565
 31
0.0
  0
ARC
  5
35D
330
2
100
AcDbEntity
  8
0
  6
Continuous
 62
     7
100
AcDbCircle
 10
305.3550912326902
 20
195.1096350309461
 30
0.0
 40
0.5
100
AcDbArc
 50
180.0
 51
270.0
  0
LINE
  5
35E
330
2
100
AcDbEntity
  8
0
  6
Continuous
 62
     7
100
AcDbLine
 10
304.8550912326903
 20
195.1096350309461
 30
0.0
 11
304.8550912326903
 21
195.1096350309461
 31
0.0
  0
ARC
  5
35F
330
2
100
AcDbEntity
  8
0
  6
Continuous
 62
     7
100
AcDbCircle
 10
305.3550912326902
 20
195.1096350309461
 30
0.0
 40
0.5
100
AcDbArc
 50
90.0
 51
180.0
  0
LINE
  5
360
330
2
100
AcDbEntity
  8
0
  6
Continuous
 62
     7
100
AcDbLine
 10
299.8550912326903
 20
195.1096350309461
 30
0.0
 11
299.8550912326903
 21
195.1096350309461
 31
0.0
  0
ARC
  5
361
330
2
100
AcDbEntity
  8
0
  6
Continuous
 62
     7
100
AcDbCircle
 10
300.3550912326903
 20
195.1096350309461
 30
0.0
 40
0.5
100
AcDbArc
 50
90.0
 51
180.0
  0
ARC
  5
362
330
2
100
AcDbEntity
  8
0
  6
Continuous
 62
     7
100
AcDbCircle
 10
300.3550912326903
 20
195.1096350309461
 30
0.0
 40
0.5
100
AcDbArc
 50
180.0
 51
270.0
  0
LINE
  5
363
330
2
100
AcDbEntity
  8
0
  6
Continuous
 62
     7
100
AcDbLine
 10
300.6745187817403
 20
187.7037024747922
 30
0.0
 11
300.3951416752586
 21
187.5101353430105
 31
0.0
  0
LINE
  5
364
330
2
100
AcDbEntity
  8
0
  6
Continuous
 62
     7
100
AcDbLine
 10
300.4635498015148
 20
188.1942157780359
 30
0.0
 11
300.6856645909224
 21
188.0155675870998
 31
0.0
  0
LINE
  5
365
330
2
100
AcDbEntity
  8
0
  6
Continuous
 62
     7
100
AcDbLine
 10
300.4635498015148
 20
188.1942157780359
 30
0.0
 11
300.769072249927
 21
191.2494365662259
 31
0.0
  0
LINE
  5
366
330
2
100
AcDbEntity
  8
0
  6
Continuous
 62
     7
100
AcDbLine
 10
300.3550912326903
 20
194.6096350309461
 30
0.0
 11
302.8550912326902
 21
194.6096350309461
 31
0.0
  0
LINE
  5
367
330
2
100
AcDbEntity
  8
0
  6
Continuous
 62
     7
100
AcDbLine
 10
300.3550912326903
 20
195.609635030946
 30
0.0
 11
302.8550912326902
 21
195.609635030946
 31
0.0
  0
LINE
  5
368
330
2
100
AcDbEntity
  8
0
  6
Continuous
 62
     7
100
AcDbLine
 10
303.5407377546546
 20
184.3117831034141
 30
0.0
 11
302.8931257950087
 21
185.0273863500354
 31
0.0
  0
ARC
  5
369
330
2
100
AcDbEntity
  8
0
  6
Continuous
 62
     7
100
AcDbCircle
 10
303.1930962514191
 20
184.5096350309459
 30
0.0
 40
0.4
100
AcDbArc
 50
270.0
 51
293.9347431357139
  0
LINE
  5
36A
330
2
100
AcDbEntity
  8
0
  6
Continuous
 62
     7
100
AcDbLine
 10
303.3553746112204
 20
184.1440317843245
 30
0.0
 11
302.7077626515745
 21
184.8596350309461
 31
0.0
  0
LINE
  5
36B
330
2
100
AcDbEntity
  8
0
  6
Continuous
 62
     7
100
AcDbLine
 10
301.0701196598868
 20
184.8596350309461
 30
0.0
 11
302.7077626515745
 21
184.8596350309461
 31
0.0
  0
LINE
  5
36C
330
2
100
AcDbEntity
  8
0
  6
Continuous
 62
     7
100
AcDbLine
 10
304.0550912326903
 20
184.109635030946
 30
0.0
 11
304.8050912326902
 21
184.109635030946
 31
0.0
  0
LINE
  5
36D
330
2
100
AcDbEntity
  8
0
  6
Continuous
 62
     7
100
AcDbLine
 10
304.1300913234183
 20
184.8596350309461
 30
0.0
 11
304.8800913234186
 21
184.8596350309461
 31
0.0
  0
ARC
  5
36E
330
2
100
AcDbEntity
  8
0
  6
Continuous
 62
     7
100
AcDbCircle
 10
303.1930962514191
 20
184.5096350309459
 30
0.0
 40
0.4
100
AcDbArc
 50
330.3546568642834
 51
354.289399999998
  0
LINE
  5
36F
330
2
100
AcDbEntity
  8
0
  6
Continuous
 62
     7
100
AcDbLine
 10
304.0550912326903
 20
184.109635030946
 30
0.0
 11
304.1300913234183
 21
184.8596350309461
 31
0.0
  0
LINE
  5
370
330
2
100
AcDbEntity
  8
0
  6
Continuous
 62
     7
100
AcDbLine
 10
305.381483064117
 20
184.3473566711445
 30
0.0
 11
306.1523683407973
 21
185.04499817438
 31
0.0
  0
LINE
  5
371
330
2
100
AcDbEntity
  8
0
  6
Continuous
 62
     7
100
AcDbLine
 10
305.5492343832063
 20
184.1619935277105
 30
0.0
 11
306.3201196598868
 21
184.8596350309461
 31
0.0
  0
ARC
  5
372
330
2
100
AcDbEntity
  8
0
  6
Continuous
 62
     7
100
AcDbCircle
 10
305.7470863107383
 20
184.5096350309459
 30
0.0
 40
0.4
100
AcDbArc
 50
240.3546568642862
 51
270.0
  0
ARC
  5
373
330
2
100
AcDbEntity
  8
0
  6
Continuous
 62
     7
100
AcDbCircle
 10
305.7470863107383
 20
184.5096350309459
 30
0.0
 40
0.4
100
AcDbArc
 50
174.289399999998
 51
203.9347431357174
  0
LINE
  5
374
330
2
100
AcDbEntity
  8
0
  6
Continuous
 62
     7
100
AcDbLine
 10
304.8050912326902
 20
184.109635030946
 30
0.0
 11
304.8800913234186
 21
184.8596350309461
 31
0.0
  0
ARC
  5
375
330
2
100
AcDbEntity
  8
0
  6
Continuous
 62
     7
100
AcDbCircle
 10
300.4970863107383
 20
184.5096350309459
 30
0.0
 40
0.4
100
AcDbArc
 50
240.3546568642862
 51
270.0
  0
ARC
  5
376
330
2
100
AcDbEntity
  8
0
  6
Continuous
 62
     7
100
AcDbCircle
 10
300.4970863107383
 20
184.5096350309459
 30
0.0
 40
0.4
100
AcDbArc
 50
174.289399999998
 51
203.9347431357174
  0
LINE
  5
377
330
2
100
AcDbEntity
  8
0
  6
Continuous
 62
     7
100
AcDbLine
 10
300.2992343832064
 20
184.1619935277105
 30
0.0
 11
301.0701196598868
 21
184.8596350309461
 31
0.0
  0
LINE
  5
378
330
2
100
AcDbEntity
  8
0
  6
Continuous
 62
     7
100
AcDbLine
 10
300.131483064117
 20
184.3473566711445
 30
0.0
 11
300.9023683407972
 21
185.04499817438
 31
0.0
  0
LINE
  5
379
330
2
100
AcDbEntity
  8
0
  6
Continuous
 62
     7
100
AcDbLine
 10
300.4970863107383
 20
184.109635030946
 30
0.0
 11
303.1930962514191
 21
184.109635030946
 31
0.0
  0
LINE
  5
37A
330
2
100
AcDbEntity
  8
0
  6
Continuous
 62
     7
100
AcDbLine
 10
302.8931257950087
 20
185.0273863500354
 30
0.0
 11
303.122511737932
 21
187.3212430043693
 31
0.0
  0
LINE
  5
37B
330
2
100
AcDbEntity
  8
0
  6
Continuous
 62
     7
100
AcDbLine
 10
300.0990714394216
 20
184.5494365662259
 30
0.0
 11
300.3951416752586
 21
187.5101353430105
 31
0.0
  0
LINE
  5
37C
330
2
100
AcDbEntity
  8
0
  6
Continuous
 62
     7
100
AcDbLine
 10
300.9023683407972
 20
185.04499817438
 30
0.0
 11
301.1314849950452
 21
187.3361619452151
 31
0.0
  0
LINE
  5
37D
330
2
100
AcDbEntity
  8
0
  6
Continuous
 62
     7
100
AcDbLine
 10
303.5911111227358
 20
184.469833495666
 30
0.0
 11
303.8966335711478
 21
187.5250542838562
 31
0.0
  0
LINE
  5
37E
330
2
100
AcDbEntity
  8
0
  6
Continuous
 62
     7
100
AcDbLine
 10
305.3490714394215
 20
184.5494365662259
 30
0.0
 11
305.6451416752586
 21
187.5101353430105
 31
0.0
  0
LINE
  5
37F
330
2
100
AcDbEntity
  8
0
  6
Continuous
 62
     7
100
AcDbLine
 10
306.1523683407973
 20
185.04499817438
 30
0.0
 11
306.3814849950452
 21
187.3361619452151
 31
0.0
  0
LINE
  5
380
330
2
100
AcDbEntity
  8
0
  6
Continuous
 62
     7
100
AcDbLine
 10
321.2865274775392
 20
181.0846350309461
 30
0.0
 11
322.2306800305125
 21
181.0846350309461
 31
0.0
  0
LINE
  5
381
330
2
100
AcDbEntity
  8
0
  6
Continuous
 62
     7
100
AcDbLine
 10
321.2295029792374
 20
180.6346350309459
 30
0.0
 11
322.1736555322104
 21
180.6346350309459
 31
0.0
  0
LINE
  5
382
330
2
100
AcDbEntity
  8
0
  6
Continuous
 62
     7
100
AcDbLine
 10
321.4134889257291
 20
182.6596350309459
 30
0.0
 11
322.3960747207418
 21
182.6596350309459
 31
0.0
  0
LINE
  5
383
330
2
100
AcDbEntity
  8
0
  6
Continuous
 62
     7
100
AcDbLine
 10
321.0641082890081
 20
179.0596350309461
 30
0.0
 11
322.0466940840208
 21
179.0596350309461
 31
0.0
  0
LINE
  5
384
330
2
100
AcDbEntity
  8
0
  6
Continuous
 62
     7
100
AcDbLine
 10
320.7202882795191
 20
178.6096350309461
 30
0.0
 11
322.3378942439274
 21
178.6096350309461
 31
0.0
  0
LINE
  5
385
330
2
100
AcDbEntity
  8
0
  6
Continuous
 62
     7
100
AcDbLine
 10
321.1222887658223
 20
183.109635030946
 30
0.0
 11
322.7398947302309
 21
183.109635030946
 31
0.0
  0
LINE
  5
386
330
2
100
AcDbEntity
  8
0
  6
Continuous
 62
     7
100
AcDbLine
 10
317.5501663739851
 20
181.0603834791999
 30
0.0
 11
317.7334798430322
 21
182.893515952114
 31
0.0
  0
LINE
  5
387
330
2
100
AcDbEntity
  8
0
  6
Continuous
 62
     7
100
AcDbLine
 10
316.0592555196467
 20
181.1737188823846
 30
0.0
 11
316.1967255121954
 21
182.5484171448856
 31
0.0
  0
LINE
  5
388
330
2
100
AcDbEntity
  8
0
  6
Continuous
 62
     7
100
AcDbLine
 10
316.5010615115186
 20
181.0693348437074
 30
0.0
 11
316.6787036530209
 21
182.8457541097779
 31
0.0
  0
LINE
  5
389
330
2
100
AcDbEntity
  8
0
  6
Continuous
 62
     7
100
AcDbLine
 10
319.6510615115187
 20
181.0693348437074
 30
0.0
 11
319.8287036530207
 21
182.8457541097779
 31
0.0
  0
LINE
  5
38A
330
2
100
AcDbEntity
  8
0
  6
Continuous
 62
     7
100
AcDbLine
 10
321.1646394739146
 20
181.1826702468919
 30
0.0
 11
321.3022710396685
 21
182.5589842394924
 31
0.0
  0
LINE
  5
38B
330
2
100
AcDbEntity
  8
0
  6
Continuous
 62
     7
100
AcDbLine
 10
320.700166373985
 20
181.0603834791999
 30
0.0
 11
320.8834798430323
 21
182.893515952114
 31
0.0
  0
LINE
  5
38C
330
2
100
AcDbEntity
  8
0
  6
Continuous
 62
     7
100
AcDbLine
 10
318.0146394739145
 20
181.1826702468919
 30
0.0
 11
318.1522710396687
 21
182.5589842394924
 31
0.0
  0
LINE
  5
38D
330
2
100
AcDbEntity
  8
0
  6
Continuous
 62
     7
100
AcDbLine
 10
319.2092555196465
 20
181.1737188823846
 30
0.0
 11
319.3467255121952
 21
182.5484171448856
 31
0.0
  0
LINE
  5
38E
330
2
100
AcDbEntity
  8
0
  6
Continuous
 62
     7
100
AcDbLine
 10
314.8646394739146
 20
181.1826702468919
 30
0.0
 11
315.0022710396687
 21
182.5589842394924
 31
0.0
  0
LINE
  5
38F
330
2
100
AcDbEntity
  8
0
  6
Continuous
 62
     7
100
AcDbLine
 10
314.400166373985
 20
181.0603834791999
 30
0.0
 11
314.5834798430322
 21
182.893515952114
 31
0.0
  0
LINE
  5
390
330
2
100
AcDbEntity
  8
0
  6
Continuous
 62
     7
100
AcDbLine
 10
313.3510615115185
 20
181.0693348437074
 30
0.0
 11
313.5287036530209
 21
182.8457541097779
 31
0.0
  0
LINE
  5
391
330
2
100
AcDbEntity
  8
0
  6
Continuous
 62
     7
100
AcDbLine
 10
312.9092555196467
 20
181.1737188823846
 30
0.0
 11
313.0467255121953
 21
182.5484171448856
 31
0.0
  0
LINE
  5
392
330
2
100
AcDbEntity
  8
0
  6
Continuous
 62
     7
100
AcDbLine
 10
311.2501663739852
 20
181.0603834791999
 30
0.0
 11
311.4334798430324
 21
182.893515952114
 31
0.0
  0
LINE
  5
393
330
2
100
AcDbEntity
  8
0
  6
Continuous
 62
     7
100
AcDbLine
 10
311.7146394739145
 20
181.1826702468919
 30
0.0
 11
311.8522710396685
 21
182.5589842394924
 31
0.0
  0
LINE
  5
394
330
2
100
AcDbEntity
  8
0
  6
Continuous
 62
     7
100
AcDbLine
 10
314.2009263315463
 20
178.7522680150651
 30
0.0
 11
314.6634574975544
 21
179.1708529170064
 31
0.0
  0
LINE
  5
395
330
2
100
AcDbEntity
  8
0
  6
Continuous
 62
     7
100
AcDbLine
 10
314.301577123
 20
178.6410501290046
 30
0.0
 11
314.7641082890083
 21
179.0596350309461
 31
0.0
  0
ARC
  5
396
330
2
100
AcDbEntity
  8
0
  6
Continuous
 62
     7
100
AcDbCircle
 10
314.4202882795192
 20
178.8496350309461
 30
0.0
 40
0.24
100
AcDbArc
 50
240.3546568642862
 51
270.0
  0
LINE
  5
397
330
2
100
AcDbEntity
  8
0
  6
Continuous
 62
     7
100
AcDbLine
 10
314.1814793567288
 20
178.873515952114
 30
0.0
 11
314.3591214982312
 21
180.6499352181848
 31
0.0
  0
LINE
  5
398
330
2
100
AcDbEntity
  8
0
  6
Continuous
 62
     7
100
AcDbLine
 10
313.3100166357646
 20
180.6588865826922
 30
0.0
 11
313.1767477621202
 21
180.7660754972537
 31
0.0
  0
LINE
  5
399
330
2
100
AcDbEntity
  8
0
  6
Continuous
 62
     7
100
AcDbLine
 10
312.7236555322104
 20
180.6346350309459
 30
0.0
 11
313.0548597584956
 21
180.8641107131998
 31
0.0
  0
LINE
  5
39A
330
2
100
AcDbEntity
  8
0
  6
Continuous
 62
     7
100
AcDbLine
 10
312.8455435358353
 20
180.536599815
 30
0.0
 11
313.1767477621202
 21
180.7660754972537
 31
0.0
  0
LINE
  5
39B
330
2
100
AcDbEntity
  8
0
  6
Continuous
 62
     7
100
AcDbLine
 10
313.1834352476297
 20
180.9531945646384
 30
0.0
 11
313.3510615115185
 21
181.0693348437074
 31
0.0
  0
LINE
  5
39C
330
2
100
AcDbEntity
  8
0
  6
Continuous
 62
     7
100
AcDbLine
 10
313.1834352476297
 20
180.9531945646384
 30
0.0
 11
312.9092555196467
 21
181.1737188823846
 31
0.0
  0
LINE
  5
39D
330
2
100
AcDbEntity
  8
0
  6
Continuous
 62
     7
100
AcDbLine
 10
313.0548597584956
 20
180.8641107131998
 30
0.0
 11
312.7806800305125
 21
181.0846350309461
 31
0.0
  0
LINE
  5
39E
330
2
100
AcDbEntity
  8
0
  6
Continuous
 62
     7
100
AcDbLine
 10
311.8365274775395
 20
181.0846350309461
 30
0.0
 11
312.7806800305125
 21
181.0846350309461
 31
0.0
  0
LINE
  5
39F
330
2
100
AcDbEntity
  8
0
  6
Continuous
 62
     7
100
AcDbLine
 10
311.7795029792373
 20
180.6346350309459
 30
0.0
 11
312.7236555322104
 21
180.6346350309459
 31
0.0
  0
LINE
  5
3A0
330
2
100
AcDbEntity
  8
0
  6
Continuous
 62
     7
100
AcDbLine
 10
311.3767477621201
 20
180.7660754972537
 30
0.0
 11
311.6509274901032
 21
180.5455511795075
 31
0.0
  0
LINE
  5
3A1
330
2
100
AcDbEntity
  8
0
  6
Continuous
 62
     7
100
AcDbLine
 10
311.3767477621201
 20
180.7660754972537
 30
0.0
 11
311.2091214982312
 21
180.6499352181848
 31
0.0
  0
LINE
  5
3A2
330
2
100
AcDbEntity
  8
0
  6
Continuous
 62
     7
100
AcDbLine
 10
311.5053232512544
 20
180.8551593486923
 30
0.0
 11
311.7795029792373
 21
180.6346350309459
 31
0.0
  0
LINE
  5
3A3
330
2
100
AcDbEntity
  8
0
  6
Continuous
 62
     7
100
AcDbLine
 10
311.7146394739145
 20
181.1826702468919
 30
0.0
 11
311.3834352476297
 21
180.9531945646384
 31
0.0
  0
LINE
  5
3A4
330
2
100
AcDbEntity
  8
0
  6
Continuous
 62
     7
100
AcDbLine
 10
311.2501663739852
 20
181.0603834791999
 30
0.0
 11
311.3834352476297
 21
180.9531945646384
 31
0.0
  0
LINE
  5
3A5
330
2
100
AcDbEntity
  8
0
  6
Continuous
 62
     7
100
AcDbLine
 10
311.8365274775395
 20
181.0846350309461
 30
0.0
 11
311.5053232512544
 21
180.8551593486923
 31
0.0
  0
ARC
  5
3A6
330
2
100
AcDbEntity
  8
0
  6
Continuous
 62
     7
100
AcDbCircle
 10
314.4202882795192
 20
178.8496350309461
 30
0.0
 40
0.24
100
AcDbArc
 50
174.289399999998
 51
203.9347431357174
  0
LINE
  5
3A7
330
2
100
AcDbEntity
  8
0
  6
Continuous
 62
     7
100
AcDbLine
 10
313.4500912871272
 20
179.0596350309461
 30
0.0
 11
313.9000912871272
 21
179.0596350309461
 31
0.0
  0
LINE
  5
3A8
330
2
100
AcDbEntity
  8
0
  6
Continuous
 62
     7
100
AcDbLine
 10
313.8550912326902
 20
178.6096350309461
 30
0.0
 11
313.9000912871272
 21
179.0596350309461
 31
0.0
  0
LINE
  5
3A9
330
2
100
AcDbEntity
  8
0
  6
Continuous
 62
     7
100
AcDbLine
 10
313.4050912326902
 20
178.6096350309461
 30
0.0
 11
313.4500912871272
 21
179.0596350309461
 31
0.0
  0
LINE
  5
3AA
330
2
100
AcDbEntity
  8
0
  6
Continuous
 62
     7
100
AcDbLine
 10
313.4050912326902
 20
178.6096350309461
 30
0.0
 11
313.8550912326902
 21
178.6096350309461
 31
0.0
  0
ARC
  5
3AB
330
2
100
AcDbEntity
  8
0
  6
Continuous
 62
     7
100
AcDbCircle
 10
312.8878942439276
 20
178.8496350309461
 30
0.0
 40
0.24
100
AcDbArc
 50
270.0
 51
293.9347431357139
  0
LINE
  5
3AC
330
2
100
AcDbEntity
  8
0
  6
Continuous
 62
     7
100
AcDbLine
 10
313.0964791458689
 20
178.7309238744268
 30
0.0
 11
312.7079119700813
 21
179.1602858223997
 31
0.0
  0
ARC
  5
3AD
330
2
100
AcDbEntity
  8
0
  6
Continuous
 62
     7
100
AcDbCircle
 10
312.8878942439276
 20
178.8496350309461
 30
0.0
 40
0.24
100
AcDbArc
 50
330.3546568642834
 51
354.289399999998
  0
LINE
  5
3AE
330
2
100
AcDbEntity
  8
0
  6
Continuous
 62
     7
100
AcDbLine
 10
312.9852612598083
 20
178.6302730829731
 30
0.0
 11
312.5966940840208
 21
179.0596350309461
 31
0.0
  0
LINE
  5
3AF
330
2
100
AcDbEntity
  8
0
  6
Continuous
 62
     7
100
AcDbLine
 10
311.270288279519
 20
178.6096350309461
 30
0.0
 11
312.8878942439276
 21
178.6096350309461
 31
0.0
  0
LINE
  5
3B0
330
2
100
AcDbEntity
  8
0
  6
Continuous
 62
     7
100
AcDbLine
 10
311.1515771229999
 20
178.6410501290046
 30
0.0
 11
311.6141082890083
 21
179.0596350309461
 31
0.0
  0
ARC
  5
3B1
330
2
100
AcDbEntity
  8
0
  6
Continuous
 62
     7
100
AcDbCircle
 10
311.270288279519
 20
178.8496350309461
 30
0.0
 40
0.24
100
AcDbArc
 50
240.3546568642862
 51
270.0
  0
LINE
  5
3B2
330
2
100
AcDbEntity
  8
0
  6
Continuous
 62
     7
100
AcDbLine
 10
311.6141082890083
 20
179.0596350309461
 30
0.0
 11
312.5966940840208
 21
179.0596350309461
 31
0.0
  0
ARC
  5
3B3
330
2
100
AcDbEntity
  8
0
  6
Continuous
 62
     7
100
AcDbCircle
 10
311.270288279519
 20
178.8496350309461
 30
0.0
 40
0.24
100
AcDbArc
 50
174.289399999998
 51
203.9347431357174
  0
LINE
  5
3B4
330
2
100
AcDbEntity
  8
0
  6
Continuous
 62
     7
100
AcDbLine
 10
311.0509263315462
 20
178.7522680150651
 30
0.0
 11
311.5134574975546
 21
179.1708529170064
 31
0.0
  0
LINE
  5
3B5
330
2
100
AcDbEntity
  8
0
  6
Continuous
 62
     7
100
AcDbLine
 10
313.1267031667176
 20
178.825754109778
 30
0.0
 11
313.3100166357646
 21
180.6588865826922
 31
0.0
  0
LINE
  5
3B6
330
2
100
AcDbEntity
  8
0
  6
Continuous
 62
     7
100
AcDbLine
 10
312.7079119700813
 20
179.1602858223997
 30
0.0
 11
312.8455435358353
 21
180.536599815
 31
0.0
  0
LINE
  5
3B7
330
2
100
AcDbEntity
  8
0
  6
Continuous
 62
     7
100
AcDbLine
 10
311.5134574975546
 20
179.1708529170064
 30
0.0
 11
311.6509274901032
 21
180.5455511795075
 31
0.0
  0
LINE
  5
3B8
330
2
100
AcDbEntity
  8
0
  6
Continuous
 62
     7
100
AcDbLine
 10
311.0314793567291
 20
178.873515952114
 30
0.0
 11
311.2091214982312
 21
180.6499352181848
 31
0.0
  0
LINE
  5
3B9
330
2
100
AcDbEntity
  8
0
  6
Continuous
 62
     7
100
AcDbLine
 10
317.8053232512545
 20
180.8551593486923
 30
0.0
 11
318.0795029792372
 21
180.6346350309459
 31
0.0
  0
LINE
  5
3BA
330
2
100
AcDbEntity
  8
0
  6
Continuous
 62
     7
100
AcDbLine
 10
318.0146394739145
 20
181.1826702468919
 30
0.0
 11
317.6834352476296
 21
180.9531945646384
 31
0.0
  0
LINE
  5
3BB
330
2
100
AcDbEntity
  8
0
  6
Continuous
 62
     7
100
AcDbLine
 10
318.1365274775393
 20
181.0846350309461
 30
0.0
 11
317.8053232512545
 21
180.8551593486923
 31
0.0
  0
LINE
  5
3BC
330
2
100
AcDbEntity
  8
0
  6
Continuous
 62
     7
100
AcDbLine
 10
317.5702882795192
 20
178.6096350309461
 30
0.0
 11
319.1878942439275
 21
178.6096350309461
 31
0.0
  0
LINE
  5
3BD
330
2
100
AcDbEntity
  8
0
  6
Continuous
 62
     7
100
AcDbLine
 10
317.9141082890083
 20
179.0596350309461
 30
0.0
 11
318.8966940840207
 21
179.0596350309461
 31
0.0
  0
LINE
  5
3BE
330
2
100
AcDbEntity
  8
0
  6
Continuous
 62
     7
100
AcDbLine
 10
317.6767477621202
 20
180.7660754972537
 30
0.0
 11
317.9509274901032
 21
180.5455511795075
 31
0.0
  0
LINE
  5
3BF
330
2
100
AcDbEntity
  8
0
  6
Continuous
 62
     7
100
AcDbLine
 10
317.6767477621202
 20
180.7660754972537
 30
0.0
 11
317.5091214982312
 21
180.6499352181848
 31
0.0
  0
LINE
  5
3C0
330
2
100
AcDbEntity
  8
0
  6
Continuous
 62
     7
100
AcDbLine
 10
317.5501663739851
 20
181.0603834791999
 30
0.0
 11
317.6834352476296
 21
180.9531945646384
 31
0.0
  0
LINE
  5
3C1
330
2
100
AcDbEntity
  8
0
  6
Continuous
 62
     7
100
AcDbLine
 10
317.4515771229999
 20
178.6410501290046
 30
0.0
 11
317.9141082890083
 21
179.0596350309461
 31
0.0
  0
ARC
  5
3C2
330
2
100
AcDbEntity
  8
0
  6
Continuous
 62
     7
100
AcDbCircle
 10
317.5702882795192
 20
178.8496350309461
 30
0.0
 40
0.24
100
AcDbArc
 50
240.3546568642862
 51
270.0
  0
ARC
  5
3C3
330
2
100
AcDbEntity
  8
0
  6
Continuous
 62
     7
100
AcDbCircle
 10
317.5702882795192
 20
178.8496350309461
 30
0.0
 40
0.24
100
AcDbArc
 50
174.289399999998
 51
203.9347431357174
  0
LINE
  5
3C4
330
2
100
AcDbEntity
  8
0
  6
Continuous
 62
     7
100
AcDbLine
 10
317.3509263315462
 20
178.7522680150651
 30
0.0
 11
317.8134574975545
 21
179.1708529170064
 31
0.0
  0
LINE
  5
3C5
330
2
100
AcDbEntity
  8
0
  6
Continuous
 62
     7
100
AcDbLine
 10
317.8134574975545
 20
179.1708529170064
 30
0.0
 11
317.9509274901032
 21
180.5455511795075
 31
0.0
  0
LINE
  5
3C6
330
2
100
AcDbEntity
  8
0
  6
Continuous
 62
     7
100
AcDbLine
 10
317.331479356729
 20
178.873515952114
 30
0.0
 11
317.5091214982312
 21
180.6499352181848
 31
0.0
  0
LINE
  5
3C7
330
2
100
AcDbEntity
  8
0
  6
Continuous
 62
     7
100
AcDbLine
 10
315.9955435358354
 20
180.536599815
 30
0.0
 11
316.3267477621202
 21
180.7660754972537
 31
0.0
  0
LINE
  5
3C8
330
2
100
AcDbEntity
  8
0
  6
Continuous
 62
     7
100
AcDbLine
 10
315.8736555322105
 20
180.6346350309459
 30
0.0
 11
316.2048597584953
 21
180.8641107131998
 31
0.0
  0
LINE
  5
3C9
330
2
100
AcDbEntity
  8
0
  6
Continuous
 62
     7
100
AcDbLine
 10
316.4600166357648
 20
180.6588865826922
 30
0.0
 11
316.3267477621202
 21
180.7660754972537
 31
0.0
  0
LINE
  5
3CA
330
2
100
AcDbEntity
  8
0
  6
Continuous
 62
     7
100
AcDbLine
 10
316.3334352476297
 20
180.9531945646384
 30
0.0
 11
316.0592555196467
 21
181.1737188823846
 31
0.0
  0
LINE
  5
3CB
330
2
100
AcDbEntity
  8
0
  6
Continuous
 62
     7
100
AcDbLine
 10
316.2048597584953
 20
180.8641107131998
 30
0.0
 11
315.9306800305123
 21
181.0846350309461
 31
0.0
  0
LINE
  5
3CC
330
2
100
AcDbEntity
  8
0
  6
Continuous
 62
     7
100
AcDbLine
 10
316.3334352476297
 20
180.9531945646384
 30
0.0
 11
316.5010615115186
 21
181.0693348437074
 31
0.0
  0
LINE
  5
3CD
330
2
100
AcDbEntity
  8
0
  6
Continuous
 62
     7
100
AcDbLine
 10
316.1352612598084
 20
178.6302730829731
 30
0.0
 11
315.7466940840209
 21
179.0596350309461
 31
0.0
  0
ARC
  5
3CE
330
2
100
AcDbEntity
  8
0
  6
Continuous
 62
     7
100
AcDbCircle
 10
316.0378942439274
 20
178.8496350309461
 30
0.0
 40
0.24
100
AcDbArc
 50
270.0
 51
293.9347431357139
  0
LINE
  5
3CF
330
2
100
AcDbEntity
  8
0
  6
Continuous
 62
     7
100
AcDbLine
 10
316.2464791458688
 20
178.7309238744268
 30
0.0
 11
315.8579119700812
 21
179.1602858223997
 31
0.0
  0
ARC
  5
3D0
330
2
100
AcDbEntity
  8
0
  6
Continuous
 62
     7
100
AcDbCircle
 10
316.0378942439274
 20
178.8496350309461
 30
0.0
 40
0.24
100
AcDbArc
 50
330.3546568642834
 51
354.289399999998
  0
LINE
  5
3D1
330
2
100
AcDbEntity
  8
0
  6
Continuous
 62
     7
100
AcDbLine
 10
315.8579119700812
 20
179.1602858223997
 30
0.0
 11
315.9955435358354
 21
180.536599815
 31
0.0
  0
LINE
  5
3D2
330
2
100
AcDbEntity
  8
0
  6
Continuous
 62
     7
100
AcDbLine
 10
316.2767031667176
 20
178.825754109778
 30
0.0
 11
316.4600166357648
 21
180.6588865826922
 31
0.0
  0
LINE
  5
3D3
330
2
100
AcDbEntity
  8
0
  6
Continuous
 62
     7
100
AcDbLine
 10
320.8267477621202
 20
180.7660754972537
 30
0.0
 11
320.6591214982311
 21
180.6499352181848
 31
0.0
  0
LINE
  5
3D4
330
2
100
AcDbEntity
  8
0
  6
Continuous
 62
     7
100
AcDbLine
 10
318.1365274775393
 20
181.0846350309461
 30
0.0
 11
319.0806800305125
 21
181.0846350309461
 31
0.0
  0
LINE
  5
3D5
330
2
100
AcDbEntity
  8
0
  6
Continuous
 62
     7
100
AcDbLine
 10
319.6100166357648
 20
180.6588865826922
 30
0.0
 11
319.4767477621201
 21
180.7660754972537
 31
0.0
  0
LINE
  5
3D6
330
2
100
AcDbEntity
  8
0
  6
Continuous
 62
     7
100
AcDbLine
 10
318.0795029792372
 20
180.6346350309459
 30
0.0
 11
319.0236555322106
 21
180.6346350309459
 31
0.0
  0
LINE
  5
3D7
330
2
100
AcDbEntity
  8
0
  6
Continuous
 62
     7
100
AcDbLine
 10
319.0236555322106
 20
180.6346350309459
 30
0.0
 11
319.3548597584954
 21
180.8641107131998
 31
0.0
  0
LINE
  5
3D8
330
2
100
AcDbEntity
  8
0
  6
Continuous
 62
     7
100
AcDbLine
 10
319.1455435358353
 20
180.536599815
 30
0.0
 11
319.4767477621201
 21
180.7660754972537
 31
0.0
  0
LINE
  5
3D9
330
2
100
AcDbEntity
  8
0
  6
Continuous
 62
     7
100
AcDbLine
 10
319.4834352476296
 20
180.9531945646384
 30
0.0
 11
319.2092555196465
 21
181.1737188823846
 31
0.0
  0
LINE
  5
3DA
330
2
100
AcDbEntity
  8
0
  6
Continuous
 62
     7
100
AcDbLine
 10
319.3548597584954
 20
180.8641107131998
 30
0.0
 11
319.0806800305125
 21
181.0846350309461
 31
0.0
  0
LINE
  5
3DB
330
2
100
AcDbEntity
  8
0
  6
Continuous
 62
     7
100
AcDbLine
 10
319.4834352476296
 20
180.9531945646384
 30
0.0
 11
319.6510615115187
 21
181.0693348437074
 31
0.0
  0
LINE
  5
3DC
330
2
100
AcDbEntity
  8
0
  6
Continuous
 62
     7
100
AcDbLine
 10
320.9553232512545
 20
180.8551593486923
 30
0.0
 11
321.2295029792374
 21
180.6346350309459
 31
0.0
  0
LINE
  5
3DD
330
2
100
AcDbEntity
  8
0
  6
Continuous
 62
     7
100
AcDbLine
 10
320.8267477621202
 20
180.7660754972537
 30
0.0
 11
321.1009274901032
 21
180.5455511795075
 31
0.0
  0
LINE
  5
3DE
330
2
100
AcDbEntity
  8
0
  6
Continuous
 62
     7
100
AcDbLine
 10
321.1646394739146
 20
181.1826702468919
 30
0.0
 11
320.8334352476297
 21
180.9531945646384
 31
0.0
  0
LINE
  5
3DF
330
2
100
AcDbEntity
  8
0
  6
Continuous
 62
     7
100
AcDbLine
 10
321.2865274775392
 20
181.0846350309461
 30
0.0
 11
320.9553232512545
 21
180.8551593486923
 31
0.0
  0
LINE
  5
3E0
330
2
100
AcDbEntity
  8
0
  6
Continuous
 62
     7
100
AcDbLine
 10
320.700166373985
 20
181.0603834791999
 30
0.0
 11
320.8334352476297
 21
180.9531945646384
 31
0.0
  0
LINE
  5
3E1
330
2
100
AcDbEntity
  8
0
  6
Continuous
 62
     7
100
AcDbLine
 10
320.601577123
 20
178.6410501290046
 30
0.0
 11
321.0641082890081
 21
179.0596350309461
 31
0.0
  0
LINE
  5
3E2
330
2
100
AcDbEntity
  8
0
  6
Continuous
 62
     7
100
AcDbLine
 10
320.5009263315462
 20
178.7522680150651
 30
0.0
 11
320.9634574975546
 21
179.1708529170064
 31
0.0
  0
ARC
  5
3E3
330
2
100
AcDbEntity
  8
0
  6
Continuous
 62
     7
100
AcDbCircle
 10
320.7202882795191
 20
178.8496350309461
 30
0.0
 40
0.24
100
AcDbArc
 50
240.3546568642862
 51
270.0
  0
LINE
  5
3E4
330
2
100
AcDbEntity
  8
0
  6
Continuous
 62
     7
100
AcDbLine
 10
319.7050912326901
 20
178.6096350309461
 30
0.0
 11
319.7500912871271
 21
179.0596350309461
 31
0.0
  0
LINE
  5
3E5
330
2
100
AcDbEntity
  8
0
  6
Continuous
 62
     7
100
AcDbLine
 10
319.7050912326901
 20
178.6096350309461
 30
0.0
 11
320.1550912326902
 21
178.6096350309461
 31
0.0
  0
ARC
  5
3E6
330
2
100
AcDbEntity
  8
0
  6
Continuous
 62
     7
100
AcDbCircle
 10
319.1878942439275
 20
178.8496350309461
 30
0.0
 40
0.24
100
AcDbArc
 50
330.3546568642834
 51
354.289399999998
  0
LINE
  5
3E7
330
2
100
AcDbEntity
  8
0
  6
Continuous
 62
     7
100
AcDbLine
 10
320.1550912326902
 20
178.6096350309461
 30
0.0
 11
320.2000912871272
 21
179.0596350309461
 31
0.0
  0
LINE
  5
3E8
330
2
100
AcDbEntity
  8
0
  6
Continuous
 62
     7
100
AcDbLine
 10
319.7500912871271
 20
179.0596350309461
 30
0.0
 11
320.2000912871272
 21
179.0596350309461
 31
0.0
  0
ARC
  5
3E9
330
2
100
AcDbEntity
  8
0
  6
Continuous
 62
     7
100
AcDbCircle
 10
320.7202882795191
 20
178.8496350309461
 30
0.0
 40
0.24
100
AcDbArc
 50
174.289399999998
 51
203.9347431357174
  0
LINE
  5
3EA
330
2
100
AcDbEntity
  8
0
  6
Continuous
 62
     7
100
AcDbLine
 10
319.2852612598082
 20
178.6302730829731
 30
0.0
 11
318.8966940840207
 21
179.0596350309461
 31
0.0
  0
ARC
  5
3EB
330
2
100
AcDbEntity
  8
0
  6
Continuous
 62
     7
100
AcDbCircle
 10
319.1878942439275
 20
178.8496350309461
 30
0.0
 40
0.24
100
AcDbArc
 50
270.0
 51
293.9347431357139
  0
LINE
  5
3EC
330
2
100
AcDbEntity
  8
0
  6
Continuous
 62
     7
100
AcDbLine
 10
319.3964791458689
 20
178.7309238744268
 30
0.0
 11
319.0079119700814
 21
179.1602858223997
 31
0.0
  0
LINE
  5
3ED
330
2
100
AcDbEntity
  8
0
  6
Continuous
 62
     7
100
AcDbLine
 10
319.4267031667175
 20
178.825754109778
 30
0.0
 11
319.6100166357648
 21
180.6588865826922
 31
0.0
  0
LINE
  5
3EE
330
2
100
AcDbEntity
  8
0
  6
Continuous
 62
     7
100
AcDbLine
 10
320.4814793567292
 20
178.873515952114
 30
0.0
 11
320.6591214982311
 21
180.6499352181848
 31
0.0
  0
LINE
  5
3EF
330
2
100
AcDbEntity
  8
0
  6
Continuous
 62
     7
100
AcDbLine
 10
319.0079119700814
 20
179.1602858223997
 30
0.0
 11
319.1455435358353
 21
180.536599815
 31
0.0
  0
LINE
  5
3F0
330
2
100
AcDbEntity
  8
0
  6
Continuous
 62
     7
100
AcDbLine
 10
320.9634574975546
 20
179.1708529170064
 30
0.0
 11
321.1009274901032
 21
180.5455511795075
 31
0.0
  0
LINE
  5
3F1
330
2
100
AcDbEntity
  8
0
  6
Continuous
 62
     7
100
AcDbLine
 10
314.5267477621203
 20
180.7660754972537
 30
0.0
 11
314.3591214982312
 21
180.6499352181848
 31
0.0
  0
LINE
  5
3F2
330
2
100
AcDbEntity
  8
0
  6
Continuous
 62
     7
100
AcDbLine
 10
314.6553232512545
 20
180.8551593486923
 30
0.0
 11
314.9295029792374
 21
180.6346350309459
 31
0.0
  0
LINE
  5
3F3
330
2
100
AcDbEntity
  8
0
  6
Continuous
 62
     7
100
AcDbLine
 10
314.5267477621203
 20
180.7660754972537
 30
0.0
 11
314.800927490103
 21
180.5455511795075
 31
0.0
  0
LINE
  5
3F4
330
2
100
AcDbEntity
  8
0
  6
Continuous
 62
     7
100
AcDbLine
 10
314.400166373985
 20
181.0603834791999
 30
0.0
 11
314.5334352476295
 21
180.9531945646384
 31
0.0
  0
LINE
  5
3F5
330
2
100
AcDbEntity
  8
0
  6
Continuous
 62
     7
100
AcDbLine
 10
314.8646394739146
 20
181.1826702468919
 30
0.0
 11
314.5334352476295
 21
180.9531945646384
 31
0.0
  0
LINE
  5
3F6
330
2
100
AcDbEntity
  8
0
  6
Continuous
 62
     7
100
AcDbLine
 10
314.9865274775393
 20
181.0846350309461
 30
0.0
 11
314.6553232512545
 21
180.8551593486923
 31
0.0
  0
LINE
  5
3F7
330
2
100
AcDbEntity
  8
0
  6
Continuous
 62
     7
100
AcDbLine
 10
314.6634574975544
 20
179.1708529170064
 30
0.0
 11
314.800927490103
 21
180.5455511795075
 31
0.0
  0
LINE
  5
3F8
330
2
100
AcDbEntity
  8
0
  6
Continuous
 62
     7
100
AcDbLine
 10
314.9865274775393
 20
181.0846350309461
 30
0.0
 11
315.9306800305123
 21
181.0846350309461
 31
0.0
  0
LINE
  5
3F9
330
2
100
AcDbEntity
  8
0
  6
Continuous
 62
     7
100
AcDbLine
 10
314.9295029792374
 20
180.6346350309459
 30
0.0
 11
315.8736555322105
 21
180.6346350309459
 31
0.0
  0
LINE
  5
3FA
330
2
100
AcDbEntity
  8
0
  6
Continuous
 62
     7
100
AcDbLine
 10
314.7641082890083
 20
179.0596350309461
 30
0.0
 11
315.7466940840209
 21
179.0596350309461
 31
0.0
  0
LINE
  5
3FB
330
2
100
AcDbEntity
  8
0
  6
Continuous
 62
     7
100
AcDbLine
 10
314.4202882795192
 20
178.6096350309461
 30
0.0
 11
316.0378942439274
 21
178.6096350309461
 31
0.0
  0
LINE
  5
3FC
330
2
100
AcDbEntity
  8
0
  6
Continuous
 62
     7
100
AcDbLine
 10
314.5609489894564
 20
191.5572765341816
 30
0.0
 11
313.7900637127759
 21
190.8596350309461
 31
0.0
  0
LINE
  5
3FD
330
2
100
AcDbEntity
  8
0
  6
Continuous
 62
     7
100
AcDbLine
 10
314.728700308546
 20
191.3719133907475
 30
0.0
 11
313.9578150318655
 21
190.6742718875119
 31
0.0
  0
LINE
  5
3FE
330
2
100
AcDbEntity
  8
0
  6
Continuous
 62
     7
100
AcDbLine
 10
314.3966335711477
 20
187.5250542838562
 30
0.0
 11
314.1745187817403
 21
187.7037024747922
 31
0.0
  0
LINE
  5
3FF
330
2
100
AcDbEntity
  8
0
  6
Continuous
 62
     7
100
AcDbLine
 10
314.1856645909224
 20
188.0155675870998
 30
0.0
 11
314.4650416974043
 21
188.2091347188815
 31
0.0
  0
LINE
  5
400
330
2
100
AcDbEntity
  8
0
  6
Continuous
 62
     7
100
AcDbLine
 10
311.6670871212439
 20
191.609635030946
 30
0.0
 11
314.3630970619245
 21
191.609635030946
 31
0.0
  0
LINE
  5
401
330
2
100
AcDbEntity
  8
0
  6
Continuous
 62
     7
100
AcDbLine
 10
314.0911111227358
 20
184.469833495666
 30
0.0
 11
314.3966335711477
 21
187.5250542838562
 31
0.0
  0
LINE
  5
402
330
2
100
AcDbEntity
  8
0
  6
Continuous
 62
     7
100
AcDbLine
 10
310.3550912326903
 20
195.609635030946
 30
0.0
 11
312.8550912326903
 21
195.609635030946
 31
0.0
  0
LINE
  5
403
330
2
100
AcDbEntity
  8
0
  6
Continuous
 62
     7
100
AcDbLine
 10
310.3550912326903
 20
194.6096350309461
 30
0.0
 11
312.8550912326903
 21
194.6096350309461
 31
0.0
  0
LINE
  5
404
330
2
100
AcDbEntity
  8
0
  6
Continuous
 62
     7
100
AcDbLine
 10
309.3109489894564
 20
191.5572765341816
 30
0.0
 11
308.5400637127758
 21
190.8596350309461
 31
0.0
  0
LINE
  5
405
330
2
100
AcDbEntity
  8
0
  6
Continuous
 62
     7
100
AcDbLine
 10
309.4787003085461
 20
191.3719133907475
 30
0.0
 11
308.7078150318655
 21
190.6742718875119
 31
0.0
  0
ARC
  5
406
330
2
100
AcDbEntity
  8
0
  6
Continuous
 62
     7
100
AcDbCircle
 10
309.1130970619245
 20
191.2096350309461
 30
0.0
 40
0.4
100
AcDbArc
 50
354.289399999998
 51
23.93474313571744
  0
ARC
  5
407
330
2
100
AcDbEntity
  8
0
  6
Continuous
 62
     7
100
AcDbCircle
 10
309.1130970619245
 20
191.2096350309461
 30
0.0
 40
0.4
100
AcDbArc
 50
60.35465686428622
 51
90.0
  0
LINE
  5
408
330
2
100
AcDbEntity
  8
0
  6
Continuous
 62
     7
100
AcDbLine
 10
308.1693650652239
 20
187.484635030946
 30
0.0
 11
308.721372109032
 21
187.8670945013689
 31
0.0
  0
LINE
  5
409
330
2
100
AcDbEntity
  8
0
  6
Continuous
 62
     7
100
AcDbLine
 10
308.721372109032
 20
187.8670945013689
 30
0.0
 11
308.2644058957273
 21
188.2346350309459
 31
0.0
  0
LINE
  5
40A
330
2
100
AcDbEntity
  8
0
  6
Continuous
 62
     7
100
AcDbLine
 10
308.9356645909224
 20
188.0155675870998
 30
0.0
 11
308.4786983776178
 21
188.3831081166769
 31
0.0
  0
LINE
  5
40B
330
2
100
AcDbEntity
  8
0
  6
Continuous
 62
     7
100
AcDbLine
 10
308.372511737932
 20
187.3212430043693
 30
0.0
 11
308.9245187817403
 21
187.7037024747922
 31
0.0
  0
LINE
  5
40C
330
2
100
AcDbEntity
  8
0
  6
Continuous
 62
     7
100
AcDbLine
 10
309.1466335711477
 20
187.5250542838562
 30
0.0
 11
308.9245187817403
 21
187.7037024747922
 31
0.0
  0
LINE
  5
40D
330
2
100
AcDbEntity
  8
0
  6
Continuous
 62
     7
100
AcDbLine
 10
308.9356645909224
 20
188.0155675870998
 30
0.0
 11
309.2150416974043
 21
188.2091347188815
 31
0.0
  0
LINE
  5
40E
330
2
100
AcDbEntity
  8
0
  6
Continuous
 62
     7
100
AcDbLine
 10
309.2150416974043
 20
188.2091347188815
 30
0.0
 11
309.5111119332412
 21
191.1698334956661
 31
0.0
  0
LINE
  5
40F
330
2
100
AcDbEntity
  8
0
  6
Continuous
 62
     7
100
AcDbLine
 10
308.4786983776178
 20
188.3831081166769
 30
0.0
 11
308.7078150318655
 21
190.6742718875119
 31
0.0
  0
LINE
  5
410
330
2
100
AcDbEntity
  8
0
  6
Continuous
 62
     7
100
AcDbLine
 10
309.8550912326903
 20
195.1096350309461
 30
0.0
 11
309.8550912326903
 21
195.1096350309461
 31
0.0
  0
ARC
  5
411
330
2
100
AcDbEntity
  8
0
  6
Continuous
 62
     7
100
AcDbCircle
 10
310.3550912326903
 20
195.1096350309461
 30
0.0
 40
0.5
100
AcDbArc
 50
90.0
 51
180.0
  0
ARC
  5
412
330
2
100
AcDbEntity
  8
0
  6
Continuous
 62
     7
100
AcDbCircle
 10
310.3550912326903
 20
195.1096350309461
 30
0.0
 40
0.5
100
AcDbArc
 50
180.0
 51
270.0
  0
LINE
  5
413
330
2
100
AcDbEntity
  8
0
  6
Continuous
 62
     7
100
AcDbLine
 10
308.3550912326903
 20
195.1096350309461
 30
0.0
 11
308.3550912326903
 21
195.1096350309461
 31
0.0
  0
LINE
  5
414
330
2
100
AcDbEntity
  8
0
  6
Continuous
 62
     7
100
AcDbLine
 10
313.419365065224
 20
187.484635030946
 30
0.0
 11
313.971372109032
 21
187.8670945013689
 31
0.0
  0
LINE
  5
415
330
2
100
AcDbEntity
  8
0
  6
Continuous
 62
     7
100
AcDbLine
 10
314.1856645909224
 20
188.0155675870998
 30
0.0
 11
313.7286983776178
 21
188.3831081166769
 31
0.0
  0
LINE
  5
416
330
2
100
AcDbEntity
  8
0
  6
Continuous
 62
     7
100
AcDbLine
 10
313.622511737932
 20
187.3212430043693
 30
0.0
 11
314.1745187817403
 21
187.7037024747922
 31
0.0
  0
LINE
  5
417
330
2
100
AcDbEntity
  8
0
  6
Continuous
 62
     7
100
AcDbLine
 10
313.971372109032
 20
187.8670945013689
 30
0.0
 11
313.5144058957274
 21
188.2346350309459
 31
0.0
  0
LINE
  5
418
330
2
100
AcDbEntity
  8
0
  6
Continuous
 62
     7
100
AcDbLine
 10
313.7286983776178
 20
188.3831081166769
 30
0.0
 11
313.9578150318655
 21
190.6742718875119
 31
0.0
  0
LINE
  5
419
330
2
100
AcDbEntity
  8
0
  6
Continuous
 62
     7
100
AcDbLine
 10
312.1524207210882
 20
190.8596350309461
 30
0.0
 11
313.7900637127759
 21
190.8596350309461
 31
0.0
  0
LINE
  5
41A
330
2
100
AcDbEntity
  8
0
  6
Continuous
 62
     7
100
AcDbLine
 10
311.9408183074388
 20
188.2346350309459
 30
0.0
 11
313.5144058957274
 21
188.2346350309459
 31
0.0
  0
LINE
  5
41B
330
2
100
AcDbEntity
  8
0
  6
Continuous
 62
     7
100
AcDbLine
 10
311.8457774769356
 20
187.484635030946
 30
0.0
 11
313.419365065224
 21
187.484635030946
 31
0.0
  0
LINE
  5
41C
330
2
100
AcDbEntity
  8
0
  6
Continuous
 62
     7
100
AcDbLine
 10
311.3194456180081
 20
191.4074869584779
 30
0.0
 11
311.9670575776543
 21
190.6918837118565
 31
0.0
  0
ARC
  5
41D
330
2
100
AcDbEntity
  8
0
  6
Continuous
 62
     7
100
AcDbCircle
 10
311.6670871212439
 20
191.2096350309461
 30
0.0
 40
0.4
100
AcDbArc
 50
150.3546568642833
 51
174.289399999998
  0
LINE
  5
41E
330
2
100
AcDbEntity
  8
0
  6
Continuous
 62
     7
100
AcDbLine
 10
311.5048087614421
 20
191.5752382775675
 30
0.0
 11
312.1524207210882
 21
190.8596350309461
 31
0.0
  0
ARC
  5
41F
330
2
100
AcDbEntity
  8
0
  6
Continuous
 62
     7
100
AcDbCircle
 10
311.6670871212439
 20
191.2096350309461
 30
0.0
 40
0.4
100
AcDbArc
 50
90.0
 51
113.9347431357138
  0
LINE
  5
420
330
2
100
AcDbEntity
  8
0
  6
Continuous
 62
     7
100
AcDbLine
 10
311.7376716347308
 20
188.3980270575228
 30
0.0
 11
311.1856645909224
 21
188.0155675870998
 31
0.0
  0
LINE
  5
421
330
2
100
AcDbEntity
  8
0
  6
Continuous
 62
     7
100
AcDbLine
 10
311.3888112636307
 20
187.8521755605232
 30
0.0
 11
311.8457774769356
 21
187.484635030946
 31
0.0
  0
LINE
  5
422
330
2
100
AcDbEntity
  8
0
  6
Continuous
 62
     7
100
AcDbLine
 10
311.1745187817403
 20
187.7037024747922
 30
0.0
 11
311.6314849950452
 21
187.3361619452151
 31
0.0
  0
LINE
  5
423
330
2
100
AcDbEntity
  8
0
  6
Continuous
 62
     7
100
AcDbLine
 10
311.9408183074388
 20
188.2346350309459
 30
0.0
 11
311.3888112636307
 21
187.8521755605232
 31
0.0
  0
LINE
  5
424
330
2
100
AcDbEntity
  8
0
  6
Continuous
 62
     7
100
AcDbLine
 10
311.7376716347308
 20
188.3980270575228
 30
0.0
 11
311.9670575776543
 21
190.6918837118565
 31
0.0
  0
LINE
  5
425
330
2
100
AcDbEntity
  8
0
  6
Continuous
 62
     7
100
AcDbLine
 10
311.1745187817403
 20
187.7037024747922
 30
0.0
 11
310.8951416752586
 21
187.5101353430105
 31
0.0
  0
LINE
  5
426
330
2
100
AcDbEntity
  8
0
  6
Continuous
 62
     7
100
AcDbLine
 10
310.9635498015148
 20
188.1942157780359
 30
0.0
 11
311.1856645909224
 21
188.0155675870998
 31
0.0
  0
LINE
  5
427
330
2
100
AcDbEntity
  8
0
  6
Continuous
 62
     7
100
AcDbLine
 10
310.9635498015148
 20
188.1942157780359
 30
0.0
 11
311.269072249927
 21
191.2494365662259
 31
0.0
  0
ARC
  5
428
330
2
100
AcDbEntity
  8
0
  6
Continuous
 62
     7
100
AcDbCircle
 10
312.8550912326903
 20
195.1096350309461
 30
0.0
 40
0.5
100
AcDbArc
 50
0.0
 51
90.0
  0
LINE
  5
429
330
2
100
AcDbEntity
  8
0
  6
Continuous
 62
     7
100
AcDbLine
 10
313.3550912326902
 20
195.1096350309461
 30
0.0
 11
313.3550912326902
 21
195.1096350309461
 31
0.0
  0
ARC
  5
42A
330
2
100
AcDbEntity
  8
0
  6
Continuous
 62
     7
100
AcDbCircle
 10
312.8550912326903
 20
195.1096350309461
 30
0.0
 40
0.5
100
AcDbArc
 50
270.0
 51
0.0
  0
ARC
  5
42B
330
2
100
AcDbEntity
  8
0
  6
Continuous
 62
     7
100
AcDbCircle
 10
307.8550912326903
 20
195.1096350309461
 30
0.0
 40
0.5
100
AcDbArc
 50
0.0
 51
90.0
  0
ARC
  5
42C
330
2
100
AcDbEntity
  8
0
  6
Continuous
 62
     7
100
AcDbCircle
 10
307.8550912326903
 20
195.1096350309461
 30
0.0
 40
0.5
100
AcDbArc
 50
270.0
 51
0.0
  0
LINE
  5
42D
330
2
100
AcDbEntity
  8
0
  6
Continuous
 62
     7
100
AcDbLine
 10
310.631483064117
 20
184.3473566711445
 30
0.0
 11
311.4023683407972
 21
185.04499817438
 31
0.0
  0
ARC
  5
42E
330
2
100
AcDbEntity
  8
0
  6
Continuous
 62
     7
100
AcDbCircle
 10
310.9970863107383
 20
184.5096350309459
 30
0.0
 40
0.4
100
AcDbArc
 50
174.289399999998
 51
203.9347431357174
  0
ARC
  5
42F
330
2
100
AcDbEntity
  8
0
  6
Continuous
 62
     7
100
AcDbCircle
 10
308.4430962514192
 20
184.5096350309459
 30
0.0
 40
0.4
100
AcDbArc
 50
270.0
 51
293.9347431357139
  0
LINE
  5
430
330
2
100
AcDbEntity
  8
0
  6
Continuous
 62
     7
100
AcDbLine
 10
308.7907377546546
 20
184.3117831034141
 30
0.0
 11
308.1431257950087
 21
185.0273863500354
 31
0.0
  0
LINE
  5
431
330
2
100
AcDbEntity
  8
0
  6
Continuous
 62
     7
100
AcDbLine
 10
308.6053746112205
 20
184.1440317843245
 30
0.0
 11
307.9577626515745
 21
184.8596350309461
 31
0.0
  0
ARC
  5
432
330
2
100
AcDbEntity
  8
0
  6
Continuous
 62
     7
100
AcDbCircle
 10
308.4430962514192
 20
184.5096350309459
 30
0.0
 40
0.4
100
AcDbArc
 50
330.3546568642834
 51
354.289399999998
  0
LINE
  5
433
330
2
100
AcDbEntity
  8
0
  6
Continuous
 62
     7
100
AcDbLine
 10
313.4086058867499
 20
183.0782199328874
 30
0.0
 11
312.9460747207415
 21
182.6596350309459
 31
0.0
  0
ARC
  5
434
330
2
100
AcDbEntity
  8
0
  6
Continuous
 62
     7
100
AcDbCircle
 10
311.6722887658223
 20
182.8696350309461
 30
0.0
 40
0.24
100
AcDbArc
 50
150.3546568642833
 51
174.289399999998
  0
LINE
  5
435
330
2
100
AcDbEntity
  8
0
  6
Continuous
 62
     7
100
AcDbLine
 10
311.5749217499415
 20
183.0889969789189
 30
0.0
 11
311.963488925729
 21
182.6596350309459
 31
0.0
  0
LINE
  5
436
330
2
100
AcDbEntity
  8
0
  6
Continuous
 62
     7
100
AcDbLine
 10
311.463703863881
 20
182.9883461874652
 30
0.0
 11
311.8522710396685
 21
182.5589842394924
 31
0.0
  0
LINE
  5
437
330
2
100
AcDbEntity
  8
0
  6
Continuous
 62
     7
100
AcDbLine
 10
313.5092566782037
 20
182.9670020468269
 30
0.0
 11
313.0467255121953
 21
182.5484171448856
 31
0.0
  0
ARC
  5
438
330
2
100
AcDbEntity
  8
0
  6
Continuous
 62
     7
100
AcDbCircle
 10
313.2898947302309
 20
182.8696350309461
 30
0.0
 40
0.24
100
AcDbArc
 50
354.289399999998
 51
23.93474313571744
  0
LINE
  5
439
330
2
100
AcDbEntity
  8
0
  6
Continuous
 62
     7
100
AcDbLine
 10
311.963488925729
 20
182.6596350309459
 30
0.0
 11
312.9460747207415
 21
182.6596350309459
 31
0.0
  0
ARC
  5
43A
330
2
100
AcDbEntity
  8
0
  6
Continuous
 62
     7
100
AcDbCircle
 10
313.2898947302309
 20
182.8696350309461
 30
0.0
 40
0.24
100
AcDbArc
 50
60.35465686428622
 51
90.0
  0
LINE
  5
43B
330
2
100
AcDbEntity
  8
0
  6
Continuous
 62
     7
100
AcDbLine
 10
311.6722887658223
 20
183.109635030946
 30
0.0
 11
313.2898947302309
 21
183.109635030946
 31
0.0
  0
ARC
  5
43C
330
2
100
AcDbEntity
  8
0
  6
Continuous
 62
     7
100
AcDbCircle
 10
311.6722887658223
 20
182.8696350309461
 30
0.0
 40
0.24
100
AcDbArc
 50
90.0
 51
113.9347431357138
  0
LINE
  5
43D
330
2
100
AcDbEntity
  8
0
  6
Continuous
 62
     7
100
AcDbLine
 10
313.8553746112204
 20
184.1440317843245
 30
0.0
 11
313.2077626515745
 21
184.8596350309461
 31
0.0
  0
LINE
  5
43E
330
2
100
AcDbEntity
  8
0
  6
Continuous
 62
     7
100
AcDbLine
 10
314.0407377546546
 20
184.3117831034141
 30
0.0
 11
313.3931257950087
 21
185.0273863500354
 31
0.0
  0
ARC
  5
43F
330
2
100
AcDbEntity
  8
0
  6
Continuous
 62
     7
100
AcDbCircle
 10
313.6930962514191
 20
184.5096350309459
 30
0.0
 40
0.4
100
AcDbArc
 50
330.3546568642834
 51
354.289399999998
  0
ARC
  5
440
330
2
100
AcDbEntity
  8
0
  6
Continuous
 62
     7
100
AcDbCircle
 10
313.6930962514191
 20
184.5096350309459
 30
0.0
 40
0.4
100
AcDbArc
 50
270.0
 51
293.9347431357139
  0
LINE
  5
441
330
2
100
AcDbEntity
  8
0
  6
Continuous
 62
     7
100
AcDbLine
 10
311.5701196598868
 20
184.8596350309461
 30
0.0
 11
313.2077626515745
 21
184.8596350309461
 31
0.0
  0
LINE
  5
442
330
2
100
AcDbEntity
  8
0
  6
Continuous
 62
     7
100
AcDbLine
 10
310.9970863107383
 20
184.109635030946
 30
0.0
 11
313.6930962514191
 21
184.109635030946
 31
0.0
  0
ARC
  5
443
330
2
100
AcDbEntity
  8
0
  6
Continuous
 62
     7
100
AcDbCircle
 10
310.9970863107383
 20
184.5096350309459
 30
0.0
 40
0.4
100
AcDbArc
 50
240.3546568642862
 51
270.0
  0
LINE
  5
444
330
2
100
AcDbEntity
  8
0
  6
Continuous
 62
     7
100
AcDbLine
 10
310.7992343832064
 20
184.1619935277105
 30
0.0
 11
311.5701196598868
 21
184.8596350309461
 31
0.0
  0
LINE
  5
445
330
2
100
AcDbEntity
  8
0
  6
Continuous
 62
     7
100
AcDbLine
 10
310.5990714394216
 20
184.5494365662259
 30
0.0
 11
310.8951416752586
 21
187.5101353430105
 31
0.0
  0
LINE
  5
446
330
2
100
AcDbEntity
  8
0
  6
Continuous
 62
     7
100
AcDbLine
 10
308.1431257950087
 20
185.0273863500354
 30
0.0
 11
308.372511737932
 21
187.3212430043693
 31
0.0
  0
LINE
  5
447
330
2
100
AcDbEntity
  8
0
  6
Continuous
 62
     7
100
AcDbLine
 10
308.8411111227358
 20
184.469833495666
 30
0.0
 11
309.1466335711477
 21
187.5250542838562
 31
0.0
  0
LINE
  5
448
330
2
100
AcDbEntity
  8
0
  6
Continuous
 62
     7
100
AcDbLine
 10
313.3931257950087
 20
185.0273863500354
 30
0.0
 11
313.622511737932
 21
187.3212430043693
 31
0.0
  0
LINE
  5
449
330
2
100
AcDbEntity
  8
0
  6
Continuous
 62
     7
100
AcDbLine
 10
311.4023683407972
 20
185.04499817438
 30
0.0
 11
311.6314849950452
 21
187.3361619452151
 31
0.0
  0
LINE
  5
44A
330
2
100
AcDbEntity
  8
0
  6
Continuous
 62
     7
100
AcDbLine
 10
317.4024207210881
 20
190.8596350309461
 30
0.0
 11
319.0400637127759
 21
190.8596350309461
 31
0.0
  0
LINE
  5
44B
330
2
100
AcDbEntity
  8
0
  6
Continuous
 62
     7
100
AcDbLine
 10
317.1908183074387
 20
188.2346350309459
 30
0.0
 11
318.7644058957273
 21
188.2346350309459
 31
0.0
  0
LINE
  5
44C
330
2
100
AcDbEntity
  8
0
  6
Continuous
 62
     7
100
AcDbLine
 10
317.0957774769356
 20
187.484635030946
 30
0.0
 11
318.6693650652239
 21
187.484635030946
 31
0.0
  0
LINE
  5
44D
330
2
100
AcDbEntity
  8
0
  6
Continuous
 62
     7
100
AcDbLine
 10
316.9170871212439
 20
191.609635030946
 30
0.0
 11
319.6130970619245
 21
191.609635030946
 31
0.0
  0
ARC
  5
44E
330
2
100
AcDbEntity
  8
0
  6
Continuous
 62
     7
100
AcDbCircle
 10
317.8550912326902
 20
195.1096350309461
 30
0.0
 40
0.5
100
AcDbArc
 50
270.0
 51
0.0
  0
ARC
  5
44F
330
2
100
AcDbEntity
  8
0
  6
Continuous
 62
     7
100
AcDbCircle
 10
317.8550912326902
 20
195.1096350309461
 30
0.0
 40
0.5
100
AcDbArc
 50
0.0
 51
90.0
  0
ARC
  5
450
330
2
100
AcDbEntity
  8
0
  6
Continuous
 62
     7
100
AcDbCircle
 10
316.9170871212439
 20
191.2096350309461
 30
0.0
 40
0.4
100
AcDbArc
 50
150.3546568642833
 51
174.289399999998
  0
ARC
  5
451
330
2
100
AcDbEntity
  8
0
  6
Continuous
 62
     7
100
AcDbCircle
 10
316.9170871212439
 20
191.2096350309461
 30
0.0
 40
0.4
100
AcDbArc
 50
90.0
 51
113.9347431357138
  0
LINE
  5
452
330
2
100
AcDbEntity
  8
0
  6
Continuous
 62
     7
100
AcDbLine
 10
316.9876716347308
 20
188.3980270575228
 30
0.0
 11
316.4356645909224
 21
188.0155675870998
 31
0.0
  0
LINE
  5
453
330
2
100
AcDbEntity
  8
0
  6
Continuous
 62
     7
100
AcDbLine
 10
316.4245187817403
 20
187.7037024747922
 30
0.0
 11
316.8814849950452
 21
187.3361619452151
 31
0.0
  0
LINE
  5
454
330
2
100
AcDbEntity
  8
0
  6
Continuous
 62
     7
100
AcDbLine
 10
316.4245187817403
 20
187.7037024747922
 30
0.0
 11
316.1451416752586
 21
187.5101353430105
 31
0.0
  0
LINE
  5
455
330
2
100
AcDbEntity
  8
0
  6
Continuous
 62
     7
100
AcDbLine
 10
316.213549801515
 20
188.1942157780359
 30
0.0
 11
316.4356645909224
 21
188.0155675870998
 31
0.0
  0
LINE
  5
456
330
2
100
AcDbEntity
  8
0
  6
Continuous
 62
     7
100
AcDbLine
 10
316.213549801515
 20
188.1942157780359
 30
0.0
 11
316.5190722499269
 21
191.2494365662259
 31
0.0
  0
LINE
  5
457
330
2
100
AcDbEntity
  8
0
  6
Continuous
 62
     7
100
AcDbLine
 10
316.7548087614423
 20
191.5752382775675
 30
0.0
 11
317.4024207210881
 21
190.8596350309461
 31
0.0
  0
LINE
  5
458
330
2
100
AcDbEntity
  8
0
  6
Continuous
 62
     7
100
AcDbLine
 10
316.5694456180081
 20
191.4074869584779
 30
0.0
 11
317.2170575776543
 21
190.6918837118565
 31
0.0
  0
LINE
  5
459
330
2
100
AcDbEntity
  8
0
  6
Continuous
 62
     7
100
AcDbLine
 10
316.6388112636306
 20
187.8521755605232
 30
0.0
 11
317.0957774769356
 21
187.484635030946
 31
0.0
  0
LINE
  5
45A
330
2
100
AcDbEntity
  8
0
  6
Continuous
 62
     7
100
AcDbLine
 10
317.1908183074387
 20
188.2346350309459
 30
0.0
 11
316.6388112636306
 21
187.8521755605232
 31
0.0
  0
LINE
  5
45B
330
2
100
AcDbEntity
  8
0
  6
Continuous
 62
     7
100
AcDbLine
 10
316.9876716347308
 20
188.3980270575228
 30
0.0
 11
317.2170575776543
 21
190.6918837118565
 31
0.0
  0
LINE
  5
45C
330
2
100
AcDbEntity
  8
0
  6
Continuous
 62
     7
100
AcDbLine
 10
315.3550912326902
 20
195.609635030946
 30
0.0
 11
317.8550912326902
 21
195.609635030946
 31
0.0
  0
LINE
  5
45D
330
2
100
AcDbEntity
  8
0
  6
Continuous
 62
     7
100
AcDbLine
 10
315.3550912326902
 20
194.6096350309461
 30
0.0
 11
317.8550912326902
 21
194.6096350309461
 31
0.0
  0
ARC
  5
45E
330
2
100
AcDbEntity
  8
0
  6
Continuous
 62
     7
100
AcDbCircle
 10
319.6130970619245
 20
191.2096350309461
 30
0.0
 40
0.4
100
AcDbArc
 50
60.35465686428622
 51
90.0
  0
ARC
  5
45F
330
2
100
AcDbEntity
  8
0
  6
Continuous
 62
     7
100
AcDbCircle
 10
319.6130970619245
 20
191.2096350309461
 30
0.0
 40
0.4
100
AcDbArc
 50
354.289399999998
 51
23.93474313571744
  0
LINE
  5
460
330
2
100
AcDbEntity
  8
0
  6
Continuous
 62
     7
100
AcDbLine
 10
319.6466335711477
 20
187.5250542838562
 30
0.0
 11
319.4245187817403
 21
187.7037024747922
 31
0.0
  0
LINE
  5
461
330
2
100
AcDbEntity
  8
0
  6
Continuous
 62
     7
100
AcDbLine
 10
319.4356645909224
 20
188.0155675870998
 30
0.0
 11
319.7150416974043
 21
188.2091347188815
 31
0.0
  0
LINE
  5
462
330
2
100
AcDbEntity
  8
0
  6
Continuous
 62
     7
100
AcDbLine
 10
319.7150416974043
 20
188.2091347188815
 30
0.0
 11
320.0111119332412
 21
191.1698334956661
 31
0.0
  0
LINE
  5
463
330
2
100
AcDbEntity
  8
0
  6
Continuous
 62
     7
100
AcDbLine
 10
318.6693650652239
 20
187.484635030946
 30
0.0
 11
319.221372109032
 21
187.8670945013689
 31
0.0
  0
LINE
  5
464
330
2
100
AcDbEntity
  8
0
  6
Continuous
 62
     7
100
AcDbLine
 10
319.221372109032
 20
187.8670945013689
 30
0.0
 11
318.7644058957273
 21
188.2346350309459
 31
0.0
  0
LINE
  5
465
330
2
100
AcDbEntity
  8
0
  6
Continuous
 62
     7
100
AcDbLine
 10
318.9786983776175
 20
188.3831081166769
 30
0.0
 11
319.2078150318655
 21
190.6742718875119
 31
0.0
  0
LINE
  5
466
330
2
100
AcDbEntity
  8
0
  6
Continuous
 62
     7
100
AcDbLine
 10
319.8109489894564
 20
191.5572765341816
 30
0.0
 11
319.0400637127759
 21
190.8596350309461
 31
0.0
  0
LINE
  5
467
330
2
100
AcDbEntity
  8
0
  6
Continuous
 62
     7
100
AcDbLine
 10
319.9787003085461
 20
191.3719133907475
 30
0.0
 11
319.2078150318655
 21
190.6742718875119
 31
0.0
  0
LINE
  5
468
330
2
100
AcDbEntity
  8
0
  6
Continuous
 62
     7
100
AcDbLine
 10
319.4356645909224
 20
188.0155675870998
 30
0.0
 11
318.9786983776175
 21
188.3831081166769
 31
0.0
  0
LINE
  5
469
330
2
100
AcDbEntity
  8
0
  6
Continuous
 62
     7
100
AcDbLine
 10
318.872511737932
 20
187.3212430043693
 30
0.0
 11
319.4245187817403
 21
187.7037024747922
 31
0.0
  0
LINE
  5
46A
330
2
100
AcDbEntity
  8
0
  6
Continuous
 62
     7
100
AcDbLine
 10
318.3550912326903
 20
195.1096350309461
 30
0.0
 11
318.3550912326903
 21
195.1096350309461
 31
0.0
  0
LINE
  5
46B
330
2
100
AcDbEntity
  8
0
  6
Continuous
 62
     7
100
AcDbLine
 10
317.7637038638811
 20
182.9883461874652
 30
0.0
 11
318.1522710396687
 21
182.5589842394924
 31
0.0
  0
ARC
  5
46C
330
2
100
AcDbEntity
  8
0
  6
Continuous
 62
     7
100
AcDbCircle
 10
317.9722887658225
 20
182.8696350309461
 30
0.0
 40
0.24
100
AcDbArc
 50
150.3546568642833
 51
174.289399999998
  0
LINE
  5
46D
330
2
100
AcDbEntity
  8
0
  6
Continuous
 62
     7
100
AcDbLine
 10
317.8749217499415
 20
183.0889969789189
 30
0.0
 11
318.263488925729
 21
182.6596350309459
 31
0.0
  0
LINE
  5
46E
330
2
100
AcDbEntity
  8
0
  6
Continuous
 62
     7
100
AcDbLine
 10
319.7086058867501
 20
183.0782199328874
 30
0.0
 11
319.2460747207417
 21
182.6596350309459
 31
0.0
  0
LINE
  5
46F
330
2
100
AcDbEntity
  8
0
  6
Continuous
 62
     7
100
AcDbLine
 10
321.0249217499415
 20
183.0889969789189
 30
0.0
 11
321.4134889257291
 21
182.6596350309459
 31
0.0
  0
ARC
  5
470
330
2
100
AcDbEntity
  8
0
  6
Continuous
 62
     7
100
AcDbCircle
 10
321.1222887658223
 20
182.8696350309461
 30
0.0
 40
0.24
100
AcDbArc
 50
150.3546568642833
 51
174.289399999998
  0
LINE
  5
471
330
2
100
AcDbEntity
  8
0
  6
Continuous
 62
     7
100
AcDbLine
 10
320.913703863881
 20
182.9883461874652
 30
0.0
 11
321.3022710396685
 21
182.5589842394924
 31
0.0
  0
LINE
  5
472
330
2
100
AcDbEntity
  8
0
  6
Continuous
 62
     7
100
AcDbLine
 10
316.55860588675
 20
183.0782199328874
 30
0.0
 11
316.0960747207416
 21
182.6596350309459
 31
0.0
  0
ARC
  5
473
330
2
100
AcDbEntity
  8
0
  6
Continuous
 62
     7
100
AcDbCircle
 10
316.4398947302309
 20
182.8696350309461
 30
0.0
 40
0.24
100
AcDbArc
 50
354.289399999998
 51
23.93474313571744
  0
LINE
  5
474
330
2
100
AcDbEntity
  8
0
  6
Continuous
 62
     7
100
AcDbLine
 10
316.6592566782035
 20
182.9670020468269
 30
0.0
 11
316.1967255121954
 21
182.5484171448856
 31
0.0
  0
LINE
  5
475
330
2
100
AcDbEntity
  8
0
  6
Continuous
 62
     7
100
AcDbLine
 10
319.8092566782036
 20
182.9670020468269
 30
0.0
 11
319.3467255121952
 21
182.5484171448856
 31
0.0
  0
ARC
  5
476
330
2
100
AcDbEntity
  8
0
  6
Continuous
 62
     7
100
AcDbCircle
 10
319.5898947302307
 20
182.8696350309461
 30
0.0
 40
0.24
100
AcDbArc
 50
354.289399999998
 51
23.93474313571744
  0
LINE
  5
477
330
2
100
AcDbEntity
  8
0
  6
Continuous
 62
     7
100
AcDbLine
 10
318.263488925729
 20
182.6596350309459
 30
0.0
 11
319.2460747207417
 21
182.6596350309459
 31
0.0
  0
LINE
  5
478
330
2
100
AcDbEntity
  8
0
  6
Continuous
 62
     7
100
AcDbLine
 10
317.9722887658225
 20
183.109635030946
 30
0.0
 11
319.5898947302307
 21
183.109635030946
 31
0.0
  0
LINE
  5
479
330
2
100
AcDbEntity
  8
0
  6
Continuous
 62
     7
100
AcDbLine
 10
316.2470863107383
 20
184.109635030946
 30
0.0
 11
318.9430962514192
 21
184.109635030946
 31
0.0
  0
LINE
  5
47A
330
2
100
AcDbEntity
  8
0
  6
Continuous
 62
     7
100
AcDbLine
 10
316.8201196598868
 20
184.8596350309461
 30
0.0
 11
318.4577626515745
 21
184.8596350309461
 31
0.0
  0
ARC
  5
47B
330
2
100
AcDbEntity
  8
0
  6
Continuous
 62
     7
100
AcDbCircle
 10
317.9722887658225
 20
182.8696350309461
 30
0.0
 40
0.24
100
AcDbArc
 50
90.0
 51
113.9347431357138
  0
ARC
  5
47C
330
2
100
AcDbEntity
  8
0
  6
Continuous
 62
     7
100
AcDbCircle
 10
316.4398947302309
 20
182.8696350309461
 30
0.0
 40
0.24
100
AcDbArc
 50
60.35465686428622
 51
90.0
  0
ARC
  5
47D
330
2
100
AcDbEntity
  8
0
  6
Continuous
 62
     7
100
AcDbCircle
 10
316.2470863107383
 20
184.5096350309459
 30
0.0
 40
0.4
100
AcDbArc
 50
174.289399999998
 51
203.9347431357174
  0
ARC
  5
47E
330
2
100
AcDbEntity
  8
0
  6
Continuous
 62
     7
100
AcDbCircle
 10
316.2470863107383
 20
184.5096350309459
 30
0.0
 40
0.4
100
AcDbArc
 50
240.3546568642862
 51
270.0
  0
LINE
  5
47F
330
2
100
AcDbEntity
  8
0
  6
Continuous
 62
     7
100
AcDbLine
 10
316.0492343832063
 20
184.1619935277105
 30
0.0
 11
316.8201196598868
 21
184.8596350309461
 31
0.0
  0
LINE
  5
480
330
2
100
AcDbEntity
  8
0
  6
Continuous
 62
     7
100
AcDbLine
 10
315.881483064117
 20
184.3473566711445
 30
0.0
 11
316.6523683407973
 21
185.04499817438
 31
0.0
  0
LINE
  5
481
330
2
100
AcDbEntity
  8
0
  6
Continuous
 62
     7
100
AcDbLine
 10
315.3050912326902
 20
184.109635030946
 30
0.0
 11
315.3800913234186
 21
184.8596350309461
 31
0.0
  0
ARC
  5
482
330
2
100
AcDbEntity
  8
0
  6
Continuous
 62
     7
100
AcDbCircle
 10
319.5898947302307
 20
182.8696350309461
 30
0.0
 40
0.24
100
AcDbArc
 50
60.35465686428622
 51
90.0
  0
ARC
  5
483
330
2
100
AcDbEntity
  8
0
  6
Continuous
 62
     7
100
AcDbCircle
 10
321.1222887658223
 20
182.8696350309461
 30
0.0
 40
0.24
100
AcDbArc
 50
90.0
 51
113.9347431357138
  0
ARC
  5
484
330
2
100
AcDbEntity
  8
0
  6
Continuous
 62
     7
100
AcDbCircle
 10
318.9430962514192
 20
184.5096350309459
 30
0.0
 40
0.4
100
AcDbArc
 50
270.0
 51
293.9347431357139
  0
LINE
  5
485
330
2
100
AcDbEntity
  8
0
  6
Continuous
 62
     7
100
AcDbLine
 10
319.2907377546546
 20
184.3117831034141
 30
0.0
 11
318.6431257950087
 21
185.0273863500354
 31
0.0
  0
LINE
  5
486
330
2
100
AcDbEntity
  8
0
  6
Continuous
 62
     7
100
AcDbLine
 10
319.1053746112205
 20
184.1440317843245
 30
0.0
 11
318.4577626515745
 21
184.8596350309461
 31
0.0
  0
ARC
  5
487
330
2
100
AcDbEntity
  8
0
  6
Continuous
 62
     7
100
AcDbCircle
 10
318.9430962514192
 20
184.5096350309459
 30
0.0
 40
0.4
100
AcDbArc
 50
330.3546568642834
 51
354.289399999998
  0
LINE
  5
488
330
2
100
AcDbEntity
  8
0
  6
Continuous
 62
     7
100
AcDbLine
 10
315.8490714394215
 20
184.5494365662259
 30
0.0
 11
316.1451416752586
 21
187.5101353430105
 31
0.0
  0
LINE
  5
489
330
2
100
AcDbEntity
  8
0
  6
Continuous
 62
     7
100
AcDbLine
 10
316.6523683407973
 20
185.04499817438
 30
0.0
 11
316.8814849950452
 21
187.3361619452151
 31
0.0
  0
LINE
  5
48A
330
2
100
AcDbEntity
  8
0
  6
Continuous
 62
     7
100
AcDbLine
 10
319.3411111227358
 20
184.469833495666
 30
0.0
 11
319.6466335711477
 21
187.5250542838562
 31
0.0
  0
LINE
  5
48B
330
2
100
AcDbEntity
  8
0
  6
Continuous
 62
     7
100
AcDbLine
 10
318.6431257950087
 20
185.0273863500354
 30
0.0
 11
318.872511737932
 21
187.3212430043693
 31
0.0
  0
ARC
  5
48C
330
2
100
AcDbEntity
  8
0
  6
Continuous
 62
     7
100
AcDbCircle
 10
314.3630970619245
 20
191.2096350309461
 30
0.0
 40
0.4
100
AcDbArc
 50
354.289399999998
 51
23.93474313571744
  0
ARC
  5
48D
330
2
100
AcDbEntity
  8
0
  6
Continuous
 62
     7
100
AcDbCircle
 10
314.3630970619245
 20
191.2096350309461
 30
0.0
 40
0.4
100
AcDbArc
 50
60.35465686428622
 51
90.0
  0
LINE
  5
48E
330
2
100
AcDbEntity
  8
0
  6
Continuous
 62
     7
100
AcDbLine
 10
314.4650416974043
 20
188.2091347188815
 30
0.0
 11
314.7611119332412
 21
191.1698334956661
 31
0.0
  0
LINE
  5
48F
330
2
100
AcDbEntity
  8
0
  6
Continuous
 62
     7
100
AcDbLine
 10
314.8550912326903
 20
195.1096350309461
 30
0.0
 11
314.8550912326903
 21
195.1096350309461
 31
0.0
  0
ARC
  5
490
330
2
100
AcDbEntity
  8
0
  6
Continuous
 62
     7
100
AcDbCircle
 10
314.8222887658223
 20
182.8696350309461
 30
0.0
 40
0.24
100
AcDbArc
 50
150.3546568642833
 51
174.289399999998
  0
LINE
  5
491
330
2
100
AcDbEntity
  8
0
  6
Continuous
 62
     7
100
AcDbLine
 10
314.613703863881
 20
182.9883461874652
 30
0.0
 11
315.0022710396687
 21
182.5589842394924
 31
0.0
  0
LINE
  5
492
330
2
100
AcDbEntity
  8
0
  6
Continuous
 62
     7
100
AcDbLine
 10
314.7249217499417
 20
183.0889969789189
 30
0.0
 11
315.113488925729
 21
182.6596350309459
 31
0.0
  0
ARC
  5
493
330
2
100
AcDbEntity
  8
0
  6
Continuous
 62
     7
100
AcDbCircle
 10
314.8222887658223
 20
182.8696350309461
 30
0.0
 40
0.24
100
AcDbArc
 50
90.0
 51
113.9347431357138
  0
LINE
  5
494
330
2
100
AcDbEntity
  8
0
  6
Continuous
 62
     7
100
AcDbLine
 10
314.5550912326903
 20
184.109635030946
 30
0.0
 11
314.6300913234187
 21
184.8596350309461
 31
0.0
  0
LINE
  5
495
330
2
100
AcDbEntity
  8
0
  6
Continuous
 62
     7
100
AcDbLine
 10
315.113488925729
 20
182.6596350309459
 30
0.0
 11
316.0960747207416
 21
182.6596350309459
 31
0.0
  0
LINE
  5
496
330
2
100
AcDbEntity
  8
0
  6
Continuous
 62
     7
100
AcDbLine
 10
314.8222887658223
 20
183.109635030946
 30
0.0
 11
316.4398947302309
 21
183.109635030946
 31
0.0
  0
LINE
  5
497
330
2
100
AcDbEntity
  8
0
  6
Continuous
 62
     7
100
AcDbLine
 10
314.5550912326903
 20
184.109635030946
 30
0.0
 11
315.3050912326902
 21
184.109635030946
 31
0.0
  0
LINE
  5
498
330
2
100
AcDbEntity
  8
0
  6
Continuous
 62
     7
100
AcDbLine
 10
314.6300913234187
 20
184.8596350309461
 30
0.0
 11
315.3800913234186
 21
184.8596350309461
 31
0.0
  0
ARC
  5
499
330
2
100
AcDbEntity
  8
0
  6
Continuous
 62
     7
100
AcDbCircle
 10
315.3550912326902
 20
195.1096350309461
 30
0.0
 40
0.5
100
AcDbArc
 50
90.0
 51
180.0
  0
ARC
  5
49A
330
2
100
AcDbEntity
  8
0
  6
Continuous
 62
     7
100
AcDbCircle
 10
315.3550912326902
 20
195.1096350309461
 30
0.0
 40
0.5
100
AcDbArc
 50
180.0
 51
270.0
  0
LINE
  5
49B
330
2
100
AcDbEntity
  8
0
  6
Continuous
 62
     7
100
AcDbLine
 10
322.8010615115187
 20
181.0693348437074
 30
0.0
 11
322.9787036530208
 21
182.8457541097779
 31
0.0
  0
LINE
  5
49C
330
2
100
AcDbEntity
  8
0
  6
Continuous
 62
     7
100
AcDbLine
 10
322.3592555196467
 20
181.1737188823846
 30
0.0
 11
322.4967255121953
 21
182.5484171448856
 31
0.0
  0
ARC
  5
49D
330
2
100
AcDbEntity
  8
0
  6
Continuous
 62
     7
100
AcDbCircle
 10
323.8550241075861
 20
179.1097074601024
 30
0.0
 40
2.0
100
AcDbArc
 50
270.0
 51
0.0
  0
LINE
  5
49E
330
2
100
AcDbEntity
  8
0
  6
Continuous
 62
     7
100
AcDbLine
 10
322.760016635765
 20
180.6588865826922
 30
0.0
 11
322.6267477621202
 21
180.7660754972537
 31
0.0
  0
LINE
  5
49F
330
2
100
AcDbEntity
  8
0
  6
Continuous
 62
     7
100
AcDbLine
 10
322.6334352476297
 20
180.9531945646384
 30
0.0
 11
322.8010615115187
 21
181.0693348437074
 31
0.0
  0
ARC
  5
4A0
330
2
100
AcDbEntity
  8
0
  6
Continuous
 62
     7
100
AcDbCircle
 10
322.3378942439274
 20
178.8496350309461
 30
0.0
 40
0.24
100
AcDbArc
 50
330.3546568642834
 51
354.289399999998
  0
LINE
  5
4A1
330
2
100
AcDbEntity
  8
0
  6
Continuous
 62
     7
100
AcDbLine
 10
322.5767031667177
 20
178.825754109778
 30
0.0
 11
322.760016635765
 21
180.6588865826922
 31
0.0
  0
LINE
  5
4A2
330
2
100
AcDbEntity
  8
0
  6
Continuous
 62
     7
100
AcDbLine
 10
322.1736555322104
 20
180.6346350309459
 30
0.0
 11
322.5048597584954
 21
180.8641107131998
 31
0.0
  0
LINE
  5
4A3
330
2
100
AcDbEntity
  8
0
  6
Continuous
 62
     7
100
AcDbLine
 10
322.5048597584954
 20
180.8641107131998
 30
0.0
 11
322.2306800305125
 21
181.0846350309461
 31
0.0
  0
LINE
  5
4A4
330
2
100
AcDbEntity
  8
0
  6
Continuous
 62
     7
100
AcDbLine
 10
322.4352612598084
 20
178.6302730829731
 30
0.0
 11
322.0466940840208
 21
179.0596350309461
 31
0.0
  0
ARC
  5
4A5
330
2
100
AcDbEntity
  8
0
  6
Continuous
 62
     7
100
AcDbCircle
 10
322.3378942439274
 20
178.8496350309461
 30
0.0
 40
0.24
100
AcDbArc
 50
270.0
 51
293.9347431357139
  0
LINE
  5
4A6
330
2
100
AcDbEntity
  8
0
  6
Continuous
 62
     7
100
AcDbLine
 10
322.1579119700812
 20
179.1602858223997
 30
0.0
 11
322.2955435358354
 21
180.536599815
 31
0.0
  0
LINE
  5
4A7
330
2
100
AcDbEntity
  8
0
  6
Continuous
 62
     7
100
AcDbLine
 10
322.2955435358354
 20
180.536599815
 30
0.0
 11
322.6267477621202
 21
180.7660754972537
 31
0.0
  0
LINE
  5
4A8
330
2
100
AcDbEntity
  8
0
  6
Continuous
 62
     7
100
AcDbLine
 10
322.6334352476297
 20
180.9531945646384
 30
0.0
 11
322.3592555196467
 21
181.1737188823846
 31
0.0
  0
LINE
  5
4A9
330
2
100
AcDbEntity
  8
0
  6
Continuous
 62
     7
100
AcDbLine
 10
322.5464791458687
 20
178.7309238744268
 30
0.0
 11
322.1579119700812
 21
179.1602858223997
 31
0.0
  0
ARC
  5
4AA
330
2
100
AcDbEntity
  8
0
  6
Continuous
 62
     7
100
AcDbCircle
 10
322.7398947302309
 20
182.8696350309461
 30
0.0
 40
0.24
100
AcDbArc
 50
354.289399999998
 51
23.93474313571744
  0
ARC
  5
4AB
330
2
100
AcDbEntity
  8
0
  6
Continuous
 62
     7
100
AcDbCircle
 10
322.7398947302309
 20
182.8696350309461
 30
0.0
 40
0.24
100
AcDbArc
 50
60.35465686428622
 51
90.0
  0
LINE
  5
4AC
330
2
100
AcDbEntity
  8
0
  6
Continuous
 62
     7
100
AcDbLine
 10
322.85860588675
 20
183.0782199328874
 30
0.0
 11
322.3960747207418
 21
182.6596350309459
 31
0.0
  0
LINE
  5
4AD
330
2
100
AcDbEntity
  8
0
  6
Continuous
 62
     7
100
AcDbLine
 10
322.9592566782037
 20
182.9670020468269
 30
0.0
 11
322.4967255121953
 21
182.5484171448856
 31
0.0
  0
LINE
  5
4AE
330
2
100
AcDbEntity
  8
0
  6
Continuous
 62
     7
100
AcDbLine
 10
298.3550912326903
 20
198.1096350309461
 30
0.0
 11
324.3550912326903
 21
198.1096350309461
 31
0.0
  0
LINE
  5
4AF
330
2
100
AcDbEntity
  8
0
  6
Continuous
 62
     7
100
AcDbLine
 10
298.8550241075861
 20
199.1097074601024
 30
0.0
 11
323.8550241075861
 21
199.1097074601024
 31
0.0
  0
ARC
  5
4B0
330
2
100
AcDbEntity
  8
0
  6
Continuous
 62
     7
100
AcDbCircle
 10
298.8550241075861
 20
197.1097074601024
 30
0.0
 40
2.0
100
AcDbArc
 50
90.0
 51
180.0
  0
ARC
  5
4B1
330
2
100
AcDbEntity
  8
0
  6
Continuous
 62
     7
100
AcDbCircle
 10
323.8550241075861
 20
197.1097074601024
 30
0.0
 40
2.0
100
AcDbArc
 50
0.0
 51
90.0
  0
CIRCLE
  5
4B2
330
2
100
AcDbEntity
  8
0
  6
Continuous
 62
     7
100
AcDbCircle
 10
286.8551879096515
 20
172.8108351359858
 30
0.0
 40
1.6
  0
CIRCLE
  5
4B3
330
2
100
AcDbEntity
  8
0
  6
Continuous
 62
     7
100
AcDbCircle
 10
343.8551879096516
 20
172.8108351359858
 30
0.0
 40
1.6
  0
ARC
  5
4B4
330
2
100
AcDbEntity
  8
0
  6
Continuous
 62
     7
 48
2.0
100
AcDbCircle
 10
342.1551548382733
 20
174.8098833338571
 30
0.0
 40
2.000103288135683
100
AcDbArc
 50
347.8902884518324
 51
359.996293755052
  0
ARC
  5
4B5
330
2
100
AcDbEntity
  8
0
  6
Continuous
 62
     7
 48
2.0
100
AcDbCircle
 10
288.5552214136398
 20
174.8098833338571
 30
0.0
 40
2.000103288135762
100
AcDbArc
 50
267.1331843784833
 51
269.999069511637
  0
LINE
  5
4B6
330
2
100
AcDbEntity
  8
0
  6
Continuous
 62
     7
100
AcDbLine
 10
337.847809646413
 20
134.6096350309461
 30
0.0
 11
292.8621790324347
 21
134.6096350309461
 31
0.0
  0
LINE
  5
4B7
330
2
100
AcDbEntity
  8
0
  6
Continuous
 62
     7
100
AcDbLine
 10
214.2550912326901
 20
134.6096350309461
 30
0.0
 11
123.258738836435
 21
134.6096350309461
 31
0.0
  0
LINE
  5
4B8
330
2
100
AcDbEntity
  8
0
  6
Continuous
 62
     7
100
AcDbLine
 10
344.3551936414542
 20
139.609635030946
 30
0.0
 11
286.355182610459
 21
139.609635030946
 31
0.0
  0
ARC
  5
4B9
330
2
100
AcDbEntity
  8
0
  6
Continuous
 62
     7
100
AcDbCircle
 10
286.355182610459
 20
143.6096350309459
 30
0.0
 40
4.0
100
AcDbArc
 50
180.0
 51
270.0
  0
LINE
  5
4BA
330
2
100
AcDbEntity
  8
0
  6
Continuous
100
AcDbLine
 10
94.75722300776501
 20
47.62467989465888
 30
0.0
 11
94.75722300776501
 21
101.5949760643717
 31
0.0
  0
LINE
  5
4BB
330
2
100
AcDbEntity
  8
0
  6
Continuous
100
AcDbLine
 10
94.75722300776501
 20
145.6463082329858
 30
0.0
 11
94.75722300776501
 21
238.4993828543673
 31
0.0
  0
LINE
  5
4BC
330
2
100
AcDbEntity
  8
0
  6
Continuous
100
AcDbLine
 10
234.757223007765
 20
45.88956259224548
 30
0.0
 11
234.757223007765
 21
103.3297074696466
 31
0.0
  0
ARC
  5
4BD
330
2
100
AcDbEntity
  8
0
  6
Continuous
100
AcDbCircle
 10
230.757223007765
 20
103.3297074696466
 30
0.0
 40
4.0
100
AcDbArc
 50
0.0
 51
89.00000000000149
  0
ARC
  5
4BE
330
2
100
AcDbEntity
  8
0
  6
Continuous
100
AcDbCircle
 10
233.757223007765
 20
50.58568277211286
 30
0.0
 40
1.0
100
AcDbArc
 50
269.9925974445447
 51
0.0
  0
ARC
  5
4BF
330
2
100
AcDbEntity
  8
0
  6
Continuous
100
AcDbCircle
 10
233.757223007765
 20
98.5835912899539
 30
0.0
 40
1.0
100
AcDbArc
 50
0.0
 51
90.00740255545201
  0
LINE
  5
4C0
330
2
100
AcDbEntity
  8
0
  6
Continuous
100
AcDbLine
 10
234.7572230077651
 20
143.8980648309638
 30
0.0
 11
234.757223007765
 21
240.3215855242783
 31
0.0
  0
ARC
  5
4C1
330
2
100
AcDbEntity
  8
0
  6
Continuous
100
AcDbCircle
 10
230.757223007765
 20
240.3215855242783
 30
0.0
 40
4.0
100
AcDbArc
 50
0.0
 51
89.00992909121617
  0
ARC
  5
4C2
330
2
100
AcDbEntity
  8
0
  6
Continuous
100
AcDbCircle
 10
233.7572230077651
 20
235.5727114346672
 30
0.0
 40
1.0
100
AcDbArc
 50
0.0
 51
90.00740255545201
  0
LINE
  5
4C3
330
2
100
AcDbEntity
  8
0
  6
Continuous
100
AcDbLine
 10
286.355182610459
 20
244.6096350309461
 30
0.0
 11
344.3551936414542
 21
244.6096350309461
 31
0.0
  0
ARC
  5
4C4
330
2
100
AcDbEntity
  8
0
  6
Continuous
100
AcDbCircle
 10
286.355182610459
 20
240.6096350309461
 30
0.0
 40
4.0
100
AcDbArc
 50
90.0
 51
180.0
  0
LINE
  5
4C5
330
2
100
AcDbEntity
  8
0
  6
Continuous
 62
     7
100
AcDbLine
 10
214.2550912326901
 20
139.609635030946
 30
0.0
 11
98.68739615533957
 21
141.6469177530899
 31
0.0
  0
LINE
  5
4C6
330
2
100
AcDbEntity
  8
0
  6
Continuous
 62
     7
 48
2.0
100
AcDbLine
 10
214.7534805787252
 20
139.6096350309459
 30
0.0
 11
230.824686600555
 21
139.898633220161
 31
0.0
  0
ENDSEC
  0
SECTION
  2
OBJECTS
  0
DICTIONARY
  5
B
330
0
100
AcDbDictionary
281
     1
  3
ACAD_COLOR
350
41
  3
ACAD_GROUP
350
3B
  3
ACAD_LAYOUT
350
16
  3
ACAD_MATERIAL
350
D
  3
ACAD_MLEADERSTYLE
350
44
  3
ACAD_MLINESTYLE
350
3C
  3
ACAD_PLOTSETTINGS
350
3D
  3
ACAD_PLOTSTYLENAME
350
A
  3
ACAD_SCALELIST
350
42
  3
ACAD_TABLESTYLE
350
43
  3
ACAD_VISUALSTYLE
350
2E
  3
ACDB_RECOMPOSE_DATA
350
4D3
  3
AcDbVariableDictionary
350
4C8
  0
DICTIONARY
  5
1E
330
1D
100
AcDbDictionary
280
     1
281
     1
  3
ACAD_LAYERFILTERS
360
1F
  3
ACAD_LAYERSTATES
360
20
  3
ACLYDICTIONARY
360
21
  0
DICTIONARY
  5
7
330
6
100
AcDbDictionary
280
     1
281
     1
  3
ADSK_XREC_LAYER_RECONCILED
360
8
  0
DICTIONARY
  5
3
330
2
100
AcDbDictionary
280
     1
281
     1
  3
ACAD_SORTENTS
360
4C7
  0
DICTIONARY
  5
41
102
{ACAD_REACTORS
330
B
102
}
330
B
100
AcDbDictionary
281
     1
  0
DICTIONARY
  5
3B
102
{ACAD_REACTORS
330
B
102
}
330
B
100
AcDbDictionary
281
     1
  0
DICTIONARY
  5
16
102
{ACAD_REACTORS
330
B
102
}
330
B
100
AcDbDictionary
281
     1
  3
Model
350
15
  3
ﾚｲｱｳﾄ1
350
1C
  0
DICTIONARY
  5
D
102
{ACAD_REACTORS
330
B
102
}
330
B
100
AcDbDictionary
281
     1
  3
ByBlock
350
3E
  3
ByLayer
350
11
  3
Global
350
C
  0
DICTIONARY
  5
44
102
{ACAD_REACTORS
330
B
102
}
330
B
100
AcDbDictionary
281
     1
  0
DICTIONARY
  5
3C
102
{ACAD_REACTORS
330
B
102
}
330
B
100
AcDbDictionary
281
     1
  3
STANDARD
350
4B
  0
DICTIONARY
  5
3D
102
{ACAD_REACTORS
330
B
102
}
330
B
100
AcDbDictionary
281
     1
  0
ACDBDICTIONARYWDFLT
  5
A
102
{ACAD_REACTORS
330
B
102
}
330
B
100
AcDbDictionary
281
     1
  3
Normal
350
9
100
AcDbDictionaryWithDefault
340
9
  0
DICTIONARY
  5
42
102
{ACAD_REACTORS
330
B
102
}
330
B
100
AcDbDictionary
281
     1
  3
A0
350
50
  3
A1
350
51
  3
A2
350
52
  3
A3
350
53
  3
A4
350
54
  3
A5
350
55
  3
A6
350
56
  3
A7
350
57
  3
A8
350
58
  3
A9
350
59
  3
B0
350
5A
  3
B1
350
5B
  3
B2
350
5C
  3
B3
350
5D
  3
B4
350
5E
  3
B5
350
5F
  3
B6
350
60
  0
DICTIONARY
  5
43
102
{ACAD_REACTORS
330
B
102
}
330
B
100
AcDbDictionary
281
     1
  3
Standard
350
4C
  0
DICTIONARY
  5
2E
102
{ACAD_REACTORS
330
B
102
}
330
B
100
AcDbDictionary
281
     1
  3
2dWireframe
350
2D
  3
Realistic
350
4E
  3
Wireframe
350
4F
  0
XRECORD
  5
4D3
102
{ACAD_REACTORS
330
B
102
}
330
B
100
AcDbXrecord
280
     1
 90
        1
330
4C
  0
DICTIONARY
  5
4C8
102
{ACAD_REACTORS
330
B
102
}
330
B
100
AcDbDictionary
281
     1
  3
CANNOSCALE
350
4CB
  3
CMLEADERSTYLE
350
4CA
  3
CTABLESTYLE
350
4C9
  3
DIMASSOC
350
4CF
  3
HIDETEXT
350
4CE
  3
INDEXCTL
350
4CD
  3
SOLIDHIST
350
4D0
  3
SORTENTS
350
4CC
  3
XCLIPFRAME
350
4D1
  0
DICTIONARY
  5
1F
102
{ACAD_REACTORS
330
1E
102
}
330
1E
100
AcDbDictionary
281
     1
  0
DICTIONARY
  5
20
102
{ACAD_REACTORS
330
1E
102
}
330
1E
100
AcDbDictionary
281
     1
  0
DICTIONARY
  5
21
102
{ACAD_REACTORS
330
1E
102
}
330
1E
100
AcDbDictionary
281
     1
1001
ACAD
1000
<All
  0
XRECORD
  5
8
102
{ACAD_REACTORS
330
7
102
}
330
7
100
AcDbXrecord
280
     1
290
     1
  0
SORTENTSTABLE
  5
4C7
102
{ACAD_REACTORS
330
3
102
}
330
3
100
AcDbSortentsTable
330
2
  0
LAYOUT
  5
15
102
{ACAD_XDICTIONARY
360
17
102
}
102
{ACAD_REACTORS
330
16
102
}
330
16
100
AcDbPlotSettings
  1

  2
\\DEVSVR02\LP-8700
  4
A3
  6

 40
5.873749732971191
 41
5.873747825622557
 42
5.873748779296875
 43
5.873748779296875
 44
297.0106506347656
 45
419.9466552734373
 46
0.0
 47
0.0
 48
0.0
 49
0.0
140
0.0
141
0.0
142
1.0
143
1.0
 70
 11952
 72
     1
 73
     1
 74
     2
  7
ﾍﾟﾝ設定.ctb
 75
    16
147
1.0
148
0.0
149
0.0
100
AcDbLayout
  1
Model
 70
     1
 71
     0
 10
0.0
 20
0.0
 11
12.0
 21
9.0
 12
0.0
 22
0.0
 32
0.0
 14
0.0
 24
0.0
 34
0.0
 15
0.0
 25
0.0
 35
0.0
146
0.0
 13
0.0
 23
0.0
 33
0.0
 16
1.0
 26
0.0
 36
0.0
 17
0.0
 27
1.0
 37
0.0
 76
     0
330
2
331
2C
  0
LAYOUT
  5
1C
102
{ACAD_XDICTIONARY
360
4D5
102
}
102
{ACAD_REACTORS
330
16
102
}
330
16
100
AcDbPlotSettings
  1

  2
なし
  4

  6

 40
0.0
 41
0.0
 42
0.0
 43
0.0
 44
0.0
 45
0.0
 46
0.0
 47
0.0
 48
0.0
 49
0.0
140
0.0
141
0.0
142
1.0
143
1.0
 70
   688
 72
     0
 73
     0
 74
     5
  7
ﾍﾟﾝ設定.ctb
 75
    16
147
1.0
148
0.0
149
0.0
100
AcDbLayout
  1
ﾚｲｱｳﾄ1
 70
     0
 71
     1
 10
0.0
 20
0.0
 11
12.0
 21
9.0
 12
0.0
 22
0.0
 32
0.0
 14
1.000000000000000E+20
 24
1.000000000000000E+20
 34
1.000000000000000E+20
 15
-1.000000000000000E+20
 25
-1.000000000000000E+20
 35
-1.000000000000000E+20
146
0.0
 13
0.0
 23
0.0
 33
0.0
 16
1.0
 26
0.0
 36
0.0
 17
0.0
 27
1.0
 37
0.0
 76
     0
330
19
  0
MATERIAL
  5
3E
102
{ACAD_XDICTIONARY
360
3F
102
}
102
{ACAD_REACTORS
330
D
102
}
330
D
100
AcDbMaterial
  1
ByBlock
 73
     1
 78
     1
172
     1
176
     1
270
     1
274
     1
  0
MATERIAL
  5
11
102
{ACAD_XDICTIONARY
360
12
102
}
102
{ACAD_REACTORS
330
D
102
}
330
D
100
AcDbMaterial
  1
ByLayer
 73
     1
 78
     1
172
     1
176
     1
270
     1
274
     1
  0
MATERIAL
  5
C
102
{ACAD_XDICTIONARY
360
E
102
}
102
{ACAD_REACTORS
330
D
102
}
330
D
100
AcDbMaterial
  1
Global
 73
     1
 78
     1
172
     1
176
     1
270
     1
274
     1
  0
MLINESTYLE
  5
4B
102
{ACAD_REACTORS
330
3C
102
}
330
3C
100
AcDbMlineStyle
  2
STANDARD
 70
     0
  3

 62
     0
 51
90.0
 52
90.0
 71
     2
 49
0.5
 62
   256
  6
BYLAYER
 49
-0.5
 62
   256
  6
BYLAYER
  0
ACDBPLACEHOLDER
  5
9
102
{ACAD_REACTORS
330
A
102
}
330
A
  0
SCALE
  5
50
102
{ACAD_REACTORS
330
42
102
}
330
42
100
AcDbScale
 70
     0
300
1:1
140
1.0
141
1.0
290
     1
  0
SCALE
  5
51
102
{ACAD_REACTORS
330
42
102
}
330
42
100
AcDbScale
 70
     0
300
1/128" = 1'-0"
140
0.0078125
141
12.0
290
     0
  0
SCALE
  5
52
102
{ACAD_REACTORS
330
42
102
}
330
42
100
AcDbScale
 70
     0
300
1/64" = 1'-0"
140
0.015625
141
12.0
290
     0
  0
SCALE
  5
53
102
{ACAD_REACTORS
330
42
102
}
330
42
100
AcDbScale
 70
     0
300
1/32" = 1'-0"
140
0.03125
141
12.0
290
     0
  0
SCALE
  5
54
102
{ACAD_REACTORS
330
42
102
}
330
42
100
AcDbScale
 70
     0
300
1/16" = 1'-0"
140
0.0625
141
12.0
290
     0
  0
SCALE
  5
55
102
{ACAD_REACTORS
330
42
102
}
330
42
100
AcDbScale
 70
     0
300
3/32" = 1'-0"
140
0.09375
141
12.0
290
     0
  0
SCALE
  5
56
102
{ACAD_REACTORS
330
42
102
}
330
42
100
AcDbScale
 70
     0
300
1/8" = 1'-0"
140
0.125
141
12.0
290
     0
  0
SCALE
  5
57
102
{ACAD_REACTORS
330
42
102
}
330
42
100
AcDbScale
 70
     0
300
3/16" = 1'-0"
140
0.1875
141
12.0
290
     0
  0
SCALE
  5
58
102
{ACAD_REACTORS
330
42
102
}
330
42
100
AcDbScale
 70
     0
300
1/4" = 1'-0"
140
0.25
141
12.0
290
     0
  0
SCALE
  5
59
102
{ACAD_REACTORS
330
42
102
}
330
42
100
AcDbScale
 70
     0
300
3/8" = 1'-0"
140
0.375
141
12.0
290
     0
  0
SCALE
  5
5A
102
{ACAD_REACTORS
330
42
102
}
330
42
100
AcDbScale
 70
     0
300
1/2" = 1'-0"
140
0.5
141
12.0
290
     0
  0
SCALE
  5
5B
102
{ACAD_REACTORS
330
42
102
}
330
42
100
AcDbScale
 70
     0
300
3/4" = 1'-0"
140
0.75
141
12.0
290
     0
  0
SCALE
  5
5C
102
{ACAD_REACTORS
330
42
102
}
330
42
100
AcDbScale
 70
     0
300
1" = 1'-0"
140
1.0
141
12.0
290
     0
  0
SCALE
  5
5D
102
{ACAD_REACTORS
330
42
102
}
330
42
100
AcDbScale
 70
     0
300
1-1/2" = 1'-0"
140
1.5
141
12.0
290
     0
  0
SCALE
  5
5E
102
{ACAD_REACTORS
330
42
102
}
330
42
100
AcDbScale
 70
     0
300
3" = 1'-0"
140
3.0
141
12.0
290
     0
  0
SCALE
  5
5F
102
{ACAD_REACTORS
330
42
102
}
330
42
100
AcDbScale
 70
     0
300
6" = 1'-0"
140
6.0
141
12.0
290
     0
  0
SCALE
  5
60
102
{ACAD_REACTORS
330
42
102
}
330
42
100
AcDbScale
 70
     0
300
1'-0" = 1'-0"
140
12.0
141
12.0
290
     0
  0
TABLESTYLE
  5
4C
102
{ACAD_XDICTIONARY
360
4D
102
}
102
{ACAD_REACTORS
330
43
102
}
330
43
100
AcDbTableStyle
  3
Standard
 70
     0
 71
     0
 40
0.06
 41
0.06
280
     0
281
     0
  7
STANDARD
140
0.18
170
     2
 62
     0
 63
     7
283
     0
274
    -2
284
     1
 64
     0
275
    -2
285
     1
 65
     0
276
    -2
286
     1
 66
     0
277
    -2
287
     1
 67
     0
278
    -2
288
     1
 68
     0
279
    -2
289
     1
 69
     0
  7
STANDARD
140
0.25
170
     5
 62
     0
 63
     7
283
     0
274
    -2
284
     1
 64
     0
275
    -2
285
     1
 65
     0
276
    -2
286
     1
 66
     0
277
    -2
287
     1
 67
     0
278
    -2
288
     1
 68
     0
279
    -2
289
     1
 69
     0
  7
STANDARD
140
0.18
170
     5
 62
     0
 63
     7
283
     0
274
    -2
284
     1
 64
     0
275
    -2
285
     1
 65
     0
276
    -2
286
     1
 66
     0
277
    -2
287
     1
 67
     0
278
    -2
288
     1
 68
     0
279
    -2
289
     1
 69
     0
  0
VISUALSTYLE
  5
2D
102
{ACAD_XDICTIONARY
360
4D7
102
}
102
{ACAD_REACTORS
330
2E
102
}
330
2E
100
AcDbVisualStyle
  2

 70
     4
 71
     0
 72
     2
 73
     0
 90
        0
 40
-0.6
 41
-30.0
 62
     5
 63
     7
 74
     1
 91
        4
 64
     7
 65
   257
 75
     1
175
     1
 42
1.0
 92
        0
 66
   257
 43
1.0
 76
     1
 77
     6
 78
     2
 67
     7
 79
     5
170
     0
171
     0
290
     0
174
     0
 93
        1
 44
0.0
173
     0
291
     0
 45
0.0
1001
ACAD
1000
AcDbSavedByObjectVersion
1070
     0
  0
VISUALSTYLE
  5
4E
102
{ACAD_XDICTIONARY
360
4DA
102
}
102
{ACAD_REACTORS
330
2E
102
}
330
2E
100
AcDbVisualStyle
  2

 70
     8
 71
     2
 72
     2
 73
     0
 90
        0
 40
-0.6
 41
-30.0
 62
     5
 63
     7
 74
     1
 91
        0
 64
     7
 65
   257
 75
     1
175
     1
 42
1.0
 92
        8
 66
     8
 43
1.0
 76
     1
 77
     6
 78
     2
 67
     7
 79
     5
170
     0
171
     0
290
     0
174
     0
 93
       13
 44
0.0
173
     0
291
     0
 45
0.0
1001
ACAD
1000
AcDbSavedByObjectVersion
1070
     0
  0
VISUALSTYLE
  5
4F
102
{ACAD_XDICTIONARY
360
4DC
102
}
102
{ACAD_REACTORS
330
2E
102
}
330
2E
100
AcDbVisualStyle
  2

 70
     5
 71
     0
 72
     2
 73
     0
 90
        0
 40
-0.6
 41
-30.0
 62
     5
 63
     7
 74
     1
 91
        4
 64
     7
 65
   257
 75
     1
175
     1
 42
1.0
 92
        0
 66
   257
 43
1.0
 76
     1
 77
     6
 78
     2
 67
     7
 79
     3
170
     0
171
     0
290
     0
174
     0
 93
        1
 44
0.0
173
     0
291
     0
 45
0.0
1001
ACAD
1000
AcDbSavedByObjectVersion
1070
     0
  0
DICTIONARYVAR
  5
4CB
102
{ACAD_REACTORS
330
4C8
102
}
330
4C8
100
DictionaryVariables
280
     0
  1
1:1
  0
DICTIONARYVAR
  5
4CA
102
{ACAD_REACTORS
330
4C8
102
}
330
4C8
100
DictionaryVariables
280
     0
  1
STANDARD
  0
DICTIONARYVAR
  5
4C9
102
{ACAD_REACTORS
330
4C8
102
}
330
4C8
100
DictionaryVariables
280
     0
  1
STANDARD
  0
DICTIONARYVAR
  5
4CF
102
{ACAD_REACTORS
330
4C8
102
}
330
4C8
100
DictionaryVariables
280
     0
  1
1
  0
DICTIONARYVAR
  5
4CE
102
{ACAD_REACTORS
330
4C8
102
}
330
4C8
100
DictionaryVariables
280
     0
  1
1
  0
DICTIONARYVAR
  5
4CD
102
{ACAD_REACTORS
330
4C8
102
}
330
4C8
100
DictionaryVariables
280
     0
  1
0
  0
DICTIONARYVAR
  5
4D0
102
{ACAD_REACTORS
330
4C8
102
}
330
4C8
100
DictionaryVariables
280
     0
  1
1
  0
DICTIONARYVAR
  5
4CC
102
{ACAD_REACTORS
330
4C8
102
}
330
4C8
100
DictionaryVariables
280
     0
  1
127
  0
DICTIONARYVAR
  5
4D1
102
{ACAD_REACTORS
330
4C8
102
}
330
4C8
100
DictionaryVariables
280
     0
  1
2
  0
DICTIONARY
  5
17
330
15
100
AcDbDictionary
280
     1
281
     1
  3
ACAD_XREC_ROUNDTRIP
360
4D4
  3
ADSK_XREC_LAYOUTTHUMBNAIL
360
18
  0
DICTIONARY
  5
4D5
330
1C
100
AcDbDictionary
280
     1
281
     1
  3
ACAD_XREC_ROUNDTRIP
360
4D6
  0
DICTIONARY
  5
3F
330
3E
100
AcDbDictionary
280
     1
281
     1
  3
ACAD_XREC_ROUNDTRIP
360
40
  0
DICTIONARY
  5
12
330
11
100
AcDbDictionary
280
     1
281
     1
  3
ACAD_XREC_ROUNDTRIP
360
13
  0
DICTIONARY
  5
E
330
C
100
AcDbDictionary
280
     1
281
     1
  3
ACAD_XREC_ROUNDTRIP
360
F
  0
DICTIONARY
  5
4D
330
4C
100
AcDbDictionary
280
     1
281
     1
  3
ACAD_ROUNDTRIP_2008_TABLESTYLE_CELLSTYLEMAP
360
4D2
  3
ACAD_XREC_ROUNDTRIP
360
4D9
  0
DICTIONARY
  5
4D7
330
2D
100
AcDbDictionary
280
     1
281
     1
  3
ACAD_XREC_ROUNDTRIP
360
4D8
  0
DICTIONARY
  5
4DA
330
4E
100
AcDbDictionary
280
     1
281
     1
  3
ACAD_XREC_ROUNDTRIP
360
4DB
  0
DICTIONARY
  5
4DC
330
4F
100
AcDbDictionary
280
     1
281
     1
  3
ACAD_XREC_ROUNDTRIP
360
4DD
  0
XRECORD
  5
4D4
102
{ACAD_REACTORS
330
17
102
}
330
17
100
AcDbXrecord
280
     1
102
SHADEPLOT
 70
     0
102
SHADEPLOTRESLEVEL
 70
     2
102
SHADEPLOTCUSTOMDPI
 70
   300
  0
XRECORD
  5
18
102
{ACAD_REACTORS
330
17
102
}
330
17
100
AcDbXrecord
280
     1
310
280000000001000072000000010008000000000000720000000000000000000000010000000000000000000000000000C8C8C8000000000000000000000000000000000000000000000000000000000000000000330000006600000099000000CC000000FF00000000330000333300006633000099330000CC330000FF3300
310
0000660000336600006666000099660000CC660000FF66000000990000339900006699000099990000CC990000FF99000000CC000033CC000066CC000099CC0000CCCC0000FFCC000000FF000033FF000066FF000099FF0000CCFF0000FFFF000000003300330033006600330099003300CC003300FF003300003333003333
310
33006633330099333300CC333300FF33330000663300336633006666330099663300CC663300FF66330000993300339933006699330099993300CC993300FF99330000CC330033CC330066CC330099CC3300CCCC3300FFCC330000FF330033FF330066FF330099FF3300CCFF3300FFFF330000006600330066006600660099
310
006600CC006600FF00660000336600333366006633660099336600CC336600FF33660000666600336666006666660099666600CC666600FF66660000996600339966006699660099996600CC996600FF99660000CC660033CC660066CC660099CC6600CCCC6600FFCC660000FF660033FF660066FF660099FF6600CCFF6600
310
FFFF660000009900330099006600990099009900CC009900FF00990000339900333399006633990099339900CC339900FF33990000669900336699006666990099669900CC669900FF66990000999900339999006699990099999900CC999900FF99990000CC990033CC990066CC990099CC9900CCCC9900FFCC990000FF99
310
0033FF990066FF990099FF9900CCFF9900FFFF99000000CC003300CC006600CC009900CC00CC00CC00FF00CC000033CC003333CC006633CC009933CC00CC33CC00FF33CC000066CC003366CC006666CC009966CC00CC66CC00FF66CC000099CC003399CC006699CC009999CC00CC99CC00FF99CC0000CCCC0033CCCC0066CC
310
CC0099CCCC00CCCCCC00FFCCCC0000FFCC0033FFCC0066FFCC0099FFCC00CCFFCC00FFFFCC000000FF003300FF006600FF009900FF00CC00FF00FF00FF000033FF003333FF006633FF009933FF00CC33FF00FF33FF000066FF003366FF006666FF009966FF00CC66FF00FF66FF000099FF003399FF006699FF009999FF00CC
310
99FF00FF99FF0000CCFF0033CCFF0066CCFF0099CCFF00CCCCFF00FFCCFF0000FFFF0033FFFF0066FFFF0099FFFF00CCFFFF00FFFFFF00000000000D0D0D001A1A1A00282828003535350043434300505050005D5D5D006B6B6B00787878008686860093939300A1A1A100AEAEAE00BBBBBB00C9C9C900D6D6D600E4E4E400
310
F1F1F100FFFFFF000000000000000000000000000000000000000000000000000000000000000000000000000000000000000000000000000000000000000000000000000000000000000000000000000000000000000000000000000000000000000000000000000000000000000000000000000000000000000000000000
310
00000000000000000000000000000000000000000000000000000000000000000000000000000000000000000000000000000000000000000000000000000000000000000000000000000000000000000000000000000000000000000000000000000000000000000000000000000000000000000000000000000000000000
310
00000000000000000000000000000000000000000000000000000000000000000000000000000000000000000000000000000000000000000000000000000000000000000000000000000000000000000000000000000000000000000000000000000000000000000000000000000000000000000000000000000000000000
310
00000000000000000000000000000000000000000000000000000000000000000000000000000000000000000000000000000000000000000000000000000000000000000000000000000000000000000000000000000000000000000000000000000000000000000000000000000000000000000000000000000000000000
310
00000000000000000000000000000000000000000000000000000000000000000000000000000000000000000000000000000000000000000000000000000000000000000000000000000000000000000000000000000000000000000000000000000000000000000000000000000000000000000000000000000000000000
310
00000000000000000000000000000000000000000000000000000000000000000000000000000000000000000000000000000000000000000000000000000000000000000000000000000000000000000000000000000000000000000000000000000000000000000000000000000000000000000000000000000000000000
310
00000000000000000000000000000000000000000000000000000000000000000000000000000000000000000000000000000000000000000000000000000000000000000000000000000000000000000000000000000000000000000000000000000000000000000000000000000000000000000000000000000000000000
310
00000000000000000000000000000000000000000000000000000000000000000000000000000000000000000000000000000000000000000000000000000000000000000000000000000000000000000000000000000000000000000000000000000000000000000000000000000000000000000000000000000000000000
310
00000000000000000000000000000000000000000000000000000000000000000000000000000000000000000000000000000000000000000000000000000000000000000000000000000000000000000000000000000000000000000000000000000000000000000000000000000000000000000000000000000000000000
310
00000000000000000000000000000000000000000000000000000000000000000000000000000000000000000000000000000000000000000000000000000000000000000000000000000000000000000000000000000000000000000000000000000000000000000000000000000000000000000000000000000000000000
310
00000000000000000000000000000000000000000000000000000000000000000000000000000000000000000000000000000000000000000000000000000000000000000000000000000000000000000000000000000000000000000000000000000000000000000000000000000000000000000000000000000000000000
310
00000000000000000000000000000000000000000000000000000000000000000000000000000000000000000000000000000000000000000000000000000000000000000000000000000000000000000000000000000000000000000000000000000000000000000000000000000000000000000000000000000000000000
310
00000000000000000000000000000000000000000000000000000000000000000000000000000000000000000000000000000000000000000000000000000000000000000000000000000000000000000000000000000000000000000000000000000000000000000000000000000000000000000000000000000000000000
310
00000000000000000000000000000000000000000000000000000000000000000000000000000000000000000000000000000000000000000000000000000000000000000000000000000000000000000000000000000000000000000000000000000000000000000000000000000000000000000000000000000000000000
310
00000000000000000000000000000000000000000000000000000000000000000000000000000000000000000000000000000000000000000000000000000000000000000000000000000000000000000000000000000000000000000000000000000000000000000000000000000000000000000000000000000000000000
310
00000000000000000000000000000000000000000000000000000000000000000000000000000000000000000000000000000000000000000000000000000000000000000000000000000000000000000000000000000000000000000000000000000000000000000000000000000000000000000000000000000000000000
310
00000000000000000000000000000000000000000000000000000000000000000000000000000000000000000000000000000000000000000000000000000000000000000000000000000000000000000000000000000000000000000000000000000000000000000000000000000000000000000000000000000000000000
310
00000000000000000000000000000000000000000000000000000000000000000000000000000000000000000000000000000000000000000000000000000000000000000000000000000000000000000000000000000000000000000000000000000000000000000000000000000000000000000000000000000000000000
310
00000000000000000000000000000000000000000000000000000000000000000000000000000000000000000000000000000000000000000000000000000000000000000000000000000000000000000000000000000000000000000000000000000000000000000000000000000000000000000000000000000000000000
310
00000000000000000000000000000000000000000000000000000000000000000000000000000000000000000000000000000000000000000000000000000000000000000000000000000000000000000000000000000000000000000000000000000000000000000000000000000000000000000000000000000000000000
310
00000000000000000000000000000000000000000000000000000000000000000000000000000000000000000000000000000000000000000000000000000000000000000000000000000000000000000000000000000000000000000000000000000000000000000000000000000000000000000000000000000000000000
310
00000000000000000000000000000000000000000000000000000000000000000000000000000000000000000000000000000000000000000000000000000000000000000000000000000000000000000000000000000000000000000000000000000000000000000000000000000000000000000000000000000000000000
310
00000000000000000000000000000000000000000000000000000000000000000000000000000000000000000000000000000000000000000000000000000000000000000000000000000000000000000000000000000000000000000000000000000000000000000000000000000000000000000000000000000000000000
310
00000000000000000000000000000000000000000000000000000000000000000000000000000000000000000000000000000000000000000000000000000000000000000000000000000000000000000000000000000000000000000000000000000000000000000000000000000000000000000000000000000000000000
310
00000000000000000000000000000000000000000000000000000000000000000000000000000000000000000000000000000000000000000000000000000000000000000000000000000000000000000000000000000000000000000000000000000000000000000000000000000000000000000000000000000000000000
310
00000000000000000000000000000000000000000000000000000000000000000000000000000000000000000000000000000000000000000000000000000000000000000000000000000000000000000000000000000000000000000000000000000000000000000000000000000000000000000000000000000000000000
310
00000000000000000000000000000000000000000000000000000000000000000000000000000000000000000000000000000000000000000000000000000000000000000000000000000000000000000000000000000000000000000000000000000000000000000000000000000000000000000000000000000000000000
310
00000000000000000000000000000000000000000000000000000000000000000000000000000000000000000000000000000000000000000000000000000000000000000000000000000000000000000000000000000000000000000000000000000000000000000000000000000000000000000000000000000000000000
310
00000000000000000000000000000000000000000000000000000000000000000000000000000000000000000000000000000000000000000000000000000000000000000000000000000000000000000000000000000000000000000000000000000000000000000000000000000000000000000000000000000000000000
310
00000000000000000000000000000000000000000000000000000000000000000000000000000000000000000000000000000000000000000000000000000000000000000000000000000000000000000000000000000000000000000000000000000000000000000000000000000000000000000000000000000000000000
310
00000000000000000000000000000000000000000000000000000000000000000000000000000000000000000000000000000000000000000000000000000000000000000000000000000000000000000000000000000000000000000000000000000000000000000000000000000000000000000000000000000000000000
310
00000000000000000000000000000000000000000000000000000000000000000000000000000000000000000000000000000000000000000000000000000000000000000000000000000000000000000000000000000000000000000000000000000000000000000000000000000000000000000000000000000000000000
310
00000000000000000000000000000000000000000000000000000000000000000000000000000000000000000000000000000000000000000000000000000000000000000000000000000000000000000000000000000000000000000000000000000000000000000000000000000000000000000000000000000000000000
310
00000000000000000000000000000000000000000000000000000000000000000000000000000000000000000000000000000000000000000000000000000000000000000000000000000000000000000000000000000000000000000000000000000000000000000000000000000000000000000000000000000000000000
310
00000000000000000000000000000000000000000000000000000000000000000000000000000000000000000000000000000000000000000000000000000000000000000000000000000000000000000000000000000000000000000000000000000000000000000000000000000000000000000000000000000000000000
310
00000000000000000000000000000000000000000000000000000000000000000000000000000000000000000000000000000000000000000000000000000000000000000000000000000000000000000000000000000000000000000000000000000000000000000000000000000000000000000000000000000000000000
310
00000000000000000000000000000000000000000000000000000000000000000000000000000000000000000000000000000000000000000000000000000000000000000000000000000000000000000000000000000000000000000000000000000000000000000000000000000000000000000000000000000000000000
310
00000000000000000000000000000000000000000000000000000000000000000000000000000000000000000000000000000000000000000000000000000000000000000000000000000000000000000000000000000000000000000000000000000000000000000000000000000000000000000000000000000000000000
310
00000000000000000000000000000000000000000000000000000000000000000000000000000000000000000000000000000000000000000000000000000000000000000000000000000000000000000000000000000000000000000000000000000000000000000000000000000000000000000000000000F5F5F5F5F5F5
310
F5F5F5F5F5F5F5F5F5F5F5F5F5F5F5F5F5F5F5F5F5F5F5F5F5F5F5F5F5F5F5F5F5F5F5F5F5F5F5F5F5F5F5F5F5F5F5F5F5F5F5F5F5F5F5F5F5F5F5F5F5F5F5F5F5F5F5F5F5F5F5F5F5F5F5F5F5F5F5F5F5F5F5F5F5000000000000000000000000000000000000000000000000000000000000000000000000000000000000
310
000000000000000000000000000000000000000000000000000000000000000000000000000000000000000000000000000000000000000000000000000000000000000000000000000000000000000000000000000000000000000000000000000000000000000000000000000000000000000000000000000000F5000000
310
0000000000000000000000000000000000000000000000000000000000000000000000000000000000000000000000000000000000000000000000000000000000000000000000000000000000000000000000000000F500000000000000000000000000000000000000000000000000000000000000000000000000000000
310
0000000000000000000000000000000000000000000000000000000000000000000000000000000000000000000000000000000000000000000000000000000000000000000000000000000000000000000000000000000000000000000000000000000000000000000000000000000000000000000000000000000000F500
310
00000000000000000000000000000000000000000000000000000000000000000000000000000000000000000000000000000000000000000000000000000000000000000000000000000000000000000000000000000000F50000000000000000000000000000000000000000000000000000000000000000000000000000
310
00000000000000000000000000000000000000000000000000000000000000000000000000000000000000000000000000000000000000000000000000000000000000000000000000000000000000000000000000000000000000000000000000000000000000000000000000000000000000000000000000000000000000
310
F50000000000000000000000000000000000000000000000000000000000000000000000000000000000000000000000000000000000000000000000000000000000000000000000000000000000000000000000000000000000F5000000000000000000000000000000000000000000000000000000000000000000000000
310
00000000000000000000000000000000000000000000000000000000000000000000000000000000000000000000000000000000000000000000000000000000000000000000000000000000000000000000000000000000000000000000000000000000000000000000000000000000000000000000000000000000000000
310
0000F50000000000000000000000000000000000000000000000000000000000000000000000000000000000000000000000000000000000000000000000000000000000000000000000000000000000000000000000000000000000F500000000000000000000000000000000000000000000000000000000000000000000
310
00000000000000000000000000000000000000000000000000000000000000000000000000000000000000000000000000000000000000000000000000000000000000000000000000000000000000000000000000000000000000000000000000000000000000000000000000000000000000000000000000000000000000
310
00000000F50000000000000000000000000000000000000000000000000000000000000000000000000000000000000000000000000000000000000000000000000000000000000000000000000000000000000000000000000000000000F50000000000000000000000000000000000000000000000000000000000000000
310
00000000000000000000000000000000000000000000000000000000000000000000000000000000000000000000000000000000000000000000000000000000000000000000000000000000000000000000000000000000000000000000000000000000000000000000000000000000000000000000000000000000000000
310
000000000000F50000000000000000000000000000000000000000000000000000000000000000000000000000000000000000000000000000000000000000000000000000000000000000000000000000000000000000000000000000000000F5000000000000000000000000000000000000000000000000000000000000
310
00000000000000000000000000000000000000000000000000000000000000000000000000000000000000000000000000000000000000000000000000000000000000000000000000000000000000000000000000000000000000000000000000000000000000000000000000000000000000000000000000000000000000
310
0000000000000000F50000000000000000000000000000000000000000000000000000000000000000000000000000000000000000000000000000000000000000000000000000000000000000000000000000000000000000000000000000000000F500000000000000000000000000000000000000000000000000000000
310
00000000000000000000000000000000000000000000000000000000000000000000000000000000000000000000000000000000000000000000000000000000000000000000000000000000000000000000000000000000000000000000000000000000000000000000000000000000000000000000000000000000000000
310
00000000000000000000F50000000000000000000000000000000000000000000000000000000000000000000000000000000000000000000000000000000000000000000000000000000000000000000000000000000000000000000000000000000000F50000000000000000000000000000000000000000000000000000
310
00000000000000000000000000000000000000000000000000000000000000000000000000000000000000000000000000000000000000000000000000000000000000000000000000000000000000000000000000000000000000000000000000000000000000000000000000000000000000000000000000000000000000
310
000000000000000000000000F50000000000000000000000000000000000000000000000000000000000000000000000000000000000000000000000000000000000000000000000000000000000000000000000000000000000000000000000000000000000F5000000000000000000000000000000000000000000000000
310
00000000000000000000000000000000000000000000000000000000000000000000000000000000000000000000000000000000000000000000000000000000000000000000000000000000000000000000000000000000000000000000000000000000000000000000000000000000000000000000000000000000000000
310
0000000000000000000000000000F50000000000000000000000000000000000000000000000000000000000000000000000000000000000000000000000000000000000000000000000000000000000000000000000000000000000000000000000000000000000F500000000000000000000000000000000000000000000
310
00000000000000000000000000000000000000000000000000000000000000000000000000000000000000000000000000000000000000000000000000000000000000000000000000000000000000000000000000000000000000000000000000000000000000000000000000000000000000000000000000000000000000
310
00000000000000000000000000000000F50000000000000000000000000000000000000000000000000000000000000000000000000000000000000000000000000000000000000000000000000000000000000000000000000000000000000000000000000000000000F50000000000000000000000000000000000000000
310
00000000000000000000000000000000000000000000000000000000000000000000000000000000000000000000000000000000000000000000000000000000000000000000000000000000000000000000000000000000000000000000000000000000000000000000000000000000000000000000000000000000000000
310
000000000000000000000000000000000000F50000000000000000000000000000000000000000000000000000000000000000000000000000000000000000000000000000000000000000000000000000000000000000000000000000000000000000000000000000000000F5000000000000000000000000000000000000
310
00000000000000000000000000000000000000000000000000000000000000000000000000000000000000000000000000000000000000000000000000000000000000000000000000000000000000000000000000000000000000000000000000000000000000000000000000000000000000000000000000000000000000
310
0000000000000000000000000000000000000000F50000000000000000000000000000000000000000000000000000000000000000000000000000000000000000000000000000000000000000000000000000000000000000000000000000000000000000000000000000000000F500000000000000000000000000000000
310
00000000000000000000000000000000000000000000000000000000000000000000000000000000000000000000000000000000000000000000000000000000000000000000000000000000000000000000000000000000000000000000000000000000000000000000000000000000000000000000000000000000000000
310
00000000000000000000000000000000000000000000F50000000000000000000000000000000000000000000000000000000000000000000000000000000000000000000000000000000000000000000000000000000000000000000000000000000000000000000000000000000000F50000000000000000000000000000
310
00000000000000000000000000000000000000000000000000000000000000000000000000000000000000000000000000000000000000000000000000000000000000000000000000000000000000000000000000000000000000000000000000000000000000000000000000000000000000000000000000000000000000
310
000000000000000000000000000000000000000000000000F50000000000000000000000000000000000000000000000000000000000000000000000000000000000000000000000000000000000000000000000000000000000000000000000000000000000000000000000000000000000F5000000000000000000000000
310
00000000000000000000000000000000000000000000000000000000000000000000000000000000000000000000000000000000000000000000000000000000000000000000000000000000000000000000000000000000000000000000000000000000000000000000000000000000000000000000000000000000000000
310
0000000000000000000000000000000000000000000000000000F50000000000000000000000000000000000000000000000000000000000000000000000000000000000000000000000000000000000000000000000000000000000000000000000000000000000000000000000000000000000F500000000000000000000
310
00000000000000000000000000000000000000000000000000000000000000000000000000000000000000000000000000000000000000000000000000000000000000000000000000000000000000000000000000000000000000000000000000000000000000000000000000000000000000000000000000000000000000
310
00000000000000000000000000000000000000000000000000000000F50000000000000000000000000000000000000000000000000000000000000000000000000000000000000000000000000000000000000000000000000000000000000000000000000000000000000000000000000000000000F50000000000000000
310
00000000000000000000000000000000000000000000000000000000000000000000000000000000000000000000000000000000000000000000000000000000000000000000000000000000000000000000000000000000000000000000000000000000000000000000000000000000000000000000000000000000000000
310
000000000000000000000000000000000000000000000000000000000000F50000000000000000000000000000000000000000000000000000000000000000000000000000000000000000000000000000000000000000000000000000000000000000000000000000000000000000000000000000000000F5000000000000
310
00000000000000000000000000000000000000000000000000000000000000000000000000000000000000000000000000000000000000000000000000000000000000000000000000000000000000000000000000000000000000000000000000000000000000000000000000000000000000000000000000000000000000
310
0000000000000000000000000000000000000000000000000000000000000000F50000000000000000000000000000000000000000000000000000000000000000000000000000000000000000000000000000000000000000000000000000000000000000000000000000000000000000000000000000000000F500000000
310
00000000000000000000000000000000000000000000000000000000000000000000000000000000000000000000000000000000000000000000000000000000000000000000000000000000000000000000000000000000000000000000000000000000000000000000000000000000000000000000000000000000000000
310
00000000000000000000000000000000000000000000000000000000000000000000F50000000000000000000000000000000000000000000000000000000000000000000000000000000000000000000000000000000000000000000000000000000000000000000000000000000000000000000000000000000000F50000
310
00000000000000000000000000000000000000000000000000000000000000000000000000000000000000000000000000000000000000000000000000000000000000000000000000000000000000000000000000000000000000000000000000000000000000000000000000000000000000000000000000000000000000
310
000000000000000000000000000000000000000000000000000000000000000000000000F50000000000000000000000000000000000000000000000000000000000000000000000000000000000000000000000000000000000000000000000000000000000000000000000000000000000000000000000000000000000F5
310
00000000000000000000000000000000000000000000000000000000000000000000000000000000000000000000000000000000000000000000000000000000000000000000000000000000000000000000000000000000000000000000000000000000000000000000000000000000000000000000000000000000000000
310
0000000000000000000000000000000000000000000000000000000000000000000000000000F500000000000000000000000000000000000000000000000000000000000000000000000000000000000000000000000000000000000000000000000000000000000000000000000000000000000000000000000000000000
310
00F50000000000000000000000000000000000000000000000000000000000000000000000000000000000000000000000000000000000000000000000000000000000000000000000000000000000000000000000000000000000000000000000000000000000000000000000000000000000000000000000000000000000
310
00000000000000000000000000000000000000000000000000000000000000000000000000000000F50000000000000000000000000000000000000000000000000000000000000000000000000000000000000000000000000000000000000000000000000000000000000000000000000000000000000000000000000000
310
000000F5000000000000000000000000000000000000000000000000000000000000000000000000000000000000000000000000000000000000000000000000000000000000000000000000000000000000000000000000000000000000000000000000000000000000000000000000000000000000000000000000000000
310
000000000000000000000000000000000000000000000000000000000000000000000000000000000000F5000000000000000000000000000000000000000000000000000000000000000000000000000000000000000000000000000000000000000000000000000000000000000000000000000000000000000000000000
310
0000000000F500000000000000000000000000000000000000000000000000000000000000000000000000000000000000000000000000000000000000000000000000000000000000000000000000000000000000000000000000000000000000000000000000000000000000000000000000000000000000000000000000
310
0000000000000000000000000000000000000000000000000000000000000000000000000000000000000000F500000000000000000000000000000000000000000000000000000000000000000000000000000000000000000000000000000000000000000000000000000000000000000000000000000000000000000000
310
00000000000000F50000000000000000000000000000000000000000000000000000000000000000000000000000000000000000000000000000000000000000000000000000000000000000000000000000000000000000000000000000000000000000000000000000000000000000000000000000000000000000000000
310
00000000000000000000000000000000000000000000000000000000000000000000000000000000000000000000F50000000000000000000000000000000000000000000000000000000000000000000000000000000000000000000000000000000000000000000000000000000000000000000000000000000000000000
310
000000000000000000F5000000000000000000000000000000000000000000000000000000000000000000000000000000000000000000000000000000000000000000000000000000000000000000000000000000000000000000000000000000000000000000000000000000000000000000000000000000000000000000
310
000000000000000000000000000000000000000000000000000000000000000000000000000000000000000000000000F5000000000000000000000000000000000000000000000000000000000000000000000000000000000000000000000000000000000000000000000000000000000000000000000000000000000000
310
0000000000000000000000F500000000000000000000000000000000000000000000000000000000000000000000000000000000000000000000000000000000000000000000000000000000000000000000000000000000000000000000000000000000000000000000000000000000000000000000000000000000000000
310
0000000000000000000000000000000000000000000000000000000000000000000000000000000000000000000000000000F500000000000000000000000000000000000000000000000000000000000000000000000000000000000000000000000000000000000000000000000000000000000000000000000000000000
310
00000000000000000000000000F50000000000000000000000000000000000000000000000000000000000000000000000000000000000000000000000000000000000000000000000000000000000000000000000000000000000000000000000000000000000000000000000000000000000000000000000000000000000
310
00000000000000000000000000000000000000000000000000000000000000000000000000000000000000000000000000000000F50000000000000000000000000000000000000000000000000000000000000000000000000000000000000000000000000000000000000000000000000000000000000000000000000000
310
000000000000000000000000000000F5000000000000000000000000000000000000000000000000000000000000000000000000000000000000000000000000000000000000000000000000000000000000000000000000000000000000000000000000000000000000000000000000000000000000000000000000000000
310
000000000000000000000000000000000000000000000000000000000000000000000000000000000000000000000000000000000000F5000000000000000000000000000000000000000000000000000000000000000000000000000000000000000000000000000000000000000000000000000000000000000000000000
310
0000000000000000000000000000000000F500000000000000000000000000000000000000000000000000000000000000000000000000000000000000000000000000000000000000000000000000000000000000000000000000000000000000000000000000000000000000000000000000000000000000000000000000
310
00000000000000000000000000000000000000000000000000000000000000000000000000000000000000000000000000000000F5F5F5F5F500000000000000000000000000000000000000000000000000000000000000000000000000000000000000000000000000000000000000000000000000000000000000000000
310
00000000000000000000000000000000000000F50000000000000000000000000000000000000000000000000000000000000000000000000000000000000000000000000000000000000000000000000000000000000000000000000000000000000000000000000000000000000000000000000000000000000000000000
310
00000000000000000000000000000000000000000000000000000000000000000000000000000000000000000000000000000000000000000000F50000000000000000000000000000000000000000000000000000000000000000000000000000000000000000000000000000000000000000000000000000000000000000
310
000000000000000000000000000000000000000000F5000000000000000000000000000000000000000000000000000000000000000000000000000000000000000000000000000000000000000000000000000000000000000000000000000000000000000000000000000000000000000000000000000000000000000000
310
000000000000000000000000000000000000000000000000000000000000000000000000000000000000000000000000000000000000000000000000F5000000000000000000000000000000000000000000000000000000000000000000000000000000000000000000000000000000000000000000000000000000000000
310
0000000000000000000000000000000000000000000000F500000000000000000000000000000000000000000000000000000000000000000000000000000000000000000000000000000000000000000000000000000000000000000000000000000000000000000000000000000000000000000000000000000000000000
310
0000000000000000000000000000000000000000000000000000000000000000000000000000000000000000000000000000000000000000000000000000F500000000000000000000000000000000000000000000000000000000000000000000000000000000000000000000000000000000000000000000000000000000
310
00000000000000000000000000000000000000000000000000F50000000000000000000000000000000000000000000000000000000000000000000000000000000000000000000000000000000000000000000000000000000000000000000000000000000000000000000000000000000000000000000000000000000000
310
00000000000000000000000000000000000000000000000000000000000000000000000000000000000000000000000000000000000000000000000000000000F50000000000000000000000000000000000000000000000000000000000000000000000000000000000000000000000000000000000000000000000000000
310
000000000000000000000000000000000000000000000000000000F5000000000000000000000000000000000000000000000000000000000000000000000000000000000000000000000000000000000000000000000000000000000000000000000000000000000000000000000000000000000000000000000000000000
310
000000000000000000000000000000000000000000000000000000000000000000000000000000000000000000000000000000000000000000000000000000000000F5000000000000000000000000000000000000000000000000000000000000000000000000000000000000000000000000000000000000000000000000
310
0000000000000000000000000000000000000000000000000000000000F500000000000000000000000000000000000000000000000000000000000000000000000000000000000000000000000000000000000000000000000000000000000000000000000000000000000000000000000000000000000000000000000000
310
0000000000000000000000000000000000000000000000000000000000000000000000000000000000000000000000000000000000000000000000000000000000000000F500000000000000000000000000000000000000000000000000000000000000000000000000000000000000000000000000000000000000000000
310
00000000000000000000000000000000000000000000000000000000000000F50000000000000000000000000000000000000000000000000000000000000000000000000000000000000000000000000000000000000000000000000000000000000000000000000000000000000000000000000000000000000000000000
310
00000000000000000000000000000000000000000000000000000000000000000000000000000000000000000000000000000000000000000000000000000000000000000000F50000000000000000000000000000000000000000000000000000000000000000000000000000000000000000000000000000000000000000
310
000000000000000000000000000000000000000000000000000000000000000000F5000000000000000000000000000000000000000000000000000000000000000000000000000000000000000000000000000000000000000000000000000000000000000000000000000000000000000000000000000000000000000000
310
000000000000000000000000000000000000000000000000000000000000000000000000000000000000000000000000000000000000000000000000000000000000000000000000F5000000000000000000000000000000000000000000000000000000000000000000000000000000000000000000000000000000000000
310
0000000000000000000000000000000000000000000000000000000000000000000000F500000000000000000000000000000000000000000000000000000000000000000000000000000000000000000000000000000000000000000000000000000000000000000000000000000000000000000000000000000000000000
310
0000000000000000000000000000000000000000000000000000000000000000000000000000000000000000000000000000000000000000000000000000000000000000000000000000F500000000000000000000000000000000000000000000000000000000000000000000000000000000000000000000000000000000
310
00000000000000000000000000000000000000000000000000000000000000000000000000F50000000000000000000000000000000000000000000000000000000000000000000000000000000000000000000000000000000000000000000000000000000000000000000000000000000000000000000000000000000000
310
00000000000000000000000000000000000000000000000000000000000000000000000000000000000000000000000000000000000000000000000000000000000000000000000000000000F50000000000000000000000000000000000000000000000000000000000000000000000000000000000000000000000000000
310
000000000000000000000000000000000000000000000000000000000000000000000000000000F5000000000000000000000000000000000000000000000000000000000000000000000000000000000000000000000000000000000000000000000000000000000000000000000000000000000000000000000000000000
310
000000000000000000000000000000000000000000000000000000000000000000000000000000000000000000000000000000000000000000000000000000000000000000000000000000000000F5000000000000000000000000000000000000000000000000000000000000000000000000000000000000000000000000
310
0000000000000000000000000000000000000000000000000000000000000000000000000000000000F500000000000000000000000000000000000000000000000000000000000000000000000000000000000000000000000000000000000000000000000000000000000000000000000000000000000000000000000000
310
0000000000000000000000000000000000000000000000000000000000000000000000000000000000000000000000000000000000000000000000000000000000000000000000000000000000000000F500000000000000000000000000000000000000000000000000000000000000000000000000000000000000000000
310
00000000000000000000000000000000000000000000000000000000000000000000000000000000000000F50000000000000000000000000000000000000000000000000000000000000000000000000000000000000000000000000000000000000000000000000000000000000000000000000000000000000000000000
310
00000000000000000000000000000000000000000000000000000000000000000000000000000000000000000000000000000000000000000000000000000000000000000000000000000000000000000000F50000000000000000000000000000000000000000000000000000000000000000000000000000000000000000
310
000000000000000000000000000000000000000000000000000000000000000000000000000000000000000000F5000000000000000000000000000000000000000000000000000000000000000000000000000000000000000000000000000000000000000000000000000000000000000000000000000000000000000000
310
000000000000000000000000000000000000000000000000000000000000000000000000000000000000000000000000000000000000000000000000000000000000000000000000000000000000000000000000F5000000000000000000000000000000000000000000000000000000000000000000000000000000000000
310
0000000000000000000000000000000000000000000000000000000000000000000000000000000000000000000000F500000000000000000000000000000000000000000000000000000000000000000000000000000000000000000000000000000000000000000000000000000000000000000000000000000000000000
310
0000000000000000000000000000000000000000000000000000000000000000000000000000000000000000000000000000000000000000000000000000000000000000000000000000000000000000000000000000F500000000000000000000000000000000000000000000000000000000000000000000000000000000
310
00000000000000000000000000000000000000000000000000000000000000000000000000000000000000000000000000F50000000000000000000000000000000000000000000000000000000000000000000000000000000000000000000000000000000000000000000000000000000000000000000000000000000000
310
00000000000000000000000000000000000000000000000000000000000000000000000000000000000000000000000000000000000000000000000000000000000000000000000000000000000000000000000000000000F50000000000000000000000000000000000000000000000000000000000000000000000000000
310
000000000000000000000000000000000000000000000000000000000000000000000000000000000000000000000000000000F5000000000000000000000000000000000000000000000000000000000000000000000000000000000000000000000000000000000000000000000000000000000000000000000000000000
310
000000000000000000000000000000000000000000000000000000000000000000000000000000000000000000000000000000000000000000000000000000000000000000000000000000000000000000000000000000000000F5000000000000000000000000000000000000000000000000000000000000000000000000
310
0000000000000000000000000000000000000000000000000000000000000000000000000000000000000000000000000000000000F500000000000000000000000000000000000000000000000000000000000000000000000000000000000000000000000000000000000000000000000000000000000000000000000000
310
0000000000000000000000000000000000000000000000000000000000000000000000000000000000000000000000000000000000000000000000000000000000000000000000000000000000000000000000000000000000000000F500000000000000000000000000000000000000000000000000000000000000000000
310
00000000000000000000000000000000000000000000000000000000000000000000000000000000000000000000000000000000000000F50000000000000000000000000000000000000000000000000000000000000000000000000000000000000000000000000000000000000000000000000000000000000000000000
310
00000000000000000000000000000000000000000000000000000000000000000000000000000000000000000000000000000000000000000000000000000000000000000000000000000000000000000000000000000000000000000000F50000000000000000000000000000000000000000000000000000000000000000
310
000000000000000000000000000000000000000000000000000000000000000000000000000000000000000000000000000000000000000000F5000000000000000000000000000000000000000000000000000000000000000000000000000000000000000000000000000000000000000000000000000000000000000000
310
000000000000000000000000000000000000000000000000000000000000000000000000000000000000000000000000000000000000000000000000000000000000000000000000000000000000000000000000000000000000000000000000F5000000000000000000000000000000000000000000000000000000000000
310
0000000000000000000000000000000000000000000000000000000000000000000000000000000000000000000000000000000000000000000000F500000000000000000000000000000000000000000000000000000000000000000000000000000000000000000000000000000000000000000000000000000000000000
310
0000000000000000000000000000000000000000000000000000000000000000000000000000000000000000000000000000000000000000000000000000000000000000000000000000000000000000000000000000000000000000000000000000F500000000000000000000000000000000000000000000000000000000
310
00000000000000000000000000000000000000000000000000000000000000000000000000000000000000000000000000000000000000000000000000F50000000000000000000000000000000000000000000000000000000000000000000000000000000000000000000000000000000000000000000000000000000000
310
00000000000000000000000000000000000000000000000000000000000000000000000000000000000000000000000000000000000000000000000000000000000000000000000000000000000000000000000000000000000000000000000000000000F50000000000000000000000000000000000000000000000000000
310
000000000000000000000000000000000000000000000000000000000000000000000000000000000000000000000000000000000000000000000000000000F5000000000000000000000000000000000000000000000000000000000000000000000000000000000000000000000000000000000000000000000000000000
310
000000000000000000000000000000000000000000000000000000000000000000000000000000000000000000000000000000000000000000000000000000000000000000000000000000000000000000000000000000000000000000000000000000000000F5000000000000000000000000000000000000000000000000
310
0000000000000000000000000000000000000000000000000000000000000000000000000000000000000000000000000000000000000000000000000000000000F500000000000000000000000000000000000000000000000000000000000000000000000000000000000000000000000000000000000000000000000000
310
0000000000000000000000000000000000000000000000000000000000000000000000000000000000000000000000000000000000000000000000000000000000000000000000000000000000000000000000000000000000000000000000000000000000000000F500000000000000000000000000000000000000000000
310
00000000000000000000000000000000000000000000000000000000000000000000000000000000000000000000000000000000000000000000000000000000000000F50000000000000000000000000000000000000000000000000000000000000000000000000000000000000000000000000000000000000000000000
310
00000000000000000000000000000000000000000000000000000000000000000000000000000000000000000000000000000000000000000000000000000000000000000000000000000000000000000000000000000000000000000000000000000000000000000000F50000000000000000000000000000000000000000
310
000000000000000000000000000000000000000000000000000000000000000000000000000000000000000000000000000000000000000000000000000000000000000000F5000000000000000000000000000000000000000000000000000000000000000000000000000000000000000000000000000000000000000000
310
000000000000000000000000000000000000000000000000000000000000000000000000000000000000000000000000000000000000000000000000000000000000000000000000000000000000000000000000000000000000000000000000000000000000000000000000F5000000000000000000000000000000000000
310
0000000000000000000000000000000000000000000000000000000000000000000000000000000000000000000000000000000000000000000000000000000000000000000000F500000000000000000000000000000000000000000000000000000000000000000000000000000000000000000000000000000000000000
310
0000000000000000000000000000000000000000000000000000000000000000000000000000000000000000000000000000000000000000000000000000000000000000000000000000000000000000000000000000000000000000000000000000000000000000000000000000F500000000000000000000000000000000
310
00000000000000000000000000000000000000000000000000000000000000000000000000000000000000000000000000000000000000000000000000000000000000000000000000F50000000000000000000000000000000000000000000000000000000000000000000000000000000000000000000000000000000000
310
00000000000000000000000000000000000000000000000000000000000000000000000000000000000000000000000000000000000000000000000000000000000000000000000000000000000000000000000000000000000000000000000000000000000000000000000000000000F50000000000000000000000000000
310
000000000000000000000000000000000000000000000000000000000000000000000000000000000000000000000000000000000000000000000000000000000000000000000000000000F5000000000000000000000000000000000000000000000000000000000000000000000000000000000000000000000000000000
310
000000000000000000000000000000000000000000000000000000000000000000000000000000000000000000000000000000000000000000000000000000000000000000000000000000000000000000000000000000000000000000000000000000000000000000000000000000000000F5000000000000000000000000
310
0000000000000000000000000000000000000000000000000000000000000000000000000000000000000000000000000000000000000000000000000000000000000000000000000000000000F500000000000000000000000000000000000000000000000000000000000000000000000000000000000000000000000000
310
0000000000000000000000000000000000000000000000000000000000000000000000000000000000000000000000000000000000000000000000000000000000000000000000000000000000000000000000000000000000000000000000000000000000000000000000000000000000000000F500000000000000000000
310
00000000000000000000000000000000000000000000000000000000000000000000000000000000000000000000000000000000000000000000000000000000000000000000000000000000000000F50000000000000000000000000000000000000000000000000000000000000000000000000000000000000000000000
310
00000000000000000000000000000000000000000000000000000000000000000000000000000000000000000000000000000000000000000000000000000000000000000000000000000000000000000000000000000000000000000000000000000000000000000000000000000000000000000000F50000000000000000
310
000000000000000000000000000000000000000000000000000000000000000000000000000000000000000000000000000000000000000000000000000000000000000000000000000000000000000000F5000000000000000000000000000000000000000000000000000000000000000000000000000000000000000000
310
000000000000000000000000000000000000000000000000000000000000000000000000000000000000000000000000000000000000000000000000000000000000000000000000000000000000000000000000000000000000000000000000000000000000000000000000000000000000000000000000F5F5F5F5F5F5F5
310
F5F5F5F5F5F5F5F5F5F5F5F5F5F5F5F5F5F5F5F5F5F5F5F5F5F5F5F5F5F5F5F5F5F5F5F5F5F5F5F5F5F5F5F5F5F5F5F5F5F5F5F5F5F5F5F5F5F5F5F5F5F5F5F5F5F5F5F5F5F5F5F5F5F5F5F5F5F5F5F5F5F5F5F500000000000000000000000000000000000000000000000000000000000000000000000000000000000000
310
00000000000000000000000000000000000000000000000000000000000000000000000000000000000000000000000000000000000000000000000000000000000000000000000000000000000000000000000000000000000000000000000000000000000000000000000000000000000000000000000000000000000000
310
00000000000000000000000000000000000000000000000000000000000000000000000000000000000000000000000000000000000000000000000000000000000000000000000000000000000000000000000000000000000000000000000000000000000000000000000000000000000000000000000000000000000000
310
00000000000000000000000000000000000000000000000000000000000000000000000000000000000000000000000000000000000000000000000000000000000000000000000000000000000000000000000000000000000000000000000000000000000000000000000000000000000000000000000000000000000000
310
00000000000000000000000000000000000000000000000000000000000000000000000000000000000000000000000000000000000000000000000000000000000000000000000000000000000000000000000000000000000000000000000000000000000000000000000000000000000000000000000000000000000000
310
00000000000000000000000000000000000000000000000000000000000000000000000000000000000000000000000000000000000000000000000000000000000000000000000000000000000000000000000000000000000000000000000000000000000000000000000000000000000000000000000000000000000000
310
00000000000000000000000000000000000000000000000000000000000000000000000000000000000000000000000000000000000000000000000000000000000000000000000000000000000000000000000000000000000000000000000000000000000000000000000000000000000000000000000000000000000000
310
00000000000000000000000000000000000000000000000000000000000000000000000000000000000000000000000000000000000000000000000000000000000000000000000000000000000000000000000000000000000000000000000000000000000000000000000000000000000000000000000000000000000000
310
00000000000000000000000000000000000000000000000000000000000000000000000000000000000000000000000000000000000000000000000000000000000000000000000000000000000000000000000000000000000000000000000000000000000000000000000000000000000000000000000000000000000000
310
00000000000000000000000000000000000000000000000000000000000000000000000000000000000000000000000000000000000000000000000000000000000000000000000000000000000000000000000000000000000000000000000000000000000000000000000000000000000000000000000000000000000000
310
00000000000000000000000000000000000000000000000000000000000000000000000000000000000000000000000000000000000000000000000000000000000000000000000000000000000000000000000000000000000000000000000000000000000000000000000000000000000000000000000000000000000000
310
00000000000000000000000000000000000000000000000000000000000000000000000000000000000000000000000000000000000000000000000000000000000000000000000000000000000000000000000000000000000000000000000000000000000000000000000000000000000000000000000000000000000000
310
00000000000000000000000000000000000000000000000000000000000000000000000000000000000000000000000000000000000000000000000000000000000000000000000000000000000000000000000000000000000000000000000000000000000000000000000000000000000000000000000000000000000000
310
00000000000000000000000000000000000000000000000000000000000000000000000000000000000000000000000000000000000000000000000000000000000000000000000000000000000000000000000000000000000000000000000000000000000000000000000000000000000000000000000000000000000000
310
00000000000000000000000000000000000000000000000000000000000000000000000000000000000000000000000000000000000000000000000000000000000000000000000000000000000000000000000000000000000000000000000000000000000000000000000000000000000000000000000000000000000000
310
00000000000000000000000000000000000000000000000000000000000000000000000000000000000000000000000000000000000000000000000000000000000000000000000000000000000000000000000000000000000000000000000000000000000000000000000000000000000000000000000000000000000000
310
00000000000000000000000000000000000000000000000000000000000000000000000000000000000000000000000000000000000000000000000000000000000000000000000000000000000000000000000000000000000000000000000000000000000000000000000000000000000000000000000000000000000000
310
00000000000000000000000000000000000000000000000000000000000000000000000000000000000000000000000000000000000000000000000000000000000000000000000000000000000000000000000000000000000000000000000000000000000000000000000000000000000000000000000000000000000000
310
00000000000000000000000000000000000000000000000000000000000000000000000000000000000000000000000000000000000000000000000000000000000000000000000000000000000000000000000000000000000000000000000000000000000000000000000000000000000000000000000000000000000000
310
00000000000000000000000000000000000000000000000000000000000000000000000000000000000000000000000000000000000000000000000000000000000000000000000000000000000000000000000000000000000000000000000000000000000000000000000000000000000000000000000000000000000000
310
00000000000000000000000000000000000000000000000000000000000000000000000000000000000000000000000000000000000000000000000000000000000000000000000000000000000000000000000000000000000000000000000000000000000000000000000000000000000000000000000000000000000000
310
00000000000000000000000000000000000000000000000000000000000000000000000000000000000000000000000000000000000000000000000000000000000000000000000000000000000000000000000000000000000000000000000000000000000000000000000000000000000000000000000000000000000000
310
00000000000000000000000000000000000000000000000000000000000000000000000000000000000000000000000000000000000000000000000000000000000000000000000000000000000000000000000000000000000000000000000000000000000000000000000000000000000000000000000000000000000000
310
00000000000000000000000000000000000000000000000000000000000000000000000000000000000000000000000000000000000000000000000000000000000000000000000000000000000000000000000000000000000000000000000000000000000000000000000000000000000000000000000000000000000000
310
00000000000000000000000000000000000000000000000000000000000000000000000000000000000000000000000000000000000000000000000000000000000000000000000000000000000000000000000000000000000000000000000000000000000000000000000000000000000000000000000000000000000000
310
00000000000000000000000000000000000000000000000000000000000000000000000000000000000000000000000000000000000000000000000000000000000000000000000000000000000000000000000000000000000000000000000000000000000000000000000000000000000000000000000000000000000000
310
00000000000000000000000000000000000000000000000000000000000000000000000000000000000000000000000000000000000000000000000000000000000000000000000000000000000000000000000000000000000000000000000000000000000000000000000000000000000000000000000000000000000000
310
00000000000000000000000000000000000000000000000000000000000000000000000000000000000000000000000000000000000000000000000000000000000000000000000000000000000000000000000000000000000000000000000000000000000000000000000000000000000000000000000000000000000000
310
00000000000000000000000000000000000000000000000000000000000000000000000000000000000000000000000000000000000000000000000000000000000000000000000000000000000000000000000000000000000000000000000000000000000000000000000000000000000000000000000000000000000000
310
00000000000000000000000000000000000000000000000000000000000000000000000000000000000000000000000000000000000000000000000000000000000000000000000000000000000000000000000000000000000000000000000000000000000000000000000000000000000000000000000000000000000000
310
00000000000000000000000000000000000000000000000000000000000000000000000000000000000000000000000000000000000000000000000000000000000000000000000000000000000000000000000000000000000000000000000000000000000000000000000000000000000000000000000000000000000000
310
00000000000000000000000000000000000000000000000000000000000000000000000000000000000000000000000000000000000000000000000000000000000000000000000000000000000000000000000000000000000000000000000000000000000000000000000000000000000000000000000000000000000000
310
00000000000000000000000000000000000000000000000000000000000000000000000000000000000000000000000000000000000000000000000000000000000000000000000000000000000000000000000000000000000000000000000000000000000000000000000000000000000000000000000000000000000000
310
00000000000000000000000000000000000000000000000000000000000000000000000000000000000000000000000000000000000000000000000000000000000000000000000000000000000000000000000000000000000000000000000000000000000000000000000000000000000000000000000000000000000000
310
00000000000000000000000000000000000000000000000000000000000000000000000000000000000000000000000000000000000000000000000000000000000000000000000000000000000000000000000000000000000000000000000000000000000000000000000000000000000000000000000000000000000000
310
00000000000000000000000000000000000000000000000000000000000000000000000000000000000000000000000000000000000000000000000000000000000000000000000000000000000000000000000000000000000000000000000000000000000000000000000000000000000000000000000000000000000000
310
00000000000000000000000000000000000000000000000000000000000000000000000000000000000000000000000000000000000000000000000000000000000000000000000000000000000000000000000000000000000000000000000000000000000000000000000000000000000000000000000000000000000000
310
00000000000000000000000000000000000000000000000000000000000000000000000000000000000000000000000000000000000000000000000000000000000000000000000000000000000000000000000000000000000000000000000000000000000000000000000000000000000000000000000000000000000000
310
00000000000000000000000000000000000000000000000000000000000000000000000000000000000000000000000000000000000000000000000000000000000000000000000000000000000000000000000000000000000000000000000000000000000000000000000000000000000000000000000000000000000000
310
00000000000000000000000000000000000000000000000000000000000000000000000000000000000000000000000000000000000000000000000000000000000000000000000000000000000000000000000000000000000000000000000000000000000000000000000000000000000000000000000000000000000000
310
00000000000000000000000000000000000000000000000000000000000000000000000000000000000000000000000000000000000000000000000000000000000000000000000000000000000000000000000000000000000000000000000000000000000000000000000000000000000000000000000000000000000000
310
00000000000000000000000000000000000000000000000000000000000000000000000000000000000000000000000000000000000000000000000000000000000000000000000000000000000000000000000000000000000000000000000000000000000000000000000000000000000000000000000000000000000000
310
00000000000000000000000000000000000000000000000000000000000000000000000000000000000000000000000000000000000000000000000000000000000000000000000000000000000000000000000000000000000000000000000000000000000000000000000000000000000000000000000000000000000000
310
00000000000000000000000000000000000000000000000000000000000000000000000000000000000000000000000000000000000000000000000000000000000000000000000000000000000000000000000000000000000000000000000000000000000000000000000000000000000000000000000000000000000000
310
00000000000000000000000000000000000000000000000000000000000000000000000000000000000000000000000000000000000000000000000000000000000000000000000000000000000000000000000000000000000000000000000000000000000000000000000000000000000000000000000000000000000000
310
00000000000000000000000000000000000000000000000000000000000000000000000000000000000000000000000000000000000000000000000000000000000000000000000000000000000000000000000000000000000000000000000000000000000000000000000000000000000000000000000000000000000000
310
00000000000000000000000000000000000000000000000000000000000000000000000000000000000000000000000000000000000000000000000000000000000000000000000000000000000000000000000000000000000000000000000000000000000000000000000000000000000000000000000000000000000000
310
00000000000000000000000000000000000000000000000000000000000000000000000000000000000000000000000000000000000000000000000000000000000000000000000000000000000000000000000000000000000000000000000000000000000000000000000000000000000000000000000000000000000000
310
00000000000000000000000000000000000000000000000000000000000000000000000000000000000000000000000000000000000000000000000000000000000000000000000000000000000000000000000000000000000000000000000000000000000000000000000000000000000000000000000000000000000000
310
00000000000000000000000000000000000000000000000000000000000000000000000000000000000000000000000000000000000000000000000000000000000000000000000000000000000000000000000000000000000000000000000000000000000000000000000000000000000000000000000000000000000000
310
00000000000000000000000000000000000000000000000000000000000000000000000000000000000000000000000000000000000000000000000000000000000000000000000000000000000000000000000000000000000000000000000000000000000000000000000000000000000000000000000000000000000000
310
00000000000000000000000000000000000000000000000000000000000000000000000000000000000000000000000000000000000000000000000000000000000000000000000000000000000000000000000000000000000000000000000000000000000000000000000000000000000000000000000000000000000000
310
00000000000000000000000000000000000000000000000000000000000000000000000000000000000000000000000000000000000000000000000000000000000000000000000000000000000000000000000000000000000000000000000000000000000000000000000000000000000000000000000000000000000000
310
00000000000000000000000000000000000000000000000000000000000000000000000000000000000000000000000000000000000000000000000000000000000000000000000000000000000000000000000000000000000000000000000000000000000000000000000000000000000000000000000000000000000000
310
00000000000000000000000000000000000000000000000000000000000000000000000000000000000000000000000000000000000000000000000000000000000000000000000000000000000000000000000000000000000000000000000000000000000000000000000000000000000000000000000000000000000000
310
00000000000000000000000000000000000000000000000000000000000000000000000000000000000000000000000000000000000000000000000000000000000000000000000000000000000000000000000000000000000000000000000000000000000000000000000000000000000000000000000000000000000000
310
00000000000000000000000000000000000000000000000000000000000000000000000000000000000000000000000000000000000000000000000000000000000000000000000000000000000000000000000000000000000000000000000000000000000000000000000000000000000000000000000000000000000000
310
00000000000000000000000000000000000000000000000000000000000000000000000000000000000000000000000000000000000000000000000000000000000000000000000000000000000000000000000000000000000000000000000000000000000000000000000000000000000000000000000000000000000000
310
00000000000000000000000000000000000000000000000000000000000000000000000000000000000000000000000000000000000000000000000000000000000000000000000000000000000000000000000000000000000000000000000000000000000000000000000000000000000000000000000000000000000000
310
00000000000000000000000000000000000000000000000000000000000000000000000000000000000000000000000000000000000000000000000000000000000000000000000000000000000000000000000000000000000000000000000000000000000000000000000000000000000000000000000000000000000000
310
00000000000000000000000000000000000000000000000000000000000000000000000000000000000000000000000000000000000000000000000000000000000000000000000000000000000000000000000000000000000000000000000000000000000000000000000000000000000000000000000000000000000000
310
00000000000000000000000000000000000000000000000000000000000000000000000000000000000000000000000000000000000000000000000000000000000000000000000000000000000000000000000000000000000000000000000000000000000000000000000000000000000000000000000000000000000000
310
00000000000000000000000000000000000000000000000000000000000000000000000000000000000000000000000000000000000000000000000000000000000000000000000000000000000000000000000000000000000000000000000000000000000000000000000000000000000000000000000000000000000000
310
00000000000000000000000000000000000000000000000000000000000000000000000000000000000000000000000000000000000000000000000000000000000000000000000000000000000000000000000000000000000000000000000000000000000000000000000000000000000000000000000000000000000000
310
00000000000000000000000000000000000000000000
  0
XRECORD
  5
4D6
102
{ACAD_REACTORS
330
4D5
102
}
330
4D5
100
AcDbXrecord
280
     1
102
SHADEPLOT
 70
     0
102
SHADEPLOTRESLEVEL
 70
     2
102
SHADEPLOTCUSTOMDPI
 70
   300
  0
XRECORD
  5
40
102
{ACAD_REACTORS
330
3F
102
}
330
3F
100
AcDbXrecord
280
     1
102
MATERIAL
148
0.0
149
0.0
149
0.0
 93
        0
 94
      127
282
     0
 72
     1
 77
     1
171
     1
175
     1
179
     1
273
     0
  0
XRECORD
  5
13
102
{ACAD_REACTORS
330
12
102
}
330
12
100
AcDbXrecord
280
     1
102
MATERIAL
148
0.0
149
0.0
149
0.0
 93
        0
 94
      127
282
     0
 72
     1
 77
     1
171
     1
175
     1
179
     1
273
     0
  0
XRECORD
  5
F
102
{ACAD_REACTORS
330
E
102
}
330
E
100
AcDbXrecord
280
     1
102
MATERIAL
148
0.0
149
0.0
149
0.0
 93
        0
 94
      127
282
     0
 72
     1
 77
     1
171
     1
175
     1
179
     1
273
     0
  0
CELLSTYLEMAP
  5
4D2
102
{ACAD_REACTORS
330
4D
102
}
330
4D
100
AcDbCellStyleMap
 90
        3
300
CELLSTYLE
  1
TABLEFORMAT_BEGIN
 90
        5
170
     1
 91
        0
 92
    32768
 62
   257
 93
        1
300
CONTENTFORMAT
  1
CONTENTFORMAT_BEGIN
 90
        0
 91
        0
 92
      512
 93
        0
300

 40
0.0
140
1.0
 94
        5
 62
     0
340
24
144
0.25
309
CONTENTFORMAT_END
171
     1
301
MARGIN
  1
CELLMARGIN_BEGIN
 40
0.06
 40
0.06
 40
0.06
 40
0.06
 40
0.18
 40
0.18
309
CELLMARGIN_END
 94
        6
 95
        1
302
GRIDFORMAT
  1
GRIDFORMAT_BEGIN
 90
        0
 91
        1
 62
     0
 92
       -2
340
0
 93
        0
 40
0.045
309
GRIDFORMAT_END
 95
        2
302
GRIDFORMAT
  1
GRIDFORMAT_BEGIN
 90
        0
 91
        1
 62
     0
 92
       -2
340
0
 93
        0
 40
0.045
309
GRIDFORMAT_END
 95
        4
302
GRIDFORMAT
  1
GRIDFORMAT_BEGIN
 90
        0
 91
        1
 62
     0
 92
       -2
340
0
 93
        0
 40
0.045
309
GRIDFORMAT_END
 95
        8
302
GRIDFORMAT
  1
GRIDFORMAT_BEGIN
 90
        0
 91
        1
 62
     0
 92
       -2
340
0
 93
        0
 40
0.045
309
GRIDFORMAT_END
 95
       16
302
GRIDFORMAT
  1
GRIDFORMAT_BEGIN
 90
        0
 91
        1
 62
     0
 92
       -2
340
0
 93
        0
 40
0.045
309
GRIDFORMAT_END
 95
       32
302
GRIDFORMAT
  1
GRIDFORMAT_BEGIN
 90
        0
 91
        1
 62
     0
 92
       -2
340
0
 93
        0
 40
0.045
309
GRIDFORMAT_END
309
TABLEFORMAT_END
  1
CELLSTYLE_BEGIN
 90
        1
 91
        1
300
_TITLE
309
CELLSTYLE_END
300
CELLSTYLE
  1
TABLEFORMAT_BEGIN
 90
        5
170
     1
 91
        0
 92
        0
 62
   257
 93
        1
300
CONTENTFORMAT
  1
CONTENTFORMAT_BEGIN
 90
        0
 91
        0
 92
      512
 93
        0
300

 40
0.0
140
1.0
 94
        5
 62
     0
340
24
144
0.18
309
CONTENTFORMAT_END
171
     1
301
MARGIN
  1
CELLMARGIN_BEGIN
 40
0.06
 40
0.06
 40
0.06
 40
0.06
 40
0.18
 40
0.18
309
CELLMARGIN_END
 94
        6
 95
        1
302
GRIDFORMAT
  1
GRIDFORMAT_BEGIN
 90
        0
 91
        1
 62
     0
 92
       -2
340
0
 93
        0
 40
0.045
309
GRIDFORMAT_END
 95
        2
302
GRIDFORMAT
  1
GRIDFORMAT_BEGIN
 90
        0
 91
        1
 62
     0
 92
       -2
340
0
 93
        0
 40
0.045
309
GRIDFORMAT_END
 95
        4
302
GRIDFORMAT
  1
GRIDFORMAT_BEGIN
 90
        0
 91
        1
 62
     0
 92
       -2
340
0
 93
        0
 40
0.045
309
GRIDFORMAT_END
 95
        8
302
GRIDFORMAT
  1
GRIDFORMAT_BEGIN
 90
        0
 91
        1
 62
     0
 92
       -2
340
0
 93
        0
 40
0.045
309
GRIDFORMAT_END
 95
       16
302
GRIDFORMAT
  1
GRIDFORMAT_BEGIN
 90
        0
 91
        1
 62
     0
 92
       -2
340
0
 93
        0
 40
0.045
309
GRIDFORMAT_END
 95
       32
302
GRIDFORMAT
  1
GRIDFORMAT_BEGIN
 90
        0
 91
        1
 62
     0
 92
       -2
340
0
 93
        0
 40
0.045
309
GRIDFORMAT_END
309
TABLEFORMAT_END
  1
CELLSTYLE_BEGIN
 90
        2
 91
        1
300
_HEADER
309
CELLSTYLE_END
300
CELLSTYLE
  1
TABLEFORMAT_BEGIN
 90
        5
170
     1
 91
        0
 92
        0
 62
   257
 93
        1
300
CONTENTFORMAT
  1
CONTENTFORMAT_BEGIN
 90
        0
 91
        0
 92
      512
 93
        0
300

 40
0.0
140
1.0
 94
        2
 62
     0
340
24
144
0.18
309
CONTENTFORMAT_END
171
     1
301
MARGIN
  1
CELLMARGIN_BEGIN
 40
0.06
 40
0.06
 40
0.06
 40
0.06
 40
0.18
 40
0.18
309
CELLMARGIN_END
 94
        6
 95
        1
302
GRIDFORMAT
  1
GRIDFORMAT_BEGIN
 90
        0
 91
        1
 62
     0
 92
       -2
340
0
 93
        0
 40
0.045
309
GRIDFORMAT_END
 95
        2
302
GRIDFORMAT
  1
GRIDFORMAT_BEGIN
 90
        0
 91
        1
 62
     0
 92
       -2
340
0
 93
        0
 40
0.045
309
GRIDFORMAT_END
 95
        4
302
GRIDFORMAT
  1
GRIDFORMAT_BEGIN
 90
        0
 91
        1
 62
     0
 92
       -2
340
0
 93
        0
 40
0.045
309
GRIDFORMAT_END
 95
        8
302
GRIDFORMAT
  1
GRIDFORMAT_BEGIN
 90
        0
 91
        1
 62
     0
 92
       -2
340
0
 93
        0
 40
0.045
309
GRIDFORMAT_END
 95
       16
302
GRIDFORMAT
  1
GRIDFORMAT_BEGIN
 90
        0
 91
        1
 62
     0
 92
       -2
340
0
 93
        0
 40
0.045
309
GRIDFORMAT_END
 95
       32
302
GRIDFORMAT
  1
GRIDFORMAT_BEGIN
 90
        0
 91
        1
 62
     0
 92
       -2
340
0
 93
        0
 40
0.045
309
GRIDFORMAT_END
309
TABLEFORMAT_END
  1
CELLSTYLE_BEGIN
 90
        3
 91
        2
300
_DATA
309
CELLSTYLE_END
  0
XRECORD
  5
4D9
102
{ACAD_REACTORS
330
4D
102
}
330
4D
100
AcDbXrecord
280
     1
102
ACAD_ROUNDTRIP_PRE2007_TABLESTYLE
 90
      512
 91
        0
  1

 92
      512
 93
        0
  2

 94
      512
 95
        0
  3

  0
XRECORD
  5
4D8
102
{ACAD_REACTORS
330
4D7
102
}
330
4D7
100
AcDbXrecord
280
     1
102
RTVSPropertyOp0
 70
     1
102
RTVSPropertyOp1
 70
     1
102
RTVSPropertyOp2
 70
     1
102
RTVSPropertyOp3
 70
     1
102
RTVSPropertyOp4
 70
     1
102
RTVSPropertyOp5
 70
     1
102
RTVSPropertyOp6
 70
     1
102
RTVSPropertyOp7
 70
     1
102
RTVSPropertyOp8
 70
     1
102
RTVSPropertyOp9
 70
     1
102
RTVSPropertyOp10
 70
     1
102
RTVSPropertyOp11
 70
     1
102
RTVSPropertyOp12
 70
     1
102
RTVSPropertyOp13
 70
     1
102
RTVSPropertyOp14
 70
     1
102
RTVSPropertyOp15
 70
     1
102
RTVSPropertyOp16
 70
     1
102
RTVSPropertyOp17
 70
     1
102
RTVSPropertyOp18
 70
     1
102
RTVSPropertyOp19
 70
     1
102
RTVSPropertyOp20
 70
     1
102
RTVSPropertyOp21
 70
     1
102
RTVSPropertyOp22
 70
     1
102
RTVSPropertyOp23
 70
     1
102
RTVSPropertyOp24
 70
     1
102
RTVSPropertyOp25
 70
     1
102
RTVSPropertyOp26
 70
     1
102
RTVSPropertyOp27
 70
     1
102
RTVSPropertyOp28
 70
     1
102
RTVSPropertyOp29
 70
     1
102
RTVSPropertyOp30
 70
     1
102
RTVSPropertyOp31
 70
     1
102
RTVSPropertyOp32
 70
     1
  0
XRECORD
  5
4DB
102
{ACAD_REACTORS
330
4DA
102
}
330
4DA
100
AcDbXrecord
280
     1
102
RTVSPropertyOp0
 70
     1
102
RTVSPropertyOp1
 70
     1
102
RTVSPropertyOp2
 70
     1
102
RTVSPropertyOp3
 70
     1
102
RTVSPropertyOp4
 70
     1
102
RTVSPropertyOp5
 70
     1
102
RTVSPropertyOp6
 70
     1
102
RTVSPropertyOp7
 70
     1
102
RTVSPropertyOp8
 70
     1
102
RTVSPropertyOp9
 70
     1
102
RTVSPropertyOp10
 70
     1
102
RTVSPropertyOp11
 70
     1
102
RTVSPropertyOp12
 70
     1
102
RTVSPropertyOp13
 70
     1
102
RTVSPropertyOp14
 70
     1
102
RTVSPropertyOp15
 70
     1
102
RTVSPropertyOp16
 70
     1
102
RTVSPropertyOp17
 70
     1
102
RTVSPropertyOp18
 70
     1
102
RTVSPropertyOp19
 70
     1
102
RTVSPropertyOp20
 70
     1
102
RTVSPropertyOp21
 70
     1
102
RTVSPropertyOp22
 70
     1
102
RTVSPropertyOp23
 70
     1
102
RTVSPropertyOp24
 70
     1
102
RTVSPropertyOp25
 70
     1
102
RTVSPropertyOp26
 70
     1
102
RTVSPropertyOp27
 70
     1
102
RTVSPropertyOp28
 70
     1
102
RTVSPropertyOp29
 70
     1
102
RTVSPropertyOp30
 70
     1
102
RTVSPropertyOp31
 70
     1
102
RTVSPropertyOp32
 70
     1
  0
XRECORD
  5
4DD
102
{ACAD_REACTORS
330
4DC
102
}
330
4DC
100
AcDbXrecord
280
     1
102
RTVSPropertyOp0
 70
     1
102
RTVSPropertyOp1
 70
     1
102
RTVSPropertyOp2
 70
     1
102
RTVSPropertyOp3
 70
     1
102
RTVSPropertyOp4
 70
     1
102
RTVSPropertyOp5
 70
     1
102
RTVSPropertyOp6
 70
     1
102
RTVSPropertyOp7
 70
     1
102
RTVSPropertyOp8
 70
     1
102
RTVSPropertyOp9
 70
     1
102
RTVSPropertyOp10
 70
     1
102
RTVSPropertyOp11
 70
     1
102
RTVSPropertyOp12
 70
     1
102
RTVSPropertyOp13
 70
     1
102
RTVSPropertyOp14
 70
     1
102
RTVSPropertyOp15
 70
     1
102
RTVSPropertyOp16
 70
     1
102
RTVSPropertyOp17
 70
     1
102
RTVSPropertyOp18
 70
     1
102
RTVSPropertyOp19
 70
     1
102
RTVSPropertyOp20
 70
     1
102
RTVSPropertyOp21
 70
     1
102
RTVSPropertyOp22
 70
     1
102
RTVSPropertyOp23
 70
     1
102
RTVSPropertyOp24
 70
     1
102
RTVSPropertyOp25
 70
     1
102
RTVSPropertyOp26
 70
     1
102
RTVSPropertyOp27
 70
     1
102
RTVSPropertyOp28
 70
     1
102
RTVSPropertyOp29
 70
     1
102
RTVSPropertyOp30
 70
     1
102
RTVSPropertyOp31
 70
     1
102
RTVSPropertyOp32
 70
     1
  0
ENDSEC
  0
EOF
