  0
SECTION
  2
HEADER
  9
$ACADVER
  1
AC1015
  9
$ACADMAINTVER
 70
    20
  9
$DWGCODEPAGE
  3
ANSI_932
  9
$INSBASE
 10
0.0
 20
0.0
 30
0.0
  9
$EXTMIN
 10
788.1587875846985
 20
37.4642126936476
 30
0.0
  9
$EXTMAX
 10
1127.658787584698
 20
266.9642126936476
 30
0.0
  9
$LIMMIN
 10
0.0
 20
0.0
  9
$LIMMAX
 10
594.0
 20
420.0
  9
$ORTHOMODE
 70
     1
  9
$REGENMODE
 70
     1
  9
$FILLMODE
 70
     1
  9
$QTEXTMODE
 70
     0
  9
$MIRRTEXT
 70
     0
  9
$LTSCALE
 40
5.0
  9
$ATTMODE
 70
     1
  9
$TEXTSIZE
 40
5.0
  9
$TRACEWID
 40
0.05
  9
$TEXTSTYLE
  7
STYLE2
  9
$CLAYER
  8
0
  9
$CELTYPE
  6
BYLAYER
  9
$CECOLOR
 62
   256
  9
$CELTSCALE
 40
1.0
  9
$DISPSILH
 70
     0
  9
$DIMSCALE
 40
2.0
  9
$DIMASZ
 40
2.0
  9
$DIMEXO
 40
1.0
  9
$DIMDLI
 40
6.0
  9
$DIMRND
 40
0.0
  9
$DIMDLE
 40
0.0
  9
$DIMEXE
 40
2.0
  9
$DIMTP
 40
495.0
  9
$DIMTM
 40
0.0
  9
$DIMTXT
 40
3.0
  9
$DIMCEN
 40
0.0
  9
$DIMTSZ
 40
0.0
  9
$DIMTOL
 70
     0
  9
$DIMLIM
 70
     0
  9
$DIMTIH
 70
     0
  9
$DIMTOH
 70
     0
  9
$DIMSE1
 70
     0
  9
$DIMSE2
 70
     0
  9
$DIMTAD
 70
     3
  9
$DIMZIN
 70
     8
  9
$DIMBLK
  1
ARROW
  9
$DIMASO
 70
     1
  9
$DIMSHO
 70
     0
  9
$DIMPOST
  1

  9
$DIMAPOST
  1

  9
$DIMALT
 70
     0
  9
$DIMALTD
 70
     2
  9
$DIMALTF
 40
25.4
  9
$DIMLFAC
 40
1.0
  9
$DIMTOFL
 70
     1
  9
$DIMTVP
 40
0.0
  9
$DIMTIX
 70
     1
  9
$DIMSOXD
 70
     0
  9
$DIMSAH
 70
     1
  9
$DIMBLK1
  1
OPEN
  9
$DIMBLK2
  1
OPEN
  9
$DIMSTYLE
  2
IMAO
  9
$DIMCLRD
 70
     0
  9
$DIMCLRE
 70
     0
  9
$DIMCLRT
 70
     0
  9
$DIMTFAC
 40
1.0
  9
$DIMGAP
 40
1.0
  9
$DIMJUST
 70
     0
  9
$DIMSD1
 70
     0
  9
$DIMSD2
 70
     0
  9
$DIMTOLJ
 70
     1
  9
$DIMTZIN
 70
     0
  9
$DIMALTZ
 70
     0
  9
$DIMALTTZ
 70
     0
  9
$DIMUPT
 70
     1
  9
$DIMDEC
 70
     4
  9
$DIMTDEC
 70
     4
  9
$DIMALTU
 70
     2
  9
$DIMALTTD
 70
     2
  9
$DIMTXSTY
  7
STYLE2
  9
$DIMAUNIT
 70
     0
  9
$DIMADEC
 70
     0
  9
$DIMALTRND
 40
0.0
  9
$DIMAZIN
 70
     0
  9
$DIMDSEP
 70
    46
  9
$DIMATFIT
 70
     3
  9
$DIMFRAC
 70
     0
  9
$DIMLDRBLK
  1

  9
$DIMLUNIT
 70
     2
  9
$DIMLWD
 70
    -2
  9
$DIMLWE
 70
    -2
  9
$DIMTMOVE
 70
     0
  9
$LUNITS
 70
     2
  9
$LUPREC
 70
     2
  9
$SKETCHINC
 40
0.1
  9
$FILLETRAD
 40
20.0
  9
$AUNITS
 70
     0
  9
$AUPREC
 70
     2
  9
$MENU
  1
STDR12J
  9
$ELEVATION
 40
0.0
  9
$PELEVATION
 40
0.0
  9
$THICKNESS
 40
0.0
  9
$LIMCHECK
 70
     0
  9
$CHAMFERA
 40
0.5
  9
$CHAMFERB
 40
0.5
  9
$CHAMFERC
 40
0.0
  9
$CHAMFERD
 40
0.0
  9
$SKPOLY
 70
     0
  9
$TDCREATE
 40
2450690.700081019
  9
$TDUCREATE
 40
2450690.325083218
  9
$TDUPDATE
 40
2459548.436932870
  9
$TDUUPDATE
 40
2459548.061932870
  9
$TDINDWG
 40
0.3773045833
  9
$TDUSRTIMER
 40
0.3773044097
  9
$USRTIMER
 70
     1
  9
$ANGBASE
 50
0.0
  9
$ANGDIR
 70
     0
  9
$PDMODE
 70
     3
  9
$PDSIZE
 40
0.0
  9
$PLINEWID
 40
0.0
  9
$SPLFRAME
 70
     0
  9
$SPLINETYPE
 70
     6
  9
$SPLINESEGS
 70
     8
  9
$HANDSEED
  5
15E3
  9
$SURFTAB1
 70
     6
  9
$SURFTAB2
 70
     6
  9
$SURFTYPE
 70
     6
  9
$SURFU
 70
     6
  9
$SURFV
 70
     6
  9
$UCSBASE
  2

  9
$UCSNAME
  2

  9
$UCSORG
 10
0.0
 20
0.0
 30
0.0
  9
$UCSXDIR
 10
1.0
 20
0.0
 30
0.0
  9
$UCSYDIR
 10
0.0
 20
1.0
 30
0.0
  9
$UCSORTHOREF
  2

  9
$UCSORTHOVIEW
 70
     0
  9
$UCSORGTOP
 10
0.0
 20
0.0
 30
0.0
  9
$UCSORGBOTTOM
 10
0.0
 20
0.0
 30
0.0
  9
$UCSORGLEFT
 10
0.0
 20
0.0
 30
0.0
  9
$UCSORGRIGHT
 10
0.0
 20
0.0
 30
0.0
  9
$UCSORGFRONT
 10
0.0
 20
0.0
 30
0.0
  9
$UCSORGBACK
 10
0.0
 20
0.0
 30
0.0
  9
$PUCSBASE
  2

  9
$PUCSNAME
  2

  9
$PUCSORG
 10
0.0
 20
0.0
 30
0.0
  9
$PUCSXDIR
 10
1.0
 20
0.0
 30
0.0
  9
$PUCSYDIR
 10
0.0
 20
1.0
 30
0.0
  9
$PUCSORTHOREF
  2

  9
$PUCSORTHOVIEW
 70
     0
  9
$PUCSORGTOP
 10
0.0
 20
0.0
 30
0.0
  9
$PUCSORGBOTTOM
 10
0.0
 20
0.0
 30
0.0
  9
$PUCSORGLEFT
 10
0.0
 20
0.0
 30
0.0
  9
$PUCSORGRIGHT
 10
0.0
 20
0.0
 30
0.0
  9
$PUCSORGFRONT
 10
0.0
 20
0.0
 30
0.0
  9
$PUCSORGBACK
 10
0.0
 20
0.0
 30
0.0
  9
$USERI1
 70
     3
  9
$USERI2
 70
     1
  9
$USERI3
 70
     1
  9
$USERI4
 70
     1
  9
$USERI5
 70
     1
  9
$USERR1
 40
1.0
  9
$USERR2
 40
3.0
  9
$USERR3
 40
3.0
  9
$USERR4
 40
1.5
  9
$USERR5
 40
10.0
  9
$WORLDVIEW
 70
     1
  9
$SHADEDGE
 70
     3
  9
$SHADEDIF
 70
    70
  9
$TILEMODE
 70
     1
  9
$MAXACTVP
 70
    16
  9
$PINSBASE
 10
0.0
 20
0.0
 30
0.0
  9
$PLIMCHECK
 70
     0
  9
$PEXTMIN
 10
1.000000000000000E+20
 20
1.000000000000000E+20
 30
1.000000000000000E+20
  9
$PEXTMAX
 10
-1.000000000000000E+20
 20
-1.000000000000000E+20
 30
-1.000000000000000E+20
  9
$PLIMMIN
 10
0.0
 20
0.0
  9
$PLIMMAX
 10
12.0
 20
9.0
  9
$UNITMODE
 70
     0
  9
$VISRETAIN
 70
     0
  9
$PLINEGEN
 70
     0
  9
$PSLTSCALE
 70
     0
  9
$TREEDEPTH
 70
     0
  9
$CMLSTYLE
  2
STANDARD
  9
$CMLJUST
 70
     0
  9
$CMLSCALE
 40
1.0
  9
$PROXYGRAPHICS
 70
     1
  9
$MEASUREMENT
 70
     0
  9
$CELWEIGHT
370
    -1
  9
$ENDCAPS
280
     0
  9
$JOINSTYLE
280
     0
  9
$LWDISPLAY
290
     0
  9
$INSUNITS
 70
     0
  9
$HYPERLINKBASE
  1

  9
$STYLESHEET
  1

  9
$XEDIT
290
     1
  9
$CEPSNTYPE
380
     0
  9
$PSTYLEMODE
290
     1
  9
$FINGERPRINTGUID
  2
{635BB1EA-724A-4C04-9F46-C8B6B581BDF0}
  9
$VERSIONGUID
  2
{37B1E96C-05E7-B743-90E4-01FC368CABA2}
  9
$EXTNAMES
290
     1
  9
$PSVPSCALE
 40
0.0
  9
$OLESTARTUP
290
     0
  0
ENDSEC
  0
SECTION
  2
CLASSES
  0
CLASS
  1
ACDBDICTIONARYWDFLT
  2
AcDbDictionaryWithDefault
  3
ObjectDBX Classes
 90
        0
280
     0
281
     0
  0
CLASS
  1
MATERIAL
  2
AcDbMaterial
  3
ObjectDBX Classes
 90
     1153
280
     0
281
     0
  0
CLASS
  1
VISUALSTYLE
  2
AcDbVisualStyle
  3
ObjectDBX Classes
 90
     4095
280
     0
281
     0
  0
CLASS
  1
TABLESTYLE
  2
AcDbTableStyle
  3
ObjectDBX Classes
 90
     4095
280
     0
281
     0
  0
CLASS
  1
SCALE
  2
AcDbScale
  3
ObjectDBX Classes
 90
     1153
280
     0
281
     0
  0
CLASS
  1
MLEADERSTYLE
  2
AcDbMLeaderStyle
  3
ACDB_MLEADERSTYLE_CLASS
 90
     4095
280
     0
281
     0
  0
CLASS
  1
DICTIONARYVAR
  2
AcDbDictionaryVar
  3
ObjectDBX Classes
 90
        0
280
     0
281
     0
  0
CLASS
  1
CELLSTYLEMAP
  2
AcDbCellStyleMap
  3
ObjectDBX Classes
 90
     1152
280
     0
281
     0
  0
CLASS
  1
ACDBSECTIONVIEWSTYLE
  2
AcDbSectionViewStyle
  3
ObjectDBX Classes
 90
     1025
280
     0
281
     0
  0
CLASS
  1
ACDBDETAILVIEWSTYLE
  2
AcDbDetailViewStyle
  3
ObjectDBX Classes
 90
     1025
280
     0
281
     0
  0
CLASS
  1
SORTENTSTABLE
  2
AcDbSortentsTable
  3
ObjectDBX Classes
 90
    32768
280
     0
281
     0
  0
CLASS
  1
ACDBPLACEHOLDER
  2
AcDbPlaceHolder
  3
ObjectDBX Classes
 90
        0
280
     0
281
     0
  0
CLASS
  1
LAYOUT
  2
AcDbLayout
  3
ObjectDBX Classes
 90
        0
280
     0
281
     0
  0
ENDSEC
  0
SECTION
  2
TABLES
  0
TABLE
  2
VPORT
  5
2E
330
0
100
AcDbSymbolTable
 70
     1
1001
ACAD
1000
DbSaveVer
1071
      205
  0
VPORT
  5
2F
330
2E
100
AcDbSymbolTableRecord
100
AcDbViewportTableRecord
  2
*ACTIVE
 70
     0
 10
0.0
 20
0.0
 11
1.0
 21
1.0
 12
981.5426883207495
 22
73.11011871147349
 13
0.0
 23
0.0
 14
0.5
 24
0.5
 15
10.0
 25
10.0
 16
0.0
 26
0.0
 36
1.0
 17
0.0
 27
0.0
 37
0.0
 40
522.1435427095888
 41
1.301690507152145
 42
50.0
 43
0.0
 44
0.0
 50
0.0
 51
0.0
 71
     0
 72
   500
 73
     1
 74
     0
 75
     1
 76
     0
 77
     0
 78
     0
281
     0
 65
     1
110
0.0
120
0.0
130
0.0
111
1.0
121
0.0
131
0.0
112
0.0
122
1.0
132
0.0
 79
     0
146
0.0
1001
ACAD_NAV_VCDISPLAY
1070
     3
  0
ENDTAB
  0
TABLE
  2
LTYPE
  5
29
330
0
100
AcDbSymbolTable
 70
     2
  0
LTYPE
  5
2A
330
29
100
AcDbSymbolTableRecord
100
AcDbLinetypeTableRecord
  2
BYBLOCK
 70
     0
  3

 72
    65
 73
     0
 40
0.0
  0
LTYPE
  5
2B
330
29
100
AcDbSymbolTableRecord
100
AcDbLinetypeTableRecord
  2
BYLAYER
 70
     0
  3

 72
    65
 73
     0
 40
0.0
  0
LTYPE
  5
14
330
29
100
AcDbSymbolTableRecord
100
AcDbLinetypeTableRecord
  2
CONTINUOUS
 70
     0
  3
実線
 72
    65
 73
     0
 40
0.0
  0
LTYPE
  5
17F
330
29
100
AcDbSymbolTableRecord
100
AcDbLinetypeTableRecord
  2
CENTER
 70
     0
  3
____ _ ____ _ ____ _ ____ _ ____ _ ____ _ ____
 72
    65
 73
     4
 40
2.0
 49
1.25
 74
     0
 49
-0.25
 74
     0
 49
0.25
 74
     0
 49
-0.25
 74
     0
  0
ENDTAB
  0
TABLE
  2
LAYER
  5
25
102
{ACAD_XDICTIONARY
360
3BD
102
}
330
0
100
AcDbSymbolTable
 70
     1
  0
LAYER
  5
4
102
{ACAD_XDICTIONARY
360
5
102
}
330
25
100
AcDbSymbolTableRecord
100
AcDbLayerTableRecord
  2
0
 70
     0
 62
     7
  6
CONTINUOUS
370
    -3
390
7
  0
ENDTAB
  0
TABLE
  2
STYLE
  5
26
330
0
100
AcDbSymbolTable
 70
     4
  0
STYLE
  5
27
330
26
100
AcDbSymbolTableRecord
100
AcDbTextStyleTableRecord
  2
STANDARD
 70
     0
 40
0.0
 41
1.0
 50
0.0
 71
     0
 42
5.0
  3
ROMANS
  4
bigfont.shx
  0
STYLE
  5
37
330
26
100
AcDbSymbolTableRecord
100
AcDbTextStyleTableRecord
  2
K
 70
     0
 40
0.0
 41
1.0
 50
0.0
 71
     0
 42
1.0
  3
ROMANS
  4
bigfont.shx
  0
STYLE
  5
4F
330
26
100
AcDbSymbolTableRecord
100
AcDbTextStyleTableRecord
  2
STYLE2
 70
     0
 40
0.0
 41
1.0
 50
0.0
 71
     0
 42
5.0
  3

  4

1001
ACAD
1000
DHPHSGothic-W5
1071
    32770
  0
STYLE
  5
3B9
330
26
100
AcDbSymbolTableRecord
100
AcDbTextStyleTableRecord
  2
BIGFONT
 70
     0
 40
3.0
 41
1.0
 50
0.0
 71
     0
 42
3.0
  3
txt
  4
extfont.shx
  0
ENDTAB
  0
TABLE
  2
VIEW
  5
2C
330
0
100
AcDbSymbolTable
 70
     0
  0
ENDTAB
  0
TABLE
  2
UCS
  5
2D
330
0
100
AcDbSymbolTable
 70
     0
  0
ENDTAB
  0
TABLE
  2
APPID
  5
34
330
0
100
AcDbSymbolTable
 70
     8
  0
APPID
  5
32
330
34
100
AcDbSymbolTableRecord
100
AcDbRegAppTableRecord
  2
ACAD
 70
     0
  0
APPID
  5
33
330
34
100
AcDbSymbolTableRecord
100
AcDbRegAppTableRecord
  2
ACAD_NAV_VCDISPLAY
 70
     0
  0
APPID
  5
3BA
330
34
100
AcDbSymbolTableRecord
100
AcDbRegAppTableRecord
  2
GENIUS_GENODEF_13
 70
     0
  0
APPID
  5
3BB
330
34
100
AcDbSymbolTableRecord
100
AcDbRegAppTableRecord
  2
GENIUS_GENOBJ-N-CEN_13
 70
     0
  0
APPID
  5
3BC
330
34
100
AcDbSymbolTableRecord
100
AcDbRegAppTableRecord
  2
GENIUS_GENCEN_19
 70
     0
  0
APPID
  5
FC6
330
34
100
AcDbSymbolTableRecord
100
AcDbRegAppTableRecord
  2
ACAD_PSEXT
 70
     0
  0
APPID
  5
FC7
330
34
100
AcDbSymbolTableRecord
100
AcDbRegAppTableRecord
  2
AcAecLayerStandard
 70
     0
  0
APPID
  5
1594
330
34
100
AcDbSymbolTableRecord
100
AcDbRegAppTableRecord
  2
ACAD_MLEADERVER
 70
     0
  0
ENDTAB
  0
TABLE
  2
DIMSTYLE
  5
35
330
0
100
AcDbSymbolTable
 70
     5
100
AcDbDimStyleTable
 71
     1
340
36
  0
DIMSTYLE
105
36
330
35
100
AcDbSymbolTableRecord
100
AcDbDimStyleTableRecord
  2
IMAO
 70
     0
 41
1.5
 42
1.0
 43
6.0
 44
1.0
 47
495.0
 73
     0
 74
     0
 77
     1
 78
     8
140
3.0
141
0.0
172
     1
174
     1
271
     2
272
     2
279
     2
284
     8
285
     8
286
     8
340
37
341
38
342
38
  0
DIMSTYLE
105
FC2
330
35
100
AcDbSymbolTableRecord
100
AcDbDimStyleTableRecord
  2
Standard
 70
     0
340
27
  0
DIMSTYLE
105
FC3
330
35
100
AcDbSymbolTableRecord
100
AcDbDimStyleTableRecord
  2
ISO-25
 70
     0
 41
2.5
 42
0.625
 43
3.75
 44
1.25
 73
     0
 74
     0
 77
     1
 78
     8
140
2.5
141
2.5
143
0.03937007874016
147
0.625
171
     3
172
     1
271
     2
272
     2
274
     3
278
    44
283
     0
284
     8
340
27
  0
DIMSTYLE
105
FC4
330
35
100
AcDbSymbolTableRecord
100
AcDbDimStyleTableRecord
  2
AM_ISO
 70
     0
  4
"
 41
2.5
 42
1.0
 43
10.0
 44
1.0
 47
0.1
 48
0.1
 73
     0
 74
     0
 77
     1
 78
     8
 79
     2
140
3.5
141
0.0
143
0.0393701
146
0.71
147
1.5
172
     1
176
   256
177
   256
178
     2
271
     2
272
     3
274
     4
283
     0
284
     8
340
27
371
    -1
372
    -1
  0
DIMSTYLE
105
FC5
330
35
100
AcDbSymbolTableRecord
100
AcDbDimStyleTableRecord
  2
AM_JIS
 70
     0
  4
"
 41
15.0
 42
10.0
 43
80.0
 44
10.0
 47
0.1
 48
0.1
 73
     0
 74
     0
 77
     3
 78
     8
 79
     2
140
30.0
141
0.0
143
0.0393701
146
0.71
147
5.0
172
     1
176
   256
177
   256
178
     2
271
     2
272
     2
283
     0
284
     8
340
27
341
FBB
342
FBB
371
    -1
372
    -1
  0
ENDTAB
  0
TABLE
  2
BLOCK_RECORD
  5
1
330
0
100
AcDbSymbolTable
 70
     3
  0
BLOCK_RECORD
  5
2
330
1
100
AcDbSymbolTableRecord
100
AcDbBlockTableRecord
  2
*MODEL_SPACE
340
1F
  0
BLOCK_RECORD
  5
21
330
1
100
AcDbSymbolTableRecord
100
AcDbBlockTableRecord
  2
*PAPER_SPACE
340
24
  0
BLOCK_RECORD
  5
50
330
1
100
AcDbSymbolTableRecord
100
AcDbBlockTableRecord
  2
_OPEN
340
0
  0
BLOCK_RECORD
  5
38
330
1
100
AcDbSymbolTableRecord
100
AcDbBlockTableRecord
  2
ARROW
340
0
  0
BLOCK_RECORD
  5
FBB
330
1
100
AcDbSymbolTableRecord
100
AcDbBlockTableRecord
  2
_Open30
340
0
  0
ENDTAB
  0
ENDSEC
  0
SECTION
  2
BLOCKS
  0
BLOCK
  5
3
330
2
100
AcDbEntity
  8
0
100
AcDbBlockBegin
  2
*MODEL_SPACE
 70
     0
 10
0.0
 20
0.0
 30
0.0
  3
*MODEL_SPACE
  1

  0
ENDBLK
  5
1E
330
2
100
AcDbEntity
  8
0
100
AcDbBlockEnd
  0
BLOCK
  5
22
330
21
100
AcDbEntity
 67
     1
  8
0
100
AcDbBlockBegin
  2
*PAPER_SPACE
 70
     0
 10
0.0
 20
0.0
 30
0.0
  3
*PAPER_SPACE
  1

  0
ENDBLK
  5
23
330
21
100
AcDbEntity
 67
     1
  8
0
100
AcDbBlockEnd
  0
BLOCK
  5
51
330
50
100
AcDbEntity
  8
0
100
AcDbBlockBegin
  2
_OPEN
 70
     0
 10
0.0
 20
0.0
 30
0.0
  3
_OPEN
  1

  0
LINE
  5
52
330
50
100
AcDbEntity
  8
0
  6
ByBlock
 62
     0
100
AcDbLine
 10
-1.0
 20
0.1666666666666666
 30
0.0
 11
0.0
 21
0.0
 31
0.0
  0
LINE
  5
53
330
50
100
AcDbEntity
  8
0
  6
ByBlock
 62
     0
100
AcDbLine
 10
0.0
 20
0.0
 30
0.0
 11
-1.0
 21
-0.1666666666666666
 31
0.0
  0
LINE
  5
54
330
50
100
AcDbEntity
  8
0
  6
ByBlock
 62
     0
100
AcDbLine
 10
0.0
 20
0.0
 30
0.0
 11
-1.0
 21
0.0
 31
0.0
  0
ENDBLK
  5
55
330
50
100
AcDbEntity
  8
0
100
AcDbBlockEnd
  0
BLOCK
  5
39
330
38
100
AcDbEntity
  8
0
100
AcDbBlockBegin
  2
ARROW
 70
     0
 10
1.0
 20
0.5
 30
0.0
  3
ARROW
  1

  0
LINE
  5
3A
330
38
100
AcDbEntity
  8
0
100
AcDbLine
 10
1.0
 20
0.5
 30
0.0
 11
-0.5000000000000214
 21
0.0980762113533018
 31
0.0
  0
LINE
  5
3B
330
38
100
AcDbEntity
  8
0
100
AcDbLine
 10
0.0
 20
0.5
 30
0.0
 11
1.0
 21
0.5
 31
0.0
  0
LINE
  5
3C
330
38
100
AcDbEntity
  8
0
100
AcDbLine
 10
1.0
 20
0.5
 30
0.0
 11
-0.4999999999999575
 21
0.9019237886467408
 31
0.0
  0
ENDBLK
  5
3D
330
38
100
AcDbEntity
  8
0
100
AcDbBlockEnd
  0
BLOCK
  5
FBC
330
FBB
100
AcDbEntity
  8
0
100
AcDbBlockBegin
  2
_Open30
 70
     0
 10
0.0
 20
0.0
 30
0.0
  3
_Open30
  1

  0
LINE
  5
FBD
330
FBB
100
AcDbEntity
  8
0
  6
ByBlock
 62
     0
370
    -2
100
AcDbLine
 10
-1.0
 20
0.26794919
 30
0.0
 11
0.0
 21
0.0
 31
0.0
  0
LINE
  5
FBE
330
FBB
100
AcDbEntity
  8
0
  6
ByBlock
 62
     0
370
    -2
100
AcDbLine
 10
0.0
 20
0.0
 30
0.0
 11
-1.0
 21
-0.26794919
 31
0.0
  0
LINE
  5
FBF
330
FBB
100
AcDbEntity
  8
0
  6
ByBlock
 62
     0
370
    -2
100
AcDbLine
 10
0.0
 20
0.0
 30
0.0
 11
-1.0
 21
0.0
 31
0.0
  0
ENDBLK
  5
FC0
330
FBB
100
AcDbEntity
  8
0
100
AcDbBlockEnd
  0
ENDSEC
  0
SECTION
  2
ENTITIES
  0
LINE
  5
1285
330
2
100
AcDbEntity
  8
0
 62
     0
 48
0.2
100
AcDbLine
 10
864.6587875846986
 20
197.2142126936475
 30
0.0
 11
864.6587875846986
 21
164.7142126936476
 31
0.0
  0
LINE
  5
1286
330
2
100
AcDbEntity
  8
0
 62
     0
 48
0.2
100
AcDbLine
 10
865.1587875846985
 20
197.7142126936475
 30
0.0
 11
864.6587875846986
 21
197.2142126936475
 31
0.0
  0
LINE
  5
1287
330
2
100
AcDbEntity
  8
0
 62
     0
 48
0.2
100
AcDbLine
 10
874.6587875846985
 20
197.7142126936475
 30
0.0
 11
871.1587875846985
 21
197.7142126936475
 31
0.0
  0
LINE
  5
1288
330
2
100
AcDbEntity
  8
0
 62
     0
 48
0.2
100
AcDbLine
 10
869.1587875846986
 20
197.7142126936475
 30
0.0
 11
865.1587875846985
 21
197.7142126936475
 31
0.0
  0
LINE
  5
1289
330
2
100
AcDbEntity
  8
0
 62
     0
 48
0.2
100
AcDbLine
 10
871.1587875846985
 20
197.4642126936475
 30
0.0
 11
869.1587875846986
 21
197.4642126936475
 31
0.0
  0
LINE
  5
128A
330
2
100
AcDbEntity
  8
0
 62
     0
 48
0.2
100
AcDbLine
 10
874.6587875846985
 20
164.2142126936476
 30
0.0
 11
871.1587875846985
 21
164.2142126936476
 31
0.0
  0
LINE
  5
128B
330
2
100
AcDbEntity
  8
0
 62
     0
 48
0.2
100
AcDbLine
 10
869.1587875846986
 20
164.2142126936476
 30
0.0
 11
865.1587875846985
 21
164.2142126936476
 31
0.0
  0
LINE
  5
128C
330
2
100
AcDbEntity
  8
0
 62
     0
 48
0.2
100
AcDbLine
 10
871.1587875846985
 20
164.4642126936476
 30
0.0
 11
869.1587875846986
 21
164.4642126936476
 31
0.0
  0
LINE
  5
128D
330
2
100
AcDbEntity
  8
0
 62
     0
 48
0.2
100
AcDbLine
 10
864.6587875846986
 20
164.7142126936476
 30
0.0
 11
865.1587875846985
 21
164.2142126936476
 31
0.0
  0
LINE
  5
128E
330
2
100
AcDbEntity
  8
0
 62
     0
 48
0.2
100
AcDbLine
 10
874.6587875846985
 20
197.7142126936475
 30
0.0
 11
874.6587875846985
 21
193.9642126936475
 31
0.0
  0
LINE
  5
128F
330
2
100
AcDbEntity
  8
0
 62
     0
 48
0.2
100
AcDbLine
 10
874.6587875846985
 20
167.9642126936476
 30
0.0
 11
874.6587875846985
 21
164.2142126936476
 31
0.0
  0
LINE
  5
1290
330
2
100
AcDbEntity
  8
0
 62
     0
 48
0.2
100
AcDbLine
 10
879.6587875846981
 20
195.4642126936471
 30
0.0
 11
879.6587875846981
 21
135.4642126936471
 31
0.0
  0
LINE
  5
1291
330
2
100
AcDbEntity
  8
0
 62
     0
 48
0.2
100
AcDbLine
 10
874.6587875846985
 20
135.4642126936471
 30
0.0
 11
874.6587875846985
 21
195.4642126936471
 31
0.0
  0
CIRCLE
  5
1292
330
2
100
AcDbEntity
  8
0
 62
     4
 48
0.2
100
AcDbCircle
 10
877.1587875846986
 20
235.9642126936476
 30
0.0
 40
1.5
  0
CIRCLE
  5
1293
330
2
100
AcDbEntity
  8
0
 62
     0
 48
0.2
100
AcDbCircle
 10
877.1587875846986
 20
235.9642126936476
 30
0.0
 40
1.25
  0
LINE
  5
1294
330
2
100
AcDbEntity
  8
0
 62
     0
 48
0.2
100
AcDbLine
 10
874.6587875846985
 20
197.8642126936472
 30
0.0
 11
879.6587875846981
 21
197.8642126936472
 31
0.0
  0
LINE
  5
1295
330
2
100
AcDbEntity
  8
0
 62
     0
 48
0.2
100
AcDbLine
 10
879.6587875846981
 20
197.8642126936472
 30
0.0
 11
879.6587875846981
 21
133.0642126936475
 31
0.0
  0
LINE
  5
1296
330
2
100
AcDbEntity
  8
0
 62
     0
 48
0.2
100
AcDbLine
 10
879.6587875846981
 20
133.0642126936475
 30
0.0
 11
874.6587875846985
 21
133.0642126936475
 31
0.0
  0
LINE
  5
1297
330
2
100
AcDbEntity
  8
0
 62
     0
 48
0.2
100
AcDbLine
 10
874.6587875846985
 20
133.0642126936475
 30
0.0
 11
874.6587875846985
 21
197.8642126936472
 31
0.0
  0
LINE
  5
1298
330
2
100
AcDbEntity
  8
0
 62
     0
 48
0.2
100
AcDbLine
 10
879.6587875846981
 20
217.9642126936476
 30
0.0
 11
879.6587875846981
 21
205.0642126936475
 31
0.0
  0
LINE
  5
1299
330
2
100
AcDbEntity
  8
0
 62
     0
 48
0.2
100
AcDbLine
 10
879.6587875846981
 20
205.0642126936475
 30
0.0
 11
874.6587875846985
 21
205.0642126936475
 31
0.0
  0
LINE
  5
129A
330
2
100
AcDbEntity
  8
0
 62
     0
 48
0.2
100
AcDbLine
 10
874.6587875846985
 20
205.0642126936475
 30
0.0
 11
874.6587875846985
 21
266.8642126936477
 31
0.0
  0
LINE
  5
129B
330
2
100
AcDbEntity
  8
0
 62
     0
 48
0.2
100
AcDbLine
 10
874.6587875846985
 20
266.8642126936477
 30
0.0
 11
879.6587875846981
 21
266.8642126936477
 31
0.0
  0
LINE
  5
129C
330
2
100
AcDbEntity
  8
0
 62
     0
 48
0.2
100
AcDbLine
 10
879.6587875846981
 20
266.8642126936477
 30
0.0
 11
879.6587875846981
 21
253.9642126936476
 31
0.0
  0
LINE
  5
129D
330
2
100
AcDbEntity
  8
0
 62
     0
 48
0.2
100
AcDbLine
 10
864.6587875846986
 20
252.2142126936476
 30
0.0
 11
864.6587875846986
 21
219.7142126936476
 31
0.0
  0
LINE
  5
129E
330
2
100
AcDbEntity
  8
0
 62
     0
 48
0.2
100
AcDbLine
 10
865.1587875846985
 20
252.7142126936475
 30
0.0
 11
864.6587875846986
 21
252.2142126936476
 31
0.0
  0
LINE
  5
129F
330
2
100
AcDbEntity
  8
0
 62
     0
 48
0.2
100
AcDbLine
 10
865.1587875846985
 20
219.2142126936476
 30
0.0
 11
864.6587875846986
 21
219.7142126936476
 31
0.0
  0
LINE
  5
12A0
330
2
100
AcDbEntity
  8
0
 62
     0
 48
0.2
100
AcDbLine
 10
1029.658787584698
 20
197.8642126936472
 30
0.0
 11
1034.158787584698
 21
197.8642126936472
 31
0.0
  0
LINE
  5
12A1
330
2
100
AcDbEntity
  8
0
 62
     0
 48
0.2
100
AcDbLine
 10
1034.158787584698
 20
197.7142126936471
 30
0.0
 11
1034.658787584698
 21
197.7142126936471
 31
0.0
  0
LINE
  5
12A2
330
2
100
AcDbEntity
  8
0
 62
     0
 48
0.2
100
AcDbLine
 10
1034.658787584698
 20
197.8642126936472
 30
0.0
 11
1034.658787584698
 21
165.4642126936473
 31
0.0
  0
LINE
  5
12A3
330
2
100
AcDbEntity
  8
0
 62
     0
 48
0.2
100
AcDbLine
 10
1034.158787584698
 20
197.8642126936472
 30
0.0
 11
1034.158787584698
 21
165.4642126936473
 31
0.0
  0
LINE
  5
12A4
330
2
100
AcDbEntity
  8
0
 62
     0
 48
0.2
100
AcDbLine
 10
1036.658787584698
 20
195.8642126936472
 30
0.0
 11
1036.658787584698
 21
135.0642126936475
 31
0.0
  0
LINE
  5
12A5
330
2
100
AcDbEntity
  8
0
 62
     0
 48
0.2
100
AcDbLine
 10
1034.658787584698
 20
133.0642126936475
 30
0.0
 11
1036.658787584698
 21
135.0642126936475
 31
0.0
  0
LINE
  5
12A6
330
2
100
AcDbEntity
  8
0
 62
     0
 48
0.2
100
AcDbLine
 10
1034.658787584698
 20
197.8642126936472
 30
0.0
 11
1036.658787584698
 21
195.8642126936472
 31
0.0
  0
LINE
  5
12A7
330
2
100
AcDbEntity
  8
0
 62
     0
 48
0.2
100
AcDbLine
 10
1034.658787584698
 20
133.0642126936475
 30
0.0
 11
1029.658787584698
 21
133.0642126936475
 31
0.0
  0
LINE
  5
12A8
330
2
100
AcDbEntity
  8
0
 62
     0
 48
0.2
100
AcDbLine
 10
1029.658787584698
 20
126.0642126936475
 30
0.0
 11
1029.658787584698
 21
197.8642126936472
 31
0.0
  0
LINE
  5
12A9
330
2
100
AcDbEntity
  8
0
 62
     0
 48
0.2
100
AcDbLine
 10
880.1587875846985
 20
197.9642126936471
 30
0.0
 11
1029.158787584698
 21
197.9642126936471
 31
0.0
  0
LINE
  5
12AA
330
2
100
AcDbEntity
  8
0
 62
     0
 48
0.2
100
AcDbLine
 10
1029.158787584698
 20
197.9642126936471
 30
0.0
 11
1029.158787584698
 21
132.9642126936471
 31
0.0
  0
LINE
  5
12AB
330
2
100
AcDbEntity
  8
0
 62
     0
 48
0.2
100
AcDbLine
 10
1029.158787584698
 20
132.9642126936471
 30
0.0
 11
880.1587875846985
 21
132.9642126936471
 31
0.0
  0
LINE
  5
12AC
330
2
100
AcDbEntity
  8
0
 62
     0
 48
0.2
100
AcDbLine
 10
880.1587875846985
 20
132.9642126936471
 30
0.0
 11
880.1587875846985
 21
197.9642126936471
 31
0.0
  0
LINE
  5
12AD
330
2
100
AcDbEntity
  8
0
 62
     0
 48
0.2
100
AcDbLine
 10
1029.158787584698
 20
195.2142126936471
 30
0.0
 11
1029.158787584698
 21
135.7142126936471
 31
0.0
  0
LINE
  5
12AE
330
2
100
AcDbEntity
  8
0
 62
     0
 48
0.2
100
AcDbLine
 10
880.1587875846985
 20
135.7142126936471
 30
0.0
 11
880.1587875846985
 21
195.2142126936471
 31
0.0
  0
LINE
  5
12AF
330
2
100
AcDbEntity
  8
0
 62
     0
 48
0.2
100
AcDbLine
 10
1069.658787584698
 20
197.9642126936475
 30
0.0
 11
1123.658787584698
 21
197.9642126936475
 31
0.0
  0
ARC
  5
12B0
330
2
100
AcDbEntity
  8
0
 62
     0
 48
0.2
100
AcDbCircle
 10
1123.658787584698
 20
193.9642126936475
 30
0.0
 40
4.0
100
AcDbArc
 50
0.0
 51
90.0
  0
LINE
  5
12B1
330
2
100
AcDbEntity
  8
0
 62
     0
 48
0.2
100
AcDbLine
 10
1127.658787584698
 20
193.9642126936475
 30
0.0
 11
1127.658787584698
 21
136.9642126936476
 31
0.0
  0
ARC
  5
12B2
330
2
100
AcDbEntity
  8
0
 62
     0
 48
0.2
100
AcDbCircle
 10
1123.658787584698
 20
136.9642126936476
 30
0.0
 40
4.0
100
AcDbArc
 50
270.0
 51
0.0
  0
LINE
  5
12B3
330
2
100
AcDbEntity
  8
0
 62
     0
 48
0.2
100
AcDbLine
 10
1123.658787584698
 20
132.9642126936476
 30
0.0
 11
1069.658787584698
 21
132.9642126936476
 31
0.0
  0
ARC
  5
12B4
330
2
100
AcDbEntity
  8
0
 62
     0
 48
0.2
100
AcDbCircle
 10
1069.658787584698
 20
136.9642126936476
 30
0.0
 40
4.0
100
AcDbArc
 50
180.0
 51
270.0
  0
LINE
  5
12B5
330
2
100
AcDbEntity
  8
0
 62
     0
 48
0.2
100
AcDbLine
 10
1065.658787584698
 20
136.9642126936476
 30
0.0
 11
1065.658787584698
 21
193.9642126936475
 31
0.0
  0
ARC
  5
12B6
330
2
100
AcDbEntity
  8
0
 62
     0
 48
0.2
100
AcDbCircle
 10
1069.658787584698
 20
193.9642126936475
 30
0.0
 40
4.0
100
AcDbArc
 50
90.0
 51
180.0
  0
LINE
  5
12B7
330
2
100
AcDbEntity
  8
0
 62
     0
 48
0.2
100
AcDbLine
 10
880.1587875846985
 20
266.9642126936476
 30
0.0
 11
1029.158787584698
 21
266.9642126936476
 31
0.0
  0
LINE
  5
12B8
330
2
100
AcDbEntity
  8
0
 62
     0
 48
0.2
100
AcDbLine
 10
1029.158787584698
 20
266.9642126936476
 30
0.0
 11
1029.158787584698
 21
204.9642126936475
 31
0.0
  0
LINE
  5
12B9
330
2
100
AcDbEntity
  8
0
 62
     0
 48
0.2
100
AcDbLine
 10
1029.158787584698
 20
204.9642126936475
 30
0.0
 11
880.1587875846985
 21
204.9642126936475
 31
0.0
  0
LINE
  5
12BA
330
2
100
AcDbEntity
  8
0
 62
     0
 48
0.2
100
AcDbLine
 10
880.1587875846985
 20
204.9642126936475
 30
0.0
 11
880.1587875846985
 21
266.9642126936476
 31
0.0
  0
LINE
  5
12BB
330
2
100
AcDbEntity
  8
0
 62
     0
 48
0.2
100
AcDbLine
 10
1029.658787584698
 20
266.8642126936477
 30
0.0
 11
1034.158787584698
 21
266.8642126936477
 31
0.0
  0
LINE
  5
12BC
330
2
100
AcDbEntity
  8
0
 62
     0
 48
0.2
100
AcDbLine
 10
1034.658787584698
 20
266.8642126936477
 30
0.0
 11
1034.658787584698
 21
205.0642126936475
 31
0.0
  0
LINE
  5
12BD
330
2
100
AcDbEntity
  8
0
 62
     0
 48
0.2
100
AcDbLine
 10
1034.158787584698
 20
266.8642126936477
 30
0.0
 11
1034.158787584698
 21
205.0642126936475
 31
0.0
  0
LINE
  5
12BE
330
2
100
AcDbEntity
  8
0
 62
     0
 48
0.2
100
AcDbLine
 10
1036.658787584698
 20
264.8642126936477
 30
0.0
 11
1036.658787584698
 21
207.0642126936477
 31
0.0
  0
LINE
  5
12BF
330
2
100
AcDbEntity
  8
0
 62
     0
 48
0.2
100
AcDbLine
 10
1034.658787584698
 20
205.0642126936477
 30
0.0
 11
1036.658787584698
 21
207.0642126936477
 31
0.0
  0
LINE
  5
12C0
330
2
100
AcDbEntity
  8
0
 62
     0
 48
0.2
100
AcDbLine
 10
1034.658787584698
 20
266.8642126936477
 30
0.0
 11
1036.658787584698
 21
264.8642126936477
 31
0.0
  0
LINE
  5
12C1
330
2
100
AcDbEntity
  8
0
 62
     0
 48
0.2
100
AcDbLine
 10
1034.158787584698
 20
205.0642126936477
 30
0.0
 11
1029.658787584698
 21
205.0642126936475
 31
0.0
  0
LINE
  5
12C2
330
2
100
AcDbEntity
  8
0
 62
     0
 48
0.2
100
AcDbLine
 10
1029.658787584698
 20
205.0642126936475
 30
0.0
 11
1029.658787584698
 21
266.8642126936477
 31
0.0
  0
LINE
  5
12C3
330
2
100
AcDbEntity
  8
0
 62
     0
 48
0.2
100
AcDbLine
 10
874.6587875846985
 20
252.7142126936475
 30
0.0
 11
871.1587875846985
 21
252.7142126936475
 31
0.0
  0
LINE
  5
12C4
330
2
100
AcDbEntity
  8
0
 62
     0
 48
0.2
100
AcDbLine
 10
869.1587875846986
 20
252.7142126936475
 30
0.0
 11
865.1587875846985
 21
252.7142126936475
 31
0.0
  0
LINE
  5
12C5
330
2
100
AcDbEntity
  8
0
 62
     0
 48
0.2
100
AcDbLine
 10
871.1587875846985
 20
252.4642126936476
 30
0.0
 11
869.1587875846986
 21
252.4642126936476
 31
0.0
  0
LINE
  5
12C6
330
2
100
AcDbEntity
  8
0
 62
     0
 48
0.2
100
AcDbLine
 10
874.6587875846985
 20
219.2142126936476
 30
0.0
 11
871.1587875846985
 21
219.2142126936476
 31
0.0
  0
LINE
  5
12C7
330
2
100
AcDbEntity
  8
0
 62
     0
 48
0.2
100
AcDbLine
 10
869.1587875846986
 20
219.2142126936476
 30
0.0
 11
865.1587875846985
 21
219.2142126936476
 31
0.0
  0
LINE
  5
12C8
330
2
100
AcDbEntity
  8
0
 62
     0
 48
0.2
100
AcDbLine
 10
871.1587875846985
 20
219.4642126936475
 30
0.0
 11
869.1587875846986
 21
219.4642126936475
 31
0.0
  0
LINE
  5
12C9
330
2
100
AcDbEntity
  8
0
 62
     0
 48
0.2
100
AcDbLine
 10
874.6587875846985
 20
252.7142126936475
 30
0.0
 11
874.6587875846985
 21
248.964212693648
 31
0.0
  0
LINE
  5
12CA
330
2
100
AcDbEntity
  8
0
 62
     0
 48
0.2
100
AcDbLine
 10
874.6587875846985
 20
222.9642126936476
 30
0.0
 11
874.6587875846985
 21
219.2142126936476
 31
0.0
  0
LINE
  5
12CB
330
2
100
AcDbEntity
  8
0
 62
     0
 48
0.5
100
AcDbLine
 10
1076.658787584698
 20
125.9642126936476
 30
0.0
 11
1116.658787584698
 21
125.9642126936476
 31
0.0
  0
LINE
  5
12CC
330
2
100
AcDbEntity
  8
0
 62
     0
 48
0.5
100
AcDbLine
 10
1116.658787584698
 20
125.9642126936476
 30
0.0
 11
1121.658787584698
 21
132.9642126936476
 31
0.0
  0
LINE
  5
12CD
330
2
100
AcDbEntity
  8
0
 62
     0
 48
0.5
100
AcDbLine
 10
1076.658787584698
 20
125.9642126936476
 30
0.0
 11
1071.658787584698
 21
132.9642126936476
 31
0.0
  0
LINE
  5
12CE
330
2
100
AcDbEntity
  8
0
 62
     0
 48
0.5
100
AcDbLine
 10
880.1587875846985
 20
132.9642126936471
 30
0.0
 11
880.1587875846985
 21
125.9642126936476
 31
0.0
  0
LINE
  5
12CF
330
2
100
AcDbEntity
  8
0
 62
     0
 48
0.5
100
AcDbLine
 10
1029.158787584698
 20
125.9642126936476
 30
0.0
 11
880.1587875846985
 21
125.9642126936476
 31
0.0
  0
LINE
  5
12D0
330
2
100
AcDbEntity
  8
0
 62
     0
 48
0.5
100
AcDbLine
 10
1029.158787584698
 20
132.9642126936471
 30
0.0
 11
1029.158787584698
 21
125.9642126936476
 31
0.0
  0
LINE
  5
12D1
330
2
100
AcDbEntity
  8
0
 62
     0
 48
0.5
100
AcDbLine
 10
875.6587875846985
 20
235.9642126936476
 30
0.0
 11
874.6587875846985
 21
235.9642126936476
 31
0.0
  0
LINE
  5
12D2
330
2
100
AcDbEntity
  8
0
 62
     0
 48
0.5
100
AcDbLine
 10
865.1587875846985
 20
197.7142126936475
 30
0.0
 11
865.1587875846985
 21
164.2142126936476
 31
0.0
  0
LINE
  5
12D3
330
2
100
AcDbEntity
  8
0
 62
     0
 48
0.5
100
AcDbLine
 10
869.1587875846986
 20
197.7142126936475
 30
0.0
 11
869.1587875846986
 21
164.2142126936476
 31
0.0
  0
LINE
  5
12D4
330
2
100
AcDbEntity
  8
0
 62
     0
 48
0.5
100
AcDbLine
 10
871.1587875846985
 20
197.7142126936475
 30
0.0
 11
871.1587875846985
 21
164.2142126936476
 31
0.0
  0
LINE
  5
12D5
330
2
100
AcDbEntity
  8
0
 62
     0
 48
0.5
100
AcDbLine
 10
865.1587875846985
 20
252.7142126936475
 30
0.0
 11
865.1587875846985
 21
219.2142126936476
 31
0.0
  0
LINE
  5
12D6
330
2
100
AcDbEntity
  8
0
 62
     0
 48
0.5
100
AcDbLine
 10
869.1587875846986
 20
252.7142126936475
 30
0.0
 11
869.1587875846986
 21
219.214212693648
 31
0.0
  0
LINE
  5
12D7
330
2
100
AcDbEntity
  8
0
 62
     0
 48
0.5
100
AcDbLine
 10
871.1587875846985
 20
252.7142126936475
 30
0.0
 11
871.1587875846985
 21
219.214212693648
 31
0.0
  0
LINE
  5
12D8
330
2
100
AcDbEntity
  8
0
 62
     0
 48
0.5
100
AcDbLine
 10
1029.158787584698
 20
197.7142126936471
 30
0.0
 11
1029.658787584698
 21
197.7142126936471
 31
0.0
  0
LINE
  5
12D9
330
2
100
AcDbEntity
  8
0
 62
     0
 48
0.5
100
AcDbLine
 10
1029.658787584698
 20
197.7142126936471
 30
0.0
 11
1029.658787584698
 21
133.2142126936471
 31
0.0
  0
LINE
  5
12DA
330
2
100
AcDbEntity
  8
0
 62
     0
 48
0.5
100
AcDbLine
 10
1029.658787584698
 20
133.2142126936471
 30
0.0
 11
1029.158787584698
 21
133.2142126936471
 31
0.0
  0
LINE
  5
12DB
330
2
100
AcDbEntity
  8
0
 62
     0
 48
0.5
100
AcDbLine
 10
1029.158787584698
 20
133.2142126936471
 30
0.0
 11
1029.158787584698
 21
197.7142126936471
 31
0.0
  0
LWPOLYLINE
  5
12DC
330
2
100
AcDbEntity
  8
0
 62
     0
 48
0.5
100
AcDbPolyline
 90
        4
 70
     1
 43
0.0
 10
880.1587875846985
 20
197.7142126936471
 10
879.6587875846981
 20
197.7142126936471
 10
879.6587875846981
 20
133.2142126936471
 10
880.1587875846985
 20
133.2142126936471
  0
LWPOLYLINE
  5
12DD
330
2
100
AcDbEntity
  8
0
 62
     0
 48
0.5
100
AcDbPolyline
 90
        4
 70
     1
 43
0.0
 10
1029.158787584698
 20
205.2142126936476
 10
1029.158787584698
 20
266.7142126936476
 10
1029.658787584698
 20
266.7142126936476
 10
1029.658787584698
 20
205.2142126936476
  0
LWPOLYLINE
  5
12DE
330
2
100
AcDbEntity
  8
0
 62
     0
 48
0.5
100
AcDbPolyline
 90
        4
 70
     1
 43
0.0
 10
880.1587875846985
 20
205.2142126936476
 10
880.1587875846985
 20
266.7142126936476
 10
879.6587875846981
 20
266.7142126936476
 10
879.6587875846981
 20
205.2142126936476
  0
CIRCLE
  5
12DF
330
2
100
AcDbEntity
  8
0
 62
     0
100
AcDbCircle
 10
846.1587875846985
 20
193.9642126936475
 30
0.0
 40
2.75
  0
LWPOLYLINE
  5
12E0
330
2
100
AcDbEntity
  8
0
 62
     0
100
AcDbPolyline
 90
        6
 70
     1
 43
0.0
 10
845.5814373155085
 20
192.9642126936475
 10
845.0040870463201
 20
193.9642126936475
 10
845.5814373155085
 20
194.9642126936475
 10
846.7361378538885
 20
194.9642126936475
 10
847.3134881230786
 20
193.9642126936475
 10
846.7361378538885
 20
192.9642126936475
  0
CIRCLE
  5
12E1
330
2
100
AcDbEntity
  8
0
 62
     0
100
AcDbCircle
 10
792.1587875846985
 20
193.9642126936475
 30
0.0
 40
2.75
  0
LWPOLYLINE
  5
12E2
330
2
100
AcDbEntity
  8
0
 62
     0
100
AcDbPolyline
 90
        6
 70
     1
 43
0.0
 10
792.7361378538885
 20
192.9642126936475
 10
793.3134881230785
 20
193.9642126936475
 10
792.7361378538885
 20
194.9642126936475
 10
791.5814373155085
 20
194.9642126936475
 10
791.0040870463204
 20
193.9642126936475
 10
791.5814373155085
 20
192.9642126936475
  0
CIRCLE
  5
12E3
330
2
100
AcDbEntity
  8
0
 62
     0
100
AcDbCircle
 10
846.1587875846985
 20
136.9642126936476
 30
0.0
 40
2.75
  0
LWPOLYLINE
  5
12E4
330
2
100
AcDbEntity
  8
0
 62
     0
100
AcDbPolyline
 90
        6
 70
     1
 43
0.0
 10
845.5814373155085
 20
137.9642126936476
 10
845.0040870463201
 20
136.9642126936476
 10
845.5814373155085
 20
135.9642126936476
 10
846.7361378538885
 20
135.9642126936476
 10
847.3134881230786
 20
136.9642126936476
 10
846.7361378538885
 20
137.9642126936476
  0
CIRCLE
  5
12E5
330
2
100
AcDbEntity
  8
0
 62
     0
100
AcDbCircle
 10
792.1587875846985
 20
136.9642126936476
 30
0.0
 40
2.75
  0
LWPOLYLINE
  5
12E6
330
2
100
AcDbEntity
  8
0
 62
     0
100
AcDbPolyline
 90
        6
 70
     1
 43
0.0
 10
792.7361378538885
 20
137.9642126936476
 10
793.3134881230785
 20
136.9642126936476
 10
792.7361378538885
 20
135.9642126936476
 10
791.5814373155085
 20
135.9642126936476
 10
791.0040870463204
 20
136.9642126936476
 10
791.5814373155085
 20
137.9642126936476
  0
CIRCLE
  5
12E7
330
2
100
AcDbEntity
  8
0
 62
     0
 48
0.2
100
AcDbCircle
 10
846.1587875846985
 20
193.9642126936475
 30
0.0
 40
3.0
  0
CIRCLE
  5
12E8
330
2
100
AcDbEntity
  8
0
 62
     0
 48
0.2
100
AcDbCircle
 10
792.1587875846985
 20
193.9642126936475
 30
0.0
 40
3.0
  0
CIRCLE
  5
12E9
330
2
100
AcDbEntity
  8
0
 62
     0
 48
0.2
100
AcDbCircle
 10
846.1587875846985
 20
136.9642126936476
 30
0.0
 40
3.0
  0
CIRCLE
  5
12EA
330
2
100
AcDbEntity
  8
0
 62
     0
 48
0.2
100
AcDbCircle
 10
792.1587875846985
 20
136.9642126936476
 30
0.0
 40
3.0
  0
LWPOLYLINE
  5
12EB
330
2
100
AcDbEntity
  8
0
 62
     0
 48
0.2
100
AcDbPolyline
 90
        8
 70
     1
 43
0.0
 10
846.1587875846985
 20
197.9642126936475
 10
792.1587875846985
 20
197.9642126936475
 42
0.4142135623730951
 10
788.1587875846985
 20
193.9642126936475
 10
788.1587875846985
 20
136.9642126936476
 42
0.4142135623730951
 10
792.1587875846985
 20
132.9642126936476
 10
846.1587875846985
 20
132.9642126936476
 42
0.4142135623730951
 10
850.1587875846981
 20
136.9642126936476
 10
850.1587875846981
 20
193.9642126936475
 42
0.4142135623730951
  0
LINE
  5
12EC
330
2
100
AcDbEntity
  8
0
 62
     0
 48
0.5
100
AcDbLine
 10
839.1587875846985
 20
125.9642126936476
 30
0.0
 11
799.1587875846985
 21
125.9642126936476
 31
0.0
  0
LINE
  5
12ED
330
2
100
AcDbEntity
  8
0
 62
     0
 48
0.5
100
AcDbLine
 10
799.1587875846985
 20
125.9642126936476
 30
0.0
 11
794.1587875846985
 21
132.9642126936476
 31
0.0
  0
LINE
  5
12EE
330
2
100
AcDbEntity
  8
0
 62
     0
 48
0.5
100
AcDbLine
 10
839.1587875846985
 20
125.9642126936476
 30
0.0
 11
844.1587875846986
 21
132.9642126936476
 31
0.0
  0
CIRCLE
  5
12EF
330
2
100
AcDbEntity
  8
0
 62
     0
100
AcDbCircle
 10
819.1587875846986
 20
180.9642126936475
 30
0.0
 40
16.75
  0
CIRCLE
  5
12F0
330
2
100
AcDbEntity
  8
0
 62
     0
100
AcDbCircle
 10
819.1587875846986
 20
180.9642126936475
 30
0.0
 40
15.75
  0
CIRCLE
  5
12F1
330
2
100
AcDbEntity
  8
0
 62
     0
100
AcDbCircle
 10
819.1587875846986
 20
180.9642126936475
 30
0.0
 40
12.0
  0
CIRCLE
  5
12F2
330
2
100
AcDbEntity
  8
0
 62
     0
100
AcDbCircle
 10
819.1587875846986
 20
180.9642126936475
 30
0.0
 40
11.0
  0
LINE
  5
12F3
330
2
100
AcDbEntity
  8
0
  6
CENTER
 62
     4
 48
2.0
100
AcDbLine
 10
799.1587875846985
 20
180.9642126936475
 30
0.0
 11
839.1587875846985
 21
180.9642126936475
 31
0.0
1001
GENIUS_GENOBJ-N-CEN_13
1002
{
1000
OWNER
1000
GEN
1002
}
1001
GENIUS_GENODEF_13
1002
{
1000
HIER
1070
     0
1002
}
1002
{
1000
MANEDIT
1070
     0
1002
}
1002
{
1000
NOSEL
1070
     0
1002
}
1002
{
1000
BEHIND
1070
     0
1002
}
1002
{
1000
OTHER
1070
     0
1002
}
1002
{
1000
REACTOR
1002
}
1001
GENIUS_GENCEN_19
1002
{
1040
3.0
1002
}
  0
LINE
  5
12F4
330
2
100
AcDbEntity
  8
0
  6
CENTER
 62
     4
 48
2.0
100
AcDbLine
 10
1085.158787584698
 20
180.9642126936475
 30
0.0
 11
1108.158787584698
 21
180.9642126936475
 31
0.0
1001
GENIUS_GENOBJ-N-CEN_13
1002
{
1000
OWNER
1000
GEN
1002
}
1001
GENIUS_GENODEF_13
1002
{
1000
HIER
1070
     0
1002
}
1002
{
1000
MANEDIT
1070
     0
1002
}
1002
{
1000
NOSEL
1070
     0
1002
}
1002
{
1000
BEHIND
1070
     0
1002
}
1002
{
1000
OTHER
1070
     0
1002
}
1002
{
1000
REACTOR
1002
}
1001
GENIUS_GENCEN_19
1002
{
1040
3.0
1002
}
  0
LINE
  5
12F5
330
2
100
AcDbEntity
  8
0
 62
     0
 48
0.2
100
AcDbLine
 10
879.6587875846981
 20
86.46421269364759
 30
0.0
 11
879.6587875846981
 21
99.36421269364769
 31
0.0
  0
LINE
  5
12F6
330
2
100
AcDbEntity
  8
0
 62
     0
 48
0.2
100
AcDbLine
 10
879.6587875846981
 20
99.36421269364769
 30
0.0
 11
874.6587875846985
 21
99.36421269364769
 31
0.0
  0
LINE
  5
12F7
330
2
100
AcDbEntity
  8
0
 62
     0
 48
0.2
100
AcDbLine
 10
874.6587875846985
 20
99.36421269364769
 30
0.0
 11
874.6587875846985
 21
37.5642126936475
 31
0.0
  0
LINE
  5
12F8
330
2
100
AcDbEntity
  8
0
 62
     0
 48
0.2
100
AcDbLine
 10
874.6587875846985
 20
37.5642126936475
 30
0.0
 11
879.6587875846981
 21
37.5642126936475
 31
0.0
  0
LINE
  5
12F9
330
2
100
AcDbEntity
  8
0
 62
     0
 48
0.2
100
AcDbLine
 10
879.6587875846981
 20
37.5642126936475
 30
0.0
 11
879.6587875846981
 21
50.4642126936476
 31
0.0
  0
LINE
  5
12FA
330
2
100
AcDbEntity
  8
0
 62
     0
 48
0.2
100
AcDbLine
 10
864.6587875846986
 20
52.21421269364761
 30
0.0
 11
864.6587875846986
 21
84.71421269364759
 31
0.0
  0
LINE
  5
12FB
330
2
100
AcDbEntity
  8
0
 62
     0
 48
0.2
100
AcDbLine
 10
865.1587875846985
 20
51.7142126936476
 30
0.0
 11
864.6587875846986
 21
52.21421269364761
 31
0.0
  0
LINE
  5
12FC
330
2
100
AcDbEntity
  8
0
 62
     0
 48
0.2
100
AcDbLine
 10
865.1587875846985
 20
85.21421269364759
 30
0.0
 11
864.6587875846986
 21
84.71421269364759
 31
0.0
  0
LINE
  5
12FD
330
2
100
AcDbEntity
  8
0
 62
     0
 48
0.2
100
AcDbLine
 10
880.1587875846985
 20
37.4642126936476
 30
0.0
 11
1029.158787584698
 21
37.4642126936476
 31
0.0
  0
LINE
  5
12FE
330
2
100
AcDbEntity
  8
0
 62
     0
 48
0.2
100
AcDbLine
 10
1029.158787584698
 20
37.4642126936476
 30
0.0
 11
1029.158787584698
 21
99.4642126936476
 31
0.0
  0
LINE
  5
12FF
330
2
100
AcDbEntity
  8
0
 62
     0
 48
0.2
100
AcDbLine
 10
1029.158787584698
 20
99.4642126936476
 30
0.0
 11
880.1587875846985
 21
99.4642126936476
 31
0.0
  0
LINE
  5
1300
330
2
100
AcDbEntity
  8
0
 62
     0
 48
0.2
100
AcDbLine
 10
880.1587875846985
 20
99.4642126936476
 30
0.0
 11
880.1587875846985
 21
37.4642126936476
 31
0.0
  0
LINE
  5
1301
330
2
100
AcDbEntity
  8
0
 62
     0
 48
0.2
100
AcDbLine
 10
1029.658787584698
 20
37.5642126936475
 30
0.0
 11
1034.658787584698
 21
37.5642126936475
 31
0.0
  0
LINE
  5
1302
330
2
100
AcDbEntity
  8
0
 62
     0
 48
0.2
100
AcDbLine
 10
1034.658787584698
 20
37.5642126936475
 30
0.0
 11
1034.658787584698
 21
46.71421269364439
 31
0.0
  0
LINE
  5
1303
330
2
100
AcDbEntity
  8
0
 62
     0
 48
0.2
100
AcDbLine
 10
1034.658787584698
 20
50.21421269364418
 30
0.0
 11
1034.658787584698
 21
86.71421269364442
 31
0.0
  0
LINE
  5
1304
330
2
100
AcDbEntity
  8
0
 62
     0
 48
0.2
100
AcDbLine
 10
1034.658787584698
 20
90.21421269364441
 30
0.0
 11
1034.658787584698
 21
99.36421269364769
 31
0.0
  0
LINE
  5
1305
330
2
100
AcDbEntity
  8
0
 62
     0
 48
0.2
100
AcDbLine
 10
1036.658787584698
 20
39.56421269364751
 30
0.0
 11
1036.658787584698
 21
97.36421269364791
 31
0.0
  0
LINE
  5
1306
330
2
100
AcDbEntity
  8
0
 62
     0
 48
0.2
100
AcDbLine
 10
1034.658787584698
 20
37.5642126936475
 30
0.0
 11
1036.658787584698
 21
39.56421269364751
 31
0.0
  0
LINE
  5
1307
330
2
100
AcDbEntity
  8
0
 62
     0
 48
0.2
100
AcDbLine
 10
1034.658787584698
 20
99.36421269364792
 30
0.0
 11
1036.658787584698
 21
97.36421269364791
 31
0.0
  0
LINE
  5
1308
330
2
100
AcDbEntity
  8
0
 62
     0
 48
0.2
100
AcDbLine
 10
1034.658787584698
 20
99.36421269364792
 30
0.0
 11
1029.658787584698
 21
99.36421269364769
 31
0.0
  0
LINE
  5
1309
330
2
100
AcDbEntity
  8
0
 62
     0
 48
0.2
100
AcDbLine
 10
1029.658787584698
 20
99.36421269364769
 30
0.0
 11
1029.658787584698
 21
37.5642126936475
 31
0.0
  0
LINE
  5
130A
330
2
100
AcDbEntity
  8
0
 62
     0
 48
0.2
100
AcDbLine
 10
874.6587875846985
 20
51.7142126936476
 30
0.0
 11
871.1587875846985
 21
51.7142126936476
 31
0.0
  0
LINE
  5
130B
330
2
100
AcDbEntity
  8
0
 62
     0
 48
0.2
100
AcDbLine
 10
869.1587875846986
 20
51.7142126936476
 30
0.0
 11
865.1587875846985
 21
51.7142126936476
 31
0.0
  0
LINE
  5
130C
330
2
100
AcDbEntity
  8
0
 62
     0
 48
0.2
100
AcDbLine
 10
871.1587875846985
 20
51.96421269364759
 30
0.0
 11
869.1587875846986
 21
51.96421269364759
 31
0.0
  0
LINE
  5
130D
330
2
100
AcDbEntity
  8
0
 62
     0
 48
0.2
100
AcDbLine
 10
874.6587875846985
 20
85.21421269364759
 30
0.0
 11
871.1587875846985
 21
85.21421269364759
 31
0.0
  0
LINE
  5
130E
330
2
100
AcDbEntity
  8
0
 62
     0
 48
0.2
100
AcDbLine
 10
869.1587875846986
 20
85.21421269364759
 30
0.0
 11
865.1587875846985
 21
85.21421269364759
 31
0.0
  0
LINE
  5
130F
330
2
100
AcDbEntity
  8
0
 62
     0
 48
0.2
100
AcDbLine
 10
871.1587875846985
 20
84.96421269364759
 30
0.0
 11
869.1587875846986
 21
84.96421269364759
 31
0.0
  0
LINE
  5
1310
330
2
100
AcDbEntity
  8
0
 62
     0
 48
0.2
100
AcDbLine
 10
874.6587875846985
 20
51.7142126936476
 30
0.0
 11
874.6587875846985
 21
55.46421269364714
 31
0.0
  0
LINE
  5
1311
330
2
100
AcDbEntity
  8
0
 62
     0
 48
0.2
100
AcDbLine
 10
874.6587875846985
 20
81.46421269364759
 30
0.0
 11
874.6587875846985
 21
85.21421269364759
 31
0.0
  0
LINE
  5
1312
330
2
100
AcDbEntity
  8
0
 62
     0
 48
0.5
100
AcDbLine
 10
865.1587875846985
 20
51.7142126936476
 30
0.0
 11
865.1587875846985
 21
85.21421269364759
 31
0.0
  0
LINE
  5
1313
330
2
100
AcDbEntity
  8
0
 62
     0
 48
0.5
100
AcDbLine
 10
869.1587875846986
 20
51.7142126936476
 30
0.0
 11
869.1587875846986
 21
85.21421269364713
 31
0.0
  0
LINE
  5
1314
330
2
100
AcDbEntity
  8
0
 62
     0
 48
0.5
100
AcDbLine
 10
871.1587875846985
 20
51.7142126936476
 30
0.0
 11
871.1587875846985
 21
85.21421269364713
 31
0.0
  0
LWPOLYLINE
  5
1315
330
2
100
AcDbEntity
  8
0
 62
     0
 48
0.5
100
AcDbPolyline
 90
        4
 70
     1
 43
0.0
 10
1029.158787584698
 20
99.2142126936476
 10
1029.158787584698
 20
37.7142126936476
 10
1029.658787584698
 20
37.7142126936476
 10
1029.658787584698
 20
99.2142126936476
  0
LWPOLYLINE
  5
1316
330
2
100
AcDbEntity
  8
0
 62
     0
 48
0.5
100
AcDbPolyline
 90
        4
 70
     1
 43
0.0
 10
880.1587875846985
 20
99.2142126936476
 10
880.1587875846985
 20
37.7142126936476
 10
879.6587875846981
 20
37.7142126936476
 10
879.6587875846981
 20
99.2142126936476
  0
CIRCLE
  5
1317
330
2
100
AcDbEntity
  8
0
 62
     0
 48
0.5
100
AcDbCircle
 10
954.6587875846983
 20
68.46421269364761
 30
0.0
 40
2.680000000000004
  0
CIRCLE
  5
1318
330
2
100
AcDbEntity
  8
0
 62
     4
 48
0.5
100
AcDbCircle
 10
954.6587875846983
 20
68.46421269364761
 30
0.0
 40
3.175000000000011
  0
CIRCLE
  5
1319
330
2
100
AcDbEntity
  8
0
 62
     0
 48
0.5
100
AcDbCircle
 10
919.6587875846983
 20
53.46421269364761
 30
0.0
 40
1.650000000000004
  0
CIRCLE
  5
131A
330
2
100
AcDbEntity
  8
0
 62
     4
 48
0.5
100
AcDbCircle
 10
919.6587875846983
 20
53.46421269364761
 30
0.0
 40
2.0
  0
CIRCLE
  5
131B
330
2
100
AcDbEntity
  8
0
 62
     0
 48
0.5
100
AcDbCircle
 10
919.6587875846983
 20
83.46421269364759
 30
0.0
 40
1.650000000000004
  0
CIRCLE
  5
131C
330
2
100
AcDbEntity
  8
0
 62
     4
 48
0.5
100
AcDbCircle
 10
919.6587875846983
 20
83.46421269364759
 30
0.0
 40
2.0
  0
CIRCLE
  5
131D
330
2
100
AcDbEntity
  8
0
 62
     0
 48
0.5
100
AcDbCircle
 10
989.6587875846986
 20
83.46421269364759
 30
0.0
 40
1.650000000000004
  0
CIRCLE
  5
131E
330
2
100
AcDbEntity
  8
0
 62
     4
 48
0.5
100
AcDbCircle
 10
989.6587875846986
 20
83.46421269364759
 30
0.0
 40
2.0
  0
CIRCLE
  5
131F
330
2
100
AcDbEntity
  8
0
 62
     0
 48
0.5
100
AcDbCircle
 10
989.6587875846986
 20
53.46421269364761
 30
0.0
 40
1.650000000000004
  0
CIRCLE
  5
1320
330
2
100
AcDbEntity
  8
0
 62
     4
 48
0.5
100
AcDbCircle
 10
989.6587875846986
 20
53.46421269364761
 30
0.0
 40
2.0
  0
LINE
  5
1321
330
2
100
AcDbEntity
  8
0
 62
     0
100
AcDbLine
 10
880.1587875846985
 20
93.46421269364759
 30
0.0
 11
1029.158787584698
 21
93.46421269364759
 31
0.0
  0
LINE
  5
1322
330
2
100
AcDbEntity
  8
0
 62
     0
100
AcDbLine
 10
1029.658787584698
 20
93.46421269364759
 30
0.0
 11
1033.658787584698
 21
93.46421269364759
 31
0.0
  0
LINE
  5
1323
330
2
100
AcDbEntity
  8
0
 62
     0
100
AcDbLine
 10
1033.658787584698
 20
88.46421269364759
 30
0.0
 11
1029.658787584698
 21
88.46421269364759
 31
0.0
  0
LINE
  5
1324
330
2
100
AcDbEntity
  8
0
 62
     0
100
AcDbLine
 10
1029.158787584698
 20
88.46421269364759
 30
0.0
 11
880.1587875846985
 21
88.46421269364759
 31
0.0
  0
LINE
  5
1325
330
2
100
AcDbEntity
  8
0
 62
     0
100
AcDbLine
 10
880.1587875846985
 20
43.4642126936476
 30
0.0
 11
1029.158787584698
 21
43.4642126936476
 31
0.0
  0
LINE
  5
1326
330
2
100
AcDbEntity
  8
0
 62
     0
100
AcDbLine
 10
1029.158787584698
 20
48.46421269364761
 30
0.0
 11
880.1587875846985
 21
48.46421269364761
 31
0.0
  0
LINE
  5
1327
330
2
100
AcDbEntity
  8
0
  6
CENTER
 62
     4
 48
2.0
100
AcDbLine
 10
915.6587875846986
 20
83.46421269364759
 30
0.0
 11
923.6587875846986
 21
83.46421269364759
 31
0.0
1001
GENIUS_GENOBJ-N-CEN_13
1002
{
1000
OWNER
1000
GEN
1002
}
1001
GENIUS_GENODEF_13
1002
{
1000
HIER
1070
     0
1002
}
1002
{
1000
MANEDIT
1070
     0
1002
}
1002
{
1000
NOSEL
1070
     0
1002
}
1002
{
1000
BEHIND
1070
     0
1002
}
1002
{
1000
OTHER
1070
     0
1002
}
1002
{
1000
REACTOR
1002
}
1001
GENIUS_GENCEN_19
1002
{
1040
3.0
1002
}
  0
LINE
  5
1328
330
2
100
AcDbEntity
  8
0
  6
CENTER
 62
     4
 48
2.0
100
AcDbLine
 10
919.6587875846983
 20
79.46421269364759
 30
0.0
 11
919.6587875846983
 21
87.46421269364759
 31
0.0
1001
GENIUS_GENODEF_13
1002
{
1000
HIER
1070
     0
1002
}
1002
{
1000
MANEDIT
1070
     0
1002
}
1002
{
1000
NOSEL
1070
     0
1002
}
1002
{
1000
BEHIND
1070
     0
1002
}
1002
{
1000
OTHER
1070
     0
1002
}
1002
{
1000
REACTOR
1002
}
1001
GENIUS_GENOBJ-N-CEN_13
1002
{
1000
OWNER
1000
GEN
1002
}
1001
GENIUS_GENCEN_19
1002
{
1040
3.0
1002
}
  0
LINE
  5
1329
330
2
100
AcDbEntity
  8
0
  6
CENTER
 62
     4
 48
2.0
100
AcDbLine
 10
985.6587875846983
 20
83.46421269364759
 30
0.0
 11
993.6587875846983
 21
83.46421269364759
 31
0.0
1001
GENIUS_GENOBJ-N-CEN_13
1002
{
1000
OWNER
1000
GEN
1002
}
1001
GENIUS_GENODEF_13
1002
{
1000
HIER
1070
     0
1002
}
1002
{
1000
MANEDIT
1070
     0
1002
}
1002
{
1000
NOSEL
1070
     0
1002
}
1002
{
1000
BEHIND
1070
     0
1002
}
1002
{
1000
OTHER
1070
     0
1002
}
1002
{
1000
REACTOR
1002
}
1001
GENIUS_GENCEN_19
1002
{
1040
3.0
1002
}
  0
LINE
  5
132A
330
2
100
AcDbEntity
  8
0
  6
CENTER
 62
     4
 48
2.0
100
AcDbLine
 10
989.6587875846986
 20
79.46421269364759
 30
0.0
 11
989.6587875846986
 21
87.46421269364759
 31
0.0
1001
GENIUS_GENODEF_13
1002
{
1000
HIER
1070
     0
1002
}
1002
{
1000
MANEDIT
1070
     0
1002
}
1002
{
1000
NOSEL
1070
     0
1002
}
1002
{
1000
BEHIND
1070
     0
1002
}
1002
{
1000
OTHER
1070
     0
1002
}
1002
{
1000
REACTOR
1002
}
1001
GENIUS_GENOBJ-N-CEN_13
1002
{
1000
OWNER
1000
GEN
1002
}
1001
GENIUS_GENCEN_19
1002
{
1040
3.0
1002
}
  0
LINE
  5
132B
330
2
100
AcDbEntity
  8
0
  6
CENTER
 62
     4
 48
2.0
100
AcDbLine
 10
915.6587875846986
 20
53.46421269364761
 30
0.0
 11
923.6587875846986
 21
53.46421269364761
 31
0.0
1001
GENIUS_GENOBJ-N-CEN_13
1002
{
1000
OWNER
1000
GEN
1002
}
1001
GENIUS_GENODEF_13
1002
{
1000
HIER
1070
     0
1002
}
1002
{
1000
MANEDIT
1070
     0
1002
}
1002
{
1000
NOSEL
1070
     0
1002
}
1002
{
1000
BEHIND
1070
     0
1002
}
1002
{
1000
OTHER
1070
     0
1002
}
1002
{
1000
REACTOR
1002
}
1001
GENIUS_GENCEN_19
1002
{
1040
3.0
1002
}
  0
LINE
  5
132C
330
2
100
AcDbEntity
  8
0
  6
CENTER
 62
     4
 48
2.0
100
AcDbLine
 10
919.6587875846983
 20
49.46421269364759
 30
0.0
 11
919.6587875846983
 21
57.46421269364759
 31
0.0
1001
GENIUS_GENODEF_13
1002
{
1000
HIER
1070
     0
1002
}
1002
{
1000
MANEDIT
1070
     0
1002
}
1002
{
1000
NOSEL
1070
     0
1002
}
1002
{
1000
BEHIND
1070
     0
1002
}
1002
{
1000
OTHER
1070
     0
1002
}
1002
{
1000
REACTOR
1002
}
1001
GENIUS_GENOBJ-N-CEN_13
1002
{
1000
OWNER
1000
GEN
1002
}
1001
GENIUS_GENCEN_19
1002
{
1040
3.0
1002
}
  0
LINE
  5
132D
330
2
100
AcDbEntity
  8
0
  6
CENTER
 62
     4
 48
2.0
100
AcDbLine
 10
985.6587875846983
 20
53.46421269364761
 30
0.0
 11
993.6587875846983
 21
53.46421269364761
 31
0.0
1001
GENIUS_GENOBJ-N-CEN_13
1002
{
1000
OWNER
1000
GEN
1002
}
1001
GENIUS_GENODEF_13
1002
{
1000
HIER
1070
     0
1002
}
1002
{
1000
MANEDIT
1070
     0
1002
}
1002
{
1000
NOSEL
1070
     0
1002
}
1002
{
1000
BEHIND
1070
     0
1002
}
1002
{
1000
OTHER
1070
     0
1002
}
1002
{
1000
REACTOR
1002
}
1001
GENIUS_GENCEN_19
1002
{
1040
3.0
1002
}
  0
LINE
  5
132E
330
2
100
AcDbEntity
  8
0
  6
CENTER
 62
     4
 48
2.0
100
AcDbLine
 10
989.6587875846986
 20
49.46421269364759
 30
0.0
 11
989.6587875846986
 21
57.46421269364759
 31
0.0
1001
GENIUS_GENODEF_13
1002
{
1000
HIER
1070
     0
1002
}
1002
{
1000
MANEDIT
1070
     0
1002
}
1002
{
1000
NOSEL
1070
     0
1002
}
1002
{
1000
BEHIND
1070
     0
1002
}
1002
{
1000
OTHER
1070
     0
1002
}
1002
{
1000
REACTOR
1002
}
1001
GENIUS_GENOBJ-N-CEN_13
1002
{
1000
OWNER
1000
GEN
1002
}
1001
GENIUS_GENCEN_19
1002
{
1040
3.0
1002
}
  0
LINE
  5
132F
330
2
100
AcDbEntity
  8
0
  6
CENTER
 62
     4
 48
2.0
100
AcDbLine
 10
954.6587875846983
 20
61.96421269364759
 30
0.0
 11
954.6587875846983
 21
74.96421269364759
 31
0.0
1001
GENIUS_GENODEF_13
1002
{
1000
HIER
1070
     0
1002
}
1002
{
1000
MANEDIT
1070
     0
1002
}
1002
{
1000
NOSEL
1070
     0
1002
}
1002
{
1000
BEHIND
1070
     0
1002
}
1002
{
1000
OTHER
1070
     0
1002
}
1002
{
1000
REACTOR
1002
}
1001
GENIUS_GENOBJ-N-CEN_13
1002
{
1000
OWNER
1000
GEN
1002
}
1001
GENIUS_GENCEN_19
1002
{
1040
3.0
1002
}
  0
LINE
  5
1330
330
2
100
AcDbEntity
  8
0
 62
     0
 48
0.5
100
AcDbLine
 10
860.6587875846985
 20
252.7142126936475
 30
0.0
 11
859.6587875846985
 21
251.7142126936476
 31
0.0
  0
LINE
  5
1331
330
2
100
AcDbEntity
  8
0
 62
     0
 48
0.5
100
AcDbLine
 10
864.6587875846986
 20
219.2142126936476
 30
0.0
 11
864.6587875846986
 21
252.7142126936475
 31
0.0
  0
LINE
  5
1332
330
2
100
AcDbEntity
  8
0
 62
     0
 48
0.5
100
AcDbLine
 10
864.6587875846986
 20
252.7142126936475
 30
0.0
 11
860.6587875846985
 21
252.7142126936475
 31
0.0
  0
LINE
  5
1333
330
2
100
AcDbEntity
  8
0
 62
     0
 48
0.5
100
AcDbLine
 10
859.6587875846985
 20
251.7142126936476
 30
0.0
 11
859.6587875846985
 21
220.2142126936476
 31
0.0
  0
LINE
  5
1334
330
2
100
AcDbEntity
  8
0
 62
     0
 48
0.5
100
AcDbLine
 10
860.6587875846985
 20
219.2142126936476
 30
0.0
 11
859.6587875846985
 21
220.2142126936476
 31
0.0
  0
LINE
  5
1335
330
2
100
AcDbEntity
  8
0
 62
     0
 48
0.5
100
AcDbLine
 10
864.6587875846986
 20
219.2142126936476
 30
0.0
 11
860.6587875846985
 21
219.2142126936476
 31
0.0
  0
LINE
  5
1336
330
2
100
AcDbEntity
  8
0
 62
     0
100
AcDbLine
 10
860.6587875846985
 20
252.7142126936475
 30
0.0
 11
860.6587875846985
 21
219.2142126936476
 31
0.0
  0
LINE
  5
1337
330
2
100
AcDbEntity
  8
0
 62
     0
 48
0.5
100
AcDbLine
 10
860.6587875846985
 20
197.7142126936475
 30
0.0
 11
859.6587875846985
 21
196.7142126936476
 31
0.0
  0
LINE
  5
1338
330
2
100
AcDbEntity
  8
0
 62
     0
 48
0.5
100
AcDbLine
 10
864.6587875846986
 20
164.2142126936476
 30
0.0
 11
864.6587875846986
 21
197.7142126936475
 31
0.0
  0
LINE
  5
1339
330
2
100
AcDbEntity
  8
0
 62
     0
 48
0.5
100
AcDbLine
 10
864.6587875846986
 20
197.7142126936475
 30
0.0
 11
860.6587875846985
 21
197.7142126936475
 31
0.0
  0
LINE
  5
133A
330
2
100
AcDbEntity
  8
0
 62
     0
 48
0.5
100
AcDbLine
 10
859.6587875846985
 20
196.7142126936476
 30
0.0
 11
859.6587875846985
 21
165.2142126936476
 31
0.0
  0
LINE
  5
133B
330
2
100
AcDbEntity
  8
0
 62
     0
 48
0.5
100
AcDbLine
 10
860.6587875846985
 20
164.2142126936476
 30
0.0
 11
859.6587875846985
 21
165.2142126936476
 31
0.0
  0
LINE
  5
133C
330
2
100
AcDbEntity
  8
0
 62
     0
 48
0.5
100
AcDbLine
 10
864.6587875846986
 20
164.2142126936476
 30
0.0
 11
860.6587875846985
 21
164.2142126936476
 31
0.0
  0
LINE
  5
133D
330
2
100
AcDbEntity
  8
0
 62
     0
100
AcDbLine
 10
860.6587875846985
 20
197.7142126936475
 30
0.0
 11
860.6587875846985
 21
164.2142126936476
 31
0.0
  0
LINE
  5
133E
330
2
100
AcDbEntity
  8
0
 62
     0
 48
0.5
100
AcDbLine
 10
860.6587875846985
 20
85.21421269364759
 30
0.0
 11
859.6587875846985
 21
84.2142126936476
 31
0.0
  0
LINE
  5
133F
330
2
100
AcDbEntity
  8
0
 62
     0
 48
0.5
100
AcDbLine
 10
864.6587875846986
 20
51.7142126936476
 30
0.0
 11
864.6587875846986
 21
85.21421269364759
 31
0.0
  0
LINE
  5
1340
330
2
100
AcDbEntity
  8
0
 62
     0
 48
0.5
100
AcDbLine
 10
864.6587875846986
 20
85.21421269364759
 30
0.0
 11
860.6587875846985
 21
85.21421269364759
 31
0.0
  0
LINE
  5
1341
330
2
100
AcDbEntity
  8
0
 62
     0
 48
0.5
100
AcDbLine
 10
859.6587875846985
 20
84.2142126936476
 30
0.0
 11
859.6587875846985
 21
52.71421269364759
 31
0.0
  0
LINE
  5
1342
330
2
100
AcDbEntity
  8
0
 62
     0
 48
0.5
100
AcDbLine
 10
860.6587875846985
 20
51.7142126936476
 30
0.0
 11
859.6587875846985
 21
52.71421269364759
 31
0.0
  0
LINE
  5
1343
330
2
100
AcDbEntity
  8
0
 62
     0
 48
0.5
100
AcDbLine
 10
864.6587875846986
 20
51.7142126936476
 30
0.0
 11
860.6587875846985
 21
51.7142126936476
 31
0.0
  0
LINE
  5
1344
330
2
100
AcDbEntity
  8
0
 62
     0
100
AcDbLine
 10
860.6587875846985
 20
85.21421269364759
 30
0.0
 11
860.6587875846985
 21
51.7142126936476
 31
0.0
  0
LINE
  5
1345
330
2
100
AcDbEntity
  8
0
 62
     0
100
AcDbLine
 10
1036.658787584698
 20
165.4642126936473
 30
0.0
 11
1034.158787584698
 21
165.4642126936473
 31
0.0
  0
LINE
  5
1346
330
2
100
AcDbEntity
  8
0
 62
     0
100
AcDbLine
 10
1034.658787584698
 20
133.0642126936475
 30
0.0
 11
1034.658787584698
 21
165.4642126936473
 31
0.0
  0
LINE
  5
1347
330
2
100
AcDbEntity
  8
0
 62
     0
 48
0.2
100
AcDbLine
 10
1034.158787584698
 20
266.7142126936476
 30
0.0
 11
1034.658787584698
 21
266.7142126936476
 31
0.0
  0
LINE
  5
1348
330
2
100
AcDbEntity
  8
0
 62
     0
 48
0.2
100
AcDbLine
 10
1034.158787584698
 20
205.214212693648
 30
0.0
 11
1034.658787584698
 21
205.214212693648
 31
0.0
  0
CIRCLE
  5
1349
330
2
100
AcDbEntity
  8
0
 62
     0
 48
0.5
100
AcDbCircle
 10
887.1587875846985
 20
55.96421269364761
 30
0.0
 40
1.650000000000004
  0
CIRCLE
  5
134A
330
2
100
AcDbEntity
  8
0
 62
     4
 48
0.5
100
AcDbCircle
 10
887.1587875846985
 20
55.96421269364761
 30
0.0
 40
2.0
  0
CIRCLE
  5
134B
330
2
100
AcDbEntity
  8
0
 62
     0
 48
0.5
100
AcDbCircle
 10
887.1587875846985
 20
80.96421269364759
 30
0.0
 40
1.650000000000004
  0
CIRCLE
  5
134C
330
2
100
AcDbEntity
  8
0
 62
     4
 48
0.5
100
AcDbCircle
 10
887.1587875846985
 20
80.96421269364759
 30
0.0
 40
2.0
  0
CIRCLE
  5
134D
330
2
100
AcDbEntity
  8
0
 62
     0
 48
0.5
100
AcDbCircle
 10
1022.158787584698
 20
80.96421269364759
 30
0.0
 40
1.650000000000004
  0
CIRCLE
  5
134E
330
2
100
AcDbEntity
  8
0
 62
     4
 48
0.5
100
AcDbCircle
 10
1022.158787584698
 20
80.96421269364759
 30
0.0
 40
2.0
  0
CIRCLE
  5
134F
330
2
100
AcDbEntity
  8
0
 62
     0
 48
0.5
100
AcDbCircle
 10
1022.158787584698
 20
55.96421269364761
 30
0.0
 40
1.650000000000004
  0
CIRCLE
  5
1350
330
2
100
AcDbEntity
  8
0
 62
     4
 48
0.5
100
AcDbCircle
 10
1022.158787584698
 20
55.96421269364761
 30
0.0
 40
2.0
  0
LINE
  5
1351
330
2
100
AcDbEntity
  8
0
 62
     0
100
AcDbLine
 10
1065.658787584698
 20
165.4642126936476
 30
0.0
 11
1127.658787584698
 21
165.4642126936476
 31
0.0
  0
LINE
  5
1352
330
2
100
AcDbEntity
  8
0
  6
CENTER
 62
     4
 48
2.0
100
AcDbLine
 10
883.1587875846985
 20
80.96421269364759
 30
0.0
 11
891.1587875846985
 21
80.96421269364759
 31
0.0
1001
GENIUS_GENODEF_13
1002
{
1000
HIER
1070
     0
1002
}
1002
{
1000
MANEDIT
1070
     0
1002
}
1002
{
1000
NOSEL
1070
     0
1002
}
1002
{
1000
BEHIND
1070
     0
1002
}
1002
{
1000
OTHER
1070
     0
1002
}
1002
{
1000
REACTOR
1002
}
1001
GENIUS_GENOBJ-N-CEN_13
1002
{
1000
OWNER
1000
GEN
1002
}
1001
GENIUS_GENCEN_19
1002
{
1040
3.0
1002
}
  0
LINE
  5
1353
330
2
100
AcDbEntity
  8
0
  6
CENTER
 62
     4
 48
2.0
100
AcDbLine
 10
887.1587875846985
 20
76.96421269364759
 30
0.0
 11
887.1587875846985
 21
84.96421269364759
 31
0.0
1001
GENIUS_GENODEF_13
1002
{
1000
HIER
1070
     0
1002
}
1002
{
1000
MANEDIT
1070
     0
1002
}
1002
{
1000
NOSEL
1070
     0
1002
}
1002
{
1000
BEHIND
1070
     0
1002
}
1002
{
1000
OTHER
1070
     0
1002
}
1002
{
1000
REACTOR
1002
}
1001
GENIUS_GENOBJ-N-CEN_13
1002
{
1000
OWNER
1000
GEN
1002
}
1001
GENIUS_GENCEN_19
1002
{
1040
3.0
1002
}
  0
LINE
  5
1354
330
2
100
AcDbEntity
  8
0
  6
CENTER
 62
     4
 48
2.0
100
AcDbLine
 10
883.1587875846985
 20
55.96421269364761
 30
0.0
 11
891.1587875846985
 21
55.96421269364761
 31
0.0
1001
GENIUS_GENODEF_13
1002
{
1000
HIER
1070
     0
1002
}
1002
{
1000
MANEDIT
1070
     0
1002
}
1002
{
1000
NOSEL
1070
     0
1002
}
1002
{
1000
BEHIND
1070
     0
1002
}
1002
{
1000
OTHER
1070
     0
1002
}
1002
{
1000
REACTOR
1002
}
1001
GENIUS_GENOBJ-N-CEN_13
1002
{
1000
OWNER
1000
GEN
1002
}
1001
GENIUS_GENCEN_19
1002
{
1040
3.0
1002
}
  0
LINE
  5
1355
330
2
100
AcDbEntity
  8
0
  6
CENTER
 62
     4
 48
2.0
100
AcDbLine
 10
887.1587875846985
 20
59.96421269364759
 30
0.0
 11
887.1587875846985
 21
51.96421269364759
 31
0.0
1001
GENIUS_GENODEF_13
1002
{
1000
HIER
1070
     0
1002
}
1002
{
1000
MANEDIT
1070
     0
1002
}
1002
{
1000
NOSEL
1070
     0
1002
}
1002
{
1000
BEHIND
1070
     0
1002
}
1002
{
1000
OTHER
1070
     0
1002
}
1002
{
1000
REACTOR
1002
}
1001
GENIUS_GENOBJ-N-CEN_13
1002
{
1000
OWNER
1000
GEN
1002
}
1001
GENIUS_GENCEN_19
1002
{
1040
3.0
1002
}
  0
LINE
  5
1356
330
2
100
AcDbEntity
  8
0
  6
CENTER
 62
     4
 48
2.0
100
AcDbLine
 10
1026.158787584698
 20
80.96421269364759
 30
0.0
 11
1018.158787584698
 21
80.96421269364759
 31
0.0
1001
GENIUS_GENODEF_13
1002
{
1000
HIER
1070
     0
1002
}
1002
{
1000
MANEDIT
1070
     0
1002
}
1002
{
1000
NOSEL
1070
     0
1002
}
1002
{
1000
BEHIND
1070
     0
1002
}
1002
{
1000
OTHER
1070
     0
1002
}
1002
{
1000
REACTOR
1002
}
1001
GENIUS_GENOBJ-N-CEN_13
1002
{
1000
OWNER
1000
GEN
1002
}
1001
GENIUS_GENCEN_19
1002
{
1040
3.0
1002
}
  0
LINE
  5
1357
330
2
100
AcDbEntity
  8
0
  6
CENTER
 62
     4
 48
2.0
100
AcDbLine
 10
1022.158787584698
 20
76.96421269364759
 30
0.0
 11
1022.158787584698
 21
84.96421269364759
 31
0.0
1001
GENIUS_GENODEF_13
1002
{
1000
HIER
1070
     0
1002
}
1002
{
1000
MANEDIT
1070
     0
1002
}
1002
{
1000
NOSEL
1070
     0
1002
}
1002
{
1000
BEHIND
1070
     0
1002
}
1002
{
1000
OTHER
1070
     0
1002
}
1002
{
1000
REACTOR
1002
}
1001
GENIUS_GENOBJ-N-CEN_13
1002
{
1000
OWNER
1000
GEN
1002
}
1001
GENIUS_GENCEN_19
1002
{
1040
3.0
1002
}
  0
LINE
  5
1358
330
2
100
AcDbEntity
  8
0
  6
CENTER
 62
     4
 48
2.0
100
AcDbLine
 10
1026.158787584698
 20
55.96421269364761
 30
0.0
 11
1018.158787584698
 21
55.96421269364761
 31
0.0
1001
GENIUS_GENODEF_13
1002
{
1000
HIER
1070
     0
1002
}
1002
{
1000
MANEDIT
1070
     0
1002
}
1002
{
1000
NOSEL
1070
     0
1002
}
1002
{
1000
BEHIND
1070
     0
1002
}
1002
{
1000
OTHER
1070
     0
1002
}
1002
{
1000
REACTOR
1002
}
1001
GENIUS_GENOBJ-N-CEN_13
1002
{
1000
OWNER
1000
GEN
1002
}
1001
GENIUS_GENCEN_19
1002
{
1040
3.0
1002
}
  0
LINE
  5
1359
330
2
100
AcDbEntity
  8
0
  6
CENTER
 62
     4
 48
2.0
100
AcDbLine
 10
1022.158787584698
 20
59.96421269364759
 30
0.0
 11
1022.158787584698
 21
51.96421269364759
 31
0.0
1001
GENIUS_GENODEF_13
1002
{
1000
HIER
1070
     0
1002
}
1002
{
1000
MANEDIT
1070
     0
1002
}
1002
{
1000
NOSEL
1070
     0
1002
}
1002
{
1000
BEHIND
1070
     0
1002
}
1002
{
1000
OTHER
1070
     0
1002
}
1002
{
1000
REACTOR
1002
}
1001
GENIUS_GENOBJ-N-CEN_13
1002
{
1000
OWNER
1000
GEN
1002
}
1001
GENIUS_GENCEN_19
1002
{
1040
3.0
1002
}
  0
LINE
  5
135A
330
2
100
AcDbEntity
  8
0
  6
CENTER
 62
     4
 48
2.0
100
AcDbLine
 10
877.1587875846986
 20
232.4642126936476
 30
0.0
 11
877.1587875846986
 21
239.4642126936476
 31
0.0
1001
GENIUS_GENODEF_13
1002
{
1000
HIER
1070
     0
1002
}
1002
{
1000
MANEDIT
1070
     0
1002
}
1002
{
1000
NOSEL
1070
     0
1002
}
1002
{
1000
BEHIND
1070
     0
1002
}
1002
{
1000
OTHER
1070
     0
1002
}
1002
{
1000
REACTOR
1002
}
1001
GENIUS_GENOBJ-N-CEN_13
1002
{
1000
OWNER
1000
GEN
1002
}
1001
GENIUS_GENCEN_19
1002
{
1040
3.0
1002
}
  0
LWPOLYLINE
  5
135B
330
2
100
AcDbEntity
  8
0
 62
     0
100
AcDbPolyline
 90
        4
 70
     1
 43
0.0
 10
1033.658787584698
 20
133.0642126936475
 10
1034.158787584698
 20
133.0642126936475
 10
1034.158787584698
 20
126.264212693648
 10
1033.658787584698
 20
126.264212693648
  0
LINE
  5
135C
330
2
100
AcDbEntity
  8
0
 62
     0
100
AcDbLine
 10
1036.458787584698
 20
130.2642126936478
 30
0.0
 11
1035.825630226837
 21
129.7297489740715
 31
0.0
  0
LINE
  5
135D
330
2
100
AcDbEntity
  8
0
 62
     0
100
AcDbLine
 10
1035.058787584698
 20
130.1692673328282
 30
0.0
 11
1034.558787584698
 21
129.8673207287008
 31
0.0
  0
LWPOLYLINE
  5
135E
330
2
100
AcDbEntity
  8
0
 62
     0
100
AcDbPolyline
 90
        6
 70
     1
 43
0.0
 10
1036.458787584698
 20
131.0142126936473
 10
1036.458787584698
 20
129.5142126936478
 42
-0.4142135623730951
 10
1035.458787584698
 20
128.5142126936477
 10
1035.058787584698
 20
128.5142126936477
 10
1035.058787584698
 20
132.0142126936477
 10
1035.458787584698
 20
132.0142126936473
 42
-0.4142135623730951
  0
LWPOLYLINE
  5
135F
330
2
100
AcDbEntity
  8
0
 62
     0
100
AcDbPolyline
 90
        4
 70
     1
 43
0.0
 10
1034.158787584698
 20
132.2642126936478
 10
1034.158787584698
 20
128.2642126936478
 10
1034.558787584698
 20
128.2642126936478
 10
1034.558787584698
 20
132.2642126936478
  0
LINE
  5
1360
330
2
100
AcDbEntity
  8
0
 62
     0
100
AcDbLine
 10
1034.558787584698
 20
132.0142126936477
 30
0.0
 11
1034.558787584698
 21
128.5142126936477
 31
0.0
  0
LINE
  5
1361
330
2
100
AcDbEntity
  8
0
 62
     0
100
AcDbLine
 10
1034.558787584698
 20
128.5142126936477
 30
0.0
 11
1035.058787584698
 21
128.5142126936477
 31
0.0
  0
LINE
  5
1362
330
2
100
AcDbEntity
  8
0
 62
     0
100
AcDbLine
 10
1035.058787584698
 20
128.5142126936477
 30
0.0
 11
1035.058787584698
 21
132.0142126936477
 31
0.0
  0
LINE
  5
1363
330
2
100
AcDbEntity
  8
0
 62
     0
100
AcDbLine
 10
1035.058787584698
 20
132.0142126936477
 30
0.0
 11
1034.558787584698
 21
132.0142126936477
 31
0.0
  0
LINE
  5
1364
330
2
100
AcDbEntity
  8
0
 62
     0
100
AcDbLine
 10
1036.458787584698
 20
130.2642126936478
 30
0.0
 11
1035.825630226837
 21
130.798676413224
 31
0.0
  0
LINE
  5
1365
330
2
100
AcDbEntity
  8
0
 62
     0
100
AcDbLine
 10
1035.058787584698
 20
130.7533664269415
 30
0.0
 11
1034.558787584698
 21
130.4514198228141
 31
0.0
  0
LINE
  5
1366
330
2
100
AcDbEntity
  8
0
 62
     0
100
AcDbLine
 10
1034.158787584698
 20
131.2642126936478
 30
0.0
 11
1034.158787584698
 21
129.2642126936478
 31
0.0
  0
CIRCLE
  5
1367
330
2
100
AcDbEntity
  8
0
 62
     0
100
AcDbCircle
 10
1096.658787584698
 20
180.9642126936444
 30
0.0
 40
8.75
  0
LINE
  5
1368
330
2
100
AcDbEntity
  8
0
 62
     0
100
AcDbLine
 10
1033.658787584698
 20
44.55154677763561
 30
0.0
 11
1034.158787584698
 21
44.5515467776347
 31
0.0
  0
LINE
  5
1369
330
2
100
AcDbEntity
  8
0
 62
     0
100
AcDbLine
 10
1033.658787584698
 20
92.37687860965955
 30
0.0
 11
1034.158787584698
 21
92.37687860965955
 31
0.0
  0
LINE
  5
136A
330
2
100
AcDbEntity
  8
0
 62
     0
 48
0.2
100
AcDbLine
 10
1033.658787584698
 20
92.37687860966049
 30
0.0
 11
1033.658787584698
 21
43.4642126936476
 31
0.0
  0
LINE
  5
136B
330
2
100
AcDbEntity
  8
0
 62
     0
 48
0.2
100
AcDbLine
 10
1034.158787584698
 20
92.37687860966049
 30
0.0
 11
1034.158787584698
 21
44.5515467776347
 31
0.0
  0
LINE
  5
136C
330
2
100
AcDbEntity
  8
0
 62
     0
100
AcDbLine
 10
1036.458787584698
 20
88.46421269364441
 30
0.0
 11
1035.825630226837
 21
87.92974897406816
 31
0.0
  0
LINE
  5
136D
330
2
100
AcDbEntity
  8
0
 62
     0
100
AcDbLine
 10
1035.058787584698
 20
88.36926733282485
 30
0.0
 11
1034.558787584698
 21
88.06732072869749
 31
0.0
  0
LWPOLYLINE
  5
136E
330
2
100
AcDbEntity
  8
0
 62
     0
100
AcDbPolyline
 90
        6
 70
     1
 43
0.0
 10
1036.458787584698
 20
89.21421269364396
 10
1036.458787584698
 20
87.71421269364441
 42
-0.4142135623730951
 10
1035.458787584698
 20
86.71421269364442
 10
1035.058787584698
 20
86.71421269364442
 10
1035.058787584698
 20
90.21421269364441
 10
1035.458787584698
 20
90.21421269364395
 42
-0.4142135623730951
  0
LWPOLYLINE
  5
136F
330
2
100
AcDbEntity
  8
0
 62
     0
100
AcDbPolyline
 90
        4
 70
     1
 43
0.0
 10
1034.158787584698
 20
90.46421269364442
 10
1034.158787584698
 20
86.46421269364441
 10
1034.558787584698
 20
86.46421269364441
 10
1034.558787584698
 20
90.46421269364442
  0
LINE
  5
1370
330
2
100
AcDbEntity
  8
0
 62
     0
100
AcDbLine
 10
1034.558787584698
 20
90.21421269364441
 30
0.0
 11
1034.558787584698
 21
86.71421269364442
 31
0.0
  0
LINE
  5
1371
330
2
100
AcDbEntity
  8
0
 62
     0
100
AcDbLine
 10
1034.558787584698
 20
86.71421269364442
 30
0.0
 11
1035.058787584698
 21
86.71421269364442
 31
0.0
  0
LINE
  5
1372
330
2
100
AcDbEntity
  8
0
 62
     0
100
AcDbLine
 10
1035.058787584698
 20
86.71421269364442
 30
0.0
 11
1035.058787584698
 21
90.21421269364441
 31
0.0
  0
LINE
  5
1373
330
2
100
AcDbEntity
  8
0
 62
     0
100
AcDbLine
 10
1035.058787584698
 20
90.21421269364441
 30
0.0
 11
1034.558787584698
 21
90.21421269364441
 31
0.0
  0
LINE
  5
1374
330
2
100
AcDbEntity
  8
0
 62
     0
100
AcDbLine
 10
1036.458787584698
 20
88.46421269364441
 30
0.0
 11
1035.825630226837
 21
88.99867641322066
 31
0.0
  0
LINE
  5
1375
330
2
100
AcDbEntity
  8
0
 62
     0
100
AcDbLine
 10
1035.058787584698
 20
88.95336642693813
 30
0.0
 11
1034.558787584698
 21
88.6514198228108
 31
0.0
  0
LINE
  5
1376
330
2
100
AcDbEntity
  8
0
 62
     0
100
AcDbLine
 10
1034.158787584698
 20
89.4642126936444
 30
0.0
 11
1034.158787584698
 21
87.46421269364441
 31
0.0
  0
LINE
  5
1377
330
2
100
AcDbEntity
  8
0
 62
     0
100
AcDbLine
 10
1036.458787584698
 20
48.46421269364441
 30
0.0
 11
1035.825630226837
 21
47.92974897406814
 31
0.0
  0
LINE
  5
1378
330
2
100
AcDbEntity
  8
0
 62
     0
100
AcDbLine
 10
1035.058787584698
 20
48.36926733282485
 30
0.0
 11
1034.558787584698
 21
48.06732072869749
 31
0.0
  0
LWPOLYLINE
  5
1379
330
2
100
AcDbEntity
  8
0
 62
     0
100
AcDbPolyline
 90
        6
 70
     1
 43
0.0
 10
1036.458787584698
 20
49.21421269364396
 10
1036.458787584698
 20
47.71421269364441
 42
-0.4142135623730951
 10
1035.458787584698
 20
46.71421269364439
 10
1035.058787584698
 20
46.71421269364439
 10
1035.058787584698
 20
50.21421269364441
 10
1035.458787584698
 20
50.21421269364395
 42
-0.4142135623730951
  0
LWPOLYLINE
  5
137A
330
2
100
AcDbEntity
  8
0
 62
     0
100
AcDbPolyline
 90
        4
 70
     1
 43
0.0
 10
1034.158787584698
 20
50.4642126936444
 10
1034.158787584698
 20
46.46421269364441
 10
1034.558787584698
 20
46.46421269364441
 10
1034.558787584698
 20
50.4642126936444
  0
LINE
  5
137B
330
2
100
AcDbEntity
  8
0
 62
     0
100
AcDbLine
 10
1034.558787584698
 20
50.21421269364441
 30
0.0
 11
1034.558787584698
 21
46.71421269364439
 31
0.0
  0
LINE
  5
137C
330
2
100
AcDbEntity
  8
0
 62
     0
100
AcDbLine
 10
1034.558787584698
 20
46.71421269364439
 30
0.0
 11
1035.058787584698
 21
46.71421269364439
 31
0.0
  0
LINE
  5
137D
330
2
100
AcDbEntity
  8
0
 62
     0
100
AcDbLine
 10
1035.058787584698
 20
46.71421269364439
 30
0.0
 11
1035.058787584698
 21
50.21421269364441
 31
0.0
  0
LINE
  5
137E
330
2
100
AcDbEntity
  8
0
 62
     0
100
AcDbLine
 10
1035.058787584698
 20
50.21421269364441
 30
0.0
 11
1034.558787584698
 21
50.21421269364441
 31
0.0
  0
LINE
  5
137F
330
2
100
AcDbEntity
  8
0
 62
     0
100
AcDbLine
 10
1036.458787584698
 20
48.46421269364441
 30
0.0
 11
1035.825630226837
 21
48.99867641322064
 31
0.0
  0
LINE
  5
1380
330
2
100
AcDbEntity
  8
0
 62
     0
100
AcDbLine
 10
1035.058787584698
 20
48.95336642693814
 30
0.0
 11
1034.558787584698
 21
48.65141982281079
 31
0.0
  0
LINE
  5
1381
330
2
100
AcDbEntity
  8
0
 62
     0
100
AcDbLine
 10
1029.658787584698
 20
49.4642126936444
 30
0.0
 11
1029.658787584698
 21
47.46421269364439
 31
0.0
  0
LINE
  5
1382
330
2
100
AcDbEntity
  8
0
 62
     0
 48
0.0351
100
AcDbLine
 10
1095.452231959698
 20
191.7142126936473
 30
0.0
 11
1097.865343209698
 21
191.7142126936473
 31
0.0
  0
LINE
  5
1383
330
2
100
AcDbEntity
  8
0
 62
     0
 48
0.005062
100
AcDbLine
 10
1097.865343209698
 20
191.7142126936473
 30
0.0
 11
1097.865343209698
 21
192.0622595686475
 31
0.0
  0
LINE
  5
1384
330
2
100
AcDbEntity
  8
0
 62
     0
 48
0.00945
100
AcDbLine
 10
1097.865343209698
 20
192.0622595686475
 30
0.0
 11
1097.215671178447
 21
192.0622595686475
 31
0.0
  0
LINE
  5
1385
330
2
100
AcDbEntity
  8
0
 62
     0
 48
0.03375
100
AcDbLine
 10
1097.215671178447
 20
192.0622595686475
 30
0.0
 11
1097.215671178447
 21
194.3825823811473
 31
0.0
  0
LINE
  5
1386
330
2
100
AcDbEntity
  8
0
 62
     0
 48
0.00945
100
AcDbLine
 10
1097.215671178447
 20
194.3825823811473
 30
0.0
 11
1097.865343209698
 21
194.3825823811473
 31
0.0
  0
LINE
  5
1387
330
2
100
AcDbEntity
  8
0
 62
     0
 48
0.005062
100
AcDbLine
 10
1097.865343209698
 20
194.3825823811473
 30
0.0
 11
1097.865343209698
 21
194.7306275373973
 31
0.0
  0
LINE
  5
1388
330
2
100
AcDbEntity
  8
0
 62
     0
 48
0.0351
100
AcDbLine
 10
1097.865343209698
 20
194.7306275373973
 30
0.0
 11
1095.452231959698
 21
194.7306275373973
 31
0.0
  0
LINE
  5
1389
330
2
100
AcDbEntity
  8
0
 62
     0
 48
0.005062
100
AcDbLine
 10
1095.452231959698
 20
194.7306275373973
 30
0.0
 11
1095.452231959698
 21
194.3825823811473
 31
0.0
  0
LINE
  5
138A
330
2
100
AcDbEntity
  8
0
 62
     0
 48
0.00945
100
AcDbLine
 10
1095.452231959698
 20
194.3825823811473
 30
0.0
 11
1096.101903990948
 21
194.3825823811473
 31
0.0
  0
LINE
  5
138B
330
2
100
AcDbEntity
  8
0
 62
     0
 48
0.03375
100
AcDbLine
 10
1096.101903990948
 20
194.3825823811473
 30
0.0
 11
1096.101903990948
 21
192.0622595686475
 31
0.0
  0
LINE
  5
138C
330
2
100
AcDbEntity
  8
0
 62
     0
 48
0.00945
100
AcDbLine
 10
1096.101903990948
 20
192.0622595686475
 30
0.0
 11
1095.452231959698
 21
192.0622595686475
 31
0.0
  0
LINE
  5
138D
330
2
100
AcDbEntity
  8
0
 62
     0
 48
0.005062
100
AcDbLine
 10
1095.452231959698
 20
192.0622595686475
 30
0.0
 11
1095.452231959698
 21
191.7142126936473
 31
0.0
  0
LINE
  5
138E
330
2
100
AcDbEntity
  8
0
 62
     0
 48
0.005062
100
AcDbLine
 10
1094.292070553449
 20
191.7142126936473
 30
0.0
 11
1094.292070553449
 21
192.0622595686475
 31
0.0
  0
LINE
  5
138F
330
2
100
AcDbEntity
  8
0
 62
     0
 48
0.00945
100
AcDbLine
 10
1094.292070553449
 20
192.0622595686475
 30
0.0
 11
1093.64237274095
 21
192.0622595686475
 31
0.0
  0
LINE
  5
1390
330
2
100
AcDbEntity
  8
0
 62
     0
 48
0.03375
100
AcDbLine
 10
1093.64237274095
 20
192.0622595686475
 30
0.0
 11
1093.64237274095
 21
194.3825823811473
 31
0.0
  0
LINE
  5
1391
330
2
100
AcDbEntity
  8
0
 62
     0
 48
0.00945
100
AcDbLine
 10
1093.64237274095
 20
194.3825823811473
 30
0.0
 11
1094.292070553449
 21
194.3825823811473
 31
0.0
  0
LINE
  5
1392
330
2
100
AcDbEntity
  8
0
 62
     0
 48
0.005062
100
AcDbLine
 10
1094.292070553449
 20
194.3825823811473
 30
0.0
 11
1094.292070553449
 21
194.7306275373973
 31
0.0
  0
LINE
  5
1393
330
2
100
AcDbEntity
  8
0
 62
     0
 48
0.03375
100
AcDbLine
 10
1094.292070553449
 20
194.7306275373973
 30
0.0
 11
1091.971747740947
 21
194.7306275373973
 31
0.0
  0
LINE
  5
1394
330
2
100
AcDbEntity
  8
0
 62
     0
 48
0.005062
100
AcDbLine
 10
1091.971747740947
 20
194.7306275373973
 30
0.0
 11
1091.971747740947
 21
194.3825823811473
 31
0.0
  0
LINE
  5
1395
330
2
100
AcDbEntity
  8
0
 62
     0
 48
0.00945
100
AcDbLine
 10
1091.971747740947
 20
194.3825823811473
 30
0.0
 11
1092.621445553447
 21
194.3825823811473
 31
0.0
  0
LINE
  5
1396
330
2
100
AcDbEntity
  8
0
 62
     0
 48
0.012825
100
AcDbLine
 10
1092.621445553447
 20
194.3825823811473
 30
0.0
 11
1092.621445553447
 21
193.5008619123973
 31
0.0
  0
LINE
  5
1397
330
2
100
AcDbEntity
  8
0
 62
     0
 48
0.0324
100
AcDbLine
 10
1092.621445553447
 20
193.5008619123973
 30
0.0
 11
1090.393935240947
 21
193.5008619123973
 31
0.0
  0
LINE
  5
1398
330
2
100
AcDbEntity
  8
0
 62
     0
 48
0.012825
100
AcDbLine
 10
1090.393935240947
 20
193.5008619123973
 30
0.0
 11
1090.393935240947
 21
194.3825823811473
 31
0.0
  0
LINE
  5
1399
330
2
100
AcDbEntity
  8
0
 62
     0
 48
0.00945
100
AcDbLine
 10
1090.393935240947
 20
194.3825823811473
 30
0.0
 11
1091.043633053449
 21
194.3825823811473
 31
0.0
  0
LINE
  5
139A
330
2
100
AcDbEntity
  8
0
 62
     0
 48
0.005062
100
AcDbLine
 10
1091.043633053449
 20
194.3825823811473
 30
0.0
 11
1091.043633053449
 21
194.7306275373973
 31
0.0
  0
LINE
  5
139B
330
2
100
AcDbEntity
  8
0
 62
     0
 48
0.03375
100
AcDbLine
 10
1091.043633053449
 20
194.7306275373973
 30
0.0
 11
1088.723310240949
 21
194.7306275373973
 31
0.0
  0
LINE
  5
139C
330
2
100
AcDbEntity
  8
0
 62
     0
 48
0.005062
100
AcDbLine
 10
1088.723310240949
 20
194.7306275373973
 30
0.0
 11
1088.723310240949
 21
194.3825823811473
 31
0.0
  0
LINE
  5
139D
330
2
100
AcDbEntity
  8
0
 62
     0
 48
0.00945
100
AcDbLine
 10
1088.723310240949
 20
194.3825823811473
 30
0.0
 11
1089.373008053448
 21
194.3825823811473
 31
0.0
  0
LINE
  5
139E
330
2
100
AcDbEntity
  8
0
 62
     0
 48
0.03375
100
AcDbLine
 10
1089.373008053448
 20
194.3825823811473
 30
0.0
 11
1089.373008053448
 21
192.0622595686475
 31
0.0
  0
LINE
  5
139F
330
2
100
AcDbEntity
  8
0
 62
     0
 48
0.00945
100
AcDbLine
 10
1089.373008053448
 20
192.0622595686475
 30
0.0
 11
1088.723310240949
 21
192.0622595686475
 31
0.0
  0
LINE
  5
13A0
330
2
100
AcDbEntity
  8
0
 62
     0
 48
0.005062
100
AcDbLine
 10
1088.723310240949
 20
192.0622595686475
 30
0.0
 11
1088.723310240949
 21
191.7142126936473
 31
0.0
  0
LINE
  5
13A1
330
2
100
AcDbEntity
  8
0
 62
     0
 48
0.03375
100
AcDbLine
 10
1088.723310240949
 20
191.7142126936473
 30
0.0
 11
1091.043633053449
 21
191.7142126936473
 31
0.0
  0
LINE
  5
13A2
330
2
100
AcDbEntity
  8
0
 62
     0
 48
0.005062
100
AcDbLine
 10
1091.043633053449
 20
191.7142126936473
 30
0.0
 11
1091.043633053449
 21
192.0622595686475
 31
0.0
  0
LINE
  5
13A3
330
2
100
AcDbEntity
  8
0
 62
     0
 48
0.00945
100
AcDbLine
 10
1091.043633053449
 20
192.0622595686475
 30
0.0
 11
1090.393935240947
 21
192.0622595686475
 31
0.0
  0
LINE
  5
13A4
330
2
100
AcDbEntity
  8
0
 62
     0
 48
0.012825
100
AcDbLine
 10
1090.393935240947
 20
192.0622595686475
 30
0.0
 11
1090.393935240947
 21
192.9439783186472
 31
0.0
  0
LINE
  5
13A5
330
2
100
AcDbEntity
  8
0
 62
     0
 48
0.0324
100
AcDbLine
 10
1090.393935240947
 20
192.9439783186472
 30
0.0
 11
1092.621445553447
 21
192.9439783186472
 31
0.0
  0
LINE
  5
13A6
330
2
100
AcDbEntity
  8
0
 62
     0
 48
0.012825
100
AcDbLine
 10
1092.621445553447
 20
192.9439783186472
 30
0.0
 11
1092.621445553447
 21
192.0622595686475
 31
0.0
  0
LINE
  5
13A7
330
2
100
AcDbEntity
  8
0
 62
     0
 48
0.00945
100
AcDbLine
 10
1092.621445553447
 20
192.0622595686475
 30
0.0
 11
1091.971747740947
 21
192.0622595686475
 31
0.0
  0
LINE
  5
13A8
330
2
100
AcDbEntity
  8
0
 62
     0
 48
0.005062
100
AcDbLine
 10
1091.971747740947
 20
192.0622595686475
 30
0.0
 11
1091.971747740947
 21
191.7142126936473
 31
0.0
  0
LINE
  5
13A9
330
2
100
AcDbEntity
  8
0
 62
     0
 48
0.03375
100
AcDbLine
 10
1091.971747740947
 20
191.7142126936473
 30
0.0
 11
1094.292070553449
 21
191.7142126936473
 31
0.0
  0
LINE
  5
13AA
330
2
100
AcDbEntity
  8
0
 62
     0
 48
0.029025
100
AcDbLine
 10
1101.020964772197
 20
191.7142126936473
 30
0.0
 11
1099.025504615949
 21
191.7142126936473
 31
0.0
  0
LINE
  5
13AB
330
2
100
AcDbEntity
  8
0
 62
     0
 48
0.005062
100
AcDbLine
 10
1101.020964772197
 20
192.0622595686475
 30
0.0
 11
1101.020964772197
 21
191.7142126936473
 31
0.0
  0
LINE
  5
13AC
330
2
100
AcDbEntity
  8
0
 62
     0
 48
0.00945
100
AcDbLine
 10
1100.371292740949
 20
192.0622595686475
 30
0.0
 11
1101.020964772197
 21
192.0622595686475
 31
0.0
  0
LINE
  5
13AD
330
2
100
AcDbEntity
  8
0
 62
     0
 48
0.023288
100
AcDbLine
 10
1100.371292740949
 20
193.6632803498973
 30
0.0
 11
1100.371292740949
 21
192.0622595686475
 31
0.0
  0
LINE
  5
13AE
330
2
100
AcDbEntity
  8
0
 62
     0
 48
0.045119
100
AcDbLine
 10
1102.784403990949
 20
191.7142126936473
 30
0.0
 11
1100.371292740949
 21
193.6632803498973
 31
0.0
  0
LINE
  5
13AF
330
2
100
AcDbEntity
  8
0
 62
     0
 48
0.0135
100
AcDbLine
 10
1103.712544459699
 20
191.7142126936473
 30
0.0
 11
1102.784403990949
 21
191.7142126936473
 31
0.0
  0
LINE
  5
13B0
330
2
100
AcDbEntity
  8
0
 62
     0
 48
0.038813
100
AcDbLine
 10
1103.712544459699
 20
194.3825823811473
 30
0.0
 11
1103.712544459699
 21
191.7142126936473
 31
0.0
  0
LINE
  5
13B1
330
2
100
AcDbEntity
  8
0
 62
     0
 48
0.00945
100
AcDbLine
 10
1104.362214772198
 20
194.3825823811473
 30
0.0
 11
1103.712544459699
 21
194.3825823811473
 31
0.0
  0
LINE
  5
13B2
330
2
100
AcDbEntity
  8
0
 62
     0
 48
0.005062
100
AcDbLine
 10
1104.362214772198
 20
194.7306275373973
 30
0.0
 11
1104.362214772198
 21
194.3825823811473
 31
0.0
  0
LINE
  5
13B3
330
2
100
AcDbEntity
  8
0
 62
     0
 48
0.029025
100
AcDbLine
 10
1102.366754615949
 20
194.7306275373973
 30
0.0
 11
1104.362214772198
 21
194.7306275373973
 31
0.0
  0
LINE
  5
13B4
330
2
100
AcDbEntity
  8
0
 62
     0
 48
0.005062
100
AcDbLine
 10
1102.366754615949
 20
194.3825823811473
 30
0.0
 11
1102.366754615949
 21
194.7306275373973
 31
0.0
  0
LINE
  5
13B5
330
2
100
AcDbEntity
  8
0
 62
     0
 48
0.00945
100
AcDbLine
 10
1103.016452428447
 20
194.3825823811473
 30
0.0
 11
1102.366754615949
 21
194.3825823811473
 31
0.0
  0
LINE
  5
13B6
330
2
100
AcDbEntity
  8
0
 62
     0
 48
0.023288
100
AcDbLine
 10
1103.016452428447
 20
192.7815615998972
 30
0.0
 11
1103.016452428447
 21
194.3825823811473
 31
0.0
  0
LINE
  5
13B7
330
2
100
AcDbEntity
  8
0
 62
     0
 48
0.045119
100
AcDbLine
 10
1100.603315397199
 20
194.7306275373973
 30
0.0
 11
1103.016452428447
 21
192.7815615998972
 31
0.0
  0
LINE
  5
13B8
330
2
100
AcDbEntity
  8
0
 62
     0
 48
0.02295
100
AcDbLine
 10
1099.025504615949
 20
194.7306275373973
 30
0.0
 11
1100.603315397199
 21
194.7306275373973
 31
0.0
  0
LINE
  5
13B9
330
2
100
AcDbEntity
  8
0
 62
     0
 48
0.005062
100
AcDbLine
 10
1099.025504615949
 20
194.3825823811473
 30
0.0
 11
1099.025504615949
 21
194.7306275373973
 31
0.0
  0
LINE
  5
13BA
330
2
100
AcDbEntity
  8
0
 62
     0
 48
0.00945
100
AcDbLine
 10
1099.675202428449
 20
194.3825823811473
 30
0.0
 11
1099.025504615949
 21
194.3825823811473
 31
0.0
  0
LINE
  5
13BB
330
2
100
AcDbEntity
  8
0
 62
     0
 48
0.03375
100
AcDbLine
 10
1099.675202428449
 20
192.0622595686475
 30
0.0
 11
1099.675202428449
 21
194.3825823811473
 31
0.0
  0
LINE
  5
13BC
330
2
100
AcDbEntity
  8
0
 62
     0
 48
0.00945
100
AcDbLine
 10
1099.025504615949
 20
192.0622595686475
 30
0.0
 11
1099.675202428449
 21
192.0622595686475
 31
0.0
  0
LINE
  5
13BD
330
2
100
AcDbEntity
  8
0
 62
     0
 48
0.005062
100
AcDbLine
 10
1099.025504615949
 20
191.7142126936473
 30
0.0
 11
1099.025504615949
 21
192.0622595686475
 31
0.0
  0
ARC
  5
13BE
330
2
100
AcDbEntity
  8
0
 62
     0
100
AcDbCircle
 10
1107.726676490949
 20
190.2524261311473
 30
0.0
 40
4.594218749999998
100
AcDbArc
 50
64.72499000000555
 51
115.2750149999926
  0
ARC
  5
13BF
330
2
100
AcDbEntity
  8
0
 62
     0
100
AcDbCircle
 10
1106.404096647199
 20
193.2224209748975
 30
0.0
 40
1.345781249999999
100
AcDbArc
 50
118.3467549999783
 51
241.6532420000239
  0
ARC
  5
13C0
330
2
100
AcDbEntity
  8
0
 62
     0
100
AcDbCircle
 10
1107.726676490949
 20
196.1924158186475
 30
0.0
 40
4.594218749999998
100
AcDbArc
 50
244.7249960000025
 51
295.2750069999961
  0
ARC
  5
13C1
330
2
100
AcDbEntity
  8
0
 62
     0
100
AcDbCircle
 10
1109.049254615948
 20
193.2224209748975
 30
0.0
 40
1.345781249999999
100
AcDbArc
 50
298.3467619999716
 51
61.65324300002336
  0
ARC
  5
13C2
330
2
100
AcDbEntity
  8
0
 62
     0
100
AcDbCircle
 10
1108.028327428449
 20
193.2224209748975
 30
0.0
 40
1.206562499999998
100
AcDbArc
 50
305.4392029999962
 51
70.52459300000347
  0
ARC
  5
13C3
330
2
100
AcDbEntity
  8
0
 62
     0
100
AcDbCircle
 10
1107.726676490949
 20
193.8024887873975
 30
0.0
 40
1.85628609375
100
AcDbArc
 50
237.3582280000159
 51
302.641775000008
  0
ARC
  5
13C4
330
2
100
AcDbEntity
  8
0
 62
     0
100
AcDbCircle
 10
1107.42504961595
 20
193.2224209748975
 30
0.0
 40
1.206562499999998
100
AcDbArc
 50
125.4734560000058
 51
234.5607989999682
  0
ARC
  5
13C5
330
2
100
AcDbEntity
  8
0
 62
     0
100
AcDbCircle
 10
1107.726676490949
 20
192.6423273811474
 30
0.0
 40
1.85625
100
AcDbArc
 50
67.71515100001742
 51
122.664008000011
  0
ARC
  5
13C6
330
2
100
AcDbEntity
  8
0
 62
     0
100
AcDbCircle
 10
1085.428480240948
 20
192.0854695686473
 30
0.0
 40
2.343515625
100
AcDbArc
 50
47.61290100002688
 51
130.8365899999872
  0
ARC
  5
13C7
330
2
100
AcDbEntity
  8
0
 62
     0
100
AcDbCircle
 10
1086.078152272198
 20
193.2224209748975
 30
0.0
 40
1.103638593749999
100
AcDbArc
 50
22.23683299997044
 51
32.56157500002255
  0
LINE
  5
13C8
330
2
100
AcDbEntity
  8
0
 62
     0
 48
0.009779
100
AcDbLine
 10
1087.771987272199
 20
193.6400703498971
 30
0.0
 11
1087.099708522199
 21
193.6400703498971
 31
0.0
  0
LINE
  5
13C9
330
2
100
AcDbEntity
  8
0
 62
     0
 48
0.015863
100
AcDbLine
 10
1087.771987272199
 20
193.6400703498971
 30
0.0
 11
1087.771987272199
 21
194.7306275373973
 31
0.0
  0
LINE
  5
13CA
330
2
100
AcDbEntity
  8
0
 62
     0
 48
0.007425
100
AcDbLine
 10
1087.771987272199
 20
194.7306275373973
 30
0.0
 11
1087.261523678448
 21
194.7306275373973
 31
0.0
  0
LINE
  5
13CB
330
2
100
AcDbEntity
  8
0
 62
     0
 48
0.006848
100
AcDbLine
 10
1087.261523678448
 20
194.7306275373973
 30
0.0
 11
1087.261523678448
 21
194.2598447248972
 31
0.0
  0
ARC
  5
13CC
330
2
100
AcDbEntity
  8
0
 62
     0
100
AcDbCircle
 10
1086.078152272198
 20
192.8047715998973
 30
0.0
 40
1.875522343749999
100
AcDbArc
 50
50.87978999997882
 51
69.67686400002114
  0
ARC
  5
13CD
330
2
100
AcDbEntity
  8
0
 62
     0
100
AcDbCircle
 10
1085.15003930345
 20
190.2988203498973
 30
0.0
 40
4.5478125
100
AcDbArc
 50
69.67686400002114
 51
114.9026060000152
  0
ARC
  5
13CE
330
2
100
AcDbEntity
  8
0
 62
     0
100
AcDbCircle
 10
1083.94348367845
 20
193.2224209748975
 30
0.0
 40
1.394696874999999
100
AcDbArc
 50
120.526432999995
 51
239.4735630000054
  0
ARC
  5
13CF
330
2
100
AcDbEntity
  8
0
 62
     0
100
AcDbCircle
 10
1085.15003930345
 20
196.146021599897
 30
0.0
 40
4.5478125
100
AcDbArc
 50
245.0974039999862
 51
290.3231459999844
  0
ARC
  5
13D0
330
2
100
AcDbEntity
  8
0
 62
     0
100
AcDbCircle
 10
1086.078152272198
 20
193.6400703498971
 30
0.0
 40
1.875522343749999
100
AcDbArc
 50
290.3231459999844
 51
333.5525889999797
  0
LINE
  5
13D1
330
2
100
AcDbEntity
  8
0
 62
     0
 48
0.009566
100
AcDbLine
 10
1087.757405397197
 20
192.8047715998973
 30
0.0
 11
1087.099708522199
 21
192.8047715998973
 31
0.0
  0
ARC
  5
13D2
330
2
100
AcDbEntity
  8
0
 62
     0
100
AcDbCircle
 10
1086.078152272198
 20
193.2224209748975
 30
0.0
 40
1.103638593749999
100
AcDbArc
 50
299.7448730000096
 51
337.7631540000345
  0
ARC
  5
13D3
330
2
100
AcDbEntity
  8
0
 62
     0
100
AcDbCircle
 10
1085.428480240948
 20
194.3593723811473
 30
0.0
 40
2.413124999999999
100
AcDbArc
 50
242.0490359999816
 51
299.7448730000096
  0
ARC
  5
13D4
330
2
100
AcDbEntity
  8
0
 62
     0
100
AcDbCircle
 10
1084.825202428449
 20
193.2224209748975
 30
0.0
 40
1.12603046875
100
AcDbArc
 50
145.6044559999873
 51
242.0490359999816
  0
MTEXT
  5
13DC
330
2
100
AcDbEntity
  8
0
 62
     0
100
AcDbMText
 10
871.4003766526296
 20
184.5278565190633
 30
0.0
 40
3.0
 41
7.535929163495892
 71
     1
 72
     5
  1
{\W0.7;∞}
  7
BIGFONT
 11
0.0000000000000001
 21
1.0
 31
0.0
 73
     1
 44
1.0
1001
ACAD
1000
ACAD_MTEXT_COLUMN_INFO_BEGIN
1070
    75
1070
     2
1070
    79
1070
     0
1070
    76
1070
     1
1070
    78
1070
     0
1070
    48
1040
7.535929163495892
1070
    49
1040
15.0
1070
    50
1070
     1
1040
0.0
1000
ACAD_MTEXT_COLUMN_INFO_END
1000
MTEXTBEGIN
1070
    73
1070
     1
1070
    44
1040
1.0
1070
    74
1070
     0
1000
MTEXTEND
  0
MTEXT
  5
13DD
330
2
100
AcDbEntity
  8
0
 62
     0
100
AcDbMText
 10
872.1587875846985
 20
188.592230447412
 30
0.0
 40
1.5
 41
7.535929163495892
 71
     1
 72
     5
  1
5
  7
BIGFONT
 11
0.0000000000000001
 21
1.0
 31
0.0
 73
     1
 44
1.0
1001
ACAD
1000
ACAD_MTEXT_COLUMN_INFO_BEGIN
1070
    75
1070
     2
1070
    79
1070
     0
1070
    76
1070
     1
1070
    78
1070
     0
1070
    48
1040
7.535929163495892
1070
    49
1040
15.0
1070
    50
1070
     1
1040
0.0
1000
ACAD_MTEXT_COLUMN_INFO_END
1000
MTEXTBEGIN
1070
    73
1070
     1
1070
    44
1040
1.0
1070
    74
1070
     0
1000
MTEXTEND
  0
MTEXT
  5
13DE
330
2
100
AcDbEntity
  8
0
 62
     0
100
AcDbMText
 10
872.1587875846985
 20
192.5735580773089
 30
0.0
 40
1.5
 41
7.535929163495892
 71
     1
 72
     5
  1
2
  7
BIGFONT
 11
0.0000000000000001
 21
1.0
 31
0.0
 73
     1
 44
1.0
1001
ACAD
1000
ACAD_MTEXT_COLUMN_INFO_BEGIN
1070
    75
1070
     2
1070
    79
1070
     0
1070
    76
1070
     1
1070
    78
1070
     0
1070
    48
1040
7.535929163495892
1070
    49
1040
15.0
1070
    50
1070
     1
1040
0.0
1000
ACAD_MTEXT_COLUMN_INFO_END
1000
MTEXTBEGIN
1070
    73
1070
     1
1070
    44
1040
1.0
1070
    74
1070
     0
1000
MTEXTEND
  0
MTEXT
  5
13DF
330
2
100
AcDbEntity
  8
0
 62
     0
100
AcDbMText
 10
872.1587875846985
 20
196.9825385966351
 30
0.0
 40
1.5
 41
7.535929163495892
 71
     1
 72
     5
  1
1
  7
BIGFONT
 11
0.0000000000000001
 21
1.0
 31
0.0
 73
     1
 44
1.0
1001
ACAD
1000
ACAD_MTEXT_COLUMN_INFO_BEGIN
1070
    75
1070
     2
1070
    79
1070
     0
1070
    76
1070
     1
1070
    78
1070
     0
1070
    48
1040
7.535929163495892
1070
    49
1040
15.0
1070
    50
1070
     1
1040
0.0
1000
ACAD_MTEXT_COLUMN_INFO_END
1000
MTEXTBEGIN
1070
    73
1070
     1
1070
    44
1040
1.0
1070
    74
1070
     0
1000
MTEXTEND
  0
LINE
  5
13E0
330
2
100
AcDbEntity
  8
0
 62
     0
100
AcDbLine
 10
1036.658787584698
 20
215.4142126936479
 30
0.0
 11
1036.658787584698
 21
244.9642126936476
 31
0.0
  0
LINE
  5
13E1
330
2
100
AcDbEntity
  8
0
 62
     0
 48
5.0
100
AcDbLine
 10
1036.658787584698
 20
244.9642126936476
 30
0.0
 11
1036.658787584698
 21
256.9642126936476
 31
0.0
  0
LINE
  5
13E2
330
2
100
AcDbEntity
  8
0
  6
CENTER
 62
     4
 48
2.0
100
AcDbLine
 10
854.6587875846981
 20
235.9642126936476
 30
0.0
 11
1041.658787584698
 21
235.9642126936476
 31
0.0
1001
GENIUS_GENODEF_13
1002
{
1000
HIER
1070
     0
1002
}
1002
{
1000
MANEDIT
1070
     0
1002
}
1002
{
1000
NOSEL
1070
     0
1002
}
1002
{
1000
BEHIND
1070
     0
1002
}
1002
{
1000
OTHER
1070
     0
1002
}
1002
{
1000
REACTOR
1002
}
1001
GENIUS_GENOBJ-N-CEN_13
1002
{
1000
OWNER
1000
GEN
1002
}
1001
GENIUS_GENCEN_19
1002
{
1040
3.0
1002
}
  0
LINE
  5
13E3
330
2
100
AcDbEntity
  8
0
  6
CENTER
 62
     4
 48
2.0
100
AcDbLine
 10
854.6587875846981
 20
68.46421269364761
 30
0.0
 11
1041.658787584698
 21
68.46421269364761
 31
0.0
1001
GENIUS_GENODEF_13
1002
{
1000
HIER
1070
     0
1002
}
1002
{
1000
MANEDIT
1070
     0
1002
}
1002
{
1000
NOSEL
1070
     0
1002
}
1002
{
1000
BEHIND
1070
     0
1002
}
1002
{
1000
OTHER
1070
     0
1002
}
1002
{
1000
REACTOR
1002
}
1001
GENIUS_GENOBJ-N-CEN_13
1002
{
1000
OWNER
1000
GEN
1002
}
1001
GENIUS_GENCEN_19
1002
{
1040
3.0
1002
}
  0
LINE
  5
13E4
330
2
100
AcDbEntity
  8
0
  6
CENTER
 62
     4
 48
2.0
100
AcDbLine
 10
819.1587875846986
 20
120.9642126936476
 30
0.0
 11
819.1587875846986
 21
202.9642126936475
 31
0.0
1001
GENIUS_GENODEF_13
1002
{
1000
HIER
1070
     0
1002
}
1002
{
1000
MANEDIT
1070
     0
1002
}
1002
{
1000
NOSEL
1070
     0
1002
}
1002
{
1000
BEHIND
1070
     0
1002
}
1002
{
1000
OTHER
1070
     0
1002
}
1002
{
1000
REACTOR
1002
}
1001
GENIUS_GENOBJ-N-CEN_13
1002
{
1000
OWNER
1000
GEN
1002
}
1001
GENIUS_GENCEN_19
1002
{
1040
3.0
1002
}
  0
LINE
  5
13E5
330
2
100
AcDbEntity
  8
0
  6
CENTER
 62
     4
 48
2.0
100
AcDbLine
 10
1096.658787584698
 20
120.9642126936476
 30
0.0
 11
1096.658787584698
 21
202.9642126936475
 31
0.0
1001
GENIUS_GENOBJ-N-CEN_13
1002
{
1000
OWNER
1000
GEN
1002
}
1001
GENIUS_GENODEF_13
1002
{
1000
HIER
1070
     0
1002
}
1002
{
1000
MANEDIT
1070
     0
1002
}
1002
{
1000
NOSEL
1070
     0
1002
}
1002
{
1000
BEHIND
1070
     0
1002
}
1002
{
1000
OTHER
1070
     0
1002
}
1002
{
1000
REACTOR
1002
}
1001
GENIUS_GENCEN_19
1002
{
1040
3.0
1002
}
  0
LINE
  5
13E6
330
2
100
AcDbEntity
  8
0
 62
     0
 48
0.5
100
AcDbLine
 10
876.7257748828056
 20
236.7142126936476
 30
0.0
 11
877.5918002865896
 21
236.7142126936476
 31
0.0
  0
LINE
  5
13E7
330
2
100
AcDbEntity
  8
0
 62
     0
 48
0.5
100
AcDbLine
 10
877.5918002865896
 20
236.7142126936476
 30
0.0
 11
878.0248129884826
 21
235.9642126936476
 31
0.0
  0
LINE
  5
13E8
330
2
100
AcDbEntity
  8
0
 62
     0
 48
0.5
100
AcDbLine
 10
878.0248129884826
 20
235.9642126936476
 30
0.0
 11
877.5918002865896
 21
235.2142126936476
 31
0.0
  0
LINE
  5
13E9
330
2
100
AcDbEntity
  8
0
 62
     0
 48
0.5
100
AcDbLine
 10
877.5918002865896
 20
235.2142126936476
 30
0.0
 11
876.7257748828056
 21
235.2142126936476
 31
0.0
  0
LINE
  5
13EA
330
2
100
AcDbEntity
  8
0
 62
     0
 48
0.5
100
AcDbLine
 10
876.7257748828056
 20
235.2142126936476
 30
0.0
 11
876.2927621809126
 21
235.9642126936476
 31
0.0
  0
LINE
  5
13EB
330
2
100
AcDbEntity
  8
0
 62
     0
 48
0.5
100
AcDbLine
 10
876.2927621809126
 20
235.9642126936476
 30
0.0
 11
876.7257748828056
 21
236.7142126936476
 31
0.0
  0
LINE
  5
13EC
330
2
100
AcDbEntity
  8
0
 62
     0
100
AcDbLine
 10
1036.658787584698
 20
244.4642126936447
 30
0.0
 11
1036.658787584698
 21
227.4642126936505
 31
0.0
  0
LINE
  5
13ED
330
2
100
AcDbEntity
  8
0
 62
     0
100
AcDbLine
 10
1036.658787584698
 20
189.4642126936446
 30
0.0
 11
1036.658787584698
 21
172.4642126936505
 31
0.0
  0
CIRCLE
  5
13EE
330
2
100
AcDbEntity
  8
0
 62
     0
100
AcDbCircle
 10
1096.658787584698
 20
180.9642126936444
 30
0.0
 40
8.5
  0
CIRCLE
  5
13EF
330
2
100
AcDbEntity
  8
0
 62
     0
100
AcDbCircle
 10
1096.658787584698
 20
180.9642126936444
 30
0.0
 40
8.0
  0
LINE
  5
13F0
330
2
100
AcDbEntity
  8
0
  6
CENTER
 62
     4
 48
2.0
100
AcDbLine
 10
854.6587875846981
 20
180.9642126936475
 30
0.0
 11
1041.658787584698
 21
180.9642126936446
 31
0.0
1001
GENIUS_GENOBJ-N-CEN_13
1002
{
1000
OWNER
1000
GEN
1002
}
1001
GENIUS_GENODEF_13
1002
{
1000
HIER
1070
     0
1002
}
1002
{
1000
MANEDIT
1070
     0
1002
}
1002
{
1000
NOSEL
1070
     0
1002
}
1002
{
1000
BEHIND
1070
     0
1002
}
1002
{
1000
OTHER
1070
     0
1002
}
1002
{
1000
REACTOR
1002
}
1001
GENIUS_GENCEN_19
1002
{
1040
3.0
1002
}
  0
LINE
  5
13F1
330
2
100
AcDbEntity
  8
0
 62
     0
100
AcDbLine
 10
1077.173701033766
 20
126.264212693648
 30
0.0
 11
1116.143874135633
 21
126.264212693648
 31
0.0
  0
ARC
  5
13F2
330
2
100
AcDbEntity
  8
0
 62
     0
100
AcDbCircle
 10
1077.173701033766
 20
126.764212693648
 30
0.0
 40
0.5
100
AcDbArc
 50
216.2833970363732
 51
270.0
  0
LINE
  5
13F3
330
2
100
AcDbEntity
  8
0
 62
     0
100
AcDbLine
 10
1072.989177224241
 20
132.9642126936476
 30
0.0
 11
1120.328397945155
 21
132.9642126936476
 31
0.0
  0
ARC
  5
13F4
330
2
100
AcDbEntity
  8
0
 62
     0
100
AcDbCircle
 10
1072.989177224241
 20
132.4642126936476
 30
0.0
 40
0.5
100
AcDbArc
 50
90.0
 51
216.2833970363732
  0
LINE
  5
13F5
330
2
100
AcDbEntity
  8
0
 62
     0
100
AcDbLine
 10
1072.586127324319
 20
132.1683228861645
 30
0.0
 11
1076.770651133844
 21
126.4683228861647
 31
0.0
  0
LINE
  5
13F6
330
2
100
AcDbEntity
  8
0
 62
     0
100
AcDbLine
 10
1116.546924035554
 20
126.4683228861649
 30
0.0
 11
1120.731447845079
 21
132.1683228861645
 31
0.0
  0
ARC
  5
13F7
330
2
100
AcDbEntity
  8
0
 62
     0
100
AcDbCircle
 10
1120.328397945155
 20
132.4642126936476
 30
0.0
 40
0.5
100
AcDbArc
 50
323.7166029636266
 51
90.0
  0
ARC
  5
13F8
330
2
100
AcDbEntity
  8
0
 62
     0
100
AcDbCircle
 10
1116.143874135633
 20
126.764212693648
 30
0.0
 40
0.5
100
AcDbArc
 50
270.0
 51
323.7166029636266
  0
LINE
  5
13FA
330
2
100
AcDbEntity
  8
0
 62
     0
100
AcDbLine
 10
1114.1587875847
 20
129.6142126936477
 30
0.0
 11
1114.1587875847
 21
132.964212693648
 31
0.0
  0
LINE
  5
13FB
330
2
100
AcDbEntity
  8
0
 62
     0
100
AcDbLine
 10
1079.1587875847
 20
129.6142126936477
 30
0.0
 11
1079.1587875847
 21
132.964212693648
 31
0.0
  0
LINE
  5
13FC
330
2
100
AcDbEntity
  8
0
 62
     0
100
AcDbLine
 10
1100.358787584699
 20
129.6142126936477
 30
0.0
 11
1100.358787584699
 21
132.964212693648
 31
0.0
  0
LINE
  5
13FD
330
2
100
AcDbEntity
  8
0
 62
     0
100
AcDbLine
 10
1100.858787584699
 20
129.6142126936477
 30
0.0
 11
1100.858787584699
 21
132.964212693648
 31
0.0
  0
LINE
  5
13FE
330
2
100
AcDbEntity
  8
0
 62
     0
100
AcDbLine
 10
1088.358787584699
 20
129.6142126936477
 30
0.0
 11
1088.358787584699
 21
132.964212693648
 31
0.0
  0
LINE
  5
13FF
330
2
100
AcDbEntity
  8
0
 62
     0
100
AcDbLine
 10
1087.858787584699
 20
129.6142126936477
 30
0.0
 11
1087.858787584699
 21
132.9642126936478
 31
0.0
  0
LINE
  5
1400
330
2
100
AcDbEntity
  8
0
 62
     0
100
AcDbLine
 10
1114.1587875847
 20
129.6142126936477
 30
0.0
 11
1100.858787584699
 21
129.6142126936477
 31
0.0
  0
LINE
  5
1401
330
2
100
AcDbEntity
  8
0
 62
     0
100
AcDbLine
 10
1100.358787584699
 20
129.6142126936477
 30
0.0
 11
1088.358787584699
 21
129.6142126936477
 31
0.0
  0
LINE
  5
1402
330
2
100
AcDbEntity
  8
0
 62
     0
100
AcDbLine
 10
1087.858787584699
 20
129.6142126936477
 30
0.0
 11
1079.1587875847
 21
129.6142126936477
 31
0.0
  0
CIRCLE
  5
1405
330
2
100
AcDbEntity
  8
0
 62
     0
 48
0.5
100
AcDbCircle
 10
1076.6587875847
 20
130.2642126936478
 30
0.0
 40
2.0
  0
CIRCLE
  5
1406
330
2
100
AcDbEntity
  8
0
 62
     0
 48
0.5
100
AcDbCircle
 10
1076.6587875847
 20
130.2642126936478
 30
0.0
 40
1.75
  0
LWPOLYLINE
  5
1407
330
2
100
AcDbEntity
  8
0
 62
     0
 48
0.5
100
AcDbPolyline
 90
        4
 70
     0
 43
0.0
 10
1076.358787584699
 20
130.5642126936477
 10
1075.1587875847
 20
130.5642126936477
 10
1075.1587875847
 20
129.9642126936476
 10
1076.358787584699
 20
129.9642126936476
  0
LWPOLYLINE
  5
1408
330
2
100
AcDbEntity
  8
0
 62
     0
 48
0.5
100
AcDbPolyline
 90
        4
 70
     0
 43
0.0
 10
1076.958787584699
 20
130.5642126936477
 10
1076.958787584699
 20
131.7642126936477
 10
1076.358787584699
 20
131.7642126936477
 10
1076.358787584699
 20
130.5642126936477
  0
LWPOLYLINE
  5
1409
330
2
100
AcDbEntity
  8
0
 62
     0
 48
0.5
100
AcDbPolyline
 90
        4
 70
     0
 43
0.0
 10
1076.358787584699
 20
129.9642126936476
 10
1076.358787584699
 20
128.7642126936477
 10
1076.958787584699
 20
128.7642126936477
 10
1076.958787584699
 20
129.9642126936476
  0
LWPOLYLINE
  5
140A
330
2
100
AcDbEntity
  8
0
 62
     0
 48
0.5
100
AcDbPolyline
 90
        4
 70
     0
 43
0.0
 10
1076.958787584699
 20
129.9642126936476
 10
1078.1587875847
 20
129.9642126936476
 10
1078.1587875847
 20
130.5642126936477
 10
1076.958787584699
 20
130.5642126936477
  0
CIRCLE
  5
140B
330
2
100
AcDbEntity
  8
0
 62
     0
 48
0.5
100
AcDbCircle
 10
1116.6587875847
 20
130.2642126936478
 30
0.0
 40
2.0
  0
CIRCLE
  5
140C
330
2
100
AcDbEntity
  8
0
 62
     0
 48
0.5
100
AcDbCircle
 10
1116.6587875847
 20
130.2642126936478
 30
0.0
 40
1.75
  0
LWPOLYLINE
  5
140D
330
2
100
AcDbEntity
  8
0
 62
     0
 48
0.5
100
AcDbPolyline
 90
        4
 70
     0
 43
0.0
 10
1116.9587875847
 20
130.5642126936477
 10
1118.1587875847
 20
130.5642126936477
 10
1118.1587875847
 20
129.9642126936476
 10
1116.9587875847
 20
129.9642126936476
  0
LWPOLYLINE
  5
140E
330
2
100
AcDbEntity
  8
0
 62
     0
 48
0.5
100
AcDbPolyline
 90
        4
 70
     0
 43
0.0
 10
1116.358787584699
 20
130.5642126936477
 10
1116.358787584699
 20
131.7642126936477
 10
1116.9587875847
 20
131.7642126936477
 10
1116.9587875847
 20
130.5642126936477
  0
LWPOLYLINE
  5
140F
330
2
100
AcDbEntity
  8
0
 62
     0
 48
0.5
100
AcDbPolyline
 90
        4
 70
     0
 43
0.0
 10
1116.9587875847
 20
129.9642126936476
 10
1116.9587875847
 20
128.7642126936477
 10
1116.358787584699
 20
128.7642126936477
 10
1116.358787584699
 20
129.9642126936476
  0
LWPOLYLINE
  5
1410
330
2
100
AcDbEntity
  8
0
 62
     0
 48
0.5
100
AcDbPolyline
 90
        4
 70
     0
 43
0.0
 10
1116.358787584699
 20
129.9642126936476
 10
1115.1587875847
 20
129.9642126936476
 10
1115.1587875847
 20
130.5642126936477
 10
1116.358787584699
 20
130.5642126936477
  0
LINE
  5
1411
330
2
100
AcDbEntity
  8
0
 62
     0
100
AcDbLine
 10
1069.558787584698
 20
195.9642126936473
 30
0.0
 11
1123.758787584699
 21
195.9642126936473
 31
0.0
  0
ARC
  5
1412
330
2
100
AcDbEntity
  8
0
 62
     0
100
AcDbCircle
 10
1069.558787584698
 20
194.0642126936475
 30
0.0
 40
1.899999999999636
100
AcDbArc
 50
90.0
 51
180.0
  0
ARC
  5
1413
330
2
100
AcDbEntity
  8
0
 62
     0
100
AcDbCircle
 10
1123.758787584699
 20
194.0642126936475
 30
0.0
 40
1.90000000000009
100
AcDbArc
 50
0.0
 51
90.0
  0
LINE
  5
1414
330
2
100
AcDbEntity
  8
0
 62
     0
100
AcDbLine
 10
1067.658787584698
 20
136.8642126936474
 30
0.0
 11
1067.658787584698
 21
194.0642126936475
 31
0.0
  0
ARC
  5
1415
330
2
100
AcDbEntity
  8
0
 62
     0
100
AcDbCircle
 10
1069.558787584698
 20
136.8642126936474
 30
0.0
 40
1.9
100
AcDbArc
 50
180.0
 51
270.0
  0
LINE
  5
1416
330
2
100
AcDbEntity
  8
0
 62
     0
100
AcDbLine
 10
1125.658787584698
 20
194.0642126936475
 30
0.0
 11
1125.658787584698
 21
136.8642126936474
 31
0.0
  0
ARC
  5
1417
330
2
100
AcDbEntity
  8
0
 62
     0
100
AcDbCircle
 10
1123.758787584699
 20
136.8642126936474
 30
0.0
 40
1.9
100
AcDbArc
 50
270.0
 51
0.0
  0
LINE
  5
1418
330
2
100
AcDbEntity
  8
0
 62
     0
100
AcDbLine
 10
1069.558787584698
 20
134.9642126936474
 30
0.0
 11
1123.758787584699
 21
134.9642126936474
 31
0.0
  0
LINE
  5
1419
330
2
100
AcDbEntity
  8
0
 62
     0
 48
0.5
100
AcDbLine
 10
1029.658787584698
 20
126.0642126936475
 30
0.0
 11
1033.658787584698
 21
126.0642126936475
 31
0.0
  0
LINE
  5
141A
330
2
100
AcDbEntity
  8
0
 62
     0
 48
0.5
100
AcDbLine
 10
1033.658787584698
 20
133.0642126936475
 30
0.0
 11
1033.658787584698
 21
126.0642126936475
 31
0.0
  0
LINE
  5
141B
330
2
100
AcDbEntity
  8
0
 62
     0
 48
0.5
100
AcDbLine
 10
1029.658787584698
 20
126.2142126936471
 30
0.0
 11
1029.158787584698
 21
126.2142126936471
 31
0.0
  0
LINE
  5
141C
330
2
100
AcDbEntity
  8
0
 62
     0
 48
0.5
100
AcDbLine
 10
1033.658787584698
 20
92.37687860965955
 30
0.0
 11
1033.658787584698
 21
93.46421269364759
 31
0.0
  0
LINE
  5
141D
330
2
100
AcDbEntity
  8
0
 62
     0
100
AcDbLine
 10
1029.658787584698
 20
43.4642126936476
 30
0.0
 11
1033.658787584698
 21
43.4642126936476
 31
0.0
  0
LINE
  5
141E
330
2
100
AcDbEntity
  8
0
 62
     0
100
AcDbLine
 10
1033.658787584698
 20
48.46421269364761
 30
0.0
 11
1029.658787584698
 21
48.46421269364761
 31
0.0
  0
LINE
  5
141F
330
2
100
AcDbEntity
  8
0
 62
     0
100
AcDbLine
 10
1034.658787584698
 20
207.7942126936471
 30
0.0
 11
1034.658787584698
 21
264.1342126936481
 31
0.0
  0
CIRCLE
  5
1420
330
2
100
AcDbEntity
  8
0
 62
     0
 48
0.2
100
AcDbCircle
 10
1113.158787584698
 20
148.9642126936476
 30
0.0
 40
10.25
  0
CIRCLE
  5
1421
330
2
100
AcDbEntity
  8
0
 62
     4
 48
0.2
100
AcDbCircle
 10
1113.158787584698
 20
148.9642126936476
 30
0.0
 40
8.5
  0
CIRCLE
  5
1422
330
2
100
AcDbEntity
  8
0
 62
     0
 48
0.2
100
AcDbCircle
 10
1113.158787584698
 20
148.9642126936476
 30
0.0
 40
8.999999999999943
  0
CIRCLE
  5
1423
330
2
100
AcDbEntity
  8
0
 62
     0
 48
0.2
100
AcDbCircle
 10
1113.158787584698
 20
148.9642126936476
 30
0.0
 40
10.0
  0
CIRCLE
  5
1424
330
2
100
AcDbEntity
  8
0
 62
     0
 48
0.5
100
AcDbCircle
 10
1113.158787584698
 20
148.9642126936476
 30
0.0
 40
7.0
  0
LWPOLYLINE
  5
1425
330
2
100
AcDbEntity
  8
0
 62
     0
 48
0.5
100
AcDbPolyline
 90
        4
 70
     0
 43
0.0
 10
1113.658787584698
 20
155.9463327155319
 10
1113.658787584698
 20
155.4642126936476
 10
1112.658787584698
 20
155.4642126936476
 10
1112.658787584698
 20
155.9463327155319
  0
CIRCLE
  5
1426
330
2
100
AcDbEntity
  8
0
 62
     0
 48
0.5
100
AcDbCircle
 10
1111.908787584698
 20
152.7142126936476
 30
0.0
 40
0.4
  0
CIRCLE
  5
1427
330
2
100
AcDbEntity
  8
0
 62
     0
 48
0.5
100
AcDbCircle
 10
1114.408787584698
 20
152.7142126936476
 30
0.0
 40
0.4
  0
CIRCLE
  5
1428
330
2
100
AcDbEntity
  8
0
 62
     0
 48
0.5
100
AcDbCircle
 10
1111.908787584698
 20
150.2142126936476
 30
0.0
 40
0.4
  0
CIRCLE
  5
1429
330
2
100
AcDbEntity
  8
0
 62
     0
 48
0.5
100
AcDbCircle
 10
1114.408787584698
 20
150.2142126936476
 30
0.0
 40
0.4
  0
CIRCLE
  5
142A
330
2
100
AcDbEntity
  8
0
 62
     0
 48
0.5
100
AcDbCircle
 10
1111.908787584698
 20
147.7142126936476
 30
0.0
 40
0.4
  0
CIRCLE
  5
142B
330
2
100
AcDbEntity
  8
0
 62
     0
 48
0.5
100
AcDbCircle
 10
1114.408787584698
 20
147.7142126936476
 30
0.0
 40
0.4
  0
CIRCLE
  5
142C
330
2
100
AcDbEntity
  8
0
 62
     0
 48
0.5
100
AcDbCircle
 10
1111.908787584698
 20
145.2142126936476
 30
0.0
 40
0.4
  0
CIRCLE
  5
142D
330
2
100
AcDbEntity
  8
0
 62
     0
 48
0.5
100
AcDbCircle
 10
1114.408787584698
 20
145.2142126936476
 30
0.0
 40
0.4
  0
CIRCLE
  5
142E
330
2
100
AcDbEntity
  8
0
 62
     0
 48
0.5
100
AcDbCircle
 10
1109.408787584698
 20
150.2142126936476
 30
0.0
 40
0.4
  0
CIRCLE
  5
142F
330
2
100
AcDbEntity
  8
0
 62
     0
 48
0.5
100
AcDbCircle
 10
1109.408787584698
 20
147.7142126936476
 30
0.0
 40
0.4
  0
CIRCLE
  5
1430
330
2
100
AcDbEntity
  8
0
 62
     0
 48
0.5
100
AcDbCircle
 10
1116.908787584698
 20
150.2142126936476
 30
0.0
 40
0.4
  0
CIRCLE
  5
1431
330
2
100
AcDbEntity
  8
0
 62
     0
 48
0.5
100
AcDbCircle
 10
1116.908787584698
 20
147.7142126936476
 30
0.0
 40
0.4
  0
LINE
  5
1432
330
2
100
AcDbEntity
  8
0
 62
     0
100
AcDbLine
 10
1036.658787584698
 20
76.96421269364464
 30
0.0
 11
1036.658787584698
 21
59.96421269365055
 31
0.0
  0
LINE
  5
1433
330
2
100
AcDbEntity
  8
0
 62
     0
100
AcDbLine
 10
885.1587875846986
 20
136.9642126936471
 30
0.0
 11
951.8935805799817
 21
191.6963450782662
 31
0.0
  0
ARC
  5
1434
330
2
100
AcDbEntity
  8
0
 62
     0
100
AcDbCircle
 10
958.2350416724034
 20
183.9642126936458
 30
0.0
 40
10.0
100
AcDbArc
 50
90.0
 51
129.3566817194762
  0
LINE
  5
1435
330
2
100
AcDbEntity
  8
0
 62
     0
100
AcDbLine
 10
895.1587875846986
 20
136.9642126936471
 30
0.0
 11
964.6587875846986
 21
193.9642126936458
 31
0.0
  0
LINE
  5
1436
330
2
100
AcDbEntity
  8
0
 62
     0
100
AcDbLine
 10
937.2599067172792
 20
139.2320803090269
 30
0.0
 11
1003.994699712562
 21
193.9642126936458
 31
0.0
  0
ARC
  5
1437
330
2
100
AcDbEntity
  8
0
 62
     0
100
AcDbCircle
 10
930.9184456248571
 20
146.9642126936471
 30
0.0
 40
10.0
100
AcDbArc
 50
270.0
 51
309.3566817194763
  0
LINE
  5
1438
330
2
100
AcDbEntity
  8
0
 62
     0
100
AcDbLine
 10
958.2350416724034
 20
193.9642126936458
 30
0.0
 11
1003.994699712562
 21
193.9642126936458
 31
0.0
  0
LINE
  5
1439
330
2
100
AcDbEntity
  8
0
 62
     0
100
AcDbLine
 10
885.1587875846986
 20
136.9642126936471
 30
0.0
 11
930.9184456248571
 21
136.9642126936471
 31
0.0
  0
LINE
  5
143B
330
2
100
AcDbEntity
  8
0
 62
     0
 48
0.0351
100
AcDbLine
 10
990.600157459697
 20
140.2325251936467
 30
0.0
 11
996.1810256596988
 21
140.2325251936467
 31
0.0
  0
LINE
  5
143C
330
2
100
AcDbEntity
  8
0
 62
     0
 48
0.005062
100
AcDbLine
 10
996.1810256596988
 20
140.2325251936467
 30
0.0
 11
996.1810256596988
 21
141.037462693647
 31
0.0
  0
LINE
  5
143D
330
2
100
AcDbEntity
  8
0
 62
     0
 48
0.00945
100
AcDbLine
 10
996.1810256596988
 20
141.037462693647
 30
0.0
 11
994.6785114346972
 21
141.037462693647
 31
0.0
  0
LINE
  5
143E
330
2
100
AcDbEntity
  8
0
 62
     0
 48
0.03375
100
AcDbLine
 10
994.6785114346972
 20
141.037462693647
 30
0.0
 11
994.6785114346972
 21
146.4037365436477
 31
0.0
  0
LINE
  5
143F
330
2
100
AcDbEntity
  8
0
 62
     0
 48
0.00945
100
AcDbLine
 10
994.6785114346972
 20
146.4037365436477
 30
0.0
 11
996.1810256596988
 21
146.4037365436477
 31
0.0
  0
LINE
  5
1440
330
2
100
AcDbEntity
  8
0
 62
     0
 48
0.005062
100
AcDbLine
 10
996.1810256596988
 20
146.4037365436477
 30
0.0
 11
996.1810256596988
 21
147.2086700686477
 31
0.0
  0
LINE
  5
1441
330
2
100
AcDbEntity
  8
0
 62
     0
 48
0.0351
100
AcDbLine
 10
996.1810256596988
 20
147.2086700686477
 30
0.0
 11
990.600157459697
 21
147.2086700686477
 31
0.0
  0
LINE
  5
1442
330
2
100
AcDbEntity
  8
0
 62
     0
 48
0.005062
100
AcDbLine
 10
990.600157459697
 20
147.2086700686477
 30
0.0
 11
990.600157459697
 21
146.4037365436477
 31
0.0
  0
LINE
  5
1443
330
2
100
AcDbEntity
  8
0
 62
     0
 48
0.00945
100
AcDbLine
 10
990.600157459697
 20
146.4037365436477
 30
0.0
 11
992.1026716846986
 21
146.4037365436477
 31
0.0
  0
LINE
  5
1444
330
2
100
AcDbEntity
  8
0
 62
     0
 48
0.03375
100
AcDbLine
 10
992.1026716846986
 20
146.4037365436477
 30
0.0
 11
992.1026716846986
 21
141.037462693647
 31
0.0
  0
LINE
  5
1445
330
2
100
AcDbEntity
  8
0
 62
     0
 48
0.00945
100
AcDbLine
 10
992.1026716846986
 20
141.037462693647
 30
0.0
 11
990.600157459697
 21
141.037462693647
 31
0.0
  0
LINE
  5
1446
330
2
100
AcDbEntity
  8
0
 62
     0
 48
0.005062
100
AcDbLine
 10
990.600157459697
 20
141.037462693647
 30
0.0
 11
990.600157459697
 21
140.2325251936467
 31
0.0
  0
LINE
  5
1447
330
2
100
AcDbEntity
  8
0
 62
     0
 48
0.005062
100
AcDbLine
 10
987.9170205346994
 20
140.2325251936467
 30
0.0
 11
987.9170205346994
 21
141.037462693647
 31
0.0
  0
LINE
  5
1448
330
2
100
AcDbEntity
  8
0
 62
     0
 48
0.00945
100
AcDbLine
 10
987.9170205346994
 20
141.037462693647
 30
0.0
 11
986.4144466846996
 21
141.037462693647
 31
0.0
  0
LINE
  5
1449
330
2
100
AcDbEntity
  8
0
 62
     0
 48
0.03375
100
AcDbLine
 10
986.4144466846996
 20
141.037462693647
 30
0.0
 11
986.4144466846996
 21
146.4037365436477
 31
0.0
  0
LINE
  5
144A
330
2
100
AcDbEntity
  8
0
 62
     0
 48
0.00945
100
AcDbLine
 10
986.4144466846996
 20
146.4037365436477
 30
0.0
 11
987.9170205346994
 21
146.4037365436477
 31
0.0
  0
LINE
  5
144B
330
2
100
AcDbEntity
  8
0
 62
     0
 48
0.005062
100
AcDbLine
 10
987.9170205346994
 20
146.4037365436477
 30
0.0
 11
987.9170205346994
 21
147.2086700686477
 31
0.0
  0
LINE
  5
144C
330
2
100
AcDbEntity
  8
0
 62
     0
 48
0.03375
100
AcDbLine
 10
987.9170205346994
 20
147.2086700686477
 30
0.0
 11
982.5507466846987
 21
147.2086700686477
 31
0.0
  0
LINE
  5
144D
330
2
100
AcDbEntity
  8
0
 62
     0
 48
0.005062
100
AcDbLine
 10
982.5507466846987
 20
147.2086700686477
 30
0.0
 11
982.5507466846987
 21
146.4037365436477
 31
0.0
  0
LINE
  5
144E
330
2
100
AcDbEntity
  8
0
 62
     0
 48
0.00945
100
AcDbLine
 10
982.5507466846987
 20
146.4037365436477
 30
0.0
 11
984.0533205346988
 21
146.4037365436477
 31
0.0
  0
LINE
  5
144F
330
2
100
AcDbEntity
  8
0
 62
     0
 48
0.012825
100
AcDbLine
 10
984.0533205346988
 20
146.4037365436477
 30
0.0
 11
984.0533205346988
 21
144.3645575686475
 31
0.0
  0
LINE
  5
1450
330
2
100
AcDbEntity
  8
0
 62
     0
 48
0.0324
100
AcDbLine
 10
984.0533205346988
 20
144.3645575686475
 30
0.0
 11
978.9016966847
 21
144.3645575686475
 31
0.0
  0
LINE
  5
1451
330
2
100
AcDbEntity
  8
0
 62
     0
 48
0.012825
100
AcDbLine
 10
978.9016966847
 20
144.3645575686475
 30
0.0
 11
978.9016966847
 21
146.4037365436477
 31
0.0
  0
LINE
  5
1452
330
2
100
AcDbEntity
  8
0
 62
     0
 48
0.00945
100
AcDbLine
 10
978.9016966847
 20
146.4037365436477
 30
0.0
 11
980.4042705346995
 21
146.4037365436477
 31
0.0
  0
LINE
  5
1453
330
2
100
AcDbEntity
  8
0
 62
     0
 48
0.005062
100
AcDbLine
 10
980.4042705346995
 20
146.4037365436477
 30
0.0
 11
980.4042705346995
 21
147.2086700686477
 31
0.0
  0
LINE
  5
1454
330
2
100
AcDbEntity
  8
0
 62
     0
 48
0.03375
100
AcDbLine
 10
980.4042705346995
 20
147.2086700686477
 30
0.0
 11
975.0379966846988
 21
147.2086700686477
 31
0.0
  0
LINE
  5
1455
330
2
100
AcDbEntity
  8
0
 62
     0
 48
0.005062
100
AcDbLine
 10
975.0379966846988
 20
147.2086700686477
 30
0.0
 11
975.0379966846988
 21
146.4037365436477
 31
0.0
  0
LINE
  5
1456
330
2
100
AcDbEntity
  8
0
 62
     0
 48
0.00945
100
AcDbLine
 10
975.0379966846988
 20
146.4037365436477
 30
0.0
 11
976.5405705346987
 21
146.4037365436477
 31
0.0
  0
LINE
  5
1457
330
2
100
AcDbEntity
  8
0
 62
     0
 48
0.03375
100
AcDbLine
 10
976.5405705346987
 20
146.4037365436477
 30
0.0
 11
976.5405705346987
 21
141.037462693647
 31
0.0
  0
LINE
  5
1458
330
2
100
AcDbEntity
  8
0
 62
     0
 48
0.00945
100
AcDbLine
 10
976.5405705346987
 20
141.037462693647
 30
0.0
 11
975.0379966846988
 21
141.037462693647
 31
0.0
  0
LINE
  5
1459
330
2
100
AcDbEntity
  8
0
 62
     0
 48
0.005062
100
AcDbLine
 10
975.0379966846988
 20
141.037462693647
 30
0.0
 11
975.0379966846988
 21
140.2325251936467
 31
0.0
  0
LINE
  5
145A
330
2
100
AcDbEntity
  8
0
 62
     0
 48
0.03375
100
AcDbLine
 10
975.0379966846988
 20
140.2325251936467
 30
0.0
 11
980.4042705346995
 21
140.2325251936467
 31
0.0
  0
LINE
  5
145B
330
2
100
AcDbEntity
  8
0
 62
     0
 48
0.005062
100
AcDbLine
 10
980.4042705346995
 20
140.2325251936467
 30
0.0
 11
980.4042705346995
 21
141.037462693647
 31
0.0
  0
LINE
  5
145C
330
2
100
AcDbEntity
  8
0
 62
     0
 48
0.00945
100
AcDbLine
 10
980.4042705346995
 20
141.037462693647
 30
0.0
 11
978.9016966847
 21
141.037462693647
 31
0.0
  0
LINE
  5
145D
330
2
100
AcDbEntity
  8
0
 62
     0
 48
0.012825
100
AcDbLine
 10
978.9016966847
 20
141.037462693647
 30
0.0
 11
978.9016966847
 21
143.0766376936469
 31
0.0
  0
LINE
  5
145E
330
2
100
AcDbEntity
  8
0
 62
     0
 48
0.0324
100
AcDbLine
 10
978.9016966847
 20
143.0766376936469
 30
0.0
 11
984.0533205346988
 21
143.0766376936469
 31
0.0
  0
LINE
  5
145F
330
2
100
AcDbEntity
  8
0
 62
     0
 48
0.012825
100
AcDbLine
 10
984.0533205346988
 20
143.0766376936469
 30
0.0
 11
984.0533205346988
 21
141.037462693647
 31
0.0
  0
LINE
  5
1460
330
2
100
AcDbEntity
  8
0
 62
     0
 48
0.00945
100
AcDbLine
 10
984.0533205346988
 20
141.037462693647
 30
0.0
 11
982.5507466846987
 21
141.037462693647
 31
0.0
  0
LINE
  5
1461
330
2
100
AcDbEntity
  8
0
 62
     0
 48
0.005062
100
AcDbLine
 10
982.5507466846987
 20
141.037462693647
 30
0.0
 11
982.5507466846987
 21
140.2325251936467
 31
0.0
  0
LINE
  5
1462
330
2
100
AcDbEntity
  8
0
 62
     0
 48
0.03375
100
AcDbLine
 10
982.5507466846987
 20
140.2325251936467
 30
0.0
 11
987.9170205346994
 21
140.2325251936467
 31
0.0
  0
LINE
  5
1463
330
2
100
AcDbEntity
  8
0
 62
     0
 48
0.029025
100
AcDbLine
 10
1003.479117709699
 20
140.2325251936467
 30
0.0
 11
998.8641625847018
 21
140.2325251936467
 31
0.0
  0
LINE
  5
1464
330
2
100
AcDbEntity
  8
0
 62
     0
 48
0.005062
100
AcDbLine
 10
1003.479117709699
 20
141.037462693647
 30
0.0
 11
1003.479117709699
 21
140.2325251936467
 31
0.0
  0
LINE
  5
1465
330
2
100
AcDbEntity
  8
0
 62
     0
 48
0.00945
100
AcDbLine
 10
1001.9766034847
 20
141.037462693647
 30
0.0
 11
1003.479117709699
 21
141.037462693647
 31
0.0
  0
LINE
  5
1466
330
2
100
AcDbEntity
  8
0
 62
     0
 48
0.023288
100
AcDbLine
 10
1001.9766034847
 20
144.7401871186473
 30
0.0
 11
1001.9766034847
 21
141.037462693647
 31
0.0
  0
LINE
  5
1467
330
2
100
AcDbEntity
  8
0
 62
     0
 48
0.045119
100
AcDbLine
 10
1007.557471684699
 20
140.2325251936467
 30
0.0
 11
1001.9766034847
 21
144.7401871186473
 31
0.0
  0
LINE
  5
1468
330
2
100
AcDbEntity
  8
0
 62
     0
 48
0.0135
100
AcDbLine
 10
1009.704007459699
 20
140.2325251936467
 30
0.0
 11
1007.557471684699
 21
140.2325251936467
 31
0.0
  0
LINE
  5
1469
330
2
100
AcDbEntity
  8
0
 62
     0
 48
0.038813
100
AcDbLine
 10
1009.704007459699
 20
146.4037365436477
 30
0.0
 11
1009.704007459699
 21
140.2325251936467
 31
0.0
  0
LINE
  5
146A
330
2
100
AcDbEntity
  8
0
 62
     0
 48
0.00945
100
AcDbLine
 10
1011.2065177097
 20
146.4037365436477
 30
0.0
 11
1009.704007459699
 21
146.4037365436477
 31
0.0
  0
LINE
  5
146B
330
2
100
AcDbEntity
  8
0
 62
     0
 48
0.005062
100
AcDbLine
 10
1011.2065177097
 20
147.2086700686477
 30
0.0
 11
1011.2065177097
 21
146.4037365436477
 31
0.0
  0
LINE
  5
146C
330
2
100
AcDbEntity
  8
0
 62
     0
 48
0.029025
100
AcDbLine
 10
1006.591562584698
 20
147.2086700686477
 30
0.0
 11
1011.2065177097
 21
147.2086700686477
 31
0.0
  0
LINE
  5
146D
330
2
100
AcDbEntity
  8
0
 62
     0
 48
0.005062
100
AcDbLine
 10
1006.591562584698
 20
146.4037365436477
 30
0.0
 11
1006.591562584698
 21
147.2086700686477
 31
0.0
  0
LINE
  5
146E
330
2
100
AcDbEntity
  8
0
 62
     0
 48
0.00945
100
AcDbLine
 10
1008.094136434698
 20
146.4037365436477
 30
0.0
 11
1006.591562584698
 21
146.4037365436477
 31
0.0
  0
LINE
  5
146F
330
2
100
AcDbEntity
  8
0
 62
     0
 48
0.023288
100
AcDbLine
 10
1008.094136434698
 20
142.7010121186467
 30
0.0
 11
1008.094136434698
 21
146.4037365436477
 31
0.0
  0
LINE
  5
1470
330
2
100
AcDbEntity
  8
0
 62
     0
 48
0.045119
100
AcDbLine
 10
1002.513208609697
 20
147.2086700686477
 30
0.0
 11
1008.094136434698
 21
142.7010121186467
 31
0.0
  0
LINE
  5
1471
330
2
100
AcDbEntity
  8
0
 62
     0
 48
0.02295
100
AcDbLine
 10
998.8641625847018
 20
147.2086700686477
 30
0.0
 11
1002.513208609697
 21
147.2086700686477
 31
0.0
  0
LINE
  5
1472
330
2
100
AcDbEntity
  8
0
 62
     0
 48
0.005062
100
AcDbLine
 10
998.8641625847018
 20
146.4037365436477
 30
0.0
 11
998.8641625847018
 21
147.2086700686477
 31
0.0
  0
LINE
  5
1473
330
2
100
AcDbEntity
  8
0
 62
     0
 48
0.00945
100
AcDbLine
 10
1000.366736434701
 20
146.4037365436477
 30
0.0
 11
998.8641625847018
 21
146.4037365436477
 31
0.0
  0
LINE
  5
1474
330
2
100
AcDbEntity
  8
0
 62
     0
 48
0.03375
100
AcDbLine
 10
1000.366736434701
 20
141.037462693647
 30
0.0
 11
1000.366736434701
 21
146.4037365436477
 31
0.0
  0
LINE
  5
1475
330
2
100
AcDbEntity
  8
0
 62
     0
 48
0.00945
100
AcDbLine
 10
998.8641625847018
 20
141.037462693647
 30
0.0
 11
1000.366736434701
 21
141.037462693647
 31
0.0
  0
LINE
  5
1476
330
2
100
AcDbEntity
  8
0
 62
     0
 48
0.005062
100
AcDbLine
 10
998.8641625847018
 20
140.2325251936467
 30
0.0
 11
998.8641625847018
 21
141.037462693647
 31
0.0
  0
ARC
  5
1477
330
2
100
AcDbEntity
  8
0
 62
     0
100
AcDbCircle
 10
1018.987600084701
 20
136.8518115436466
 30
0.0
 40
10.625175
100
AcDbArc
 50
64.72499000000571
 51
115.2750149999926
  0
ARC
  5
1478
330
2
100
AcDbEntity
  8
0
 62
     0
100
AcDbCircle
 10
1015.928833609698
 20
143.7205996186474
 30
0.0
 40
3.112424999999998
100
AcDbArc
 50
118.3467549999865
 51
241.6532420000021
  0
ARC
  5
1479
330
2
100
AcDbEntity
  8
0
 62
     0
100
AcDbCircle
 10
1018.987600084701
 20
150.5893876936475
 30
0.0
 40
10.625175
100
AcDbArc
 50
244.7249960000019
 51
295.2750069999957
  0
ARC
  5
147A
330
2
100
AcDbEntity
  8
0
 62
     0
100
AcDbCircle
 10
1022.046362584698
 20
143.7205996186474
 30
0.0
 40
3.112424999999998
100
AcDbArc
 50
298.3467619999938
 51
61.65324300002336
  0
ARC
  5
147B
330
2
100
AcDbEntity
  8
0
 62
     0
100
AcDbCircle
 10
1019.6852364347
 20
143.7205996186474
 30
0.0
 40
2.790449999999998
100
AcDbArc
 50
305.4392029999728
 51
70.52459300000333
  0
ARC
  5
147C
330
2
100
AcDbEntity
  8
0
 62
     0
100
AcDbCircle
 10
1018.987600084701
 20
145.062138268647
 30
0.0
 40
4.293083474999998
100
AcDbArc
 50
237.3582280000003
 51
302.6417750000083
  0
ARC
  5
147D
330
2
100
AcDbEntity
  8
0
 62
     0
100
AcDbCircle
 10
1018.2900193847
 20
143.7205996186474
 30
0.0
 40
2.790449999999998
100
AcDbArc
 50
125.473455999991
 51
234.5607989999776
  0
ARC
  5
147E
330
2
100
AcDbEntity
  8
0
 62
     0
100
AcDbCircle
 10
1018.987600084701
 20
142.3790013436473
 30
0.0
 40
4.293
100
AcDbArc
 50
67.71515100001757
 51
122.664008000011
  0
ARC
  5
147F
330
2
100
AcDbEntity
  8
0
 62
     0
100
AcDbCircle
 10
967.4179534846976
 20
141.0911410936471
 30
0.0
 40
5.419912499999997
100
AcDbArc
 50
47.61290100002042
 51
130.836589999987
  0
ARC
  5
1480
330
2
100
AcDbEntity
  8
0
 62
     0
100
AcDbCircle
 10
968.9204677096991
 20
143.7205996186474
 30
0.0
 40
2.552415074999998
100
AcDbArc
 50
22.23683299998798
 51
32.56157500000806
  0
LINE
  5
1481
330
2
100
AcDbEntity
  8
0
 62
     0
 48
0.009779
100
AcDbLine
 10
972.8378461097014
 20
144.6865087186472
 30
0.0
 11
971.2830487097003
 21
144.6865087186472
 31
0.0
  0
LINE
  5
1482
330
2
100
AcDbEntity
  8
0
 62
     0
 48
0.015863
100
AcDbLine
 10
972.8378461097014
 20
144.6865087186472
 30
0.0
 11
972.8378461097014
 21
147.2086700686477
 31
0.0
  0
LINE
  5
1483
330
2
100
AcDbEntity
  8
0
 62
     0
 48
0.007425
100
AcDbLine
 10
972.8378461097014
 20
147.2086700686477
 30
0.0
 11
971.6572830346979
 21
147.2086700686477
 31
0.0
  0
LINE
  5
1484
330
2
100
AcDbEntity
  8
0
 62
     0
 48
0.006848
100
AcDbLine
 10
971.6572830346979
 20
147.2086700686477
 30
0.0
 11
971.6572830346979
 21
146.1198778186469
 31
0.0
  0
ARC
  5
1485
330
2
100
AcDbEntity
  8
0
 62
     0
100
AcDbCircle
 10
968.9204677096991
 20
142.7546905186468
 30
0.0
 40
4.337571674999998
100
AcDbArc
 50
50.87978999997854
 51
69.67686400002114
  0
ARC
  5
1486
330
2
100
AcDbEntity
  8
0
 62
     0
100
AcDbCircle
 10
966.7739955346974
 20
136.9591087186477
 30
0.0
 40
10.51785
100
AcDbArc
 50
69.67686400002114
 51
114.9026059999943
  0
ARC
  5
1487
330
2
100
AcDbEntity
  8
0
 62
     0
100
AcDbCircle
 10
963.983561434698
 20
143.7205996186474
 30
0.0
 40
3.2255535
100
AcDbArc
 50
120.5264329999962
 51
239.4735629999976
  0
ARC
  5
1488
330
2
100
AcDbEntity
  8
0
 62
     0
100
AcDbCircle
 10
966.7739955346974
 20
150.4820905186477
 30
0.0
 40
10.51785
100
AcDbArc
 50
245.0974039999865
 51
290.3231459999636
  0
ARC
  5
1489
330
2
100
AcDbEntity
  8
0
 62
     0
100
AcDbCircle
 10
968.9204677096991
 20
144.6865087186472
 30
0.0
 40
4.337571674999998
100
AcDbArc
 50
290.3231459999631
 51
333.5525890000089
  0
LINE
  5
148A
330
2
100
AcDbEntity
  8
0
 62
     0
 48
0.009566
100
AcDbLine
 10
972.8041222096969
 20
142.7546905186468
 30
0.0
 11
971.2830487097003
 21
142.7546905186468
 31
0.0
  0
ARC
  5
148B
330
2
100
AcDbEntity
  8
0
 62
     0
100
AcDbCircle
 10
968.9204677096991
 20
143.7205996186474
 30
0.0
 40
2.552415074999998
100
AcDbArc
 50
299.7448729999931
 51
337.763153999997
  0
ARC
  5
148C
330
2
100
AcDbEntity
  8
0
 62
     0
100
AcDbCircle
 10
967.4179534846976
 20
146.3500581436476
 30
0.0
 40
5.580899999999997
100
AcDbArc
 50
242.0490359999746
 51
299.7448729999931
  0
ARC
  5
148D
330
2
100
AcDbEntity
  8
0
 62
     0
100
AcDbCircle
 10
966.0227364346978
 20
143.7205996186474
 30
0.0
 40
2.604201374999999
100
AcDbArc
 50
145.6044559999991
 51
242.0490359999811
  0
LINE
  5
1490
330
2
100
AcDbEntity
  8
0
 62
     0
 48
0.2
100
AcDbLine
 10
1036.658787584698
 20
261.4642126936477
 30
0.0
 11
1043.658787584698
 21
261.4642126936477
 31
0.0
  0
LINE
  5
1491
330
2
100
AcDbEntity
  8
0
 62
     0
 48
0.2
100
AcDbLine
 10
1043.658787584698
 20
261.4642126936477
 30
0.0
 11
1044.158787584698
 21
260.9642126936477
 31
0.0
  0
LINE
  5
1492
330
2
100
AcDbEntity
  8
0
 62
     0
 48
0.2
100
AcDbLine
 10
1044.158787584698
 20
260.9642126936477
 30
0.0
 11
1044.158787584698
 21
243.9642126936477
 31
0.0
  0
LINE
  5
1493
330
2
100
AcDbEntity
  8
0
 62
     4
 48
0.2
100
AcDbLine
 10
1036.658787584698
 20
260.9642126936477
 30
0.0
 11
1044.158787584698
 21
260.9642126936477
 31
0.0
  0
LINE
  5
1494
330
2
100
AcDbEntity
  8
0
 62
     0
 48
0.2
100
AcDbLine
 10
1044.158787584698
 20
260.9642126936477
 30
0.0
 11
1044.158787584698
 21
243.9642126936477
 31
0.0
  0
LINE
  5
1495
330
2
100
AcDbEntity
  8
0
 62
     4
 48
0.2
100
AcDbLine
 10
1043.658787584698
 20
261.4642126936477
 30
0.0
 11
1043.658787584698
 21
243.4642126936477
 31
0.0
  0
LINE
  5
1496
330
2
100
AcDbEntity
  8
0
 62
     4
 48
0.2
100
AcDbLine
 10
1044.158787584698
 20
243.9642126936477
 30
0.0
 11
1036.658787584698
 21
243.9642126936477
 31
0.0
  0
LINE
  5
1497
330
2
100
AcDbEntity
  8
0
 62
     0
 48
0.2
100
AcDbLine
 10
1044.158787584698
 20
243.9642126936477
 30
0.0
 11
1043.658787584698
 21
243.4642126936477
 31
0.0
  0
LINE
  5
1498
330
2
100
AcDbEntity
  8
0
 62
     0
 48
0.2
100
AcDbLine
 10
1043.658787584698
 20
243.4642126936477
 30
0.0
 11
1036.658787584698
 21
243.4642126936477
 31
0.0
  0
LINE
  5
1499
330
2
100
AcDbEntity
  8
0
 62
     4
 48
0.2
100
AcDbLine
 10
1036.658787584698
 20
157.4642126936476
 30
0.0
 11
1044.158787584698
 21
157.4642126936476
 31
0.0
  0
LINE
  5
149A
330
2
100
AcDbEntity
  8
0
 62
     0
 48
0.2
100
AcDbLine
 10
1044.158787584698
 20
157.4642126936476
 30
0.0
 11
1044.158787584698
 21
140.4642126936476
 31
0.0
  0
LINE
  5
149B
330
2
100
AcDbEntity
  8
0
 62
     4
 48
0.2
100
AcDbLine
 10
1044.158787584698
 20
140.4642126936476
 30
0.0
 11
1036.658787584698
 21
140.4642126936476
 31
0.0
  0
LINE
  5
149C
330
2
100
AcDbEntity
  8
0
 62
     0
 48
0.2
100
AcDbLine
 10
1036.658787584698
 20
157.9642126936476
 30
0.0
 11
1043.658787584698
 21
157.9642126936476
 31
0.0
  0
LINE
  5
149D
330
2
100
AcDbEntity
  8
0
 62
     0
 48
0.2
100
AcDbLine
 10
1043.658787584698
 20
157.9642126936476
 30
0.0
 11
1044.158787584698
 21
157.4642126936476
 31
0.0
  0
LINE
  5
149E
330
2
100
AcDbEntity
  8
0
 62
     0
 48
0.2
100
AcDbLine
 10
1044.158787584698
 20
157.4642126936476
 30
0.0
 11
1044.158787584698
 21
140.4642126936476
 31
0.0
  0
LINE
  5
149F
330
2
100
AcDbEntity
  8
0
 62
     0
 48
0.2
100
AcDbLine
 10
1044.158787584698
 20
140.4642126936476
 30
0.0
 11
1043.658787584698
 21
139.9642126936476
 31
0.0
  0
LINE
  5
14A0
330
2
100
AcDbEntity
  8
0
 62
     0
 48
0.2
100
AcDbLine
 10
1043.658787584698
 20
139.9642126936476
 30
0.0
 11
1036.658787584698
 21
139.9642126936476
 31
0.0
  0
LINE
  5
14A1
330
2
100
AcDbEntity
  8
0
 62
     4
 48
0.2
100
AcDbLine
 10
1043.658787584698
 20
157.9642126936476
 30
0.0
 11
1043.658787584698
 21
139.9642126936476
 31
0.0
  0
LINE
  5
14A2
330
2
100
AcDbEntity
  8
0
 62
     0
 48
0.2
100
AcDbLine
 10
1036.658787584698
 20
42.96421269364759
 30
0.0
 11
1043.658787584698
 21
42.96421269364759
 31
0.0
  0
LINE
  5
14A3
330
2
100
AcDbEntity
  8
0
 62
     4
 48
0.2
100
AcDbLine
 10
1036.658787584698
 20
60.46421269364737
 30
0.0
 11
1044.158787584698
 21
60.46421269364737
 31
0.0
  0
LINE
  5
14A4
330
2
100
AcDbEntity
  8
0
 62
     0
 48
0.2
100
AcDbLine
 10
1044.158787584698
 20
60.46421269364737
 30
0.0
 11
1044.158787584698
 21
43.4642126936476
 31
0.0
  0
LINE
  5
14A5
330
2
100
AcDbEntity
  8
0
 62
     4
 48
0.2
100
AcDbLine
 10
1044.158787584698
 20
43.4642126936476
 30
0.0
 11
1036.658787584698
 21
43.4642126936476
 31
0.0
  0
LINE
  5
14A6
330
2
100
AcDbEntity
  8
0
 62
     0
 48
0.2
100
AcDbLine
 10
1036.658787584698
 20
60.96421269364737
 30
0.0
 11
1043.658787584698
 21
60.96421269364737
 31
0.0
  0
LINE
  5
14A7
330
2
100
AcDbEntity
  8
0
 62
     0
 48
0.2
100
AcDbLine
 10
1043.658787584698
 20
60.96421269364737
 30
0.0
 11
1044.158787584698
 21
60.46421269364737
 31
0.0
  0
LINE
  5
14A8
330
2
100
AcDbEntity
  8
0
 62
     0
 48
0.2
100
AcDbLine
 10
1044.158787584698
 20
60.46421269364737
 30
0.0
 11
1044.158787584698
 21
43.4642126936476
 31
0.0
  0
LINE
  5
14A9
330
2
100
AcDbEntity
  8
0
 62
     0
 48
0.2
100
AcDbLine
 10
1044.158787584698
 20
43.4642126936476
 30
0.0
 11
1043.658787584698
 21
42.96421269364759
 31
0.0
  0
LINE
  5
14AA
330
2
100
AcDbEntity
  8
0
 62
     4
 48
0.2
100
AcDbLine
 10
1043.658787584698
 20
60.96421269364737
 30
0.0
 11
1043.658787584698
 21
42.96421269364759
 31
0.0
  0
LINE
  5
14AB
330
2
100
AcDbEntity
  8
0
 62
     0
 48
0.2
100
AcDbLine
 10
1098.822949344012
 20
165.4642126936476
 30
0.0
 11
1098.822949344012
 21
148.0642126936475
 31
0.0
  0
LINE
  5
14AC
330
2
100
AcDbEntity
  8
0
 62
     0
 48
0.2
100
AcDbLine
 10
1098.822949344012
 20
148.0642126936475
 30
0.0
 11
1072.322949344012
 21
148.0642126936475
 31
0.0
  0
LINE
  5
14AD
330
2
100
AcDbEntity
  8
0
 62
     0
 48
0.2
100
AcDbLine
 10
1072.322949344012
 20
148.0642126936475
 30
0.0
 11
1072.322949344011
 21
165.4642126936476
 31
0.0
  0
LINE
  5
14AE
330
2
100
AcDbEntity
  8
0
 62
     0
 48
0.5
100
AcDbLine
 10
1069.572949344012
 20
165.4642126936476
 30
0.0
 11
1069.572949344012
 21
145.3142126936477
 31
0.0
  0
LINE
  5
14AF
330
2
100
AcDbEntity
  8
0
 62
     0
 48
0.5
100
AcDbLine
 10
1101.572949344012
 20
165.4642126936476
 30
0.0
 11
1101.572949344012
 21
145.3142126936475
 31
0.0
  0
LINE
  5
14B0
330
2
100
AcDbEntity
  8
0
 62
     0
 48
0.2
100
AcDbLine
 10
1098.822949344012
 20
148.0642126936475
 30
0.0
 11
1072.322949344012
 21
148.0642126936475
 31
0.0
  0
LINE
  5
14B1
330
2
100
AcDbEntity
  8
0
 62
     0
 48
0.5
100
AcDbLine
 10
1101.572949344011
 20
145.3142126936475
 30
0.0
 11
1069.572949344012
 21
145.3142126936477
 31
0.0
  0
LINE
  5
14B2
330
2
100
AcDbEntity
  8
0
 62
     0
 48
0.5
100
AcDbLine
 10
1072.322949344012
 20
148.0642126936475
 30
0.0
 11
1069.572949344012
 21
145.3142126936477
 31
0.0
  0
LINE
  5
14B3
330
2
100
AcDbEntity
  8
0
 62
     0
 48
0.5
100
AcDbLine
 10
1098.822949344012
 20
148.0642126936475
 30
0.0
 11
1101.572949344011
 21
145.3142126936475
 31
0.0
  0
CIRCLE
  5
14B4
330
2
100
AcDbEntity
  8
0
 62
     0
100
AcDbCircle
 10
1072.658787584698
 20
180.9642126936475
 30
0.0
 40
3.0
  0
CIRCLE
  5
14B5
330
2
100
AcDbEntity
  8
0
 62
     0
100
AcDbCircle
 10
1120.658787584698
 20
180.9642126936475
 30
0.0
 40
3.0
  0
LWPOLYLINE
  5
14B6
330
2
100
AcDbEntity
  8
0
 62
     0
100
AcDbPolyline
 90
        4
 70
     0
 43
0.0
 10
1072.158787584698
 20
180.4642126936475
 10
1070.158787584698
 20
180.4642126936475
 10
1070.158787584698
 20
181.4642126936475
 10
1072.158787584698
 20
181.4642126936475
  0
LWPOLYLINE
  5
14B7
330
2
100
AcDbEntity
  8
0
 62
     0
100
AcDbPolyline
 90
        4
 70
     0
 43
0.0
 10
1073.158787584698
 20
181.4642126936475
 10
1075.158787584698
 20
181.4642126936475
 10
1075.158787584698
 20
180.4642126936475
 10
1073.158787584698
 20
180.4642126936475
  0
LWPOLYLINE
  5
14B8
330
2
100
AcDbEntity
  8
0
 62
     0
100
AcDbPolyline
 90
        4
 70
     0
 43
0.0
 10
1072.158787584698
 20
181.4642126936475
 10
1072.158787584698
 20
183.4642126936475
 10
1073.158787584698
 20
183.4642126936475
 10
1073.158787584698
 20
181.4642126936475
  0
LWPOLYLINE
  5
14B9
330
2
100
AcDbEntity
  8
0
 62
     0
100
AcDbPolyline
 90
        4
 70
     0
 43
0.0
 10
1073.158787584698
 20
180.4642126936475
 10
1073.158787584698
 20
178.4642126936475
 10
1072.158787584698
 20
178.4642126936475
 10
1072.158787584698
 20
180.4642126936475
  0
LWPOLYLINE
  5
14BA
330
2
100
AcDbEntity
  8
0
 62
     0
100
AcDbPolyline
 90
        4
 70
     0
 43
0.0
 10
1121.158787584698
 20
180.4642126936475
 10
1123.158787584698
 20
180.4642126936475
 10
1123.158787584698
 20
181.4642126936475
 10
1121.158787584698
 20
181.4642126936475
  0
LWPOLYLINE
  5
14BB
330
2
100
AcDbEntity
  8
0
 62
     0
100
AcDbPolyline
 90
        4
 70
     0
 43
0.0
 10
1120.158787584698
 20
181.4642126936475
 10
1118.158787584698
 20
181.4642126936475
 10
1118.158787584698
 20
180.4642126936475
 10
1120.158787584698
 20
180.4642126936475
  0
LWPOLYLINE
  5
14BC
330
2
100
AcDbEntity
  8
0
 62
     0
100
AcDbPolyline
 90
        4
 70
     0
 43
0.0
 10
1121.158787584698
 20
181.4642126936475
 10
1121.158787584698
 20
183.4642126936475
 10
1120.158787584698
 20
183.4642126936475
 10
1120.158787584698
 20
181.4642126936475
  0
LWPOLYLINE
  5
14BD
330
2
100
AcDbEntity
  8
0
 62
     0
100
AcDbPolyline
 90
        4
 70
     0
 43
0.0
 10
1120.158787584698
 20
180.4642126936475
 10
1120.158787584698
 20
178.4642126936475
 10
1121.158787584698
 20
178.4642126936475
 10
1121.158787584698
 20
180.4642126936475
  0
LINE
  5
14BF
330
2
100
AcDbEntity
  8
0
 62
     7
100
AcDbLine
 10
889.3587875846987
 20
245.4642126936476
 30
0.0
 11
900.6587875846985
 21
245.4642126936475
 31
0.0
  0
ARC
  5
14C0
330
2
100
AcDbEntity
  8
0
 62
     7
100
AcDbCircle
 10
900.6587875846985
 20
226.4642126936474
 30
0.0
 40
0.5
100
AcDbArc
 50
270.0
 51
0.0
  0
LINE
  5
14C1
330
2
100
AcDbEntity
  8
0
 62
     7
100
AcDbLine
 10
900.6587875846985
 20
226.4642126936476
 30
0.0
 11
900.6587875846985
 21
245.4642126936475
 31
0.0
  0
LINE
  5
14C7
330
2
100
AcDbEntity
  8
0
 62
     7
100
AcDbLine
 10
889.3587875846987
 20
233.9642126936475
 30
0.0
 11
889.3587875846987
 21
245.4642126936476
 31
0.0
  0
LINE
  5
14C8
330
2
100
AcDbEntity
  8
0
 62
     7
100
AcDbLine
 10
885.6587875846985
 20
233.9642126936475
 30
0.0
 11
889.3587875846987
 21
233.9642126936474
 31
0.0
  0
LINE
  5
14C9
330
2
100
AcDbEntity
  8
0
 62
     7
100
AcDbLine
 10
885.6587875846985
 20
226.4642126936476
 30
0.0
 11
900.6587875846985
 21
226.4642126936476
 31
0.0
  0
ARC
  5
14CA
330
2
100
AcDbEntity
  8
0
 62
     7
100
AcDbCircle
 10
900.6587875846985
 20
245.4642126936475
 30
0.0
 40
0.5
100
AcDbArc
 50
0.0
 51
90.0
  0
ARC
  5
14CB
330
2
100
AcDbEntity
  8
0
 62
     7
100
AcDbCircle
 10
885.6587875846985
 20
226.4642126936476
 30
0.0
 40
0.5
100
AcDbArc
 50
180.0
 51
270.0
  0
ARC
  5
14CC
330
2
100
AcDbEntity
  8
0
 62
     7
100
AcDbCircle
 10
885.6587875846985
 20
245.4642126936476
 30
0.0
 40
0.5
100
AcDbArc
 50
90.0
 51
180.0
  0
LINE
  5
14CD
330
2
100
AcDbEntity
  8
0
 62
     7
100
AcDbLine
 10
885.6587875846985
 20
245.9642126936474
 30
0.0
 11
900.6587875846985
 21
245.9642126936474
 31
0.0
  0
LINE
  5
14CE
330
2
100
AcDbEntity
  8
0
 62
     7
100
AcDbLine
 10
885.1587875846986
 20
226.4642126936476
 30
0.0
 11
885.1587875846986
 21
245.4642126936476
 31
0.0
  0
LINE
  5
14CF
330
2
100
AcDbEntity
  8
0
 62
     7
100
AcDbLine
 10
901.1587875846982
 20
226.4642126936474
 30
0.0
 11
901.1587875846982
 21
245.4642126936475
 31
0.0
  0
LINE
  5
14D0
330
2
100
AcDbEntity
  8
0
 62
     7
100
AcDbLine
 10
885.6587875846985
 20
225.9642126936474
 30
0.0
 11
900.6587875846985
 21
225.9642126936474
 31
0.0
  0
LINE
  5
14D1
330
2
100
AcDbEntity
  8
0
 62
     7
100
AcDbLine
 10
885.6587875846985
 20
226.4642126936476
 30
0.0
 11
885.6587875846985
 21
233.9642126936475
 31
0.0
  0
LINE
  5
14D2
330
2
100
AcDbEntity
  8
0
 62
     7
100
AcDbLine
 10
890.1037875846981
 20
232.1144412226579
 30
0.0
 11
886.8124547004482
 21
230.2141893013709
 31
0.0
  0
ARC
  5
14D3
330
2
100
AcDbEntity
  8
0
 62
     7
100
AcDbCircle
 10
890.1587875846985
 20
230.214189292562
 30
0.0
 40
0.51
100
AcDbArc
 50
156.1859646674556
 51
158.8140353325453
  0
ARC
  5
14D4
330
2
100
AcDbEntity
  8
0
 62
     7
100
AcDbCircle
 10
890.1587875846985
 20
230.214189292562
 30
0.0
 40
0.51
100
AcDbArc
 50
126.1859646674434
 51
128.8140353325434
  0
ARC
  5
14D5
330
2
100
AcDbEntity
  8
0
 62
     7
100
AcDbCircle
 10
890.1587875846985
 20
230.214189292562
 30
0.0
 40
0.51
100
AcDbArc
 50
141.1859646674492
 51
143.8140353325471
  0
ARC
  5
14D6
330
2
100
AcDbEntity
  8
0
 62
     7
100
AcDbCircle
 10
890.1587875846985
 20
230.214189292562
 30
0.0
 40
0.51
100
AcDbArc
 50
111.1859646674567
 51
113.8140353325401
  0
ARC
  5
14D7
330
2
100
AcDbEntity
  8
0
 62
     7
100
AcDbCircle
 10
890.1587875846985
 20
230.214189292562
 30
0.0
 40
0.51
100
AcDbArc
 50
96.18596466745998
 51
98.81403533253807
  0
ARC
  5
14D8
330
2
100
AcDbEntity
  8
0
 62
     7
100
AcDbCircle
 10
890.1587875846985
 20
230.214189292562
 30
0.0
 40
0.51
100
AcDbArc
 50
66.18596466746701
 51
68.81403533254965
  0
ARC
  5
14D9
330
2
100
AcDbEntity
  8
0
 62
     7
100
AcDbCircle
 10
890.1587875846985
 20
230.214189292562
 30
0.0
 40
0.51
100
AcDbArc
 50
81.18596466746192
 51
83.81403533254003
  0
ARC
  5
14DA
330
2
100
AcDbEntity
  8
0
 62
     7
100
AcDbCircle
 10
890.1587875846985
 20
230.214189292562
 30
0.0
 40
0.51
100
AcDbArc
 50
51.18596466744687
 51
53.81403533255659
  0
ARC
  5
14DB
330
2
100
AcDbEntity
  8
0
 62
     7
100
AcDbCircle
 10
890.1587875846985
 20
230.214189292562
 30
0.0
 40
0.51
100
AcDbArc
 50
36.18596466745538
 51
38.81403533255083
  0
ARC
  5
14DC
330
2
100
AcDbEntity
  8
0
 62
     7
100
AcDbCircle
 10
890.1587875846985
 20
230.214189292562
 30
0.0
 40
0.51
100
AcDbArc
 50
6.185964667456861
 51
8.814035332550917
  0
ARC
  5
14DD
330
2
100
AcDbEntity
  8
0
 62
     7
100
AcDbCircle
 10
890.1587875846985
 20
230.214189292562
 30
0.0
 40
0.51
100
AcDbArc
 50
21.18596466746687
 51
23.8140353325649
  0
ARC
  5
14DE
330
2
100
AcDbEntity
  8
0
 62
     7
100
AcDbCircle
 10
890.1587875846985
 20
230.214189292562
 30
0.0
 40
0.51
100
AcDbArc
 50
351.185964667462
 51
353.8140353325633
  0
ARC
  5
14DF
330
2
100
AcDbEntity
  8
0
 62
     7
100
AcDbCircle
 10
890.1587875846985
 20
230.214189292562
 30
0.0
 40
0.51
100
AcDbArc
 50
336.1859646674671
 51
338.8140353325773
  0
ARC
  5
14E0
330
2
100
AcDbEntity
  8
0
 62
     7
100
AcDbCircle
 10
890.1587875846985
 20
230.214189292562
 30
0.0
 40
0.51
100
AcDbArc
 50
306.185964667451
 51
308.8140353325783
  0
ARC
  5
14E1
330
2
100
AcDbEntity
  8
0
 62
     7
100
AcDbCircle
 10
890.1587875846985
 20
230.214189292562
 30
0.0
 40
0.51
100
AcDbArc
 50
321.1859646674542
 51
323.8140353325655
  0
ARC
  5
14E2
330
2
100
AcDbEntity
  8
0
 62
     7
100
AcDbCircle
 10
890.1587875846985
 20
230.214189292562
 30
0.0
 40
0.51
100
AcDbArc
 50
291.1859646674567
 51
293.8140353325401
  0
ARC
  5
14E3
330
2
100
AcDbEntity
  8
0
 62
     7
100
AcDbCircle
 10
890.1587875846985
 20
230.214189292562
 30
0.0
 40
0.51
100
AcDbArc
 50
276.18596466746
 51
278.8140353325446
  0
ARC
  5
14E4
330
2
100
AcDbEntity
  8
0
 62
     7
100
AcDbCircle
 10
890.1587875846985
 20
230.214189292562
 30
0.0
 40
0.51
100
AcDbArc
 50
216.1859646674527
 51
218.8140353325457
  0
ARC
  5
14E5
330
2
100
AcDbEntity
  8
0
 62
     7
100
AcDbCircle
 10
890.1587875846985
 20
230.214189292562
 30
0.0
 40
0.51
100
AcDbArc
 50
231.18596466744
 51
233.8140353325489
  0
ARC
  5
14E6
330
2
100
AcDbEntity
  8
0
 62
     7
100
AcDbCircle
 10
890.1587875846985
 20
230.214189292562
 30
0.0
 40
0.51
100
AcDbArc
 50
246.1859646674465
 51
248.8140353325427
  0
ARC
  5
14E7
330
2
100
AcDbEntity
  8
0
 62
     7
100
AcDbCircle
 10
890.1587875846985
 20
230.214189292562
 30
0.0
 40
0.51
100
AcDbArc
 50
261.1859646674554
 51
263.8140353325399
  0
ARC
  5
14E8
330
2
100
AcDbEntity
  8
0
 62
     7
100
AcDbCircle
 10
890.1587875846985
 20
230.214189292562
 30
0.0
 40
0.51
100
AcDbArc
 50
201.1859646674288
 51
203.8140353325444
  0
ARC
  5
14E9
330
2
100
AcDbEntity
  8
0
 62
     7
100
AcDbCircle
 10
890.1587875846985
 20
230.214189292562
 30
0.0
 40
0.51
100
AcDbArc
 50
186.1859646674601
 51
188.8140353325412
  0
ARC
  5
14EA
330
2
100
AcDbEntity
  8
0
 62
     7
100
AcDbCircle
 10
890.1587875846985
 20
230.214189292562
 30
0.0
 40
1.02
100
AcDbArc
 50
161.9090226026885
 51
168.0909773973103
  0
LINE
  5
14EB
330
2
100
AcDbEntity
  8
0
 62
     7
100
AcDbLine
 10
889.6828719590812
 20
230.398650690034
 30
0.0
 11
889.1892116484909
 21
230.5309265715921
 31
0.0
  0
LINE
  5
14EC
330
2
100
AcDbEntity
  8
0
 62
     7
100
AcDbLine
 10
889.6544018641201
 20
230.2923988491423
 30
0.0
 11
889.1607415535297
 21
230.4246747307002
 31
0.0
  0
ARC
  5
14ED
330
2
100
AcDbEntity
  8
0
 62
     7
100
AcDbCircle
 10
890.1587875846985
 20
230.214189292562
 30
0.0
 40
1.02
100
AcDbArc
 50
131.9090226026824
 51
138.0909773973149
  0
LINE
  5
14EE
330
2
100
AcDbEntity
  8
0
 62
     7
100
AcDbLine
 10
889.8388632615919
 20
230.6118953615992
 30
0.0
 11
889.4774788325598
 21
230.9732797906313
 31
0.0
  0
LINE
  5
14EF
330
2
100
AcDbEntity
  8
0
 62
     7
100
AcDbLine
 10
889.7610815156616
 20
230.5341136156685
 30
0.0
 11
889.3996970866291
 21
230.8954980447008
 31
0.0
  0
ARC
  5
14F0
330
2
100
AcDbEntity
  8
0
 62
     7
100
AcDbCircle
 10
890.1587875846985
 20
230.214189292562
 30
0.0
 40
1.02
100
AcDbArc
 50
101.9090226026736
 51
108.0909773973052
  0
LINE
  5
14F1
330
2
100
AcDbEntity
  8
0
 62
     7
100
AcDbLine
 10
890.0805780281181
 20
230.7185750131407
 30
0.0
 11
889.9483021465606
 21
231.212235323731
 31
0.0
  0
LINE
  5
14F2
330
2
100
AcDbEntity
  8
0
 62
     7
100
AcDbLine
 10
889.9743261872265
 20
230.6901049181793
 30
0.0
 11
889.8420503056685
 21
231.1837652287695
 31
0.0
  0
ARC
  5
14F3
330
2
100
AcDbEntity
  8
0
 62
     7
100
AcDbCircle
 10
890.1587875846985
 20
230.214189292562
 30
0.0
 40
1.02
100
AcDbArc
 50
71.90902260268756
 51
78.09097739731311
  0
LINE
  5
14F4
330
2
100
AcDbEntity
  8
0
 62
     7
100
AcDbLine
 10
890.3432489821707
 20
230.6901049181793
 30
0.0
 11
890.4755248637286
 21
231.1837652287695
 31
0.0
  0
LINE
  5
14F5
330
2
100
AcDbEntity
  8
0
 62
     7
100
AcDbLine
 10
890.2369971412786
 20
230.7185750131407
 30
0.0
 11
890.3692730228367
 21
231.212235323731
 31
0.0
  0
ARC
  5
14F6
330
2
100
AcDbEntity
  8
0
 62
     7
100
AcDbCircle
 10
890.1587875846985
 20
230.214189292562
 30
0.0
 40
1.02
100
AcDbArc
 50
41.90902260268265
 51
48.09097739731059
  0
LINE
  5
14F7
330
2
100
AcDbEntity
  8
0
 62
     7
100
AcDbLine
 10
890.5564936537357
 20
230.5341136156685
 30
0.0
 11
890.9178780827677
 21
230.8954980447008
 31
0.0
  0
LINE
  5
14F8
330
2
100
AcDbEntity
  8
0
 62
     7
100
AcDbLine
 10
890.4787119078051
 20
230.6118953615992
 30
0.0
 11
890.8400963368373
 21
230.9732797906313
 31
0.0
  0
ARC
  5
14F9
330
2
100
AcDbEntity
  8
0
 62
     7
100
AcDbCircle
 10
890.1587875846985
 20
230.214189292562
 30
0.0
 40
1.02
100
AcDbArc
 50
11.90902260268647
 51
18.09097739731463
  0
LINE
  5
14FA
330
2
100
AcDbEntity
  8
0
 62
     7
100
AcDbLine
 10
890.6631733052773
 20
230.2923988491423
 30
0.0
 11
891.1568336158675
 21
230.4246747307002
 31
0.0
  0
LINE
  5
14FB
330
2
100
AcDbEntity
  8
0
 62
     7
100
AcDbLine
 10
890.6347032103157
 20
230.3986506900342
 30
0.0
 11
891.1283635209061
 21
230.5309265715921
 31
0.0
  0
ARC
  5
14FC
330
2
100
AcDbEntity
  8
0
 62
     7
100
AcDbCircle
 10
890.1587875846985
 20
230.214189292562
 30
0.0
 40
1.02
100
AcDbArc
 50
341.9090226026853
 51
348.0909773973199
  0
LINE
  5
14FD
330
2
100
AcDbEntity
  8
0
 62
     7
100
AcDbLine
 10
890.6347032103157
 20
230.02972789509
 30
0.0
 11
891.1283635209061
 21
229.8974520135321
 31
0.0
  0
LINE
  5
14FE
330
2
100
AcDbEntity
  8
0
 62
     7
100
AcDbLine
 10
890.6631733052773
 20
230.1359797359816
 30
0.0
 11
891.1568336158673
 21
230.003703854424
 31
0.0
  0
ARC
  5
14FF
330
2
100
AcDbEntity
  8
0
 62
     7
100
AcDbCircle
 10
890.1587875846985
 20
230.214189292562
 30
0.0
 40
1.02
100
AcDbArc
 50
311.90902260269
 51
318.0909773973239
  0
LINE
  5
1500
330
2
100
AcDbEntity
  8
0
 62
     7
100
AcDbLine
 10
890.4787119078051
 20
229.816483223525
 30
0.0
 11
890.8400963368373
 21
229.4550987944926
 31
0.0
  0
LINE
  5
1501
330
2
100
AcDbEntity
  8
0
 62
     7
100
AcDbLine
 10
890.5564936537357
 20
229.8942649694557
 30
0.0
 11
890.9178780827677
 21
229.5328805404233
 31
0.0
  0
ARC
  5
1502
330
2
100
AcDbEntity
  8
0
 62
     7
100
AcDbCircle
 10
890.1587875846985
 20
230.214189292562
 30
0.0
 40
1.02
100
AcDbArc
 50
281.909022602687
 51
288.0909773973187
  0
LINE
  5
1503
330
2
100
AcDbEntity
  8
0
 62
     7
100
AcDbLine
 10
890.2369971412786
 20
229.7098035719835
 30
0.0
 11
890.3692730228367
 21
229.2161432613932
 31
0.0
  0
LINE
  5
1504
330
2
100
AcDbEntity
  8
0
 62
     7
100
AcDbLine
 10
890.3432489821707
 20
229.7382736669447
 30
0.0
 11
890.4755248637286
 21
229.2446133563544
 31
0.0
  0
ARC
  5
1505
330
2
100
AcDbEntity
  8
0
 62
     7
100
AcDbCircle
 10
890.1587875846985
 20
230.214189292562
 30
0.0
 40
1.02
100
AcDbArc
 50
251.9090226026944
 51
258.0909773973264
  0
LINE
  5
1506
330
2
100
AcDbEntity
  8
0
 62
     7
100
AcDbLine
 10
889.9743261872265
 20
229.7382736669449
 30
0.0
 11
889.8420503056685
 21
229.2446133563544
 31
0.0
  0
LINE
  5
1507
330
2
100
AcDbEntity
  8
0
 62
     7
100
AcDbLine
 10
890.0805780281181
 20
229.7098035719835
 30
0.0
 11
889.9483021465602
 21
229.2161432613932
 31
0.0
  0
ARC
  5
1508
330
2
100
AcDbEntity
  8
0
 62
     7
100
AcDbCircle
 10
890.1587875846985
 20
230.214189292562
 30
0.0
 40
1.02
100
AcDbArc
 50
221.9090226026827
 51
228.0909773973106
  0
LINE
  5
1509
330
2
100
AcDbEntity
  8
0
 62
     7
100
AcDbLine
 10
889.7610815156616
 20
229.8942649694557
 30
0.0
 11
889.3996970866291
 21
229.5328805404233
 31
0.0
  0
LINE
  5
150A
330
2
100
AcDbEntity
  8
0
 62
     7
100
AcDbLine
 10
889.8388632615919
 20
229.816483223525
 30
0.0
 11
889.4774788325598
 21
229.4550987944926
 31
0.0
  0
LINE
  5
150B
330
2
100
AcDbEntity
  8
0
 62
     7
100
AcDbLine
 10
889.6828719590812
 20
230.02972789509
 30
0.0
 11
889.1892116484909
 21
229.8974520135321
 31
0.0
  0
LINE
  5
150C
330
2
100
AcDbEntity
  8
0
 62
     7
100
AcDbLine
 10
889.6544018641201
 20
230.1359797359816
 30
0.0
 11
889.1607415535297
 21
230.003703854424
 31
0.0
  0
ARC
  5
150D
330
2
100
AcDbEntity
  8
0
 62
     7
100
AcDbCircle
 10
890.1587875846985
 20
230.214189292562
 30
0.0
 40
0.51
100
AcDbArc
 50
171.1859646674458
 51
173.8140353325528
  0
ARC
  5
150E
330
2
100
AcDbEntity
  8
0
 62
     7
100
AcDbCircle
 10
890.1587875846985
 20
230.214189292562
 30
0.0
 40
1.02
100
AcDbArc
 50
191.9090226026833
 51
198.0909773973228
  0
ARC
  5
150F
330
2
100
AcDbEntity
  8
0
 62
     7
100
AcDbCircle
 10
890.1587875846985
 20
230.214189292562
 30
0.0
 40
1.53
100
AcDbArc
 50
147.9399039436399
 51
152.060096056348
  0
LINE
  5
1510
330
2
100
AcDbEntity
  8
0
 62
     7
100
AcDbLine
 10
889.6918305135322
 20
230.4202785536891
 30
0.0
 11
888.8071251135492
 21
230.9310634545227
 31
0.0
  0
LINE
  5
1511
330
2
100
AcDbEntity
  8
0
 62
     7
100
AcDbLine
 10
889.7468305135323
 20
230.5155413481054
 30
0.0
 11
888.8621251135491
 21
231.0263262489391
 31
0.0
  0
ARC
  5
1512
330
2
100
AcDbEntity
  8
0
 62
     7
100
AcDbCircle
 10
890.1587875846985
 20
230.214189292562
 30
0.0
 40
1.53
100
AcDbArc
 50
117.9399039436429
 51
122.0600960563551
  0
LINE
  5
1513
330
2
100
AcDbEntity
  8
0
 62
     7
100
AcDbLine
 10
889.8574355291552
 20
230.6261463637284
 30
0.0
 11
889.3466506283216
 21
231.5108517637114
 31
0.0
  0
LINE
  5
1514
330
2
100
AcDbEntity
  8
0
 62
     7
100
AcDbLine
 10
889.9526983235716
 20
230.6811463637284
 30
0.0
 11
889.441913422738
 21
231.5658517637114
 31
0.0
  0
LINE
  5
1515
330
2
100
AcDbEntity
  8
0
 62
     7
100
AcDbLine
 10
890.1037875846981
 20
230.7216306092323
 30
0.0
 11
890.1037875846981
 21
232.1144412226579
 31
0.0
  0
LINE
  5
1516
330
2
100
AcDbEntity
  8
0
 62
     7
100
AcDbLine
 10
890.2137875846985
 20
230.7216306092323
 30
0.0
 11
890.2137875846985
 21
232.1779497520872
 31
0.0
  0
ARC
  5
1517
330
2
100
AcDbEntity
  8
0
 62
     7
100
AcDbCircle
 10
890.1587875846985
 20
230.214189292562
 30
0.0
 40
1.53
100
AcDbArc
 50
57.93990394365185
 51
62.06009605634982
  0
LINE
  5
1518
330
2
100
AcDbEntity
  8
0
 62
     7
100
AcDbLine
 10
890.3648768458255
 20
230.6811463637284
 30
0.0
 11
890.875661746659
 21
231.5658517637114
 31
0.0
  0
LINE
  5
1519
330
2
100
AcDbEntity
  8
0
 62
     7
100
AcDbLine
 10
890.4601396402416
 20
230.6261463637284
 30
0.0
 11
890.9709245410754
 21
231.5108517637114
 31
0.0
  0
ARC
  5
151A
330
2
100
AcDbEntity
  8
0
 62
     7
100
AcDbCircle
 10
890.1587875846985
 20
230.214189292562
 30
0.0
 40
1.53
100
AcDbArc
 50
27.93990394364023
 51
32.06009605634835
  0
LINE
  5
151B
330
2
100
AcDbEntity
  8
0
 62
     7
100
AcDbLine
 10
890.5707446558649
 20
230.5155413481054
 30
0.0
 11
891.4554500558478
 21
231.0263262489389
 31
0.0
  0
LINE
  5
151C
330
2
100
AcDbEntity
  8
0
 62
     7
100
AcDbLine
 10
890.6257446558647
 20
230.4202785536891
 30
0.0
 11
891.5104500558477
 21
230.9310634545227
 31
0.0
  0
ARC
  5
151D
330
2
100
AcDbEntity
  8
0
 62
     7
100
AcDbCircle
 10
890.1587875846985
 20
230.214189292562
 30
0.0
 40
1.53
100
AcDbArc
 50
357.9399039436423
 51
2.06009605635753
  0
LINE
  5
151E
330
2
100
AcDbEntity
  8
0
 62
     7
100
AcDbLine
 10
890.6662289013688
 20
230.269189292562
 30
0.0
 11
891.687798703036
 21
230.269189292562
 31
0.0
  0
LINE
  5
151F
330
2
100
AcDbEntity
  8
0
 62
     7
100
AcDbLine
 10
890.6662289013688
 20
230.1591892925621
 30
0.0
 11
891.687798703036
 21
230.1591892925621
 31
0.0
  0
ARC
  5
1520
330
2
100
AcDbEntity
  8
0
 62
     7
100
AcDbCircle
 10
890.1587875846985
 20
230.214189292562
 30
0.0
 40
1.53
100
AcDbArc
 50
327.9399039436461
 51
332.0600960563599
  0
LINE
  5
1521
330
2
100
AcDbEntity
  8
0
 62
     7
100
AcDbLine
 10
890.6257446558647
 20
230.0081000314351
 30
0.0
 11
891.5104500558477
 21
229.4973151306014
 31
0.0
  0
LINE
  5
1522
330
2
100
AcDbEntity
  8
0
 62
     7
100
AcDbLine
 10
890.5707446558649
 20
229.9128372370187
 30
0.0
 11
891.4554500558478
 21
229.4020523361851
 31
0.0
  0
ARC
  5
1523
330
2
100
AcDbEntity
  8
0
 62
     7
100
AcDbCircle
 10
890.1587875846985
 20
230.214189292562
 30
0.0
 40
1.53
100
AcDbArc
 50
297.9399039436503
 51
302.0600960563543
  0
LINE
  5
1524
330
2
100
AcDbEntity
  8
0
 62
     7
100
AcDbLine
 10
890.4601396402416
 20
229.8022322213958
 30
0.0
 11
890.9709245410754
 21
228.9175268214128
 31
0.0
  0
LINE
  5
1525
330
2
100
AcDbEntity
  8
0
 62
     7
100
AcDbLine
 10
890.3648768458255
 20
229.7472322213957
 30
0.0
 11
890.875661746659
 21
228.8625268214127
 31
0.0
  0
ARC
  5
1526
330
2
100
AcDbEntity
  8
0
 62
     7
100
AcDbCircle
 10
890.1587875846985
 20
230.214189292562
 30
0.0
 40
1.53
100
AcDbArc
 50
267.9399039436459
 51
272.0600960563542
  0
LINE
  5
1527
330
2
100
AcDbEntity
  8
0
 62
     7
100
AcDbLine
 10
890.2137875846985
 20
229.7067479758919
 30
0.0
 11
890.2137875846985
 21
228.6851781742246
 31
0.0
  0
LINE
  5
1528
330
2
100
AcDbEntity
  8
0
 62
     7
100
AcDbLine
 10
890.1037875846981
 20
229.7067479758919
 30
0.0
 11
890.1037875846981
 21
228.6851781742246
 31
0.0
  0
ARC
  5
1529
330
2
100
AcDbEntity
  8
0
 62
     7
100
AcDbCircle
 10
890.1587875846985
 20
230.214189292562
 30
0.0
 40
1.53
100
AcDbArc
 50
237.9399039436446
 51
242.0600960563568
  0
LINE
  5
152A
330
2
100
AcDbEntity
  8
0
 62
     7
100
AcDbLine
 10
889.9526983235716
 20
229.7472322213957
 30
0.0
 11
889.441913422738
 21
228.8625268214127
 31
0.0
  0
LINE
  5
152B
330
2
100
AcDbEntity
  8
0
 62
     7
100
AcDbLine
 10
889.8574355291552
 20
229.8022322213958
 30
0.0
 11
889.3466506283216
 21
228.9175268214128
 31
0.0
  0
ARC
  5
152C
330
2
100
AcDbEntity
  8
0
 62
     7
100
AcDbCircle
 10
890.1587875846985
 20
230.214189292562
 30
0.0
 40
1.53
100
AcDbArc
 50
207.9399039436402
 51
212.0600960563511
  0
LINE
  5
152D
330
2
100
AcDbEntity
  8
0
 62
     7
100
AcDbLine
 10
889.7468305135323
 20
229.9128372370187
 30
0.0
 11
888.8621251135491
 21
229.4020523361851
 31
0.0
  0
LINE
  5
152E
330
2
100
AcDbEntity
  8
0
 62
     7
100
AcDbLine
 10
889.6918305135322
 20
230.0081000314351
 30
0.0
 11
888.8071251135492
 21
229.4973151306014
 31
0.0
  0
ARC
  5
152F
330
2
100
AcDbEntity
  8
0
 62
     7
100
AcDbCircle
 10
890.1587875846985
 20
230.214189292562
 30
0.0
 40
1.53
100
AcDbArc
 50
177.9399039436392
 51
182.060096056351
  0
LINE
  5
1530
330
2
100
AcDbEntity
  8
0
 62
     7
100
AcDbLine
 10
889.6513462680283
 20
230.1591892925621
 30
0.0
 11
888.6297764663609
 21
230.1591892925621
 31
0.0
  0
LINE
  5
1531
330
2
100
AcDbEntity
  8
0
 62
     7
100
AcDbLine
 10
889.6513462680283
 20
230.269189292562
 30
0.0
 11
888.6297764663609
 21
230.269189292562
 31
0.0
  0
LINE
  5
1532
330
2
100
AcDbEntity
  8
0
 62
     7
100
AcDbLine
 10
891.8319540264121
 20
227.3161800060448
 30
0.0
 11
891.8319540264121
 21
233.1121985801358
 31
0.0
  0
LINE
  5
1533
330
2
100
AcDbEntity
  8
0
 62
     7
100
AcDbLine
 10
891.8319540264121
 20
233.1121985801358
 30
0.0
 11
890.2137875846985
 21
232.1779497520872
 31
0.0
  0
LINE
  5
1534
330
2
100
AcDbEntity
  8
0
 62
     7
100
AcDbLine
 10
891.8319540264121
 20
227.3161800060448
 30
0.0
 11
886.8124547004482
 21
230.2141893013709
 31
0.0
  0
LINE
  5
1535
330
2
100
AcDbEntity
  8
0
 62
     7
100
AcDbLine
 10
891.9419540261763
 20
226.7446032391388
 30
0.0
 11
886.2624547002125
 21
230.0236637137632
 31
0.0
  0
LINE
  5
1536
330
2
100
AcDbEntity
  8
0
 62
     7
100
AcDbLine
 10
891.9419540266476
 20
233.6837753462253
 30
0.0
 11
886.2624547006841
 21
230.4047148914283
 31
0.0
  0
LINE
  5
1537
330
2
100
AcDbEntity
  8
0
 62
     7
100
AcDbLine
 10
892.271954026412
 20
226.9351288278351
 30
0.0
 11
892.271954026412
 21
233.4932497572568
 31
0.0
  0
ARC
  5
1538
330
2
100
AcDbEntity
  8
0
 62
     7
100
AcDbCircle
 10
892.0519540264121
 20
226.9351288278351
 30
0.0
 40
0.22
100
AcDbArc
 50
239.999999929117
 51
0.0
  0
ARC
  5
1539
330
2
100
AcDbEntity
  8
0
 62
     7
100
AcDbCircle
 10
892.0519540264121
 20
233.4932497572568
 30
0.0
 40
0.22
100
AcDbArc
 50
0.0
 51
119.9999999291847
  0
ARC
  5
153A
330
2
100
AcDbEntity
  8
0
 62
     7
100
AcDbCircle
 10
886.3724547004483
 20
230.2141893024595
 30
0.0
 40
0.22
100
AcDbArc
 50
119.9999999291847
 51
239.9999999290649
  0
ENDSEC
  0
SECTION
  2
OBJECTS
  0
DICTIONARY
  5
9
330
0
100
AcDbDictionary
281
     1
  3
ACAD_CIP_PREVIOUS_PRODUCT_INFO
350
3B8
  3
ACAD_COLOR
350
4B
  3
ACAD_DETAILVIEWSTYLE
350
3B3
  3
ACAD_GROUP
350
3F
  3
ACAD_LAYOUT
350
20
  3
ACAD_MATERIAL
350
B
  3
ACAD_MLEADERSTYLE
350
4E
  3
ACAD_MLINESTYLE
350
40
  3
ACAD_PLOTSETTINGS
350
41
  3
ACAD_PLOTSTYLENAME
350
8
  3
ACAD_SCALELIST
350
4C
  3
ACAD_SECTIONVIEWSTYLE
350
3B1
  3
ACAD_TABLESTYLE
350
4D
  3
ACAD_VISUALSTYLE
350
31
  3
ACDB_RECOMPOSE_DATA
350
15A8
  3
AcDbVariableDictionary
350
383
  3
DWGPROPS
350
15A9
  0
DICTIONARY
  5
3BD
330
25
100
AcDbDictionary
280
     1
281
     1
  3
ACAD_LAYERSTATES
360
3BE
  0
DICTIONARY
  5
5
330
4
100
AcDbDictionary
280
     1
281
     1
  3
ADSK_XREC_LAYER_RECONCILED
360
6
  0
XRECORD
  5
3B8
102
{ACAD_REACTORS
330
9
102
}
330
9
100
AcDbXrecord
280
     1
300
ACDLT
300
2020
300

  0
DICTIONARY
  5
4B
102
{ACAD_REACTORS
330
9
102
}
330
9
100
AcDbDictionary
281
     1
  0
DICTIONARY
  5
3B3
102
{ACAD_REACTORS
330
9
102
}
330
9
100
AcDbDictionary
281
     1
  3
Imperial24
350
3B4
  0
DICTIONARY
  5
3F
102
{ACAD_REACTORS
330
9
102
}
330
9
100
AcDbDictionary
281
     1
  0
DICTIONARY
  5
20
102
{ACAD_REACTORS
330
9
102
}
330
9
100
AcDbDictionary
281
     1
  3
Model
350
1F
  3
レイアウト1
350
24
  0
DICTIONARY
  5
B
102
{ACAD_REACTORS
330
9
102
}
330
9
100
AcDbDictionary
281
     1
  3
ByBlock
350
42
  3
ByLayer
350
15
  3
Global
350
A
  0
DICTIONARY
  5
4E
102
{ACAD_REACTORS
330
9
102
}
330
9
100
AcDbDictionary
281
     1
  3
Standard
350
3B0
  0
DICTIONARY
  5
40
102
{ACAD_REACTORS
330
9
102
}
330
9
100
AcDbDictionary
281
     1
  3
STANDARD
350
56
  0
DICTIONARY
  5
41
102
{ACAD_REACTORS
330
9
102
}
330
9
100
AcDbDictionary
281
     1
  0
ACDBDICTIONARYWDFLT
  5
8
102
{ACAD_REACTORS
330
9
102
}
330
9
100
AcDbDictionary
281
     1
  3
Normal
350
7
100
AcDbDictionaryWithDefault
340
7
  0
DICTIONARY
  5
4C
102
{ACAD_REACTORS
330
9
102
}
330
9
100
AcDbDictionary
281
     1
  3
A0
350
5B
  3
A1
350
5C
  3
A2
350
5D
  3
A3
350
5E
  3
A4
350
5F
  3
A5
350
60
  3
A6
350
61
  3
A7
350
62
  3
A8
350
63
  3
A9
350
64
  3
B0
350
65
  3
B1
350
66
  3
B2
350
67
  3
B3
350
68
  3
B4
350
69
  3
B5
350
6A
  3
B6
350
6B
  0
DICTIONARY
  5
3B1
102
{ACAD_REACTORS
330
9
102
}
330
9
100
AcDbDictionary
281
     1
  3
Imperial24
350
3B2
  0
DICTIONARY
  5
4D
102
{ACAD_REACTORS
330
9
102
}
330
9
100
AcDbDictionary
281
     1
  3
Standard
350
57
  0
DICTIONARY
  5
31
102
{ACAD_REACTORS
330
9
102
}
330
9
100
AcDbDictionary
281
     1
  3
2dWireframe
350
30
  3
Basic
350
39F
  3
Brighten
350
3A3
  3
ColorChange
350
3A7
  3
Conceptual
350
3A1
  3
Dim
350
3A2
  3
EdgeColorOff
350
3AF
  3
Facepattern
350
3A6
  3
Flat
350
39B
  3
FlatWithEdges
350
39C
  3
Gouraud
350
39D
  3
GouraudWithEdges
350
39E
  3
Hidden
350
3A0
  3
JitterOff
350
3AD
  3
Linepattern
350
3A5
  3
OverhangOff
350
3AE
  3
Realistic
350
59
  3
Shaded
350
3AC
  3
Shaded with edges
350
3AB
  3
Shades of Gray
350
3A8
  3
Sketchy
350
3A9
  3
Thicken
350
3A4
  3
Wireframe
350
5A
  3
X-Ray
350
3AA
  0
XRECORD
  5
15A8
102
{ACAD_REACTORS
330
9
102
}
330
9
100
AcDbXrecord
280
     1
 90
        1
330
57
330
13DC
330
13DD
330
13DE
330
13DF
  0
DICTIONARY
  5
383
102
{ACAD_REACTORS
330
9
102
}
330
9
100
AcDbDictionary
281
     1
  3
CANNOSCALE
350
386
  3
CMLEADERSTYLE
350
385
  3
CTABLESTYLE
350
384
  3
CVIEWDETAILSTYLE
350
F9B
  3
CVIEWSECTIONSTYLE
350
F9C
  3
DIMASSOC
350
38A
  3
HIDETEXT
350
389
  3
INDEXCTL
350
388
  3
LAYEREVAL
350
F9F
  3
LAYERNOTIFY
350
FA0
  3
LIGHTINGUNITS
350
F9E
  3
LOFTANG1
350
15A4
  3
LOFTANG2
350
15A5
  3
MSLTSCALE
350
F9D
  3
SORTENTS
350
387
  3
XCLIPFRAME
350
15A6
  0
XRECORD
  5
15A9
102
{ACAD_REACTORS
330
9
102
}
330
9
100
AcDbXrecord
280
     1
  1
DWGPROPS COOKIE
  2

  3

  4

  6

  7

  8
yanase-ka
  9

300
=
301
=
302
=
303
=
304
=
305
=
306
=
307
=
308
=
309
=
 40
0.3773045833333333
 41
2450690.700081019
 42
2459548.43693287
  1

 90
        0
  0
DICTIONARY
  5
3BE
102
{ACAD_REACTORS
330
3BD
102
}
330
3BD
100
AcDbDictionary
281
     1
  0
XRECORD
  5
6
102
{ACAD_REACTORS
330
5
102
}
330
5
100
AcDbXrecord
280
     1
290
     1
  0
ACDBDETAILVIEWSTYLE
  5
3B4
102
{ACAD_XDICTIONARY
360
15E1
102
}
102
{ACAD_REACTORS
330
3B3
102
}
330
3B3
100
AcDbModelDocViewStyle
 70
     0
  3
Imperial24
290
     0
100
AcDbDetailViewStyle
 70
     0
 71
     0
 90
        3
 71
     1
340
27
 40
0.24
340
0
 40
0.24
300

 40
0.36
280
     3
 71
     2
340
14
 90
       25
 71
     3
340
27
 40
0.24
 90
        1
 40
0.75
 90
        1
300
%<\AcVar ViewType \f "%tc1">% %<\AcVar ViewDetailId>%\PSCALE %<\AcVar ViewScale \f "%sn">%
 71
     4
340
14
 90
       25
340
14
 90
       25
280
     0
  0
LAYOUT
  5
1F
102
{ACAD_XDICTIONARY
360
15AA
102
}
102
{ACAD_REACTORS
330
20
102
}
330
20
100
AcDbPlotSettings
  1

  2
C:\Users\onodera\appdata\roaming\autodesk\autocad lt 2012 - japanese\r17\jpn\plotters\postscript level 1 plus.pc3
  4

  6

 40
0.0
 41
0.0
 42
0.0
 43
0.0
 44
0.0
 45
0.0
 46
0.0
 47
0.0
 48
0.0
 49
0.0
140
0.0
141
0.0
142
1.0
143
1.0
 70
  1712
 72
     0
 73
     0
 74
     0
  7

 75
     0
147
1.0
148
0.0
149
0.0
100
AcDbLayout
  1
Model
 70
     1
 71
     0
 10
0.0
 20
0.0
 11
12.0
 21
9.0
 12
0.0
 22
0.0
 32
0.0
 14
0.0
 24
0.0
 34
0.0
 15
0.0
 25
0.0
 35
0.0
146
0.0
 13
0.0
 23
0.0
 33
0.0
 16
1.0
 26
0.0
 36
0.0
 17
0.0
 27
1.0
 37
0.0
 76
     0
330
2
331
2F
  0
LAYOUT
  5
24
102
{ACAD_XDICTIONARY
360
15AC
102
}
102
{ACAD_REACTORS
330
20
102
}
330
20
100
AcDbPlotSettings
  1

  2
C:\Users\onodera\appdata\roaming\autodesk\autocad lt 2012 - japanese\r17\jpn\plotters\postscript level 1 plus.pc3
  4

  6

 40
0.0
 41
0.0
 42
0.0
 43
0.0
 44
0.0
 45
0.0
 46
0.0
 47
0.0
 48
0.0
 49
0.0
140
0.0
141
0.0
142
1.0
143
1.0
 70
   688
 72
     0
 73
     0
 74
     5
  7

 75
    16
147
1.0
148
0.0
149
0.0
100
AcDbLayout
  1
レイアウト1
 70
     0
 71
     1
 10
0.0
 20
0.0
 11
12.0
 21
9.0
 12
0.0
 22
0.0
 32
0.0
 14
1.000000000000000E+20
 24
1.000000000000000E+20
 34
1.000000000000000E+20
 15
-1.000000000000000E+20
 25
-1.000000000000000E+20
 35
-1.000000000000000E+20
146
0.0
 13
0.0
 23
0.0
 33
0.0
 16
1.0
 26
0.0
 36
0.0
 17
0.0
 27
1.0
 37
0.0
 76
     0
330
21
  0
MATERIAL
  5
42
102
{ACAD_XDICTIONARY
360
43
102
}
102
{ACAD_REACTORS
330
B
102
}
330
B
100
AcDbMaterial
  1
ByBlock
 72
     0
 43
0.0208333333333333
 43
0.0
 43
0.0
 43
0.0
 43
0.0
 43
0.0208333333333333
 43
0.0
 43
0.0
 43
0.0
 43
0.0
 43
1.0
 43
0.0
 43
0.0
 43
0.0
 43
0.0
 43
1.0
 77
     0
 47
0.0208333333333333
 47
0.0
 47
0.0
 47
0.0
 47
0.0
 47
0.0208333333333333
 47
0.0
 47
0.0
 47
0.0
 47
0.0
 47
1.0
 47
0.0
 47
0.0
 47
0.0
 47
0.0
 47
1.0
171
     0
 49
0.0208333333333333
 49
0.0
 49
0.0
 49
0.0
 49
0.0
 49
0.0208333333333333
 49
0.0
 49
0.0
 49
0.0
 49
0.0
 49
1.0
 49
0.0
 49
0.0
 49
0.0
 49
0.0
 49
1.0
175
     0
142
0.0208333333333333
142
0.0
142
0.0
142
0.0
142
0.0
142
0.0208333333333333
142
0.0
142
0.0
142
0.0
142
0.0
142
1.0
142
0.0
142
0.0
142
0.0
142
0.0
142
1.0
179
     0
144
0.0208333333333333
144
0.0
144
0.0
144
0.0
144
0.0
144
0.0208333333333333
144
0.0
144
0.0
144
0.0
144
0.0
144
1.0
144
0.0
144
0.0
144
0.0
144
0.0
144
1.0
147
0.0208333333333333
147
0.0
147
0.0
147
0.0
147
0.0
147
0.0208333333333333
147
0.0
147
0.0
147
0.0
147
0.0
147
1.0
147
0.0
147
0.0
147
0.0
147
0.0
147
1.0
  0
MATERIAL
  5
15
102
{ACAD_XDICTIONARY
360
16
102
}
102
{ACAD_REACTORS
330
B
102
}
330
B
100
AcDbMaterial
  1
ByLayer
 72
     0
 43
0.0208333333333333
 43
0.0
 43
0.0
 43
0.0
 43
0.0
 43
0.0208333333333333
 43
0.0
 43
0.0
 43
0.0
 43
0.0
 43
1.0
 43
0.0
 43
0.0
 43
0.0
 43
0.0
 43
1.0
 77
     0
 47
0.0208333333333333
 47
0.0
 47
0.0
 47
0.0
 47
0.0
 47
0.0208333333333333
 47
0.0
 47
0.0
 47
0.0
 47
0.0
 47
1.0
 47
0.0
 47
0.0
 47
0.0
 47
0.0
 47
1.0
171
     0
 49
0.0208333333333333
 49
0.0
 49
0.0
 49
0.0
 49
0.0
 49
0.0208333333333333
 49
0.0
 49
0.0
 49
0.0
 49
0.0
 49
1.0
 49
0.0
 49
0.0
 49
0.0
 49
0.0
 49
1.0
175
     0
142
0.0208333333333333
142
0.0
142
0.0
142
0.0
142
0.0
142
0.0208333333333333
142
0.0
142
0.0
142
0.0
142
0.0
142
1.0
142
0.0
142
0.0
142
0.0
142
0.0
142
1.0
179
     0
144
0.0208333333333333
144
0.0
144
0.0
144
0.0
144
0.0
144
0.0208333333333333
144
0.0
144
0.0
144
0.0
144
0.0
144
1.0
144
0.0
144
0.0
144
0.0
144
0.0
144
1.0
147
0.0208333333333333
147
0.0
147
0.0
147
0.0
147
0.0
147
0.0208333333333333
147
0.0
147
0.0
147
0.0
147
0.0
147
1.0
147
0.0
147
0.0
147
0.0
147
0.0
147
1.0
  0
MATERIAL
  5
A
102
{ACAD_XDICTIONARY
360
C
102
}
102
{ACAD_REACTORS
330
B
102
}
330
B
100
AcDbMaterial
  1
Global
 72
     0
 43
0.0208333333333333
 43
0.0
 43
0.0
 43
0.0
 43
0.0
 43
0.0208333333333333
 43
0.0
 43
0.0
 43
0.0
 43
0.0
 43
1.0
 43
0.0
 43
0.0
 43
0.0
 43
0.0
 43
1.0
 77
     0
 47
0.0208333333333333
 47
0.0
 47
0.0
 47
0.0
 47
0.0
 47
0.0208333333333333
 47
0.0
 47
0.0
 47
0.0
 47
0.0
 47
1.0
 47
0.0
 47
0.0
 47
0.0
 47
0.0
 47
1.0
171
     0
 49
0.0208333333333333
 49
0.0
 49
0.0
 49
0.0
 49
0.0
 49
0.0208333333333333
 49
0.0
 49
0.0
 49
0.0
 49
0.0
 49
1.0
 49
0.0
 49
0.0
 49
0.0
 49
0.0
 49
1.0
175
     0
142
0.0208333333333333
142
0.0
142
0.0
142
0.0
142
0.0
142
0.0208333333333333
142
0.0
142
0.0
142
0.0
142
0.0
142
1.0
142
0.0
142
0.0
142
0.0
142
0.0
142
1.0
179
     0
144
0.0208333333333333
144
0.0
144
0.0
144
0.0
144
0.0
144
0.0208333333333333
144
0.0
144
0.0
144
0.0
144
0.0
144
1.0
144
0.0
144
0.0
144
0.0
144
0.0
144
1.0
147
0.0208333333333333
147
0.0
147
0.0
147
0.0
147
0.0
147
0.0208333333333333
147
0.0
147
0.0
147
0.0
147
0.0
147
1.0
147
0.0
147
0.0
147
0.0
147
0.0
147
1.0
  0
MLEADERSTYLE
  5
3B0
102
{ACAD_REACTORS
330
4E
102
}
330
4E
100
AcDbMLeaderStyle
170
     2
171
     1
172
     0
 90
        2
 40
0.0
 41
0.0
173
     1
 91
-1056964608
340
2A
 92
       -2
290
     1
 42
0.09
291
     1
 43
0.36
  3
Standard
 44
0.18
300

342
27
174
     1
178
     6
175
     1
176
     0
 93
-1056964608
 45
0.18
292
     0
297
     0
 46
0.18
 94
-1056964608
 47
1.0
 49
1.0
140
1.0
293
     1
141
0.0
294
     1
177
     0
142
1.0
295
     0
296
     0
143
0.125
1001
ACAD_MLEADERVER
1070
     2
  0
MLINESTYLE
  5
56
102
{ACAD_REACTORS
330
40
102
}
330
40
100
AcDbMlineStyle
  2
STANDARD
 70
     0
  3

 62
     0
 51
90.0
 52
90.0
 71
     2
 49
0.5
 62
   256
  6
BYLAYER
 49
-0.5
 62
   256
  6
BYLAYER
  0
ACDBPLACEHOLDER
  5
7
102
{ACAD_REACTORS
330
8
102
}
330
8
  0
SCALE
  5
5B
102
{ACAD_REACTORS
330
4C
102
}
330
4C
100
AcDbScale
 70
     0
300
1:1
140
1.0
141
1.0
290
     1
  0
SCALE
  5
5C
102
{ACAD_REACTORS
330
4C
102
}
330
4C
100
AcDbScale
 70
     0
300
1/128" = 1'-0"
140
0.0078125
141
12.0
290
     0
  0
SCALE
  5
5D
102
{ACAD_REACTORS
330
4C
102
}
330
4C
100
AcDbScale
 70
     0
300
1/64" = 1'-0"
140
0.015625
141
12.0
290
     0
  0
SCALE
  5
5E
102
{ACAD_REACTORS
330
4C
102
}
330
4C
100
AcDbScale
 70
     0
300
1/32" = 1'-0"
140
0.03125
141
12.0
290
     0
  0
SCALE
  5
5F
102
{ACAD_REACTORS
330
4C
102
}
330
4C
100
AcDbScale
 70
     0
300
1/16" = 1'-0"
140
0.0625
141
12.0
290
     0
  0
SCALE
  5
60
102
{ACAD_REACTORS
330
4C
102
}
330
4C
100
AcDbScale
 70
     0
300
3/32" = 1'-0"
140
0.09375
141
12.0
290
     0
  0
SCALE
  5
61
102
{ACAD_REACTORS
330
4C
102
}
330
4C
100
AcDbScale
 70
     0
300
1/8" = 1'-0"
140
0.125
141
12.0
290
     0
  0
SCALE
  5
62
102
{ACAD_REACTORS
330
4C
102
}
330
4C
100
AcDbScale
 70
     0
300
3/16" = 1'-0"
140
0.1875
141
12.0
290
     0
  0
SCALE
  5
63
102
{ACAD_REACTORS
330
4C
102
}
330
4C
100
AcDbScale
 70
     0
300
1/4" = 1'-0"
140
0.25
141
12.0
290
     0
  0
SCALE
  5
64
102
{ACAD_REACTORS
330
4C
102
}
330
4C
100
AcDbScale
 70
     0
300
3/8" = 1'-0"
140
0.375
141
12.0
290
     0
  0
SCALE
  5
65
102
{ACAD_REACTORS
330
4C
102
}
330
4C
100
AcDbScale
 70
     0
300
1/2" = 1'-0"
140
0.5
141
12.0
290
     0
  0
SCALE
  5
66
102
{ACAD_REACTORS
330
4C
102
}
330
4C
100
AcDbScale
 70
     0
300
3/4" = 1'-0"
140
0.75
141
12.0
290
     0
  0
SCALE
  5
67
102
{ACAD_REACTORS
330
4C
102
}
330
4C
100
AcDbScale
 70
     0
300
1" = 1'-0"
140
1.0
141
12.0
290
     0
  0
SCALE
  5
68
102
{ACAD_REACTORS
330
4C
102
}
330
4C
100
AcDbScale
 70
     0
300
1-1/2" = 1'-0"
140
1.5
141
12.0
290
     0
  0
SCALE
  5
69
102
{ACAD_REACTORS
330
4C
102
}
330
4C
100
AcDbScale
 70
     0
300
3" = 1'-0"
140
3.0
141
12.0
290
     0
  0
SCALE
  5
6A
102
{ACAD_REACTORS
330
4C
102
}
330
4C
100
AcDbScale
 70
     0
300
6" = 1'-0"
140
6.0
141
12.0
290
     0
  0
SCALE
  5
6B
102
{ACAD_REACTORS
330
4C
102
}
330
4C
100
AcDbScale
 70
     0
300
1'-0" = 1'-0"
140
12.0
141
12.0
290
     0
  0
ACDBSECTIONVIEWSTYLE
  5
3B2
102
{ACAD_XDICTIONARY
360
15DF
102
}
102
{ACAD_REACTORS
330
3B1
102
}
330
3B1
100
AcDbModelDocViewStyle
 70
     0
  3
Imperial24
290
     0
100
AcDbSectionViewStyle
 70
     0
 71
     0
 90
       78
 71
     1
340
27
 40
0.24
340
0
340
0
 40
0.24
300
I, O, Q, S, X, Z
 40
0.48
 90
        3
 40
0.18
 90
        1
 71
     2
340
14
 90
       25
340
14
 90
       50
 40
0.24
 40
0.0
 40
0.24
 71
     3
340
27
 40
0.24
 90
        1
 40
0.75
 90
        1
300
%<\AcVar ViewType \f "%tc1">% %<\AcVar ViewSectionStartId>%-%<\AcVar ViewSectionEndId>%\PSCALE %<\AcVar ViewScale \f "%sn">%
 71
     4
300
ANSI31
 40
1.0
 90
        0
290
     0
290
     0
 90
        6
 40
0.0
 40
1.570796326794896
 40
0.2617993877991494
 40
1.308996938995747
 40
-0.2617993877991494
 40
1.832595714594044
  0
TABLESTYLE
  5
57
102
{ACAD_XDICTIONARY
360
58
102
}
102
{ACAD_REACTORS
330
4D
102
}
330
4D
100
AcDbTableStyle
  3
Standard
 70
     0
 71
     0
 40
0.06
 41
0.06
280
     0
281
     0
  7
STANDARD
140
0.18
170
     2
 62
     0
 63
     7
283
     0
274
    -2
284
     1
 64
     0
275
    -2
285
     1
 65
     0
276
    -2
286
     1
 66
     0
277
    -2
287
     1
 67
     0
278
    -2
288
     1
 68
     0
279
    -2
289
     1
 69
     0
  7
STANDARD
140
0.25
170
     5
 62
     0
 63
     7
283
     0
274
    -2
284
     1
 64
     0
275
    -2
285
     1
 65
     0
276
    -2
286
     1
 66
     0
277
    -2
287
     1
 67
     0
278
    -2
288
     1
 68
     0
279
    -2
289
     1
 69
     0
  7
STANDARD
140
0.18
170
     5
 62
     0
 63
     7
283
     0
274
    -2
284
     1
 64
     0
275
    -2
285
     1
 65
     0
276
    -2
286
     1
 66
     0
277
    -2
287
     1
 67
     0
278
    -2
288
     1
 68
     0
279
    -2
289
     1
 69
     0
  0
VISUALSTYLE
  5
30
102
{ACAD_XDICTIONARY
360
15AE
102
}
102
{ACAD_REACTORS
330
31
102
}
330
31
100
AcDbVisualStyle
  2

 70
     4
 71
     0
 72
     2
 73
     0
 90
        0
 40
-0.6
 41
-30.0
 62
     5
 63
     7
 74
     1
 91
        4
 64
     7
 65
   257
 75
     1
175
     1
 42
1.0
 92
        0
 66
   257
 43
1.0
 76
     1
 77
     6
 78
     2
 67
     7
 79
     5
170
     0
171
     0
290
     0
174
     0
 93
        1
 44
0.0
173
     0
291
     0
 45
0.0
1001
ACAD
1000
AcDbSavedByObjectVersion
1070
     0
  0
VISUALSTYLE
  5
39F
102
{ACAD_XDICTIONARY
360
15BD
102
}
102
{ACAD_REACTORS
330
31
102
}
330
31
100
AcDbVisualStyle
  2

 70
     7
 71
     1
 72
     0
 73
     1
 90
        0
 40
-0.6
 41
-30.0
 62
     5
 63
     7
 74
     0
 91
        4
 64
     7
 65
   257
 75
     1
175
     1
 42
1.0
 92
        8
 66
     7
 43
1.0
 76
     1
 77
     6
 78
     2
 67
     7
 79
     5
170
     0
171
     0
290
     0
174
     0
 93
        1
 44
0.0
173
     0
291
     1
 45
0.0
1001
ACAD
1000
AcDbSavedByObjectVersion
1070
     0
  0
VISUALSTYLE
  5
3A3
102
{ACAD_XDICTIONARY
360
15C5
102
}
102
{ACAD_REACTORS
330
31
102
}
330
31
100
AcDbVisualStyle
  2

 70
    12
 71
     2
 72
     2
 73
     0
 90
        0
 40
-0.6
 41
-30.0
 62
     5
 63
     7
 74
     1
 91
        4
 64
     7
 65
   257
 75
     1
175
     1
 42
1.0
 92
        8
 66
     7
 43
1.0
 76
     1
 77
     6
 78
     2
 67
     7
 79
     5
170
     0
171
     0
290
     0
174
     0
 93
        1
 44
50.0
173
     0
291
     1
 45
0.0
1001
ACAD
1000
AcDbSavedByObjectVersion
1070
     0
  0
VISUALSTYLE
  5
3A7
102
{ACAD_XDICTIONARY
360
15CD
102
}
102
{ACAD_REACTORS
330
31
102
}
330
31
100
AcDbVisualStyle
  2

 70
    16
 71
     2
 72
     2
 73
     3
 90
        0
 40
-0.6
 41
-30.0
 62
     5
 63
     8
 74
     1
 91
        4
 64
     7
 65
   257
 75
     1
175
     1
 42
1.0
 92
        8
 66
     8
 43
1.0
 76
     1
 77
     6
 78
     2
 67
     7
 79
     5
170
     0
171
     0
290
     0
174
     0
 93
        1
 44
0.0
173
     0
291
     1
 45
0.0
1001
ACAD
1000
AcDbSavedByObjectVersion
1070
     0
  0
VISUALSTYLE
  5
3A1
102
{ACAD_XDICTIONARY
360
15C1
102
}
102
{ACAD_REACTORS
330
31
102
}
330
31
100
AcDbVisualStyle
  2

 70
     9
 71
     3
 72
     2
 73
     0
 90
        0
 40
-0.6
 41
-30.0
 62
     5
 63
     7
 74
     2
 91
        2
 64
     7
 65
   257
 75
     1
175
     1
 42
179.0
 92
        8
 66
     7
 43
1.0
 76
     1
 77
     6
 78
     2
 67
     7
 79
     3
170
     0
171
     0
290
     0
174
     0
 93
        1
 44
0.0
173
     0
291
     0
 45
0.0
1001
ACAD
1000
AcDbSavedByObjectVersion
1070
     0
  0
VISUALSTYLE
  5
3A2
102
{ACAD_XDICTIONARY
360
15C3
102
}
102
{ACAD_REACTORS
330
31
102
}
330
31
100
AcDbVisualStyle
  2

 70
    11
 71
     2
 72
     2
 73
     0
 90
        0
 40
-0.6
 41
-30.0
 62
     5
 63
     7
 74
     1
 91
        4
 64
     7
 65
   257
 75
     1
175
     1
 42
1.0
 92
        8
 66
     7
 43
1.0
 76
     1
 77
     6
 78
     2
 67
     7
 79
     5
170
     0
171
     0
290
     0
174
     0
 93
        1
 44
-50.0
173
     0
291
     1
 45
0.0
1001
ACAD
1000
AcDbSavedByObjectVersion
1070
     0
  0
VISUALSTYLE
  5
3AF
102
{ACAD_XDICTIONARY
360
15DD
102
}
102
{ACAD_REACTORS
330
31
102
}
330
31
100
AcDbVisualStyle
  2

 70
    22
 71
     2
 72
     2
 73
     0
 90
        0
 40
-0.6
 41
-30.0
 62
     5
 63
     7
 74
     1
 91
        4
 64
     7
 65
   257
 75
     1
175
     1
 42
1.0
 92
        8
 66
     7
 43
1.0
 76
     1
 77
     6
 78
     2
 67
     7
 79
     5
170
     0
171
     0
290
     0
174
     0
 93
        1
 44
0.0
173
     0
291
     1
 45
0.0
1001
ACAD
1000
AcDbSavedByObjectVersion
1070
     0
  0
VISUALSTYLE
  5
3A6
102
{ACAD_XDICTIONARY
360
15CB
102
}
102
{ACAD_REACTORS
330
31
102
}
330
31
100
AcDbVisualStyle
  2

 70
    15
 71
     2
 72
     2
 73
     0
 90
        0
 40
-0.6
 41
-30.0
 62
     5
 63
     7
 74
     1
 91
        4
 64
     7
 65
   257
 75
     1
175
     1
 42
1.0
 92
        8
 66
     7
 43
1.0
 76
     1
 77
     6
 78
     2
 67
     7
 79
     5
170
     0
171
     0
290
     0
174
     0
 93
        1
 44
0.0
173
     0
291
     1
 45
0.0
1001
ACAD
1000
AcDbSavedByObjectVersion
1070
     0
  0
VISUALSTYLE
  5
39B
102
{ACAD_XDICTIONARY
360
15B5
102
}
102
{ACAD_REACTORS
330
31
102
}
330
31
100
AcDbVisualStyle
  2

 70
     0
 71
     2
 72
     1
 73
     1
 90
        2
 40
-0.6
 41
30.0
 62
     5
 63
     7
 74
     0
 91
        0
 64
     7
 65
   257
 75
     1
175
     1
 42
1.0
 92
        8
 66
     7
 43
1.0
 76
     1
 77
     6
 78
     2
 67
     7
 79
     5
170
     0
171
     0
290
     0
174
     0
 93
       13
 44
0.0
173
     0
291
     1
 45
0.0
1001
ACAD
1000
AcDbSavedByObjectVersion
1070
     0
  0
VISUALSTYLE
  5
39C
102
{ACAD_XDICTIONARY
360
15B7
102
}
102
{ACAD_REACTORS
330
31
102
}
330
31
100
AcDbVisualStyle
  2

 70
     1
 71
     2
 72
     1
 73
     1
 90
        2
 40
-0.6
 41
30.0
 62
     5
 63
     7
 74
     1
 91
        0
 64
     7
 65
   257
 75
     1
175
     1
 42
1.0
 92
        0
 66
   257
 43
1.0
 76
     1
 77
     6
 78
     2
 67
     7
 79
     5
170
     0
171
     0
290
     0
174
     0
 93
       13
 44
0.0
173
     0
291
     1
 45
0.0
1001
ACAD
1000
AcDbSavedByObjectVersion
1070
     0
  0
VISUALSTYLE
  5
39D
102
{ACAD_XDICTIONARY
360
15B9
102
}
102
{ACAD_REACTORS
330
31
102
}
330
31
100
AcDbVisualStyle
  2

 70
     2
 71
     2
 72
     2
 73
     1
 90
        2
 40
-0.6
 41
30.0
 62
     5
 63
     7
 74
     0
 91
        0
 64
     7
 65
   257
 75
     1
175
     1
 42
1.0
 92
        0
 66
     7
 43
1.0
 76
     1
 77
     6
 78
     2
 67
     7
 79
     5
170
     0
171
     0
290
     0
174
     0
 93
       13
 44
0.0
173
     0
291
     1
 45
0.0
1001
ACAD
1000
AcDbSavedByObjectVersion
1070
     0
  0
VISUALSTYLE
  5
39E
102
{ACAD_XDICTIONARY
360
15BB
102
}
102
{ACAD_REACTORS
330
31
102
}
330
31
100
AcDbVisualStyle
  2

 70
     3
 71
     2
 72
     2
 73
     1
 90
        2
 40
-0.6
 41
30.0
 62
     5
 63
     7
 74
     1
 91
        0
 64
     7
 65
   257
 75
     1
175
     1
 42
1.0
 92
        0
 66
   257
 43
1.0
 76
     1
 77
     6
 78
     2
 67
     7
 79
     5
170
     0
171
     0
290
     0
174
     0
 93
       13
 44
0.0
173
     0
291
     1
 45
0.0
1001
ACAD
1000
AcDbSavedByObjectVersion
1070
     0
  0
VISUALSTYLE
  5
3A0
102
{ACAD_XDICTIONARY
360
15BF
102
}
102
{ACAD_REACTORS
330
31
102
}
330
31
100
AcDbVisualStyle
  2

 70
     6
 71
     1
 72
     2
 73
     2
 90
        0
 40
-0.6
 41
-30.0
 62
     5
 63
     7
 74
     2
 91
        2
 64
     7
 65
   257
 75
     2
175
     1
 42
40.0
 92
        0
 66
   257
 43
1.0
 76
     1
 77
     6
 78
     2
 67
     7
 79
     3
170
     0
171
     0
290
     0
174
     0
 93
        1
 44
0.0
173
     0
291
     0
 45
0.0
1001
ACAD
1000
AcDbSavedByObjectVersion
1070
     0
  0
VISUALSTYLE
  5
3AD
102
{ACAD_XDICTIONARY
360
15D9
102
}
102
{ACAD_REACTORS
330
31
102
}
330
31
100
AcDbVisualStyle
  2

 70
    20
 71
     2
 72
     2
 73
     0
 90
        0
 40
-0.6
 41
-30.0
 62
     5
 63
     7
 74
     1
 91
        4
 64
     7
 65
   257
 75
     1
175
     1
 42
1.0
 92
       10
 66
     7
 43
1.0
 76
     1
 77
     6
 78
     2
 67
     7
 79
     5
170
     0
171
     0
290
     0
174
     0
 93
        1
 44
0.0
173
     0
291
     1
 45
0.0
1001
ACAD
1000
AcDbSavedByObjectVersion
1070
     0
  0
VISUALSTYLE
  5
3A5
102
{ACAD_XDICTIONARY
360
15C9
102
}
102
{ACAD_REACTORS
330
31
102
}
330
31
100
AcDbVisualStyle
  2

 70
    14
 71
     2
 72
     2
 73
     0
 90
        0
 40
-0.6
 41
-30.0
 62
     5
 63
     7
 74
     1
 91
        4
 64
     7
 65
   257
 75
     7
175
     7
 42
1.0
 92
        8
 66
     7
 43
1.0
 76
     1
 77
     6
 78
     2
 67
     7
 79
     5
170
     0
171
     0
290
     0
174
     0
 93
        1
 44
0.0
173
     0
291
     1
 45
0.0
1001
ACAD
1000
AcDbSavedByObjectVersion
1070
     0
  0
VISUALSTYLE
  5
3AE
102
{ACAD_XDICTIONARY
360
15DB
102
}
102
{ACAD_REACTORS
330
31
102
}
330
31
100
AcDbVisualStyle
  2

 70
    21
 71
     2
 72
     2
 73
     0
 90
        0
 40
-0.6
 41
-30.0
 62
     5
 63
     7
 74
     1
 91
        4
 64
     7
 65
   257
 75
     1
175
     1
 42
1.0
 92
        9
 66
     7
 43
1.0
 76
     1
 77
     6
 78
     2
 67
     7
 79
     5
170
     0
171
     0
290
     0
174
     0
 93
        1
 44
0.0
173
     0
291
     1
 45
0.0
1001
ACAD
1000
AcDbSavedByObjectVersion
1070
     0
  0
VISUALSTYLE
  5
59
102
{ACAD_XDICTIONARY
360
15B1
102
}
102
{ACAD_REACTORS
330
31
102
}
330
31
100
AcDbVisualStyle
  2

 70
     8
 71
     2
 72
     3
 73
     0
 90
        2
 40
-0.6
 41
30.0
 62
     5
 63
     7
 74
     0
 91
        0
 64
     7
 65
   257
 75
     1
175
     1
 42
1.0
 92
        8
 66
   257
 43
1.0
 76
     1
 77
     6
 78
     2
 67
     7
 79
     3
170
     0
171
     0
290
     0
174
     0
 93
       13
 44
0.0
173
     0
291
     0
 45
0.0
1001
ACAD
1000
AcDbSavedByObjectVersion
1070
     0
  0
VISUALSTYLE
  5
3AC
102
{ACAD_XDICTIONARY
360
15D7
102
}
102
{ACAD_REACTORS
330
31
102
}
330
31
100
AcDbVisualStyle
  2

 70
    27
 71
     2
 72
     2
 73
     1
 90
        2
 40
-0.6
 41
30.0
 62
     5
 63
     7
 74
     0
 91
        4
 64
     7
 65
   257
 75
     1
175
     1
 42
1.0
 92
        8
 66
   257
 43
1.0
 76
     1
 77
     6
 78
     2
 67
     8
 79
     3
170
     0
171
     0
290
     0
174
     0
 93
        5
 44
0.0
173
     0
291
     0
 45
0.0
1001
ACAD
1000
AcDbSavedByObjectVersion
1070
     0
  0
VISUALSTYLE
  5
3AB
102
{ACAD_XDICTIONARY
360
15D5
102
}
102
{ACAD_REACTORS
330
31
102
}
330
31
100
AcDbVisualStyle
  2

 70
    26
 71
     2
 72
     2
 73
     1
 90
        2
 40
-0.6
 41
30.0
 62
     5
 63
     7
 74
     1
 91
        2
 64
     7
 65
   257
 75
     2
175
     1
 42
1.0
 92
        8
 66
   257
 43
1.0
 76
     1
 77
     6
 78
     2
 67
     7
 79
     3
170
     0
171
     0
290
     0
174
     0
 93
        5
 44
0.0
173
     0
291
     0
 45
0.0
1001
ACAD
1000
AcDbSavedByObjectVersion
1070
     0
  0
VISUALSTYLE
  5
3A8
102
{ACAD_XDICTIONARY
360
15CF
102
}
102
{ACAD_REACTORS
330
31
102
}
330
31
100
AcDbVisualStyle
  2

 70
    23
 71
     2
 72
     2
 73
     3
 90
        0
 40
-0.6
 41
-30.0
 62
     5
 63
     7
 74
     2
 91
        2
 64
     7
 65
     7
 75
     1
175
     1
 42
40.0
 92
        8
 66
     7
 43
1.0
 76
     1
 77
     6
 78
     2
 67
     7
 79
     3
170
     0
171
     0
290
     0
174
     0
 93
        1
 44
0.0
173
     0
291
     0
 45
0.0
1001
ACAD
1000
AcDbSavedByObjectVersion
1070
     0
  0
VISUALSTYLE
  5
3A9
102
{ACAD_XDICTIONARY
360
15D1
102
}
102
{ACAD_REACTORS
330
31
102
}
330
31
100
AcDbVisualStyle
  2

 70
    24
 71
     1
 72
     2
 73
     2
 90
        0
 40
-0.6
 41
-30.0
 62
     5
 63
     7
 74
     2
 91
        2
 64
     7
 65
     7
 75
     1
175
     1
 42
40.0
 92
       11
 66
     7
 43
1.0
 76
     1
 77
     6
 78
     2
 67
     7
 79
     6
170
     0
171
     0
290
     0
174
     0
 93
        1
 44
0.0
173
     0
291
     0
 45
0.0
1001
ACAD
1000
AcDbSavedByObjectVersion
1070
     0
  0
VISUALSTYLE
  5
3A4
102
{ACAD_XDICTIONARY
360
15C7
102
}
102
{ACAD_REACTORS
330
31
102
}
330
31
100
AcDbVisualStyle
  2

 70
    13
 71
     2
 72
     2
 73
     0
 90
        0
 40
-0.6
 41
-30.0
 62
     5
 63
     7
 74
     1
 91
        4
 64
     7
 65
   257
 75
     1
175
     1
 42
1.0
 92
       12
 66
     7
 43
1.0
 76
     1
 77
     6
 78
     2
 67
     7
 79
     5
170
     0
171
     0
290
     0
174
     0
 93
        1
 44
0.0
173
     0
291
     1
 45
0.0
1001
ACAD
1000
AcDbSavedByObjectVersion
1070
     0
  0
VISUALSTYLE
  5
5A
102
{ACAD_XDICTIONARY
360
15B3
102
}
102
{ACAD_REACTORS
330
31
102
}
330
31
100
AcDbVisualStyle
  2

 70
     5
 71
     0
 72
     2
 73
     0
 90
        0
 40
-0.6
 41
-30.0
 62
     5
 63
     7
 74
     1
 91
        4
 64
     7
 65
   257
 75
     1
175
     1
 42
1.0
 92
        0
 66
   257
 43
1.0
 76
     1
 77
     6
 78
     2
 67
     7
 79
     3
170
     0
171
     0
290
     0
174
     0
 93
        1
 44
0.0
173
     0
291
     0
 45
0.0
1001
ACAD
1000
AcDbSavedByObjectVersion
1070
     0
  0
VISUALSTYLE
  5
3AA
102
{ACAD_XDICTIONARY
360
15D3
102
}
102
{ACAD_REACTORS
330
31
102
}
330
31
100
AcDbVisualStyle
  2

 70
    25
 71
     2
 72
     2
 73
     1
 90
        1
 40
0.5
 41
-30.0
 62
     5
 63
     7
 74
     1
 91
        0
 64
     7
 65
   257
 75
     1
175
     1
 42
1.0
 92
        8
 66
     7
 43
1.0
 76
     1
 77
     6
 78
     2
 67
     7
 79
     3
170
     0
171
     0
290
     0
174
     0
 93
       13
 44
0.0
173
     0
291
     0
 45
0.0
1001
ACAD
1000
AcDbSavedByObjectVersion
1070
     0
  0
DICTIONARYVAR
  5
386
102
{ACAD_REACTORS
330
383
102
}
330
383
100
DictionaryVariables
280
     0
  1
1:1
  0
DICTIONARYVAR
  5
385
102
{ACAD_REACTORS
330
383
102
}
330
383
100
DictionaryVariables
280
     0
  1
STANDARD
  0
DICTIONARYVAR
  5
384
102
{ACAD_REACTORS
330
383
102
}
330
383
100
DictionaryVariables
280
     0
  1
STANDARD
  0
DICTIONARYVAR
  5
F9B
102
{ACAD_REACTORS
330
383
102
}
330
383
100
DictionaryVariables
280
     0
  1
Imperial24
  0
DICTIONARYVAR
  5
F9C
102
{ACAD_REACTORS
330
383
102
}
330
383
100
DictionaryVariables
280
     0
  1
Imperial24
  0
DICTIONARYVAR
  5
38A
102
{ACAD_REACTORS
330
383
102
}
330
383
100
DictionaryVariables
280
     0
  1
1
  0
DICTIONARYVAR
  5
389
102
{ACAD_REACTORS
330
383
102
}
330
383
100
DictionaryVariables
280
     0
  1
1
  0
DICTIONARYVAR
  5
388
102
{ACAD_REACTORS
330
383
102
}
330
383
100
DictionaryVariables
280
     0
  1
0
  0
DICTIONARYVAR
  5
F9F
102
{ACAD_REACTORS
330
383
102
}
330
383
100
DictionaryVariables
280
     0
  1
1
  0
DICTIONARYVAR
  5
FA0
102
{ACAD_REACTORS
330
383
102
}
330
383
100
DictionaryVariables
280
     0
  1
15
  0
DICTIONARYVAR
  5
F9E
102
{ACAD_REACTORS
330
383
102
}
330
383
100
DictionaryVariables
280
     0
  1
0
  0
DICTIONARYVAR
  5
15A4
102
{ACAD_REACTORS
330
383
102
}
330
383
100
DictionaryVariables
280
     0
  1
1.570796
  0
DICTIONARYVAR
  5
15A5
102
{ACAD_REACTORS
330
383
102
}
330
383
100
DictionaryVariables
280
     0
  1
1.570796
  0
DICTIONARYVAR
  5
F9D
102
{ACAD_REACTORS
330
383
102
}
330
383
100
DictionaryVariables
280
     0
  1
0
  0
DICTIONARYVAR
  5
387
102
{ACAD_REACTORS
330
383
102
}
330
383
100
DictionaryVariables
280
     0
  1
127
  0
DICTIONARYVAR
  5
15A6
102
{ACAD_REACTORS
330
383
102
}
330
383
100
DictionaryVariables
280
     0
  1
2
  0
DICTIONARY
  5
15E1
330
3B4
100
AcDbDictionary
280
     1
281
     1
  3
ACAD_XREC_ROUNDTRIP
360
15E2
  0
DICTIONARY
  5
15AA
330
1F
100
AcDbDictionary
280
     1
281
     1
  3
ACAD_XREC_ROUNDTRIP
360
15AB
  0
DICTIONARY
  5
15AC
330
24
100
AcDbDictionary
280
     1
281
     1
  3
ACAD_XREC_ROUNDTRIP
360
15AD
  0
DICTIONARY
  5
43
330
42
100
AcDbDictionary
280
     1
281
     1
  3
ACAD_XREC_ROUNDTRIP
360
44
  3
BUMPTILE
360
45
  3
DIFFUSETILE
360
46
  3
OPACITYTILE
360
47
  3
REFLECTIONTILE
360
48
  3
REFRACTIONTILE
360
49
  3
SPECULARTILE
360
4A
  0
DICTIONARY
  5
16
330
15
100
AcDbDictionary
280
     1
281
     1
  3
ACAD_XREC_ROUNDTRIP
360
17
  3
BUMPTILE
360
18
  3
DIFFUSETILE
360
19
  3
OPACITYTILE
360
1A
  3
REFLECTIONTILE
360
1B
  3
REFRACTIONTILE
360
1C
  3
SPECULARTILE
360
1D
  0
DICTIONARY
  5
C
330
A
100
AcDbDictionary
280
     1
281
     1
  3
ACAD_XREC_ROUNDTRIP
360
D
  3
BUMPTILE
360
E
  3
DIFFUSETILE
360
F
  3
OPACITYTILE
360
10
  3
REFLECTIONTILE
360
11
  3
REFRACTIONTILE
360
12
  3
SPECULARTILE
360
13
  0
DICTIONARY
  5
15DF
330
3B2
100
AcDbDictionary
280
     1
281
     1
  3
ACAD_XREC_ROUNDTRIP
360
15E0
  0
DICTIONARY
  5
58
330
57
100
AcDbDictionary
280
     1
281
     1
  3
ACAD_ROUNDTRIP_2008_TABLESTYLE_CELLSTYLEMAP
360
15A7
  3
ACAD_XREC_ROUNDTRIP
360
15B0
  0
DICTIONARY
  5
15AE
330
30
100
AcDbDictionary
280
     1
281
     1
  3
ACAD_XREC_ROUNDTRIP
360
15AF
  0
DICTIONARY
  5
15BD
330
39F
100
AcDbDictionary
280
     1
281
     1
  3
ACAD_XREC_ROUNDTRIP
360
15BE
  0
DICTIONARY
  5
15C5
330
3A3
100
AcDbDictionary
280
     1
281
     1
  3
ACAD_XREC_ROUNDTRIP
360
15C6
  0
DICTIONARY
  5
15CD
330
3A7
100
AcDbDictionary
280
     1
281
     1
  3
ACAD_XREC_ROUNDTRIP
360
15CE
  0
DICTIONARY
  5
15C1
330
3A1
100
AcDbDictionary
280
     1
281
     1
  3
ACAD_XREC_ROUNDTRIP
360
15C2
  0
DICTIONARY
  5
15C3
330
3A2
100
AcDbDictionary
280
     1
281
     1
  3
ACAD_XREC_ROUNDTRIP
360
15C4
  0
DICTIONARY
  5
15DD
330
3AF
100
AcDbDictionary
280
     1
281
     1
  3
ACAD_XREC_ROUNDTRIP
360
15DE
  0
DICTIONARY
  5
15CB
330
3A6
100
AcDbDictionary
280
     1
281
     1
  3
ACAD_XREC_ROUNDTRIP
360
15CC
  0
DICTIONARY
  5
15B5
330
39B
100
AcDbDictionary
280
     1
281
     1
  3
ACAD_XREC_ROUNDTRIP
360
15B6
  0
DICTIONARY
  5
15B7
330
39C
100
AcDbDictionary
280
     1
281
     1
  3
ACAD_XREC_ROUNDTRIP
360
15B8
  0
DICTIONARY
  5
15B9
330
39D
100
AcDbDictionary
280
     1
281
     1
  3
ACAD_XREC_ROUNDTRIP
360
15BA
  0
DICTIONARY
  5
15BB
330
39E
100
AcDbDictionary
280
     1
281
     1
  3
ACAD_XREC_ROUNDTRIP
360
15BC
  0
DICTIONARY
  5
15BF
330
3A0
100
AcDbDictionary
280
     1
281
     1
  3
ACAD_XREC_ROUNDTRIP
360
15C0
  0
DICTIONARY
  5
15D9
330
3AD
100
AcDbDictionary
280
     1
281
     1
  3
ACAD_XREC_ROUNDTRIP
360
15DA
  0
DICTIONARY
  5
15C9
330
3A5
100
AcDbDictionary
280
     1
281
     1
  3
ACAD_XREC_ROUNDTRIP
360
15CA
  0
DICTIONARY
  5
15DB
330
3AE
100
AcDbDictionary
280
     1
281
     1
  3
ACAD_XREC_ROUNDTRIP
360
15DC
  0
DICTIONARY
  5
15B1
330
59
100
AcDbDictionary
280
     1
281
     1
  3
ACAD_XREC_ROUNDTRIP
360
15B2
  0
DICTIONARY
  5
15D7
330
3AC
100
AcDbDictionary
280
     1
281
     1
  3
ACAD_XREC_ROUNDTRIP
360
15D8
  0
DICTIONARY
  5
15D5
330
3AB
100
AcDbDictionary
280
     1
281
     1
  3
ACAD_XREC_ROUNDTRIP
360
15D6
  0
DICTIONARY
  5
15CF
330
3A8
100
AcDbDictionary
280
     1
281
     1
  3
ACAD_XREC_ROUNDTRIP
360
15D0
  0
DICTIONARY
  5
15D1
330
3A9
100
AcDbDictionary
280
     1
281
     1
  3
ACAD_XREC_ROUNDTRIP
360
15D2
  0
DICTIONARY
  5
15C7
330
3A4
100
AcDbDictionary
280
     1
281
     1
  3
ACAD_XREC_ROUNDTRIP
360
15C8
  0
DICTIONARY
  5
15B3
330
5A
100
AcDbDictionary
280
     1
281
     1
  3
ACAD_XREC_ROUNDTRIP
360
15B4
  0
DICTIONARY
  5
15D3
330
3AA
100
AcDbDictionary
280
     1
281
     1
  3
ACAD_XREC_ROUNDTRIP
360
15D4
  0
XRECORD
  5
15E2
102
{ACAD_REACTORS
330
15E1
102
}
330
15E1
100
AcDbXrecord
280
     1
102
DISPLAYNAME
  1
Imperial24
102
FLAGS
 90
        0
  0
XRECORD
  5
15AB
102
{ACAD_REACTORS
330
15AA
102
}
330
15AA
100
AcDbXrecord
280
     1
102
SHADEPLOT
 70
     0
102
SHADEPLOTRESLEVEL
 70
     2
102
SHADEPLOTCUSTOMDPI
 70
   300
  0
XRECORD
  5
15AD
102
{ACAD_REACTORS
330
15AC
102
}
330
15AC
100
AcDbXrecord
280
     1
102
SHADEPLOT
 70
     0
102
SHADEPLOTRESLEVEL
 70
     2
102
SHADEPLOTCUSTOMDPI
 70
   300
  0
XRECORD
  5
44
102
{ACAD_REACTORS
330
43
102
}
330
43
100
AcDbXrecord
280
     1
102
MATERIAL
148
0.0
149
0.0
149
0.0
 93
        0
 94
      127
282
     0
 72
     0
 77
     0
171
     0
175
     0
179
     0
273
     0
  0
XRECORD
  5
45
102
{ACAD_REACTORS
330
43
102
}
330
43
100
AcDbXrecord
280
     1
270
     1
271
     1
  0
XRECORD
  5
46
102
{ACAD_REACTORS
330
43
102
}
330
43
100
AcDbXrecord
280
     1
270
     1
271
     1
  0
XRECORD
  5
47
102
{ACAD_REACTORS
330
43
102
}
330
43
100
AcDbXrecord
280
     1
270
     1
271
     1
  0
XRECORD
  5
48
102
{ACAD_REACTORS
330
43
102
}
330
43
100
AcDbXrecord
280
     1
270
     1
271
     1
  0
XRECORD
  5
49
102
{ACAD_REACTORS
330
43
102
}
330
43
100
AcDbXrecord
280
     1
270
     1
271
     1
  0
XRECORD
  5
4A
102
{ACAD_REACTORS
330
43
102
}
330
43
100
AcDbXrecord
280
     1
270
     1
271
     1
  0
XRECORD
  5
17
102
{ACAD_REACTORS
330
16
102
}
330
16
100
AcDbXrecord
280
     1
102
MATERIAL
148
0.0
149
0.0
149
0.0
 93
        0
 94
      127
282
     0
 72
     0
 77
     0
171
     0
175
     0
179
     0
273
     0
  0
XRECORD
  5
18
102
{ACAD_REACTORS
330
16
102
}
330
16
100
AcDbXrecord
280
     1
270
     1
271
     1
  0
XRECORD
  5
19
102
{ACAD_REACTORS
330
16
102
}
330
16
100
AcDbXrecord
280
     1
270
     1
271
     1
  0
XRECORD
  5
1A
102
{ACAD_REACTORS
330
16
102
}
330
16
100
AcDbXrecord
280
     1
270
     1
271
     1
  0
XRECORD
  5
1B
102
{ACAD_REACTORS
330
16
102
}
330
16
100
AcDbXrecord
280
     1
270
     1
271
     1
  0
XRECORD
  5
1C
102
{ACAD_REACTORS
330
16
102
}
330
16
100
AcDbXrecord
280
     1
270
     1
271
     1
  0
XRECORD
  5
1D
102
{ACAD_REACTORS
330
16
102
}
330
16
100
AcDbXrecord
280
     1
270
     1
271
     1
  0
XRECORD
  5
D
102
{ACAD_REACTORS
330
C
102
}
330
C
100
AcDbXrecord
280
     1
102
MATERIAL
148
0.0
149
0.0
149
0.0
 93
        0
 94
      127
282
     0
 72
     0
 77
     0
171
     0
175
     0
179
     0
273
     0
  0
XRECORD
  5
E
102
{ACAD_REACTORS
330
C
102
}
330
C
100
AcDbXrecord
280
     1
270
     1
271
     1
  0
XRECORD
  5
F
102
{ACAD_REACTORS
330
C
102
}
330
C
100
AcDbXrecord
280
     1
270
     1
271
     1
  0
XRECORD
  5
10
102
{ACAD_REACTORS
330
C
102
}
330
C
100
AcDbXrecord
280
     1
270
     1
271
     1
  0
XRECORD
  5
11
102
{ACAD_REACTORS
330
C
102
}
330
C
100
AcDbXrecord
280
     1
270
     1
271
     1
  0
XRECORD
  5
12
102
{ACAD_REACTORS
330
C
102
}
330
C
100
AcDbXrecord
280
     1
270
     1
271
     1
  0
XRECORD
  5
13
102
{ACAD_REACTORS
330
C
102
}
330
C
100
AcDbXrecord
280
     1
270
     1
271
     1
  0
XRECORD
  5
15E0
102
{ACAD_REACTORS
330
15DF
102
}
330
15DF
100
AcDbXrecord
280
     1
102
DISPLAYNAME
  1
Imperial24
102
FLAGS
 90
        0
  0
CELLSTYLEMAP
  5
15A7
102
{ACAD_REACTORS
330
58
102
}
330
58
100
AcDbCellStyleMap
 90
        3
300
CELLSTYLE
  1
TABLEFORMAT_BEGIN
 90
        5
170
     1
 91
        0
 92
    32768
 62
   257
 93
        1
300
CONTENTFORMAT
  1
CONTENTFORMAT_BEGIN
 90
        0
 91
        0
 92
      512
 93
        0
300

 40
0.0
140
1.0
 94
        5
 62
     0
340
27
144
0.25
309
CONTENTFORMAT_END
171
     1
301
MARGIN
  1
CELLMARGIN_BEGIN
 40
0.06
 40
0.06
 40
0.06
 40
0.06
 40
0.18
 40
0.18
309
CELLMARGIN_END
 94
        6
 95
        1
302
GRIDFORMAT
  1
GRIDFORMAT_BEGIN
 90
        0
 91
        1
 62
     0
 92
       -2
340
0
 93
        0
 40
0.045
309
GRIDFORMAT_END
 95
        2
302
GRIDFORMAT
  1
GRIDFORMAT_BEGIN
 90
        0
 91
        1
 62
     0
 92
       -2
340
0
 93
        0
 40
0.045
309
GRIDFORMAT_END
 95
        4
302
GRIDFORMAT
  1
GRIDFORMAT_BEGIN
 90
        0
 91
        1
 62
     0
 92
       -2
340
0
 93
        0
 40
0.045
309
GRIDFORMAT_END
 95
        8
302
GRIDFORMAT
  1
GRIDFORMAT_BEGIN
 90
        0
 91
        1
 62
     0
 92
       -2
340
0
 93
        0
 40
0.045
309
GRIDFORMAT_END
 95
       16
302
GRIDFORMAT
  1
GRIDFORMAT_BEGIN
 90
        0
 91
        1
 62
     0
 92
       -2
340
0
 93
        0
 40
0.045
309
GRIDFORMAT_END
 95
       32
302
GRIDFORMAT
  1
GRIDFORMAT_BEGIN
 90
        0
 91
        1
 62
     0
 92
       -2
340
0
 93
        0
 40
0.045
309
GRIDFORMAT_END
309
TABLEFORMAT_END
  1
CELLSTYLE_BEGIN
 90
        1
 91
        1
300
_TITLE
309
CELLSTYLE_END
300
CELLSTYLE
  1
TABLEFORMAT_BEGIN
 90
        5
170
     1
 91
        0
 92
        0
 62
   257
 93
        1
300
CONTENTFORMAT
  1
CONTENTFORMAT_BEGIN
 90
        0
 91
        0
 92
      512
 93
        0
300

 40
0.0
140
1.0
 94
        5
 62
     0
340
27
144
0.18
309
CONTENTFORMAT_END
171
     1
301
MARGIN
  1
CELLMARGIN_BEGIN
 40
0.06
 40
0.06
 40
0.06
 40
0.06
 40
0.18
 40
0.18
309
CELLMARGIN_END
 94
        6
 95
        1
302
GRIDFORMAT
  1
GRIDFORMAT_BEGIN
 90
        0
 91
        1
 62
     0
 92
       -2
340
0
 93
        0
 40
0.045
309
GRIDFORMAT_END
 95
        2
302
GRIDFORMAT
  1
GRIDFORMAT_BEGIN
 90
        0
 91
        1
 62
     0
 92
       -2
340
0
 93
        0
 40
0.045
309
GRIDFORMAT_END
 95
        4
302
GRIDFORMAT
  1
GRIDFORMAT_BEGIN
 90
        0
 91
        1
 62
     0
 92
       -2
340
0
 93
        0
 40
0.045
309
GRIDFORMAT_END
 95
        8
302
GRIDFORMAT
  1
GRIDFORMAT_BEGIN
 90
        0
 91
        1
 62
     0
 92
       -2
340
0
 93
        0
 40
0.045
309
GRIDFORMAT_END
 95
       16
302
GRIDFORMAT
  1
GRIDFORMAT_BEGIN
 90
        0
 91
        1
 62
     0
 92
       -2
340
0
 93
        0
 40
0.045
309
GRIDFORMAT_END
 95
       32
302
GRIDFORMAT
  1
GRIDFORMAT_BEGIN
 90
        0
 91
        1
 62
     0
 92
       -2
340
0
 93
        0
 40
0.045
309
GRIDFORMAT_END
309
TABLEFORMAT_END
  1
CELLSTYLE_BEGIN
 90
        2
 91
        1
300
_HEADER
309
CELLSTYLE_END
300
CELLSTYLE
  1
TABLEFORMAT_BEGIN
 90
        5
170
     1
 91
        0
 92
        0
 62
   257
 93
        1
300
CONTENTFORMAT
  1
CONTENTFORMAT_BEGIN
 90
        0
 91
        0
 92
      512
 93
        0
300

 40
0.0
140
1.0
 94
        2
 62
     0
340
27
144
0.18
309
CONTENTFORMAT_END
171
     1
301
MARGIN
  1
CELLMARGIN_BEGIN
 40
0.06
 40
0.06
 40
0.06
 40
0.06
 40
0.18
 40
0.18
309
CELLMARGIN_END
 94
        6
 95
        1
302
GRIDFORMAT
  1
GRIDFORMAT_BEGIN
 90
        0
 91
        1
 62
     0
 92
       -2
340
0
 93
        0
 40
0.045
309
GRIDFORMAT_END
 95
        2
302
GRIDFORMAT
  1
GRIDFORMAT_BEGIN
 90
        0
 91
        1
 62
     0
 92
       -2
340
0
 93
        0
 40
0.045
309
GRIDFORMAT_END
 95
        4
302
GRIDFORMAT
  1
GRIDFORMAT_BEGIN
 90
        0
 91
        1
 62
     0
 92
       -2
340
0
 93
        0
 40
0.045
309
GRIDFORMAT_END
 95
        8
302
GRIDFORMAT
  1
GRIDFORMAT_BEGIN
 90
        0
 91
        1
 62
     0
 92
       -2
340
0
 93
        0
 40
0.045
309
GRIDFORMAT_END
 95
       16
302
GRIDFORMAT
  1
GRIDFORMAT_BEGIN
 90
        0
 91
        1
 62
     0
 92
       -2
340
0
 93
        0
 40
0.045
309
GRIDFORMAT_END
 95
       32
302
GRIDFORMAT
  1
GRIDFORMAT_BEGIN
 90
        0
 91
        1
 62
     0
 92
       -2
340
0
 93
        0
 40
0.045
309
GRIDFORMAT_END
309
TABLEFORMAT_END
  1
CELLSTYLE_BEGIN
 90
        3
 91
        2
300
_DATA
309
CELLSTYLE_END
  0
XRECORD
  5
15B0
102
{ACAD_REACTORS
330
58
102
}
330
58
100
AcDbXrecord
280
     1
102
ACAD_ROUNDTRIP_PRE2007_TABLESTYLE
 90
      512
 91
        0
  1

 92
      512
 93
        0
  2

 94
      512
 95
        0
  3

  0
XRECORD
  5
15AF
102
{ACAD_REACTORS
330
15AE
102
}
330
15AE
100
AcDbXrecord
280
     1
102
RTVSPost2010Prop28
280
     1
102
RTVSPost2010PropOp28
 70
     1
102
RTVSPost2010Prop29
280
     1
102
RTVSPost2010PropOp29
 70
     1
102
RTVSPost2010Prop30
280
     0
102
RTVSPost2010PropOp30
 70
     1
102
RTVSPost2010Prop31
280
     0
102
RTVSPost2010PropOp31
 70
     1
102
RTVSPost2010Prop32
280
     0
102
RTVSPost2010PropOp32
 70
     1
102
RTVSPost2010Prop33
280
     0
102
RTVSPost2010PropOp33
 70
     1
102
RTVSPost2010Prop34
280
     0
102
RTVSPost2010PropOp34
 70
     1
102
RTVSPost2010Prop35
280
     0
102
RTVSPost2010PropOp35
 70
     1
102
RTVSPost2010Prop36
280
     0
102
RTVSPost2010PropOp36
 70
     1
102
RTVSPost2010Prop37
 90
       50
102
RTVSPost2010PropOp37
 70
     1
102
RTVSPost2010Prop38
140
0.0
102
RTVSPost2010PropOp38
 70
     1
102
RTVSPost2010Prop39
140
1.0
102
RTVSPost2010PropOp39
 70
     1
102
RTVSPost2010Prop40
 90
        0
102
RTVSPost2010PropOp40
 70
     1
102
RTVSPost2010Prop41ColorIndex
 90
       18
102
RTVSPost2010Prop41ColorRGB
 90
-16777216
102
RTVSPost2010PropOp41
 70
     1
102
RTVSPost2010Prop42
 90
       50
102
RTVSPost2010PropOp42
 70
     1
102
RTVSPost2010Prop43
 90
        3
102
RTVSPost2010PropOp43
 70
     1
102
RTVSPost2010Prop44ColorIndex
 90
        5
102
RTVSPost2010Prop44ColorRGB
 90
      255
102
RTVSPost2010PropOp44
 70
     1
102
RTVSPost2010Prop45
280
     0
102
RTVSPost2010PropOp45
 70
     1
102
RTVSPost2010Prop46
 90
       50
102
RTVSPost2010PropOp46
 70
     1
102
RTVSPost2010Prop47
 90
       50
102
RTVSPost2010PropOp47
 70
     1
102
RTVSPost2010Prop48
 90
       50
102
RTVSPost2010PropOp48
 70
     1
102
RTVSPost2010Prop49
280
     0
102
RTVSPost2010PropOp49
 70
     1
102
RTVSPost2010Prop50
 90
       50
102
RTVSPost2010PropOp50
 70
     1
102
RTVSPost2010Prop51ColorIndex
 90
      256
102
RTVSPost2010Prop51ColorRGB
 90
-16777216
102
RTVSPost2010PropOp51
 70
     0
102
RTVSPost2010Prop52
140
1.0
102
RTVSPost2010PropOp52
 70
     0
102
RTVSPost2010Prop53
 90
        2
102
RTVSPost2010PropOp53
 70
     1
102
RTVSPost2010Prop54
  1
strokes_ogs.tif
102
RTVSPost2010PropOp54
 70
     1
102
RTVSPost2010Prop55
280
     0
102
RTVSPost2010PropOp55
 70
     1
102
RTVSPost2010Prop56
140
1.0
102
RTVSPost2010PropOp56
 70
     1
102
RTVSPost2010Prop57
140
1.0
102
RTVSPost2010PropOp57
 70
     1
102
RTVSPropertyOp0
 70
     1
102
RTVSPropertyOp1
 70
     1
102
RTVSPropertyOp2
 70
     1
102
RTVSPropertyOp3
 70
     1
102
RTVSPropertyOp4
 70
     1
102
RTVSPropertyOp5
 70
     1
102
RTVSPropertyOp6
 70
     1
102
RTVSPropertyOp7
 70
     1
102
RTVSPropertyOp8
 70
     1
102
RTVSPropertyOp9
 70
     1
102
RTVSPropertyOp10
 70
     1
102
RTVSPropertyOp11
 70
     1
102
RTVSPropertyOp12
 70
     1
102
RTVSPropertyOp13
 70
     1
102
RTVSPropertyOp14
 70
     1
102
RTVSPropertyOp15
 70
     1
102
RTVSPropertyOp16
 70
     1
102
RTVSPropertyOp17
 70
     1
102
RTVSPropertyOp18
 70
     1
102
RTVSPropertyOp19
 70
     1
102
RTVSPropertyOp20
 70
     1
102
RTVSPropertyOp21
 70
     1
102
RTVSPropertyOp22
 70
     1
102
RTVSPropertyOp23
 70
     1
102
RTVSPropertyOp24
 70
     1
102
RTVSPropertyOp25
 70
     1
102
RTVSPropertyOp26
 70
     1
102
RTVSPropertyOp27
 70
     1
102
RTVSPropertyOp28
 70
     1
102
RTVSPropertyOp29
 70
     1
102
RTVSPropertyOp30
 70
     1
102
RTVSPropertyOp31
 70
     1
102
RTVSPropertyOp32
 70
     1
102
RTVSPropertyOp33
 70
     1
102
RTVSPropertyOp34
 70
     1
102
RTVSPropertyOp35
 70
     1
102
RTVSPropertyOp36
 70
     1
102
RTVSPropertyOp37
 70
     1
102
RTVSPropertyOp38
 70
     1
102
RTVSPropertyOp39
 70
     1
102
RTVSPropertyOp40
 70
     1
102
RTVSPropertyOp41
 70
     1
102
RTVSPropertyOp42
 70
     1
102
RTVSPropertyOp43
 70
     1
102
RTVSPropertyOp44
 70
     1
102
RTVSPropertyOp45
 70
     1
102
RTVSPropertyOp46
 70
     1
102
RTVSPropertyOp47
 70
     1
102
RTVSPropertyOp48
 70
     1
102
RTVSPropertyOp49
 70
     1
102
RTVSPropertyOp50
 70
     1
102
RTVSPropertyOp51
 70
     0
102
RTVSPropertyOp52
 70
     0
102
RTVSPropertyOp53
 70
     1
102
RTVSPropertyOp54
 70
     1
102
RTVSPropertyOp55
 70
     1
102
RTVSPropertyOp56
 70
     1
102
RTVSPropertyOp57
 70
     1
102
RTVSPropertyOp58
 70
     1
102
RTVSPropertyOp59
 70
     1
102
RTVSPropertyOp60
 70
     1
102
RTVSPropertyOp61
 70
     1
102
RTVSPropertyOp62
 70
     1
  0
XRECORD
  5
15BE
102
{ACAD_REACTORS
330
15BD
102
}
330
15BD
100
AcDbXrecord
280
     1
102
RTVSPost2010Prop28
280
     0
102
RTVSPost2010PropOp28
 70
     1
102
RTVSPost2010Prop29
280
     1
102
RTVSPost2010PropOp29
 70
     1
102
RTVSPost2010Prop30
280
     1
102
RTVSPost2010PropOp30
 70
     1
102
RTVSPost2010Prop31
280
     0
102
RTVSPost2010PropOp31
 70
     1
102
RTVSPost2010Prop32
280
     0
102
RTVSPost2010PropOp32
 70
     1
102
RTVSPost2010Prop33
280
     0
102
RTVSPost2010PropOp33
 70
     1
102
RTVSPost2010Prop34
280
     0
102
RTVSPost2010PropOp34
 70
     1
102
RTVSPost2010Prop35
280
     0
102
RTVSPost2010PropOp35
 70
     1
102
RTVSPost2010Prop36
280
     0
102
RTVSPost2010PropOp36
 70
     1
102
RTVSPost2010Prop37
 90
       50
102
RTVSPost2010PropOp37
 70
     1
102
RTVSPost2010Prop38
140
0.0
102
RTVSPost2010PropOp38
 70
     1
102
RTVSPost2010Prop39
140
1.0
102
RTVSPost2010PropOp39
 70
     1
102
RTVSPost2010Prop40
 90
        0
102
RTVSPost2010PropOp40
 70
     1
102
RTVSPost2010Prop41ColorIndex
 90
       18
102
RTVSPost2010Prop41ColorRGB
 90
-16777216
102
RTVSPost2010PropOp41
 70
     1
102
RTVSPost2010Prop42
 90
       50
102
RTVSPost2010PropOp42
 70
     1
102
RTVSPost2010Prop43
 90
        3
102
RTVSPost2010PropOp43
 70
     1
102
RTVSPost2010Prop44ColorIndex
 90
        5
102
RTVSPost2010Prop44ColorRGB
 90
      255
102
RTVSPost2010PropOp44
 70
     1
102
RTVSPost2010Prop45
280
     0
102
RTVSPost2010PropOp45
 70
     1
102
RTVSPost2010Prop46
 90
       50
102
RTVSPost2010PropOp46
 70
     1
102
RTVSPost2010Prop47
 90
       50
102
RTVSPost2010PropOp47
 70
     1
102
RTVSPost2010Prop48
 90
       50
102
RTVSPost2010PropOp48
 70
     1
102
RTVSPost2010Prop49
280
     0
102
RTVSPost2010PropOp49
 70
     1
102
RTVSPost2010Prop50
 90
       50
102
RTVSPost2010PropOp50
 70
     1
102
RTVSPost2010Prop51ColorIndex
 90
      256
102
RTVSPost2010Prop51ColorRGB
 90
-16777216
102
RTVSPost2010PropOp51
 70
     0
102
RTVSPost2010Prop52
140
1.0
102
RTVSPost2010PropOp52
 70
     0
102
RTVSPost2010Prop53
 90
        2
102
RTVSPost2010PropOp53
 70
     1
102
RTVSPost2010Prop54
  1
strokes_ogs.tif
102
RTVSPost2010PropOp54
 70
     1
102
RTVSPost2010Prop55
280
     0
102
RTVSPost2010PropOp55
 70
     1
102
RTVSPost2010Prop56
140
1.0
102
RTVSPost2010PropOp56
 70
     1
102
RTVSPost2010Prop57
140
1.0
102
RTVSPost2010PropOp57
 70
     1
102
RTVSPropertyOp0
 70
     1
102
RTVSPropertyOp1
 70
     1
102
RTVSPropertyOp2
 70
     1
102
RTVSPropertyOp3
 70
     1
102
RTVSPropertyOp4
 70
     1
102
RTVSPropertyOp5
 70
     1
102
RTVSPropertyOp6
 70
     1
102
RTVSPropertyOp7
 70
     1
102
RTVSPropertyOp8
 70
     1
102
RTVSPropertyOp9
 70
     1
102
RTVSPropertyOp10
 70
     1
102
RTVSPropertyOp11
 70
     1
102
RTVSPropertyOp12
 70
     1
102
RTVSPropertyOp13
 70
     1
102
RTVSPropertyOp14
 70
     1
102
RTVSPropertyOp15
 70
     1
102
RTVSPropertyOp16
 70
     1
102
RTVSPropertyOp17
 70
     1
102
RTVSPropertyOp18
 70
     1
102
RTVSPropertyOp19
 70
     1
102
RTVSPropertyOp20
 70
     1
102
RTVSPropertyOp21
 70
     1
102
RTVSPropertyOp22
 70
     1
102
RTVSPropertyOp23
 70
     1
102
RTVSPropertyOp24
 70
     1
102
RTVSPropertyOp25
 70
     1
102
RTVSPropertyOp26
 70
     1
102
RTVSPropertyOp27
 70
     1
102
RTVSPropertyOp28
 70
     1
102
RTVSPropertyOp29
 70
     1
102
RTVSPropertyOp30
 70
     1
102
RTVSPropertyOp31
 70
     1
102
RTVSPropertyOp32
 70
     1
102
RTVSPropertyOp33
 70
     1
102
RTVSPropertyOp34
 70
     1
102
RTVSPropertyOp35
 70
     1
102
RTVSPropertyOp36
 70
     1
102
RTVSPropertyOp37
 70
     1
102
RTVSPropertyOp38
 70
     1
102
RTVSPropertyOp39
 70
     1
102
RTVSPropertyOp40
 70
     1
102
RTVSPropertyOp41
 70
     1
102
RTVSPropertyOp42
 70
     1
102
RTVSPropertyOp43
 70
     1
102
RTVSPropertyOp44
 70
     1
102
RTVSPropertyOp45
 70
     1
102
RTVSPropertyOp46
 70
     1
102
RTVSPropertyOp47
 70
     1
102
RTVSPropertyOp48
 70
     1
102
RTVSPropertyOp49
 70
     1
102
RTVSPropertyOp50
 70
     1
102
RTVSPropertyOp51
 70
     0
102
RTVSPropertyOp52
 70
     0
102
RTVSPropertyOp53
 70
     1
102
RTVSPropertyOp54
 70
     1
102
RTVSPropertyOp55
 70
     1
102
RTVSPropertyOp56
 70
     1
102
RTVSPropertyOp57
 70
     1
102
RTVSPropertyOp58
 70
     1
102
RTVSPropertyOp59
 70
     1
102
RTVSPropertyOp60
 70
     1
102
RTVSPropertyOp61
 70
     1
102
RTVSPropertyOp62
 70
     1
  0
XRECORD
  5
15C6
102
{ACAD_REACTORS
330
15C5
102
}
330
15C5
100
AcDbXrecord
280
     1
102
RTVSPost2010Prop28
280
     0
102
RTVSPost2010PropOp28
 70
     1
102
RTVSPost2010Prop29
280
     1
102
RTVSPost2010PropOp29
 70
     1
102
RTVSPost2010Prop30
280
     1
102
RTVSPost2010PropOp30
 70
     1
102
RTVSPost2010Prop31
280
     0
102
RTVSPost2010PropOp31
 70
     1
102
RTVSPost2010Prop32
280
     0
102
RTVSPost2010PropOp32
 70
     1
102
RTVSPost2010Prop33
280
     0
102
RTVSPost2010PropOp33
 70
     1
102
RTVSPost2010Prop34
280
     0
102
RTVSPost2010PropOp34
 70
     1
102
RTVSPost2010Prop35
280
     0
102
RTVSPost2010PropOp35
 70
     1
102
RTVSPost2010Prop36
280
     0
102
RTVSPost2010PropOp36
 70
     1
102
RTVSPost2010Prop37
 90
       50
102
RTVSPost2010PropOp37
 70
     1
102
RTVSPost2010Prop38
140
0.0
102
RTVSPost2010PropOp38
 70
     1
102
RTVSPost2010Prop39
140
1.0
102
RTVSPost2010PropOp39
 70
     1
102
RTVSPost2010Prop40
 90
        0
102
RTVSPost2010PropOp40
 70
     1
102
RTVSPost2010Prop41ColorIndex
 90
       18
102
RTVSPost2010Prop41ColorRGB
 90
-16777216
102
RTVSPost2010PropOp41
 70
     1
102
RTVSPost2010Prop42
 90
       50
102
RTVSPost2010PropOp42
 70
     1
102
RTVSPost2010Prop43
 90
        3
102
RTVSPost2010PropOp43
 70
     1
102
RTVSPost2010Prop44ColorIndex
 90
        5
102
RTVSPost2010Prop44ColorRGB
 90
      255
102
RTVSPost2010PropOp44
 70
     1
102
RTVSPost2010Prop45
280
     0
102
RTVSPost2010PropOp45
 70
     1
102
RTVSPost2010Prop46
 90
       50
102
RTVSPost2010PropOp46
 70
     1
102
RTVSPost2010Prop47
 90
       50
102
RTVSPost2010PropOp47
 70
     1
102
RTVSPost2010Prop48
 90
       50
102
RTVSPost2010PropOp48
 70
     1
102
RTVSPost2010Prop49
280
     0
102
RTVSPost2010PropOp49
 70
     1
102
RTVSPost2010Prop50
 90
       50
102
RTVSPost2010PropOp50
 70
     1
102
RTVSPost2010Prop51ColorIndex
 90
      256
102
RTVSPost2010Prop51ColorRGB
 90
-16777216
102
RTVSPost2010PropOp51
 70
     0
102
RTVSPost2010Prop52
140
1.0
102
RTVSPost2010PropOp52
 70
     0
102
RTVSPost2010Prop53
 90
        2
102
RTVSPost2010PropOp53
 70
     1
102
RTVSPost2010Prop54
  1
strokes_ogs.tif
102
RTVSPost2010PropOp54
 70
     1
102
RTVSPost2010Prop55
280
     0
102
RTVSPost2010PropOp55
 70
     1
102
RTVSPost2010Prop56
140
1.0
102
RTVSPost2010PropOp56
 70
     1
102
RTVSPost2010Prop57
140
1.0
102
RTVSPost2010PropOp57
 70
     1
102
RTVSPropertyOp0
 70
     1
102
RTVSPropertyOp1
 70
     1
102
RTVSPropertyOp2
 70
     1
102
RTVSPropertyOp3
 70
     1
102
RTVSPropertyOp4
 70
     1
102
RTVSPropertyOp5
 70
     1
102
RTVSPropertyOp6
 70
     1
102
RTVSPropertyOp7
 70
     1
102
RTVSPropertyOp8
 70
     1
102
RTVSPropertyOp9
 70
     1
102
RTVSPropertyOp10
 70
     1
102
RTVSPropertyOp11
 70
     1
102
RTVSPropertyOp12
 70
     1
102
RTVSPropertyOp13
 70
     1
102
RTVSPropertyOp14
 70
     1
102
RTVSPropertyOp15
 70
     1
102
RTVSPropertyOp16
 70
     1
102
RTVSPropertyOp17
 70
     1
102
RTVSPropertyOp18
 70
     1
102
RTVSPropertyOp19
 70
     1
102
RTVSPropertyOp20
 70
     1
102
RTVSPropertyOp21
 70
     1
102
RTVSPropertyOp22
 70
     1
102
RTVSPropertyOp23
 70
     1
102
RTVSPropertyOp24
 70
     1
102
RTVSPropertyOp25
 70
     1
102
RTVSPropertyOp26
 70
     1
102
RTVSPropertyOp27
 70
     1
102
RTVSPropertyOp28
 70
     1
102
RTVSPropertyOp29
 70
     1
102
RTVSPropertyOp30
 70
     1
102
RTVSPropertyOp31
 70
     1
102
RTVSPropertyOp32
 70
     1
102
RTVSPropertyOp33
 70
     1
102
RTVSPropertyOp34
 70
     1
102
RTVSPropertyOp35
 70
     1
102
RTVSPropertyOp36
 70
     1
102
RTVSPropertyOp37
 70
     1
102
RTVSPropertyOp38
 70
     1
102
RTVSPropertyOp39
 70
     1
102
RTVSPropertyOp40
 70
     1
102
RTVSPropertyOp41
 70
     1
102
RTVSPropertyOp42
 70
     1
102
RTVSPropertyOp43
 70
     1
102
RTVSPropertyOp44
 70
     1
102
RTVSPropertyOp45
 70
     1
102
RTVSPropertyOp46
 70
     1
102
RTVSPropertyOp47
 70
     1
102
RTVSPropertyOp48
 70
     1
102
RTVSPropertyOp49
 70
     1
102
RTVSPropertyOp50
 70
     1
102
RTVSPropertyOp51
 70
     0
102
RTVSPropertyOp52
 70
     0
102
RTVSPropertyOp53
 70
     1
102
RTVSPropertyOp54
 70
     1
102
RTVSPropertyOp55
 70
     1
102
RTVSPropertyOp56
 70
     1
102
RTVSPropertyOp57
 70
     1
102
RTVSPropertyOp58
 70
     1
102
RTVSPropertyOp59
 70
     1
102
RTVSPropertyOp60
 70
     1
102
RTVSPropertyOp61
 70
     1
102
RTVSPropertyOp62
 70
     1
  0
XRECORD
  5
15CE
102
{ACAD_REACTORS
330
15CD
102
}
330
15CD
100
AcDbXrecord
280
     1
102
RTVSPost2010Prop28
280
     0
102
RTVSPost2010PropOp28
 70
     1
102
RTVSPost2010Prop29
280
     1
102
RTVSPost2010PropOp29
 70
     1
102
RTVSPost2010Prop30
280
     1
102
RTVSPost2010PropOp30
 70
     1
102
RTVSPost2010Prop31
280
     0
102
RTVSPost2010PropOp31
 70
     1
102
RTVSPost2010Prop32
280
     0
102
RTVSPost2010PropOp32
 70
     1
102
RTVSPost2010Prop33
280
     0
102
RTVSPost2010PropOp33
 70
     1
102
RTVSPost2010Prop34
280
     0
102
RTVSPost2010PropOp34
 70
     1
102
RTVSPost2010Prop35
280
     0
102
RTVSPost2010PropOp35
 70
     1
102
RTVSPost2010Prop36
280
     0
102
RTVSPost2010PropOp36
 70
     1
102
RTVSPost2010Prop37
 90
       50
102
RTVSPost2010PropOp37
 70
     1
102
RTVSPost2010Prop38
140
0.0
102
RTVSPost2010PropOp38
 70
     1
102
RTVSPost2010Prop39
140
1.0
102
RTVSPost2010PropOp39
 70
     1
102
RTVSPost2010Prop40
 90
        0
102
RTVSPost2010PropOp40
 70
     1
102
RTVSPost2010Prop41ColorIndex
 90
       18
102
RTVSPost2010Prop41ColorRGB
 90
-16777216
102
RTVSPost2010PropOp41
 70
     1
102
RTVSPost2010Prop42
 90
       50
102
RTVSPost2010PropOp42
 70
     1
102
RTVSPost2010Prop43
 90
        3
102
RTVSPost2010PropOp43
 70
     1
102
RTVSPost2010Prop44ColorIndex
 90
        5
102
RTVSPost2010Prop44ColorRGB
 90
      255
102
RTVSPost2010PropOp44
 70
     1
102
RTVSPost2010Prop45
280
     0
102
RTVSPost2010PropOp45
 70
     1
102
RTVSPost2010Prop46
 90
       50
102
RTVSPost2010PropOp46
 70
     1
102
RTVSPost2010Prop47
 90
       50
102
RTVSPost2010PropOp47
 70
     1
102
RTVSPost2010Prop48
 90
       50
102
RTVSPost2010PropOp48
 70
     1
102
RTVSPost2010Prop49
280
     0
102
RTVSPost2010PropOp49
 70
     1
102
RTVSPost2010Prop50
 90
       50
102
RTVSPost2010PropOp50
 70
     1
102
RTVSPost2010Prop51ColorIndex
 90
      256
102
RTVSPost2010Prop51ColorRGB
 90
-16777216
102
RTVSPost2010PropOp51
 70
     0
102
RTVSPost2010Prop52
140
1.0
102
RTVSPost2010PropOp52
 70
     0
102
RTVSPost2010Prop53
 90
        2
102
RTVSPost2010PropOp53
 70
     1
102
RTVSPost2010Prop54
  1
strokes_ogs.tif
102
RTVSPost2010PropOp54
 70
     1
102
RTVSPost2010Prop55
280
     0
102
RTVSPost2010PropOp55
 70
     1
102
RTVSPost2010Prop56
140
1.0
102
RTVSPost2010PropOp56
 70
     1
102
RTVSPost2010Prop57
140
1.0
102
RTVSPost2010PropOp57
 70
     1
102
RTVSPropertyOp0
 70
     1
102
RTVSPropertyOp1
 70
     1
102
RTVSPropertyOp2
 70
     1
102
RTVSPropertyOp3
 70
     1
102
RTVSPropertyOp4
 70
     1
102
RTVSPropertyOp5
 70
     1
102
RTVSPropertyOp6
 70
     1
102
RTVSPropertyOp7
 70
     1
102
RTVSPropertyOp8
 70
     1
102
RTVSPropertyOp9
 70
     1
102
RTVSPropertyOp10
 70
     1
102
RTVSPropertyOp11
 70
     1
102
RTVSPropertyOp12
 70
     1
102
RTVSPropertyOp13
 70
     1
102
RTVSPropertyOp14
 70
     1
102
RTVSPropertyOp15
 70
     1
102
RTVSPropertyOp16
 70
     1
102
RTVSPropertyOp17
 70
     1
102
RTVSPropertyOp18
 70
     1
102
RTVSPropertyOp19
 70
     1
102
RTVSPropertyOp20
 70
     1
102
RTVSPropertyOp21
 70
     1
102
RTVSPropertyOp22
 70
     1
102
RTVSPropertyOp23
 70
     1
102
RTVSPropertyOp24
 70
     1
102
RTVSPropertyOp25
 70
     1
102
RTVSPropertyOp26
 70
     1
102
RTVSPropertyOp27
 70
     1
102
RTVSPropertyOp28
 70
     1
102
RTVSPropertyOp29
 70
     1
102
RTVSPropertyOp30
 70
     1
102
RTVSPropertyOp31
 70
     1
102
RTVSPropertyOp32
 70
     1
102
RTVSPropertyOp33
 70
     1
102
RTVSPropertyOp34
 70
     1
102
RTVSPropertyOp35
 70
     1
102
RTVSPropertyOp36
 70
     1
102
RTVSPropertyOp37
 70
     1
102
RTVSPropertyOp38
 70
     1
102
RTVSPropertyOp39
 70
     1
102
RTVSPropertyOp40
 70
     1
102
RTVSPropertyOp41
 70
     1
102
RTVSPropertyOp42
 70
     1
102
RTVSPropertyOp43
 70
     1
102
RTVSPropertyOp44
 70
     1
102
RTVSPropertyOp45
 70
     1
102
RTVSPropertyOp46
 70
     1
102
RTVSPropertyOp47
 70
     1
102
RTVSPropertyOp48
 70
     1
102
RTVSPropertyOp49
 70
     1
102
RTVSPropertyOp50
 70
     1
102
RTVSPropertyOp51
 70
     0
102
RTVSPropertyOp52
 70
     0
102
RTVSPropertyOp53
 70
     1
102
RTVSPropertyOp54
 70
     1
102
RTVSPropertyOp55
 70
     1
102
RTVSPropertyOp56
 70
     1
102
RTVSPropertyOp57
 70
     1
102
RTVSPropertyOp58
 70
     1
102
RTVSPropertyOp59
 70
     1
102
RTVSPropertyOp60
 70
     1
102
RTVSPropertyOp61
 70
     1
102
RTVSPropertyOp62
 70
     1
  0
XRECORD
  5
15C2
102
{ACAD_REACTORS
330
15C1
102
}
330
15C1
100
AcDbXrecord
280
     1
102
RTVSPost2010Prop28
280
     0
102
RTVSPost2010PropOp28
 70
     1
102
RTVSPost2010Prop29
280
     1
102
RTVSPost2010PropOp29
 70
     1
102
RTVSPost2010Prop30
280
     1
102
RTVSPost2010PropOp30
 70
     1
102
RTVSPost2010Prop31
280
     0
102
RTVSPost2010PropOp31
 70
     1
102
RTVSPost2010Prop32
280
     0
102
RTVSPost2010PropOp32
 70
     1
102
RTVSPost2010Prop33
280
     0
102
RTVSPost2010PropOp33
 70
     1
102
RTVSPost2010Prop34
280
     0
102
RTVSPost2010PropOp34
 70
     1
102
RTVSPost2010Prop35
280
     0
102
RTVSPost2010PropOp35
 70
     1
102
RTVSPost2010Prop36
280
     0
102
RTVSPost2010PropOp36
 70
     1
102
RTVSPost2010Prop37
 90
       50
102
RTVSPost2010PropOp37
 70
     1
102
RTVSPost2010Prop38
140
0.0
102
RTVSPost2010PropOp38
 70
     1
102
RTVSPost2010Prop39
140
1.0
102
RTVSPost2010PropOp39
 70
     1
102
RTVSPost2010Prop40
 90
        0
102
RTVSPost2010PropOp40
 70
     1
102
RTVSPost2010Prop41ColorIndex
 90
       18
102
RTVSPost2010Prop41ColorRGB
 90
-16777216
102
RTVSPost2010PropOp41
 70
     1
102
RTVSPost2010Prop42
 90
       50
102
RTVSPost2010PropOp42
 70
     1
102
RTVSPost2010Prop43
 90
        3
102
RTVSPost2010PropOp43
 70
     1
102
RTVSPost2010Prop44ColorIndex
 90
        5
102
RTVSPost2010Prop44ColorRGB
 90
      255
102
RTVSPost2010PropOp44
 70
     1
102
RTVSPost2010Prop45
280
     0
102
RTVSPost2010PropOp45
 70
     1
102
RTVSPost2010Prop46
 90
       50
102
RTVSPost2010PropOp46
 70
     1
102
RTVSPost2010Prop47
 90
       50
102
RTVSPost2010PropOp47
 70
     1
102
RTVSPost2010Prop48
 90
       50
102
RTVSPost2010PropOp48
 70
     1
102
RTVSPost2010Prop49
280
     0
102
RTVSPost2010PropOp49
 70
     1
102
RTVSPost2010Prop50
 90
       50
102
RTVSPost2010PropOp50
 70
     1
102
RTVSPost2010Prop51ColorIndex
 90
      256
102
RTVSPost2010Prop51ColorRGB
 90
-16777216
102
RTVSPost2010PropOp51
 70
     0
102
RTVSPost2010Prop52
140
1.0
102
RTVSPost2010PropOp52
 70
     0
102
RTVSPost2010Prop53
 90
        2
102
RTVSPost2010PropOp53
 70
     1
102
RTVSPost2010Prop54
  1
strokes_ogs.tif
102
RTVSPost2010PropOp54
 70
     1
102
RTVSPost2010Prop55
280
     0
102
RTVSPost2010PropOp55
 70
     1
102
RTVSPost2010Prop56
140
1.0
102
RTVSPost2010PropOp56
 70
     1
102
RTVSPost2010Prop57
140
1.0
102
RTVSPost2010PropOp57
 70
     1
102
RTVSPropertyOp0
 70
     1
102
RTVSPropertyOp1
 70
     1
102
RTVSPropertyOp2
 70
     1
102
RTVSPropertyOp3
 70
     1
102
RTVSPropertyOp4
 70
     1
102
RTVSPropertyOp5
 70
     1
102
RTVSPropertyOp6
 70
     1
102
RTVSPropertyOp7
 70
     1
102
RTVSPropertyOp8
 70
     1
102
RTVSPropertyOp9
 70
     1
102
RTVSPropertyOp10
 70
     1
102
RTVSPropertyOp11
 70
     1
102
RTVSPropertyOp12
 70
     1
102
RTVSPropertyOp13
 70
     1
102
RTVSPropertyOp14
 70
     1
102
RTVSPropertyOp15
 70
     1
102
RTVSPropertyOp16
 70
     1
102
RTVSPropertyOp17
 70
     1
102
RTVSPropertyOp18
 70
     1
102
RTVSPropertyOp19
 70
     1
102
RTVSPropertyOp20
 70
     1
102
RTVSPropertyOp21
 70
     1
102
RTVSPropertyOp22
 70
     1
102
RTVSPropertyOp23
 70
     1
102
RTVSPropertyOp24
 70
     1
102
RTVSPropertyOp25
 70
     1
102
RTVSPropertyOp26
 70
     1
102
RTVSPropertyOp27
 70
     1
102
RTVSPropertyOp28
 70
     1
102
RTVSPropertyOp29
 70
     1
102
RTVSPropertyOp30
 70
     1
102
RTVSPropertyOp31
 70
     1
102
RTVSPropertyOp32
 70
     1
102
RTVSPropertyOp33
 70
     1
102
RTVSPropertyOp34
 70
     1
102
RTVSPropertyOp35
 70
     1
102
RTVSPropertyOp36
 70
     1
102
RTVSPropertyOp37
 70
     1
102
RTVSPropertyOp38
 70
     1
102
RTVSPropertyOp39
 70
     1
102
RTVSPropertyOp40
 70
     1
102
RTVSPropertyOp41
 70
     1
102
RTVSPropertyOp42
 70
     1
102
RTVSPropertyOp43
 70
     1
102
RTVSPropertyOp44
 70
     1
102
RTVSPropertyOp45
 70
     1
102
RTVSPropertyOp46
 70
     1
102
RTVSPropertyOp47
 70
     1
102
RTVSPropertyOp48
 70
     1
102
RTVSPropertyOp49
 70
     1
102
RTVSPropertyOp50
 70
     1
102
RTVSPropertyOp51
 70
     0
102
RTVSPropertyOp52
 70
     0
102
RTVSPropertyOp53
 70
     1
102
RTVSPropertyOp54
 70
     1
102
RTVSPropertyOp55
 70
     1
102
RTVSPropertyOp56
 70
     1
102
RTVSPropertyOp57
 70
     1
102
RTVSPropertyOp58
 70
     1
102
RTVSPropertyOp59
 70
     1
102
RTVSPropertyOp60
 70
     1
102
RTVSPropertyOp61
 70
     1
102
RTVSPropertyOp62
 70
     1
  0
XRECORD
  5
15C4
102
{ACAD_REACTORS
330
15C3
102
}
330
15C3
100
AcDbXrecord
280
     1
102
RTVSPost2010Prop28
280
     0
102
RTVSPost2010PropOp28
 70
     1
102
RTVSPost2010Prop29
280
     1
102
RTVSPost2010PropOp29
 70
     1
102
RTVSPost2010Prop30
280
     1
102
RTVSPost2010PropOp30
 70
     1
102
RTVSPost2010Prop31
280
     0
102
RTVSPost2010PropOp31
 70
     1
102
RTVSPost2010Prop32
280
     0
102
RTVSPost2010PropOp32
 70
     1
102
RTVSPost2010Prop33
280
     0
102
RTVSPost2010PropOp33
 70
     1
102
RTVSPost2010Prop34
280
     0
102
RTVSPost2010PropOp34
 70
     1
102
RTVSPost2010Prop35
280
     0
102
RTVSPost2010PropOp35
 70
     1
102
RTVSPost2010Prop36
280
     0
102
RTVSPost2010PropOp36
 70
     1
102
RTVSPost2010Prop37
 90
       50
102
RTVSPost2010PropOp37
 70
     1
102
RTVSPost2010Prop38
140
0.0
102
RTVSPost2010PropOp38
 70
     1
102
RTVSPost2010Prop39
140
1.0
102
RTVSPost2010PropOp39
 70
     1
102
RTVSPost2010Prop40
 90
        0
102
RTVSPost2010PropOp40
 70
     1
102
RTVSPost2010Prop41ColorIndex
 90
       18
102
RTVSPost2010Prop41ColorRGB
 90
-16777216
102
RTVSPost2010PropOp41
 70
     1
102
RTVSPost2010Prop42
 90
       50
102
RTVSPost2010PropOp42
 70
     1
102
RTVSPost2010Prop43
 90
        3
102
RTVSPost2010PropOp43
 70
     1
102
RTVSPost2010Prop44ColorIndex
 90
        5
102
RTVSPost2010Prop44ColorRGB
 90
      255
102
RTVSPost2010PropOp44
 70
     1
102
RTVSPost2010Prop45
280
     0
102
RTVSPost2010PropOp45
 70
     1
102
RTVSPost2010Prop46
 90
       50
102
RTVSPost2010PropOp46
 70
     1
102
RTVSPost2010Prop47
 90
       50
102
RTVSPost2010PropOp47
 70
     1
102
RTVSPost2010Prop48
 90
       50
102
RTVSPost2010PropOp48
 70
     1
102
RTVSPost2010Prop49
280
     0
102
RTVSPost2010PropOp49
 70
     1
102
RTVSPost2010Prop50
 90
       50
102
RTVSPost2010PropOp50
 70
     1
102
RTVSPost2010Prop51ColorIndex
 90
      256
102
RTVSPost2010Prop51ColorRGB
 90
-16777216
102
RTVSPost2010PropOp51
 70
     0
102
RTVSPost2010Prop52
140
1.0
102
RTVSPost2010PropOp52
 70
     0
102
RTVSPost2010Prop53
 90
        2
102
RTVSPost2010PropOp53
 70
     1
102
RTVSPost2010Prop54
  1
strokes_ogs.tif
102
RTVSPost2010PropOp54
 70
     1
102
RTVSPost2010Prop55
280
     0
102
RTVSPost2010PropOp55
 70
     1
102
RTVSPost2010Prop56
140
1.0
102
RTVSPost2010PropOp56
 70
     1
102
RTVSPost2010Prop57
140
1.0
102
RTVSPost2010PropOp57
 70
     1
102
RTVSPropertyOp0
 70
     1
102
RTVSPropertyOp1
 70
     1
102
RTVSPropertyOp2
 70
     1
102
RTVSPropertyOp3
 70
     1
102
RTVSPropertyOp4
 70
     1
102
RTVSPropertyOp5
 70
     1
102
RTVSPropertyOp6
 70
     1
102
RTVSPropertyOp7
 70
     1
102
RTVSPropertyOp8
 70
     1
102
RTVSPropertyOp9
 70
     1
102
RTVSPropertyOp10
 70
     1
102
RTVSPropertyOp11
 70
     1
102
RTVSPropertyOp12
 70
     1
102
RTVSPropertyOp13
 70
     1
102
RTVSPropertyOp14
 70
     1
102
RTVSPropertyOp15
 70
     1
102
RTVSPropertyOp16
 70
     1
102
RTVSPropertyOp17
 70
     1
102
RTVSPropertyOp18
 70
     1
102
RTVSPropertyOp19
 70
     1
102
RTVSPropertyOp20
 70
     1
102
RTVSPropertyOp21
 70
     1
102
RTVSPropertyOp22
 70
     1
102
RTVSPropertyOp23
 70
     1
102
RTVSPropertyOp24
 70
     1
102
RTVSPropertyOp25
 70
     1
102
RTVSPropertyOp26
 70
     1
102
RTVSPropertyOp27
 70
     1
102
RTVSPropertyOp28
 70
     1
102
RTVSPropertyOp29
 70
     1
102
RTVSPropertyOp30
 70
     1
102
RTVSPropertyOp31
 70
     1
102
RTVSPropertyOp32
 70
     1
102
RTVSPropertyOp33
 70
     1
102
RTVSPropertyOp34
 70
     1
102
RTVSPropertyOp35
 70
     1
102
RTVSPropertyOp36
 70
     1
102
RTVSPropertyOp37
 70
     1
102
RTVSPropertyOp38
 70
     1
102
RTVSPropertyOp39
 70
     1
102
RTVSPropertyOp40
 70
     1
102
RTVSPropertyOp41
 70
     1
102
RTVSPropertyOp42
 70
     1
102
RTVSPropertyOp43
 70
     1
102
RTVSPropertyOp44
 70
     1
102
RTVSPropertyOp45
 70
     1
102
RTVSPropertyOp46
 70
     1
102
RTVSPropertyOp47
 70
     1
102
RTVSPropertyOp48
 70
     1
102
RTVSPropertyOp49
 70
     1
102
RTVSPropertyOp50
 70
     1
102
RTVSPropertyOp51
 70
     0
102
RTVSPropertyOp52
 70
     0
102
RTVSPropertyOp53
 70
     1
102
RTVSPropertyOp54
 70
     1
102
RTVSPropertyOp55
 70
     1
102
RTVSPropertyOp56
 70
     1
102
RTVSPropertyOp57
 70
     1
102
RTVSPropertyOp58
 70
     1
102
RTVSPropertyOp59
 70
     1
102
RTVSPropertyOp60
 70
     1
102
RTVSPropertyOp61
 70
     1
102
RTVSPropertyOp62
 70
     1
  0
XRECORD
  5
15DE
102
{ACAD_REACTORS
330
15DD
102
}
330
15DD
100
AcDbXrecord
280
     1
102
RTVSPost2010Prop28
280
     0
102
RTVSPost2010PropOp28
 70
     1
102
RTVSPost2010Prop29
280
     1
102
RTVSPost2010PropOp29
 70
     1
102
RTVSPost2010Prop30
280
     1
102
RTVSPost2010PropOp30
 70
     1
102
RTVSPost2010Prop31
280
     0
102
RTVSPost2010PropOp31
 70
     1
102
RTVSPost2010Prop32
280
     0
102
RTVSPost2010PropOp32
 70
     1
102
RTVSPost2010Prop33
280
     0
102
RTVSPost2010PropOp33
 70
     1
102
RTVSPost2010Prop34
280
     0
102
RTVSPost2010PropOp34
 70
     1
102
RTVSPost2010Prop35
280
     0
102
RTVSPost2010PropOp35
 70
     1
102
RTVSPost2010Prop36
280
     0
102
RTVSPost2010PropOp36
 70
     1
102
RTVSPost2010Prop37
 90
       50
102
RTVSPost2010PropOp37
 70
     0
102
RTVSPost2010Prop38
140
0.0
102
RTVSPost2010PropOp38
 70
     0
102
RTVSPost2010Prop39
140
1.0
102
RTVSPost2010PropOp39
 70
     0
102
RTVSPost2010Prop40
 90
        0
102
RTVSPost2010PropOp40
 70
     0
102
RTVSPost2010Prop41ColorIndex
 90
       18
102
RTVSPost2010Prop41ColorRGB
 90
-16777216
102
RTVSPost2010PropOp41
 70
     0
102
RTVSPost2010Prop42
 90
       50
102
RTVSPost2010PropOp42
 70
     0
102
RTVSPost2010Prop43
 90
        3
102
RTVSPost2010PropOp43
 70
     0
102
RTVSPost2010Prop44ColorIndex
 90
        5
102
RTVSPost2010Prop44ColorRGB
 90
      255
102
RTVSPost2010PropOp44
 70
     0
102
RTVSPost2010Prop45
280
     0
102
RTVSPost2010PropOp45
 70
     1
102
RTVSPost2010Prop46
 90
       50
102
RTVSPost2010PropOp46
 70
     0
102
RTVSPost2010Prop47
 90
       50
102
RTVSPost2010PropOp47
 70
     0
102
RTVSPost2010Prop48
 90
       50
102
RTVSPost2010PropOp48
 70
     0
102
RTVSPost2010Prop49
280
     0
102
RTVSPost2010PropOp49
 70
     1
102
RTVSPost2010Prop50
 90
       50
102
RTVSPost2010PropOp50
 70
     0
102
RTVSPost2010Prop51ColorIndex
 90
      256
102
RTVSPost2010Prop51ColorRGB
 90
-16777216
102
RTVSPost2010PropOp51
 70
     0
102
RTVSPost2010Prop52
140
1.0
102
RTVSPost2010PropOp52
 70
     0
102
RTVSPost2010Prop53
 90
        2
102
RTVSPost2010PropOp53
 70
     0
102
RTVSPost2010Prop54
  1
strokes_ogs.tif
102
RTVSPost2010PropOp54
 70
     0
102
RTVSPost2010Prop55
280
     0
102
RTVSPost2010PropOp55
 70
     1
102
RTVSPost2010Prop56
140
1.0
102
RTVSPost2010PropOp56
 70
     0
102
RTVSPost2010Prop57
140
1.0
102
RTVSPost2010PropOp57
 70
     0
102
RTVSPropertyOp0
 70
     0
102
RTVSPropertyOp1
 70
     0
102
RTVSPropertyOp2
 70
     0
102
RTVSPropertyOp3
 70
     0
102
RTVSPropertyOp4
 70
     0
102
RTVSPropertyOp5
 70
     0
102
RTVSPropertyOp6
 70
     0
102
RTVSPropertyOp7
 70
     0
102
RTVSPropertyOp8
 70
     0
102
RTVSPropertyOp9
 70
     0
102
RTVSPropertyOp10
 70
     0
102
RTVSPropertyOp11
 70
     0
102
RTVSPropertyOp12
 70
     0
102
RTVSPropertyOp13
 70
     0
102
RTVSPropertyOp14
 70
     2
102
RTVSPropertyOp15
 70
     0
102
RTVSPropertyOp16
 70
     0
102
RTVSPropertyOp17
 70
     0
102
RTVSPropertyOp18
 70
     0
102
RTVSPropertyOp19
 70
     0
102
RTVSPropertyOp20
 70
     0
102
RTVSPropertyOp21
 70
     0
102
RTVSPropertyOp22
 70
     0
102
RTVSPropertyOp23
 70
     0
102
RTVSPropertyOp24
 70
     0
102
RTVSPropertyOp25
 70
     0
102
RTVSPropertyOp26
 70
     0
102
RTVSPropertyOp27
 70
     0
102
RTVSPropertyOp28
 70
     1
102
RTVSPropertyOp29
 70
     1
102
RTVSPropertyOp30
 70
     1
102
RTVSPropertyOp31
 70
     1
102
RTVSPropertyOp32
 70
     1
102
RTVSPropertyOp33
 70
     1
102
RTVSPropertyOp34
 70
     1
102
RTVSPropertyOp35
 70
     1
102
RTVSPropertyOp36
 70
     1
102
RTVSPropertyOp37
 70
     0
102
RTVSPropertyOp38
 70
     0
102
RTVSPropertyOp39
 70
     0
102
RTVSPropertyOp40
 70
     0
102
RTVSPropertyOp41
 70
     0
102
RTVSPropertyOp42
 70
     0
102
RTVSPropertyOp43
 70
     0
102
RTVSPropertyOp44
 70
     0
102
RTVSPropertyOp45
 70
     1
102
RTVSPropertyOp46
 70
     0
102
RTVSPropertyOp47
 70
     0
102
RTVSPropertyOp48
 70
     0
102
RTVSPropertyOp49
 70
     1
102
RTVSPropertyOp50
 70
     0
102
RTVSPropertyOp51
 70
     0
102
RTVSPropertyOp52
 70
     0
102
RTVSPropertyOp53
 70
     0
102
RTVSPropertyOp54
 70
     0
102
RTVSPropertyOp55
 70
     1
102
RTVSPropertyOp56
 70
     0
102
RTVSPropertyOp57
 70
     0
102
RTVSPropertyOp58
 70
     1
102
RTVSPropertyOp59
 70
     1
102
RTVSPropertyOp60
 70
     1
102
RTVSPropertyOp61
 70
     1
102
RTVSPropertyOp62
 70
     1
  0
XRECORD
  5
15CC
102
{ACAD_REACTORS
330
15CB
102
}
330
15CB
100
AcDbXrecord
280
     1
102
RTVSPost2010Prop28
280
     0
102
RTVSPost2010PropOp28
 70
     1
102
RTVSPost2010Prop29
280
     1
102
RTVSPost2010PropOp29
 70
     1
102
RTVSPost2010Prop30
280
     1
102
RTVSPost2010PropOp30
 70
     1
102
RTVSPost2010Prop31
280
     0
102
RTVSPost2010PropOp31
 70
     1
102
RTVSPost2010Prop32
280
     0
102
RTVSPost2010PropOp32
 70
     1
102
RTVSPost2010Prop33
280
     0
102
RTVSPost2010PropOp33
 70
     1
102
RTVSPost2010Prop34
280
     0
102
RTVSPost2010PropOp34
 70
     1
102
RTVSPost2010Prop35
280
     0
102
RTVSPost2010PropOp35
 70
     1
102
RTVSPost2010Prop36
280
     0
102
RTVSPost2010PropOp36
 70
     1
102
RTVSPost2010Prop37
 90
       50
102
RTVSPost2010PropOp37
 70
     1
102
RTVSPost2010Prop38
140
0.0
102
RTVSPost2010PropOp38
 70
     1
102
RTVSPost2010Prop39
140
1.0
102
RTVSPost2010PropOp39
 70
     1
102
RTVSPost2010Prop40
 90
        0
102
RTVSPost2010PropOp40
 70
     1
102
RTVSPost2010Prop41ColorIndex
 90
       18
102
RTVSPost2010Prop41ColorRGB
 90
-16777216
102
RTVSPost2010PropOp41
 70
     1
102
RTVSPost2010Prop42
 90
       50
102
RTVSPost2010PropOp42
 70
     1
102
RTVSPost2010Prop43
 90
        3
102
RTVSPost2010PropOp43
 70
     1
102
RTVSPost2010Prop44ColorIndex
 90
        5
102
RTVSPost2010Prop44ColorRGB
 90
      255
102
RTVSPost2010PropOp44
 70
     1
102
RTVSPost2010Prop45
280
     0
102
RTVSPost2010PropOp45
 70
     1
102
RTVSPost2010Prop46
 90
       50
102
RTVSPost2010PropOp46
 70
     1
102
RTVSPost2010Prop47
 90
       50
102
RTVSPost2010PropOp47
 70
     1
102
RTVSPost2010Prop48
 90
       50
102
RTVSPost2010PropOp48
 70
     1
102
RTVSPost2010Prop49
280
     0
102
RTVSPost2010PropOp49
 70
     1
102
RTVSPost2010Prop50
 90
       50
102
RTVSPost2010PropOp50
 70
     1
102
RTVSPost2010Prop51ColorIndex
 90
      256
102
RTVSPost2010Prop51ColorRGB
 90
-16777216
102
RTVSPost2010PropOp51
 70
     0
102
RTVSPost2010Prop52
140
1.0
102
RTVSPost2010PropOp52
 70
     0
102
RTVSPost2010Prop53
 90
        2
102
RTVSPost2010PropOp53
 70
     1
102
RTVSPost2010Prop54
  1
strokes_ogs.tif
102
RTVSPost2010PropOp54
 70
     1
102
RTVSPost2010Prop55
280
     0
102
RTVSPost2010PropOp55
 70
     1
102
RTVSPost2010Prop56
140
1.0
102
RTVSPost2010PropOp56
 70
     1
102
RTVSPost2010Prop57
140
1.0
102
RTVSPost2010PropOp57
 70
     1
102
RTVSPropertyOp0
 70
     1
102
RTVSPropertyOp1
 70
     1
102
RTVSPropertyOp2
 70
     1
102
RTVSPropertyOp3
 70
     1
102
RTVSPropertyOp4
 70
     1
102
RTVSPropertyOp5
 70
     1
102
RTVSPropertyOp6
 70
     1
102
RTVSPropertyOp7
 70
     1
102
RTVSPropertyOp8
 70
     1
102
RTVSPropertyOp9
 70
     1
102
RTVSPropertyOp10
 70
     1
102
RTVSPropertyOp11
 70
     1
102
RTVSPropertyOp12
 70
     1
102
RTVSPropertyOp13
 70
     1
102
RTVSPropertyOp14
 70
     1
102
RTVSPropertyOp15
 70
     1
102
RTVSPropertyOp16
 70
     1
102
RTVSPropertyOp17
 70
     1
102
RTVSPropertyOp18
 70
     1
102
RTVSPropertyOp19
 70
     1
102
RTVSPropertyOp20
 70
     1
102
RTVSPropertyOp21
 70
     1
102
RTVSPropertyOp22
 70
     1
102
RTVSPropertyOp23
 70
     1
102
RTVSPropertyOp24
 70
     1
102
RTVSPropertyOp25
 70
     1
102
RTVSPropertyOp26
 70
     1
102
RTVSPropertyOp27
 70
     1
102
RTVSPropertyOp28
 70
     1
102
RTVSPropertyOp29
 70
     1
102
RTVSPropertyOp30
 70
     1
102
RTVSPropertyOp31
 70
     1
102
RTVSPropertyOp32
 70
     1
102
RTVSPropertyOp33
 70
     1
102
RTVSPropertyOp34
 70
     1
102
RTVSPropertyOp35
 70
     1
102
RTVSPropertyOp36
 70
     1
102
RTVSPropertyOp37
 70
     1
102
RTVSPropertyOp38
 70
     1
102
RTVSPropertyOp39
 70
     1
102
RTVSPropertyOp40
 70
     1
102
RTVSPropertyOp41
 70
     1
102
RTVSPropertyOp42
 70
     1
102
RTVSPropertyOp43
 70
     1
102
RTVSPropertyOp44
 70
     1
102
RTVSPropertyOp45
 70
     1
102
RTVSPropertyOp46
 70
     1
102
RTVSPropertyOp47
 70
     1
102
RTVSPropertyOp48
 70
     1
102
RTVSPropertyOp49
 70
     1
102
RTVSPropertyOp50
 70
     1
102
RTVSPropertyOp51
 70
     0
102
RTVSPropertyOp52
 70
     0
102
RTVSPropertyOp53
 70
     1
102
RTVSPropertyOp54
 70
     1
102
RTVSPropertyOp55
 70
     1
102
RTVSPropertyOp56
 70
     1
102
RTVSPropertyOp57
 70
     1
102
RTVSPropertyOp58
 70
     1
102
RTVSPropertyOp59
 70
     1
102
RTVSPropertyOp60
 70
     1
102
RTVSPropertyOp61
 70
     1
102
RTVSPropertyOp62
 70
     1
  0
XRECORD
  5
15B6
102
{ACAD_REACTORS
330
15B5
102
}
330
15B5
100
AcDbXrecord
280
     1
102
RTVSPost2010Prop28
280
     0
102
RTVSPost2010PropOp28
 70
     1
102
RTVSPost2010Prop29
280
     1
102
RTVSPost2010PropOp29
 70
     1
102
RTVSPost2010Prop30
280
     1
102
RTVSPost2010PropOp30
 70
     1
102
RTVSPost2010Prop31
280
     0
102
RTVSPost2010PropOp31
 70
     1
102
RTVSPost2010Prop32
280
     0
102
RTVSPost2010PropOp32
 70
     1
102
RTVSPost2010Prop33
280
     0
102
RTVSPost2010PropOp33
 70
     1
102
RTVSPost2010Prop34
280
     0
102
RTVSPost2010PropOp34
 70
     1
102
RTVSPost2010Prop35
280
     0
102
RTVSPost2010PropOp35
 70
     1
102
RTVSPost2010Prop36
280
     0
102
RTVSPost2010PropOp36
 70
     1
102
RTVSPost2010Prop37
 90
       50
102
RTVSPost2010PropOp37
 70
     1
102
RTVSPost2010Prop38
140
0.0
102
RTVSPost2010PropOp38
 70
     1
102
RTVSPost2010Prop39
140
1.0
102
RTVSPost2010PropOp39
 70
     1
102
RTVSPost2010Prop40
 90
        0
102
RTVSPost2010PropOp40
 70
     1
102
RTVSPost2010Prop41ColorIndex
 90
       18
102
RTVSPost2010Prop41ColorRGB
 90
-16777216
102
RTVSPost2010PropOp41
 70
     1
102
RTVSPost2010Prop42
 90
       50
102
RTVSPost2010PropOp42
 70
     1
102
RTVSPost2010Prop43
 90
        3
102
RTVSPost2010PropOp43
 70
     1
102
RTVSPost2010Prop44ColorIndex
 90
        5
102
RTVSPost2010Prop44ColorRGB
 90
      255
102
RTVSPost2010PropOp44
 70
     1
102
RTVSPost2010Prop45
280
     0
102
RTVSPost2010PropOp45
 70
     1
102
RTVSPost2010Prop46
 90
       50
102
RTVSPost2010PropOp46
 70
     1
102
RTVSPost2010Prop47
 90
       50
102
RTVSPost2010PropOp47
 70
     1
102
RTVSPost2010Prop48
 90
       50
102
RTVSPost2010PropOp48
 70
     1
102
RTVSPost2010Prop49
280
     0
102
RTVSPost2010PropOp49
 70
     1
102
RTVSPost2010Prop50
 90
       50
102
RTVSPost2010PropOp50
 70
     1
102
RTVSPost2010Prop51ColorIndex
 90
      256
102
RTVSPost2010Prop51ColorRGB
 90
-16777216
102
RTVSPost2010PropOp51
 70
     0
102
RTVSPost2010Prop52
140
1.0
102
RTVSPost2010PropOp52
 70
     0
102
RTVSPost2010Prop53
 90
        2
102
RTVSPost2010PropOp53
 70
     1
102
RTVSPost2010Prop54
  1
strokes_ogs.tif
102
RTVSPost2010PropOp54
 70
     1
102
RTVSPost2010Prop55
280
     0
102
RTVSPost2010PropOp55
 70
     1
102
RTVSPost2010Prop56
140
1.0
102
RTVSPost2010PropOp56
 70
     1
102
RTVSPost2010Prop57
140
1.0
102
RTVSPost2010PropOp57
 70
     1
102
RTVSPropertyOp0
 70
     1
102
RTVSPropertyOp1
 70
     1
102
RTVSPropertyOp2
 70
     1
102
RTVSPropertyOp3
 70
     1
102
RTVSPropertyOp4
 70
     1
102
RTVSPropertyOp5
 70
     1
102
RTVSPropertyOp6
 70
     1
102
RTVSPropertyOp7
 70
     1
102
RTVSPropertyOp8
 70
     1
102
RTVSPropertyOp9
 70
     1
102
RTVSPropertyOp10
 70
     1
102
RTVSPropertyOp11
 70
     1
102
RTVSPropertyOp12
 70
     1
102
RTVSPropertyOp13
 70
     1
102
RTVSPropertyOp14
 70
     1
102
RTVSPropertyOp15
 70
     1
102
RTVSPropertyOp16
 70
     1
102
RTVSPropertyOp17
 70
     1
102
RTVSPropertyOp18
 70
     1
102
RTVSPropertyOp19
 70
     1
102
RTVSPropertyOp20
 70
     1
102
RTVSPropertyOp21
 70
     1
102
RTVSPropertyOp22
 70
     1
102
RTVSPropertyOp23
 70
     1
102
RTVSPropertyOp24
 70
     1
102
RTVSPropertyOp25
 70
     1
102
RTVSPropertyOp26
 70
     1
102
RTVSPropertyOp27
 70
     1
102
RTVSPropertyOp28
 70
     1
102
RTVSPropertyOp29
 70
     1
102
RTVSPropertyOp30
 70
     1
102
RTVSPropertyOp31
 70
     1
102
RTVSPropertyOp32
 70
     1
102
RTVSPropertyOp33
 70
     1
102
RTVSPropertyOp34
 70
     1
102
RTVSPropertyOp35
 70
     1
102
RTVSPropertyOp36
 70
     1
102
RTVSPropertyOp37
 70
     1
102
RTVSPropertyOp38
 70
     1
102
RTVSPropertyOp39
 70
     1
102
RTVSPropertyOp40
 70
     1
102
RTVSPropertyOp41
 70
     1
102
RTVSPropertyOp42
 70
     1
102
RTVSPropertyOp43
 70
     1
102
RTVSPropertyOp44
 70
     1
102
RTVSPropertyOp45
 70
     1
102
RTVSPropertyOp46
 70
     1
102
RTVSPropertyOp47
 70
     1
102
RTVSPropertyOp48
 70
     1
102
RTVSPropertyOp49
 70
     1
102
RTVSPropertyOp50
 70
     1
102
RTVSPropertyOp51
 70
     0
102
RTVSPropertyOp52
 70
     0
102
RTVSPropertyOp53
 70
     1
102
RTVSPropertyOp54
 70
     1
102
RTVSPropertyOp55
 70
     1
102
RTVSPropertyOp56
 70
     1
102
RTVSPropertyOp57
 70
     1
102
RTVSPropertyOp58
 70
     1
102
RTVSPropertyOp59
 70
     1
102
RTVSPropertyOp60
 70
     1
102
RTVSPropertyOp61
 70
     1
102
RTVSPropertyOp62
 70
     1
  0
XRECORD
  5
15B8
102
{ACAD_REACTORS
330
15B7
102
}
330
15B7
100
AcDbXrecord
280
     1
102
RTVSPost2010Prop28
280
     0
102
RTVSPost2010PropOp28
 70
     1
102
RTVSPost2010Prop29
280
     1
102
RTVSPost2010PropOp29
 70
     1
102
RTVSPost2010Prop30
280
     1
102
RTVSPost2010PropOp30
 70
     1
102
RTVSPost2010Prop31
280
     0
102
RTVSPost2010PropOp31
 70
     1
102
RTVSPost2010Prop32
280
     0
102
RTVSPost2010PropOp32
 70
     1
102
RTVSPost2010Prop33
280
     0
102
RTVSPost2010PropOp33
 70
     1
102
RTVSPost2010Prop34
280
     0
102
RTVSPost2010PropOp34
 70
     1
102
RTVSPost2010Prop35
280
     0
102
RTVSPost2010PropOp35
 70
     1
102
RTVSPost2010Prop36
280
     0
102
RTVSPost2010PropOp36
 70
     1
102
RTVSPost2010Prop37
 90
       50
102
RTVSPost2010PropOp37
 70
     1
102
RTVSPost2010Prop38
140
0.0
102
RTVSPost2010PropOp38
 70
     1
102
RTVSPost2010Prop39
140
1.0
102
RTVSPost2010PropOp39
 70
     1
102
RTVSPost2010Prop40
 90
        0
102
RTVSPost2010PropOp40
 70
     1
102
RTVSPost2010Prop41ColorIndex
 90
       18
102
RTVSPost2010Prop41ColorRGB
 90
-16777216
102
RTVSPost2010PropOp41
 70
     1
102
RTVSPost2010Prop42
 90
       50
102
RTVSPost2010PropOp42
 70
     1
102
RTVSPost2010Prop43
 90
        3
102
RTVSPost2010PropOp43
 70
     1
102
RTVSPost2010Prop44ColorIndex
 90
        5
102
RTVSPost2010Prop44ColorRGB
 90
      255
102
RTVSPost2010PropOp44
 70
     1
102
RTVSPost2010Prop45
280
     0
102
RTVSPost2010PropOp45
 70
     1
102
RTVSPost2010Prop46
 90
       50
102
RTVSPost2010PropOp46
 70
     1
102
RTVSPost2010Prop47
 90
       50
102
RTVSPost2010PropOp47
 70
     1
102
RTVSPost2010Prop48
 90
       50
102
RTVSPost2010PropOp48
 70
     1
102
RTVSPost2010Prop49
280
     0
102
RTVSPost2010PropOp49
 70
     1
102
RTVSPost2010Prop50
 90
       50
102
RTVSPost2010PropOp50
 70
     1
102
RTVSPost2010Prop51ColorIndex
 90
      256
102
RTVSPost2010Prop51ColorRGB
 90
-16777216
102
RTVSPost2010PropOp51
 70
     0
102
RTVSPost2010Prop52
140
1.0
102
RTVSPost2010PropOp52
 70
     0
102
RTVSPost2010Prop53
 90
        2
102
RTVSPost2010PropOp53
 70
     1
102
RTVSPost2010Prop54
  1
strokes_ogs.tif
102
RTVSPost2010PropOp54
 70
     1
102
RTVSPost2010Prop55
280
     0
102
RTVSPost2010PropOp55
 70
     1
102
RTVSPost2010Prop56
140
1.0
102
RTVSPost2010PropOp56
 70
     1
102
RTVSPost2010Prop57
140
1.0
102
RTVSPost2010PropOp57
 70
     1
102
RTVSPropertyOp0
 70
     1
102
RTVSPropertyOp1
 70
     1
102
RTVSPropertyOp2
 70
     1
102
RTVSPropertyOp3
 70
     1
102
RTVSPropertyOp4
 70
     1
102
RTVSPropertyOp5
 70
     1
102
RTVSPropertyOp6
 70
     1
102
RTVSPropertyOp7
 70
     1
102
RTVSPropertyOp8
 70
     1
102
RTVSPropertyOp9
 70
     1
102
RTVSPropertyOp10
 70
     1
102
RTVSPropertyOp11
 70
     1
102
RTVSPropertyOp12
 70
     1
102
RTVSPropertyOp13
 70
     1
102
RTVSPropertyOp14
 70
     1
102
RTVSPropertyOp15
 70
     1
102
RTVSPropertyOp16
 70
     1
102
RTVSPropertyOp17
 70
     1
102
RTVSPropertyOp18
 70
     1
102
RTVSPropertyOp19
 70
     1
102
RTVSPropertyOp20
 70
     1
102
RTVSPropertyOp21
 70
     1
102
RTVSPropertyOp22
 70
     1
102
RTVSPropertyOp23
 70
     1
102
RTVSPropertyOp24
 70
     1
102
RTVSPropertyOp25
 70
     1
102
RTVSPropertyOp26
 70
     1
102
RTVSPropertyOp27
 70
     1
102
RTVSPropertyOp28
 70
     1
102
RTVSPropertyOp29
 70
     1
102
RTVSPropertyOp30
 70
     1
102
RTVSPropertyOp31
 70
     1
102
RTVSPropertyOp32
 70
     1
102
RTVSPropertyOp33
 70
     1
102
RTVSPropertyOp34
 70
     1
102
RTVSPropertyOp35
 70
     1
102
RTVSPropertyOp36
 70
     1
102
RTVSPropertyOp37
 70
     1
102
RTVSPropertyOp38
 70
     1
102
RTVSPropertyOp39
 70
     1
102
RTVSPropertyOp40
 70
     1
102
RTVSPropertyOp41
 70
     1
102
RTVSPropertyOp42
 70
     1
102
RTVSPropertyOp43
 70
     1
102
RTVSPropertyOp44
 70
     1
102
RTVSPropertyOp45
 70
     1
102
RTVSPropertyOp46
 70
     1
102
RTVSPropertyOp47
 70
     1
102
RTVSPropertyOp48
 70
     1
102
RTVSPropertyOp49
 70
     1
102
RTVSPropertyOp50
 70
     1
102
RTVSPropertyOp51
 70
     0
102
RTVSPropertyOp52
 70
     0
102
RTVSPropertyOp53
 70
     1
102
RTVSPropertyOp54
 70
     1
102
RTVSPropertyOp55
 70
     1
102
RTVSPropertyOp56
 70
     1
102
RTVSPropertyOp57
 70
     1
102
RTVSPropertyOp58
 70
     1
102
RTVSPropertyOp59
 70
     1
102
RTVSPropertyOp60
 70
     1
102
RTVSPropertyOp61
 70
     1
102
RTVSPropertyOp62
 70
     1
  0
XRECORD
  5
15BA
102
{ACAD_REACTORS
330
15B9
102
}
330
15B9
100
AcDbXrecord
280
     1
102
RTVSPost2010Prop28
280
     0
102
RTVSPost2010PropOp28
 70
     1
102
RTVSPost2010Prop29
280
     1
102
RTVSPost2010PropOp29
 70
     1
102
RTVSPost2010Prop30
280
     1
102
RTVSPost2010PropOp30
 70
     1
102
RTVSPost2010Prop31
280
     0
102
RTVSPost2010PropOp31
 70
     1
102
RTVSPost2010Prop32
280
     0
102
RTVSPost2010PropOp32
 70
     1
102
RTVSPost2010Prop33
280
     0
102
RTVSPost2010PropOp33
 70
     1
102
RTVSPost2010Prop34
280
     0
102
RTVSPost2010PropOp34
 70
     1
102
RTVSPost2010Prop35
280
     0
102
RTVSPost2010PropOp35
 70
     1
102
RTVSPost2010Prop36
280
     0
102
RTVSPost2010PropOp36
 70
     1
102
RTVSPost2010Prop37
 90
       50
102
RTVSPost2010PropOp37
 70
     1
102
RTVSPost2010Prop38
140
0.0
102
RTVSPost2010PropOp38
 70
     1
102
RTVSPost2010Prop39
140
1.0
102
RTVSPost2010PropOp39
 70
     1
102
RTVSPost2010Prop40
 90
        0
102
RTVSPost2010PropOp40
 70
     1
102
RTVSPost2010Prop41ColorIndex
 90
       18
102
RTVSPost2010Prop41ColorRGB
 90
-16777216
102
RTVSPost2010PropOp41
 70
     1
102
RTVSPost2010Prop42
 90
       50
102
RTVSPost2010PropOp42
 70
     1
102
RTVSPost2010Prop43
 90
        3
102
RTVSPost2010PropOp43
 70
     1
102
RTVSPost2010Prop44ColorIndex
 90
        5
102
RTVSPost2010Prop44ColorRGB
 90
      255
102
RTVSPost2010PropOp44
 70
     1
102
RTVSPost2010Prop45
280
     0
102
RTVSPost2010PropOp45
 70
     1
102
RTVSPost2010Prop46
 90
       50
102
RTVSPost2010PropOp46
 70
     1
102
RTVSPost2010Prop47
 90
       50
102
RTVSPost2010PropOp47
 70
     1
102
RTVSPost2010Prop48
 90
       50
102
RTVSPost2010PropOp48
 70
     1
102
RTVSPost2010Prop49
280
     0
102
RTVSPost2010PropOp49
 70
     1
102
RTVSPost2010Prop50
 90
       50
102
RTVSPost2010PropOp50
 70
     1
102
RTVSPost2010Prop51ColorIndex
 90
      256
102
RTVSPost2010Prop51ColorRGB
 90
-16777216
102
RTVSPost2010PropOp51
 70
     0
102
RTVSPost2010Prop52
140
1.0
102
RTVSPost2010PropOp52
 70
     0
102
RTVSPost2010Prop53
 90
        2
102
RTVSPost2010PropOp53
 70
     1
102
RTVSPost2010Prop54
  1
strokes_ogs.tif
102
RTVSPost2010PropOp54
 70
     1
102
RTVSPost2010Prop55
280
     0
102
RTVSPost2010PropOp55
 70
     1
102
RTVSPost2010Prop56
140
1.0
102
RTVSPost2010PropOp56
 70
     1
102
RTVSPost2010Prop57
140
1.0
102
RTVSPost2010PropOp57
 70
     1
102
RTVSPropertyOp0
 70
     1
102
RTVSPropertyOp1
 70
     1
102
RTVSPropertyOp2
 70
     1
102
RTVSPropertyOp3
 70
     1
102
RTVSPropertyOp4
 70
     1
102
RTVSPropertyOp5
 70
     1
102
RTVSPropertyOp6
 70
     1
102
RTVSPropertyOp7
 70
     1
102
RTVSPropertyOp8
 70
     1
102
RTVSPropertyOp9
 70
     1
102
RTVSPropertyOp10
 70
     1
102
RTVSPropertyOp11
 70
     1
102
RTVSPropertyOp12
 70
     1
102
RTVSPropertyOp13
 70
     1
102
RTVSPropertyOp14
 70
     1
102
RTVSPropertyOp15
 70
     1
102
RTVSPropertyOp16
 70
     1
102
RTVSPropertyOp17
 70
     1
102
RTVSPropertyOp18
 70
     1
102
RTVSPropertyOp19
 70
     1
102
RTVSPropertyOp20
 70
     1
102
RTVSPropertyOp21
 70
     1
102
RTVSPropertyOp22
 70
     1
102
RTVSPropertyOp23
 70
     1
102
RTVSPropertyOp24
 70
     1
102
RTVSPropertyOp25
 70
     1
102
RTVSPropertyOp26
 70
     1
102
RTVSPropertyOp27
 70
     1
102
RTVSPropertyOp28
 70
     1
102
RTVSPropertyOp29
 70
     1
102
RTVSPropertyOp30
 70
     1
102
RTVSPropertyOp31
 70
     1
102
RTVSPropertyOp32
 70
     1
102
RTVSPropertyOp33
 70
     1
102
RTVSPropertyOp34
 70
     1
102
RTVSPropertyOp35
 70
     1
102
RTVSPropertyOp36
 70
     1
102
RTVSPropertyOp37
 70
     1
102
RTVSPropertyOp38
 70
     1
102
RTVSPropertyOp39
 70
     1
102
RTVSPropertyOp40
 70
     1
102
RTVSPropertyOp41
 70
     1
102
RTVSPropertyOp42
 70
     1
102
RTVSPropertyOp43
 70
     1
102
RTVSPropertyOp44
 70
     1
102
RTVSPropertyOp45
 70
     1
102
RTVSPropertyOp46
 70
     1
102
RTVSPropertyOp47
 70
     1
102
RTVSPropertyOp48
 70
     1
102
RTVSPropertyOp49
 70
     1
102
RTVSPropertyOp50
 70
     1
102
RTVSPropertyOp51
 70
     0
102
RTVSPropertyOp52
 70
     0
102
RTVSPropertyOp53
 70
     1
102
RTVSPropertyOp54
 70
     1
102
RTVSPropertyOp55
 70
     1
102
RTVSPropertyOp56
 70
     1
102
RTVSPropertyOp57
 70
     1
102
RTVSPropertyOp58
 70
     1
102
RTVSPropertyOp59
 70
     1
102
RTVSPropertyOp60
 70
     1
102
RTVSPropertyOp61
 70
     1
102
RTVSPropertyOp62
 70
     1
  0
XRECORD
  5
15BC
102
{ACAD_REACTORS
330
15BB
102
}
330
15BB
100
AcDbXrecord
280
     1
102
RTVSPost2010Prop28
280
     0
102
RTVSPost2010PropOp28
 70
     1
102
RTVSPost2010Prop29
280
     1
102
RTVSPost2010PropOp29
 70
     1
102
RTVSPost2010Prop30
280
     1
102
RTVSPost2010PropOp30
 70
     1
102
RTVSPost2010Prop31
280
     0
102
RTVSPost2010PropOp31
 70
     1
102
RTVSPost2010Prop32
280
     0
102
RTVSPost2010PropOp32
 70
     1
102
RTVSPost2010Prop33
280
     0
102
RTVSPost2010PropOp33
 70
     1
102
RTVSPost2010Prop34
280
     0
102
RTVSPost2010PropOp34
 70
     1
102
RTVSPost2010Prop35
280
     0
102
RTVSPost2010PropOp35
 70
     1
102
RTVSPost2010Prop36
280
     0
102
RTVSPost2010PropOp36
 70
     1
102
RTVSPost2010Prop37
 90
       50
102
RTVSPost2010PropOp37
 70
     1
102
RTVSPost2010Prop38
140
0.0
102
RTVSPost2010PropOp38
 70
     1
102
RTVSPost2010Prop39
140
1.0
102
RTVSPost2010PropOp39
 70
     1
102
RTVSPost2010Prop40
 90
        0
102
RTVSPost2010PropOp40
 70
     1
102
RTVSPost2010Prop41ColorIndex
 90
       18
102
RTVSPost2010Prop41ColorRGB
 90
-16777216
102
RTVSPost2010PropOp41
 70
     1
102
RTVSPost2010Prop42
 90
       50
102
RTVSPost2010PropOp42
 70
     1
102
RTVSPost2010Prop43
 90
        3
102
RTVSPost2010PropOp43
 70
     1
102
RTVSPost2010Prop44ColorIndex
 90
        5
102
RTVSPost2010Prop44ColorRGB
 90
      255
102
RTVSPost2010PropOp44
 70
     1
102
RTVSPost2010Prop45
280
     0
102
RTVSPost2010PropOp45
 70
     1
102
RTVSPost2010Prop46
 90
       50
102
RTVSPost2010PropOp46
 70
     1
102
RTVSPost2010Prop47
 90
       50
102
RTVSPost2010PropOp47
 70
     1
102
RTVSPost2010Prop48
 90
       50
102
RTVSPost2010PropOp48
 70
     1
102
RTVSPost2010Prop49
280
     0
102
RTVSPost2010PropOp49
 70
     1
102
RTVSPost2010Prop50
 90
       50
102
RTVSPost2010PropOp50
 70
     1
102
RTVSPost2010Prop51ColorIndex
 90
      256
102
RTVSPost2010Prop51ColorRGB
 90
-16777216
102
RTVSPost2010PropOp51
 70
     0
102
RTVSPost2010Prop52
140
1.0
102
RTVSPost2010PropOp52
 70
     0
102
RTVSPost2010Prop53
 90
        2
102
RTVSPost2010PropOp53
 70
     1
102
RTVSPost2010Prop54
  1
strokes_ogs.tif
102
RTVSPost2010PropOp54
 70
     1
102
RTVSPost2010Prop55
280
     0
102
RTVSPost2010PropOp55
 70
     1
102
RTVSPost2010Prop56
140
1.0
102
RTVSPost2010PropOp56
 70
     1
102
RTVSPost2010Prop57
140
1.0
102
RTVSPost2010PropOp57
 70
     1
102
RTVSPropertyOp0
 70
     1
102
RTVSPropertyOp1
 70
     1
102
RTVSPropertyOp2
 70
     1
102
RTVSPropertyOp3
 70
     1
102
RTVSPropertyOp4
 70
     1
102
RTVSPropertyOp5
 70
     1
102
RTVSPropertyOp6
 70
     1
102
RTVSPropertyOp7
 70
     1
102
RTVSPropertyOp8
 70
     1
102
RTVSPropertyOp9
 70
     1
102
RTVSPropertyOp10
 70
     1
102
RTVSPropertyOp11
 70
     1
102
RTVSPropertyOp12
 70
     1
102
RTVSPropertyOp13
 70
     1
102
RTVSPropertyOp14
 70
     1
102
RTVSPropertyOp15
 70
     1
102
RTVSPropertyOp16
 70
     1
102
RTVSPropertyOp17
 70
     1
102
RTVSPropertyOp18
 70
     1
102
RTVSPropertyOp19
 70
     1
102
RTVSPropertyOp20
 70
     1
102
RTVSPropertyOp21
 70
     1
102
RTVSPropertyOp22
 70
     1
102
RTVSPropertyOp23
 70
     1
102
RTVSPropertyOp24
 70
     1
102
RTVSPropertyOp25
 70
     1
102
RTVSPropertyOp26
 70
     1
102
RTVSPropertyOp27
 70
     1
102
RTVSPropertyOp28
 70
     1
102
RTVSPropertyOp29
 70
     1
102
RTVSPropertyOp30
 70
     1
102
RTVSPropertyOp31
 70
     1
102
RTVSPropertyOp32
 70
     1
102
RTVSPropertyOp33
 70
     1
102
RTVSPropertyOp34
 70
     1
102
RTVSPropertyOp35
 70
     1
102
RTVSPropertyOp36
 70
     1
102
RTVSPropertyOp37
 70
     1
102
RTVSPropertyOp38
 70
     1
102
RTVSPropertyOp39
 70
     1
102
RTVSPropertyOp40
 70
     1
102
RTVSPropertyOp41
 70
     1
102
RTVSPropertyOp42
 70
     1
102
RTVSPropertyOp43
 70
     1
102
RTVSPropertyOp44
 70
     1
102
RTVSPropertyOp45
 70
     1
102
RTVSPropertyOp46
 70
     1
102
RTVSPropertyOp47
 70
     1
102
RTVSPropertyOp48
 70
     1
102
RTVSPropertyOp49
 70
     1
102
RTVSPropertyOp50
 70
     1
102
RTVSPropertyOp51
 70
     0
102
RTVSPropertyOp52
 70
     0
102
RTVSPropertyOp53
 70
     1
102
RTVSPropertyOp54
 70
     1
102
RTVSPropertyOp55
 70
     1
102
RTVSPropertyOp56
 70
     1
102
RTVSPropertyOp57
 70
     1
102
RTVSPropertyOp58
 70
     1
102
RTVSPropertyOp59
 70
     1
102
RTVSPropertyOp60
 70
     1
102
RTVSPropertyOp61
 70
     1
102
RTVSPropertyOp62
 70
     1
  0
XRECORD
  5
15C0
102
{ACAD_REACTORS
330
15BF
102
}
330
15BF
100
AcDbXrecord
280
     1
102
RTVSPost2010Prop28
280
     0
102
RTVSPost2010PropOp28
 70
     1
102
RTVSPost2010Prop29
280
     1
102
RTVSPost2010PropOp29
 70
     1
102
RTVSPost2010Prop30
280
     1
102
RTVSPost2010PropOp30
 70
     1
102
RTVSPost2010Prop31
280
     0
102
RTVSPost2010PropOp31
 70
     1
102
RTVSPost2010Prop32
280
     0
102
RTVSPost2010PropOp32
 70
     1
102
RTVSPost2010Prop33
280
     0
102
RTVSPost2010PropOp33
 70
     1
102
RTVSPost2010Prop34
280
     0
102
RTVSPost2010PropOp34
 70
     1
102
RTVSPost2010Prop35
280
     0
102
RTVSPost2010PropOp35
 70
     1
102
RTVSPost2010Prop36
280
     0
102
RTVSPost2010PropOp36
 70
     1
102
RTVSPost2010Prop37
 90
       50
102
RTVSPost2010PropOp37
 70
     1
102
RTVSPost2010Prop38
140
0.0
102
RTVSPost2010PropOp38
 70
     1
102
RTVSPost2010Prop39
140
1.0
102
RTVSPost2010PropOp39
 70
     1
102
RTVSPost2010Prop40
 90
        0
102
RTVSPost2010PropOp40
 70
     1
102
RTVSPost2010Prop41ColorIndex
 90
       18
102
RTVSPost2010Prop41ColorRGB
 90
-16777216
102
RTVSPost2010PropOp41
 70
     1
102
RTVSPost2010Prop42
 90
       50
102
RTVSPost2010PropOp42
 70
     1
102
RTVSPost2010Prop43
 90
        3
102
RTVSPost2010PropOp43
 70
     1
102
RTVSPost2010Prop44ColorIndex
 90
        5
102
RTVSPost2010Prop44ColorRGB
 90
      255
102
RTVSPost2010PropOp44
 70
     1
102
RTVSPost2010Prop45
280
     0
102
RTVSPost2010PropOp45
 70
     1
102
RTVSPost2010Prop46
 90
       50
102
RTVSPost2010PropOp46
 70
     1
102
RTVSPost2010Prop47
 90
       50
102
RTVSPost2010PropOp47
 70
     1
102
RTVSPost2010Prop48
 90
       50
102
RTVSPost2010PropOp48
 70
     1
102
RTVSPost2010Prop49
280
     0
102
RTVSPost2010PropOp49
 70
     1
102
RTVSPost2010Prop50
 90
       50
102
RTVSPost2010PropOp50
 70
     1
102
RTVSPost2010Prop51ColorIndex
 90
      256
102
RTVSPost2010Prop51ColorRGB
 90
-16777216
102
RTVSPost2010PropOp51
 70
     0
102
RTVSPost2010Prop52
140
1.0
102
RTVSPost2010PropOp52
 70
     0
102
RTVSPost2010Prop53
 90
        2
102
RTVSPost2010PropOp53
 70
     1
102
RTVSPost2010Prop54
  1
strokes_ogs.tif
102
RTVSPost2010PropOp54
 70
     1
102
RTVSPost2010Prop55
280
     0
102
RTVSPost2010PropOp55
 70
     1
102
RTVSPost2010Prop56
140
1.0
102
RTVSPost2010PropOp56
 70
     1
102
RTVSPost2010Prop57
140
1.0
102
RTVSPost2010PropOp57
 70
     1
102
RTVSPropertyOp0
 70
     1
102
RTVSPropertyOp1
 70
     1
102
RTVSPropertyOp2
 70
     1
102
RTVSPropertyOp3
 70
     1
102
RTVSPropertyOp4
 70
     1
102
RTVSPropertyOp5
 70
     1
102
RTVSPropertyOp6
 70
     1
102
RTVSPropertyOp7
 70
     1
102
RTVSPropertyOp8
 70
     1
102
RTVSPropertyOp9
 70
     1
102
RTVSPropertyOp10
 70
     1
102
RTVSPropertyOp11
 70
     1
102
RTVSPropertyOp12
 70
     1
102
RTVSPropertyOp13
 70
     1
102
RTVSPropertyOp14
 70
     1
102
RTVSPropertyOp15
 70
     1
102
RTVSPropertyOp16
 70
     1
102
RTVSPropertyOp17
 70
     1
102
RTVSPropertyOp18
 70
     1
102
RTVSPropertyOp19
 70
     1
102
RTVSPropertyOp20
 70
     1
102
RTVSPropertyOp21
 70
     1
102
RTVSPropertyOp22
 70
     1
102
RTVSPropertyOp23
 70
     1
102
RTVSPropertyOp24
 70
     1
102
RTVSPropertyOp25
 70
     1
102
RTVSPropertyOp26
 70
     1
102
RTVSPropertyOp27
 70
     1
102
RTVSPropertyOp28
 70
     1
102
RTVSPropertyOp29
 70
     1
102
RTVSPropertyOp30
 70
     1
102
RTVSPropertyOp31
 70
     1
102
RTVSPropertyOp32
 70
     1
102
RTVSPropertyOp33
 70
     1
102
RTVSPropertyOp34
 70
     1
102
RTVSPropertyOp35
 70
     1
102
RTVSPropertyOp36
 70
     1
102
RTVSPropertyOp37
 70
     1
102
RTVSPropertyOp38
 70
     1
102
RTVSPropertyOp39
 70
     1
102
RTVSPropertyOp40
 70
     1
102
RTVSPropertyOp41
 70
     1
102
RTVSPropertyOp42
 70
     1
102
RTVSPropertyOp43
 70
     1
102
RTVSPropertyOp44
 70
     1
102
RTVSPropertyOp45
 70
     1
102
RTVSPropertyOp46
 70
     1
102
RTVSPropertyOp47
 70
     1
102
RTVSPropertyOp48
 70
     1
102
RTVSPropertyOp49
 70
     1
102
RTVSPropertyOp50
 70
     1
102
RTVSPropertyOp51
 70
     0
102
RTVSPropertyOp52
 70
     0
102
RTVSPropertyOp53
 70
     1
102
RTVSPropertyOp54
 70
     1
102
RTVSPropertyOp55
 70
     1
102
RTVSPropertyOp56
 70
     1
102
RTVSPropertyOp57
 70
     1
102
RTVSPropertyOp58
 70
     1
102
RTVSPropertyOp59
 70
     1
102
RTVSPropertyOp60
 70
     1
102
RTVSPropertyOp61
 70
     1
102
RTVSPropertyOp62
 70
     1
  0
XRECORD
  5
15DA
102
{ACAD_REACTORS
330
15D9
102
}
330
15D9
100
AcDbXrecord
280
     1
102
RTVSPost2010Prop28
280
     0
102
RTVSPost2010PropOp28
 70
     1
102
RTVSPost2010Prop29
280
     1
102
RTVSPost2010PropOp29
 70
     1
102
RTVSPost2010Prop30
280
     1
102
RTVSPost2010PropOp30
 70
     1
102
RTVSPost2010Prop31
280
     0
102
RTVSPost2010PropOp31
 70
     1
102
RTVSPost2010Prop32
280
     0
102
RTVSPost2010PropOp32
 70
     1
102
RTVSPost2010Prop33
280
     0
102
RTVSPost2010PropOp33
 70
     1
102
RTVSPost2010Prop34
280
     0
102
RTVSPost2010PropOp34
 70
     1
102
RTVSPost2010Prop35
280
     0
102
RTVSPost2010PropOp35
 70
     1
102
RTVSPost2010Prop36
280
     0
102
RTVSPost2010PropOp36
 70
     1
102
RTVSPost2010Prop37
 90
       50
102
RTVSPost2010PropOp37
 70
     0
102
RTVSPost2010Prop38
140
0.0
102
RTVSPost2010PropOp38
 70
     0
102
RTVSPost2010Prop39
140
1.0
102
RTVSPost2010PropOp39
 70
     0
102
RTVSPost2010Prop40
 90
        0
102
RTVSPost2010PropOp40
 70
     0
102
RTVSPost2010Prop41ColorIndex
 90
       18
102
RTVSPost2010Prop41ColorRGB
 90
-16777216
102
RTVSPost2010PropOp41
 70
     0
102
RTVSPost2010Prop42
 90
       50
102
RTVSPost2010PropOp42
 70
     0
102
RTVSPost2010Prop43
 90
        3
102
RTVSPost2010PropOp43
 70
     0
102
RTVSPost2010Prop44ColorIndex
 90
        5
102
RTVSPost2010Prop44ColorRGB
 90
      255
102
RTVSPost2010PropOp44
 70
     0
102
RTVSPost2010Prop45
280
     0
102
RTVSPost2010PropOp45
 70
     1
102
RTVSPost2010Prop46
 90
       50
102
RTVSPost2010PropOp46
 70
     0
102
RTVSPost2010Prop47
 90
       50
102
RTVSPost2010PropOp47
 70
     0
102
RTVSPost2010Prop48
 90
       50
102
RTVSPost2010PropOp48
 70
     0
102
RTVSPost2010Prop49
280
     0
102
RTVSPost2010PropOp49
 70
     1
102
RTVSPost2010Prop50
 90
       50
102
RTVSPost2010PropOp50
 70
     0
102
RTVSPost2010Prop51ColorIndex
 90
      256
102
RTVSPost2010Prop51ColorRGB
 90
-16777216
102
RTVSPost2010PropOp51
 70
     0
102
RTVSPost2010Prop52
140
1.0
102
RTVSPost2010PropOp52
 70
     0
102
RTVSPost2010Prop53
 90
        2
102
RTVSPost2010PropOp53
 70
     0
102
RTVSPost2010Prop54
  1
strokes_ogs.tif
102
RTVSPost2010PropOp54
 70
     0
102
RTVSPost2010Prop55
280
     0
102
RTVSPost2010PropOp55
 70
     1
102
RTVSPost2010Prop56
140
1.0
102
RTVSPost2010PropOp56
 70
     0
102
RTVSPost2010Prop57
140
1.0
102
RTVSPost2010PropOp57
 70
     0
102
RTVSPropertyOp0
 70
     0
102
RTVSPropertyOp1
 70
     0
102
RTVSPropertyOp2
 70
     0
102
RTVSPropertyOp3
 70
     0
102
RTVSPropertyOp4
 70
     0
102
RTVSPropertyOp5
 70
     0
102
RTVSPropertyOp6
 70
     0
102
RTVSPropertyOp7
 70
     0
102
RTVSPropertyOp8
 70
     0
102
RTVSPropertyOp9
 70
     0
102
RTVSPropertyOp10
 70
     0
102
RTVSPropertyOp11
 70
     0
102
RTVSPropertyOp12
 70
     0
102
RTVSPropertyOp13
 70
     0
102
RTVSPropertyOp14
 70
     2
102
RTVSPropertyOp15
 70
     0
102
RTVSPropertyOp16
 70
     0
102
RTVSPropertyOp17
 70
     0
102
RTVSPropertyOp18
 70
     0
102
RTVSPropertyOp19
 70
     0
102
RTVSPropertyOp20
 70
     0
102
RTVSPropertyOp21
 70
     0
102
RTVSPropertyOp22
 70
     0
102
RTVSPropertyOp23
 70
     0
102
RTVSPropertyOp24
 70
     0
102
RTVSPropertyOp25
 70
     0
102
RTVSPropertyOp26
 70
     0
102
RTVSPropertyOp27
 70
     0
102
RTVSPropertyOp28
 70
     1
102
RTVSPropertyOp29
 70
     1
102
RTVSPropertyOp30
 70
     1
102
RTVSPropertyOp31
 70
     1
102
RTVSPropertyOp32
 70
     1
102
RTVSPropertyOp33
 70
     1
102
RTVSPropertyOp34
 70
     1
102
RTVSPropertyOp35
 70
     1
102
RTVSPropertyOp36
 70
     1
102
RTVSPropertyOp37
 70
     0
102
RTVSPropertyOp38
 70
     0
102
RTVSPropertyOp39
 70
     0
102
RTVSPropertyOp40
 70
     0
102
RTVSPropertyOp41
 70
     0
102
RTVSPropertyOp42
 70
     0
102
RTVSPropertyOp43
 70
     0
102
RTVSPropertyOp44
 70
     0
102
RTVSPropertyOp45
 70
     1
102
RTVSPropertyOp46
 70
     0
102
RTVSPropertyOp47
 70
     0
102
RTVSPropertyOp48
 70
     0
102
RTVSPropertyOp49
 70
     1
102
RTVSPropertyOp50
 70
     0
102
RTVSPropertyOp51
 70
     0
102
RTVSPropertyOp52
 70
     0
102
RTVSPropertyOp53
 70
     0
102
RTVSPropertyOp54
 70
     0
102
RTVSPropertyOp55
 70
     1
102
RTVSPropertyOp56
 70
     0
102
RTVSPropertyOp57
 70
     0
102
RTVSPropertyOp58
 70
     1
102
RTVSPropertyOp59
 70
     1
102
RTVSPropertyOp60
 70
     1
102
RTVSPropertyOp61
 70
     1
102
RTVSPropertyOp62
 70
     1
  0
XRECORD
  5
15CA
102
{ACAD_REACTORS
330
15C9
102
}
330
15C9
100
AcDbXrecord
280
     1
102
RTVSPost2010Prop28
280
     0
102
RTVSPost2010PropOp28
 70
     1
102
RTVSPost2010Prop29
280
     1
102
RTVSPost2010PropOp29
 70
     1
102
RTVSPost2010Prop30
280
     1
102
RTVSPost2010PropOp30
 70
     1
102
RTVSPost2010Prop31
280
     0
102
RTVSPost2010PropOp31
 70
     1
102
RTVSPost2010Prop32
280
     0
102
RTVSPost2010PropOp32
 70
     1
102
RTVSPost2010Prop33
280
     0
102
RTVSPost2010PropOp33
 70
     1
102
RTVSPost2010Prop34
280
     0
102
RTVSPost2010PropOp34
 70
     1
102
RTVSPost2010Prop35
280
     0
102
RTVSPost2010PropOp35
 70
     1
102
RTVSPost2010Prop36
280
     0
102
RTVSPost2010PropOp36
 70
     1
102
RTVSPost2010Prop37
 90
       50
102
RTVSPost2010PropOp37
 70
     1
102
RTVSPost2010Prop38
140
0.0
102
RTVSPost2010PropOp38
 70
     1
102
RTVSPost2010Prop39
140
1.0
102
RTVSPost2010PropOp39
 70
     1
102
RTVSPost2010Prop40
 90
        0
102
RTVSPost2010PropOp40
 70
     1
102
RTVSPost2010Prop41ColorIndex
 90
       18
102
RTVSPost2010Prop41ColorRGB
 90
-16777216
102
RTVSPost2010PropOp41
 70
     1
102
RTVSPost2010Prop42
 90
       50
102
RTVSPost2010PropOp42
 70
     1
102
RTVSPost2010Prop43
 90
        3
102
RTVSPost2010PropOp43
 70
     1
102
RTVSPost2010Prop44ColorIndex
 90
        5
102
RTVSPost2010Prop44ColorRGB
 90
      255
102
RTVSPost2010PropOp44
 70
     1
102
RTVSPost2010Prop45
280
     0
102
RTVSPost2010PropOp45
 70
     1
102
RTVSPost2010Prop46
 90
       50
102
RTVSPost2010PropOp46
 70
     1
102
RTVSPost2010Prop47
 90
       50
102
RTVSPost2010PropOp47
 70
     1
102
RTVSPost2010Prop48
 90
       50
102
RTVSPost2010PropOp48
 70
     1
102
RTVSPost2010Prop49
280
     0
102
RTVSPost2010PropOp49
 70
     1
102
RTVSPost2010Prop50
 90
       50
102
RTVSPost2010PropOp50
 70
     1
102
RTVSPost2010Prop51ColorIndex
 90
      256
102
RTVSPost2010Prop51ColorRGB
 90
-16777216
102
RTVSPost2010PropOp51
 70
     0
102
RTVSPost2010Prop52
140
1.0
102
RTVSPost2010PropOp52
 70
     0
102
RTVSPost2010Prop53
 90
        2
102
RTVSPost2010PropOp53
 70
     1
102
RTVSPost2010Prop54
  1
strokes_ogs.tif
102
RTVSPost2010PropOp54
 70
     1
102
RTVSPost2010Prop55
280
     0
102
RTVSPost2010PropOp55
 70
     1
102
RTVSPost2010Prop56
140
1.0
102
RTVSPost2010PropOp56
 70
     1
102
RTVSPost2010Prop57
140
1.0
102
RTVSPost2010PropOp57
 70
     1
102
RTVSPropertyOp0
 70
     1
102
RTVSPropertyOp1
 70
     1
102
RTVSPropertyOp2
 70
     1
102
RTVSPropertyOp3
 70
     1
102
RTVSPropertyOp4
 70
     1
102
RTVSPropertyOp5
 70
     1
102
RTVSPropertyOp6
 70
     1
102
RTVSPropertyOp7
 70
     1
102
RTVSPropertyOp8
 70
     1
102
RTVSPropertyOp9
 70
     1
102
RTVSPropertyOp10
 70
     1
102
RTVSPropertyOp11
 70
     1
102
RTVSPropertyOp12
 70
     1
102
RTVSPropertyOp13
 70
     1
102
RTVSPropertyOp14
 70
     1
102
RTVSPropertyOp15
 70
     1
102
RTVSPropertyOp16
 70
     1
102
RTVSPropertyOp17
 70
     1
102
RTVSPropertyOp18
 70
     1
102
RTVSPropertyOp19
 70
     1
102
RTVSPropertyOp20
 70
     1
102
RTVSPropertyOp21
 70
     1
102
RTVSPropertyOp22
 70
     1
102
RTVSPropertyOp23
 70
     1
102
RTVSPropertyOp24
 70
     1
102
RTVSPropertyOp25
 70
     1
102
RTVSPropertyOp26
 70
     1
102
RTVSPropertyOp27
 70
     1
102
RTVSPropertyOp28
 70
     1
102
RTVSPropertyOp29
 70
     1
102
RTVSPropertyOp30
 70
     1
102
RTVSPropertyOp31
 70
     1
102
RTVSPropertyOp32
 70
     1
102
RTVSPropertyOp33
 70
     1
102
RTVSPropertyOp34
 70
     1
102
RTVSPropertyOp35
 70
     1
102
RTVSPropertyOp36
 70
     1
102
RTVSPropertyOp37
 70
     1
102
RTVSPropertyOp38
 70
     1
102
RTVSPropertyOp39
 70
     1
102
RTVSPropertyOp40
 70
     1
102
RTVSPropertyOp41
 70
     1
102
RTVSPropertyOp42
 70
     1
102
RTVSPropertyOp43
 70
     1
102
RTVSPropertyOp44
 70
     1
102
RTVSPropertyOp45
 70
     1
102
RTVSPropertyOp46
 70
     1
102
RTVSPropertyOp47
 70
     1
102
RTVSPropertyOp48
 70
     1
102
RTVSPropertyOp49
 70
     1
102
RTVSPropertyOp50
 70
     1
102
RTVSPropertyOp51
 70
     0
102
RTVSPropertyOp52
 70
     0
102
RTVSPropertyOp53
 70
     1
102
RTVSPropertyOp54
 70
     1
102
RTVSPropertyOp55
 70
     1
102
RTVSPropertyOp56
 70
     1
102
RTVSPropertyOp57
 70
     1
102
RTVSPropertyOp58
 70
     1
102
RTVSPropertyOp59
 70
     1
102
RTVSPropertyOp60
 70
     1
102
RTVSPropertyOp61
 70
     1
102
RTVSPropertyOp62
 70
     1
  0
XRECORD
  5
15DC
102
{ACAD_REACTORS
330
15DB
102
}
330
15DB
100
AcDbXrecord
280
     1
102
RTVSPost2010Prop28
280
     0
102
RTVSPost2010PropOp28
 70
     1
102
RTVSPost2010Prop29
280
     1
102
RTVSPost2010PropOp29
 70
     1
102
RTVSPost2010Prop30
280
     1
102
RTVSPost2010PropOp30
 70
     1
102
RTVSPost2010Prop31
280
     0
102
RTVSPost2010PropOp31
 70
     1
102
RTVSPost2010Prop32
280
     0
102
RTVSPost2010PropOp32
 70
     1
102
RTVSPost2010Prop33
280
     0
102
RTVSPost2010PropOp33
 70
     1
102
RTVSPost2010Prop34
280
     0
102
RTVSPost2010PropOp34
 70
     1
102
RTVSPost2010Prop35
280
     0
102
RTVSPost2010PropOp35
 70
     1
102
RTVSPost2010Prop36
280
     0
102
RTVSPost2010PropOp36
 70
     1
102
RTVSPost2010Prop37
 90
       50
102
RTVSPost2010PropOp37
 70
     0
102
RTVSPost2010Prop38
140
0.0
102
RTVSPost2010PropOp38
 70
     0
102
RTVSPost2010Prop39
140
1.0
102
RTVSPost2010PropOp39
 70
     0
102
RTVSPost2010Prop40
 90
        0
102
RTVSPost2010PropOp40
 70
     0
102
RTVSPost2010Prop41ColorIndex
 90
       18
102
RTVSPost2010Prop41ColorRGB
 90
-16777216
102
RTVSPost2010PropOp41
 70
     0
102
RTVSPost2010Prop42
 90
       50
102
RTVSPost2010PropOp42
 70
     0
102
RTVSPost2010Prop43
 90
        3
102
RTVSPost2010PropOp43
 70
     0
102
RTVSPost2010Prop44ColorIndex
 90
        5
102
RTVSPost2010Prop44ColorRGB
 90
      255
102
RTVSPost2010PropOp44
 70
     0
102
RTVSPost2010Prop45
280
     0
102
RTVSPost2010PropOp45
 70
     1
102
RTVSPost2010Prop46
 90
       50
102
RTVSPost2010PropOp46
 70
     0
102
RTVSPost2010Prop47
 90
       50
102
RTVSPost2010PropOp47
 70
     0
102
RTVSPost2010Prop48
 90
       50
102
RTVSPost2010PropOp48
 70
     0
102
RTVSPost2010Prop49
280
     0
102
RTVSPost2010PropOp49
 70
     1
102
RTVSPost2010Prop50
 90
       50
102
RTVSPost2010PropOp50
 70
     0
102
RTVSPost2010Prop51ColorIndex
 90
      256
102
RTVSPost2010Prop51ColorRGB
 90
-16777216
102
RTVSPost2010PropOp51
 70
     0
102
RTVSPost2010Prop52
140
1.0
102
RTVSPost2010PropOp52
 70
     0
102
RTVSPost2010Prop53
 90
        2
102
RTVSPost2010PropOp53
 70
     0
102
RTVSPost2010Prop54
  1
strokes_ogs.tif
102
RTVSPost2010PropOp54
 70
     0
102
RTVSPost2010Prop55
280
     0
102
RTVSPost2010PropOp55
 70
     1
102
RTVSPost2010Prop56
140
1.0
102
RTVSPost2010PropOp56
 70
     0
102
RTVSPost2010Prop57
140
1.0
102
RTVSPost2010PropOp57
 70
     0
102
RTVSPropertyOp0
 70
     0
102
RTVSPropertyOp1
 70
     0
102
RTVSPropertyOp2
 70
     0
102
RTVSPropertyOp3
 70
     0
102
RTVSPropertyOp4
 70
     0
102
RTVSPropertyOp5
 70
     0
102
RTVSPropertyOp6
 70
     0
102
RTVSPropertyOp7
 70
     0
102
RTVSPropertyOp8
 70
     0
102
RTVSPropertyOp9
 70
     0
102
RTVSPropertyOp10
 70
     0
102
RTVSPropertyOp11
 70
     0
102
RTVSPropertyOp12
 70
     0
102
RTVSPropertyOp13
 70
     0
102
RTVSPropertyOp14
 70
     2
102
RTVSPropertyOp15
 70
     0
102
RTVSPropertyOp16
 70
     0
102
RTVSPropertyOp17
 70
     0
102
RTVSPropertyOp18
 70
     0
102
RTVSPropertyOp19
 70
     0
102
RTVSPropertyOp20
 70
     0
102
RTVSPropertyOp21
 70
     0
102
RTVSPropertyOp22
 70
     0
102
RTVSPropertyOp23
 70
     0
102
RTVSPropertyOp24
 70
     0
102
RTVSPropertyOp25
 70
     0
102
RTVSPropertyOp26
 70
     0
102
RTVSPropertyOp27
 70
     0
102
RTVSPropertyOp28
 70
     1
102
RTVSPropertyOp29
 70
     1
102
RTVSPropertyOp30
 70
     1
102
RTVSPropertyOp31
 70
     1
102
RTVSPropertyOp32
 70
     1
102
RTVSPropertyOp33
 70
     1
102
RTVSPropertyOp34
 70
     1
102
RTVSPropertyOp35
 70
     1
102
RTVSPropertyOp36
 70
     1
102
RTVSPropertyOp37
 70
     0
102
RTVSPropertyOp38
 70
     0
102
RTVSPropertyOp39
 70
     0
102
RTVSPropertyOp40
 70
     0
102
RTVSPropertyOp41
 70
     0
102
RTVSPropertyOp42
 70
     0
102
RTVSPropertyOp43
 70
     0
102
RTVSPropertyOp44
 70
     0
102
RTVSPropertyOp45
 70
     1
102
RTVSPropertyOp46
 70
     0
102
RTVSPropertyOp47
 70
     0
102
RTVSPropertyOp48
 70
     0
102
RTVSPropertyOp49
 70
     1
102
RTVSPropertyOp50
 70
     0
102
RTVSPropertyOp51
 70
     0
102
RTVSPropertyOp52
 70
     0
102
RTVSPropertyOp53
 70
     0
102
RTVSPropertyOp54
 70
     0
102
RTVSPropertyOp55
 70
     1
102
RTVSPropertyOp56
 70
     0
102
RTVSPropertyOp57
 70
     0
102
RTVSPropertyOp58
 70
     1
102
RTVSPropertyOp59
 70
     1
102
RTVSPropertyOp60
 70
     1
102
RTVSPropertyOp61
 70
     1
102
RTVSPropertyOp62
 70
     1
  0
XRECORD
  5
15B2
102
{ACAD_REACTORS
330
15B1
102
}
330
15B1
100
AcDbXrecord
280
     1
102
RTVSPost2010Prop28
280
     0
102
RTVSPost2010PropOp28
 70
     1
102
RTVSPost2010Prop29
280
     1
102
RTVSPost2010PropOp29
 70
     1
102
RTVSPost2010Prop30
280
     1
102
RTVSPost2010PropOp30
 70
     1
102
RTVSPost2010Prop31
280
     0
102
RTVSPost2010PropOp31
 70
     1
102
RTVSPost2010Prop32
280
     0
102
RTVSPost2010PropOp32
 70
     1
102
RTVSPost2010Prop33
280
     0
102
RTVSPost2010PropOp33
 70
     1
102
RTVSPost2010Prop34
280
     0
102
RTVSPost2010PropOp34
 70
     1
102
RTVSPost2010Prop35
280
     0
102
RTVSPost2010PropOp35
 70
     1
102
RTVSPost2010Prop36
280
     0
102
RTVSPost2010PropOp36
 70
     1
102
RTVSPost2010Prop37
 90
       50
102
RTVSPost2010PropOp37
 70
     1
102
RTVSPost2010Prop38
140
0.0
102
RTVSPost2010PropOp38
 70
     1
102
RTVSPost2010Prop39
140
1.0
102
RTVSPost2010PropOp39
 70
     1
102
RTVSPost2010Prop40
 90
        0
102
RTVSPost2010PropOp40
 70
     1
102
RTVSPost2010Prop41ColorIndex
 90
       18
102
RTVSPost2010Prop41ColorRGB
 90
-16777216
102
RTVSPost2010PropOp41
 70
     1
102
RTVSPost2010Prop42
 90
       50
102
RTVSPost2010PropOp42
 70
     1
102
RTVSPost2010Prop43
 90
        3
102
RTVSPost2010PropOp43
 70
     1
102
RTVSPost2010Prop44ColorIndex
 90
        5
102
RTVSPost2010Prop44ColorRGB
 90
      255
102
RTVSPost2010PropOp44
 70
     1
102
RTVSPost2010Prop45
280
     0
102
RTVSPost2010PropOp45
 70
     1
102
RTVSPost2010Prop46
 90
       50
102
RTVSPost2010PropOp46
 70
     1
102
RTVSPost2010Prop47
 90
       50
102
RTVSPost2010PropOp47
 70
     1
102
RTVSPost2010Prop48
 90
       50
102
RTVSPost2010PropOp48
 70
     1
102
RTVSPost2010Prop49
280
     0
102
RTVSPost2010PropOp49
 70
     1
102
RTVSPost2010Prop50
 90
       50
102
RTVSPost2010PropOp50
 70
     1
102
RTVSPost2010Prop51ColorIndex
 90
      256
102
RTVSPost2010Prop51ColorRGB
 90
-16777216
102
RTVSPost2010PropOp51
 70
     0
102
RTVSPost2010Prop52
140
1.0
102
RTVSPost2010PropOp52
 70
     0
102
RTVSPost2010Prop53
 90
        2
102
RTVSPost2010PropOp53
 70
     1
102
RTVSPost2010Prop54
  1
strokes_ogs.tif
102
RTVSPost2010PropOp54
 70
     1
102
RTVSPost2010Prop55
280
     0
102
RTVSPost2010PropOp55
 70
     1
102
RTVSPost2010Prop56
140
1.0
102
RTVSPost2010PropOp56
 70
     1
102
RTVSPost2010Prop57
140
1.0
102
RTVSPost2010PropOp57
 70
     1
102
RTVSPropertyOp0
 70
     1
102
RTVSPropertyOp1
 70
     1
102
RTVSPropertyOp2
 70
     1
102
RTVSPropertyOp3
 70
     1
102
RTVSPropertyOp4
 70
     1
102
RTVSPropertyOp5
 70
     1
102
RTVSPropertyOp6
 70
     1
102
RTVSPropertyOp7
 70
     1
102
RTVSPropertyOp8
 70
     1
102
RTVSPropertyOp9
 70
     1
102
RTVSPropertyOp10
 70
     1
102
RTVSPropertyOp11
 70
     1
102
RTVSPropertyOp12
 70
     1
102
RTVSPropertyOp13
 70
     1
102
RTVSPropertyOp14
 70
     1
102
RTVSPropertyOp15
 70
     1
102
RTVSPropertyOp16
 70
     1
102
RTVSPropertyOp17
 70
     1
102
RTVSPropertyOp18
 70
     1
102
RTVSPropertyOp19
 70
     1
102
RTVSPropertyOp20
 70
     1
102
RTVSPropertyOp21
 70
     1
102
RTVSPropertyOp22
 70
     1
102
RTVSPropertyOp23
 70
     1
102
RTVSPropertyOp24
 70
     1
102
RTVSPropertyOp25
 70
     1
102
RTVSPropertyOp26
 70
     1
102
RTVSPropertyOp27
 70
     1
102
RTVSPropertyOp28
 70
     1
102
RTVSPropertyOp29
 70
     1
102
RTVSPropertyOp30
 70
     1
102
RTVSPropertyOp31
 70
     1
102
RTVSPropertyOp32
 70
     1
102
RTVSPropertyOp33
 70
     1
102
RTVSPropertyOp34
 70
     1
102
RTVSPropertyOp35
 70
     1
102
RTVSPropertyOp36
 70
     1
102
RTVSPropertyOp37
 70
     1
102
RTVSPropertyOp38
 70
     1
102
RTVSPropertyOp39
 70
     1
102
RTVSPropertyOp40
 70
     1
102
RTVSPropertyOp41
 70
     1
102
RTVSPropertyOp42
 70
     1
102
RTVSPropertyOp43
 70
     1
102
RTVSPropertyOp44
 70
     1
102
RTVSPropertyOp45
 70
     1
102
RTVSPropertyOp46
 70
     1
102
RTVSPropertyOp47
 70
     1
102
RTVSPropertyOp48
 70
     1
102
RTVSPropertyOp49
 70
     1
102
RTVSPropertyOp50
 70
     1
102
RTVSPropertyOp51
 70
     0
102
RTVSPropertyOp52
 70
     0
102
RTVSPropertyOp53
 70
     1
102
RTVSPropertyOp54
 70
     1
102
RTVSPropertyOp55
 70
     1
102
RTVSPropertyOp56
 70
     1
102
RTVSPropertyOp57
 70
     1
102
RTVSPropertyOp58
 70
     1
102
RTVSPropertyOp59
 70
     1
102
RTVSPropertyOp60
 70
     1
102
RTVSPropertyOp61
 70
     1
102
RTVSPropertyOp62
 70
     1
  0
XRECORD
  5
15D8
102
{ACAD_REACTORS
330
15D7
102
}
330
15D7
100
AcDbXrecord
280
     1
102
RTVSPost2010Prop28
280
     0
102
RTVSPost2010PropOp28
 70
     1
102
RTVSPost2010Prop29
280
     1
102
RTVSPost2010PropOp29
 70
     1
102
RTVSPost2010Prop30
280
     1
102
RTVSPost2010PropOp30
 70
     1
102
RTVSPost2010Prop31
280
     0
102
RTVSPost2010PropOp31
 70
     1
102
RTVSPost2010Prop32
280
     0
102
RTVSPost2010PropOp32
 70
     1
102
RTVSPost2010Prop33
280
     0
102
RTVSPost2010PropOp33
 70
     1
102
RTVSPost2010Prop34
280
     0
102
RTVSPost2010PropOp34
 70
     1
102
RTVSPost2010Prop35
280
     0
102
RTVSPost2010PropOp35
 70
     1
102
RTVSPost2010Prop36
280
     0
102
RTVSPost2010PropOp36
 70
     1
102
RTVSPost2010Prop37
 90
       50
102
RTVSPost2010PropOp37
 70
     1
102
RTVSPost2010Prop38
140
0.0
102
RTVSPost2010PropOp38
 70
     1
102
RTVSPost2010Prop39
140
1.0
102
RTVSPost2010PropOp39
 70
     1
102
RTVSPost2010Prop40
 90
        0
102
RTVSPost2010PropOp40
 70
     1
102
RTVSPost2010Prop41ColorIndex
 90
       18
102
RTVSPost2010Prop41ColorRGB
 90
-16777216
102
RTVSPost2010PropOp41
 70
     1
102
RTVSPost2010Prop42
 90
       50
102
RTVSPost2010PropOp42
 70
     1
102
RTVSPost2010Prop43
 90
        3
102
RTVSPost2010PropOp43
 70
     1
102
RTVSPost2010Prop44ColorIndex
 90
        5
102
RTVSPost2010Prop44ColorRGB
 90
      255
102
RTVSPost2010PropOp44
 70
     1
102
RTVSPost2010Prop45
280
     0
102
RTVSPost2010PropOp45
 70
     1
102
RTVSPost2010Prop46
 90
       50
102
RTVSPost2010PropOp46
 70
     1
102
RTVSPost2010Prop47
 90
       50
102
RTVSPost2010PropOp47
 70
     1
102
RTVSPost2010Prop48
 90
       50
102
RTVSPost2010PropOp48
 70
     1
102
RTVSPost2010Prop49
280
     0
102
RTVSPost2010PropOp49
 70
     1
102
RTVSPost2010Prop50
 90
       50
102
RTVSPost2010PropOp50
 70
     1
102
RTVSPost2010Prop51ColorIndex
 90
      256
102
RTVSPost2010Prop51ColorRGB
 90
-16777216
102
RTVSPost2010PropOp51
 70
     0
102
RTVSPost2010Prop52
140
1.0
102
RTVSPost2010PropOp52
 70
     0
102
RTVSPost2010Prop53
 90
        2
102
RTVSPost2010PropOp53
 70
     1
102
RTVSPost2010Prop54
  1
strokes_ogs.tif
102
RTVSPost2010PropOp54
 70
     1
102
RTVSPost2010Prop55
280
     0
102
RTVSPost2010PropOp55
 70
     1
102
RTVSPost2010Prop56
140
1.0
102
RTVSPost2010PropOp56
 70
     1
102
RTVSPost2010Prop57
140
1.0
102
RTVSPost2010PropOp57
 70
     1
102
RTVSPropertyOp0
 70
     1
102
RTVSPropertyOp1
 70
     1
102
RTVSPropertyOp2
 70
     1
102
RTVSPropertyOp3
 70
     1
102
RTVSPropertyOp4
 70
     1
102
RTVSPropertyOp5
 70
     1
102
RTVSPropertyOp6
 70
     1
102
RTVSPropertyOp7
 70
     1
102
RTVSPropertyOp8
 70
     1
102
RTVSPropertyOp9
 70
     1
102
RTVSPropertyOp10
 70
     1
102
RTVSPropertyOp11
 70
     1
102
RTVSPropertyOp12
 70
     1
102
RTVSPropertyOp13
 70
     1
102
RTVSPropertyOp14
 70
     1
102
RTVSPropertyOp15
 70
     1
102
RTVSPropertyOp16
 70
     1
102
RTVSPropertyOp17
 70
     1
102
RTVSPropertyOp18
 70
     1
102
RTVSPropertyOp19
 70
     1
102
RTVSPropertyOp20
 70
     1
102
RTVSPropertyOp21
 70
     1
102
RTVSPropertyOp22
 70
     1
102
RTVSPropertyOp23
 70
     1
102
RTVSPropertyOp24
 70
     1
102
RTVSPropertyOp25
 70
     1
102
RTVSPropertyOp26
 70
     1
102
RTVSPropertyOp27
 70
     1
102
RTVSPropertyOp28
 70
     1
102
RTVSPropertyOp29
 70
     1
102
RTVSPropertyOp30
 70
     1
102
RTVSPropertyOp31
 70
     1
102
RTVSPropertyOp32
 70
     1
102
RTVSPropertyOp33
 70
     1
102
RTVSPropertyOp34
 70
     1
102
RTVSPropertyOp35
 70
     1
102
RTVSPropertyOp36
 70
     1
102
RTVSPropertyOp37
 70
     1
102
RTVSPropertyOp38
 70
     1
102
RTVSPropertyOp39
 70
     1
102
RTVSPropertyOp40
 70
     1
102
RTVSPropertyOp41
 70
     1
102
RTVSPropertyOp42
 70
     1
102
RTVSPropertyOp43
 70
     1
102
RTVSPropertyOp44
 70
     1
102
RTVSPropertyOp45
 70
     1
102
RTVSPropertyOp46
 70
     1
102
RTVSPropertyOp47
 70
     1
102
RTVSPropertyOp48
 70
     1
102
RTVSPropertyOp49
 70
     1
102
RTVSPropertyOp50
 70
     1
102
RTVSPropertyOp51
 70
     0
102
RTVSPropertyOp52
 70
     0
102
RTVSPropertyOp53
 70
     1
102
RTVSPropertyOp54
 70
     1
102
RTVSPropertyOp55
 70
     1
102
RTVSPropertyOp56
 70
     1
102
RTVSPropertyOp57
 70
     1
102
RTVSPropertyOp58
 70
     1
102
RTVSPropertyOp59
 70
     1
102
RTVSPropertyOp60
 70
     1
102
RTVSPropertyOp61
 70
     1
102
RTVSPropertyOp62
 70
     1
  0
XRECORD
  5
15D6
102
{ACAD_REACTORS
330
15D5
102
}
330
15D5
100
AcDbXrecord
280
     1
102
RTVSPost2010Prop28
280
     0
102
RTVSPost2010PropOp28
 70
     1
102
RTVSPost2010Prop29
280
     1
102
RTVSPost2010PropOp29
 70
     1
102
RTVSPost2010Prop30
280
     1
102
RTVSPost2010PropOp30
 70
     1
102
RTVSPost2010Prop31
280
     0
102
RTVSPost2010PropOp31
 70
     1
102
RTVSPost2010Prop32
280
     0
102
RTVSPost2010PropOp32
 70
     1
102
RTVSPost2010Prop33
280
     0
102
RTVSPost2010PropOp33
 70
     1
102
RTVSPost2010Prop34
280
     0
102
RTVSPost2010PropOp34
 70
     1
102
RTVSPost2010Prop35
280
     0
102
RTVSPost2010PropOp35
 70
     1
102
RTVSPost2010Prop36
280
     0
102
RTVSPost2010PropOp36
 70
     1
102
RTVSPost2010Prop37
 90
       50
102
RTVSPost2010PropOp37
 70
     1
102
RTVSPost2010Prop38
140
0.0
102
RTVSPost2010PropOp38
 70
     1
102
RTVSPost2010Prop39
140
1.0
102
RTVSPost2010PropOp39
 70
     1
102
RTVSPost2010Prop40
 90
        0
102
RTVSPost2010PropOp40
 70
     1
102
RTVSPost2010Prop41ColorIndex
 90
       18
102
RTVSPost2010Prop41ColorRGB
 90
-16777216
102
RTVSPost2010PropOp41
 70
     1
102
RTVSPost2010Prop42
 90
       50
102
RTVSPost2010PropOp42
 70
     1
102
RTVSPost2010Prop43
 90
        3
102
RTVSPost2010PropOp43
 70
     1
102
RTVSPost2010Prop44ColorIndex
 90
        5
102
RTVSPost2010Prop44ColorRGB
 90
      255
102
RTVSPost2010PropOp44
 70
     1
102
RTVSPost2010Prop45
280
     0
102
RTVSPost2010PropOp45
 70
     1
102
RTVSPost2010Prop46
 90
       50
102
RTVSPost2010PropOp46
 70
     1
102
RTVSPost2010Prop47
 90
       50
102
RTVSPost2010PropOp47
 70
     1
102
RTVSPost2010Prop48
 90
       50
102
RTVSPost2010PropOp48
 70
     1
102
RTVSPost2010Prop49
280
     0
102
RTVSPost2010PropOp49
 70
     1
102
RTVSPost2010Prop50
 90
       50
102
RTVSPost2010PropOp50
 70
     1
102
RTVSPost2010Prop51ColorIndex
 90
      256
102
RTVSPost2010Prop51ColorRGB
 90
-16777216
102
RTVSPost2010PropOp51
 70
     0
102
RTVSPost2010Prop52
140
1.0
102
RTVSPost2010PropOp52
 70
     0
102
RTVSPost2010Prop53
 90
        2
102
RTVSPost2010PropOp53
 70
     1
102
RTVSPost2010Prop54
  1
strokes_ogs.tif
102
RTVSPost2010PropOp54
 70
     1
102
RTVSPost2010Prop55
280
     0
102
RTVSPost2010PropOp55
 70
     1
102
RTVSPost2010Prop56
140
1.0
102
RTVSPost2010PropOp56
 70
     1
102
RTVSPost2010Prop57
140
1.0
102
RTVSPost2010PropOp57
 70
     1
102
RTVSPropertyOp0
 70
     1
102
RTVSPropertyOp1
 70
     1
102
RTVSPropertyOp2
 70
     1
102
RTVSPropertyOp3
 70
     1
102
RTVSPropertyOp4
 70
     1
102
RTVSPropertyOp5
 70
     1
102
RTVSPropertyOp6
 70
     1
102
RTVSPropertyOp7
 70
     1
102
RTVSPropertyOp8
 70
     1
102
RTVSPropertyOp9
 70
     1
102
RTVSPropertyOp10
 70
     1
102
RTVSPropertyOp11
 70
     1
102
RTVSPropertyOp12
 70
     1
102
RTVSPropertyOp13
 70
     1
102
RTVSPropertyOp14
 70
     1
102
RTVSPropertyOp15
 70
     1
102
RTVSPropertyOp16
 70
     1
102
RTVSPropertyOp17
 70
     1
102
RTVSPropertyOp18
 70
     1
102
RTVSPropertyOp19
 70
     1
102
RTVSPropertyOp20
 70
     1
102
RTVSPropertyOp21
 70
     1
102
RTVSPropertyOp22
 70
     1
102
RTVSPropertyOp23
 70
     1
102
RTVSPropertyOp24
 70
     1
102
RTVSPropertyOp25
 70
     1
102
RTVSPropertyOp26
 70
     1
102
RTVSPropertyOp27
 70
     1
102
RTVSPropertyOp28
 70
     1
102
RTVSPropertyOp29
 70
     1
102
RTVSPropertyOp30
 70
     1
102
RTVSPropertyOp31
 70
     1
102
RTVSPropertyOp32
 70
     1
102
RTVSPropertyOp33
 70
     1
102
RTVSPropertyOp34
 70
     1
102
RTVSPropertyOp35
 70
     1
102
RTVSPropertyOp36
 70
     1
102
RTVSPropertyOp37
 70
     1
102
RTVSPropertyOp38
 70
     1
102
RTVSPropertyOp39
 70
     1
102
RTVSPropertyOp40
 70
     1
102
RTVSPropertyOp41
 70
     1
102
RTVSPropertyOp42
 70
     1
102
RTVSPropertyOp43
 70
     1
102
RTVSPropertyOp44
 70
     1
102
RTVSPropertyOp45
 70
     1
102
RTVSPropertyOp46
 70
     1
102
RTVSPropertyOp47
 70
     1
102
RTVSPropertyOp48
 70
     1
102
RTVSPropertyOp49
 70
     1
102
RTVSPropertyOp50
 70
     1
102
RTVSPropertyOp51
 70
     0
102
RTVSPropertyOp52
 70
     0
102
RTVSPropertyOp53
 70
     1
102
RTVSPropertyOp54
 70
     1
102
RTVSPropertyOp55
 70
     1
102
RTVSPropertyOp56
 70
     1
102
RTVSPropertyOp57
 70
     1
102
RTVSPropertyOp58
 70
     1
102
RTVSPropertyOp59
 70
     1
102
RTVSPropertyOp60
 70
     1
102
RTVSPropertyOp61
 70
     1
102
RTVSPropertyOp62
 70
     1
  0
XRECORD
  5
15D0
102
{ACAD_REACTORS
330
15CF
102
}
330
15CF
100
AcDbXrecord
280
     1
102
RTVSPost2010Prop28
280
     0
102
RTVSPost2010PropOp28
 70
     1
102
RTVSPost2010Prop29
280
     1
102
RTVSPost2010PropOp29
 70
     1
102
RTVSPost2010Prop30
280
     1
102
RTVSPost2010PropOp30
 70
     1
102
RTVSPost2010Prop31
280
     0
102
RTVSPost2010PropOp31
 70
     1
102
RTVSPost2010Prop32
280
     0
102
RTVSPost2010PropOp32
 70
     1
102
RTVSPost2010Prop33
280
     0
102
RTVSPost2010PropOp33
 70
     1
102
RTVSPost2010Prop34
280
     0
102
RTVSPost2010PropOp34
 70
     1
102
RTVSPost2010Prop35
280
     0
102
RTVSPost2010PropOp35
 70
     1
102
RTVSPost2010Prop36
280
     0
102
RTVSPost2010PropOp36
 70
     1
102
RTVSPost2010Prop37
 90
       50
102
RTVSPost2010PropOp37
 70
     1
102
RTVSPost2010Prop38
140
0.0
102
RTVSPost2010PropOp38
 70
     1
102
RTVSPost2010Prop39
140
1.0
102
RTVSPost2010PropOp39
 70
     1
102
RTVSPost2010Prop40
 90
        0
102
RTVSPost2010PropOp40
 70
     1
102
RTVSPost2010Prop41ColorIndex
 90
       18
102
RTVSPost2010Prop41ColorRGB
 90
-16777216
102
RTVSPost2010PropOp41
 70
     1
102
RTVSPost2010Prop42
 90
       50
102
RTVSPost2010PropOp42
 70
     1
102
RTVSPost2010Prop43
 90
        3
102
RTVSPost2010PropOp43
 70
     1
102
RTVSPost2010Prop44ColorIndex
 90
        5
102
RTVSPost2010Prop44ColorRGB
 90
      255
102
RTVSPost2010PropOp44
 70
     1
102
RTVSPost2010Prop45
280
     0
102
RTVSPost2010PropOp45
 70
     1
102
RTVSPost2010Prop46
 90
       50
102
RTVSPost2010PropOp46
 70
     1
102
RTVSPost2010Prop47
 90
       50
102
RTVSPost2010PropOp47
 70
     1
102
RTVSPost2010Prop48
 90
       50
102
RTVSPost2010PropOp48
 70
     1
102
RTVSPost2010Prop49
280
     0
102
RTVSPost2010PropOp49
 70
     1
102
RTVSPost2010Prop50
 90
       50
102
RTVSPost2010PropOp50
 70
     1
102
RTVSPost2010Prop51ColorIndex
 90
      256
102
RTVSPost2010Prop51ColorRGB
 90
-16777216
102
RTVSPost2010PropOp51
 70
     0
102
RTVSPost2010Prop52
140
1.0
102
RTVSPost2010PropOp52
 70
     0
102
RTVSPost2010Prop53
 90
        2
102
RTVSPost2010PropOp53
 70
     1
102
RTVSPost2010Prop54
  1
strokes_ogs.tif
102
RTVSPost2010PropOp54
 70
     1
102
RTVSPost2010Prop55
280
     0
102
RTVSPost2010PropOp55
 70
     1
102
RTVSPost2010Prop56
140
1.0
102
RTVSPost2010PropOp56
 70
     1
102
RTVSPost2010Prop57
140
1.0
102
RTVSPost2010PropOp57
 70
     1
102
RTVSPropertyOp0
 70
     1
102
RTVSPropertyOp1
 70
     1
102
RTVSPropertyOp2
 70
     1
102
RTVSPropertyOp3
 70
     1
102
RTVSPropertyOp4
 70
     1
102
RTVSPropertyOp5
 70
     1
102
RTVSPropertyOp6
 70
     1
102
RTVSPropertyOp7
 70
     1
102
RTVSPropertyOp8
 70
     1
102
RTVSPropertyOp9
 70
     1
102
RTVSPropertyOp10
 70
     1
102
RTVSPropertyOp11
 70
     1
102
RTVSPropertyOp12
 70
     1
102
RTVSPropertyOp13
 70
     1
102
RTVSPropertyOp14
 70
     1
102
RTVSPropertyOp15
 70
     1
102
RTVSPropertyOp16
 70
     1
102
RTVSPropertyOp17
 70
     1
102
RTVSPropertyOp18
 70
     1
102
RTVSPropertyOp19
 70
     1
102
RTVSPropertyOp20
 70
     1
102
RTVSPropertyOp21
 70
     1
102
RTVSPropertyOp22
 70
     1
102
RTVSPropertyOp23
 70
     1
102
RTVSPropertyOp24
 70
     1
102
RTVSPropertyOp25
 70
     1
102
RTVSPropertyOp26
 70
     1
102
RTVSPropertyOp27
 70
     1
102
RTVSPropertyOp28
 70
     1
102
RTVSPropertyOp29
 70
     1
102
RTVSPropertyOp30
 70
     1
102
RTVSPropertyOp31
 70
     1
102
RTVSPropertyOp32
 70
     1
102
RTVSPropertyOp33
 70
     1
102
RTVSPropertyOp34
 70
     1
102
RTVSPropertyOp35
 70
     1
102
RTVSPropertyOp36
 70
     1
102
RTVSPropertyOp37
 70
     1
102
RTVSPropertyOp38
 70
     1
102
RTVSPropertyOp39
 70
     1
102
RTVSPropertyOp40
 70
     1
102
RTVSPropertyOp41
 70
     1
102
RTVSPropertyOp42
 70
     1
102
RTVSPropertyOp43
 70
     1
102
RTVSPropertyOp44
 70
     1
102
RTVSPropertyOp45
 70
     1
102
RTVSPropertyOp46
 70
     1
102
RTVSPropertyOp47
 70
     1
102
RTVSPropertyOp48
 70
     1
102
RTVSPropertyOp49
 70
     1
102
RTVSPropertyOp50
 70
     1
102
RTVSPropertyOp51
 70
     0
102
RTVSPropertyOp52
 70
     0
102
RTVSPropertyOp53
 70
     1
102
RTVSPropertyOp54
 70
     1
102
RTVSPropertyOp55
 70
     1
102
RTVSPropertyOp56
 70
     1
102
RTVSPropertyOp57
 70
     1
102
RTVSPropertyOp58
 70
     1
102
RTVSPropertyOp59
 70
     1
102
RTVSPropertyOp60
 70
     1
102
RTVSPropertyOp61
 70
     1
102
RTVSPropertyOp62
 70
     1
  0
XRECORD
  5
15D2
102
{ACAD_REACTORS
330
15D1
102
}
330
15D1
100
AcDbXrecord
280
     1
102
RTVSPost2010Prop28
280
     0
102
RTVSPost2010PropOp28
 70
     1
102
RTVSPost2010Prop29
280
     1
102
RTVSPost2010PropOp29
 70
     1
102
RTVSPost2010Prop30
280
     1
102
RTVSPost2010PropOp30
 70
     1
102
RTVSPost2010Prop31
280
     0
102
RTVSPost2010PropOp31
 70
     1
102
RTVSPost2010Prop32
280
     0
102
RTVSPost2010PropOp32
 70
     1
102
RTVSPost2010Prop33
280
     0
102
RTVSPost2010PropOp33
 70
     1
102
RTVSPost2010Prop34
280
     0
102
RTVSPost2010PropOp34
 70
     1
102
RTVSPost2010Prop35
280
     0
102
RTVSPost2010PropOp35
 70
     1
102
RTVSPost2010Prop36
280
     0
102
RTVSPost2010PropOp36
 70
     1
102
RTVSPost2010Prop37
 90
       50
102
RTVSPost2010PropOp37
 70
     1
102
RTVSPost2010Prop38
140
0.0
102
RTVSPost2010PropOp38
 70
     1
102
RTVSPost2010Prop39
140
1.0
102
RTVSPost2010PropOp39
 70
     1
102
RTVSPost2010Prop40
 90
        0
102
RTVSPost2010PropOp40
 70
     1
102
RTVSPost2010Prop41ColorIndex
 90
       18
102
RTVSPost2010Prop41ColorRGB
 90
-16777216
102
RTVSPost2010PropOp41
 70
     1
102
RTVSPost2010Prop42
 90
       50
102
RTVSPost2010PropOp42
 70
     1
102
RTVSPost2010Prop43
 90
        3
102
RTVSPost2010PropOp43
 70
     1
102
RTVSPost2010Prop44ColorIndex
 90
        5
102
RTVSPost2010Prop44ColorRGB
 90
      255
102
RTVSPost2010PropOp44
 70
     1
102
RTVSPost2010Prop45
280
     0
102
RTVSPost2010PropOp45
 70
     1
102
RTVSPost2010Prop46
 90
       50
102
RTVSPost2010PropOp46
 70
     1
102
RTVSPost2010Prop47
 90
       50
102
RTVSPost2010PropOp47
 70
     1
102
RTVSPost2010Prop48
 90
       50
102
RTVSPost2010PropOp48
 70
     1
102
RTVSPost2010Prop49
280
     0
102
RTVSPost2010PropOp49
 70
     1
102
RTVSPost2010Prop50
 90
       50
102
RTVSPost2010PropOp50
 70
     1
102
RTVSPost2010Prop51ColorIndex
 90
      256
102
RTVSPost2010Prop51ColorRGB
 90
-16777216
102
RTVSPost2010PropOp51
 70
     0
102
RTVSPost2010Prop52
140
1.0
102
RTVSPost2010PropOp52
 70
     0
102
RTVSPost2010Prop53
 90
        2
102
RTVSPost2010PropOp53
 70
     1
102
RTVSPost2010Prop54
  1
strokes_ogs.tif
102
RTVSPost2010PropOp54
 70
     1
102
RTVSPost2010Prop55
280
     0
102
RTVSPost2010PropOp55
 70
     1
102
RTVSPost2010Prop56
140
1.0
102
RTVSPost2010PropOp56
 70
     1
102
RTVSPost2010Prop57
140
1.0
102
RTVSPost2010PropOp57
 70
     1
102
RTVSPropertyOp0
 70
     1
102
RTVSPropertyOp1
 70
     1
102
RTVSPropertyOp2
 70
     1
102
RTVSPropertyOp3
 70
     1
102
RTVSPropertyOp4
 70
     1
102
RTVSPropertyOp5
 70
     1
102
RTVSPropertyOp6
 70
     1
102
RTVSPropertyOp7
 70
     1
102
RTVSPropertyOp8
 70
     1
102
RTVSPropertyOp9
 70
     1
102
RTVSPropertyOp10
 70
     1
102
RTVSPropertyOp11
 70
     1
102
RTVSPropertyOp12
 70
     1
102
RTVSPropertyOp13
 70
     1
102
RTVSPropertyOp14
 70
     1
102
RTVSPropertyOp15
 70
     1
102
RTVSPropertyOp16
 70
     1
102
RTVSPropertyOp17
 70
     1
102
RTVSPropertyOp18
 70
     1
102
RTVSPropertyOp19
 70
     1
102
RTVSPropertyOp20
 70
     1
102
RTVSPropertyOp21
 70
     1
102
RTVSPropertyOp22
 70
     1
102
RTVSPropertyOp23
 70
     1
102
RTVSPropertyOp24
 70
     1
102
RTVSPropertyOp25
 70
     1
102
RTVSPropertyOp26
 70
     1
102
RTVSPropertyOp27
 70
     1
102
RTVSPropertyOp28
 70
     1
102
RTVSPropertyOp29
 70
     1
102
RTVSPropertyOp30
 70
     1
102
RTVSPropertyOp31
 70
     1
102
RTVSPropertyOp32
 70
     1
102
RTVSPropertyOp33
 70
     1
102
RTVSPropertyOp34
 70
     1
102
RTVSPropertyOp35
 70
     1
102
RTVSPropertyOp36
 70
     1
102
RTVSPropertyOp37
 70
     1
102
RTVSPropertyOp38
 70
     1
102
RTVSPropertyOp39
 70
     1
102
RTVSPropertyOp40
 70
     1
102
RTVSPropertyOp41
 70
     1
102
RTVSPropertyOp42
 70
     1
102
RTVSPropertyOp43
 70
     1
102
RTVSPropertyOp44
 70
     1
102
RTVSPropertyOp45
 70
     1
102
RTVSPropertyOp46
 70
     1
102
RTVSPropertyOp47
 70
     1
102
RTVSPropertyOp48
 70
     1
102
RTVSPropertyOp49
 70
     1
102
RTVSPropertyOp50
 70
     1
102
RTVSPropertyOp51
 70
     0
102
RTVSPropertyOp52
 70
     0
102
RTVSPropertyOp53
 70
     1
102
RTVSPropertyOp54
 70
     1
102
RTVSPropertyOp55
 70
     1
102
RTVSPropertyOp56
 70
     1
102
RTVSPropertyOp57
 70
     1
102
RTVSPropertyOp58
 70
     1
102
RTVSPropertyOp59
 70
     1
102
RTVSPropertyOp60
 70
     1
102
RTVSPropertyOp61
 70
     1
102
RTVSPropertyOp62
 70
     1
  0
XRECORD
  5
15C8
102
{ACAD_REACTORS
330
15C7
102
}
330
15C7
100
AcDbXrecord
280
     1
102
RTVSPost2010Prop28
280
     0
102
RTVSPost2010PropOp28
 70
     1
102
RTVSPost2010Prop29
280
     1
102
RTVSPost2010PropOp29
 70
     1
102
RTVSPost2010Prop30
280
     1
102
RTVSPost2010PropOp30
 70
     1
102
RTVSPost2010Prop31
280
     0
102
RTVSPost2010PropOp31
 70
     1
102
RTVSPost2010Prop32
280
     0
102
RTVSPost2010PropOp32
 70
     1
102
RTVSPost2010Prop33
280
     0
102
RTVSPost2010PropOp33
 70
     1
102
RTVSPost2010Prop34
280
     0
102
RTVSPost2010PropOp34
 70
     1
102
RTVSPost2010Prop35
280
     0
102
RTVSPost2010PropOp35
 70
     1
102
RTVSPost2010Prop36
280
     0
102
RTVSPost2010PropOp36
 70
     1
102
RTVSPost2010Prop37
 90
       50
102
RTVSPost2010PropOp37
 70
     1
102
RTVSPost2010Prop38
140
0.0
102
RTVSPost2010PropOp38
 70
     1
102
RTVSPost2010Prop39
140
1.0
102
RTVSPost2010PropOp39
 70
     1
102
RTVSPost2010Prop40
 90
        0
102
RTVSPost2010PropOp40
 70
     1
102
RTVSPost2010Prop41ColorIndex
 90
       18
102
RTVSPost2010Prop41ColorRGB
 90
-16777216
102
RTVSPost2010PropOp41
 70
     1
102
RTVSPost2010Prop42
 90
       50
102
RTVSPost2010PropOp42
 70
     1
102
RTVSPost2010Prop43
 90
        3
102
RTVSPost2010PropOp43
 70
     1
102
RTVSPost2010Prop44ColorIndex
 90
        5
102
RTVSPost2010Prop44ColorRGB
 90
      255
102
RTVSPost2010PropOp44
 70
     1
102
RTVSPost2010Prop45
280
     0
102
RTVSPost2010PropOp45
 70
     1
102
RTVSPost2010Prop46
 90
       50
102
RTVSPost2010PropOp46
 70
     1
102
RTVSPost2010Prop47
 90
       50
102
RTVSPost2010PropOp47
 70
     1
102
RTVSPost2010Prop48
 90
       50
102
RTVSPost2010PropOp48
 70
     1
102
RTVSPost2010Prop49
280
     0
102
RTVSPost2010PropOp49
 70
     1
102
RTVSPost2010Prop50
 90
       50
102
RTVSPost2010PropOp50
 70
     1
102
RTVSPost2010Prop51ColorIndex
 90
      256
102
RTVSPost2010Prop51ColorRGB
 90
-16777216
102
RTVSPost2010PropOp51
 70
     0
102
RTVSPost2010Prop52
140
1.0
102
RTVSPost2010PropOp52
 70
     0
102
RTVSPost2010Prop53
 90
        2
102
RTVSPost2010PropOp53
 70
     1
102
RTVSPost2010Prop54
  1
strokes_ogs.tif
102
RTVSPost2010PropOp54
 70
     1
102
RTVSPost2010Prop55
280
     0
102
RTVSPost2010PropOp55
 70
     1
102
RTVSPost2010Prop56
140
1.0
102
RTVSPost2010PropOp56
 70
     1
102
RTVSPost2010Prop57
140
1.0
102
RTVSPost2010PropOp57
 70
     1
102
RTVSPropertyOp0
 70
     1
102
RTVSPropertyOp1
 70
     1
102
RTVSPropertyOp2
 70
     1
102
RTVSPropertyOp3
 70
     1
102
RTVSPropertyOp4
 70
     1
102
RTVSPropertyOp5
 70
     1
102
RTVSPropertyOp6
 70
     1
102
RTVSPropertyOp7
 70
     1
102
RTVSPropertyOp8
 70
     1
102
RTVSPropertyOp9
 70
     1
102
RTVSPropertyOp10
 70
     1
102
RTVSPropertyOp11
 70
     1
102
RTVSPropertyOp12
 70
     1
102
RTVSPropertyOp13
 70
     1
102
RTVSPropertyOp14
 70
     1
102
RTVSPropertyOp15
 70
     1
102
RTVSPropertyOp16
 70
     1
102
RTVSPropertyOp17
 70
     1
102
RTVSPropertyOp18
 70
     1
102
RTVSPropertyOp19
 70
     1
102
RTVSPropertyOp20
 70
     1
102
RTVSPropertyOp21
 70
     1
102
RTVSPropertyOp22
 70
     1
102
RTVSPropertyOp23
 70
     1
102
RTVSPropertyOp24
 70
     1
102
RTVSPropertyOp25
 70
     1
102
RTVSPropertyOp26
 70
     1
102
RTVSPropertyOp27
 70
     1
102
RTVSPropertyOp28
 70
     1
102
RTVSPropertyOp29
 70
     1
102
RTVSPropertyOp30
 70
     1
102
RTVSPropertyOp31
 70
     1
102
RTVSPropertyOp32
 70
     1
102
RTVSPropertyOp33
 70
     1
102
RTVSPropertyOp34
 70
     1
102
RTVSPropertyOp35
 70
     1
102
RTVSPropertyOp36
 70
     1
102
RTVSPropertyOp37
 70
     1
102
RTVSPropertyOp38
 70
     1
102
RTVSPropertyOp39
 70
     1
102
RTVSPropertyOp40
 70
     1
102
RTVSPropertyOp41
 70
     1
102
RTVSPropertyOp42
 70
     1
102
RTVSPropertyOp43
 70
     1
102
RTVSPropertyOp44
 70
     1
102
RTVSPropertyOp45
 70
     1
102
RTVSPropertyOp46
 70
     1
102
RTVSPropertyOp47
 70
     1
102
RTVSPropertyOp48
 70
     1
102
RTVSPropertyOp49
 70
     1
102
RTVSPropertyOp50
 70
     1
102
RTVSPropertyOp51
 70
     0
102
RTVSPropertyOp52
 70
     0
102
RTVSPropertyOp53
 70
     1
102
RTVSPropertyOp54
 70
     1
102
RTVSPropertyOp55
 70
     1
102
RTVSPropertyOp56
 70
     1
102
RTVSPropertyOp57
 70
     1
102
RTVSPropertyOp58
 70
     1
102
RTVSPropertyOp59
 70
     1
102
RTVSPropertyOp60
 70
     1
102
RTVSPropertyOp61
 70
     1
102
RTVSPropertyOp62
 70
     1
  0
XRECORD
  5
15B4
102
{ACAD_REACTORS
330
15B3
102
}
330
15B3
100
AcDbXrecord
280
     1
102
RTVSPost2010Prop28
280
     0
102
RTVSPost2010PropOp28
 70
     1
102
RTVSPost2010Prop29
280
     1
102
RTVSPost2010PropOp29
 70
     1
102
RTVSPost2010Prop30
280
     1
102
RTVSPost2010PropOp30
 70
     1
102
RTVSPost2010Prop31
280
     0
102
RTVSPost2010PropOp31
 70
     1
102
RTVSPost2010Prop32
280
     0
102
RTVSPost2010PropOp32
 70
     1
102
RTVSPost2010Prop33
280
     0
102
RTVSPost2010PropOp33
 70
     1
102
RTVSPost2010Prop34
280
     0
102
RTVSPost2010PropOp34
 70
     1
102
RTVSPost2010Prop35
280
     0
102
RTVSPost2010PropOp35
 70
     1
102
RTVSPost2010Prop36
280
     0
102
RTVSPost2010PropOp36
 70
     1
102
RTVSPost2010Prop37
 90
       50
102
RTVSPost2010PropOp37
 70
     1
102
RTVSPost2010Prop38
140
0.0
102
RTVSPost2010PropOp38
 70
     1
102
RTVSPost2010Prop39
140
1.0
102
RTVSPost2010PropOp39
 70
     1
102
RTVSPost2010Prop40
 90
        0
102
RTVSPost2010PropOp40
 70
     1
102
RTVSPost2010Prop41ColorIndex
 90
       18
102
RTVSPost2010Prop41ColorRGB
 90
-16777216
102
RTVSPost2010PropOp41
 70
     1
102
RTVSPost2010Prop42
 90
       50
102
RTVSPost2010PropOp42
 70
     1
102
RTVSPost2010Prop43
 90
        3
102
RTVSPost2010PropOp43
 70
     1
102
RTVSPost2010Prop44ColorIndex
 90
        5
102
RTVSPost2010Prop44ColorRGB
 90
      255
102
RTVSPost2010PropOp44
 70
     1
102
RTVSPost2010Prop45
280
     0
102
RTVSPost2010PropOp45
 70
     1
102
RTVSPost2010Prop46
 90
       50
102
RTVSPost2010PropOp46
 70
     1
102
RTVSPost2010Prop47
 90
       50
102
RTVSPost2010PropOp47
 70
     1
102
RTVSPost2010Prop48
 90
       50
102
RTVSPost2010PropOp48
 70
     1
102
RTVSPost2010Prop49
280
     0
102
RTVSPost2010PropOp49
 70
     1
102
RTVSPost2010Prop50
 90
       50
102
RTVSPost2010PropOp50
 70
     1
102
RTVSPost2010Prop51ColorIndex
 90
      256
102
RTVSPost2010Prop51ColorRGB
 90
-16777216
102
RTVSPost2010PropOp51
 70
     0
102
RTVSPost2010Prop52
140
1.0
102
RTVSPost2010PropOp52
 70
     0
102
RTVSPost2010Prop53
 90
        2
102
RTVSPost2010PropOp53
 70
     1
102
RTVSPost2010Prop54
  1
strokes_ogs.tif
102
RTVSPost2010PropOp54
 70
     1
102
RTVSPost2010Prop55
280
     0
102
RTVSPost2010PropOp55
 70
     1
102
RTVSPost2010Prop56
140
1.0
102
RTVSPost2010PropOp56
 70
     1
102
RTVSPost2010Prop57
140
1.0
102
RTVSPost2010PropOp57
 70
     1
102
RTVSPropertyOp0
 70
     1
102
RTVSPropertyOp1
 70
     1
102
RTVSPropertyOp2
 70
     1
102
RTVSPropertyOp3
 70
     1
102
RTVSPropertyOp4
 70
     1
102
RTVSPropertyOp5
 70
     1
102
RTVSPropertyOp6
 70
     1
102
RTVSPropertyOp7
 70
     1
102
RTVSPropertyOp8
 70
     1
102
RTVSPropertyOp9
 70
     1
102
RTVSPropertyOp10
 70
     1
102
RTVSPropertyOp11
 70
     1
102
RTVSPropertyOp12
 70
     1
102
RTVSPropertyOp13
 70
     1
102
RTVSPropertyOp14
 70
     1
102
RTVSPropertyOp15
 70
     1
102
RTVSPropertyOp16
 70
     1
102
RTVSPropertyOp17
 70
     1
102
RTVSPropertyOp18
 70
     1
102
RTVSPropertyOp19
 70
     1
102
RTVSPropertyOp20
 70
     1
102
RTVSPropertyOp21
 70
     1
102
RTVSPropertyOp22
 70
     1
102
RTVSPropertyOp23
 70
     1
102
RTVSPropertyOp24
 70
     1
102
RTVSPropertyOp25
 70
     1
102
RTVSPropertyOp26
 70
     1
102
RTVSPropertyOp27
 70
     1
102
RTVSPropertyOp28
 70
     1
102
RTVSPropertyOp29
 70
     1
102
RTVSPropertyOp30
 70
     1
102
RTVSPropertyOp31
 70
     1
102
RTVSPropertyOp32
 70
     1
102
RTVSPropertyOp33
 70
     1
102
RTVSPropertyOp34
 70
     1
102
RTVSPropertyOp35
 70
     1
102
RTVSPropertyOp36
 70
     1
102
RTVSPropertyOp37
 70
     1
102
RTVSPropertyOp38
 70
     1
102
RTVSPropertyOp39
 70
     1
102
RTVSPropertyOp40
 70
     1
102
RTVSPropertyOp41
 70
     1
102
RTVSPropertyOp42
 70
     1
102
RTVSPropertyOp43
 70
     1
102
RTVSPropertyOp44
 70
     1
102
RTVSPropertyOp45
 70
     1
102
RTVSPropertyOp46
 70
     1
102
RTVSPropertyOp47
 70
     1
102
RTVSPropertyOp48
 70
     1
102
RTVSPropertyOp49
 70
     1
102
RTVSPropertyOp50
 70
     1
102
RTVSPropertyOp51
 70
     0
102
RTVSPropertyOp52
 70
     0
102
RTVSPropertyOp53
 70
     1
102
RTVSPropertyOp54
 70
     1
102
RTVSPropertyOp55
 70
     1
102
RTVSPropertyOp56
 70
     1
102
RTVSPropertyOp57
 70
     1
102
RTVSPropertyOp58
 70
     1
102
RTVSPropertyOp59
 70
     1
102
RTVSPropertyOp60
 70
     1
102
RTVSPropertyOp61
 70
     1
102
RTVSPropertyOp62
 70
     1
  0
XRECORD
  5
15D4
102
{ACAD_REACTORS
330
15D3
102
}
330
15D3
100
AcDbXrecord
280
     1
102
RTVSPost2010Prop28
280
     0
102
RTVSPost2010PropOp28
 70
     1
102
RTVSPost2010Prop29
280
     1
102
RTVSPost2010PropOp29
 70
     1
102
RTVSPost2010Prop30
280
     1
102
RTVSPost2010PropOp30
 70
     1
102
RTVSPost2010Prop31
280
     0
102
RTVSPost2010PropOp31
 70
     1
102
RTVSPost2010Prop32
280
     0
102
RTVSPost2010PropOp32
 70
     1
102
RTVSPost2010Prop33
280
     0
102
RTVSPost2010PropOp33
 70
     1
102
RTVSPost2010Prop34
280
     0
102
RTVSPost2010PropOp34
 70
     1
102
RTVSPost2010Prop35
280
     0
102
RTVSPost2010PropOp35
 70
     1
102
RTVSPost2010Prop36
280
     0
102
RTVSPost2010PropOp36
 70
     1
102
RTVSPost2010Prop37
 90
       50
102
RTVSPost2010PropOp37
 70
     1
102
RTVSPost2010Prop38
140
0.0
102
RTVSPost2010PropOp38
 70
     1
102
RTVSPost2010Prop39
140
1.0
102
RTVSPost2010PropOp39
 70
     1
102
RTVSPost2010Prop40
 90
        0
102
RTVSPost2010PropOp40
 70
     1
102
RTVSPost2010Prop41ColorIndex
 90
       18
102
RTVSPost2010Prop41ColorRGB
 90
-16777216
102
RTVSPost2010PropOp41
 70
     1
102
RTVSPost2010Prop42
 90
       50
102
RTVSPost2010PropOp42
 70
     1
102
RTVSPost2010Prop43
 90
        3
102
RTVSPost2010PropOp43
 70
     1
102
RTVSPost2010Prop44ColorIndex
 90
        5
102
RTVSPost2010Prop44ColorRGB
 90
      255
102
RTVSPost2010PropOp44
 70
     1
102
RTVSPost2010Prop45
280
     0
102
RTVSPost2010PropOp45
 70
     1
102
RTVSPost2010Prop46
 90
       50
102
RTVSPost2010PropOp46
 70
     1
102
RTVSPost2010Prop47
 90
       50
102
RTVSPost2010PropOp47
 70
     1
102
RTVSPost2010Prop48
 90
       50
102
RTVSPost2010PropOp48
 70
     1
102
RTVSPost2010Prop49
280
     0
102
RTVSPost2010PropOp49
 70
     1
102
RTVSPost2010Prop50
 90
       50
102
RTVSPost2010PropOp50
 70
     1
102
RTVSPost2010Prop51ColorIndex
 90
      256
102
RTVSPost2010Prop51ColorRGB
 90
-16777216
102
RTVSPost2010PropOp51
 70
     0
102
RTVSPost2010Prop52
140
1.0
102
RTVSPost2010PropOp52
 70
     0
102
RTVSPost2010Prop53
 90
        2
102
RTVSPost2010PropOp53
 70
     1
102
RTVSPost2010Prop54
  1
strokes_ogs.tif
102
RTVSPost2010PropOp54
 70
     1
102
RTVSPost2010Prop55
280
     0
102
RTVSPost2010PropOp55
 70
     1
102
RTVSPost2010Prop56
140
1.0
102
RTVSPost2010PropOp56
 70
     1
102
RTVSPost2010Prop57
140
1.0
102
RTVSPost2010PropOp57
 70
     1
102
RTVSPropertyOp0
 70
     1
102
RTVSPropertyOp1
 70
     1
102
RTVSPropertyOp2
 70
     1
102
RTVSPropertyOp3
 70
     1
102
RTVSPropertyOp4
 70
     1
102
RTVSPropertyOp5
 70
     1
102
RTVSPropertyOp6
 70
     1
102
RTVSPropertyOp7
 70
     1
102
RTVSPropertyOp8
 70
     1
102
RTVSPropertyOp9
 70
     1
102
RTVSPropertyOp10
 70
     1
102
RTVSPropertyOp11
 70
     1
102
RTVSPropertyOp12
 70
     1
102
RTVSPropertyOp13
 70
     1
102
RTVSPropertyOp14
 70
     1
102
RTVSPropertyOp15
 70
     1
102
RTVSPropertyOp16
 70
     1
102
RTVSPropertyOp17
 70
     1
102
RTVSPropertyOp18
 70
     1
102
RTVSPropertyOp19
 70
     1
102
RTVSPropertyOp20
 70
     1
102
RTVSPropertyOp21
 70
     1
102
RTVSPropertyOp22
 70
     1
102
RTVSPropertyOp23
 70
     1
102
RTVSPropertyOp24
 70
     1
102
RTVSPropertyOp25
 70
     1
102
RTVSPropertyOp26
 70
     1
102
RTVSPropertyOp27
 70
     1
102
RTVSPropertyOp28
 70
     1
102
RTVSPropertyOp29
 70
     1
102
RTVSPropertyOp30
 70
     1
102
RTVSPropertyOp31
 70
     1
102
RTVSPropertyOp32
 70
     1
102
RTVSPropertyOp33
 70
     1
102
RTVSPropertyOp34
 70
     1
102
RTVSPropertyOp35
 70
     1
102
RTVSPropertyOp36
 70
     1
102
RTVSPropertyOp37
 70
     1
102
RTVSPropertyOp38
 70
     1
102
RTVSPropertyOp39
 70
     1
102
RTVSPropertyOp40
 70
     1
102
RTVSPropertyOp41
 70
     1
102
RTVSPropertyOp42
 70
     1
102
RTVSPropertyOp43
 70
     1
102
RTVSPropertyOp44
 70
     1
102
RTVSPropertyOp45
 70
     1
102
RTVSPropertyOp46
 70
     1
102
RTVSPropertyOp47
 70
     1
102
RTVSPropertyOp48
 70
     1
102
RTVSPropertyOp49
 70
     1
102
RTVSPropertyOp50
 70
     1
102
RTVSPropertyOp51
 70
     0
102
RTVSPropertyOp52
 70
     0
102
RTVSPropertyOp53
 70
     1
102
RTVSPropertyOp54
 70
     1
102
RTVSPropertyOp55
 70
     1
102
RTVSPropertyOp56
 70
     1
102
RTVSPropertyOp57
 70
     1
102
RTVSPropertyOp58
 70
     1
102
RTVSPropertyOp59
 70
     1
102
RTVSPropertyOp60
 70
     1
102
RTVSPropertyOp61
 70
     1
102
RTVSPropertyOp62
 70
     1
  0
ENDSEC
  0
EOF
