  0
SECTION
  2
HEADER
  9
$ACADVER
  1
AC1015
  9
$ACADMAINTVER
 70
    20
  9
$DWGCODEPAGE
  3
ANSI_932
  9
$INSBASE
 10
0.0
 20
0.0
 30
0.0
  9
$EXTMIN
 10
138.3620129084481
 20
62.86168134700528
 30
0.0
  9
$EXTMAX
 10
485.8620129084481
 20
292.3616813470053
 30
0.0
  9
$LIMMIN
 10
0.0
 20
0.0
  9
$LIMMAX
 10
594.0
 20
420.0
  9
$ORTHOMODE
 70
     1
  9
$REGENMODE
 70
     1
  9
$FILLMODE
 70
     1
  9
$QTEXTMODE
 70
     0
  9
$MIRRTEXT
 70
     0
  9
$LTSCALE
 40
5.0
  9
$ATTMODE
 70
     1
  9
$TEXTSIZE
 40
5.0
  9
$TRACEWID
 40
0.05
  9
$TEXTSTYLE
  7
STYLE2
  9
$CLAYER
  8
0
  9
$CELTYPE
  6
BYLAYER
  9
$CECOLOR
 62
   256
  9
$CELTSCALE
 40
1.0
  9
$DISPSILH
 70
     0
  9
$DIMSCALE
 40
2.0
  9
$DIMASZ
 40
2.0
  9
$DIMEXO
 40
1.0
  9
$DIMDLI
 40
6.0
  9
$DIMRND
 40
0.0
  9
$DIMDLE
 40
0.0
  9
$DIMEXE
 40
2.0
  9
$DIMTP
 40
495.0
  9
$DIMTM
 40
0.0
  9
$DIMTXT
 40
3.0
  9
$DIMCEN
 40
0.0
  9
$DIMTSZ
 40
0.0
  9
$DIMTOL
 70
     0
  9
$DIMLIM
 70
     0
  9
$DIMTIH
 70
     0
  9
$DIMTOH
 70
     0
  9
$DIMSE1
 70
     0
  9
$DIMSE2
 70
     0
  9
$DIMTAD
 70
     3
  9
$DIMZIN
 70
     8
  9
$DIMBLK
  1
ARROW
  9
$DIMASO
 70
     1
  9
$DIMSHO
 70
     0
  9
$DIMPOST
  1

  9
$DIMAPOST
  1

  9
$DIMALT
 70
     0
  9
$DIMALTD
 70
     2
  9
$DIMALTF
 40
25.4
  9
$DIMLFAC
 40
1.0
  9
$DIMTOFL
 70
     1
  9
$DIMTVP
 40
0.0
  9
$DIMTIX
 70
     1
  9
$DIMSOXD
 70
     0
  9
$DIMSAH
 70
     1
  9
$DIMBLK1
  1
OPEN
  9
$DIMBLK2
  1
OPEN
  9
$DIMSTYLE
  2
IMAO
  9
$DIMCLRD
 70
     0
  9
$DIMCLRE
 70
     0
  9
$DIMCLRT
 70
     0
  9
$DIMTFAC
 40
1.0
  9
$DIMGAP
 40
1.0
  9
$DIMJUST
 70
     0
  9
$DIMSD1
 70
     0
  9
$DIMSD2
 70
     0
  9
$DIMTOLJ
 70
     1
  9
$DIMTZIN
 70
     0
  9
$DIMALTZ
 70
     0
  9
$DIMALTTZ
 70
     0
  9
$DIMUPT
 70
     1
  9
$DIMDEC
 70
     4
  9
$DIMTDEC
 70
     4
  9
$DIMALTU
 70
     2
  9
$DIMALTTD
 70
     2
  9
$DIMTXSTY
  7
STYLE2
  9
$DIMAUNIT
 70
     0
  9
$DIMADEC
 70
     0
  9
$DIMALTRND
 40
0.0
  9
$DIMAZIN
 70
     0
  9
$DIMDSEP
 70
    46
  9
$DIMATFIT
 70
     3
  9
$DIMFRAC
 70
     0
  9
$DIMLDRBLK
  1

  9
$DIMLUNIT
 70
     2
  9
$DIMLWD
 70
    -2
  9
$DIMLWE
 70
    -2
  9
$DIMTMOVE
 70
     0
  9
$LUNITS
 70
     2
  9
$LUPREC
 70
     2
  9
$SKETCHINC
 40
0.1
  9
$FILLETRAD
 40
20.0
  9
$AUNITS
 70
     0
  9
$AUPREC
 70
     2
  9
$MENU
  1
STDR12J
  9
$ELEVATION
 40
0.0
  9
$PELEVATION
 40
0.0
  9
$THICKNESS
 40
0.0
  9
$LIMCHECK
 70
     0
  9
$CHAMFERA
 40
0.5
  9
$CHAMFERB
 40
0.5
  9
$CHAMFERC
 40
0.0
  9
$CHAMFERD
 40
0.0
  9
$SKPOLY
 70
     0
  9
$TDCREATE
 40
2450690.700081019
  9
$TDUCREATE
 40
2450690.325083218
  9
$TDUPDATE
 40
2459548.437233797
  9
$TDUUPDATE
 40
2459548.062233797
  9
$TDINDWG
 40
0.3804527315
  9
$TDUSRTIMER
 40
0.3804525579
  9
$USRTIMER
 70
     1
  9
$ANGBASE
 50
0.0
  9
$ANGDIR
 70
     0
  9
$PDMODE
 70
     3
  9
$PDSIZE
 40
0.0
  9
$PLINEWID
 40
0.0
  9
$SPLFRAME
 70
     0
  9
$SPLINETYPE
 70
     6
  9
$SPLINESEGS
 70
     8
  9
$HANDSEED
  5
16BD
  9
$SURFTAB1
 70
     6
  9
$SURFTAB2
 70
     6
  9
$SURFTYPE
 70
     6
  9
$SURFU
 70
     6
  9
$SURFV
 70
     6
  9
$UCSBASE
  2

  9
$UCSNAME
  2

  9
$UCSORG
 10
0.0
 20
0.0
 30
0.0
  9
$UCSXDIR
 10
1.0
 20
0.0
 30
0.0
  9
$UCSYDIR
 10
0.0
 20
1.0
 30
0.0
  9
$UCSORTHOREF
  2

  9
$UCSORTHOVIEW
 70
     0
  9
$UCSORGTOP
 10
0.0
 20
0.0
 30
0.0
  9
$UCSORGBOTTOM
 10
0.0
 20
0.0
 30
0.0
  9
$UCSORGLEFT
 10
0.0
 20
0.0
 30
0.0
  9
$UCSORGRIGHT
 10
0.0
 20
0.0
 30
0.0
  9
$UCSORGFRONT
 10
0.0
 20
0.0
 30
0.0
  9
$UCSORGBACK
 10
0.0
 20
0.0
 30
0.0
  9
$PUCSBASE
  2

  9
$PUCSNAME
  2

  9
$PUCSORG
 10
0.0
 20
0.0
 30
0.0
  9
$PUCSXDIR
 10
1.0
 20
0.0
 30
0.0
  9
$PUCSYDIR
 10
0.0
 20
1.0
 30
0.0
  9
$PUCSORTHOREF
  2

  9
$PUCSORTHOVIEW
 70
     0
  9
$PUCSORGTOP
 10
0.0
 20
0.0
 30
0.0
  9
$PUCSORGBOTTOM
 10
0.0
 20
0.0
 30
0.0
  9
$PUCSORGLEFT
 10
0.0
 20
0.0
 30
0.0
  9
$PUCSORGRIGHT
 10
0.0
 20
0.0
 30
0.0
  9
$PUCSORGFRONT
 10
0.0
 20
0.0
 30
0.0
  9
$PUCSORGBACK
 10
0.0
 20
0.0
 30
0.0
  9
$USERI1
 70
     3
  9
$USERI2
 70
     1
  9
$USERI3
 70
     1
  9
$USERI4
 70
     1
  9
$USERI5
 70
     1
  9
$USERR1
 40
1.0
  9
$USERR2
 40
3.0
  9
$USERR3
 40
3.0
  9
$USERR4
 40
1.5
  9
$USERR5
 40
10.0
  9
$WORLDVIEW
 70
     1
  9
$SHADEDGE
 70
     3
  9
$SHADEDIF
 70
    70
  9
$TILEMODE
 70
     1
  9
$MAXACTVP
 70
    16
  9
$PINSBASE
 10
0.0
 20
0.0
 30
0.0
  9
$PLIMCHECK
 70
     0
  9
$PEXTMIN
 10
1.000000000000000E+20
 20
1.000000000000000E+20
 30
1.000000000000000E+20
  9
$PEXTMAX
 10
-1.000000000000000E+20
 20
-1.000000000000000E+20
 30
-1.000000000000000E+20
  9
$PLIMMIN
 10
0.0
 20
0.0
  9
$PLIMMAX
 10
12.0
 20
9.0
  9
$UNITMODE
 70
     0
  9
$VISRETAIN
 70
     0
  9
$PLINEGEN
 70
     0
  9
$PSLTSCALE
 70
     0
  9
$TREEDEPTH
 70
     0
  9
$CMLSTYLE
  2
STANDARD
  9
$CMLJUST
 70
     0
  9
$CMLSCALE
 40
1.0
  9
$PROXYGRAPHICS
 70
     1
  9
$MEASUREMENT
 70
     0
  9
$CELWEIGHT
370
    -1
  9
$ENDCAPS
280
     0
  9
$JOINSTYLE
280
     0
  9
$LWDISPLAY
290
     0
  9
$INSUNITS
 70
     0
  9
$HYPERLINKBASE
  1

  9
$STYLESHEET
  1

  9
$XEDIT
290
     1
  9
$CEPSNTYPE
380
     0
  9
$PSTYLEMODE
290
     1
  9
$FINGERPRINTGUID
  2
{635BB1EA-724A-4C04-9F46-C8B6B581BDF0}
  9
$VERSIONGUID
  2
{23A35C83-BA00-0D4B-9642-DB3D454EA05D}
  9
$EXTNAMES
290
     1
  9
$PSVPSCALE
 40
0.0
  9
$OLESTARTUP
290
     0
  0
ENDSEC
  0
SECTION
  2
CLASSES
  0
CLASS
  1
ACDBDICTIONARYWDFLT
  2
AcDbDictionaryWithDefault
  3
ObjectDBX Classes
 90
        0
280
     0
281
     0
  0
CLASS
  1
MATERIAL
  2
AcDbMaterial
  3
ObjectDBX Classes
 90
     1153
280
     0
281
     0
  0
CLASS
  1
VISUALSTYLE
  2
AcDbVisualStyle
  3
ObjectDBX Classes
 90
     4095
280
     0
281
     0
  0
CLASS
  1
TABLESTYLE
  2
AcDbTableStyle
  3
ObjectDBX Classes
 90
     4095
280
     0
281
     0
  0
CLASS
  1
SCALE
  2
AcDbScale
  3
ObjectDBX Classes
 90
     1153
280
     0
281
     0
  0
CLASS
  1
MLEADERSTYLE
  2
AcDbMLeaderStyle
  3
ACDB_MLEADERSTYLE_CLASS
 90
     4095
280
     0
281
     0
  0
CLASS
  1
DICTIONARYVAR
  2
AcDbDictionaryVar
  3
ObjectDBX Classes
 90
        0
280
     0
281
     0
  0
CLASS
  1
CELLSTYLEMAP
  2
AcDbCellStyleMap
  3
ObjectDBX Classes
 90
     1152
280
     0
281
     0
  0
CLASS
  1
ACDBSECTIONVIEWSTYLE
  2
AcDbSectionViewStyle
  3
ObjectDBX Classes
 90
     1025
280
     0
281
     0
  0
CLASS
  1
ACDBDETAILVIEWSTYLE
  2
AcDbDetailViewStyle
  3
ObjectDBX Classes
 90
     1025
280
     0
281
     0
  0
CLASS
  1
SORTENTSTABLE
  2
AcDbSortentsTable
  3
ObjectDBX Classes
 90
    32768
280
     0
281
     0
  0
CLASS
  1
ACDBPLACEHOLDER
  2
AcDbPlaceHolder
  3
ObjectDBX Classes
 90
        0
280
     0
281
     0
  0
CLASS
  1
LAYOUT
  2
AcDbLayout
  3
ObjectDBX Classes
 90
        0
280
     0
281
     0
  0
ENDSEC
  0
SECTION
  2
TABLES
  0
TABLE
  2
VPORT
  5
2E
330
0
100
AcDbSymbolTable
 70
     1
1001
ACAD
1000
DbSaveVer
1071
      205
  0
VPORT
  5
2F
330
2E
100
AcDbSymbolTableRecord
100
AcDbViewportTableRecord
  2
*ACTIVE
 70
     0
 10
0.0
 20
0.0
 11
1.0
 21
1.0
 12
333.365065451895
 22
174.7224758642893
 13
0.0
 23
0.0
 14
0.5
 24
0.5
 15
10.0
 25
10.0
 16
0.0
 26
0.0
 36
1.0
 17
0.0
 27
0.0
 37
0.0
 40
339.2228687508664
 41
1.301690507152145
 42
50.0
 43
0.0
 44
0.0
 50
0.0
 51
0.0
 71
     0
 72
   500
 73
     1
 74
     0
 75
     1
 76
     0
 77
     0
 78
     0
281
     0
 65
     1
110
0.0
120
0.0
130
0.0
111
1.0
121
0.0
131
0.0
112
0.0
122
1.0
132
0.0
 79
     0
146
0.0
1001
ACAD_NAV_VCDISPLAY
1070
     3
  0
ENDTAB
  0
TABLE
  2
LTYPE
  5
29
330
0
100
AcDbSymbolTable
 70
     2
  0
LTYPE
  5
2A
330
29
100
AcDbSymbolTableRecord
100
AcDbLinetypeTableRecord
  2
BYBLOCK
 70
     0
  3

 72
    65
 73
     0
 40
0.0
  0
LTYPE
  5
2B
330
29
100
AcDbSymbolTableRecord
100
AcDbLinetypeTableRecord
  2
BYLAYER
 70
     0
  3

 72
    65
 73
     0
 40
0.0
  0
LTYPE
  5
14
330
29
100
AcDbSymbolTableRecord
100
AcDbLinetypeTableRecord
  2
CONTINUOUS
 70
     0
  3
実線
 72
    65
 73
     0
 40
0.0
  0
LTYPE
  5
17F
330
29
100
AcDbSymbolTableRecord
100
AcDbLinetypeTableRecord
  2
CENTER
 70
     0
  3
____ _ ____ _ ____ _ ____ _ ____ _ ____ _ ____
 72
    65
 73
     4
 40
2.0
 49
1.25
 74
     0
 49
-0.25
 74
     0
 49
0.25
 74
     0
 49
-0.25
 74
     0
  0
ENDTAB
  0
TABLE
  2
LAYER
  5
25
102
{ACAD_XDICTIONARY
360
3BD
102
}
330
0
100
AcDbSymbolTable
 70
     1
  0
LAYER
  5
4
102
{ACAD_XDICTIONARY
360
5
102
}
330
25
100
AcDbSymbolTableRecord
100
AcDbLayerTableRecord
  2
0
 70
     0
 62
     7
  6
CONTINUOUS
370
    -3
390
7
  0
ENDTAB
  0
TABLE
  2
STYLE
  5
26
330
0
100
AcDbSymbolTable
 70
     4
  0
STYLE
  5
27
330
26
100
AcDbSymbolTableRecord
100
AcDbTextStyleTableRecord
  2
STANDARD
 70
     0
 40
0.0
 41
1.0
 50
0.0
 71
     0
 42
5.0
  3
ROMANS
  4
bigfont.shx
  0
STYLE
  5
37
330
26
100
AcDbSymbolTableRecord
100
AcDbTextStyleTableRecord
  2
K
 70
     0
 40
0.0
 41
1.0
 50
0.0
 71
     0
 42
1.0
  3
ROMANS
  4
bigfont.shx
  0
STYLE
  5
4F
330
26
100
AcDbSymbolTableRecord
100
AcDbTextStyleTableRecord
  2
STYLE2
 70
     0
 40
0.0
 41
1.0
 50
0.0
 71
     0
 42
5.0
  3

  4

1001
ACAD
1000
DHPHSGothic-W5
1071
    32770
  0
STYLE
  5
3B9
330
26
100
AcDbSymbolTableRecord
100
AcDbTextStyleTableRecord
  2
BIGFONT
 70
     0
 40
3.0
 41
1.0
 50
0.0
 71
     0
 42
3.0
  3
txt
  4
extfont.shx
  0
ENDTAB
  0
TABLE
  2
VIEW
  5
2C
330
0
100
AcDbSymbolTable
 70
     0
  0
ENDTAB
  0
TABLE
  2
UCS
  5
2D
330
0
100
AcDbSymbolTable
 70
     0
  0
ENDTAB
  0
TABLE
  2
APPID
  5
34
330
0
100
AcDbSymbolTable
 70
     7
  0
APPID
  5
32
330
34
100
AcDbSymbolTableRecord
100
AcDbRegAppTableRecord
  2
ACAD
 70
     0
  0
APPID
  5
33
330
34
100
AcDbSymbolTableRecord
100
AcDbRegAppTableRecord
  2
ACAD_NAV_VCDISPLAY
 70
     0
  0
APPID
  5
3BA
330
34
100
AcDbSymbolTableRecord
100
AcDbRegAppTableRecord
  2
GENIUS_GENODEF_13
 70
     0
  0
APPID
  5
3BB
330
34
100
AcDbSymbolTableRecord
100
AcDbRegAppTableRecord
  2
GENIUS_GENOBJ-N-CEN_13
 70
     0
  0
APPID
  5
3BC
330
34
100
AcDbSymbolTableRecord
100
AcDbRegAppTableRecord
  2
GENIUS_GENCEN_19
 70
     0
  0
APPID
  5
FC5
330
34
100
AcDbSymbolTableRecord
100
AcDbRegAppTableRecord
  2
ACAD_PSEXT
 70
     0
  0
APPID
  5
166E
330
34
100
AcDbSymbolTableRecord
100
AcDbRegAppTableRecord
  2
ACAD_MLEADERVER
 70
     0
  0
ENDTAB
  0
TABLE
  2
DIMSTYLE
  5
35
330
0
100
AcDbSymbolTable
 70
     5
100
AcDbDimStyleTable
 71
     1
340
36
  0
DIMSTYLE
105
36
330
35
100
AcDbSymbolTableRecord
100
AcDbDimStyleTableRecord
  2
IMAO
 70
     0
 41
1.5
 42
1.0
 43
6.0
 44
1.0
 47
495.0
 73
     0
 74
     0
 77
     1
 78
     8
140
3.0
141
0.0
172
     1
174
     1
271
     2
272
     2
279
     2
284
     8
285
     8
286
     8
340
37
341
38
342
38
  0
DIMSTYLE
105
FC1
330
35
100
AcDbSymbolTableRecord
100
AcDbDimStyleTableRecord
  2
Standard
 70
     0
340
27
  0
DIMSTYLE
105
FC2
330
35
100
AcDbSymbolTableRecord
100
AcDbDimStyleTableRecord
  2
ISO-25
 70
     0
 41
2.5
 42
0.625
 43
3.75
 44
1.25
 73
     0
 74
     0
 77
     1
 78
     8
140
2.5
141
2.5
143
0.03937007874016
147
0.625
171
     3
172
     1
271
     2
272
     2
274
     3
278
    44
283
     0
284
     8
340
27
  0
DIMSTYLE
105
FC3
330
35
100
AcDbSymbolTableRecord
100
AcDbDimStyleTableRecord
  2
AM_ISO
 70
     0
  4
"
 41
2.5
 42
1.0
 43
10.0
 44
1.0
 47
0.1
 48
0.1
 73
     0
 74
     0
 77
     1
 78
     8
 79
     2
140
3.5
141
0.0
143
0.0393701
146
0.71
147
1.5
172
     1
176
   256
177
   256
178
     2
271
     2
272
     3
274
     4
283
     0
284
     8
340
27
371
    -1
372
    -1
  0
DIMSTYLE
105
FC4
330
35
100
AcDbSymbolTableRecord
100
AcDbDimStyleTableRecord
  2
AM_JIS
 70
     0
  4
"
 41
15.0
 42
10.0
 43
80.0
 44
10.0
 47
0.1
 48
0.1
 73
     0
 74
     0
 77
     3
 78
     8
 79
     2
140
30.0
141
0.0
143
0.0393701
146
0.71
147
5.0
172
     1
176
   256
177
   256
178
     2
271
     2
272
     2
283
     0
284
     8
340
27
341
FBB
342
FBB
371
    -1
372
    -1
  0
ENDTAB
  0
TABLE
  2
BLOCK_RECORD
  5
1
330
0
100
AcDbSymbolTable
 70
     3
  0
BLOCK_RECORD
  5
2
330
1
100
AcDbSymbolTableRecord
100
AcDbBlockTableRecord
  2
*MODEL_SPACE
340
1F
  0
BLOCK_RECORD
  5
21
330
1
100
AcDbSymbolTableRecord
100
AcDbBlockTableRecord
  2
*PAPER_SPACE
340
24
  0
BLOCK_RECORD
  5
50
330
1
100
AcDbSymbolTableRecord
100
AcDbBlockTableRecord
  2
_OPEN
340
0
  0
BLOCK_RECORD
  5
38
330
1
100
AcDbSymbolTableRecord
100
AcDbBlockTableRecord
  2
ARROW
340
0
  0
BLOCK_RECORD
  5
FBB
330
1
100
AcDbSymbolTableRecord
100
AcDbBlockTableRecord
  2
_Open30
340
0
  0
ENDTAB
  0
ENDSEC
  0
SECTION
  2
BLOCKS
  0
BLOCK
  5
3
330
2
100
AcDbEntity
  8
0
100
AcDbBlockBegin
  2
*MODEL_SPACE
 70
     0
 10
0.0
 20
0.0
 30
0.0
  3
*MODEL_SPACE
  1

  0
ENDBLK
  5
1E
330
2
100
AcDbEntity
  8
0
100
AcDbBlockEnd
  0
BLOCK
  5
22
330
21
100
AcDbEntity
 67
     1
  8
0
100
AcDbBlockBegin
  2
*PAPER_SPACE
 70
     0
 10
0.0
 20
0.0
 30
0.0
  3
*PAPER_SPACE
  1

  0
ENDBLK
  5
23
330
21
100
AcDbEntity
 67
     1
  8
0
100
AcDbBlockEnd
  0
BLOCK
  5
51
330
50
100
AcDbEntity
  8
0
100
AcDbBlockBegin
  2
_OPEN
 70
     0
 10
0.0
 20
0.0
 30
0.0
  3
_OPEN
  1

  0
LINE
  5
52
330
50
100
AcDbEntity
  8
0
  6
ByBlock
 62
     0
100
AcDbLine
 10
-1.0
 20
0.1666666666666666
 30
0.0
 11
0.0
 21
0.0
 31
0.0
  0
LINE
  5
53
330
50
100
AcDbEntity
  8
0
  6
ByBlock
 62
     0
100
AcDbLine
 10
0.0
 20
0.0
 30
0.0
 11
-1.0
 21
-0.1666666666666666
 31
0.0
  0
LINE
  5
54
330
50
100
AcDbEntity
  8
0
  6
ByBlock
 62
     0
100
AcDbLine
 10
0.0
 20
0.0
 30
0.0
 11
-1.0
 21
0.0
 31
0.0
  0
ENDBLK
  5
55
330
50
100
AcDbEntity
  8
0
100
AcDbBlockEnd
  0
BLOCK
  5
39
330
38
100
AcDbEntity
  8
0
100
AcDbBlockBegin
  2
ARROW
 70
     0
 10
1.0
 20
0.5
 30
0.0
  3
ARROW
  1

  0
LINE
  5
3A
330
38
100
AcDbEntity
  8
0
100
AcDbLine
 10
1.0
 20
0.5
 30
0.0
 11
-0.5000000000000214
 21
0.0980762113533018
 31
0.0
  0
LINE
  5
3B
330
38
100
AcDbEntity
  8
0
100
AcDbLine
 10
0.0
 20
0.5
 30
0.0
 11
1.0
 21
0.5
 31
0.0
  0
LINE
  5
3C
330
38
100
AcDbEntity
  8
0
100
AcDbLine
 10
1.0
 20
0.5
 30
0.0
 11
-0.4999999999999575
 21
0.9019237886467408
 31
0.0
  0
ENDBLK
  5
3D
330
38
100
AcDbEntity
  8
0
100
AcDbBlockEnd
  0
BLOCK
  5
FBC
330
FBB
100
AcDbEntity
  8
0
100
AcDbBlockBegin
  2
_Open30
 70
     0
 10
0.0
 20
0.0
 30
0.0
  3
_Open30
  1

  0
LINE
  5
FBD
330
FBB
100
AcDbEntity
  8
0
  6
ByBlock
 62
     0
370
    -2
100
AcDbLine
 10
-1.0
 20
0.26794919
 30
0.0
 11
0.0
 21
0.0
 31
0.0
  0
LINE
  5
FBE
330
FBB
100
AcDbEntity
  8
0
  6
ByBlock
 62
     0
370
    -2
100
AcDbLine
 10
0.0
 20
0.0
 30
0.0
 11
-1.0
 21
-0.26794919
 31
0.0
  0
LINE
  5
FBF
330
FBB
100
AcDbEntity
  8
0
  6
ByBlock
 62
     0
370
    -2
100
AcDbLine
 10
0.0
 20
0.0
 30
0.0
 11
-1.0
 21
0.0
 31
0.0
  0
ENDBLK
  5
FC0
330
FBB
100
AcDbEntity
  8
0
100
AcDbBlockEnd
  0
ENDSEC
  0
SECTION
  2
ENTITIES
  0
LINE
  5
12F1
330
2
100
AcDbEntity
  8
0
 62
     0
 48
0.2
100
AcDbLine
 10
214.8620129084481
 20
222.6116813470053
 30
0.0
 11
214.8620129084481
 21
190.1116813470053
 31
0.0
  0
LINE
  5
12F2
330
2
100
AcDbEntity
  8
0
 62
     0
 48
0.2
100
AcDbLine
 10
215.3620129084481
 20
223.1116813470053
 30
0.0
 11
214.8620129084481
 21
222.6116813470053
 31
0.0
  0
LINE
  5
12F3
330
2
100
AcDbEntity
  8
0
 62
     0
 48
0.2
100
AcDbLine
 10
224.8620129084482
 20
223.1116813470053
 30
0.0
 11
221.3620129084481
 21
223.1116813470053
 31
0.0
  0
LINE
  5
12F4
330
2
100
AcDbEntity
  8
0
 62
     0
 48
0.2
100
AcDbLine
 10
219.3620129084481
 20
223.1116813470053
 30
0.0
 11
215.3620129084481
 21
223.1116813470053
 31
0.0
  0
LINE
  5
12F5
330
2
100
AcDbEntity
  8
0
 62
     0
 48
0.2
100
AcDbLine
 10
221.3620129084481
 20
222.8616813470053
 30
0.0
 11
219.3620129084481
 21
222.8616813470053
 31
0.0
  0
LINE
  5
12F6
330
2
100
AcDbEntity
  8
0
 62
     0
 48
0.2
100
AcDbLine
 10
224.8620129084482
 20
189.6116813470053
 30
0.0
 11
221.3620129084481
 21
189.6116813470053
 31
0.0
  0
LINE
  5
12F7
330
2
100
AcDbEntity
  8
0
 62
     0
 48
0.2
100
AcDbLine
 10
219.3620129084481
 20
189.6116813470053
 30
0.0
 11
215.3620129084481
 21
189.6116813470053
 31
0.0
  0
LINE
  5
12F8
330
2
100
AcDbEntity
  8
0
 62
     0
 48
0.2
100
AcDbLine
 10
221.3620129084481
 20
189.8616813470053
 30
0.0
 11
219.3620129084481
 21
189.8616813470053
 31
0.0
  0
LINE
  5
12F9
330
2
100
AcDbEntity
  8
0
 62
     0
 48
0.2
100
AcDbLine
 10
214.8620129084481
 20
190.1116813470053
 30
0.0
 11
215.3620129084481
 21
189.6116813470053
 31
0.0
  0
LINE
  5
12FA
330
2
100
AcDbEntity
  8
0
 62
     0
 48
0.2
100
AcDbLine
 10
224.8620129084482
 20
223.1116813470053
 30
0.0
 11
224.8620129084482
 21
219.3616813470053
 31
0.0
  0
LINE
  5
12FB
330
2
100
AcDbEntity
  8
0
 62
     0
 48
0.2
100
AcDbLine
 10
224.8620129084482
 20
193.3616813470053
 30
0.0
 11
224.8620129084482
 21
189.6116813470053
 31
0.0
  0
LINE
  5
12FC
330
2
100
AcDbEntity
  8
0
 62
     0
 48
0.2
100
AcDbLine
 10
229.8620129084481
 20
220.8616813470048
 30
0.0
 11
229.8620129084481
 21
160.8616813470048
 31
0.0
  0
LINE
  5
12FD
330
2
100
AcDbEntity
  8
0
 62
     0
 48
0.2
100
AcDbLine
 10
224.8620129084482
 20
160.8616813470048
 30
0.0
 11
224.8620129084482
 21
220.8616813470048
 31
0.0
  0
CIRCLE
  5
12FE
330
2
100
AcDbEntity
  8
0
 62
     4
 48
0.2
100
AcDbCircle
 10
227.3620129084481
 20
261.3616813470053
 30
0.0
 40
1.5
  0
CIRCLE
  5
12FF
330
2
100
AcDbEntity
  8
0
 62
     0
 48
0.2
100
AcDbCircle
 10
227.3620129084481
 20
261.3616813470053
 30
0.0
 40
1.25
  0
LINE
  5
1300
330
2
100
AcDbEntity
  8
0
 62
     0
 48
0.2
100
AcDbLine
 10
224.8620129084482
 20
223.2616813470049
 30
0.0
 11
229.8620129084481
 21
223.2616813470049
 31
0.0
  0
LINE
  5
1301
330
2
100
AcDbEntity
  8
0
 62
     0
 48
0.2
100
AcDbLine
 10
229.8620129084481
 20
223.2616813470049
 30
0.0
 11
229.8620129084481
 21
158.4616813470052
 31
0.0
  0
LINE
  5
1302
330
2
100
AcDbEntity
  8
0
 62
     0
 48
0.2
100
AcDbLine
 10
229.8620129084481
 20
158.4616813470052
 30
0.0
 11
224.8620129084482
 21
158.4616813470052
 31
0.0
  0
LINE
  5
1303
330
2
100
AcDbEntity
  8
0
 62
     0
 48
0.2
100
AcDbLine
 10
224.8620129084482
 20
158.4616813470052
 30
0.0
 11
224.8620129084482
 21
223.2616813470049
 31
0.0
  0
LINE
  5
1304
330
2
100
AcDbEntity
  8
0
 62
     0
 48
0.2
100
AcDbLine
 10
229.8620129084481
 20
243.3616813470053
 30
0.0
 11
229.8620129084481
 21
230.4616813470052
 31
0.0
  0
LINE
  5
1305
330
2
100
AcDbEntity
  8
0
 62
     0
 48
0.2
100
AcDbLine
 10
229.8620129084481
 20
230.4616813470052
 30
0.0
 11
224.8620129084482
 21
230.4616813470052
 31
0.0
  0
LINE
  5
1306
330
2
100
AcDbEntity
  8
0
 62
     0
 48
0.2
100
AcDbLine
 10
224.8620129084482
 20
230.4616813470052
 30
0.0
 11
224.8620129084482
 21
292.2616813470053
 31
0.0
  0
LINE
  5
1307
330
2
100
AcDbEntity
  8
0
 62
     0
 48
0.2
100
AcDbLine
 10
224.8620129084482
 20
292.2616813470053
 30
0.0
 11
229.8620129084481
 21
292.2616813470053
 31
0.0
  0
LINE
  5
1308
330
2
100
AcDbEntity
  8
0
 62
     0
 48
0.2
100
AcDbLine
 10
229.8620129084481
 20
292.2616813470053
 30
0.0
 11
229.8620129084481
 21
279.3616813470053
 31
0.0
  0
LINE
  5
1309
330
2
100
AcDbEntity
  8
0
 62
     0
 48
0.2
100
AcDbLine
 10
214.8620129084481
 20
277.6116813470053
 30
0.0
 11
214.8620129084481
 21
245.1116813470053
 31
0.0
  0
LINE
  5
130A
330
2
100
AcDbEntity
  8
0
 62
     0
 48
0.2
100
AcDbLine
 10
215.3620129084481
 20
278.1116813470053
 30
0.0
 11
214.8620129084481
 21
277.6116813470053
 31
0.0
  0
LINE
  5
130B
330
2
100
AcDbEntity
  8
0
 62
     0
 48
0.2
100
AcDbLine
 10
215.3620129084481
 20
244.6116813470053
 30
0.0
 11
214.8620129084481
 21
245.1116813470053
 31
0.0
  0
LINE
  5
130C
330
2
100
AcDbEntity
  8
0
 62
     0
 48
0.2
100
AcDbLine
 10
379.8620129084481
 20
223.2616813470049
 30
0.0
 11
384.3620129084482
 21
223.2616813470049
 31
0.0
  0
LINE
  5
130D
330
2
100
AcDbEntity
  8
0
 62
     0
 48
0.2
100
AcDbLine
 10
384.3620129084482
 20
223.1116813470048
 30
0.0
 11
384.8620129084482
 21
223.1116813470048
 31
0.0
  0
LINE
  5
130E
330
2
100
AcDbEntity
  8
0
 62
     0
 48
0.2
100
AcDbLine
 10
384.8620129084482
 20
223.2616813470049
 30
0.0
 11
384.8620129084482
 21
190.861681347005
 31
0.0
  0
LINE
  5
130F
330
2
100
AcDbEntity
  8
0
 62
     0
 48
0.2
100
AcDbLine
 10
384.3620129084482
 20
223.2616813470049
 30
0.0
 11
384.3620129084482
 21
190.861681347005
 31
0.0
  0
LINE
  5
1310
330
2
100
AcDbEntity
  8
0
 62
     0
 48
0.2
100
AcDbLine
 10
386.8620129084482
 20
221.2616813470049
 30
0.0
 11
386.8620129084482
 21
160.4616813470052
 31
0.0
  0
LINE
  5
1311
330
2
100
AcDbEntity
  8
0
 62
     0
 48
0.2
100
AcDbLine
 10
384.8620129084482
 20
158.4616813470052
 30
0.0
 11
386.8620129084482
 21
160.4616813470052
 31
0.0
  0
LINE
  5
1312
330
2
100
AcDbEntity
  8
0
 62
     0
 48
0.2
100
AcDbLine
 10
384.8620129084482
 20
223.2616813470049
 30
0.0
 11
386.8620129084482
 21
221.2616813470049
 31
0.0
  0
LINE
  5
1313
330
2
100
AcDbEntity
  8
0
 62
     0
 48
0.2
100
AcDbLine
 10
384.8620129084482
 20
158.4616813470052
 30
0.0
 11
379.8620129084481
 21
158.4616813470052
 31
0.0
  0
LINE
  5
1314
330
2
100
AcDbEntity
  8
0
 62
     0
 48
0.2
100
AcDbLine
 10
379.8620129084481
 20
151.4616813470052
 30
0.0
 11
379.8620129084481
 21
223.2616813470049
 31
0.0
  0
LINE
  5
1315
330
2
100
AcDbEntity
  8
0
 62
     0
 48
0.2
100
AcDbLine
 10
230.3620129084482
 20
223.3616813470048
 30
0.0
 11
379.3620129084481
 21
223.3616813470048
 31
0.0
  0
LINE
  5
1316
330
2
100
AcDbEntity
  8
0
 62
     0
 48
0.2
100
AcDbLine
 10
379.3620129084481
 20
223.3616813470048
 30
0.0
 11
379.3620129084481
 21
158.3616813470048
 31
0.0
  0
LINE
  5
1317
330
2
100
AcDbEntity
  8
0
 62
     0
 48
0.2
100
AcDbLine
 10
379.3620129084481
 20
158.3616813470048
 30
0.0
 11
230.3620129084482
 21
158.3616813470048
 31
0.0
  0
LINE
  5
1318
330
2
100
AcDbEntity
  8
0
 62
     0
 48
0.2
100
AcDbLine
 10
230.3620129084482
 20
158.3616813470048
 30
0.0
 11
230.3620129084482
 21
223.3616813470048
 31
0.0
  0
LINE
  5
1319
330
2
100
AcDbEntity
  8
0
 62
     0
 48
0.2
100
AcDbLine
 10
379.3620129084481
 20
220.6116813470048
 30
0.0
 11
379.3620129084481
 21
161.1116813470048
 31
0.0
  0
LINE
  5
131A
330
2
100
AcDbEntity
  8
0
 62
     0
 48
0.2
100
AcDbLine
 10
230.3620129084482
 20
161.1116813470048
 30
0.0
 11
230.3620129084482
 21
220.6116813470048
 31
0.0
  0
LINE
  5
131B
330
2
100
AcDbEntity
  8
0
 62
     0
 48
0.2
100
AcDbLine
 10
419.862012908448
 20
223.3616813470053
 30
0.0
 11
473.862012908448
 21
223.3616813470053
 31
0.0
  0
ARC
  5
131C
330
2
100
AcDbEntity
  8
0
 62
     0
 48
0.2
100
AcDbCircle
 10
473.862012908448
 20
219.3616813470053
 30
0.0
 40
4.0
100
AcDbArc
 50
0.0
 51
90.0
  0
LINE
  5
131D
330
2
100
AcDbEntity
  8
0
 62
     0
 48
0.2
100
AcDbLine
 10
477.862012908448
 20
219.3616813470053
 30
0.0
 11
477.862012908448
 21
162.3616813470053
 31
0.0
  0
ARC
  5
131E
330
2
100
AcDbEntity
  8
0
 62
     0
 48
0.2
100
AcDbCircle
 10
473.862012908448
 20
162.3616813470053
 30
0.0
 40
4.0
100
AcDbArc
 50
270.0
 51
0.0
  0
LINE
  5
131F
330
2
100
AcDbEntity
  8
0
 62
     0
 48
0.2
100
AcDbLine
 10
473.862012908448
 20
158.3616813470053
 30
0.0
 11
419.862012908448
 21
158.3616813470053
 31
0.0
  0
ARC
  5
1320
330
2
100
AcDbEntity
  8
0
 62
     0
 48
0.2
100
AcDbCircle
 10
419.862012908448
 20
162.3616813470053
 30
0.0
 40
4.0
100
AcDbArc
 50
180.0
 51
270.0
  0
LINE
  5
1321
330
2
100
AcDbEntity
  8
0
 62
     0
 48
0.2
100
AcDbLine
 10
415.862012908448
 20
162.3616813470053
 30
0.0
 11
415.862012908448
 21
219.3616813470053
 31
0.0
  0
ARC
  5
1322
330
2
100
AcDbEntity
  8
0
 62
     0
 48
0.2
100
AcDbCircle
 10
419.862012908448
 20
219.3616813470053
 30
0.0
 40
4.0
100
AcDbArc
 50
90.0
 51
180.0
  0
LINE
  5
1323
330
2
100
AcDbEntity
  8
0
 62
     0
 48
0.2
100
AcDbLine
 10
230.3620129084482
 20
292.3616813470053
 30
0.0
 11
379.3620129084481
 21
292.3616813470053
 31
0.0
  0
LINE
  5
1324
330
2
100
AcDbEntity
  8
0
 62
     0
 48
0.2
100
AcDbLine
 10
379.3620129084481
 20
292.3616813470053
 30
0.0
 11
379.3620129084481
 21
230.3616813470053
 31
0.0
  0
LINE
  5
1325
330
2
100
AcDbEntity
  8
0
 62
     0
 48
0.2
100
AcDbLine
 10
379.3620129084481
 20
230.3616813470053
 30
0.0
 11
230.3620129084482
 21
230.3616813470053
 31
0.0
  0
LINE
  5
1326
330
2
100
AcDbEntity
  8
0
 62
     0
 48
0.2
100
AcDbLine
 10
230.3620129084482
 20
230.3616813470053
 30
0.0
 11
230.3620129084482
 21
292.3616813470053
 31
0.0
  0
LINE
  5
1327
330
2
100
AcDbEntity
  8
0
 62
     0
 48
0.2
100
AcDbLine
 10
379.8620129084481
 20
292.2616813470053
 30
0.0
 11
384.3620129084482
 21
292.2616813470053
 31
0.0
  0
LINE
  5
1328
330
2
100
AcDbEntity
  8
0
 62
     0
 48
0.2
100
AcDbLine
 10
384.8620129084482
 20
292.2616813470053
 30
0.0
 11
384.8620129084482
 21
230.4616813470052
 31
0.0
  0
LINE
  5
1329
330
2
100
AcDbEntity
  8
0
 62
     0
 48
0.2
100
AcDbLine
 10
384.3620129084482
 20
292.2616813470053
 30
0.0
 11
384.3620129084482
 21
230.4616813470052
 31
0.0
  0
LINE
  5
132A
330
2
100
AcDbEntity
  8
0
 62
     0
 48
0.2
100
AcDbLine
 10
386.8620129084482
 20
290.2616813470054
 30
0.0
 11
386.8620129084482
 21
232.4616813470054
 31
0.0
  0
LINE
  5
132B
330
2
100
AcDbEntity
  8
0
 62
     0
 48
0.2
100
AcDbLine
 10
384.8620129084482
 20
230.4616813470054
 30
0.0
 11
386.8620129084482
 21
232.4616813470054
 31
0.0
  0
LINE
  5
132C
330
2
100
AcDbEntity
  8
0
 62
     0
 48
0.2
100
AcDbLine
 10
384.8620129084482
 20
292.2616813470053
 30
0.0
 11
386.8620129084482
 21
290.2616813470054
 31
0.0
  0
LINE
  5
132D
330
2
100
AcDbEntity
  8
0
 62
     0
 48
0.2
100
AcDbLine
 10
384.3620129084482
 20
230.4616813470054
 30
0.0
 11
379.8620129084481
 21
230.4616813470052
 31
0.0
  0
LINE
  5
132E
330
2
100
AcDbEntity
  8
0
 62
     0
 48
0.2
100
AcDbLine
 10
379.8620129084481
 20
230.4616813470052
 30
0.0
 11
379.8620129084481
 21
292.2616813470053
 31
0.0
  0
LINE
  5
132F
330
2
100
AcDbEntity
  8
0
 62
     0
 48
0.2
100
AcDbLine
 10
224.8620129084482
 20
278.1116813470053
 30
0.0
 11
221.3620129084481
 21
278.1116813470053
 31
0.0
  0
LINE
  5
1330
330
2
100
AcDbEntity
  8
0
 62
     0
 48
0.2
100
AcDbLine
 10
219.3620129084481
 20
278.1116813470053
 30
0.0
 11
215.3620129084481
 21
278.1116813470053
 31
0.0
  0
LINE
  5
1331
330
2
100
AcDbEntity
  8
0
 62
     0
 48
0.2
100
AcDbLine
 10
221.3620129084481
 20
277.8616813470053
 30
0.0
 11
219.3620129084481
 21
277.8616813470053
 31
0.0
  0
LINE
  5
1332
330
2
100
AcDbEntity
  8
0
 62
     0
 48
0.2
100
AcDbLine
 10
224.8620129084482
 20
244.6116813470053
 30
0.0
 11
221.3620129084481
 21
244.6116813470053
 31
0.0
  0
LINE
  5
1333
330
2
100
AcDbEntity
  8
0
 62
     0
 48
0.2
100
AcDbLine
 10
219.3620129084481
 20
244.6116813470053
 30
0.0
 11
215.3620129084481
 21
244.6116813470053
 31
0.0
  0
LINE
  5
1334
330
2
100
AcDbEntity
  8
0
 62
     0
 48
0.2
100
AcDbLine
 10
221.3620129084481
 20
244.8616813470053
 30
0.0
 11
219.3620129084481
 21
244.8616813470053
 31
0.0
  0
LINE
  5
1335
330
2
100
AcDbEntity
  8
0
 62
     0
 48
0.2
100
AcDbLine
 10
224.8620129084482
 20
278.1116813470053
 30
0.0
 11
224.8620129084482
 21
274.3616813470057
 31
0.0
  0
LINE
  5
1336
330
2
100
AcDbEntity
  8
0
 62
     0
 48
0.2
100
AcDbLine
 10
224.8620129084482
 20
248.3616813470053
 30
0.0
 11
224.8620129084482
 21
244.6116813470053
 31
0.0
  0
LINE
  5
1337
330
2
100
AcDbEntity
  8
0
 62
     0
 48
0.5
100
AcDbLine
 10
426.8620129084481
 20
151.3616813470053
 30
0.0
 11
466.862012908448
 21
151.3616813470053
 31
0.0
  0
LINE
  5
1338
330
2
100
AcDbEntity
  8
0
 62
     0
 48
0.5
100
AcDbLine
 10
466.862012908448
 20
151.3616813470053
 30
0.0
 11
471.8620129084481
 21
158.3616813470053
 31
0.0
  0
LINE
  5
1339
330
2
100
AcDbEntity
  8
0
 62
     0
 48
0.5
100
AcDbLine
 10
426.8620129084481
 20
151.3616813470053
 30
0.0
 11
421.8620129084481
 21
158.3616813470053
 31
0.0
  0
LINE
  5
133A
330
2
100
AcDbEntity
  8
0
 62
     0
 48
0.5
100
AcDbLine
 10
230.3620129084482
 20
158.3616813470048
 30
0.0
 11
230.3620129084482
 21
151.3616813470053
 31
0.0
  0
LINE
  5
133B
330
2
100
AcDbEntity
  8
0
 62
     0
 48
0.5
100
AcDbLine
 10
379.3620129084481
 20
151.3616813470053
 30
0.0
 11
230.3620129084482
 21
151.3616813470053
 31
0.0
  0
LINE
  5
133C
330
2
100
AcDbEntity
  8
0
 62
     0
 48
0.5
100
AcDbLine
 10
379.3620129084481
 20
158.3616813470048
 30
0.0
 11
379.3620129084481
 21
151.3616813470053
 31
0.0
  0
LINE
  5
133D
330
2
100
AcDbEntity
  8
0
 62
     0
 48
0.5
100
AcDbLine
 10
225.8620129084481
 20
261.3616813470053
 30
0.0
 11
224.8620129084482
 21
261.3616813470053
 31
0.0
  0
LINE
  5
133E
330
2
100
AcDbEntity
  8
0
 62
     0
 48
0.5
100
AcDbLine
 10
215.3620129084481
 20
223.1116813470053
 30
0.0
 11
215.3620129084481
 21
189.6116813470053
 31
0.0
  0
LINE
  5
133F
330
2
100
AcDbEntity
  8
0
 62
     0
 48
0.5
100
AcDbLine
 10
219.3620129084481
 20
223.1116813470053
 30
0.0
 11
219.3620129084481
 21
189.6116813470053
 31
0.0
  0
LINE
  5
1340
330
2
100
AcDbEntity
  8
0
 62
     0
 48
0.5
100
AcDbLine
 10
221.3620129084481
 20
223.1116813470053
 30
0.0
 11
221.3620129084481
 21
189.6116813470053
 31
0.0
  0
LINE
  5
1341
330
2
100
AcDbEntity
  8
0
 62
     0
 48
0.5
100
AcDbLine
 10
215.3620129084481
 20
278.1116813470053
 30
0.0
 11
215.3620129084481
 21
244.6116813470053
 31
0.0
  0
LINE
  5
1342
330
2
100
AcDbEntity
  8
0
 62
     0
 48
0.5
100
AcDbLine
 10
219.3620129084481
 20
278.1116813470053
 30
0.0
 11
219.3620129084481
 21
244.6116813470057
 31
0.0
  0
LINE
  5
1343
330
2
100
AcDbEntity
  8
0
 62
     0
 48
0.5
100
AcDbLine
 10
221.3620129084481
 20
278.1116813470053
 30
0.0
 11
221.3620129084481
 21
244.6116813470057
 31
0.0
  0
LINE
  5
1344
330
2
100
AcDbEntity
  8
0
 62
     0
 48
0.5
100
AcDbLine
 10
379.3620129084481
 20
223.1116813470048
 30
0.0
 11
379.8620129084481
 21
223.1116813470048
 31
0.0
  0
LINE
  5
1345
330
2
100
AcDbEntity
  8
0
 62
     0
 48
0.5
100
AcDbLine
 10
379.8620129084481
 20
223.1116813470048
 30
0.0
 11
379.8620129084481
 21
158.6116813470048
 31
0.0
  0
LINE
  5
1346
330
2
100
AcDbEntity
  8
0
 62
     0
 48
0.5
100
AcDbLine
 10
379.8620129084481
 20
158.6116813470048
 30
0.0
 11
379.3620129084481
 21
158.6116813470048
 31
0.0
  0
LINE
  5
1347
330
2
100
AcDbEntity
  8
0
 62
     0
 48
0.5
100
AcDbLine
 10
379.3620129084481
 20
158.6116813470048
 30
0.0
 11
379.3620129084481
 21
223.1116813470048
 31
0.0
  0
LWPOLYLINE
  5
1348
330
2
100
AcDbEntity
  8
0
 62
     0
 48
0.5
100
AcDbPolyline
 90
        4
 70
     1
 43
0.0
 10
230.3620129084482
 20
223.1116813470048
 10
229.8620129084481
 20
223.1116813470048
 10
229.8620129084481
 20
158.6116813470048
 10
230.3620129084482
 20
158.6116813470048
  0
LWPOLYLINE
  5
1349
330
2
100
AcDbEntity
  8
0
 62
     0
 48
0.5
100
AcDbPolyline
 90
        4
 70
     1
 43
0.0
 10
379.3620129084481
 20
230.6116813470053
 10
379.3620129084481
 20
292.1116813470053
 10
379.8620129084481
 20
292.1116813470053
 10
379.8620129084481
 20
230.6116813470053
  0
LWPOLYLINE
  5
134A
330
2
100
AcDbEntity
  8
0
 62
     0
 48
0.5
100
AcDbPolyline
 90
        4
 70
     1
 43
0.0
 10
230.3620129084482
 20
230.6116813470053
 10
230.3620129084482
 20
292.1116813470053
 10
229.8620129084481
 20
292.1116813470053
 10
229.8620129084481
 20
230.6116813470053
  0
CIRCLE
  5
134B
330
2
100
AcDbEntity
  8
0
 62
     0
100
AcDbCircle
 10
196.3620129084481
 20
219.3616813470053
 30
0.0
 40
2.75
  0
LWPOLYLINE
  5
134C
330
2
100
AcDbEntity
  8
0
 62
     0
100
AcDbPolyline
 90
        6
 70
     1
 43
0.0
 10
195.784662639258
 20
218.3616813470053
 10
195.20731237007
 20
219.3616813470053
 10
195.784662639258
 20
220.3616813470053
 10
196.9393631776381
 20
220.3616813470053
 10
197.5167134468281
 20
219.3616813470053
 10
196.9393631776381
 20
218.3616813470053
  0
CIRCLE
  5
134D
330
2
100
AcDbEntity
  8
0
 62
     0
100
AcDbCircle
 10
142.3620129084481
 20
219.3616813470053
 30
0.0
 40
2.75
  0
LWPOLYLINE
  5
134E
330
2
100
AcDbEntity
  8
0
 62
     0
100
AcDbPolyline
 90
        6
 70
     1
 43
0.0
 10
142.9393631776381
 20
218.3616813470053
 10
143.5167134468281
 20
219.3616813470053
 10
142.9393631776381
 20
220.3616813470053
 10
141.7846626392581
 20
220.3616813470053
 10
141.2073123700699
 20
219.3616813470053
 10
141.7846626392581
 20
218.3616813470053
  0
CIRCLE
  5
134F
330
2
100
AcDbEntity
  8
0
 62
     0
100
AcDbCircle
 10
196.3620129084481
 20
162.3616813470053
 30
0.0
 40
2.75
  0
LWPOLYLINE
  5
1350
330
2
100
AcDbEntity
  8
0
 62
     0
100
AcDbPolyline
 90
        6
 70
     1
 43
0.0
 10
195.784662639258
 20
163.3616813470053
 10
195.20731237007
 20
162.3616813470053
 10
195.784662639258
 20
161.3616813470053
 10
196.9393631776381
 20
161.3616813470053
 10
197.5167134468281
 20
162.3616813470053
 10
196.9393631776381
 20
163.3616813470053
  0
CIRCLE
  5
1351
330
2
100
AcDbEntity
  8
0
 62
     0
100
AcDbCircle
 10
142.3620129084481
 20
162.3616813470053
 30
0.0
 40
2.75
  0
LWPOLYLINE
  5
1352
330
2
100
AcDbEntity
  8
0
 62
     0
100
AcDbPolyline
 90
        6
 70
     1
 43
0.0
 10
142.9393631776381
 20
163.3616813470053
 10
143.5167134468281
 20
162.3616813470053
 10
142.9393631776381
 20
161.3616813470053
 10
141.7846626392581
 20
161.3616813470053
 10
141.2073123700699
 20
162.3616813470053
 10
141.7846626392581
 20
163.3616813470053
  0
CIRCLE
  5
1353
330
2
100
AcDbEntity
  8
0
 62
     0
 48
0.2
100
AcDbCircle
 10
196.3620129084481
 20
219.3616813470053
 30
0.0
 40
3.0
  0
CIRCLE
  5
1354
330
2
100
AcDbEntity
  8
0
 62
     0
 48
0.2
100
AcDbCircle
 10
142.3620129084481
 20
219.3616813470053
 30
0.0
 40
3.0
  0
CIRCLE
  5
1355
330
2
100
AcDbEntity
  8
0
 62
     0
 48
0.2
100
AcDbCircle
 10
196.3620129084481
 20
162.3616813470053
 30
0.0
 40
3.0
  0
CIRCLE
  5
1356
330
2
100
AcDbEntity
  8
0
 62
     0
 48
0.2
100
AcDbCircle
 10
142.3620129084481
 20
162.3616813470053
 30
0.0
 40
3.0
  0
LWPOLYLINE
  5
1357
330
2
100
AcDbEntity
  8
0
 62
     0
 48
0.2
100
AcDbPolyline
 90
        8
 70
     1
 43
0.0
 10
196.3620129084481
 20
223.3616813470053
 10
142.3620129084481
 20
223.3616813470053
 42
0.4142135623730951
 10
138.3620129084481
 20
219.3616813470053
 10
138.3620129084481
 20
162.3616813470053
 42
0.4142135623730951
 10
142.3620129084481
 20
158.3616813470053
 10
196.3620129084481
 20
158.3616813470053
 42
0.4142135623730951
 10
200.3620129084481
 20
162.3616813470053
 10
200.3620129084481
 20
219.3616813470053
 42
0.4142135623730951
  0
LINE
  5
1358
330
2
100
AcDbEntity
  8
0
 62
     0
 48
0.5
100
AcDbLine
 10
189.3620129084481
 20
151.3616813470053
 30
0.0
 11
149.3620129084481
 21
151.3616813470053
 31
0.0
  0
LINE
  5
1359
330
2
100
AcDbEntity
  8
0
 62
     0
 48
0.5
100
AcDbLine
 10
149.3620129084481
 20
151.3616813470053
 30
0.0
 11
144.3620129084481
 21
158.3616813470053
 31
0.0
  0
LINE
  5
135A
330
2
100
AcDbEntity
  8
0
 62
     0
 48
0.5
100
AcDbLine
 10
189.3620129084481
 20
151.3616813470053
 30
0.0
 11
194.3620129084481
 21
158.3616813470053
 31
0.0
  0
CIRCLE
  5
135B
330
2
100
AcDbEntity
  8
0
 62
     0
100
AcDbCircle
 10
169.3620129084481
 20
206.3616813470053
 30
0.0
 40
16.75
  0
CIRCLE
  5
135C
330
2
100
AcDbEntity
  8
0
 62
     0
100
AcDbCircle
 10
169.3620129084481
 20
206.3616813470053
 30
0.0
 40
15.75
  0
CIRCLE
  5
135D
330
2
100
AcDbEntity
  8
0
 62
     0
100
AcDbCircle
 10
169.3620129084481
 20
206.3616813470053
 30
0.0
 40
12.0
  0
CIRCLE
  5
135E
330
2
100
AcDbEntity
  8
0
 62
     0
100
AcDbCircle
 10
169.3620129084481
 20
206.3616813470053
 30
0.0
 40
11.0
  0
LINE
  5
135F
330
2
100
AcDbEntity
  8
0
  6
CENTER
 62
     4
 48
2.0
100
AcDbLine
 10
149.3620129084481
 20
206.3616813470053
 30
0.0
 11
189.3620129084481
 21
206.3616813470053
 31
0.0
1001
GENIUS_GENOBJ-N-CEN_13
1002
{
1000
OWNER
1000
GEN
1002
}
1001
GENIUS_GENODEF_13
1002
{
1000
HIER
1070
     0
1002
}
1002
{
1000
MANEDIT
1070
     0
1002
}
1002
{
1000
NOSEL
1070
     0
1002
}
1002
{
1000
BEHIND
1070
     0
1002
}
1002
{
1000
OTHER
1070
     0
1002
}
1002
{
1000
REACTOR
1002
}
1001
GENIUS_GENCEN_19
1002
{
1040
3.0
1002
}
  0
LINE
  5
1360
330
2
100
AcDbEntity
  8
0
 62
     0
 48
0.2
100
AcDbLine
 10
229.8620129084481
 20
111.8616813470053
 30
0.0
 11
229.8620129084481
 21
124.7616813470054
 31
0.0
  0
LINE
  5
1361
330
2
100
AcDbEntity
  8
0
 62
     0
 48
0.2
100
AcDbLine
 10
229.8620129084481
 20
124.7616813470054
 30
0.0
 11
224.8620129084482
 21
124.7616813470054
 31
0.0
  0
LINE
  5
1362
330
2
100
AcDbEntity
  8
0
 62
     0
 48
0.2
100
AcDbLine
 10
224.8620129084482
 20
124.7616813470054
 30
0.0
 11
224.8620129084482
 21
62.96168134700518
 31
0.0
  0
LINE
  5
1363
330
2
100
AcDbEntity
  8
0
 62
     0
 48
0.2
100
AcDbLine
 10
224.8620129084482
 20
62.96168134700518
 30
0.0
 11
229.8620129084481
 21
62.96168134700518
 31
0.0
  0
LINE
  5
1364
330
2
100
AcDbEntity
  8
0
 62
     0
 48
0.2
100
AcDbLine
 10
229.8620129084481
 20
62.96168134700518
 30
0.0
 11
229.8620129084481
 21
75.86168134700528
 31
0.0
  0
LINE
  5
1365
330
2
100
AcDbEntity
  8
0
 62
     0
 48
0.2
100
AcDbLine
 10
214.8620129084481
 20
77.6116813470053
 30
0.0
 11
214.8620129084481
 21
110.1116813470053
 31
0.0
  0
LINE
  5
1366
330
2
100
AcDbEntity
  8
0
 62
     0
 48
0.2
100
AcDbLine
 10
215.3620129084481
 20
77.11168134700528
 30
0.0
 11
214.8620129084481
 21
77.6116813470053
 31
0.0
  0
LINE
  5
1367
330
2
100
AcDbEntity
  8
0
 62
     0
 48
0.2
100
AcDbLine
 10
215.3620129084481
 20
110.6116813470053
 30
0.0
 11
214.8620129084481
 21
110.1116813470053
 31
0.0
  0
LINE
  5
1368
330
2
100
AcDbEntity
  8
0
 62
     0
 48
0.2
100
AcDbLine
 10
230.3620129084482
 20
62.86168134700528
 30
0.0
 11
379.3620129084481
 21
62.86168134700528
 31
0.0
  0
LINE
  5
1369
330
2
100
AcDbEntity
  8
0
 62
     0
 48
0.2
100
AcDbLine
 10
379.3620129084481
 20
62.86168134700528
 30
0.0
 11
379.3620129084481
 21
124.8616813470053
 31
0.0
  0
LINE
  5
136A
330
2
100
AcDbEntity
  8
0
 62
     0
 48
0.2
100
AcDbLine
 10
379.3620129084481
 20
124.8616813470053
 30
0.0
 11
230.3620129084482
 21
124.8616813470053
 31
0.0
  0
LINE
  5
136B
330
2
100
AcDbEntity
  8
0
 62
     0
 48
0.2
100
AcDbLine
 10
230.3620129084482
 20
124.8616813470053
 30
0.0
 11
230.3620129084482
 21
62.86168134700528
 31
0.0
  0
LINE
  5
136C
330
2
100
AcDbEntity
  8
0
 62
     0
 48
0.2
100
AcDbLine
 10
379.8620129084481
 20
62.96168134700518
 30
0.0
 11
384.8620129084482
 21
62.96168134700518
 31
0.0
  0
LINE
  5
136D
330
2
100
AcDbEntity
  8
0
 62
     0
 48
0.2
100
AcDbLine
 10
384.8620129084482
 20
62.96168134700518
 30
0.0
 11
384.8620129084482
 21
72.11168134700209
 31
0.0
  0
LINE
  5
136E
330
2
100
AcDbEntity
  8
0
 62
     0
 48
0.2
100
AcDbLine
 10
384.8620129084482
 20
75.61168134700188
 30
0.0
 11
384.8620129084482
 21
112.1116813470021
 31
0.0
  0
LINE
  5
136F
330
2
100
AcDbEntity
  8
0
 62
     0
 48
0.2
100
AcDbLine
 10
384.8620129084482
 20
115.6116813470021
 30
0.0
 11
384.8620129084482
 21
124.7616813470054
 31
0.0
  0
LINE
  5
1370
330
2
100
AcDbEntity
  8
0
 62
     0
 48
0.2
100
AcDbLine
 10
386.8620129084482
 20
64.96168134700521
 30
0.0
 11
386.8620129084482
 21
122.7616813470056
 31
0.0
  0
LINE
  5
1371
330
2
100
AcDbEntity
  8
0
 62
     0
 48
0.2
100
AcDbLine
 10
384.8620129084482
 20
62.96168134700518
 30
0.0
 11
386.8620129084482
 21
64.96168134700521
 31
0.0
  0
LINE
  5
1372
330
2
100
AcDbEntity
  8
0
 62
     0
 48
0.2
100
AcDbLine
 10
384.8620129084482
 20
124.7616813470056
 30
0.0
 11
386.8620129084482
 21
122.7616813470056
 31
0.0
  0
LINE
  5
1373
330
2
100
AcDbEntity
  8
0
 62
     0
 48
0.2
100
AcDbLine
 10
384.8620129084482
 20
124.7616813470056
 30
0.0
 11
379.8620129084481
 21
124.7616813470054
 31
0.0
  0
LINE
  5
1374
330
2
100
AcDbEntity
  8
0
 62
     0
 48
0.2
100
AcDbLine
 10
379.8620129084481
 20
124.7616813470054
 30
0.0
 11
379.8620129084481
 21
62.96168134700518
 31
0.0
  0
LINE
  5
1375
330
2
100
AcDbEntity
  8
0
 62
     0
 48
0.2
100
AcDbLine
 10
224.8620129084482
 20
77.11168134700528
 30
0.0
 11
221.3620129084481
 21
77.11168134700528
 31
0.0
  0
LINE
  5
1376
330
2
100
AcDbEntity
  8
0
 62
     0
 48
0.2
100
AcDbLine
 10
219.3620129084481
 20
77.11168134700528
 30
0.0
 11
215.3620129084481
 21
77.11168134700528
 31
0.0
  0
LINE
  5
1377
330
2
100
AcDbEntity
  8
0
 62
     0
 48
0.2
100
AcDbLine
 10
221.3620129084481
 20
77.3616813470053
 30
0.0
 11
219.3620129084481
 21
77.3616813470053
 31
0.0
  0
LINE
  5
1378
330
2
100
AcDbEntity
  8
0
 62
     0
 48
0.2
100
AcDbLine
 10
224.8620129084482
 20
110.6116813470053
 30
0.0
 11
221.3620129084481
 21
110.6116813470053
 31
0.0
  0
LINE
  5
1379
330
2
100
AcDbEntity
  8
0
 62
     0
 48
0.2
100
AcDbLine
 10
219.3620129084481
 20
110.6116813470053
 30
0.0
 11
215.3620129084481
 21
110.6116813470053
 31
0.0
  0
LINE
  5
137A
330
2
100
AcDbEntity
  8
0
 62
     0
 48
0.2
100
AcDbLine
 10
221.3620129084481
 20
110.3616813470053
 30
0.0
 11
219.3620129084481
 21
110.3616813470053
 31
0.0
  0
LINE
  5
137B
330
2
100
AcDbEntity
  8
0
 62
     0
 48
0.2
100
AcDbLine
 10
224.8620129084482
 20
77.11168134700528
 30
0.0
 11
224.8620129084482
 21
80.86168134700484
 31
0.0
  0
LINE
  5
137C
330
2
100
AcDbEntity
  8
0
 62
     0
 48
0.2
100
AcDbLine
 10
224.8620129084482
 20
106.8616813470053
 30
0.0
 11
224.8620129084482
 21
110.6116813470053
 31
0.0
  0
LINE
  5
137D
330
2
100
AcDbEntity
  8
0
 62
     0
 48
0.5
100
AcDbLine
 10
215.3620129084481
 20
77.11168134700528
 30
0.0
 11
215.3620129084481
 21
110.6116813470053
 31
0.0
  0
LINE
  5
137E
330
2
100
AcDbEntity
  8
0
 62
     0
 48
0.5
100
AcDbLine
 10
219.3620129084481
 20
77.11168134700528
 30
0.0
 11
219.3620129084481
 21
110.6116813470048
 31
0.0
  0
LINE
  5
137F
330
2
100
AcDbEntity
  8
0
 62
     0
 48
0.5
100
AcDbLine
 10
221.3620129084481
 20
77.11168134700528
 30
0.0
 11
221.3620129084481
 21
110.6116813470048
 31
0.0
  0
LWPOLYLINE
  5
1380
330
2
100
AcDbEntity
  8
0
 62
     0
 48
0.5
100
AcDbPolyline
 90
        4
 70
     1
 43
0.0
 10
379.3620129084481
 20
124.6116813470053
 10
379.3620129084481
 20
63.11168134700529
 10
379.8620129084481
 20
63.11168134700529
 10
379.8620129084481
 20
124.6116813470053
  0
LWPOLYLINE
  5
1381
330
2
100
AcDbEntity
  8
0
 62
     0
 48
0.5
100
AcDbPolyline
 90
        4
 70
     1
 43
0.0
 10
230.3620129084482
 20
124.6116813470053
 10
230.3620129084482
 20
63.11168134700529
 10
229.8620129084481
 20
63.11168134700529
 10
229.8620129084481
 20
124.6116813470053
  0
CIRCLE
  5
1382
330
2
100
AcDbEntity
  8
0
 62
     0
 48
0.5
100
AcDbCircle
 10
304.8620129084481
 20
93.86168134700527
 30
0.0
 40
2.680000000000004
  0
CIRCLE
  5
1383
330
2
100
AcDbEntity
  8
0
 62
     4
 48
0.5
100
AcDbCircle
 10
304.8620129084481
 20
93.86168134700527
 30
0.0
 40
3.175000000000011
  0
CIRCLE
  5
1384
330
2
100
AcDbEntity
  8
0
 62
     0
 48
0.5
100
AcDbCircle
 10
269.8620129084481
 20
78.8616813470053
 30
0.0
 40
1.650000000000004
  0
CIRCLE
  5
1385
330
2
100
AcDbEntity
  8
0
 62
     4
 48
0.5
100
AcDbCircle
 10
269.8620129084481
 20
78.8616813470053
 30
0.0
 40
2.0
  0
CIRCLE
  5
1386
330
2
100
AcDbEntity
  8
0
 62
     0
 48
0.5
100
AcDbCircle
 10
269.8620129084481
 20
108.8616813470053
 30
0.0
 40
1.650000000000004
  0
CIRCLE
  5
1387
330
2
100
AcDbEntity
  8
0
 62
     4
 48
0.5
100
AcDbCircle
 10
269.8620129084481
 20
108.8616813470053
 30
0.0
 40
2.0
  0
CIRCLE
  5
1388
330
2
100
AcDbEntity
  8
0
 62
     0
 48
0.5
100
AcDbCircle
 10
339.8620129084481
 20
108.8616813470053
 30
0.0
 40
1.650000000000004
  0
CIRCLE
  5
1389
330
2
100
AcDbEntity
  8
0
 62
     4
 48
0.5
100
AcDbCircle
 10
339.8620129084481
 20
108.8616813470053
 30
0.0
 40
2.0
  0
CIRCLE
  5
138A
330
2
100
AcDbEntity
  8
0
 62
     0
 48
0.5
100
AcDbCircle
 10
339.8620129084481
 20
78.8616813470053
 30
0.0
 40
1.650000000000004
  0
CIRCLE
  5
138B
330
2
100
AcDbEntity
  8
0
 62
     4
 48
0.5
100
AcDbCircle
 10
339.8620129084481
 20
78.8616813470053
 30
0.0
 40
2.0
  0
LINE
  5
138C
330
2
100
AcDbEntity
  8
0
 62
     0
100
AcDbLine
 10
230.3620129084482
 20
118.8616813470053
 30
0.0
 11
379.3620129084481
 21
118.8616813470053
 31
0.0
  0
LINE
  5
138D
330
2
100
AcDbEntity
  8
0
 62
     0
100
AcDbLine
 10
379.8620129084481
 20
118.8616813470053
 30
0.0
 11
383.8620129084482
 21
118.8616813470053
 31
0.0
  0
LINE
  5
138E
330
2
100
AcDbEntity
  8
0
 62
     0
100
AcDbLine
 10
383.8620129084482
 20
113.8616813470053
 30
0.0
 11
379.8620129084481
 21
113.8616813470053
 31
0.0
  0
LINE
  5
138F
330
2
100
AcDbEntity
  8
0
 62
     0
100
AcDbLine
 10
379.3620129084481
 20
113.8616813470053
 30
0.0
 11
230.3620129084482
 21
113.8616813470053
 31
0.0
  0
LINE
  5
1390
330
2
100
AcDbEntity
  8
0
 62
     0
100
AcDbLine
 10
230.3620129084482
 20
68.86168134700529
 30
0.0
 11
379.3620129084481
 21
68.86168134700529
 31
0.0
  0
LINE
  5
1391
330
2
100
AcDbEntity
  8
0
 62
     0
100
AcDbLine
 10
379.3620129084481
 20
73.8616813470053
 30
0.0
 11
230.3620129084482
 21
73.8616813470053
 31
0.0
  0
LINE
  5
1392
330
2
100
AcDbEntity
  8
0
  6
CENTER
 62
     4
 48
2.0
100
AcDbLine
 10
265.8620129084482
 20
108.8616813470053
 30
0.0
 11
273.8620129084481
 21
108.8616813470053
 31
0.0
1001
GENIUS_GENOBJ-N-CEN_13
1002
{
1000
OWNER
1000
GEN
1002
}
1001
GENIUS_GENODEF_13
1002
{
1000
HIER
1070
     0
1002
}
1002
{
1000
MANEDIT
1070
     0
1002
}
1002
{
1000
NOSEL
1070
     0
1002
}
1002
{
1000
BEHIND
1070
     0
1002
}
1002
{
1000
OTHER
1070
     0
1002
}
1002
{
1000
REACTOR
1002
}
1001
GENIUS_GENCEN_19
1002
{
1040
3.0
1002
}
  0
LINE
  5
1393
330
2
100
AcDbEntity
  8
0
  6
CENTER
 62
     4
 48
2.0
100
AcDbLine
 10
269.8620129084481
 20
104.8616813470053
 30
0.0
 11
269.8620129084481
 21
112.8616813470053
 31
0.0
1001
GENIUS_GENODEF_13
1002
{
1000
HIER
1070
     0
1002
}
1002
{
1000
MANEDIT
1070
     0
1002
}
1002
{
1000
NOSEL
1070
     0
1002
}
1002
{
1000
BEHIND
1070
     0
1002
}
1002
{
1000
OTHER
1070
     0
1002
}
1002
{
1000
REACTOR
1002
}
1001
GENIUS_GENOBJ-N-CEN_13
1002
{
1000
OWNER
1000
GEN
1002
}
1001
GENIUS_GENCEN_19
1002
{
1040
3.0
1002
}
  0
LINE
  5
1394
330
2
100
AcDbEntity
  8
0
  6
CENTER
 62
     4
 48
2.0
100
AcDbLine
 10
335.8620129084481
 20
108.8616813470053
 30
0.0
 11
343.8620129084482
 21
108.8616813470053
 31
0.0
1001
GENIUS_GENOBJ-N-CEN_13
1002
{
1000
OWNER
1000
GEN
1002
}
1001
GENIUS_GENODEF_13
1002
{
1000
HIER
1070
     0
1002
}
1002
{
1000
MANEDIT
1070
     0
1002
}
1002
{
1000
NOSEL
1070
     0
1002
}
1002
{
1000
BEHIND
1070
     0
1002
}
1002
{
1000
OTHER
1070
     0
1002
}
1002
{
1000
REACTOR
1002
}
1001
GENIUS_GENCEN_19
1002
{
1040
3.0
1002
}
  0
LINE
  5
1395
330
2
100
AcDbEntity
  8
0
  6
CENTER
 62
     4
 48
2.0
100
AcDbLine
 10
339.8620129084481
 20
104.8616813470053
 30
0.0
 11
339.8620129084481
 21
112.8616813470053
 31
0.0
1001
GENIUS_GENODEF_13
1002
{
1000
HIER
1070
     0
1002
}
1002
{
1000
MANEDIT
1070
     0
1002
}
1002
{
1000
NOSEL
1070
     0
1002
}
1002
{
1000
BEHIND
1070
     0
1002
}
1002
{
1000
OTHER
1070
     0
1002
}
1002
{
1000
REACTOR
1002
}
1001
GENIUS_GENOBJ-N-CEN_13
1002
{
1000
OWNER
1000
GEN
1002
}
1001
GENIUS_GENCEN_19
1002
{
1040
3.0
1002
}
  0
LINE
  5
1396
330
2
100
AcDbEntity
  8
0
  6
CENTER
 62
     4
 48
2.0
100
AcDbLine
 10
265.8620129084482
 20
78.8616813470053
 30
0.0
 11
273.8620129084481
 21
78.8616813470053
 31
0.0
1001
GENIUS_GENOBJ-N-CEN_13
1002
{
1000
OWNER
1000
GEN
1002
}
1001
GENIUS_GENODEF_13
1002
{
1000
HIER
1070
     0
1002
}
1002
{
1000
MANEDIT
1070
     0
1002
}
1002
{
1000
NOSEL
1070
     0
1002
}
1002
{
1000
BEHIND
1070
     0
1002
}
1002
{
1000
OTHER
1070
     0
1002
}
1002
{
1000
REACTOR
1002
}
1001
GENIUS_GENCEN_19
1002
{
1040
3.0
1002
}
  0
LINE
  5
1397
330
2
100
AcDbEntity
  8
0
  6
CENTER
 62
     4
 48
2.0
100
AcDbLine
 10
269.8620129084481
 20
74.8616813470053
 30
0.0
 11
269.8620129084481
 21
82.86168134700529
 31
0.0
1001
GENIUS_GENODEF_13
1002
{
1000
HIER
1070
     0
1002
}
1002
{
1000
MANEDIT
1070
     0
1002
}
1002
{
1000
NOSEL
1070
     0
1002
}
1002
{
1000
BEHIND
1070
     0
1002
}
1002
{
1000
OTHER
1070
     0
1002
}
1002
{
1000
REACTOR
1002
}
1001
GENIUS_GENOBJ-N-CEN_13
1002
{
1000
OWNER
1000
GEN
1002
}
1001
GENIUS_GENCEN_19
1002
{
1040
3.0
1002
}
  0
LINE
  5
1398
330
2
100
AcDbEntity
  8
0
  6
CENTER
 62
     4
 48
2.0
100
AcDbLine
 10
335.8620129084481
 20
78.8616813470053
 30
0.0
 11
343.8620129084482
 21
78.8616813470053
 31
0.0
1001
GENIUS_GENOBJ-N-CEN_13
1002
{
1000
OWNER
1000
GEN
1002
}
1001
GENIUS_GENODEF_13
1002
{
1000
HIER
1070
     0
1002
}
1002
{
1000
MANEDIT
1070
     0
1002
}
1002
{
1000
NOSEL
1070
     0
1002
}
1002
{
1000
BEHIND
1070
     0
1002
}
1002
{
1000
OTHER
1070
     0
1002
}
1002
{
1000
REACTOR
1002
}
1001
GENIUS_GENCEN_19
1002
{
1040
3.0
1002
}
  0
LINE
  5
1399
330
2
100
AcDbEntity
  8
0
  6
CENTER
 62
     4
 48
2.0
100
AcDbLine
 10
339.8620129084481
 20
74.8616813470053
 30
0.0
 11
339.8620129084481
 21
82.86168134700529
 31
0.0
1001
GENIUS_GENODEF_13
1002
{
1000
HIER
1070
     0
1002
}
1002
{
1000
MANEDIT
1070
     0
1002
}
1002
{
1000
NOSEL
1070
     0
1002
}
1002
{
1000
BEHIND
1070
     0
1002
}
1002
{
1000
OTHER
1070
     0
1002
}
1002
{
1000
REACTOR
1002
}
1001
GENIUS_GENOBJ-N-CEN_13
1002
{
1000
OWNER
1000
GEN
1002
}
1001
GENIUS_GENCEN_19
1002
{
1040
3.0
1002
}
  0
LINE
  5
139A
330
2
100
AcDbEntity
  8
0
  6
CENTER
 62
     4
 48
2.0
100
AcDbLine
 10
304.8620129084481
 20
87.36168134700529
 30
0.0
 11
304.8620129084481
 21
100.3616813470053
 31
0.0
1001
GENIUS_GENODEF_13
1002
{
1000
HIER
1070
     0
1002
}
1002
{
1000
MANEDIT
1070
     0
1002
}
1002
{
1000
NOSEL
1070
     0
1002
}
1002
{
1000
BEHIND
1070
     0
1002
}
1002
{
1000
OTHER
1070
     0
1002
}
1002
{
1000
REACTOR
1002
}
1001
GENIUS_GENOBJ-N-CEN_13
1002
{
1000
OWNER
1000
GEN
1002
}
1001
GENIUS_GENCEN_19
1002
{
1040
3.0
1002
}
  0
LINE
  5
139B
330
2
100
AcDbEntity
  8
0
 62
     0
 48
0.5
100
AcDbLine
 10
210.8620129084481
 20
278.1116813470053
 30
0.0
 11
209.8620129084482
 21
277.1116813470053
 31
0.0
  0
LINE
  5
139C
330
2
100
AcDbEntity
  8
0
 62
     0
 48
0.5
100
AcDbLine
 10
214.8620129084481
 20
244.6116813470053
 30
0.0
 11
214.8620129084481
 21
278.1116813470053
 31
0.0
  0
LINE
  5
139D
330
2
100
AcDbEntity
  8
0
 62
     0
 48
0.5
100
AcDbLine
 10
214.8620129084481
 20
278.1116813470053
 30
0.0
 11
210.8620129084481
 21
278.1116813470053
 31
0.0
  0
LINE
  5
139E
330
2
100
AcDbEntity
  8
0
 62
     0
 48
0.5
100
AcDbLine
 10
209.8620129084482
 20
277.1116813470053
 30
0.0
 11
209.8620129084482
 21
245.6116813470053
 31
0.0
  0
LINE
  5
139F
330
2
100
AcDbEntity
  8
0
 62
     0
 48
0.5
100
AcDbLine
 10
210.8620129084481
 20
244.6116813470053
 30
0.0
 11
209.8620129084482
 21
245.6116813470053
 31
0.0
  0
LINE
  5
13A0
330
2
100
AcDbEntity
  8
0
 62
     0
 48
0.5
100
AcDbLine
 10
214.8620129084481
 20
244.6116813470053
 30
0.0
 11
210.8620129084481
 21
244.6116813470053
 31
0.0
  0
LINE
  5
13A1
330
2
100
AcDbEntity
  8
0
 62
     0
100
AcDbLine
 10
210.8620129084481
 20
278.1116813470053
 30
0.0
 11
210.8620129084481
 21
244.6116813470053
 31
0.0
  0
LINE
  5
13A2
330
2
100
AcDbEntity
  8
0
 62
     0
 48
0.5
100
AcDbLine
 10
210.8620129084481
 20
223.1116813470053
 30
0.0
 11
209.8620129084482
 21
222.1116813470053
 31
0.0
  0
LINE
  5
13A3
330
2
100
AcDbEntity
  8
0
 62
     0
 48
0.5
100
AcDbLine
 10
214.8620129084481
 20
189.6116813470053
 30
0.0
 11
214.8620129084481
 21
223.1116813470053
 31
0.0
  0
LINE
  5
13A4
330
2
100
AcDbEntity
  8
0
 62
     0
 48
0.5
100
AcDbLine
 10
214.8620129084481
 20
223.1116813470053
 30
0.0
 11
210.8620129084481
 21
223.1116813470053
 31
0.0
  0
LINE
  5
13A5
330
2
100
AcDbEntity
  8
0
 62
     0
 48
0.5
100
AcDbLine
 10
209.8620129084482
 20
222.1116813470053
 30
0.0
 11
209.8620129084482
 21
190.6116813470053
 31
0.0
  0
LINE
  5
13A6
330
2
100
AcDbEntity
  8
0
 62
     0
 48
0.5
100
AcDbLine
 10
210.8620129084481
 20
189.6116813470053
 30
0.0
 11
209.8620129084482
 21
190.6116813470053
 31
0.0
  0
LINE
  5
13A7
330
2
100
AcDbEntity
  8
0
 62
     0
 48
0.5
100
AcDbLine
 10
214.8620129084481
 20
189.6116813470053
 30
0.0
 11
210.8620129084481
 21
189.6116813470053
 31
0.0
  0
LINE
  5
13A8
330
2
100
AcDbEntity
  8
0
 62
     0
100
AcDbLine
 10
210.8620129084481
 20
223.1116813470053
 30
0.0
 11
210.8620129084481
 21
189.6116813470053
 31
0.0
  0
LINE
  5
13A9
330
2
100
AcDbEntity
  8
0
 62
     0
 48
0.5
100
AcDbLine
 10
210.8620129084481
 20
110.6116813470053
 30
0.0
 11
209.8620129084482
 21
109.6116813470053
 31
0.0
  0
LINE
  5
13AA
330
2
100
AcDbEntity
  8
0
 62
     0
 48
0.5
100
AcDbLine
 10
214.8620129084481
 20
77.11168134700528
 30
0.0
 11
214.8620129084481
 21
110.6116813470053
 31
0.0
  0
LINE
  5
13AB
330
2
100
AcDbEntity
  8
0
 62
     0
 48
0.5
100
AcDbLine
 10
214.8620129084481
 20
110.6116813470053
 30
0.0
 11
210.8620129084481
 21
110.6116813470053
 31
0.0
  0
LINE
  5
13AC
330
2
100
AcDbEntity
  8
0
 62
     0
 48
0.5
100
AcDbLine
 10
209.8620129084482
 20
109.6116813470053
 30
0.0
 11
209.8620129084482
 21
78.1116813470053
 31
0.0
  0
LINE
  5
13AD
330
2
100
AcDbEntity
  8
0
 62
     0
 48
0.5
100
AcDbLine
 10
210.8620129084481
 20
77.11168134700528
 30
0.0
 11
209.8620129084482
 21
78.1116813470053
 31
0.0
  0
LINE
  5
13AE
330
2
100
AcDbEntity
  8
0
 62
     0
 48
0.5
100
AcDbLine
 10
214.8620129084481
 20
77.11168134700528
 30
0.0
 11
210.8620129084481
 21
77.11168134700528
 31
0.0
  0
LINE
  5
13AF
330
2
100
AcDbEntity
  8
0
 62
     0
100
AcDbLine
 10
210.8620129084481
 20
110.6116813470053
 30
0.0
 11
210.8620129084481
 21
77.11168134700528
 31
0.0
  0
LINE
  5
13B0
330
2
100
AcDbEntity
  8
0
 62
     0
100
AcDbLine
 10
386.8620129084482
 20
190.861681347005
 30
0.0
 11
384.3620129084482
 21
190.861681347005
 31
0.0
  0
LINE
  5
13B1
330
2
100
AcDbEntity
  8
0
 62
     0
100
AcDbLine
 10
384.8620129084482
 20
158.4616813470052
 30
0.0
 11
384.8620129084482
 21
190.861681347005
 31
0.0
  0
LINE
  5
13B2
330
2
100
AcDbEntity
  8
0
 62
     0
 48
0.2
100
AcDbLine
 10
384.3620129084482
 20
292.1116813470053
 30
0.0
 11
384.8620129084482
 21
292.1116813470053
 31
0.0
  0
LINE
  5
13B3
330
2
100
AcDbEntity
  8
0
 62
     0
 48
0.2
100
AcDbLine
 10
384.3620129084482
 20
230.6116813470057
 30
0.0
 11
384.8620129084482
 21
230.6116813470057
 31
0.0
  0
CIRCLE
  5
13B4
330
2
100
AcDbEntity
  8
0
 62
     0
 48
0.5
100
AcDbCircle
 10
237.3620129084482
 20
81.36168134700531
 30
0.0
 40
1.650000000000004
  0
CIRCLE
  5
13B5
330
2
100
AcDbEntity
  8
0
 62
     4
 48
0.5
100
AcDbCircle
 10
237.3620129084482
 20
81.36168134700531
 30
0.0
 40
2.0
  0
CIRCLE
  5
13B6
330
2
100
AcDbEntity
  8
0
 62
     0
 48
0.5
100
AcDbCircle
 10
237.3620129084482
 20
106.3616813470053
 30
0.0
 40
1.650000000000004
  0
CIRCLE
  5
13B7
330
2
100
AcDbEntity
  8
0
 62
     4
 48
0.5
100
AcDbCircle
 10
237.3620129084482
 20
106.3616813470053
 30
0.0
 40
2.0
  0
CIRCLE
  5
13B8
330
2
100
AcDbEntity
  8
0
 62
     0
 48
0.5
100
AcDbCircle
 10
372.3620129084482
 20
106.3616813470053
 30
0.0
 40
1.650000000000004
  0
CIRCLE
  5
13B9
330
2
100
AcDbEntity
  8
0
 62
     4
 48
0.5
100
AcDbCircle
 10
372.3620129084482
 20
106.3616813470053
 30
0.0
 40
2.0
  0
CIRCLE
  5
13BA
330
2
100
AcDbEntity
  8
0
 62
     0
 48
0.5
100
AcDbCircle
 10
372.3620129084482
 20
81.36168134700531
 30
0.0
 40
1.650000000000004
  0
CIRCLE
  5
13BB
330
2
100
AcDbEntity
  8
0
 62
     4
 48
0.5
100
AcDbCircle
 10
372.3620129084482
 20
81.36168134700531
 30
0.0
 40
2.0
  0
LINE
  5
13BC
330
2
100
AcDbEntity
  8
0
 62
     0
100
AcDbLine
 10
415.862012908448
 20
190.8616813470053
 30
0.0
 11
477.862012908448
 21
190.8616813470053
 31
0.0
  0
LINE
  5
13BD
330
2
100
AcDbEntity
  8
0
  6
CENTER
 62
     4
 48
2.0
100
AcDbLine
 10
233.3620129084482
 20
106.3616813470053
 30
0.0
 11
241.3620129084482
 21
106.3616813470053
 31
0.0
1001
GENIUS_GENODEF_13
1002
{
1000
HIER
1070
     0
1002
}
1002
{
1000
MANEDIT
1070
     0
1002
}
1002
{
1000
NOSEL
1070
     0
1002
}
1002
{
1000
BEHIND
1070
     0
1002
}
1002
{
1000
OTHER
1070
     0
1002
}
1002
{
1000
REACTOR
1002
}
1001
GENIUS_GENOBJ-N-CEN_13
1002
{
1000
OWNER
1000
GEN
1002
}
1001
GENIUS_GENCEN_19
1002
{
1040
3.0
1002
}
  0
LINE
  5
13BE
330
2
100
AcDbEntity
  8
0
  6
CENTER
 62
     4
 48
2.0
100
AcDbLine
 10
237.3620129084482
 20
102.3616813470053
 30
0.0
 11
237.3620129084482
 21
110.3616813470053
 31
0.0
1001
GENIUS_GENODEF_13
1002
{
1000
HIER
1070
     0
1002
}
1002
{
1000
MANEDIT
1070
     0
1002
}
1002
{
1000
NOSEL
1070
     0
1002
}
1002
{
1000
BEHIND
1070
     0
1002
}
1002
{
1000
OTHER
1070
     0
1002
}
1002
{
1000
REACTOR
1002
}
1001
GENIUS_GENOBJ-N-CEN_13
1002
{
1000
OWNER
1000
GEN
1002
}
1001
GENIUS_GENCEN_19
1002
{
1040
3.0
1002
}
  0
LINE
  5
13BF
330
2
100
AcDbEntity
  8
0
  6
CENTER
 62
     4
 48
2.0
100
AcDbLine
 10
233.3620129084482
 20
81.36168134700531
 30
0.0
 11
241.3620129084482
 21
81.36168134700531
 31
0.0
1001
GENIUS_GENODEF_13
1002
{
1000
HIER
1070
     0
1002
}
1002
{
1000
MANEDIT
1070
     0
1002
}
1002
{
1000
NOSEL
1070
     0
1002
}
1002
{
1000
BEHIND
1070
     0
1002
}
1002
{
1000
OTHER
1070
     0
1002
}
1002
{
1000
REACTOR
1002
}
1001
GENIUS_GENOBJ-N-CEN_13
1002
{
1000
OWNER
1000
GEN
1002
}
1001
GENIUS_GENCEN_19
1002
{
1040
3.0
1002
}
  0
LINE
  5
13C0
330
2
100
AcDbEntity
  8
0
  6
CENTER
 62
     4
 48
2.0
100
AcDbLine
 10
237.3620129084482
 20
85.36168134700529
 30
0.0
 11
237.3620129084482
 21
77.3616813470053
 31
0.0
1001
GENIUS_GENODEF_13
1002
{
1000
HIER
1070
     0
1002
}
1002
{
1000
MANEDIT
1070
     0
1002
}
1002
{
1000
NOSEL
1070
     0
1002
}
1002
{
1000
BEHIND
1070
     0
1002
}
1002
{
1000
OTHER
1070
     0
1002
}
1002
{
1000
REACTOR
1002
}
1001
GENIUS_GENOBJ-N-CEN_13
1002
{
1000
OWNER
1000
GEN
1002
}
1001
GENIUS_GENCEN_19
1002
{
1040
3.0
1002
}
  0
LINE
  5
13C1
330
2
100
AcDbEntity
  8
0
  6
CENTER
 62
     4
 48
2.0
100
AcDbLine
 10
376.3620129084482
 20
106.3616813470053
 30
0.0
 11
368.3620129084482
 21
106.3616813470053
 31
0.0
1001
GENIUS_GENODEF_13
1002
{
1000
HIER
1070
     0
1002
}
1002
{
1000
MANEDIT
1070
     0
1002
}
1002
{
1000
NOSEL
1070
     0
1002
}
1002
{
1000
BEHIND
1070
     0
1002
}
1002
{
1000
OTHER
1070
     0
1002
}
1002
{
1000
REACTOR
1002
}
1001
GENIUS_GENOBJ-N-CEN_13
1002
{
1000
OWNER
1000
GEN
1002
}
1001
GENIUS_GENCEN_19
1002
{
1040
3.0
1002
}
  0
LINE
  5
13C2
330
2
100
AcDbEntity
  8
0
  6
CENTER
 62
     4
 48
2.0
100
AcDbLine
 10
372.3620129084482
 20
102.3616813470053
 30
0.0
 11
372.3620129084482
 21
110.3616813470053
 31
0.0
1001
GENIUS_GENODEF_13
1002
{
1000
HIER
1070
     0
1002
}
1002
{
1000
MANEDIT
1070
     0
1002
}
1002
{
1000
NOSEL
1070
     0
1002
}
1002
{
1000
BEHIND
1070
     0
1002
}
1002
{
1000
OTHER
1070
     0
1002
}
1002
{
1000
REACTOR
1002
}
1001
GENIUS_GENOBJ-N-CEN_13
1002
{
1000
OWNER
1000
GEN
1002
}
1001
GENIUS_GENCEN_19
1002
{
1040
3.0
1002
}
  0
LINE
  5
13C3
330
2
100
AcDbEntity
  8
0
  6
CENTER
 62
     4
 48
2.0
100
AcDbLine
 10
376.3620129084482
 20
81.36168134700531
 30
0.0
 11
368.3620129084482
 21
81.36168134700531
 31
0.0
1001
GENIUS_GENODEF_13
1002
{
1000
HIER
1070
     0
1002
}
1002
{
1000
MANEDIT
1070
     0
1002
}
1002
{
1000
NOSEL
1070
     0
1002
}
1002
{
1000
BEHIND
1070
     0
1002
}
1002
{
1000
OTHER
1070
     0
1002
}
1002
{
1000
REACTOR
1002
}
1001
GENIUS_GENOBJ-N-CEN_13
1002
{
1000
OWNER
1000
GEN
1002
}
1001
GENIUS_GENCEN_19
1002
{
1040
3.0
1002
}
  0
LINE
  5
13C4
330
2
100
AcDbEntity
  8
0
  6
CENTER
 62
     4
 48
2.0
100
AcDbLine
 10
372.3620129084482
 20
85.36168134700529
 30
0.0
 11
372.3620129084482
 21
77.3616813470053
 31
0.0
1001
GENIUS_GENODEF_13
1002
{
1000
HIER
1070
     0
1002
}
1002
{
1000
MANEDIT
1070
     0
1002
}
1002
{
1000
NOSEL
1070
     0
1002
}
1002
{
1000
BEHIND
1070
     0
1002
}
1002
{
1000
OTHER
1070
     0
1002
}
1002
{
1000
REACTOR
1002
}
1001
GENIUS_GENOBJ-N-CEN_13
1002
{
1000
OWNER
1000
GEN
1002
}
1001
GENIUS_GENCEN_19
1002
{
1040
3.0
1002
}
  0
LINE
  5
13C5
330
2
100
AcDbEntity
  8
0
  6
CENTER
 62
     4
 48
2.0
100
AcDbLine
 10
227.3620129084481
 20
257.8616813470053
 30
0.0
 11
227.3620129084481
 21
264.8616813470053
 31
0.0
1001
GENIUS_GENODEF_13
1002
{
1000
HIER
1070
     0
1002
}
1002
{
1000
MANEDIT
1070
     0
1002
}
1002
{
1000
NOSEL
1070
     0
1002
}
1002
{
1000
BEHIND
1070
     0
1002
}
1002
{
1000
OTHER
1070
     0
1002
}
1002
{
1000
REACTOR
1002
}
1001
GENIUS_GENOBJ-N-CEN_13
1002
{
1000
OWNER
1000
GEN
1002
}
1001
GENIUS_GENCEN_19
1002
{
1040
3.0
1002
}
  0
LWPOLYLINE
  5
13C6
330
2
100
AcDbEntity
  8
0
 62
     0
100
AcDbPolyline
 90
        4
 70
     1
 43
0.0
 10
383.8620129084482
 20
158.4616813470052
 10
384.3620129084482
 20
158.4616813470052
 10
384.3620129084482
 20
151.6616813470057
 10
383.8620129084482
 20
151.6616813470057
  0
LINE
  5
13C7
330
2
100
AcDbEntity
  8
0
 62
     0
100
AcDbLine
 10
386.6620129084474
 20
155.6616813470054
 30
0.0
 11
386.0288555505865
 21
155.1272176274292
 31
0.0
  0
LINE
  5
13C8
330
2
100
AcDbEntity
  8
0
 62
     0
100
AcDbLine
 10
385.2620129084478
 20
155.5667359861859
 30
0.0
 11
384.7620129084478
 21
155.2647893820585
 31
0.0
  0
LWPOLYLINE
  5
13C9
330
2
100
AcDbEntity
  8
0
 62
     0
100
AcDbPolyline
 90
        6
 70
     1
 43
0.0
 10
386.6620129084474
 20
156.411681347005
 10
386.6620129084474
 20
154.9116813470055
 42
-0.4142135623730951
 10
385.6620129084474
 20
153.9116813470054
 10
385.2620129084478
 20
153.9116813470054
 10
385.2620129084478
 20
157.4116813470054
 10
385.6620129084474
 20
157.411681347005
 42
-0.4142135623730951
  0
LWPOLYLINE
  5
13CA
330
2
100
AcDbEntity
  8
0
 62
     0
100
AcDbPolyline
 90
        4
 70
     1
 43
0.0
 10
384.3620129084482
 20
157.6616813470054
 10
384.3620129084482
 20
153.6616813470054
 10
384.7620129084478
 20
153.6616813470054
 10
384.7620129084478
 20
157.6616813470054
  0
LINE
  5
13CB
330
2
100
AcDbEntity
  8
0
 62
     0
100
AcDbLine
 10
384.7620129084478
 20
157.4116813470054
 30
0.0
 11
384.7620129084478
 21
153.9116813470054
 31
0.0
  0
LINE
  5
13CC
330
2
100
AcDbEntity
  8
0
 62
     0
100
AcDbLine
 10
384.7620129084478
 20
153.9116813470054
 30
0.0
 11
385.2620129084478
 21
153.9116813470054
 31
0.0
  0
LINE
  5
13CD
330
2
100
AcDbEntity
  8
0
 62
     0
100
AcDbLine
 10
385.2620129084478
 20
153.9116813470054
 30
0.0
 11
385.2620129084478
 21
157.4116813470054
 31
0.0
  0
LINE
  5
13CE
330
2
100
AcDbEntity
  8
0
 62
     0
100
AcDbLine
 10
385.2620129084478
 20
157.4116813470054
 30
0.0
 11
384.7620129084478
 21
157.4116813470054
 31
0.0
  0
LINE
  5
13CF
330
2
100
AcDbEntity
  8
0
 62
     0
100
AcDbLine
 10
386.6620129084474
 20
155.6616813470054
 30
0.0
 11
386.0288555505865
 21
156.1961450665817
 31
0.0
  0
LINE
  5
13D0
330
2
100
AcDbEntity
  8
0
 62
     0
100
AcDbLine
 10
385.2620129084478
 20
156.1508350802992
 30
0.0
 11
384.7620129084478
 21
155.8488884761718
 31
0.0
  0
LINE
  5
13D1
330
2
100
AcDbEntity
  8
0
 62
     0
100
AcDbLine
 10
384.3620129084482
 20
156.6616813470054
 30
0.0
 11
384.3620129084482
 21
154.6616813470054
 31
0.0
  0
LINE
  5
13D2
330
2
100
AcDbEntity
  8
0
 62
     0
100
AcDbLine
 10
383.8620129084482
 20
69.94901543099331
 30
0.0
 11
384.3620129084482
 21
69.9490154309924
 31
0.0
  0
LINE
  5
13D3
330
2
100
AcDbEntity
  8
0
 62
     0
100
AcDbLine
 10
383.8620129084482
 20
117.7743472630172
 30
0.0
 11
384.3620129084482
 21
117.7743472630172
 31
0.0
  0
LINE
  5
13D4
330
2
100
AcDbEntity
  8
0
 62
     0
 48
0.2
100
AcDbLine
 10
383.8620129084482
 20
117.7743472630181
 30
0.0
 11
383.8620129084482
 21
68.86168134700529
 31
0.0
  0
LINE
  5
13D5
330
2
100
AcDbEntity
  8
0
 62
     0
 48
0.2
100
AcDbLine
 10
384.3620129084482
 20
117.7743472630181
 30
0.0
 11
384.3620129084482
 21
69.9490154309924
 31
0.0
  0
LINE
  5
13D6
330
2
100
AcDbEntity
  8
0
 62
     0
100
AcDbLine
 10
386.6620129084474
 20
113.8616813470021
 30
0.0
 11
386.0288555505865
 21
113.3272176274258
 31
0.0
  0
LINE
  5
13D7
330
2
100
AcDbEntity
  8
0
 62
     0
100
AcDbLine
 10
385.2620129084478
 20
113.7667359861825
 30
0.0
 11
384.7620129084478
 21
113.4647893820552
 31
0.0
  0
LWPOLYLINE
  5
13D8
330
2
100
AcDbEntity
  8
0
 62
     0
100
AcDbPolyline
 90
        6
 70
     1
 43
0.0
 10
386.6620129084474
 20
114.6116813470016
 10
386.6620129084474
 20
113.1116813470021
 42
-0.4142135623730951
 10
385.6620129084474
 20
112.1116813470021
 10
385.2620129084478
 20
112.1116813470021
 10
385.2620129084478
 20
115.6116813470021
 10
385.6620129084474
 20
115.6116813470016
 42
-0.4142135623730951
  0
LWPOLYLINE
  5
13D9
330
2
100
AcDbEntity
  8
0
 62
     0
100
AcDbPolyline
 90
        4
 70
     1
 43
0.0
 10
384.3620129084482
 20
115.8616813470021
 10
384.3620129084482
 20
111.8616813470021
 10
384.7620129084478
 20
111.8616813470021
 10
384.7620129084478
 20
115.8616813470021
  0
LINE
  5
13DA
330
2
100
AcDbEntity
  8
0
 62
     0
100
AcDbLine
 10
384.7620129084478
 20
115.6116813470021
 30
0.0
 11
384.7620129084478
 21
112.1116813470021
 31
0.0
  0
LINE
  5
13DB
330
2
100
AcDbEntity
  8
0
 62
     0
100
AcDbLine
 10
384.7620129084478
 20
112.1116813470021
 30
0.0
 11
385.2620129084478
 21
112.1116813470021
 31
0.0
  0
LINE
  5
13DC
330
2
100
AcDbEntity
  8
0
 62
     0
100
AcDbLine
 10
385.2620129084478
 20
112.1116813470021
 30
0.0
 11
385.2620129084478
 21
115.6116813470021
 31
0.0
  0
LINE
  5
13DD
330
2
100
AcDbEntity
  8
0
 62
     0
100
AcDbLine
 10
385.2620129084478
 20
115.6116813470021
 30
0.0
 11
384.7620129084478
 21
115.6116813470021
 31
0.0
  0
LINE
  5
13DE
330
2
100
AcDbEntity
  8
0
 62
     0
100
AcDbLine
 10
386.6620129084474
 20
113.8616813470021
 30
0.0
 11
386.0288555505865
 21
114.3961450665783
 31
0.0
  0
LINE
  5
13DF
330
2
100
AcDbEntity
  8
0
 62
     0
100
AcDbLine
 10
385.2620129084478
 20
114.3508350802958
 30
0.0
 11
384.7620129084478
 21
114.0488884761685
 31
0.0
  0
LINE
  5
13E0
330
2
100
AcDbEntity
  8
0
 62
     0
100
AcDbLine
 10
384.3620129084482
 20
114.8616813470021
 30
0.0
 11
384.3620129084482
 21
112.8616813470021
 31
0.0
  0
LINE
  5
13E1
330
2
100
AcDbEntity
  8
0
 62
     0
100
AcDbLine
 10
386.6620129084474
 20
73.86168134700209
 30
0.0
 11
386.0288555505865
 21
73.32721762742584
 31
0.0
  0
LINE
  5
13E2
330
2
100
AcDbEntity
  8
0
 62
     0
100
AcDbLine
 10
385.2620129084478
 20
73.76673598618253
 30
0.0
 11
384.7620129084478
 21
73.46478938205518
 31
0.0
  0
LWPOLYLINE
  5
13E3
330
2
100
AcDbEntity
  8
0
 62
     0
100
AcDbPolyline
 90
        6
 70
     1
 43
0.0
 10
386.6620129084474
 20
74.61168134700166
 10
386.6620129084474
 20
73.11168134700209
 42
-0.4142135623730951
 10
385.6620129084474
 20
72.11168134700209
 10
385.2620129084478
 20
72.11168134700209
 10
385.2620129084478
 20
75.61168134700209
 10
385.6620129084474
 20
75.61168134700166
 42
-0.4142135623730951
  0
LWPOLYLINE
  5
13E4
330
2
100
AcDbEntity
  8
0
 62
     0
100
AcDbPolyline
 90
        4
 70
     1
 43
0.0
 10
384.3620129084482
 20
75.86168134700209
 10
384.3620129084482
 20
71.86168134700209
 10
384.7620129084478
 20
71.86168134700209
 10
384.7620129084478
 20
75.86168134700209
  0
LINE
  5
13E5
330
2
100
AcDbEntity
  8
0
 62
     0
100
AcDbLine
 10
384.7620129084478
 20
75.61168134700209
 30
0.0
 11
384.7620129084478
 21
72.11168134700209
 31
0.0
  0
LINE
  5
13E6
330
2
100
AcDbEntity
  8
0
 62
     0
100
AcDbLine
 10
384.7620129084478
 20
72.11168134700209
 30
0.0
 11
385.2620129084478
 21
72.11168134700209
 31
0.0
  0
LINE
  5
13E7
330
2
100
AcDbEntity
  8
0
 62
     0
100
AcDbLine
 10
385.2620129084478
 20
72.11168134700209
 30
0.0
 11
385.2620129084478
 21
75.61168134700209
 31
0.0
  0
LINE
  5
13E8
330
2
100
AcDbEntity
  8
0
 62
     0
100
AcDbLine
 10
385.2620129084478
 20
75.61168134700209
 30
0.0
 11
384.7620129084478
 21
75.61168134700209
 31
0.0
  0
LINE
  5
13E9
330
2
100
AcDbEntity
  8
0
 62
     0
100
AcDbLine
 10
386.6620129084474
 20
73.86168134700209
 30
0.0
 11
386.0288555505865
 21
74.39614506657836
 31
0.0
  0
LINE
  5
13EA
330
2
100
AcDbEntity
  8
0
 62
     0
100
AcDbLine
 10
385.2620129084478
 20
74.35083508029584
 30
0.0
 11
384.7620129084478
 21
74.04888847616849
 31
0.0
  0
LINE
  5
13EB
330
2
100
AcDbEntity
  8
0
 62
     0
100
AcDbLine
 10
379.8620129084481
 20
74.86168134700211
 30
0.0
 11
379.8620129084481
 21
72.86168134700209
 31
0.0
  0
LINE
  5
13EC
330
2
100
AcDbEntity
  8
0
 62
     0
 48
0.0351
100
AcDbLine
 10
445.6554572834481
 20
217.111681347005
 30
0.0
 11
448.068568533448
 21
217.111681347005
 31
0.0
  0
LINE
  5
13ED
330
2
100
AcDbEntity
  8
0
 62
     0
 48
0.005062
100
AcDbLine
 10
448.068568533448
 20
217.111681347005
 30
0.0
 11
448.068568533448
 21
217.4597282220052
 31
0.0
  0
LINE
  5
13EE
330
2
100
AcDbEntity
  8
0
 62
     0
 48
0.00945
100
AcDbLine
 10
448.068568533448
 20
217.4597282220052
 30
0.0
 11
447.4188965021965
 21
217.4597282220052
 31
0.0
  0
LINE
  5
13EF
330
2
100
AcDbEntity
  8
0
 62
     0
 48
0.03375
100
AcDbLine
 10
447.4188965021965
 20
217.4597282220052
 30
0.0
 11
447.4188965021965
 21
219.7800510345051
 31
0.0
  0
LINE
  5
13F0
330
2
100
AcDbEntity
  8
0
 62
     0
 48
0.00945
100
AcDbLine
 10
447.4188965021965
 20
219.7800510345051
 30
0.0
 11
448.068568533448
 21
219.7800510345051
 31
0.0
  0
LINE
  5
13F1
330
2
100
AcDbEntity
  8
0
 62
     0
 48
0.005062
100
AcDbLine
 10
448.068568533448
 20
219.7800510345051
 30
0.0
 11
448.068568533448
 21
220.1280961907551
 31
0.0
  0
LINE
  5
13F2
330
2
100
AcDbEntity
  8
0
 62
     0
 48
0.0351
100
AcDbLine
 10
448.068568533448
 20
220.1280961907551
 30
0.0
 11
445.6554572834481
 21
220.1280961907551
 31
0.0
  0
LINE
  5
13F3
330
2
100
AcDbEntity
  8
0
 62
     0
 48
0.005062
100
AcDbLine
 10
445.6554572834481
 20
220.1280961907551
 30
0.0
 11
445.6554572834481
 21
219.7800510345051
 31
0.0
  0
LINE
  5
13F4
330
2
100
AcDbEntity
  8
0
 62
     0
 48
0.00945
100
AcDbLine
 10
445.6554572834481
 20
219.7800510345051
 30
0.0
 11
446.3051293146977
 21
219.7800510345051
 31
0.0
  0
LINE
  5
13F5
330
2
100
AcDbEntity
  8
0
 62
     0
 48
0.03375
100
AcDbLine
 10
446.3051293146977
 20
219.7800510345051
 30
0.0
 11
446.3051293146977
 21
217.4597282220052
 31
0.0
  0
LINE
  5
13F6
330
2
100
AcDbEntity
  8
0
 62
     0
 48
0.00945
100
AcDbLine
 10
446.3051293146977
 20
217.4597282220052
 30
0.0
 11
445.6554572834481
 21
217.4597282220052
 31
0.0
  0
LINE
  5
13F7
330
2
100
AcDbEntity
  8
0
 62
     0
 48
0.005062
100
AcDbLine
 10
445.6554572834481
 20
217.4597282220052
 30
0.0
 11
445.6554572834481
 21
217.111681347005
 31
0.0
  0
LINE
  5
13F8
330
2
100
AcDbEntity
  8
0
 62
     0
 48
0.005062
100
AcDbLine
 10
444.4952958771987
 20
217.111681347005
 30
0.0
 11
444.4952958771987
 21
217.4597282220052
 31
0.0
  0
LINE
  5
13F9
330
2
100
AcDbEntity
  8
0
 62
     0
 48
0.00945
100
AcDbLine
 10
444.4952958771987
 20
217.4597282220052
 30
0.0
 11
443.8455980646993
 21
217.4597282220052
 31
0.0
  0
LINE
  5
13FA
330
2
100
AcDbEntity
  8
0
 62
     0
 48
0.03375
100
AcDbLine
 10
443.8455980646993
 20
217.4597282220052
 30
0.0
 11
443.8455980646993
 21
219.7800510345051
 31
0.0
  0
LINE
  5
13FB
330
2
100
AcDbEntity
  8
0
 62
     0
 48
0.00945
100
AcDbLine
 10
443.8455980646993
 20
219.7800510345051
 30
0.0
 11
444.4952958771987
 21
219.7800510345051
 31
0.0
  0
LINE
  5
13FC
330
2
100
AcDbEntity
  8
0
 62
     0
 48
0.005062
100
AcDbLine
 10
444.4952958771987
 20
219.7800510345051
 30
0.0
 11
444.4952958771987
 21
220.1280961907551
 31
0.0
  0
LINE
  5
13FD
330
2
100
AcDbEntity
  8
0
 62
     0
 48
0.03375
100
AcDbLine
 10
444.4952958771987
 20
220.1280961907551
 30
0.0
 11
442.1749730646966
 21
220.1280961907551
 31
0.0
  0
LINE
  5
13FE
330
2
100
AcDbEntity
  8
0
 62
     0
 48
0.005062
100
AcDbLine
 10
442.1749730646966
 20
220.1280961907551
 30
0.0
 11
442.1749730646966
 21
219.7800510345051
 31
0.0
  0
LINE
  5
13FF
330
2
100
AcDbEntity
  8
0
 62
     0
 48
0.00945
100
AcDbLine
 10
442.1749730646966
 20
219.7800510345051
 30
0.0
 11
442.8246708771963
 21
219.7800510345051
 31
0.0
  0
LINE
  5
1400
330
2
100
AcDbEntity
  8
0
 62
     0
 48
0.012825
100
AcDbLine
 10
442.8246708771963
 20
219.7800510345051
 30
0.0
 11
442.8246708771963
 21
218.898330565755
 31
0.0
  0
LINE
  5
1401
330
2
100
AcDbEntity
  8
0
 62
     0
 48
0.0324
100
AcDbLine
 10
442.8246708771963
 20
218.898330565755
 30
0.0
 11
440.597160564697
 21
218.898330565755
 31
0.0
  0
LINE
  5
1402
330
2
100
AcDbEntity
  8
0
 62
     0
 48
0.012825
100
AcDbLine
 10
440.597160564697
 20
218.898330565755
 30
0.0
 11
440.597160564697
 21
219.7800510345051
 31
0.0
  0
LINE
  5
1403
330
2
100
AcDbEntity
  8
0
 62
     0
 48
0.00945
100
AcDbLine
 10
440.597160564697
 20
219.7800510345051
 30
0.0
 11
441.2468583771985
 21
219.7800510345051
 31
0.0
  0
LINE
  5
1404
330
2
100
AcDbEntity
  8
0
 62
     0
 48
0.005062
100
AcDbLine
 10
441.2468583771985
 20
219.7800510345051
 30
0.0
 11
441.2468583771985
 21
220.1280961907551
 31
0.0
  0
LINE
  5
1405
330
2
100
AcDbEntity
  8
0
 62
     0
 48
0.03375
100
AcDbLine
 10
441.2468583771985
 20
220.1280961907551
 30
0.0
 11
438.9265355646982
 21
220.1280961907551
 31
0.0
  0
LINE
  5
1406
330
2
100
AcDbEntity
  8
0
 62
     0
 48
0.005062
100
AcDbLine
 10
438.9265355646982
 20
220.1280961907551
 30
0.0
 11
438.9265355646982
 21
219.7800510345051
 31
0.0
  0
LINE
  5
1407
330
2
100
AcDbEntity
  8
0
 62
     0
 48
0.00945
100
AcDbLine
 10
438.9265355646982
 20
219.7800510345051
 30
0.0
 11
439.5762333771978
 21
219.7800510345051
 31
0.0
  0
LINE
  5
1408
330
2
100
AcDbEntity
  8
0
 62
     0
 48
0.03375
100
AcDbLine
 10
439.5762333771978
 20
219.7800510345051
 30
0.0
 11
439.5762333771978
 21
217.4597282220052
 31
0.0
  0
LINE
  5
1409
330
2
100
AcDbEntity
  8
0
 62
     0
 48
0.00945
100
AcDbLine
 10
439.5762333771978
 20
217.4597282220052
 30
0.0
 11
438.9265355646982
 21
217.4597282220052
 31
0.0
  0
LINE
  5
140A
330
2
100
AcDbEntity
  8
0
 62
     0
 48
0.005062
100
AcDbLine
 10
438.9265355646982
 20
217.4597282220052
 30
0.0
 11
438.9265355646982
 21
217.111681347005
 31
0.0
  0
LINE
  5
140B
330
2
100
AcDbEntity
  8
0
 62
     0
 48
0.03375
100
AcDbLine
 10
438.9265355646982
 20
217.111681347005
 30
0.0
 11
441.2468583771985
 21
217.111681347005
 31
0.0
  0
LINE
  5
140C
330
2
100
AcDbEntity
  8
0
 62
     0
 48
0.005062
100
AcDbLine
 10
441.2468583771985
 20
217.111681347005
 30
0.0
 11
441.2468583771985
 21
217.4597282220052
 31
0.0
  0
LINE
  5
140D
330
2
100
AcDbEntity
  8
0
 62
     0
 48
0.00945
100
AcDbLine
 10
441.2468583771985
 20
217.4597282220052
 30
0.0
 11
440.597160564697
 21
217.4597282220052
 31
0.0
  0
LINE
  5
140E
330
2
100
AcDbEntity
  8
0
 62
     0
 48
0.012825
100
AcDbLine
 10
440.597160564697
 20
217.4597282220052
 30
0.0
 11
440.597160564697
 21
218.3414469720049
 31
0.0
  0
LINE
  5
140F
330
2
100
AcDbEntity
  8
0
 62
     0
 48
0.0324
100
AcDbLine
 10
440.597160564697
 20
218.3414469720049
 30
0.0
 11
442.8246708771963
 21
218.3414469720049
 31
0.0
  0
LINE
  5
1410
330
2
100
AcDbEntity
  8
0
 62
     0
 48
0.012825
100
AcDbLine
 10
442.8246708771963
 20
218.3414469720049
 30
0.0
 11
442.8246708771963
 21
217.4597282220052
 31
0.0
  0
LINE
  5
1411
330
2
100
AcDbEntity
  8
0
 62
     0
 48
0.00945
100
AcDbLine
 10
442.8246708771963
 20
217.4597282220052
 30
0.0
 11
442.1749730646966
 21
217.4597282220052
 31
0.0
  0
LINE
  5
1412
330
2
100
AcDbEntity
  8
0
 62
     0
 48
0.005062
100
AcDbLine
 10
442.1749730646966
 20
217.4597282220052
 30
0.0
 11
442.1749730646966
 21
217.111681347005
 31
0.0
  0
LINE
  5
1413
330
2
100
AcDbEntity
  8
0
 62
     0
 48
0.03375
100
AcDbLine
 10
442.1749730646966
 20
217.111681347005
 30
0.0
 11
444.4952958771987
 21
217.111681347005
 31
0.0
  0
LINE
  5
1414
330
2
100
AcDbEntity
  8
0
 62
     0
 48
0.029025
100
AcDbLine
 10
451.2241900959468
 20
217.111681347005
 30
0.0
 11
449.228729939699
 21
217.111681347005
 31
0.0
  0
LINE
  5
1415
330
2
100
AcDbEntity
  8
0
 62
     0
 48
0.005062
100
AcDbLine
 10
451.2241900959468
 20
217.4597282220052
 30
0.0
 11
451.2241900959468
 21
217.111681347005
 31
0.0
  0
LINE
  5
1416
330
2
100
AcDbEntity
  8
0
 62
     0
 48
0.00945
100
AcDbLine
 10
450.5745180646989
 20
217.4597282220052
 30
0.0
 11
451.2241900959468
 21
217.4597282220052
 31
0.0
  0
LINE
  5
1417
330
2
100
AcDbEntity
  8
0
 62
     0
 48
0.023288
100
AcDbLine
 10
450.5745180646989
 20
219.0607490032551
 30
0.0
 11
450.5745180646989
 21
217.4597282220052
 31
0.0
  0
LINE
  5
1418
330
2
100
AcDbEntity
  8
0
 62
     0
 48
0.045119
100
AcDbLine
 10
452.9876293146988
 20
217.111681347005
 30
0.0
 11
450.5745180646989
 21
219.0607490032551
 31
0.0
  0
LINE
  5
1419
330
2
100
AcDbEntity
  8
0
 62
     0
 48
0.0135
100
AcDbLine
 10
453.9157697834487
 20
217.111681347005
 30
0.0
 11
452.9876293146988
 21
217.111681347005
 31
0.0
  0
LINE
  5
141A
330
2
100
AcDbEntity
  8
0
 62
     0
 48
0.038813
100
AcDbLine
 10
453.9157697834487
 20
219.7800510345051
 30
0.0
 11
453.9157697834487
 21
217.111681347005
 31
0.0
  0
LINE
  5
141B
330
2
100
AcDbEntity
  8
0
 62
     0
 48
0.00945
100
AcDbLine
 10
454.565440095948
 20
219.7800510345051
 30
0.0
 11
453.9157697834487
 21
219.7800510345051
 31
0.0
  0
LINE
  5
141C
330
2
100
AcDbEntity
  8
0
 62
     0
 48
0.005062
100
AcDbLine
 10
454.565440095948
 20
220.1280961907551
 30
0.0
 11
454.565440095948
 21
219.7800510345051
 31
0.0
  0
LINE
  5
141D
330
2
100
AcDbEntity
  8
0
 62
     0
 48
0.029025
100
AcDbLine
 10
452.5699799396987
 20
220.1280961907551
 30
0.0
 11
454.565440095948
 21
220.1280961907551
 31
0.0
  0
LINE
  5
141E
330
2
100
AcDbEntity
  8
0
 62
     0
 48
0.005062
100
AcDbLine
 10
452.5699799396987
 20
219.7800510345051
 30
0.0
 11
452.5699799396987
 21
220.1280961907551
 31
0.0
  0
LINE
  5
141F
330
2
100
AcDbEntity
  8
0
 62
     0
 48
0.00945
100
AcDbLine
 10
453.2196777521963
 20
219.7800510345051
 30
0.0
 11
452.5699799396987
 21
219.7800510345051
 31
0.0
  0
LINE
  5
1420
330
2
100
AcDbEntity
  8
0
 62
     0
 48
0.023288
100
AcDbLine
 10
453.2196777521963
 20
218.179030253255
 30
0.0
 11
453.2196777521963
 21
219.7800510345051
 31
0.0
  0
LINE
  5
1421
330
2
100
AcDbEntity
  8
0
 62
     0
 48
0.045119
100
AcDbLine
 10
450.8065407209485
 20
220.1280961907551
 30
0.0
 11
453.2196777521963
 21
218.179030253255
 31
0.0
  0
LINE
  5
1422
330
2
100
AcDbEntity
  8
0
 62
     0
 48
0.02295
100
AcDbLine
 10
449.228729939699
 20
220.1280961907551
 30
0.0
 11
450.8065407209485
 21
220.1280961907551
 31
0.0
  0
LINE
  5
1423
330
2
100
AcDbEntity
  8
0
 62
     0
 48
0.005062
100
AcDbLine
 10
449.228729939699
 20
219.7800510345051
 30
0.0
 11
449.228729939699
 21
220.1280961907551
 31
0.0
  0
LINE
  5
1424
330
2
100
AcDbEntity
  8
0
 62
     0
 48
0.00945
100
AcDbLine
 10
449.8784277521988
 20
219.7800510345051
 30
0.0
 11
449.228729939699
 21
219.7800510345051
 31
0.0
  0
LINE
  5
1425
330
2
100
AcDbEntity
  8
0
 62
     0
 48
0.03375
100
AcDbLine
 10
449.8784277521988
 20
217.4597282220052
 30
0.0
 11
449.8784277521988
 21
219.7800510345051
 31
0.0
  0
LINE
  5
1426
330
2
100
AcDbEntity
  8
0
 62
     0
 48
0.00945
100
AcDbLine
 10
449.228729939699
 20
217.4597282220052
 30
0.0
 11
449.8784277521988
 21
217.4597282220052
 31
0.0
  0
LINE
  5
1427
330
2
100
AcDbEntity
  8
0
 62
     0
 48
0.005062
100
AcDbLine
 10
449.228729939699
 20
217.111681347005
 30
0.0
 11
449.228729939699
 21
217.4597282220052
 31
0.0
  0
ARC
  5
1428
330
2
100
AcDbEntity
  8
0
 62
     0
100
AcDbCircle
 10
457.9299018146992
 20
215.649894784505
 30
0.0
 40
4.594218749999998
100
AcDbArc
 50
64.72499000000555
 51
115.2750149999926
  0
ARC
  5
1429
330
2
100
AcDbEntity
  8
0
 62
     0
100
AcDbCircle
 10
456.6073219709484
 20
218.6198896282554
 30
0.0
 40
1.345781249999999
100
AcDbArc
 50
118.3467549999803
 51
241.653242000019
  0
ARC
  5
142A
330
2
100
AcDbEntity
  8
0
 62
     0
100
AcDbCircle
 10
457.9299018146992
 20
221.5898844720052
 30
0.0
 40
4.594218749999998
100
AcDbArc
 50
244.7249960000008
 51
295.2750069999961
  0
ARC
  5
142B
330
2
100
AcDbEntity
  8
0
 62
     0
100
AcDbCircle
 10
459.2524799396976
 20
218.6198896282554
 30
0.0
 40
1.345781249999999
100
AcDbArc
 50
298.3467619999716
 51
61.65324300002192
  0
ARC
  5
142C
330
2
100
AcDbEntity
  8
0
 62
     0
100
AcDbCircle
 10
458.2315527521983
 20
218.6198896282554
 30
0.0
 40
1.206562499999998
100
AcDbArc
 50
305.4392029999974
 51
70.52459300000347
  0
ARC
  5
142D
330
2
100
AcDbEntity
  8
0
 62
     0
100
AcDbCircle
 10
457.9299018146992
 20
219.1999574407553
 30
0.0
 40
1.85628609375
100
AcDbArc
 50
237.3582280000173
 51
302.641775000003
  0
ARC
  5
142E
330
2
100
AcDbEntity
  8
0
 62
     0
100
AcDbCircle
 10
457.6282749396994
 20
218.6198896282554
 30
0.0
 40
1.206562499999998
100
AcDbArc
 50
125.4734560000006
 51
234.5607989999631
  0
ARC
  5
142F
330
2
100
AcDbEntity
  8
0
 62
     0
100
AcDbCircle
 10
457.9299018146992
 20
218.0397960345051
 30
0.0
 40
1.85625
100
AcDbArc
 50
67.71515100001742
 51
122.6640080000096
  0
ARC
  5
1430
330
2
100
AcDbEntity
  8
0
 62
     0
100
AcDbCircle
 10
435.6317055646973
 20
217.482938222005
 30
0.0
 40
2.343515625
100
AcDbArc
 50
47.61290100002191
 51
130.8365899999898
  0
ARC
  5
1431
330
2
100
AcDbEntity
  8
0
 62
     0
100
AcDbCircle
 10
436.2813775959473
 20
218.6198896282554
 30
0.0
 40
1.103638593749999
100
AcDbArc
 50
22.23683299996804
 51
32.56157500001892
  0
LINE
  5
1432
330
2
100
AcDbEntity
  8
0
 62
     0
 48
0.009779
100
AcDbLine
 10
437.975212595949
 20
219.0375390032548
 30
0.0
 11
437.3029338459487
 21
219.0375390032548
 31
0.0
  0
LINE
  5
1433
330
2
100
AcDbEntity
  8
0
 62
     0
 48
0.015863
100
AcDbLine
 10
437.975212595949
 20
219.0375390032548
 30
0.0
 11
437.975212595949
 21
220.1280961907551
 31
0.0
  0
LINE
  5
1434
330
2
100
AcDbEntity
  8
0
 62
     0
 48
0.007425
100
AcDbLine
 10
437.975212595949
 20
220.1280961907551
 30
0.0
 11
437.4647490021978
 21
220.1280961907551
 31
0.0
  0
LINE
  5
1435
330
2
100
AcDbEntity
  8
0
 62
     0
 48
0.006848
100
AcDbLine
 10
437.4647490021978
 20
220.1280961907551
 30
0.0
 11
437.4647490021978
 21
219.6573133782549
 31
0.0
  0
ARC
  5
1436
330
2
100
AcDbEntity
  8
0
 62
     0
100
AcDbCircle
 10
436.2813775959473
 20
218.202240253255
 30
0.0
 40
1.875522343749999
100
AcDbArc
 50
50.87978999997882
 51
69.67686400002278
  0
ARC
  5
1437
330
2
100
AcDbEntity
  8
0
 62
     0
100
AcDbCircle
 10
435.3532646271993
 20
215.6962890032551
 30
0.0
 40
4.5478125
100
AcDbArc
 50
69.67686400002278
 51
114.9026060000152
  0
ARC
  5
1438
330
2
100
AcDbEntity
  8
0
 62
     0
100
AcDbCircle
 10
434.1467090021994
 20
218.6198896282554
 30
0.0
 40
1.394696874999999
100
AcDbArc
 50
120.5264329999972
 51
239.4735630000017
  0
ARC
  5
1439
330
2
100
AcDbEntity
  8
0
 62
     0
100
AcDbCircle
 10
435.3532646271993
 20
221.5434902532547
 30
0.0
 40
4.5478125
100
AcDbArc
 50
245.0974039999882
 51
290.3231459999825
  0
ARC
  5
143A
330
2
100
AcDbEntity
  8
0
 62
     0
100
AcDbCircle
 10
436.2813775959473
 20
219.0375390032548
 30
0.0
 40
1.875522343749999
100
AcDbArc
 50
290.3231459999825
 51
333.5525889999826
  0
LINE
  5
143B
330
2
100
AcDbEntity
  8
0
 62
     0
 48
0.009566
100
AcDbLine
 10
437.9606307209466
 20
218.202240253255
 30
0.0
 11
437.3029338459487
 21
218.202240253255
 31
0.0
  0
ARC
  5
143C
330
2
100
AcDbEntity
  8
0
 62
     0
100
AcDbCircle
 10
436.2813775959473
 20
218.6198896282554
 30
0.0
 40
1.103638593749999
100
AcDbArc
 50
299.7448730000146
 51
337.7631540000296
  0
ARC
  5
143D
330
2
100
AcDbEntity
  8
0
 62
     0
100
AcDbCircle
 10
435.6317055646973
 20
219.756841034505
 30
0.0
 40
2.413124999999999
100
AcDbArc
 50
242.0490359999836
 51
299.7448730000146
  0
ARC
  5
143E
330
2
100
AcDbEntity
  8
0
 62
     0
100
AcDbCircle
 10
435.0284277521985
 20
218.6198896282554
 30
0.0
 40
1.12603046875
100
AcDbArc
 50
145.6044559999883
 51
242.0490359999836
  0
LINE
  5
144A
330
2
100
AcDbEntity
  8
0
 62
     0
100
AcDbLine
 10
386.8620129084482
 20
240.8116813470055
 30
0.0
 11
386.8620129084482
 21
270.3616813470053
 31
0.0
  0
LINE
  5
144B
330
2
100
AcDbEntity
  8
0
 62
     0
 48
5.0
100
AcDbLine
 10
386.8620129084482
 20
270.3616813470053
 30
0.0
 11
386.8620129084482
 21
282.3616813470053
 31
0.0
  0
LINE
  5
144C
330
2
100
AcDbEntity
  8
0
  6
CENTER
 62
     4
 48
2.0
100
AcDbLine
 10
169.3620129084481
 20
146.3616813470053
 30
0.0
 11
169.3620129084481
 21
228.3616813470053
 31
0.0
1001
GENIUS_GENODEF_13
1002
{
1000
HIER
1070
     0
1002
}
1002
{
1000
MANEDIT
1070
     0
1002
}
1002
{
1000
NOSEL
1070
     0
1002
}
1002
{
1000
BEHIND
1070
     0
1002
}
1002
{
1000
OTHER
1070
     0
1002
}
1002
{
1000
REACTOR
1002
}
1001
GENIUS_GENOBJ-N-CEN_13
1002
{
1000
OWNER
1000
GEN
1002
}
1001
GENIUS_GENCEN_19
1002
{
1040
3.0
1002
}
  0
LINE
  5
144D
330
2
100
AcDbEntity
  8
0
  6
CENTER
 62
     4
 48
2.0
100
AcDbLine
 10
446.8620129084481
 20
146.3616813470053
 30
0.0
 11
446.8620129084481
 21
228.3616813470053
 31
0.0
1001
GENIUS_GENOBJ-N-CEN_13
1002
{
1000
OWNER
1000
GEN
1002
}
1001
GENIUS_GENODEF_13
1002
{
1000
HIER
1070
     0
1002
}
1002
{
1000
MANEDIT
1070
     0
1002
}
1002
{
1000
NOSEL
1070
     0
1002
}
1002
{
1000
BEHIND
1070
     0
1002
}
1002
{
1000
OTHER
1070
     0
1002
}
1002
{
1000
REACTOR
1002
}
1001
GENIUS_GENCEN_19
1002
{
1040
3.0
1002
}
  0
LINE
  5
144E
330
2
100
AcDbEntity
  8
0
 62
     0
 48
0.5
100
AcDbLine
 10
226.9290002065552
 20
262.1116813470053
 30
0.0
 11
227.7950256103393
 21
262.1116813470053
 31
0.0
  0
LINE
  5
144F
330
2
100
AcDbEntity
  8
0
 62
     0
 48
0.5
100
AcDbLine
 10
227.7950256103393
 20
262.1116813470053
 30
0.0
 11
228.2280383122322
 21
261.3616813470053
 31
0.0
  0
LINE
  5
1450
330
2
100
AcDbEntity
  8
0
 62
     0
 48
0.5
100
AcDbLine
 10
228.2280383122322
 20
261.3616813470053
 30
0.0
 11
227.7950256103393
 21
260.6116813470053
 31
0.0
  0
LINE
  5
1451
330
2
100
AcDbEntity
  8
0
 62
     0
 48
0.5
100
AcDbLine
 10
227.7950256103393
 20
260.6116813470053
 30
0.0
 11
226.9290002065552
 21
260.6116813470053
 31
0.0
  0
LINE
  5
1452
330
2
100
AcDbEntity
  8
0
 62
     0
 48
0.5
100
AcDbLine
 10
226.9290002065552
 20
260.6116813470053
 30
0.0
 11
226.4959875046621
 21
261.3616813470053
 31
0.0
  0
LINE
  5
1453
330
2
100
AcDbEntity
  8
0
 62
     0
 48
0.5
100
AcDbLine
 10
226.4959875046621
 20
261.3616813470053
 30
0.0
 11
226.9290002065552
 21
262.1116813470053
 31
0.0
  0
LINE
  5
1454
330
2
100
AcDbEntity
  8
0
 62
     0
100
AcDbLine
 10
386.8620129084482
 20
269.8616813470023
 30
0.0
 11
386.8620129084482
 21
252.8616813470081
 31
0.0
  0
LINE
  5
1455
330
2
100
AcDbEntity
  8
0
  6
CENTER
 62
     4
 48
2.0
100
AcDbLine
 10
204.8620129084481
 20
206.3616813470053
 30
0.0
 11
406.8620129084481
 21
206.3616813470023
 31
0.0
1001
GENIUS_GENOBJ-N-CEN_13
1002
{
1000
OWNER
1000
GEN
1002
}
1001
GENIUS_GENODEF_13
1002
{
1000
HIER
1070
     0
1002
}
1002
{
1000
MANEDIT
1070
     0
1002
}
1002
{
1000
NOSEL
1070
     0
1002
}
1002
{
1000
BEHIND
1070
     0
1002
}
1002
{
1000
OTHER
1070
     0
1002
}
1002
{
1000
REACTOR
1002
}
1001
GENIUS_GENCEN_19
1002
{
1040
3.0
1002
}
  0
LINE
  5
1456
330
2
100
AcDbEntity
  8
0
 62
     0
100
AcDbLine
 10
427.3769263575156
 20
151.6616813470057
 30
0.0
 11
466.3470994593823
 21
151.6616813470057
 31
0.0
  0
ARC
  5
1457
330
2
100
AcDbEntity
  8
0
 62
     0
100
AcDbCircle
 10
427.3769263575156
 20
152.1616813470057
 30
0.0
 40
0.5
100
AcDbArc
 50
216.2833970363742
 51
270.0
  0
LINE
  5
1458
330
2
100
AcDbEntity
  8
0
 62
     0
100
AcDbLine
 10
423.1924025479909
 20
158.3616813470053
 30
0.0
 11
470.5316232689053
 21
158.3616813470053
 31
0.0
  0
ARC
  5
1459
330
2
100
AcDbEntity
  8
0
 62
     0
100
AcDbCircle
 10
423.1924025479909
 20
157.8616813470053
 30
0.0
 40
0.5
100
AcDbArc
 50
90.0
 51
216.2833970363742
  0
LINE
  5
145A
330
2
100
AcDbEntity
  8
0
 62
     0
100
AcDbLine
 10
422.789352648069
 20
157.5657915395222
 30
0.0
 11
426.9738764575938
 21
151.8657915395224
 31
0.0
  0
LINE
  5
145B
330
2
100
AcDbEntity
  8
0
 62
     0
100
AcDbLine
 10
466.7501493593042
 20
151.8657915395226
 30
0.0
 11
470.9346731688289
 21
157.5657915395222
 31
0.0
  0
ARC
  5
145C
330
2
100
AcDbEntity
  8
0
 62
     0
100
AcDbCircle
 10
470.5316232689053
 20
157.8616813470053
 30
0.0
 40
0.5
100
AcDbArc
 50
323.7166029636258
 51
90.0
  0
ARC
  5
145D
330
2
100
AcDbEntity
  8
0
 62
     0
100
AcDbCircle
 10
466.3470994593823
 20
152.1616813470057
 30
0.0
 40
0.5
100
AcDbArc
 50
270.0
 51
323.7166029636258
  0
LINE
  5
145F
330
2
100
AcDbEntity
  8
0
 62
     0
100
AcDbLine
 10
464.3620129084498
 20
155.0116813470054
 30
0.0
 11
464.3620129084498
 21
158.3616813470056
 31
0.0
  0
LINE
  5
1460
330
2
100
AcDbEntity
  8
0
 62
     0
100
AcDbLine
 10
429.36201290845
 20
155.0116813470054
 30
0.0
 11
429.36201290845
 21
158.3616813470056
 31
0.0
  0
LINE
  5
1461
330
2
100
AcDbEntity
  8
0
 62
     0
100
AcDbLine
 10
450.5620129084489
 20
155.0116813470054
 30
0.0
 11
450.5620129084489
 21
158.3616813470056
 31
0.0
  0
LINE
  5
1462
330
2
100
AcDbEntity
  8
0
 62
     0
100
AcDbLine
 10
451.0620129084489
 20
155.0116813470054
 30
0.0
 11
451.0620129084489
 21
158.3616813470056
 31
0.0
  0
LINE
  5
1463
330
2
100
AcDbEntity
  8
0
 62
     0
100
AcDbLine
 10
438.5620129084489
 20
155.0116813470054
 30
0.0
 11
438.5620129084489
 21
158.3616813470056
 31
0.0
  0
LINE
  5
1464
330
2
100
AcDbEntity
  8
0
 62
     0
100
AcDbLine
 10
438.0620129084489
 20
155.0116813470054
 30
0.0
 11
438.0620129084489
 21
158.3616813470055
 31
0.0
  0
LINE
  5
1465
330
2
100
AcDbEntity
  8
0
 62
     0
100
AcDbLine
 10
464.3620129084498
 20
155.0116813470054
 30
0.0
 11
451.0620129084489
 21
155.0116813470054
 31
0.0
  0
LINE
  5
1466
330
2
100
AcDbEntity
  8
0
 62
     0
100
AcDbLine
 10
450.5620129084489
 20
155.0116813470054
 30
0.0
 11
438.5620129084489
 21
155.0116813470054
 31
0.0
  0
LINE
  5
1467
330
2
100
AcDbEntity
  8
0
 62
     0
100
AcDbLine
 10
438.0620129084489
 20
155.0116813470054
 30
0.0
 11
429.36201290845
 21
155.0116813470054
 31
0.0
  0
CIRCLE
  5
146A
330
2
100
AcDbEntity
  8
0
 62
     0
 48
0.5
100
AcDbCircle
 10
426.8620129084498
 20
155.6616813470054
 30
0.0
 40
2.0
  0
CIRCLE
  5
146B
330
2
100
AcDbEntity
  8
0
 62
     0
 48
0.5
100
AcDbCircle
 10
426.8620129084498
 20
155.6616813470054
 30
0.0
 40
1.75
  0
LWPOLYLINE
  5
146C
330
2
100
AcDbEntity
  8
0
 62
     0
 48
0.5
100
AcDbPolyline
 90
        4
 70
     0
 43
0.0
 10
426.5620129084489
 20
155.9616813470054
 10
425.36201290845
 20
155.9616813470054
 10
425.36201290845
 20
155.3616813470053
 10
426.5620129084489
 20
155.3616813470053
  0
LWPOLYLINE
  5
146D
330
2
100
AcDbEntity
  8
0
 62
     0
 48
0.5
100
AcDbPolyline
 90
        4
 70
     0
 43
0.0
 10
427.1620129084491
 20
155.9616813470054
 10
427.1620129084491
 20
157.1616813470054
 10
426.5620129084489
 20
157.1616813470054
 10
426.5620129084489
 20
155.9616813470054
  0
LWPOLYLINE
  5
146E
330
2
100
AcDbEntity
  8
0
 62
     0
 48
0.5
100
AcDbPolyline
 90
        4
 70
     0
 43
0.0
 10
426.5620129084489
 20
155.3616813470053
 10
426.5620129084489
 20
154.1616813470055
 10
427.1620129084491
 20
154.1616813470055
 10
427.1620129084491
 20
155.3616813470053
  0
LWPOLYLINE
  5
146F
330
2
100
AcDbEntity
  8
0
 62
     0
 48
0.5
100
AcDbPolyline
 90
        4
 70
     0
 43
0.0
 10
427.1620129084491
 20
155.3616813470053
 10
428.3620129084497
 20
155.3616813470053
 10
428.3620129084497
 20
155.9616813470054
 10
427.1620129084491
 20
155.9616813470054
  0
CIRCLE
  5
1470
330
2
100
AcDbEntity
  8
0
 62
     0
 48
0.5
100
AcDbCircle
 10
466.86201290845
 20
155.6616813470054
 30
0.0
 40
2.0
  0
CIRCLE
  5
1471
330
2
100
AcDbEntity
  8
0
 62
     0
 48
0.5
100
AcDbCircle
 10
466.86201290845
 20
155.6616813470054
 30
0.0
 40
1.75
  0
LWPOLYLINE
  5
1472
330
2
100
AcDbEntity
  8
0
 62
     0
 48
0.5
100
AcDbPolyline
 90
        4
 70
     0
 43
0.0
 10
467.1620129084492
 20
155.9616813470054
 10
468.3620129084498
 20
155.9616813470054
 10
468.3620129084498
 20
155.3616813470053
 10
467.1620129084492
 20
155.3616813470053
  0
LWPOLYLINE
  5
1473
330
2
100
AcDbEntity
  8
0
 62
     0
 48
0.5
100
AcDbPolyline
 90
        4
 70
     0
 43
0.0
 10
466.5620129084486
 20
155.9616813470054
 10
466.5620129084486
 20
157.1616813470054
 10
467.1620129084492
 20
157.1616813470054
 10
467.1620129084492
 20
155.9616813470054
  0
LWPOLYLINE
  5
1474
330
2
100
AcDbEntity
  8
0
 62
     0
 48
0.5
100
AcDbPolyline
 90
        4
 70
     0
 43
0.0
 10
467.1620129084492
 20
155.3616813470053
 10
467.1620129084492
 20
154.1616813470055
 10
466.5620129084486
 20
154.1616813470055
 10
466.5620129084486
 20
155.3616813470053
  0
LWPOLYLINE
  5
1475
330
2
100
AcDbEntity
  8
0
 62
     0
 48
0.5
100
AcDbPolyline
 90
        4
 70
     0
 43
0.0
 10
466.5620129084486
 20
155.3616813470053
 10
465.3620129084497
 20
155.3616813470053
 10
465.3620129084497
 20
155.9616813470054
 10
466.5620129084486
 20
155.9616813470054
  0
LINE
  5
1476
330
2
100
AcDbEntity
  8
0
 62
     0
100
AcDbLine
 10
419.7620129084477
 20
221.361681347005
 30
0.0
 11
473.9620129084483
 21
221.361681347005
 31
0.0
  0
ARC
  5
1477
330
2
100
AcDbEntity
  8
0
 62
     0
100
AcDbCircle
 10
419.7620129084477
 20
219.4616813470052
 30
0.0
 40
1.899999999999636
100
AcDbArc
 50
90.0
 51
180.0
  0
ARC
  5
1478
330
2
100
AcDbEntity
  8
0
 62
     0
100
AcDbCircle
 10
473.9620129084483
 20
219.4616813470052
 30
0.0
 40
1.90000000000009
100
AcDbArc
 50
0.0
 51
90.0
  0
LINE
  5
1479
330
2
100
AcDbEntity
  8
0
 62
     0
100
AcDbLine
 10
417.8620129084481
 20
162.2616813470051
 30
0.0
 11
417.8620129084481
 21
219.4616813470052
 31
0.0
  0
ARC
  5
147A
330
2
100
AcDbEntity
  8
0
 62
     0
100
AcDbCircle
 10
419.7620129084477
 20
162.2616813470051
 30
0.0
 40
1.9
100
AcDbArc
 50
180.0
 51
270.0
  0
LINE
  5
147B
330
2
100
AcDbEntity
  8
0
 62
     0
100
AcDbLine
 10
475.8620129084481
 20
219.4616813470052
 30
0.0
 11
475.8620129084481
 21
162.2616813470051
 31
0.0
  0
ARC
  5
147C
330
2
100
AcDbEntity
  8
0
 62
     0
100
AcDbCircle
 10
473.9620129084483
 20
162.2616813470051
 30
0.0
 40
1.9
100
AcDbArc
 50
270.0
 51
0.0
  0
LINE
  5
147D
330
2
100
AcDbEntity
  8
0
 62
     0
100
AcDbLine
 10
419.7620129084477
 20
160.361681347005
 30
0.0
 11
473.9620129084483
 21
160.361681347005
 31
0.0
  0
LINE
  5
147E
330
2
100
AcDbEntity
  8
0
 62
     0
 48
0.5
100
AcDbLine
 10
379.8620129084481
 20
151.4616813470052
 30
0.0
 11
383.8620129084482
 21
151.4616813470052
 31
0.0
  0
LINE
  5
147F
330
2
100
AcDbEntity
  8
0
 62
     0
 48
0.5
100
AcDbLine
 10
383.8620129084482
 20
158.4616813470052
 30
0.0
 11
383.8620129084482
 21
151.4616813470052
 31
0.0
  0
LINE
  5
1480
330
2
100
AcDbEntity
  8
0
 62
     0
 48
0.5
100
AcDbLine
 10
379.8620129084481
 20
151.6116813470048
 30
0.0
 11
379.3620129084481
 21
151.6116813470048
 31
0.0
  0
LINE
  5
1481
330
2
100
AcDbEntity
  8
0
 62
     0
 48
0.5
100
AcDbLine
 10
383.8620129084482
 20
117.7743472630172
 30
0.0
 11
383.8620129084482
 21
118.8616813470053
 31
0.0
  0
LINE
  5
1482
330
2
100
AcDbEntity
  8
0
 62
     0
100
AcDbLine
 10
379.8620129084481
 20
68.86168134700529
 30
0.0
 11
383.8620129084482
 21
68.86168134700529
 31
0.0
  0
LINE
  5
1483
330
2
100
AcDbEntity
  8
0
 62
     0
100
AcDbLine
 10
383.8620129084482
 20
73.8616813470053
 30
0.0
 11
379.8620129084481
 21
73.8616813470053
 31
0.0
  0
LINE
  5
1484
330
2
100
AcDbEntity
  8
0
 62
     0
100
AcDbLine
 10
384.8620129084482
 20
233.1916813470048
 30
0.0
 11
384.8620129084482
 21
289.5316813470058
 31
0.0
  0
CIRCLE
  5
1485
330
2
100
AcDbEntity
  8
0
 62
     0
 48
0.2
100
AcDbCircle
 10
463.3620129084481
 20
174.3616813470053
 30
0.0
 40
10.25
  0
CIRCLE
  5
1486
330
2
100
AcDbEntity
  8
0
 62
     4
 48
0.2
100
AcDbCircle
 10
463.3620129084481
 20
174.3616813470053
 30
0.0
 40
8.5
  0
CIRCLE
  5
1487
330
2
100
AcDbEntity
  8
0
 62
     0
 48
0.2
100
AcDbCircle
 10
463.3620129084481
 20
174.3616813470053
 30
0.0
 40
8.999999999999943
  0
CIRCLE
  5
1488
330
2
100
AcDbEntity
  8
0
 62
     0
 48
0.2
100
AcDbCircle
 10
463.3620129084481
 20
174.3616813470053
 30
0.0
 40
10.0
  0
CIRCLE
  5
1489
330
2
100
AcDbEntity
  8
0
 62
     0
 48
0.5
100
AcDbCircle
 10
463.3620129084481
 20
174.3616813470053
 30
0.0
 40
7.0
  0
LWPOLYLINE
  5
148A
330
2
100
AcDbEntity
  8
0
 62
     0
 48
0.5
100
AcDbPolyline
 90
        4
 70
     0
 43
0.0
 10
463.8620129084481
 20
181.3438013688896
 10
463.8620129084481
 20
180.8616813470053
 10
462.862012908448
 20
180.8616813470053
 10
462.862012908448
 20
181.3438013688896
  0
CIRCLE
  5
148B
330
2
100
AcDbEntity
  8
0
 62
     0
 48
0.5
100
AcDbCircle
 10
462.1120129084481
 20
178.1116813470053
 30
0.0
 40
0.4
  0
CIRCLE
  5
148C
330
2
100
AcDbEntity
  8
0
 62
     0
 48
0.5
100
AcDbCircle
 10
464.612012908448
 20
178.1116813470053
 30
0.0
 40
0.4
  0
CIRCLE
  5
148D
330
2
100
AcDbEntity
  8
0
 62
     0
 48
0.5
100
AcDbCircle
 10
462.1120129084481
 20
175.6116813470053
 30
0.0
 40
0.4
  0
CIRCLE
  5
148E
330
2
100
AcDbEntity
  8
0
 62
     0
 48
0.5
100
AcDbCircle
 10
464.612012908448
 20
175.6116813470053
 30
0.0
 40
0.4
  0
CIRCLE
  5
148F
330
2
100
AcDbEntity
  8
0
 62
     0
 48
0.5
100
AcDbCircle
 10
462.1120129084481
 20
173.1116813470053
 30
0.0
 40
0.4
  0
CIRCLE
  5
1490
330
2
100
AcDbEntity
  8
0
 62
     0
 48
0.5
100
AcDbCircle
 10
464.612012908448
 20
173.1116813470053
 30
0.0
 40
0.4
  0
CIRCLE
  5
1491
330
2
100
AcDbEntity
  8
0
 62
     0
 48
0.5
100
AcDbCircle
 10
462.1120129084481
 20
170.6116813470053
 30
0.0
 40
0.4
  0
CIRCLE
  5
1492
330
2
100
AcDbEntity
  8
0
 62
     0
 48
0.5
100
AcDbCircle
 10
464.612012908448
 20
170.6116813470053
 30
0.0
 40
0.4
  0
CIRCLE
  5
1493
330
2
100
AcDbEntity
  8
0
 62
     0
 48
0.5
100
AcDbCircle
 10
459.612012908448
 20
175.6116813470053
 30
0.0
 40
0.4
  0
CIRCLE
  5
1494
330
2
100
AcDbEntity
  8
0
 62
     0
 48
0.5
100
AcDbCircle
 10
459.612012908448
 20
173.1116813470053
 30
0.0
 40
0.4
  0
CIRCLE
  5
1495
330
2
100
AcDbEntity
  8
0
 62
     0
 48
0.5
100
AcDbCircle
 10
467.1120129084481
 20
175.6116813470053
 30
0.0
 40
0.4
  0
CIRCLE
  5
1496
330
2
100
AcDbEntity
  8
0
 62
     0
 48
0.5
100
AcDbCircle
 10
467.1120129084481
 20
173.1116813470053
 30
0.0
 40
0.4
  0
LINE
  5
1497
330
2
100
AcDbEntity
  8
0
 62
     0
100
AcDbLine
 10
386.8620129084482
 20
102.3616813470023
 30
0.0
 11
386.8620129084482
 21
85.36168134700824
 31
0.0
  0
LINE
  5
1498
330
2
100
AcDbEntity
  8
0
 62
     0
100
AcDbLine
 10
235.3620129084482
 20
162.3616813470048
 30
0.0
 11
302.0968059037311
 21
217.0938137316239
 31
0.0
  0
ARC
  5
1499
330
2
100
AcDbEntity
  8
0
 62
     0
100
AcDbCircle
 10
308.4382669961531
 20
209.3616813470035
 30
0.0
 40
10.0
100
AcDbArc
 50
90.0
 51
129.3566817194825
  0
LINE
  5
149A
330
2
100
AcDbEntity
  8
0
 62
     0
100
AcDbLine
 10
245.3620129084482
 20
162.3616813470048
 30
0.0
 11
314.8620129084481
 21
219.3616813470035
 31
0.0
  0
LINE
  5
149B
330
2
100
AcDbEntity
  8
0
 62
     0
100
AcDbLine
 10
287.4631320410287
 20
164.6295489623845
 30
0.0
 11
354.1979250363117
 21
219.3616813470035
 31
0.0
  0
ARC
  5
149C
330
2
100
AcDbEntity
  8
0
 62
     0
100
AcDbCircle
 10
281.1216709486068
 20
172.3616813470048
 30
0.0
 40
10.0
100
AcDbArc
 50
270.0
 51
309.3566817194814
  0
LINE
  5
149D
330
2
100
AcDbEntity
  8
0
 62
     0
100
AcDbLine
 10
308.4382669961531
 20
219.3616813470035
 30
0.0
 11
354.1979250363117
 21
219.3616813470035
 31
0.0
  0
LINE
  5
149E
330
2
100
AcDbEntity
  8
0
 62
     0
100
AcDbLine
 10
235.3620129084482
 20
162.3616813470048
 30
0.0
 11
281.1216709486068
 21
162.3616813470048
 31
0.0
  0
LINE
  5
14A0
330
2
100
AcDbEntity
  8
0
 62
     0
 48
0.0351
100
AcDbLine
 10
340.8033827834468
 20
165.6299938470044
 30
0.0
 11
346.3842509834484
 21
165.6299938470044
 31
0.0
  0
LINE
  5
14A1
330
2
100
AcDbEntity
  8
0
 62
     0
 48
0.005062
100
AcDbLine
 10
346.3842509834484
 20
165.6299938470044
 30
0.0
 11
346.3842509834484
 21
166.4349313470047
 31
0.0
  0
LINE
  5
14A2
330
2
100
AcDbEntity
  8
0
 62
     0
 48
0.00945
100
AcDbLine
 10
346.3842509834484
 20
166.4349313470047
 30
0.0
 11
344.8817367584468
 21
166.4349313470047
 31
0.0
  0
LINE
  5
14A3
330
2
100
AcDbEntity
  8
0
 62
     0
 48
0.03375
100
AcDbLine
 10
344.8817367584468
 20
166.4349313470047
 30
0.0
 11
344.8817367584468
 21
171.8012051970054
 31
0.0
  0
LINE
  5
14A4
330
2
100
AcDbEntity
  8
0
 62
     0
 48
0.00945
100
AcDbLine
 10
344.8817367584468
 20
171.8012051970054
 30
0.0
 11
346.3842509834484
 21
171.8012051970054
 31
0.0
  0
LINE
  5
14A5
330
2
100
AcDbEntity
  8
0
 62
     0
 48
0.005062
100
AcDbLine
 10
346.3842509834484
 20
171.8012051970054
 30
0.0
 11
346.3842509834484
 21
172.6061387220054
 31
0.0
  0
LINE
  5
14A6
330
2
100
AcDbEntity
  8
0
 62
     0
 48
0.0351
100
AcDbLine
 10
346.3842509834484
 20
172.6061387220054
 30
0.0
 11
340.8033827834468
 21
172.6061387220054
 31
0.0
  0
LINE
  5
14A7
330
2
100
AcDbEntity
  8
0
 62
     0
 48
0.005062
100
AcDbLine
 10
340.8033827834468
 20
172.6061387220054
 30
0.0
 11
340.8033827834468
 21
171.8012051970054
 31
0.0
  0
LINE
  5
14A8
330
2
100
AcDbEntity
  8
0
 62
     0
 48
0.00945
100
AcDbLine
 10
340.8033827834468
 20
171.8012051970054
 30
0.0
 11
342.3058970084483
 21
171.8012051970054
 31
0.0
  0
LINE
  5
14A9
330
2
100
AcDbEntity
  8
0
 62
     0
 48
0.03375
100
AcDbLine
 10
342.3058970084483
 20
171.8012051970054
 30
0.0
 11
342.3058970084483
 21
166.4349313470047
 31
0.0
  0
LINE
  5
14AA
330
2
100
AcDbEntity
  8
0
 62
     0
 48
0.00945
100
AcDbLine
 10
342.3058970084483
 20
166.4349313470047
 30
0.0
 11
340.8033827834468
 21
166.4349313470047
 31
0.0
  0
LINE
  5
14AB
330
2
100
AcDbEntity
  8
0
 62
     0
 48
0.005062
100
AcDbLine
 10
340.8033827834468
 20
166.4349313470047
 30
0.0
 11
340.8033827834468
 21
165.6299938470044
 31
0.0
  0
LINE
  5
14AC
330
2
100
AcDbEntity
  8
0
 62
     0
 48
0.005062
100
AcDbLine
 10
338.1202458584492
 20
165.6299938470044
 30
0.0
 11
338.1202458584492
 21
166.4349313470047
 31
0.0
  0
LINE
  5
14AD
330
2
100
AcDbEntity
  8
0
 62
     0
 48
0.00945
100
AcDbLine
 10
338.1202458584492
 20
166.4349313470047
 30
0.0
 11
336.6176720084494
 21
166.4349313470047
 31
0.0
  0
LINE
  5
14AE
330
2
100
AcDbEntity
  8
0
 62
     0
 48
0.03375
100
AcDbLine
 10
336.6176720084494
 20
166.4349313470047
 30
0.0
 11
336.6176720084494
 21
171.8012051970054
 31
0.0
  0
LINE
  5
14AF
330
2
100
AcDbEntity
  8
0
 62
     0
 48
0.00945
100
AcDbLine
 10
336.6176720084494
 20
171.8012051970054
 30
0.0
 11
338.1202458584492
 21
171.8012051970054
 31
0.0
  0
LINE
  5
14B0
330
2
100
AcDbEntity
  8
0
 62
     0
 48
0.005062
100
AcDbLine
 10
338.1202458584492
 20
171.8012051970054
 30
0.0
 11
338.1202458584492
 21
172.6061387220054
 31
0.0
  0
LINE
  5
14B1
330
2
100
AcDbEntity
  8
0
 62
     0
 48
0.03375
100
AcDbLine
 10
338.1202458584492
 20
172.6061387220054
 30
0.0
 11
332.7539720084485
 21
172.6061387220054
 31
0.0
  0
LINE
  5
14B2
330
2
100
AcDbEntity
  8
0
 62
     0
 48
0.005062
100
AcDbLine
 10
332.7539720084485
 20
172.6061387220054
 30
0.0
 11
332.7539720084485
 21
171.8012051970054
 31
0.0
  0
LINE
  5
14B3
330
2
100
AcDbEntity
  8
0
 62
     0
 48
0.00945
100
AcDbLine
 10
332.7539720084485
 20
171.8012051970054
 30
0.0
 11
334.2565458584484
 21
171.8012051970054
 31
0.0
  0
LINE
  5
14B4
330
2
100
AcDbEntity
  8
0
 62
     0
 48
0.012825
100
AcDbLine
 10
334.2565458584484
 20
171.8012051970054
 30
0.0
 11
334.2565458584484
 21
169.7620262220052
 31
0.0
  0
LINE
  5
14B5
330
2
100
AcDbEntity
  8
0
 62
     0
 48
0.0324
100
AcDbLine
 10
334.2565458584484
 20
169.7620262220052
 30
0.0
 11
329.1049220084494
 21
169.7620262220052
 31
0.0
  0
LINE
  5
14B6
330
2
100
AcDbEntity
  8
0
 62
     0
 48
0.012825
100
AcDbLine
 10
329.1049220084494
 20
169.7620262220052
 30
0.0
 11
329.1049220084494
 21
171.8012051970054
 31
0.0
  0
LINE
  5
14B7
330
2
100
AcDbEntity
  8
0
 62
     0
 48
0.00945
100
AcDbLine
 10
329.1049220084494
 20
171.8012051970054
 30
0.0
 11
330.6074958584493
 21
171.8012051970054
 31
0.0
  0
LINE
  5
14B8
330
2
100
AcDbEntity
  8
0
 62
     0
 48
0.005062
100
AcDbLine
 10
330.6074958584493
 20
171.8012051970054
 30
0.0
 11
330.6074958584493
 21
172.6061387220054
 31
0.0
  0
LINE
  5
14B9
330
2
100
AcDbEntity
  8
0
 62
     0
 48
0.03375
100
AcDbLine
 10
330.6074958584493
 20
172.6061387220054
 30
0.0
 11
325.2412220084486
 21
172.6061387220054
 31
0.0
  0
LINE
  5
14BA
330
2
100
AcDbEntity
  8
0
 62
     0
 48
0.005062
100
AcDbLine
 10
325.2412220084486
 20
172.6061387220054
 30
0.0
 11
325.2412220084486
 21
171.8012051970054
 31
0.0
  0
LINE
  5
14BB
330
2
100
AcDbEntity
  8
0
 62
     0
 48
0.00945
100
AcDbLine
 10
325.2412220084486
 20
171.8012051970054
 30
0.0
 11
326.7437958584485
 21
171.8012051970054
 31
0.0
  0
LINE
  5
14BC
330
2
100
AcDbEntity
  8
0
 62
     0
 48
0.03375
100
AcDbLine
 10
326.7437958584485
 20
171.8012051970054
 30
0.0
 11
326.7437958584485
 21
166.4349313470047
 31
0.0
  0
LINE
  5
14BD
330
2
100
AcDbEntity
  8
0
 62
     0
 48
0.00945
100
AcDbLine
 10
326.7437958584485
 20
166.4349313470047
 30
0.0
 11
325.2412220084486
 21
166.4349313470047
 31
0.0
  0
LINE
  5
14BE
330
2
100
AcDbEntity
  8
0
 62
     0
 48
0.005062
100
AcDbLine
 10
325.2412220084486
 20
166.4349313470047
 30
0.0
 11
325.2412220084486
 21
165.6299938470044
 31
0.0
  0
LINE
  5
14BF
330
2
100
AcDbEntity
  8
0
 62
     0
 48
0.03375
100
AcDbLine
 10
325.2412220084486
 20
165.6299938470044
 30
0.0
 11
330.6074958584493
 21
165.6299938470044
 31
0.0
  0
LINE
  5
14C0
330
2
100
AcDbEntity
  8
0
 62
     0
 48
0.005062
100
AcDbLine
 10
330.6074958584493
 20
165.6299938470044
 30
0.0
 11
330.6074958584493
 21
166.4349313470047
 31
0.0
  0
LINE
  5
14C1
330
2
100
AcDbEntity
  8
0
 62
     0
 48
0.00945
100
AcDbLine
 10
330.6074958584493
 20
166.4349313470047
 30
0.0
 11
329.1049220084494
 21
166.4349313470047
 31
0.0
  0
LINE
  5
14C2
330
2
100
AcDbEntity
  8
0
 62
     0
 48
0.012825
100
AcDbLine
 10
329.1049220084494
 20
166.4349313470047
 30
0.0
 11
329.1049220084494
 21
168.4741063470046
 31
0.0
  0
LINE
  5
14C3
330
2
100
AcDbEntity
  8
0
 62
     0
 48
0.0324
100
AcDbLine
 10
329.1049220084494
 20
168.4741063470046
 30
0.0
 11
334.2565458584484
 21
168.4741063470046
 31
0.0
  0
LINE
  5
14C4
330
2
100
AcDbEntity
  8
0
 62
     0
 48
0.012825
100
AcDbLine
 10
334.2565458584484
 20
168.4741063470046
 30
0.0
 11
334.2565458584484
 21
166.4349313470047
 31
0.0
  0
LINE
  5
14C5
330
2
100
AcDbEntity
  8
0
 62
     0
 48
0.00945
100
AcDbLine
 10
334.2565458584484
 20
166.4349313470047
 30
0.0
 11
332.7539720084485
 21
166.4349313470047
 31
0.0
  0
LINE
  5
14C6
330
2
100
AcDbEntity
  8
0
 62
     0
 48
0.005062
100
AcDbLine
 10
332.7539720084485
 20
166.4349313470047
 30
0.0
 11
332.7539720084485
 21
165.6299938470044
 31
0.0
  0
LINE
  5
14C7
330
2
100
AcDbEntity
  8
0
 62
     0
 48
0.03375
100
AcDbLine
 10
332.7539720084485
 20
165.6299938470044
 30
0.0
 11
338.1202458584492
 21
165.6299938470044
 31
0.0
  0
LINE
  5
14C8
330
2
100
AcDbEntity
  8
0
 62
     0
 48
0.029025
100
AcDbLine
 10
353.6823430334487
 20
165.6299938470044
 30
0.0
 11
349.0673879084513
 21
165.6299938470044
 31
0.0
  0
LINE
  5
14C9
330
2
100
AcDbEntity
  8
0
 62
     0
 48
0.005062
100
AcDbLine
 10
353.6823430334487
 20
166.4349313470047
 30
0.0
 11
353.6823430334487
 21
165.6299938470044
 31
0.0
  0
LINE
  5
14CA
330
2
100
AcDbEntity
  8
0
 62
     0
 48
0.00945
100
AcDbLine
 10
352.1798288084499
 20
166.4349313470047
 30
0.0
 11
353.6823430334487
 21
166.4349313470047
 31
0.0
  0
LINE
  5
14CB
330
2
100
AcDbEntity
  8
0
 62
     0
 48
0.023288
100
AcDbLine
 10
352.1798288084499
 20
170.137655772005
 30
0.0
 11
352.1798288084499
 21
166.4349313470047
 31
0.0
  0
LINE
  5
14CC
330
2
100
AcDbEntity
  8
0
 62
     0
 48
0.045119
100
AcDbLine
 10
357.7606970084487
 20
165.6299938470044
 30
0.0
 11
352.1798288084499
 21
170.137655772005
 31
0.0
  0
LINE
  5
14CD
330
2
100
AcDbEntity
  8
0
 62
     0
 48
0.0135
100
AcDbLine
 10
359.9072327834491
 20
165.6299938470044
 30
0.0
 11
357.7606970084487
 21
165.6299938470044
 31
0.0
  0
LINE
  5
14CE
330
2
100
AcDbEntity
  8
0
 62
     0
 48
0.038813
100
AcDbLine
 10
359.9072327834491
 20
171.8012051970054
 30
0.0
 11
359.9072327834491
 21
165.6299938470044
 31
0.0
  0
LINE
  5
14CF
330
2
100
AcDbEntity
  8
0
 62
     0
 48
0.00945
100
AcDbLine
 10
361.4097430334502
 20
171.8012051970054
 30
0.0
 11
359.9072327834491
 21
171.8012051970054
 31
0.0
  0
LINE
  5
14D0
330
2
100
AcDbEntity
  8
0
 62
     0
 48
0.005062
100
AcDbLine
 10
361.4097430334502
 20
172.6061387220054
 30
0.0
 11
361.4097430334502
 21
171.8012051970054
 31
0.0
  0
LINE
  5
14D1
330
2
100
AcDbEntity
  8
0
 62
     0
 48
0.029025
100
AcDbLine
 10
356.7947879084475
 20
172.6061387220054
 30
0.0
 11
361.4097430334502
 21
172.6061387220054
 31
0.0
  0
LINE
  5
14D2
330
2
100
AcDbEntity
  8
0
 62
     0
 48
0.005062
100
AcDbLine
 10
356.7947879084475
 20
171.8012051970054
 30
0.0
 11
356.7947879084475
 21
172.6061387220054
 31
0.0
  0
LINE
  5
14D3
330
2
100
AcDbEntity
  8
0
 62
     0
 48
0.00945
100
AcDbLine
 10
358.2973617584473
 20
171.8012051970054
 30
0.0
 11
356.7947879084475
 21
171.8012051970054
 31
0.0
  0
LINE
  5
14D4
330
2
100
AcDbEntity
  8
0
 62
     0
 48
0.023288
100
AcDbLine
 10
358.2973617584473
 20
168.0984807720044
 30
0.0
 11
358.2973617584473
 21
171.8012051970054
 31
0.0
  0
LINE
  5
14D5
330
2
100
AcDbEntity
  8
0
 62
     0
 48
0.045119
100
AcDbLine
 10
352.7164339334473
 20
172.6061387220054
 30
0.0
 11
358.2973617584473
 21
168.0984807720044
 31
0.0
  0
LINE
  5
14D6
330
2
100
AcDbEntity
  8
0
 62
     0
 48
0.02295
100
AcDbLine
 10
349.0673879084513
 20
172.6061387220054
 30
0.0
 11
352.7164339334473
 21
172.6061387220054
 31
0.0
  0
LINE
  5
14D7
330
2
100
AcDbEntity
  8
0
 62
     0
 48
0.005062
100
AcDbLine
 10
349.0673879084513
 20
171.8012051970054
 30
0.0
 11
349.0673879084513
 21
172.6061387220054
 31
0.0
  0
LINE
  5
14D8
330
2
100
AcDbEntity
  8
0
 62
     0
 48
0.00945
100
AcDbLine
 10
350.5699617584511
 20
171.8012051970054
 30
0.0
 11
349.0673879084513
 21
171.8012051970054
 31
0.0
  0
LINE
  5
14D9
330
2
100
AcDbEntity
  8
0
 62
     0
 48
0.03375
100
AcDbLine
 10
350.5699617584511
 20
166.4349313470047
 30
0.0
 11
350.5699617584511
 21
171.8012051970054
 31
0.0
  0
LINE
  5
14DA
330
2
100
AcDbEntity
  8
0
 62
     0
 48
0.00945
100
AcDbLine
 10
349.0673879084513
 20
166.4349313470047
 30
0.0
 11
350.5699617584511
 21
166.4349313470047
 31
0.0
  0
LINE
  5
14DB
330
2
100
AcDbEntity
  8
0
 62
     0
 48
0.005062
100
AcDbLine
 10
349.0673879084513
 20
165.6299938470044
 30
0.0
 11
349.0673879084513
 21
166.4349313470047
 31
0.0
  0
ARC
  5
14DC
330
2
100
AcDbEntity
  8
0
 62
     0
100
AcDbCircle
 10
369.1908254084508
 20
162.2492801970043
 30
0.0
 40
10.625175
100
AcDbArc
 50
64.7249900000072
 51
115.275014999994
  0
ARC
  5
14DD
330
2
100
AcDbEntity
  8
0
 62
     0
100
AcDbCircle
 10
366.132058933448
 20
169.1180682720051
 30
0.0
 40
3.112424999999998
100
AcDbArc
 50
118.346754999986
 51
241.6532420000006
  0
ARC
  5
14DE
330
2
100
AcDbEntity
  8
0
 62
     0
100
AcDbCircle
 10
369.1908254084508
 20
175.9868563470052
 30
0.0
 40
10.625175
100
AcDbArc
 50
244.7249959999989
 51
295.2750069999943
  0
ARC
  5
14DF
330
2
100
AcDbEntity
  8
0
 62
     0
100
AcDbCircle
 10
372.2495879084479
 20
169.1180682720051
 30
0.0
 40
3.112424999999998
100
AcDbArc
 50
298.3467619999975
 51
61.65324300002192
  0
ARC
  5
14E0
330
2
100
AcDbEntity
  8
0
 62
     0
100
AcDbCircle
 10
369.8884617584497
 20
169.1180682720051
 30
0.0
 40
2.790449999999998
100
AcDbArc
 50
305.4392029999755
 51
70.52459300000333
  0
ARC
  5
14E1
330
2
100
AcDbEntity
  8
0
 62
     0
100
AcDbCircle
 10
369.1908254084508
 20
170.4596069220047
 30
0.0
 40
4.293083474999998
100
AcDbArc
 50
237.358228000004
 51
302.6417750000046
  0
ARC
  5
14E2
330
2
100
AcDbEntity
  8
0
 62
     0
100
AcDbCircle
 10
368.49324470845
 20
169.1180682720051
 30
0.0
 40
2.790449999999998
100
AcDbArc
 50
125.4734559999889
 51
234.5607989999814
  0
ARC
  5
14E3
330
2
100
AcDbEntity
  8
0
 62
     0
100
AcDbCircle
 10
369.1908254084508
 20
167.776469997005
 30
0.0
 40
4.293
100
AcDbArc
 50
67.71515100001909
 51
122.6640080000096
  0
ARC
  5
14E4
330
2
100
AcDbEntity
  8
0
 62
     0
100
AcDbCircle
 10
317.6211788084472
 20
166.4886097470048
 30
0.0
 40
5.419912499999997
100
AcDbArc
 50
47.61290100002042
 51
130.8365899999895
  0
ARC
  5
14E5
330
2
100
AcDbEntity
  8
0
 62
     0
100
AcDbCircle
 10
319.1236930334487
 20
169.1180682720051
 30
0.0
 40
2.552415074999998
100
AcDbArc
 50
22.23683299998921
 51
32.56157500001047
  0
LINE
  5
14E6
330
2
100
AcDbEntity
  8
0
 62
     0
 48
0.009779
100
AcDbLine
 10
323.041071433451
 20
170.0839773720049
 30
0.0
 11
321.48627403345
 21
170.0839773720049
 31
0.0
  0
LINE
  5
14E7
330
2
100
AcDbEntity
  8
0
 62
     0
 48
0.015863
100
AcDbLine
 10
323.041071433451
 20
170.0839773720049
 30
0.0
 11
323.041071433451
 21
172.6061387220054
 31
0.0
  0
LINE
  5
14E8
330
2
100
AcDbEntity
  8
0
 62
     0
 48
0.007425
100
AcDbLine
 10
323.041071433451
 20
172.6061387220054
 30
0.0
 11
321.8605083584478
 21
172.6061387220054
 31
0.0
  0
LINE
  5
14E9
330
2
100
AcDbEntity
  8
0
 62
     0
 48
0.006848
100
AcDbLine
 10
321.8605083584478
 20
172.6061387220054
 30
0.0
 11
321.8605083584478
 21
171.5173464720046
 31
0.0
  0
ARC
  5
14EA
330
2
100
AcDbEntity
  8
0
 62
     0
100
AcDbCircle
 10
319.1236930334487
 20
168.1521591720045
 30
0.0
 40
4.337571674999998
100
AcDbArc
 50
50.87978999997882
 51
69.67686400002293
  0
ARC
  5
14EB
330
2
100
AcDbEntity
  8
0
 62
     0
100
AcDbCircle
 10
316.977220858447
 20
162.3565773720054
 30
0.0
 40
10.51785
100
AcDbArc
 50
69.67686400002293
 51
114.9026059999957
  0
ARC
  5
14EC
330
2
100
AcDbEntity
  8
0
 62
     0
100
AcDbCircle
 10
314.1867867584476
 20
169.1180682720051
 30
0.0
 40
3.2255535
100
AcDbArc
 50
120.526432999999
 51
239.4735629999976
  0
ARC
  5
14ED
330
2
100
AcDbEntity
  8
0
 62
     0
100
AcDbCircle
 10
316.977220858447
 20
175.8795591720054
 30
0.0
 40
10.51785
100
AcDbArc
 50
245.0974039999884
 51
290.3231459999633
  0
ARC
  5
14EE
330
2
100
AcDbEntity
  8
0
 62
     0
100
AcDbCircle
 10
319.1236930334487
 20
170.0839773720049
 30
0.0
 40
4.337571674999998
100
AcDbArc
 50
290.32314599996
 51
333.5525890000045
  0
LINE
  5
14EF
330
2
100
AcDbEntity
  8
0
 62
     0
 48
0.009566
100
AcDbLine
 10
323.0073475334464
 20
168.1521591720045
 30
0.0
 11
321.48627403345
 21
168.1521591720045
 31
0.0
  0
ARC
  5
14F0
330
2
100
AcDbEntity
  8
0
 62
     0
100
AcDbCircle
 10
319.1236930334487
 20
169.1180682720051
 30
0.0
 40
2.552415074999998
100
AcDbArc
 50
299.7448729999918
 51
337.7631540000018
  0
ARC
  5
14F1
330
2
100
AcDbEntity
  8
0
 62
     0
100
AcDbCircle
 10
317.6211788084472
 20
171.7475267970053
 30
0.0
 40
5.580899999999997
100
AcDbArc
 50
242.0490359999746
 51
299.7448729999918
  0
ARC
  5
14F2
330
2
100
AcDbEntity
  8
0
 62
     0
100
AcDbCircle
 10
316.2259617584475
 20
169.1180682720051
 30
0.0
 40
2.604201374999999
100
AcDbArc
 50
145.6044559999958
 51
242.0490359999762
  0
CIRCLE
  5
14F5
330
2
100
AcDbEntity
  8
0
 62
     0
100
AcDbCircle
 10
422.8620129084481
 20
206.3616813470021
 30
0.0
 40
3.0
  0
CIRCLE
  5
14F6
330
2
100
AcDbEntity
  8
0
 62
     0
100
AcDbCircle
 10
470.862012908448
 20
206.3616813470021
 30
0.0
 40
3.0
  0
LWPOLYLINE
  5
14F7
330
2
100
AcDbEntity
  8
0
 62
     0
100
AcDbPolyline
 90
        4
 70
     0
 43
0.0
 10
422.3620129084481
 20
205.8616813470021
 10
420.362012908448
 20
205.8616813470021
 10
420.362012908448
 20
206.8616813470021
 10
422.3620129084481
 20
206.8616813470021
  0
LWPOLYLINE
  5
14F8
330
2
100
AcDbEntity
  8
0
 62
     0
100
AcDbPolyline
 90
        4
 70
     0
 43
0.0
 10
423.3620129084481
 20
206.8616813470021
 10
425.362012908448
 20
206.8616813470021
 10
425.362012908448
 20
205.8616813470021
 10
423.3620129084481
 20
205.8616813470021
  0
LWPOLYLINE
  5
14F9
330
2
100
AcDbEntity
  8
0
 62
     0
100
AcDbPolyline
 90
        4
 70
     0
 43
0.0
 10
422.3620129084481
 20
206.8616813470021
 10
422.3620129084481
 20
208.8616813470021
 10
423.3620129084481
 20
208.8616813470021
 10
423.3620129084481
 20
206.8616813470021
  0
LWPOLYLINE
  5
14FA
330
2
100
AcDbEntity
  8
0
 62
     0
100
AcDbPolyline
 90
        4
 70
     0
 43
0.0
 10
423.3620129084481
 20
205.8616813470021
 10
423.3620129084481
 20
203.8616813470021
 10
422.3620129084481
 20
203.8616813470021
 10
422.3620129084481
 20
205.8616813470021
  0
LWPOLYLINE
  5
14FB
330
2
100
AcDbEntity
  8
0
 62
     0
100
AcDbPolyline
 90
        4
 70
     0
 43
0.0
 10
471.3620129084481
 20
205.8616813470021
 10
473.3620129084481
 20
205.8616813470021
 10
473.3620129084481
 20
206.8616813470021
 10
471.3620129084481
 20
206.8616813470021
  0
LWPOLYLINE
  5
14FC
330
2
100
AcDbEntity
  8
0
 62
     0
100
AcDbPolyline
 90
        4
 70
     0
 43
0.0
 10
470.362012908448
 20
206.8616813470021
 10
468.3620129084481
 20
206.8616813470021
 10
468.3620129084481
 20
205.8616813470021
 10
470.362012908448
 20
205.8616813470021
  0
LWPOLYLINE
  5
14FD
330
2
100
AcDbEntity
  8
0
 62
     0
100
AcDbPolyline
 90
        4
 70
     0
 43
0.0
 10
471.3620129084481
 20
206.8616813470021
 10
471.3620129084481
 20
208.8616813470021
 10
470.362012908448
 20
208.8616813470021
 10
470.362012908448
 20
206.8616813470021
  0
LWPOLYLINE
  5
14FE
330
2
100
AcDbEntity
  8
0
 62
     0
100
AcDbPolyline
 90
        4
 70
     0
 43
0.0
 10
470.362012908448
 20
205.8616813470021
 10
470.362012908448
 20
203.8616813470021
 10
471.3620129084481
 20
203.8616813470021
 10
471.3620129084481
 20
205.8616813470021
  0
LINE
  5
14FF
330
2
100
AcDbEntity
  8
0
 62
     4
 48
0.2
100
AcDbLine
 10
386.8620129084482
 20
182.8616813470053
 30
0.0
 11
394.3620129084481
 21
182.8616813470053
 31
0.0
  0
LINE
  5
1500
330
2
100
AcDbEntity
  8
0
 62
     0
 48
0.2
100
AcDbLine
 10
394.3620129084481
 20
182.8616813470053
 30
0.0
 11
394.3620129084481
 21
165.8616813470053
 31
0.0
  0
LINE
  5
1501
330
2
100
AcDbEntity
  8
0
 62
     4
 48
0.2
100
AcDbLine
 10
394.3620129084481
 20
165.8616813470053
 30
0.0
 11
386.8620129084482
 21
165.8616813470053
 31
0.0
  0
LINE
  5
1502
330
2
100
AcDbEntity
  8
0
 62
     0
 48
0.2
100
AcDbLine
 10
386.8620129084482
 20
183.3616813470053
 30
0.0
 11
393.8620129084482
 21
183.3616813470053
 31
0.0
  0
LINE
  5
1503
330
2
100
AcDbEntity
  8
0
 62
     0
 48
0.2
100
AcDbLine
 10
393.8620129084482
 20
183.3616813470053
 30
0.0
 11
394.3620129084481
 21
182.8616813470053
 31
0.0
  0
LINE
  5
1504
330
2
100
AcDbEntity
  8
0
 62
     0
 48
0.2
100
AcDbLine
 10
394.3620129084481
 20
182.8616813470053
 30
0.0
 11
394.3620129084481
 21
165.8616813470053
 31
0.0
  0
LINE
  5
1505
330
2
100
AcDbEntity
  8
0
 62
     0
 48
0.2
100
AcDbLine
 10
394.3620129084481
 20
165.8616813470053
 30
0.0
 11
393.8620129084482
 21
165.3616813470053
 31
0.0
  0
LINE
  5
1506
330
2
100
AcDbEntity
  8
0
 62
     0
 48
0.2
100
AcDbLine
 10
393.8620129084482
 20
165.3616813470053
 30
0.0
 11
386.8620129084482
 21
165.3616813470053
 31
0.0
  0
LINE
  5
1507
330
2
100
AcDbEntity
  8
0
 62
     4
 48
0.2
100
AcDbLine
 10
393.8620129084482
 20
183.3616813470053
 30
0.0
 11
393.8620129084482
 21
165.3616813470053
 31
0.0
  0
LINE
  5
1508
330
2
100
AcDbEntity
  8
0
 62
     0
 48
0.2
100
AcDbLine
 10
386.8620129084482
 20
68.36168134700528
 30
0.0
 11
393.8620129084482
 21
68.36168134700528
 31
0.0
  0
LINE
  5
1509
330
2
100
AcDbEntity
  8
0
 62
     4
 48
0.2
100
AcDbLine
 10
386.8620129084482
 20
85.86168134700505
 30
0.0
 11
394.3620129084481
 21
85.86168134700505
 31
0.0
  0
LINE
  5
150A
330
2
100
AcDbEntity
  8
0
 62
     0
 48
0.2
100
AcDbLine
 10
394.3620129084481
 20
85.86168134700505
 30
0.0
 11
394.3620129084481
 21
68.86168134700529
 31
0.0
  0
LINE
  5
150B
330
2
100
AcDbEntity
  8
0
 62
     4
 48
0.2
100
AcDbLine
 10
394.3620129084481
 20
68.86168134700529
 30
0.0
 11
386.8620129084482
 21
68.86168134700529
 31
0.0
  0
LINE
  5
150C
330
2
100
AcDbEntity
  8
0
 62
     0
 48
0.2
100
AcDbLine
 10
386.8620129084482
 20
86.36168134700506
 30
0.0
 11
393.8620129084482
 21
86.36168134700506
 31
0.0
  0
LINE
  5
150D
330
2
100
AcDbEntity
  8
0
 62
     0
 48
0.2
100
AcDbLine
 10
393.8620129084482
 20
86.36168134700506
 30
0.0
 11
394.3620129084481
 21
85.86168134700505
 31
0.0
  0
LINE
  5
150E
330
2
100
AcDbEntity
  8
0
 62
     0
 48
0.2
100
AcDbLine
 10
394.3620129084481
 20
85.86168134700505
 30
0.0
 11
394.3620129084481
 21
68.86168134700529
 31
0.0
  0
LINE
  5
150F
330
2
100
AcDbEntity
  8
0
 62
     0
 48
0.2
100
AcDbLine
 10
394.3620129084481
 20
68.86168134700529
 30
0.0
 11
393.8620129084482
 21
68.36168134700528
 31
0.0
  0
LINE
  5
1510
330
2
100
AcDbEntity
  8
0
 62
     4
 48
0.2
100
AcDbLine
 10
393.8620129084482
 20
86.36168134700506
 30
0.0
 11
393.8620129084482
 21
68.36168134700528
 31
0.0
  0
LINE
  5
1511
330
2
100
AcDbEntity
  8
0
 62
     0
 48
0.2
100
AcDbLine
 10
449.026174667762
 20
190.8616813470021
 30
0.0
 11
449.026174667762
 21
173.461681347002
 31
0.0
  0
LINE
  5
1512
330
2
100
AcDbEntity
  8
0
 62
     0
 48
0.2
100
AcDbLine
 10
449.026174667762
 20
173.461681347002
 30
0.0
 11
422.5261746677618
 21
173.461681347002
 31
0.0
  0
LINE
  5
1513
330
2
100
AcDbEntity
  8
0
 62
     0
 48
0.2
100
AcDbLine
 10
422.5261746677618
 20
173.461681347002
 30
0.0
 11
422.5261746677611
 21
190.8616813470021
 31
0.0
  0
LINE
  5
1514
330
2
100
AcDbEntity
  8
0
 62
     0
 48
0.5
100
AcDbLine
 10
419.776174667762
 20
190.8616813470021
 30
0.0
 11
419.776174667762
 21
170.7116813470022
 31
0.0
  0
LINE
  5
1515
330
2
100
AcDbEntity
  8
0
 62
     0
 48
0.5
100
AcDbLine
 10
451.776174667762
 20
190.8616813470021
 30
0.0
 11
451.776174667762
 21
170.711681347002
 31
0.0
  0
LINE
  5
1516
330
2
100
AcDbEntity
  8
0
 62
     0
 48
0.2
100
AcDbLine
 10
449.026174667762
 20
173.461681347002
 30
0.0
 11
422.5261746677618
 21
173.461681347002
 31
0.0
  0
LINE
  5
1517
330
2
100
AcDbEntity
  8
0
 62
     0
 48
0.5
100
AcDbLine
 10
451.7761746677611
 20
170.711681347002
 30
0.0
 11
419.776174667762
 21
170.7116813470022
 31
0.0
  0
LINE
  5
1518
330
2
100
AcDbEntity
  8
0
 62
     0
 48
0.5
100
AcDbLine
 10
422.5261746677618
 20
173.461681347002
 30
0.0
 11
419.776174667762
 21
170.7116813470022
 31
0.0
  0
LINE
  5
1519
330
2
100
AcDbEntity
  8
0
 62
     0
 48
0.5
100
AcDbLine
 10
449.026174667762
 20
173.461681347002
 30
0.0
 11
451.7761746677611
 21
170.711681347002
 31
0.0
  0
LINE
  5
151A
330
2
100
AcDbEntity
  8
0
 48
0.5
100
AcDbLine
 10
455.612012908448
 20
206.3616813470246
 30
0.0
 11
450.362012908448
 21
206.3616813470066
 31
0.0
  0
LINE
  5
151B
330
2
100
AcDbEntity
  8
0
 48
0.5
100
AcDbLine
 10
443.3620129084481
 20
206.3616813469956
 30
0.0
 11
438.1120129084481
 21
206.3616813469756
 31
0.0
  0
CIRCLE
  5
151C
330
2
100
AcDbEntity
  8
0
 48
0.5
100
AcDbCircle
 10
446.8620129084481
 20
206.3616813470012
 30
0.0
 40
0.75
  0
CIRCLE
  5
151D
330
2
100
AcDbEntity
  8
0
 48
0.5
100
AcDbCircle
 10
446.8620129084481
 20
206.3616813470012
 30
0.0
 40
3.5
  0
LINE
  5
151E
330
2
100
AcDbEntity
  8
0
 62
     0
 48
0.2
100
AcDbLine
 10
386.8620129084482
 20
268.8616813470056
 30
0.0
 11
393.8620129084482
 21
268.8616813470056
 31
0.0
  0
LINE
  5
151F
330
2
100
AcDbEntity
  8
0
 62
     4
 48
0.2
100
AcDbLine
 10
386.8620129084482
 20
286.3616813470054
 30
0.0
 11
394.3620129084481
 21
286.3616813470054
 31
0.0
  0
LINE
  5
1520
330
2
100
AcDbEntity
  8
0
 62
     4
 48
0.2
100
AcDbLine
 10
394.3620129084481
 20
269.3616813470056
 30
0.0
 11
386.8620129084482
 21
269.3616813470056
 31
0.0
  0
LINE
  5
1521
330
2
100
AcDbEntity
  8
0
 62
     0
 48
0.2
100
AcDbLine
 10
386.8620129084482
 20
286.8616813470054
 30
0.0
 11
393.8620129084482
 21
286.8616813470054
 31
0.0
  0
LINE
  5
1522
330
2
100
AcDbEntity
  8
0
 62
     0
 48
0.2
100
AcDbLine
 10
393.8620129084482
 20
286.8616813470054
 30
0.0
 11
394.3620129084481
 21
286.3616813470054
 31
0.0
  0
LINE
  5
1523
330
2
100
AcDbEntity
  8
0
 62
     0
 48
0.2
100
AcDbLine
 10
394.3620129084481
 20
286.3616813470054
 30
0.0
 11
394.3620129084481
 21
269.3616813470056
 31
0.0
  0
LINE
  5
1524
330
2
100
AcDbEntity
  8
0
 62
     0
 48
0.2
100
AcDbLine
 10
394.3620129084481
 20
269.3616813470056
 30
0.0
 11
393.8620129084482
 21
268.8616813470056
 31
0.0
  0
LINE
  5
1525
330
2
100
AcDbEntity
  8
0
 62
     4
 48
0.2
100
AcDbLine
 10
393.8620129084482
 20
286.8616813470054
 30
0.0
 11
393.8620129084482
 21
268.8616813470056
 31
0.0
  0
LINE
  5
1526
330
2
100
AcDbEntity
  8
0
  6
CENTER
 62
     4
 48
2.0
100
AcDbLine
 10
435.3620129084482
 20
206.3616813470044
 30
0.0
 11
458.362012908448
 21
206.3616813470044
 31
0.0
1001
GENIUS_GENOBJ-N-CEN_13
1002
{
1000
OWNER
1000
GEN
1002
}
1001
GENIUS_GENODEF_13
1002
{
1000
HIER
1070
     0
1002
}
1002
{
1000
MANEDIT
1070
     0
1002
}
1002
{
1000
NOSEL
1070
     0
1002
}
1002
{
1000
BEHIND
1070
     0
1002
}
1002
{
1000
OTHER
1070
     0
1002
}
1002
{
1000
REACTOR
1002
}
1001
GENIUS_GENCEN_19
1002
{
1040
3.0
1002
}
  0
LINE
  5
1527
330
2
100
AcDbEntity
  8
0
100
AcDbLine
 10
448.1120129084443
 20
197.7014273091601
 30
0.0
 11
448.1120129084443
 21
190.8616813470077
 31
0.0
  0
LINE
  5
1528
330
2
100
AcDbEntity
  8
0
100
AcDbLine
 10
445.6120129084442
 20
197.7014273091601
 30
0.0
 11
445.6120129084442
 21
190.8616813470013
 31
0.0
  0
ARC
  5
1529
330
2
100
AcDbEntity
  8
0
 62
     0
100
AcDbCircle
 10
446.8620129084481
 20
206.3616813470012
 30
0.0
 40
8.75
100
AcDbArc
 50
278.2132107017133
 51
261.7867892982374
  0
LINE
  5
152B
330
2
100
AcDbEntity
  8
0
 62
     7
100
AcDbLine
 10
239.5620129084482
 20
270.8616813470053
 30
0.0
 11
250.8620129084481
 21
270.8616813470052
 31
0.0
  0
ARC
  5
152C
330
2
100
AcDbEntity
  8
0
 62
     7
100
AcDbCircle
 10
250.8620129084481
 20
251.8616813470051
 30
0.0
 40
0.5
100
AcDbArc
 50
270.0
 51
0.0
  0
LINE
  5
152D
330
2
100
AcDbEntity
  8
0
 62
     7
100
AcDbLine
 10
250.8620129084481
 20
251.8616813470053
 30
0.0
 11
250.8620129084481
 21
270.8616813470052
 31
0.0
  0
LINE
  5
1533
330
2
100
AcDbEntity
  8
0
 62
     7
100
AcDbLine
 10
239.5620129084482
 20
259.3616813470053
 30
0.0
 11
239.5620129084482
 21
270.8616813470053
 31
0.0
  0
LINE
  5
1534
330
2
100
AcDbEntity
  8
0
 62
     7
100
AcDbLine
 10
235.8620129084481
 20
259.3616813470053
 30
0.0
 11
239.5620129084482
 21
259.3616813470051
 31
0.0
  0
LINE
  5
1535
330
2
100
AcDbEntity
  8
0
 62
     7
100
AcDbLine
 10
235.8620129084481
 20
251.8616813470053
 30
0.0
 11
250.8620129084481
 21
251.8616813470053
 31
0.0
  0
ARC
  5
1536
330
2
100
AcDbEntity
  8
0
 62
     7
100
AcDbCircle
 10
250.8620129084481
 20
270.8616813470052
 30
0.0
 40
0.5
100
AcDbArc
 50
0.0
 51
90.0
  0
ARC
  5
1537
330
2
100
AcDbEntity
  8
0
 62
     7
100
AcDbCircle
 10
235.8620129084481
 20
251.8616813470053
 30
0.0
 40
0.5
100
AcDbArc
 50
180.0
 51
270.0
  0
ARC
  5
1538
330
2
100
AcDbEntity
  8
0
 62
     7
100
AcDbCircle
 10
235.8620129084481
 20
270.8616813470053
 30
0.0
 40
0.5
100
AcDbArc
 50
90.0
 51
180.0
  0
LINE
  5
1539
330
2
100
AcDbEntity
  8
0
 62
     7
100
AcDbLine
 10
235.8620129084481
 20
271.361681347005
 30
0.0
 11
250.8620129084481
 21
271.361681347005
 31
0.0
  0
LINE
  5
153A
330
2
100
AcDbEntity
  8
0
 62
     7
100
AcDbLine
 10
235.3620129084482
 20
251.8616813470053
 30
0.0
 11
235.3620129084482
 21
270.8616813470053
 31
0.0
  0
LINE
  5
153B
330
2
100
AcDbEntity
  8
0
 62
     7
100
AcDbLine
 10
251.3620129084482
 20
251.8616813470051
 30
0.0
 11
251.3620129084482
 21
270.8616813470052
 31
0.0
  0
LINE
  5
153C
330
2
100
AcDbEntity
  8
0
 62
     7
100
AcDbLine
 10
235.8620129084481
 20
251.3616813470051
 30
0.0
 11
250.8620129084481
 21
251.3616813470051
 31
0.0
  0
LINE
  5
153D
330
2
100
AcDbEntity
  8
0
 62
     7
100
AcDbLine
 10
235.8620129084481
 20
251.8616813470053
 30
0.0
 11
235.8620129084481
 21
259.3616813470053
 31
0.0
  0
LINE
  5
153E
330
2
100
AcDbEntity
  8
0
 62
     7
100
AcDbLine
 10
240.3070129084481
 20
257.5119098760156
 30
0.0
 11
237.0156800241978
 21
255.6116579547285
 31
0.0
  0
ARC
  5
153F
330
2
100
AcDbEntity
  8
0
 62
     7
100
AcDbCircle
 10
240.3620129084481
 20
255.6116579459196
 30
0.0
 40
0.51
100
AcDbArc
 50
156.1859646674605
 51
158.81403533255
  0
ARC
  5
1540
330
2
100
AcDbEntity
  8
0
 62
     7
100
AcDbCircle
 10
240.3620129084481
 20
255.6116579459196
 30
0.0
 40
0.51
100
AcDbArc
 50
126.1859646674447
 51
128.8140353325462
  0
ARC
  5
1541
330
2
100
AcDbEntity
  8
0
 62
     7
100
AcDbCircle
 10
240.3620129084481
 20
255.6116579459196
 30
0.0
 40
0.51
100
AcDbArc
 50
141.1859646674481
 51
143.8140353325491
  0
ARC
  5
1542
330
2
100
AcDbEntity
  8
0
 62
     7
100
AcDbCircle
 10
240.3620129084481
 20
255.6116579459196
 30
0.0
 40
0.51
100
AcDbArc
 50
111.1859646674553
 51
113.814035332545
  0
ARC
  5
1543
330
2
100
AcDbEntity
  8
0
 62
     7
100
AcDbCircle
 10
240.3620129084481
 20
255.6116579459196
 30
0.0
 40
0.51
100
AcDbArc
 50
96.18596466745669
 51
98.81403533253807
  0
ARC
  5
1544
330
2
100
AcDbEntity
  8
0
 62
     7
100
AcDbCircle
 10
240.3620129084481
 20
255.6116579459196
 30
0.0
 40
0.51
100
AcDbArc
 50
66.18596466746405
 51
68.81403533255161
  0
ARC
  5
1545
330
2
100
AcDbEntity
  8
0
 62
     7
100
AcDbCircle
 10
240.3620129084481
 20
255.6116579459196
 30
0.0
 40
0.51
100
AcDbArc
 50
81.18596466746195
 51
83.81403533254331
  0
ARC
  5
1546
330
2
100
AcDbEntity
  8
0
 62
     7
100
AcDbCircle
 10
240.3620129084481
 20
255.6116579459196
 30
0.0
 40
0.51
100
AcDbArc
 50
51.18596466744179
 51
53.81403533255529
  0
ARC
  5
1547
330
2
100
AcDbEntity
  8
0
 62
     7
100
AcDbCircle
 10
240.3620129084481
 20
255.6116579459196
 30
0.0
 40
0.51
100
AcDbArc
 50
36.18596466745864
 51
38.81403533255184
  0
ARC
  5
1548
330
2
100
AcDbEntity
  8
0
 62
     7
100
AcDbCircle
 10
240.3620129084481
 20
255.6116579459196
 30
0.0
 40
0.51
100
AcDbArc
 50
6.185964667459924
 51
8.814035332551167
  0
ARC
  5
1549
330
2
100
AcDbEntity
  8
0
 62
     7
100
AcDbCircle
 10
240.3620129084481
 20
255.6116579459196
 30
0.0
 40
0.51
100
AcDbArc
 50
21.18596466747108
 51
23.81403533256788
  0
ARC
  5
154A
330
2
100
AcDbEntity
  8
0
 62
     7
100
AcDbCircle
 10
240.3620129084481
 20
255.6116579459196
 30
0.0
 40
0.51
100
AcDbArc
 50
351.185964667462
 51
353.8140353325597
  0
ARC
  5
154B
330
2
100
AcDbEntity
  8
0
 62
     7
100
AcDbCircle
 10
240.3620129084481
 20
255.6116579459196
 30
0.0
 40
0.51
100
AcDbArc
 50
336.1859646674671
 51
338.8140353325779
  0
ARC
  5
154C
330
2
100
AcDbEntity
  8
0
 62
     7
100
AcDbCircle
 10
240.3620129084481
 20
255.6116579459196
 30
0.0
 40
0.51
100
AcDbArc
 50
306.1859646674534
 51
308.8140353325794
  0
ARC
  5
154D
330
2
100
AcDbEntity
  8
0
 62
     7
100
AcDbCircle
 10
240.3620129084481
 20
255.6116579459196
 30
0.0
 40
0.51
100
AcDbArc
 50
321.1859646674564
 51
323.8140353325655
  0
ARC
  5
154E
330
2
100
AcDbEntity
  8
0
 62
     7
100
AcDbCircle
 10
240.3620129084481
 20
255.6116579459196
 30
0.0
 40
0.51
100
AcDbArc
 50
291.1859646674554
 51
293.8140353325451
  0
ARC
  5
154F
330
2
100
AcDbEntity
  8
0
 62
     7
100
AcDbCircle
 10
240.3620129084481
 20
255.6116579459196
 30
0.0
 40
0.51
100
AcDbArc
 50
276.1859646674599
 51
278.8140353325413
  0
ARC
  5
1550
330
2
100
AcDbEntity
  8
0
 62
     7
100
AcDbCircle
 10
240.3620129084481
 20
255.6116579459196
 30
0.0
 40
0.51
100
AcDbArc
 50
216.1859646674508
 51
218.8140353325437
  0
ARC
  5
1551
330
2
100
AcDbEntity
  8
0
 62
     7
100
AcDbCircle
 10
240.3620129084481
 20
255.6116579459196
 30
0.0
 40
0.51
100
AcDbArc
 50
231.1859646674415
 51
233.8140353325466
  0
ARC
  5
1552
330
2
100
AcDbEntity
  8
0
 62
     7
100
AcDbCircle
 10
240.3620129084481
 20
255.6116579459196
 30
0.0
 40
0.51
100
AcDbArc
 50
246.1859646674478
 51
248.8140353325412
  0
ARC
  5
1553
330
2
100
AcDbEntity
  8
0
 62
     7
100
AcDbCircle
 10
240.3620129084481
 20
255.6116579459196
 30
0.0
 40
0.51
100
AcDbArc
 50
261.1859646674587
 51
263.8140353325399
  0
ARC
  5
1554
330
2
100
AcDbEntity
  8
0
 62
     7
100
AcDbCircle
 10
240.3620129084481
 20
255.6116579459196
 30
0.0
 40
0.51
100
AcDbArc
 50
201.1859646674293
 51
203.8140353325394
  0
ARC
  5
1555
330
2
100
AcDbEntity
  8
0
 62
     7
100
AcDbCircle
 10
240.3620129084481
 20
255.6116579459196
 30
0.0
 40
0.51
100
AcDbArc
 50
186.1859646674599
 51
188.814035332538
  0
ARC
  5
1556
330
2
100
AcDbEntity
  8
0
 62
     7
100
AcDbCircle
 10
240.3620129084481
 20
255.6116579459196
 30
0.0
 40
1.02
100
AcDbArc
 50
161.9090226026879
 51
168.0909773973065
  0
LINE
  5
1557
330
2
100
AcDbEntity
  8
0
 62
     7
100
AcDbLine
 10
239.8860972828309
 20
255.7961193433917
 30
0.0
 11
239.3924369722406
 21
255.9283952249498
 31
0.0
  0
LINE
  5
1558
330
2
100
AcDbEntity
  8
0
 62
     7
100
AcDbLine
 10
239.8576271878696
 20
255.6898675025
 30
0.0
 11
239.3639668772794
 21
255.8221433840579
 31
0.0
  0
ARC
  5
1559
330
2
100
AcDbEntity
  8
0
 62
     7
100
AcDbCircle
 10
240.3620129084481
 20
255.6116579459196
 30
0.0
 40
1.02
100
AcDbArc
 50
131.9090226026836
 51
138.0909773973095
  0
LINE
  5
155A
330
2
100
AcDbEntity
  8
0
 62
     7
100
AcDbLine
 10
240.0420885853416
 20
256.0093640149569
 30
0.0
 11
239.6807041563095
 21
256.370748443989
 31
0.0
  0
LINE
  5
155B
330
2
100
AcDbEntity
  8
0
 62
     7
100
AcDbLine
 10
239.9643068394112
 20
255.9315822690262
 30
0.0
 11
239.6029224103788
 21
256.2929666980585
 31
0.0
  0
ARC
  5
155C
330
2
100
AcDbEntity
  8
0
 62
     7
100
AcDbCircle
 10
240.3620129084481
 20
255.6116579459196
 30
0.0
 40
1.02
100
AcDbArc
 50
101.9090226026768
 51
108.0909773973052
  0
LINE
  5
155D
330
2
100
AcDbEntity
  8
0
 62
     7
100
AcDbLine
 10
240.2838033518678
 20
256.1160436664984
 30
0.0
 11
240.1515274703101
 21
256.6097039770887
 31
0.0
  0
LINE
  5
155E
330
2
100
AcDbEntity
  8
0
 62
     7
100
AcDbLine
 10
240.1775515109762
 20
256.087573571537
 30
0.0
 11
240.0452756294182
 21
256.5812338821272
 31
0.0
  0
ARC
  5
155F
330
2
100
AcDbEntity
  8
0
 62
     7
100
AcDbCircle
 10
240.3620129084481
 20
255.6116579459196
 30
0.0
 40
1.02
100
AcDbArc
 50
71.90902260268616
 51
78.09097739731321
  0
LINE
  5
1560
330
2
100
AcDbEntity
  8
0
 62
     7
100
AcDbLine
 10
240.5464743059204
 20
256.087573571537
 30
0.0
 11
240.6787501874783
 21
256.5812338821272
 31
0.0
  0
LINE
  5
1561
330
2
100
AcDbEntity
  8
0
 62
     7
100
AcDbLine
 10
240.4402224650285
 20
256.1160436664984
 30
0.0
 11
240.5724983465864
 21
256.6097039770887
 31
0.0
  0
ARC
  5
1562
330
2
100
AcDbEntity
  8
0
 62
     7
100
AcDbCircle
 10
240.3620129084481
 20
255.6116579459196
 30
0.0
 40
1.02
100
AcDbArc
 50
41.90902260268155
 51
48.09097739731559
  0
LINE
  5
1563
330
2
100
AcDbEntity
  8
0
 62
     7
100
AcDbLine
 10
240.7597189774854
 20
255.9315822690262
 30
0.0
 11
241.1211034065175
 21
256.2929666980585
 31
0.0
  0
LINE
  5
1564
330
2
100
AcDbEntity
  8
0
 62
     7
100
AcDbLine
 10
240.6819372315547
 20
256.0093640149569
 30
0.0
 11
241.043321660587
 21
256.370748443989
 31
0.0
  0
ARC
  5
1565
330
2
100
AcDbEntity
  8
0
 62
     7
100
AcDbCircle
 10
240.3620129084481
 20
255.6116579459196
 30
0.0
 40
1.02
100
AcDbArc
 50
11.9090226026868
 51
18.09097739731873
  0
LINE
  5
1566
330
2
100
AcDbEntity
  8
0
 62
     7
100
AcDbLine
 10
240.8663986290269
 20
255.6898675025
 30
0.0
 11
241.3600589396172
 21
255.8221433840579
 31
0.0
  0
LINE
  5
1567
330
2
100
AcDbEntity
  8
0
 62
     7
100
AcDbLine
 10
240.8379285340654
 20
255.7961193433919
 30
0.0
 11
241.3315888446557
 21
255.9283952249498
 31
0.0
  0
ARC
  5
1568
330
2
100
AcDbEntity
  8
0
 62
     7
100
AcDbCircle
 10
240.3620129084481
 20
255.6116579459196
 30
0.0
 40
1.02
100
AcDbArc
 50
341.9090226026813
 51
348.0909773973199
  0
LINE
  5
1569
330
2
100
AcDbEntity
  8
0
 62
     7
100
AcDbLine
 10
240.8379285340654
 20
255.4271965484477
 30
0.0
 11
241.3315888446557
 21
255.2949206668898
 31
0.0
  0
LINE
  5
156A
330
2
100
AcDbEntity
  8
0
 62
     7
100
AcDbLine
 10
240.8663986290269
 20
255.5334483893394
 30
0.0
 11
241.3600589396169
 21
255.4011725077817
 31
0.0
  0
ARC
  5
156B
330
2
100
AcDbEntity
  8
0
 62
     7
100
AcDbCircle
 10
240.3620129084481
 20
255.6116579459196
 30
0.0
 40
1.02
100
AcDbArc
 50
311.9090226026925
 51
318.0909773973187
  0
LINE
  5
156C
330
2
100
AcDbEntity
  8
0
 62
     7
100
AcDbLine
 10
240.6819372315547
 20
255.2139518768827
 30
0.0
 11
241.043321660587
 21
254.8525674478503
 31
0.0
  0
LINE
  5
156D
330
2
100
AcDbEntity
  8
0
 62
     7
100
AcDbLine
 10
240.7597189774854
 20
255.2917336228134
 30
0.0
 11
241.1211034065175
 21
254.930349193781
 31
0.0
  0
ARC
  5
156E
330
2
100
AcDbEntity
  8
0
 62
     7
100
AcDbCircle
 10
240.3620129084481
 20
255.6116579459196
 30
0.0
 40
1.02
100
AcDbArc
 50
281.9090226026887
 51
288.0909773973138
  0
LINE
  5
156F
330
2
100
AcDbEntity
  8
0
 62
     7
100
AcDbLine
 10
240.4402224650285
 20
255.1072722253412
 30
0.0
 11
240.5724983465864
 21
254.6136119147509
 31
0.0
  0
LINE
  5
1570
330
2
100
AcDbEntity
  8
0
 62
     7
100
AcDbLine
 10
240.5464743059204
 20
255.1357423203024
 30
0.0
 11
240.6787501874783
 21
254.6420820097121
 31
0.0
  0
ARC
  5
1571
330
2
100
AcDbEntity
  8
0
 62
     7
100
AcDbCircle
 10
240.3620129084481
 20
255.6116579459196
 30
0.0
 40
1.02
100
AcDbArc
 50
251.9090226026913
 51
258.090977397323
  0
LINE
  5
1572
330
2
100
AcDbEntity
  8
0
 62
     7
100
AcDbLine
 10
240.1775515109762
 20
255.1357423203026
 30
0.0
 11
240.0452756294182
 21
254.6420820097121
 31
0.0
  0
LINE
  5
1573
330
2
100
AcDbEntity
  8
0
 62
     7
100
AcDbLine
 10
240.2838033518678
 20
255.1072722253412
 30
0.0
 11
240.1515274703099
 21
254.6136119147509
 31
0.0
  0
ARC
  5
1574
330
2
100
AcDbEntity
  8
0
 62
     7
100
AcDbCircle
 10
240.3620129084481
 20
255.6116579459196
 30
0.0
 40
1.02
100
AcDbArc
 50
221.9090226026816
 51
228.0909773973156
  0
LINE
  5
1575
330
2
100
AcDbEntity
  8
0
 62
     7
100
AcDbLine
 10
239.9643068394112
 20
255.2917336228134
 30
0.0
 11
239.6029224103788
 21
254.930349193781
 31
0.0
  0
LINE
  5
1576
330
2
100
AcDbEntity
  8
0
 62
     7
100
AcDbLine
 10
240.0420885853416
 20
255.2139518768827
 30
0.0
 11
239.6807041563095
 21
254.8525674478503
 31
0.0
  0
LINE
  5
1577
330
2
100
AcDbEntity
  8
0
 62
     7
100
AcDbLine
 10
239.8860972828309
 20
255.4271965484477
 30
0.0
 11
239.3924369722406
 21
255.2949206668898
 31
0.0
  0
LINE
  5
1578
330
2
100
AcDbEntity
  8
0
 62
     7
100
AcDbLine
 10
239.8576271878696
 20
255.5334483893394
 30
0.0
 11
239.3639668772794
 21
255.4011725077817
 31
0.0
  0
ARC
  5
1579
330
2
100
AcDbEntity
  8
0
 62
     7
100
AcDbCircle
 10
240.3620129084481
 20
255.6116579459196
 30
0.0
 40
0.51
100
AcDbArc
 50
171.1859646674421
 51
173.8140353325531
  0
ARC
  5
157A
330
2
100
AcDbEntity
  8
0
 62
     7
100
AcDbCircle
 10
240.3620129084481
 20
255.6116579459196
 30
0.0
 40
1.02
100
AcDbArc
 50
191.9090226026801
 51
198.0909773973187
  0
ARC
  5
157B
330
2
100
AcDbEntity
  8
0
 62
     7
100
AcDbCircle
 10
240.3620129084481
 20
255.6116579459196
 30
0.0
 40
1.53
100
AcDbArc
 50
147.9399039436371
 51
152.0600960563488
  0
LINE
  5
157C
330
2
100
AcDbEntity
  8
0
 62
     7
100
AcDbLine
 10
239.8950558372819
 20
255.8177472070468
 30
0.0
 11
239.0103504372989
 21
256.3285321078804
 31
0.0
  0
LINE
  5
157D
330
2
100
AcDbEntity
  8
0
 62
     7
100
AcDbLine
 10
239.950055837282
 20
255.9130100014631
 30
0.0
 11
239.065350437299
 21
256.4237949022968
 31
0.0
  0
ARC
  5
157E
330
2
100
AcDbEntity
  8
0
 62
     7
100
AcDbCircle
 10
240.3620129084481
 20
255.6116579459196
 30
0.0
 40
1.53
100
AcDbArc
 50
117.93990394364
 51
122.0600960563531
  0
LINE
  5
157F
330
2
100
AcDbEntity
  8
0
 62
     7
100
AcDbLine
 10
240.0606608529049
 20
256.0236150170861
 30
0.0
 11
239.5498759520712
 21
256.9083204170691
 31
0.0
  0
LINE
  5
1580
330
2
100
AcDbEntity
  8
0
 62
     7
100
AcDbLine
 10
240.1559236473213
 20
256.0786150170861
 30
0.0
 11
239.6451387464876
 21
256.9633204170691
 31
0.0
  0
LINE
  5
1581
330
2
100
AcDbEntity
  8
0
 62
     7
100
AcDbLine
 10
240.3070129084481
 20
256.11909926259
 30
0.0
 11
240.3070129084481
 21
257.5119098760156
 31
0.0
  0
LINE
  5
1582
330
2
100
AcDbEntity
  8
0
 62
     7
100
AcDbLine
 10
240.4170129084482
 20
256.11909926259
 30
0.0
 11
240.4170129084482
 21
257.5754184054449
 31
0.0
  0
ARC
  5
1583
330
2
100
AcDbEntity
  8
0
 62
     7
100
AcDbCircle
 10
240.3620129084481
 20
255.6116579459196
 30
0.0
 40
1.53
100
AcDbArc
 50
57.93990394365049
 51
62.0600960563547
  0
LINE
  5
1584
330
2
100
AcDbEntity
  8
0
 62
     7
100
AcDbLine
 10
240.5681021695752
 20
256.0786150170861
 30
0.0
 11
241.0788870704089
 21
256.9633204170691
 31
0.0
  0
LINE
  5
1585
330
2
100
AcDbEntity
  8
0
 62
     7
100
AcDbLine
 10
240.6633649639914
 20
256.0236150170861
 30
0.0
 11
241.174149864825
 21
256.9083204170691
 31
0.0
  0
ARC
  5
1586
330
2
100
AcDbEntity
  8
0
 62
     7
100
AcDbCircle
 10
240.3620129084481
 20
255.6116579459196
 30
0.0
 40
1.53
100
AcDbArc
 50
27.93990394364387
 51
32.06009605634748
  0
LINE
  5
1587
330
2
100
AcDbEntity
  8
0
 62
     7
100
AcDbLine
 10
240.7739699796145
 20
255.9130100014631
 30
0.0
 11
241.6586753795973
 21
256.4237949022965
 31
0.0
  0
LINE
  5
1588
330
2
100
AcDbEntity
  8
0
 62
     7
100
AcDbLine
 10
240.8289699796144
 20
255.8177472070468
 30
0.0
 11
241.7136753795974
 21
256.3285321078804
 31
0.0
  0
ARC
  5
1589
330
2
100
AcDbEntity
  8
0
 62
     7
100
AcDbCircle
 10
240.3620129084481
 20
255.6116579459196
 30
0.0
 40
1.53
100
AcDbArc
 50
357.9399039436392
 51
2.060096056360728
  0
LINE
  5
158A
330
2
100
AcDbEntity
  8
0
 62
     7
100
AcDbLine
 10
240.8694542251185
 20
255.6666579459197
 30
0.0
 11
241.8910240267858
 21
255.6666579459197
 31
0.0
  0
LINE
  5
158B
330
2
100
AcDbEntity
  8
0
 62
     7
100
AcDbLine
 10
240.8694542251185
 20
255.5566579459198
 30
0.0
 11
241.8910240267858
 21
255.5566579459198
 31
0.0
  0
ARC
  5
158C
330
2
100
AcDbEntity
  8
0
 62
     7
100
AcDbCircle
 10
240.3620129084481
 20
255.6116579459196
 30
0.0
 40
1.53
100
AcDbArc
 50
327.9399039436444
 51
332.0600960563561
  0
LINE
  5
158D
330
2
100
AcDbEntity
  8
0
 62
     7
100
AcDbLine
 10
240.8289699796144
 20
255.4055686847928
 30
0.0
 11
241.7136753795974
 21
254.8947837839592
 31
0.0
  0
LINE
  5
158E
330
2
100
AcDbEntity
  8
0
 62
     7
100
AcDbLine
 10
240.7739699796145
 20
255.3103058903764
 30
0.0
 11
241.6586753795973
 21
254.7995209895428
 31
0.0
  0
ARC
  5
158F
330
2
100
AcDbEntity
  8
0
 62
     7
100
AcDbCircle
 10
240.3620129084481
 20
255.6116579459196
 30
0.0
 40
1.53
100
AcDbArc
 50
297.9399039436454
 51
302.0600960563531
  0
LINE
  5
1590
330
2
100
AcDbEntity
  8
0
 62
     7
100
AcDbLine
 10
240.6633649639914
 20
255.1997008747535
 30
0.0
 11
241.174149864825
 21
254.3149954747705
 31
0.0
  0
LINE
  5
1591
330
2
100
AcDbEntity
  8
0
 62
     7
100
AcDbLine
 10
240.5681021695752
 20
255.1447008747534
 30
0.0
 11
241.0788870704089
 21
254.2599954747704
 31
0.0
  0
ARC
  5
1592
330
2
100
AcDbEntity
  8
0
 62
     7
100
AcDbCircle
 10
240.3620129084481
 20
255.6116579459196
 30
0.0
 40
1.53
100
AcDbArc
 50
267.9399039436425
 51
272.0600960563575
  0
LINE
  5
1593
330
2
100
AcDbEntity
  8
0
 62
     7
100
AcDbLine
 10
240.4170129084482
 20
255.1042166292496
 30
0.0
 11
240.4170129084482
 21
254.0826468275823
 31
0.0
  0
LINE
  5
1594
330
2
100
AcDbEntity
  8
0
 62
     7
100
AcDbLine
 10
240.3070129084481
 20
255.1042166292496
 30
0.0
 11
240.3070129084481
 21
254.0826468275823
 31
0.0
  0
ARC
  5
1595
330
2
100
AcDbEntity
  8
0
 62
     7
100
AcDbCircle
 10
240.3620129084481
 20
255.6116579459196
 30
0.0
 40
1.53
100
AcDbArc
 50
237.9399039436469
 51
242.0600960563585
  0
LINE
  5
1596
330
2
100
AcDbEntity
  8
0
 62
     7
100
AcDbLine
 10
240.1559236473213
 20
255.1447008747534
 30
0.0
 11
239.6451387464876
 21
254.2599954747704
 31
0.0
  0
LINE
  5
1597
330
2
100
AcDbEntity
  8
0
 62
     7
100
AcDbLine
 10
240.0606608529049
 20
255.1997008747535
 30
0.0
 11
239.5498759520712
 21
254.3149954747705
 31
0.0
  0
ARC
  5
1598
330
2
100
AcDbEntity
  8
0
 62
     7
100
AcDbCircle
 10
240.3620129084481
 20
255.6116579459196
 30
0.0
 40
1.53
100
AcDbArc
 50
207.9399039436439
 51
212.0600960563478
  0
LINE
  5
1599
330
2
100
AcDbEntity
  8
0
 62
     7
100
AcDbLine
 10
239.950055837282
 20
255.3103058903764
 30
0.0
 11
239.065350437299
 21
254.7995209895428
 31
0.0
  0
LINE
  5
159A
330
2
100
AcDbEntity
  8
0
 62
     7
100
AcDbLine
 10
239.8950558372819
 20
255.4055686847928
 30
0.0
 11
239.0103504372989
 21
254.8947837839592
 31
0.0
  0
ARC
  5
159B
330
2
100
AcDbEntity
  8
0
 62
     7
100
AcDbCircle
 10
240.3620129084481
 20
255.6116579459196
 30
0.0
 40
1.53
100
AcDbArc
 50
177.9399039436392
 51
182.0600960563477
  0
LINE
  5
159C
330
2
100
AcDbEntity
  8
0
 62
     7
100
AcDbLine
 10
239.854571591778
 20
255.5566579459198
 30
0.0
 11
238.8330017901105
 21
255.5566579459198
 31
0.0
  0
LINE
  5
159D
330
2
100
AcDbEntity
  8
0
 62
     7
100
AcDbLine
 10
239.854571591778
 20
255.6666579459197
 30
0.0
 11
238.8330017901105
 21
255.6666579459197
 31
0.0
  0
LINE
  5
159E
330
2
100
AcDbEntity
  8
0
 62
     7
100
AcDbLine
 10
242.0351793501618
 20
252.7136486594025
 30
0.0
 11
242.0351793501618
 21
258.5096672334935
 31
0.0
  0
LINE
  5
159F
330
2
100
AcDbEntity
  8
0
 62
     7
100
AcDbLine
 10
242.0351793501618
 20
258.5096672334935
 30
0.0
 11
240.4170129084482
 21
257.5754184054449
 31
0.0
  0
LINE
  5
15A0
330
2
100
AcDbEntity
  8
0
 62
     7
100
AcDbLine
 10
242.0351793501618
 20
252.7136486594025
 30
0.0
 11
237.0156800241978
 21
255.6116579547285
 31
0.0
  0
LINE
  5
15A1
330
2
100
AcDbEntity
  8
0
 62
     7
100
AcDbLine
 10
242.1451793499259
 20
252.1420718924964
 30
0.0
 11
236.4656800239623
 21
255.4211323671209
 31
0.0
  0
LINE
  5
15A2
330
2
100
AcDbEntity
  8
0
 62
     7
100
AcDbLine
 10
242.1451793503972
 20
259.081243999583
 30
0.0
 11
236.4656800244336
 21
255.802183544786
 31
0.0
  0
LINE
  5
15A3
330
2
100
AcDbEntity
  8
0
 62
     7
100
AcDbLine
 10
242.4751793501616
 20
252.3325974811928
 30
0.0
 11
242.4751793501616
 21
258.8907184106144
 31
0.0
  0
ARC
  5
15A4
330
2
100
AcDbEntity
  8
0
 62
     7
100
AcDbCircle
 10
242.2551793501616
 20
252.3325974811928
 30
0.0
 40
0.22
100
AcDbArc
 50
239.999999929114
 51
0.0
  0
ARC
  5
15A5
330
2
100
AcDbEntity
  8
0
 62
     7
100
AcDbCircle
 10
242.2551793501618
 20
258.8907184106144
 30
0.0
 40
0.22
100
AcDbArc
 50
0.0
 51
119.9999999291833
  0
ARC
  5
15A6
330
2
100
AcDbEntity
  8
0
 62
     7
100
AcDbCircle
 10
236.5756800241982
 20
255.6116579558172
 30
0.0
 40
0.22
100
AcDbArc
 50
119.9999999291833
 51
239.9999999290633
  0
LINE
  5
15A7
330
2
100
AcDbEntity
  8
0
  6
CENTER
 62
     4
 48
2.0
100
AcDbLine
 10
204.8620129084481
 20
261.3616813470053
 30
0.0
 11
485.8620129084481
 21
261.3616813470053
 31
0.0
1001
GENIUS_GENODEF_13
1002
{
1000
HIER
1070
     0
1002
}
1002
{
1000
MANEDIT
1070
     0
1002
}
1002
{
1000
NOSEL
1070
     0
1002
}
1002
{
1000
BEHIND
1070
     0
1002
}
1002
{
1000
OTHER
1070
     0
1002
}
1002
{
1000
REACTOR
1002
}
1001
GENIUS_GENOBJ-N-CEN_13
1002
{
1000
OWNER
1000
GEN
1002
}
1001
GENIUS_GENCEN_19
1002
{
1040
3.0
1002
}
  0
LINE
  5
15A8
330
2
100
AcDbEntity
  8
0
100
AcDbLine
 10
386.8620129084482
 20
260.4616813470053
 30
0.0
 11
386.8620129084482
 21
262.2616813470052
 31
0.0
  0
SPLINE
  5
15A9
330
2
100
AcDbEntity
  8
0
100
AcDbSpline
210
0.0
220
0.0
230
1.0
 70
  1064
 71
     3
 72
    10
 73
     6
 74
     4
 42
0.000000001
 43
0.0000000001
 44
0.0000000001
 40
0.0
 40
0.0
 40
0.0
 40
0.0
 40
1.762769218133051
 40
4.395690693839778
 40
6.413553354265793
 40
6.413553354265793
 40
6.413553354265793
 40
6.413553354265793
 10
406.7373681620061
 20
258.9153183262194
 30
0.0
 10
406.2495566879792
 20
259.4587217563345
 30
0.0
 10
405.0331363337598
 20
260.8137677692707
 30
0.0
 10
408.857940286796
 20
262.0301358129376
 30
0.0
 10
407.2255896128456
 20
263.2706780301314
 30
0.0
 10
406.5173521678747
 20
263.8089192697773
 30
0.0
 11
406.7373681620061
 21
258.9153183262194
 31
0.0
 11
405.8911313604291
 21
260.4616813470053
 31
0.0
 11
407.8126608286492
 21
262.2616813470052
 31
0.0
 11
406.5173521678747
 21
263.8089192697773
 31
0.0
  0
SPLINE
  5
15AA
330
2
100
AcDbEntity
  8
0
100
AcDbSpline
210
0.0
220
0.0
230
1.0
 70
  1064
 71
     3
 72
    10
 73
     6
 74
     4
 42
0.000000001
 43
0.0000000001
 44
0.0000000001
 40
0.0
 40
0.0
 40
0.0
 40
0.0
 40
1.68260651528555
 40
4.29236381534386
 40
6.369292337506598
 40
6.369292337506598
 40
6.369292337506598
 40
6.369292337506598
 10
408.459936425169
 20
258.9842623470711
 30
0.0
 10
408.0018828870165
 20
259.5023106084458
 30
0.0
 10
406.8333788934835
 20
260.8238623744266
 30
0.0
 10
410.5933753588121
 20
262.0439606241748
 30
0.0
 10
408.9626046966149
 20
263.3147198940823
 30
0.0
 10
408.2399204310376
 20
263.8778632906291
 30
0.0
 11
408.459936425169
 21
258.9842623470711
 31
0.0
 11
407.6547049156546
 21
260.4616813470053
 31
0.0
 11
409.5443697444558
 21
262.2616813470052
 31
0.0
 11
408.2399204310376
 21
263.8778632906291
 31
0.0
  0
LINE
  5
15AB
330
2
100
AcDbEntity
  8
0
100
AcDbLine
 10
386.8620129084482
 20
262.2616813470052
 30
0.0
 11
407.8126608286493
 21
262.2616813470052
 31
0.0
  0
LINE
  5
15AC
330
2
100
AcDbEntity
  8
0
100
AcDbLine
 10
409.5443697444558
 20
262.2616813470052
 30
0.0
 11
436.862012908448
 21
262.2616813470052
 31
0.0
  0
LINE
  5
15AD
330
2
100
AcDbEntity
  8
0
100
AcDbLine
 10
386.8620129084482
 20
260.4616813470053
 30
0.0
 11
405.8911313604291
 21
260.4616813470053
 31
0.0
  0
LINE
  5
15AE
330
2
100
AcDbEntity
  8
0
100
AcDbLine
 10
407.6547049156546
 20
260.4616813470053
 30
0.0
 11
436.862012908448
 21
260.4616813470053
 31
0.0
  0
LINE
  5
15AF
330
2
100
AcDbEntity
  8
0
100
AcDbLine
 10
436.862012908448
 20
262.2616813470052
 30
0.0
 11
436.8620129084482
 21
260.4616813470053
 31
0.0
  0
LINE
  5
15B0
330
2
100
AcDbEntity
  8
0
100
AcDbLine
 10
436.862012908448
 20
258.3616813470053
 30
0.0
 11
436.862012908448
 21
264.3616813470053
 31
0.0
  0
LINE
  5
15B1
330
2
100
AcDbEntity
  8
0
100
AcDbLine
 10
443.8620129084482
 20
266.5616813470053
 30
0.0
 11
475.8620129084481
 21
266.5616813470053
 31
0.0
  0
LINE
  5
15B2
330
2
100
AcDbEntity
  8
0
100
AcDbLine
 10
443.8620129084482
 20
256.1616813470053
 30
0.0
 11
475.8620129084481
 21
256.1616813470052
 31
0.0
  0
LINE
  5
15B3
330
2
100
AcDbEntity
  8
0
100
AcDbLine
 10
480.8620129084481
 20
264.8616813470053
 30
0.0
 11
480.8620129084481
 21
257.8616813470053
 31
0.0
  0
LINE
  5
15B4
330
2
100
AcDbEntity
  8
0
100
AcDbLine
 10
475.8620129084481
 20
266.5616813470053
 30
0.0
 11
475.8620129084481
 21
256.1616813470052
 31
0.0
  0
LINE
  5
15B5
330
2
100
AcDbEntity
  8
0
100
AcDbLine
 10
475.8620129084481
 20
262.3616813470053
 30
0.0
 11
480.8620129084481
 21
262.3616813470053
 31
0.0
  0
LINE
  5
15B6
330
2
100
AcDbEntity
  8
0
100
AcDbLine
 10
480.8620129084481
 20
260.3616813470053
 30
0.0
 11
475.8620129084481
 21
260.3616813470053
 31
0.0
  0
LINE
  5
15B7
330
2
100
AcDbEntity
  8
0
100
AcDbLine
 10
480.8620129084481
 20
264.8616813470053
 30
0.0
 11
475.8620129084481
 21
264.8616813470053
 31
0.0
  0
LINE
  5
15B8
330
2
100
AcDbEntity
  8
0
100
AcDbLine
 10
480.8620129084481
 20
257.8616813470053
 30
0.0
 11
475.8620129084481
 21
257.8616813470053
 31
0.0
  0
LINE
  5
15B9
330
2
100
AcDbEntity
  8
0
100
AcDbLine
 10
474.1620129084481
 20
264.8616813470053
 30
0.0
 11
474.1620129084481
 21
257.8616813470053
 31
0.0
  0
LINE
  5
15BA
330
2
100
AcDbEntity
  8
0
100
AcDbLine
 10
474.1620129084481
 20
264.8616813470053
 30
0.0
 11
453.1620129084481
 21
264.8616813470053
 31
0.0
  0
LINE
  5
15BB
330
2
100
AcDbEntity
  8
0
100
AcDbLine
 10
474.1620129084481
 20
257.8616813470053
 30
0.0
 11
453.1620129084481
 21
257.8616813470053
 31
0.0
  0
LINE
  5
15BC
330
2
100
AcDbEntity
  8
0
100
AcDbLine
 10
453.1620129084481
 20
264.8616813470053
 30
0.0
 11
453.1620129084481
 21
257.8616813470053
 31
0.0
  0
LINE
  5
15BD
330
2
100
AcDbEntity
  8
0
100
AcDbLine
 10
454.162012908448
 20
264.8616813470053
 30
0.0
 11
454.162012908448
 21
257.8616813470053
 31
0.0
  0
LINE
  5
15BE
330
2
100
AcDbEntity
  8
0
100
AcDbLine
 10
455.1620129084481
 20
264.8616813470053
 30
0.0
 11
455.1620129084481
 21
257.8616813470053
 31
0.0
  0
LINE
  5
15BF
330
2
100
AcDbEntity
  8
0
100
AcDbLine
 10
456.1620129084481
 20
264.8616813470053
 30
0.0
 11
456.1620129084481
 21
257.8616813470053
 31
0.0
  0
LINE
  5
15C0
330
2
100
AcDbEntity
  8
0
100
AcDbLine
 10
457.1620129084482
 20
264.8616813470053
 30
0.0
 11
457.1620129084482
 21
257.8616813470053
 31
0.0
  0
LINE
  5
15C1
330
2
100
AcDbEntity
  8
0
100
AcDbLine
 10
458.162012908448
 20
264.8616813470053
 30
0.0
 11
458.162012908448
 21
257.8616813470053
 31
0.0
  0
LINE
  5
15C2
330
2
100
AcDbEntity
  8
0
100
AcDbLine
 10
459.1620129084481
 20
264.8616813470053
 30
0.0
 11
459.1620129084481
 21
257.8616813470053
 31
0.0
  0
LINE
  5
15C3
330
2
100
AcDbEntity
  8
0
100
AcDbLine
 10
460.1620129084481
 20
264.8616813470053
 30
0.0
 11
460.1620129084481
 21
257.8616813470053
 31
0.0
  0
LINE
  5
15C4
330
2
100
AcDbEntity
  8
0
100
AcDbLine
 10
461.1620129084482
 20
264.8616813470053
 30
0.0
 11
461.1620129084482
 21
257.8616813470053
 31
0.0
  0
LINE
  5
15C5
330
2
100
AcDbEntity
  8
0
100
AcDbLine
 10
462.162012908448
 20
264.8616813470053
 30
0.0
 11
462.162012908448
 21
257.8616813470053
 31
0.0
  0
LINE
  5
15C6
330
2
100
AcDbEntity
  8
0
100
AcDbLine
 10
463.162012908448
 20
264.8616813470053
 30
0.0
 11
463.162012908448
 21
257.8616813470053
 31
0.0
  0
LINE
  5
15C7
330
2
100
AcDbEntity
  8
0
100
AcDbLine
 10
464.1620129084483
 20
264.8616813470053
 30
0.0
 11
464.1620129084483
 21
257.8616813470053
 31
0.0
  0
LINE
  5
15C8
330
2
100
AcDbEntity
  8
0
100
AcDbLine
 10
465.1620129084482
 20
264.8616813470053
 30
0.0
 11
465.1620129084482
 21
257.8616813470053
 31
0.0
  0
LINE
  5
15C9
330
2
100
AcDbEntity
  8
0
100
AcDbLine
 10
466.162012908448
 20
264.8616813470053
 30
0.0
 11
466.162012908448
 21
257.8616813470053
 31
0.0
  0
LINE
  5
15CA
330
2
100
AcDbEntity
  8
0
100
AcDbLine
 10
467.162012908448
 20
264.8616813470053
 30
0.0
 11
467.162012908448
 21
257.8616813470053
 31
0.0
  0
LINE
  5
15CB
330
2
100
AcDbEntity
  8
0
100
AcDbLine
 10
468.1620129084483
 20
264.8616813470053
 30
0.0
 11
468.1620129084483
 21
257.8616813470053
 31
0.0
  0
LINE
  5
15CC
330
2
100
AcDbEntity
  8
0
100
AcDbLine
 10
469.1620129084483
 20
264.8616813470053
 30
0.0
 11
469.1620129084483
 21
257.8616813470053
 31
0.0
  0
LINE
  5
15CD
330
2
100
AcDbEntity
  8
0
100
AcDbLine
 10
470.1620129084483
 20
264.8616813470053
 30
0.0
 11
470.1620129084483
 21
257.8616813470053
 31
0.0
  0
LINE
  5
15CE
330
2
100
AcDbEntity
  8
0
100
AcDbLine
 10
471.1620129084483
 20
264.8616813470053
 30
0.0
 11
471.1620129084483
 21
257.8616813470053
 31
0.0
  0
LINE
  5
15CF
330
2
100
AcDbEntity
  8
0
100
AcDbLine
 10
472.1620129084483
 20
264.8616813470053
 30
0.0
 11
472.1620129084483
 21
257.8616813470053
 31
0.0
  0
LINE
  5
15D0
330
2
100
AcDbEntity
  8
0
100
AcDbLine
 10
473.1620129084483
 20
264.8616813470053
 30
0.0
 11
473.1620129084483
 21
257.8616813470053
 31
0.0
  0
LINE
  5
15D1
330
2
100
AcDbEntity
  8
0
100
AcDbLine
 10
443.8620129084482
 20
266.5616813470053
 30
0.0
 11
443.8620129084482
 21
256.1616813470052
 31
0.0
  0
LINE
  5
15D2
330
2
100
AcDbEntity
  8
0
100
AcDbLine
 10
443.8620129084482
 20
266.5616813470053
 30
0.0
 11
436.862012908448
 21
264.3616813470053
 31
0.0
  0
LINE
  5
15D3
330
2
100
AcDbEntity
  8
0
100
AcDbLine
 10
436.862012908448
 20
258.3616813470053
 30
0.0
 11
443.8620129084482
 21
256.1616813470052
 31
0.0
  0
LINE
  5
15D4
330
2
100
AcDbEntity
  8
0
100
AcDbLine
 10
442.8620129084481
 20
256.475967061291
 30
0.0
 11
442.8620129084483
 21
266.2473956327196
 31
0.0
  0
LINE
  5
15D5
330
2
100
AcDbEntity
  8
0
100
AcDbLine
 10
441.8620129084482
 20
265.9331099184338
 30
0.0
 11
441.8620129084482
 21
256.7902527755767
 31
0.0
  0
LINE
  5
15D6
330
2
100
AcDbEntity
  8
0
100
AcDbLine
 10
441.8620129084482
 20
261.8616813470053
 30
0.0
 11
440.862012908448
 21
261.8616813470053
 31
0.0
  0
LINE
  5
15D7
330
2
100
AcDbEntity
  8
0
100
AcDbLine
 10
441.8620129084482
 20
260.8616813470053
 30
0.0
 11
440.862012908448
 21
260.8616813470053
 31
0.0
  0
LINE
  5
15D8
330
2
100
AcDbEntity
  8
0
100
AcDbLine
 10
440.862012908448
 20
257.1045384898625
 30
0.0
 11
440.862012908448
 21
265.6188242041482
 31
0.0
  0
LINE
  5
15D9
330
2
100
AcDbEntity
  8
0
100
AcDbLine
 10
439.8620129084481
 20
265.3045384898624
 30
0.0
 11
439.8620129084481
 21
257.4188242041482
 31
0.0
  0
LINE
  5
15DA
330
2
100
AcDbEntity
  8
0
100
AcDbLine
 10
438.8620129084483
 20
264.9902527755768
 30
0.0
 11
438.8620129084481
 21
257.7331099184339
 31
0.0
  0
CIRCLE
  5
15DB
330
2
100
AcDbEntity
  8
0
100
AcDbCircle
 10
475.0120129084481
 20
261.3616813470053
 30
0.0
 40
0.5
  0
LINE
  5
15DC
330
2
100
AcDbEntity
  8
0
100
AcDbLine
 10
386.8620129084482
 20
205.4616813470026
 30
0.0
 11
386.8620129084482
 21
207.2616813470026
 31
0.0
  0
SPLINE
  5
15DD
330
2
100
AcDbEntity
  8
0
100
AcDbSpline
210
0.0
220
0.0
230
1.0
 70
  1064
 71
     3
 72
    10
 73
     6
 74
     4
 42
0.000000001
 43
0.0000000001
 44
0.0000000001
 40
0.0
 40
0.0
 40
0.0
 40
0.0
 40
1.762769218132969
 40
4.395690693839712
 40
6.413553354265713
 40
6.413553354265713
 40
6.413553354265713
 40
6.413553354265713
 10
396.7373681620061
 20
203.9153183262167
 30
0.0
 10
396.2495566879793
 20
204.4587217563319
 30
0.0
 10
395.0331363337601
 20
205.813767769268
 30
0.0
 10
398.8579402867961
 20
207.0301358129351
 30
0.0
 10
397.2255896128457
 20
208.2706780301288
 30
0.0
 10
396.5173521678748
 20
208.8089192697747
 30
0.0
 11
396.7373681620061
 21
203.9153183262167
 31
0.0
 11
395.8911313604293
 21
205.4616813470026
 31
0.0
 11
397.8126608286493
 21
207.2616813470026
 31
0.0
 11
396.5173521678748
 21
208.8089192697747
 31
0.0
  0
SPLINE
  5
15DE
330
2
100
AcDbEntity
  8
0
100
AcDbSpline
210
0.0
220
0.0
230
1.0
 70
  1064
 71
     3
 72
    10
 73
     6
 74
     4
 42
0.000000001
 43
0.0000000001
 44
0.0000000001
 40
0.0
 40
0.0
 40
0.0
 40
0.0
 40
1.682606515285342
 40
4.292363815343587
 40
6.369292337506347
 40
6.369292337506347
 40
6.369292337506347
 40
6.369292337506347
 10
398.459936425169
 20
203.9842623470685
 30
0.0
 10
398.0018828870167
 20
204.5023106084431
 30
0.0
 10
396.833378893484
 20
205.8238623744239
 30
0.0
 10
400.593375358812
 20
207.0439606241722
 30
0.0
 10
398.9626046966149
 20
208.3147198940796
 30
0.0
 10
398.2399204310377
 20
208.8778632906265
 30
0.0
 11
398.459936425169
 21
203.9842623470685
 31
0.0
 11
397.6547049156549
 21
205.4616813470026
 31
0.0
 11
399.5443697444559
 21
207.2616813470026
 31
0.0
 11
398.2399204310377
 21
208.8778632906265
 31
0.0
  0
LINE
  5
15DF
330
2
100
AcDbEntity
  8
0
100
AcDbLine
 10
386.8620129084482
 20
207.2616813470026
 30
0.0
 11
397.8126608286493
 21
207.2616813470026
 31
0.0
  0
LINE
  5
15E0
330
2
100
AcDbEntity
  8
0
100
AcDbLine
 10
399.5443697444559
 20
207.2616813470026
 30
0.0
 11
407.8126608286493
 21
207.2616813470026
 31
0.0
  0
LINE
  5
15E1
330
2
100
AcDbEntity
  8
0
100
AcDbLine
 10
386.8620129084482
 20
205.4616813470026
 30
0.0
 11
395.8911313604293
 21
205.4616813470026
 31
0.0
  0
LINE
  5
15E2
330
2
100
AcDbEntity
  8
0
100
AcDbLine
 10
397.6547049156549
 20
205.4616813470026
 30
0.0
 11
407.8126608286494
 21
205.4616813470026
 31
0.0
  0
LINE
  5
15E3
330
2
100
AcDbEntity
  8
0
100
AcDbLine
 10
386.8620129084482
 20
92.96168134700531
 30
0.0
 11
386.8620129084482
 21
94.76168134700527
 31
0.0
  0
SPLINE
  5
15E4
330
2
100
AcDbEntity
  8
0
100
AcDbSpline
210
0.0
220
0.0
230
1.0
 70
  1064
 71
     3
 72
    10
 73
     6
 74
     4
 42
0.000000001
 43
0.0000000001
 44
0.0000000001
 40
0.0
 40
0.0
 40
0.0
 40
0.0
 40
1.762769218133001
 40
4.395690693839776
 40
6.413553354265769
 40
6.413553354265769
 40
6.413553354265769
 40
6.413553354265769
 10
406.7373681620061
 20
91.41531832621945
 30
0.0
 10
406.2495566879792
 20
91.95872175633457
 30
0.0
 10
405.0331363337598
 20
93.31376776927067
 30
0.0
 10
408.8579402867959
 20
94.53013581293772
 30
0.0
 10
407.2255896128456
 20
95.77067803013148
 30
0.0
 10
406.5173521678747
 20
96.30891926977731
 30
0.0
 11
406.7373681620061
 21
91.41531832621945
 31
0.0
 11
405.8911313604291
 21
92.96168134700531
 31
0.0
 11
407.8126608286492
 21
94.76168134700527
 31
0.0
 11
406.5173521678747
 21
96.30891926977731
 31
0.0
  0
SPLINE
  5
15E5
330
2
100
AcDbEntity
  8
0
100
AcDbSpline
210
0.0
220
0.0
230
1.0
 70
  1064
 71
     3
 72
    10
 73
     6
 74
     4
 42
0.000000001
 43
0.0000000001
 44
0.0000000001
 40
0.0
 40
0.0
 40
0.0
 40
0.0
 40
1.68260651528555
 40
4.292363815343909
 40
6.369292337506592
 40
6.369292337506592
 40
6.369292337506592
 40
6.369292337506592
 10
408.459936425169
 20
91.48426234707107
 30
0.0
 10
408.0018828870165
 20
92.00231060844576
 30
0.0
 10
406.8333788934835
 20
93.32386237442658
 30
0.0
 10
410.5933753588119
 20
94.54396062417481
 30
0.0
 10
408.9626046966149
 20
95.81471989408226
 30
0.0
 10
408.2399204310376
 20
96.37786329062908
 30
0.0
 11
408.459936425169
 21
91.48426234707107
 31
0.0
 11
407.6547049156546
 21
92.96168134700531
 31
0.0
 11
409.5443697444558
 21
94.76168134700527
 31
0.0
 11
408.2399204310376
 21
96.37786329062908
 31
0.0
  0
LINE
  5
15E6
330
2
100
AcDbEntity
  8
0
100
AcDbLine
 10
386.8620129084482
 20
94.76168134700527
 30
0.0
 11
407.8126608286493
 21
94.76168134700527
 31
0.0
  0
LINE
  5
15E7
330
2
100
AcDbEntity
  8
0
100
AcDbLine
 10
409.5443697444558
 20
94.76168134700527
 30
0.0
 11
436.862012908448
 21
94.76168134700527
 31
0.0
  0
LINE
  5
15E8
330
2
100
AcDbEntity
  8
0
100
AcDbLine
 10
386.8620129084482
 20
92.96168134700531
 30
0.0
 11
405.8911313604291
 21
92.96168134700531
 31
0.0
  0
LINE
  5
15E9
330
2
100
AcDbEntity
  8
0
100
AcDbLine
 10
407.6547049156546
 20
92.96168134700531
 30
0.0
 11
436.862012908448
 21
92.96168134700531
 31
0.0
  0
LINE
  5
15EA
330
2
100
AcDbEntity
  8
0
100
AcDbLine
 10
436.862012908448
 20
94.76168134700527
 30
0.0
 11
436.8620129084482
 21
92.96168134700531
 31
0.0
  0
LINE
  5
15EB
330
2
100
AcDbEntity
  8
0
100
AcDbLine
 10
436.862012908448
 20
90.86168134700526
 30
0.0
 11
436.862012908448
 21
96.8616813470053
 31
0.0
  0
LINE
  5
15EC
330
2
100
AcDbEntity
  8
0
100
AcDbLine
 10
443.8620129084482
 20
99.06168134700536
 30
0.0
 11
475.8620129084481
 21
99.06168134700536
 31
0.0
  0
LINE
  5
15ED
330
2
100
AcDbEntity
  8
0
100
AcDbLine
 10
443.8620129084482
 20
88.66168134700535
 30
0.0
 11
475.8620129084481
 21
88.66168134700521
 31
0.0
  0
LINE
  5
15EE
330
2
100
AcDbEntity
  8
0
100
AcDbLine
 10
480.8620129084481
 20
97.36168134700527
 30
0.0
 11
480.8620129084481
 21
90.36168134700528
 31
0.0
  0
LINE
  5
15EF
330
2
100
AcDbEntity
  8
0
100
AcDbLine
 10
475.8620129084481
 20
99.06168134700536
 30
0.0
 11
475.8620129084481
 21
88.66168134700521
 31
0.0
  0
LINE
  5
15F0
330
2
100
AcDbEntity
  8
0
100
AcDbLine
 10
480.8620129084481
 20
97.36168134700527
 30
0.0
 11
475.8620129084481
 21
97.36168134700527
 31
0.0
  0
LINE
  5
15F1
330
2
100
AcDbEntity
  8
0
100
AcDbLine
 10
480.8620129084481
 20
90.36168134700528
 30
0.0
 11
475.8620129084481
 21
90.36168134700528
 31
0.0
  0
LINE
  5
15F2
330
2
100
AcDbEntity
  8
0
100
AcDbLine
 10
474.1620129084481
 20
97.36168134700527
 30
0.0
 11
474.1620129084481
 21
90.36168134700528
 31
0.0
  0
LINE
  5
15F3
330
2
100
AcDbEntity
  8
0
100
AcDbLine
 10
474.1620129084481
 20
97.36168134700527
 30
0.0
 11
453.1620129084481
 21
97.36168134700527
 31
0.0
  0
LINE
  5
15F4
330
2
100
AcDbEntity
  8
0
100
AcDbLine
 10
474.1620129084481
 20
90.36168134700528
 30
0.0
 11
453.1620129084481
 21
90.36168134700528
 31
0.0
  0
LINE
  5
15F5
330
2
100
AcDbEntity
  8
0
100
AcDbLine
 10
453.1620129084481
 20
97.36168134700527
 30
0.0
 11
453.1620129084481
 21
90.36168134700528
 31
0.0
  0
LINE
  5
15F6
330
2
100
AcDbEntity
  8
0
100
AcDbLine
 10
454.162012908448
 20
97.36168134700527
 30
0.0
 11
454.162012908448
 21
90.36168134700528
 31
0.0
  0
LINE
  5
15F7
330
2
100
AcDbEntity
  8
0
100
AcDbLine
 10
455.1620129084481
 20
97.36168134700527
 30
0.0
 11
455.1620129084481
 21
90.36168134700528
 31
0.0
  0
LINE
  5
15F8
330
2
100
AcDbEntity
  8
0
100
AcDbLine
 10
456.1620129084481
 20
97.36168134700527
 30
0.0
 11
456.1620129084481
 21
90.36168134700528
 31
0.0
  0
LINE
  5
15F9
330
2
100
AcDbEntity
  8
0
100
AcDbLine
 10
457.1620129084482
 20
97.36168134700527
 30
0.0
 11
457.1620129084482
 21
90.36168134700528
 31
0.0
  0
LINE
  5
15FA
330
2
100
AcDbEntity
  8
0
100
AcDbLine
 10
458.162012908448
 20
97.36168134700527
 30
0.0
 11
458.162012908448
 21
90.36168134700528
 31
0.0
  0
LINE
  5
15FB
330
2
100
AcDbEntity
  8
0
100
AcDbLine
 10
459.1620129084481
 20
97.36168134700527
 30
0.0
 11
459.1620129084481
 21
90.36168134700528
 31
0.0
  0
LINE
  5
15FC
330
2
100
AcDbEntity
  8
0
100
AcDbLine
 10
460.1620129084481
 20
97.36168134700527
 30
0.0
 11
460.1620129084481
 21
90.36168134700528
 31
0.0
  0
LINE
  5
15FD
330
2
100
AcDbEntity
  8
0
100
AcDbLine
 10
461.1620129084482
 20
97.36168134700527
 30
0.0
 11
461.1620129084482
 21
90.36168134700528
 31
0.0
  0
LINE
  5
15FE
330
2
100
AcDbEntity
  8
0
100
AcDbLine
 10
462.162012908448
 20
97.36168134700527
 30
0.0
 11
462.162012908448
 21
90.36168134700528
 31
0.0
  0
LINE
  5
15FF
330
2
100
AcDbEntity
  8
0
100
AcDbLine
 10
463.162012908448
 20
97.36168134700527
 30
0.0
 11
463.162012908448
 21
90.36168134700528
 31
0.0
  0
LINE
  5
1600
330
2
100
AcDbEntity
  8
0
100
AcDbLine
 10
464.1620129084483
 20
97.36168134700527
 30
0.0
 11
464.1620129084483
 21
90.36168134700528
 31
0.0
  0
LINE
  5
1601
330
2
100
AcDbEntity
  8
0
100
AcDbLine
 10
465.1620129084482
 20
97.36168134700527
 30
0.0
 11
465.1620129084482
 21
90.36168134700528
 31
0.0
  0
LINE
  5
1602
330
2
100
AcDbEntity
  8
0
100
AcDbLine
 10
466.162012908448
 20
97.36168134700527
 30
0.0
 11
466.162012908448
 21
90.36168134700528
 31
0.0
  0
LINE
  5
1603
330
2
100
AcDbEntity
  8
0
100
AcDbLine
 10
467.162012908448
 20
97.36168134700527
 30
0.0
 11
467.162012908448
 21
90.36168134700528
 31
0.0
  0
LINE
  5
1604
330
2
100
AcDbEntity
  8
0
100
AcDbLine
 10
468.1620129084483
 20
97.36168134700527
 30
0.0
 11
468.1620129084483
 21
90.36168134700528
 31
0.0
  0
LINE
  5
1605
330
2
100
AcDbEntity
  8
0
100
AcDbLine
 10
469.1620129084483
 20
97.36168134700527
 30
0.0
 11
469.1620129084483
 21
90.36168134700528
 31
0.0
  0
LINE
  5
1606
330
2
100
AcDbEntity
  8
0
100
AcDbLine
 10
470.1620129084483
 20
97.36168134700527
 30
0.0
 11
470.1620129084483
 21
90.36168134700528
 31
0.0
  0
LINE
  5
1607
330
2
100
AcDbEntity
  8
0
100
AcDbLine
 10
471.1620129084483
 20
97.36168134700527
 30
0.0
 11
471.1620129084483
 21
90.36168134700528
 31
0.0
  0
LINE
  5
1608
330
2
100
AcDbEntity
  8
0
100
AcDbLine
 10
472.1620129084483
 20
97.36168134700527
 30
0.0
 11
472.1620129084483
 21
90.36168134700528
 31
0.0
  0
LINE
  5
1609
330
2
100
AcDbEntity
  8
0
100
AcDbLine
 10
473.1620129084483
 20
97.36168134700527
 30
0.0
 11
473.1620129084483
 21
90.36168134700528
 31
0.0
  0
LINE
  5
160A
330
2
100
AcDbEntity
  8
0
100
AcDbLine
 10
443.8620129084482
 20
99.06168134700536
 30
0.0
 11
443.8620129084482
 21
88.66168134700521
 31
0.0
  0
LINE
  5
160B
330
2
100
AcDbEntity
  8
0
100
AcDbLine
 10
443.8620129084482
 20
99.06168134700536
 30
0.0
 11
436.862012908448
 21
96.8616813470053
 31
0.0
  0
LINE
  5
160C
330
2
100
AcDbEntity
  8
0
100
AcDbLine
 10
436.862012908448
 20
90.86168134700526
 30
0.0
 11
443.8620129084482
 21
88.66168134700521
 31
0.0
  0
LINE
  5
160D
330
2
100
AcDbEntity
  8
0
100
AcDbLine
 10
442.8620129084481
 20
88.97596706129105
 30
0.0
 11
442.8620129084483
 21
98.74739563271964
 31
0.0
  0
LINE
  5
160E
330
2
100
AcDbEntity
  8
0
100
AcDbLine
 10
441.8620129084482
 20
98.43310991843384
 30
0.0
 11
441.8620129084482
 21
89.29025277557672
 31
0.0
  0
LINE
  5
160F
330
2
100
AcDbEntity
  8
0
100
AcDbLine
 10
441.8620129084482
 20
94.36168134700528
 30
0.0
 11
440.862012908448
 21
94.36168134700528
 31
0.0
  0
LINE
  5
1610
330
2
100
AcDbEntity
  8
0
100
AcDbLine
 10
441.8620129084482
 20
93.36168134700526
 30
0.0
 11
440.862012908448
 21
93.36168134700526
 31
0.0
  0
LINE
  5
1611
330
2
100
AcDbEntity
  8
0
100
AcDbLine
 10
440.862012908448
 20
89.60453848986253
 30
0.0
 11
440.862012908448
 21
98.11882420414816
 31
0.0
  0
LINE
  5
1612
330
2
100
AcDbEntity
  8
0
100
AcDbLine
 10
439.8620129084481
 20
97.80453848986237
 30
0.0
 11
439.8620129084481
 21
89.91882420414823
 31
0.0
  0
LINE
  5
1613
330
2
100
AcDbEntity
  8
0
100
AcDbLine
 10
438.8620129084483
 20
97.49025277557677
 30
0.0
 11
438.8620129084481
 21
90.23310991843391
 31
0.0
  0
LINE
  5
1614
330
2
100
AcDbEntity
  8
0
  6
CENTER
 62
     4
 48
2.0
100
AcDbLine
 10
204.8620129084481
 20
93.86168134700527
 30
0.0
 11
485.8620129084481
 21
93.86168134700527
 31
0.0
1001
GENIUS_GENODEF_13
1002
{
1000
HIER
1070
     0
1002
}
1002
{
1000
MANEDIT
1070
     0
1002
}
1002
{
1000
NOSEL
1070
     0
1002
}
1002
{
1000
BEHIND
1070
     0
1002
}
1002
{
1000
OTHER
1070
     0
1002
}
1002
{
1000
REACTOR
1002
}
1001
GENIUS_GENOBJ-N-CEN_13
1002
{
1000
OWNER
1000
GEN
1002
}
1001
GENIUS_GENCEN_19
1002
{
1040
3.0
1002
}
  0
ENDSEC
  0
SECTION
  2
OBJECTS
  0
DICTIONARY
  5
9
330
0
100
AcDbDictionary
281
     1
  3
ACAD_CIP_PREVIOUS_PRODUCT_INFO
350
3B8
  3
ACAD_COLOR
350
4B
  3
ACAD_DETAILVIEWSTYLE
350
3B3
  3
ACAD_GROUP
350
3F
  3
ACAD_LAYOUT
350
20
  3
ACAD_MATERIAL
350
B
  3
ACAD_MLEADERSTYLE
350
4E
  3
ACAD_MLINESTYLE
350
40
  3
ACAD_PLOTSETTINGS
350
41
  3
ACAD_PLOTSTYLENAME
350
8
  3
ACAD_SCALELIST
350
4C
  3
ACAD_SECTIONVIEWSTYLE
350
3B1
  3
ACAD_TABLESTYLE
350
4D
  3
ACAD_VISUALSTYLE
350
31
  3
ACDB_RECOMPOSE_DATA
350
1682
  3
AcDbVariableDictionary
350
383
  3
DWGPROPS
350
1683
  0
DICTIONARY
  5
3BD
330
25
100
AcDbDictionary
280
     1
281
     1
  3
ACAD_LAYERSTATES
360
3BE
  0
DICTIONARY
  5
5
330
4
100
AcDbDictionary
280
     1
281
     1
  3
ADSK_XREC_LAYER_RECONCILED
360
6
  0
XRECORD
  5
3B8
102
{ACAD_REACTORS
330
9
102
}
330
9
100
AcDbXrecord
280
     1
300
ACDLT
300
2020
300

  0
DICTIONARY
  5
4B
102
{ACAD_REACTORS
330
9
102
}
330
9
100
AcDbDictionary
281
     1
  0
DICTIONARY
  5
3B3
102
{ACAD_REACTORS
330
9
102
}
330
9
100
AcDbDictionary
281
     1
  3
Imperial24
350
3B4
  0
DICTIONARY
  5
3F
102
{ACAD_REACTORS
330
9
102
}
330
9
100
AcDbDictionary
281
     1
  0
DICTIONARY
  5
20
102
{ACAD_REACTORS
330
9
102
}
330
9
100
AcDbDictionary
281
     1
  3
Model
350
1F
  3
レイアウト1
350
24
  0
DICTIONARY
  5
B
102
{ACAD_REACTORS
330
9
102
}
330
9
100
AcDbDictionary
281
     1
  3
ByBlock
350
42
  3
ByLayer
350
15
  3
Global
350
A
  0
DICTIONARY
  5
4E
102
{ACAD_REACTORS
330
9
102
}
330
9
100
AcDbDictionary
281
     1
  3
Standard
350
3B0
  0
DICTIONARY
  5
40
102
{ACAD_REACTORS
330
9
102
}
330
9
100
AcDbDictionary
281
     1
  3
STANDARD
350
56
  0
DICTIONARY
  5
41
102
{ACAD_REACTORS
330
9
102
}
330
9
100
AcDbDictionary
281
     1
  0
ACDBDICTIONARYWDFLT
  5
8
102
{ACAD_REACTORS
330
9
102
}
330
9
100
AcDbDictionary
281
     1
  3
Normal
350
7
100
AcDbDictionaryWithDefault
340
7
  0
DICTIONARY
  5
4C
102
{ACAD_REACTORS
330
9
102
}
330
9
100
AcDbDictionary
281
     1
  3
A0
350
5B
  3
A1
350
5C
  3
A2
350
5D
  3
A3
350
5E
  3
A4
350
5F
  3
A5
350
60
  3
A6
350
61
  3
A7
350
62
  3
A8
350
63
  3
A9
350
64
  3
B0
350
65
  3
B1
350
66
  3
B2
350
67
  3
B3
350
68
  3
B4
350
69
  3
B5
350
6A
  3
B6
350
6B
  0
DICTIONARY
  5
3B1
102
{ACAD_REACTORS
330
9
102
}
330
9
100
AcDbDictionary
281
     1
  3
Imperial24
350
3B2
  0
DICTIONARY
  5
4D
102
{ACAD_REACTORS
330
9
102
}
330
9
100
AcDbDictionary
281
     1
  3
Standard
350
57
  0
DICTIONARY
  5
31
102
{ACAD_REACTORS
330
9
102
}
330
9
100
AcDbDictionary
281
     1
  3
2dWireframe
350
30
  3
Basic
350
39F
  3
Brighten
350
3A3
  3
ColorChange
350
3A7
  3
Conceptual
350
3A1
  3
Dim
350
3A2
  3
EdgeColorOff
350
3AF
  3
Facepattern
350
3A6
  3
Flat
350
39B
  3
FlatWithEdges
350
39C
  3
Gouraud
350
39D
  3
GouraudWithEdges
350
39E
  3
Hidden
350
3A0
  3
JitterOff
350
3AD
  3
Linepattern
350
3A5
  3
OverhangOff
350
3AE
  3
Realistic
350
59
  3
Shaded
350
3AC
  3
Shaded with edges
350
3AB
  3
Shades of Gray
350
3A8
  3
Sketchy
350
3A9
  3
Thicken
350
3A4
  3
Wireframe
350
5A
  3
X-Ray
350
3AA
  0
XRECORD
  5
1682
102
{ACAD_REACTORS
330
9
102
}
330
9
100
AcDbXrecord
280
     1
 90
        1
330
57
  0
DICTIONARY
  5
383
102
{ACAD_REACTORS
330
9
102
}
330
9
100
AcDbDictionary
281
     1
  3
CANNOSCALE
350
386
  3
CMLEADERSTYLE
350
385
  3
CTABLESTYLE
350
384
  3
CVIEWDETAILSTYLE
350
F9B
  3
CVIEWSECTIONSTYLE
350
F9C
  3
DIMASSOC
350
38A
  3
HIDETEXT
350
389
  3
INDEXCTL
350
388
  3
LAYEREVAL
350
F9F
  3
LAYERNOTIFY
350
FA0
  3
LIGHTINGUNITS
350
F9E
  3
LOFTANG1
350
167E
  3
LOFTANG2
350
167F
  3
MSLTSCALE
350
F9D
  3
SORTENTS
350
387
  3
XCLIPFRAME
350
1680
  0
XRECORD
  5
1683
102
{ACAD_REACTORS
330
9
102
}
330
9
100
AcDbXrecord
280
     1
  1
DWGPROPS COOKIE
  2

  3

  4

  6

  7

  8
yanase-ka
  9

300
=
301
=
302
=
303
=
304
=
305
=
306
=
307
=
308
=
309
=
 40
0.3804527314814814
 41
2450690.700081019
 42
2459548.437233797
  1

 90
        0
  0
DICTIONARY
  5
3BE
102
{ACAD_REACTORS
330
3BD
102
}
330
3BD
100
AcDbDictionary
281
     1
  0
XRECORD
  5
6
102
{ACAD_REACTORS
330
5
102
}
330
5
100
AcDbXrecord
280
     1
290
     1
  0
ACDBDETAILVIEWSTYLE
  5
3B4
102
{ACAD_XDICTIONARY
360
16BB
102
}
102
{ACAD_REACTORS
330
3B3
102
}
330
3B3
100
AcDbModelDocViewStyle
 70
     0
  3
Imperial24
290
     0
100
AcDbDetailViewStyle
 70
     0
 71
     0
 90
        3
 71
     1
340
27
 40
0.24
340
0
 40
0.24
300

 40
0.36
280
     3
 71
     2
340
14
 90
       25
 71
     3
340
27
 40
0.24
 90
        1
 40
0.75
 90
        1
300
%<\AcVar ViewType \f "%tc1">% %<\AcVar ViewDetailId>%\PSCALE %<\AcVar ViewScale \f "%sn">%
 71
     4
340
14
 90
       25
340
14
 90
       25
280
     0
  0
LAYOUT
  5
1F
102
{ACAD_XDICTIONARY
360
1684
102
}
102
{ACAD_REACTORS
330
20
102
}
330
20
100
AcDbPlotSettings
  1

  2
C:\Users\onodera\appdata\roaming\autodesk\autocad lt 2012 - japanese\r17\jpn\plotters\postscript level 1 plus.pc3
  4

  6

 40
0.0
 41
0.0
 42
0.0
 43
0.0
 44
0.0
 45
0.0
 46
0.0
 47
0.0
 48
0.0
 49
0.0
140
0.0
141
0.0
142
1.0
143
1.0
 70
  1712
 72
     0
 73
     0
 74
     0
  7

 75
     0
147
1.0
148
0.0
149
0.0
100
AcDbLayout
  1
Model
 70
     1
 71
     0
 10
0.0
 20
0.0
 11
12.0
 21
9.0
 12
0.0
 22
0.0
 32
0.0
 14
0.0
 24
0.0
 34
0.0
 15
0.0
 25
0.0
 35
0.0
146
0.0
 13
0.0
 23
0.0
 33
0.0
 16
1.0
 26
0.0
 36
0.0
 17
0.0
 27
1.0
 37
0.0
 76
     0
330
2
331
2F
  0
LAYOUT
  5
24
102
{ACAD_XDICTIONARY
360
1686
102
}
102
{ACAD_REACTORS
330
20
102
}
330
20
100
AcDbPlotSettings
  1

  2
C:\Users\onodera\appdata\roaming\autodesk\autocad lt 2012 - japanese\r17\jpn\plotters\postscript level 1 plus.pc3
  4

  6

 40
0.0
 41
0.0
 42
0.0
 43
0.0
 44
0.0
 45
0.0
 46
0.0
 47
0.0
 48
0.0
 49
0.0
140
0.0
141
0.0
142
1.0
143
1.0
 70
   688
 72
     0
 73
     0
 74
     5
  7

 75
    16
147
1.0
148
0.0
149
0.0
100
AcDbLayout
  1
レイアウト1
 70
     0
 71
     1
 10
0.0
 20
0.0
 11
12.0
 21
9.0
 12
0.0
 22
0.0
 32
0.0
 14
1.000000000000000E+20
 24
1.000000000000000E+20
 34
1.000000000000000E+20
 15
-1.000000000000000E+20
 25
-1.000000000000000E+20
 35
-1.000000000000000E+20
146
0.0
 13
0.0
 23
0.0
 33
0.0
 16
1.0
 26
0.0
 36
0.0
 17
0.0
 27
1.0
 37
0.0
 76
     0
330
21
  0
MATERIAL
  5
42
102
{ACAD_XDICTIONARY
360
43
102
}
102
{ACAD_REACTORS
330
B
102
}
330
B
100
AcDbMaterial
  1
ByBlock
 72
     0
 43
0.0208333333333333
 43
0.0
 43
0.0
 43
0.0
 43
0.0
 43
0.0208333333333333
 43
0.0
 43
0.0
 43
0.0
 43
0.0
 43
1.0
 43
0.0
 43
0.0
 43
0.0
 43
0.0
 43
1.0
 77
     0
 47
0.0208333333333333
 47
0.0
 47
0.0
 47
0.0
 47
0.0
 47
0.0208333333333333
 47
0.0
 47
0.0
 47
0.0
 47
0.0
 47
1.0
 47
0.0
 47
0.0
 47
0.0
 47
0.0
 47
1.0
171
     0
 49
0.0208333333333333
 49
0.0
 49
0.0
 49
0.0
 49
0.0
 49
0.0208333333333333
 49
0.0
 49
0.0
 49
0.0
 49
0.0
 49
1.0
 49
0.0
 49
0.0
 49
0.0
 49
0.0
 49
1.0
175
     0
142
0.0208333333333333
142
0.0
142
0.0
142
0.0
142
0.0
142
0.0208333333333333
142
0.0
142
0.0
142
0.0
142
0.0
142
1.0
142
0.0
142
0.0
142
0.0
142
0.0
142
1.0
179
     0
144
0.0208333333333333
144
0.0
144
0.0
144
0.0
144
0.0
144
0.0208333333333333
144
0.0
144
0.0
144
0.0
144
0.0
144
1.0
144
0.0
144
0.0
144
0.0
144
0.0
144
1.0
147
0.0208333333333333
147
0.0
147
0.0
147
0.0
147
0.0
147
0.0208333333333333
147
0.0
147
0.0
147
0.0
147
0.0
147
1.0
147
0.0
147
0.0
147
0.0
147
0.0
147
1.0
  0
MATERIAL
  5
15
102
{ACAD_XDICTIONARY
360
16
102
}
102
{ACAD_REACTORS
330
B
102
}
330
B
100
AcDbMaterial
  1
ByLayer
 72
     0
 43
0.0208333333333333
 43
0.0
 43
0.0
 43
0.0
 43
0.0
 43
0.0208333333333333
 43
0.0
 43
0.0
 43
0.0
 43
0.0
 43
1.0
 43
0.0
 43
0.0
 43
0.0
 43
0.0
 43
1.0
 77
     0
 47
0.0208333333333333
 47
0.0
 47
0.0
 47
0.0
 47
0.0
 47
0.0208333333333333
 47
0.0
 47
0.0
 47
0.0
 47
0.0
 47
1.0
 47
0.0
 47
0.0
 47
0.0
 47
0.0
 47
1.0
171
     0
 49
0.0208333333333333
 49
0.0
 49
0.0
 49
0.0
 49
0.0
 49
0.0208333333333333
 49
0.0
 49
0.0
 49
0.0
 49
0.0
 49
1.0
 49
0.0
 49
0.0
 49
0.0
 49
0.0
 49
1.0
175
     0
142
0.0208333333333333
142
0.0
142
0.0
142
0.0
142
0.0
142
0.0208333333333333
142
0.0
142
0.0
142
0.0
142
0.0
142
1.0
142
0.0
142
0.0
142
0.0
142
0.0
142
1.0
179
     0
144
0.0208333333333333
144
0.0
144
0.0
144
0.0
144
0.0
144
0.0208333333333333
144
0.0
144
0.0
144
0.0
144
0.0
144
1.0
144
0.0
144
0.0
144
0.0
144
0.0
144
1.0
147
0.0208333333333333
147
0.0
147
0.0
147
0.0
147
0.0
147
0.0208333333333333
147
0.0
147
0.0
147
0.0
147
0.0
147
1.0
147
0.0
147
0.0
147
0.0
147
0.0
147
1.0
  0
MATERIAL
  5
A
102
{ACAD_XDICTIONARY
360
C
102
}
102
{ACAD_REACTORS
330
B
102
}
330
B
100
AcDbMaterial
  1
Global
 72
     0
 43
0.0208333333333333
 43
0.0
 43
0.0
 43
0.0
 43
0.0
 43
0.0208333333333333
 43
0.0
 43
0.0
 43
0.0
 43
0.0
 43
1.0
 43
0.0
 43
0.0
 43
0.0
 43
0.0
 43
1.0
 77
     0
 47
0.0208333333333333
 47
0.0
 47
0.0
 47
0.0
 47
0.0
 47
0.0208333333333333
 47
0.0
 47
0.0
 47
0.0
 47
0.0
 47
1.0
 47
0.0
 47
0.0
 47
0.0
 47
0.0
 47
1.0
171
     0
 49
0.0208333333333333
 49
0.0
 49
0.0
 49
0.0
 49
0.0
 49
0.0208333333333333
 49
0.0
 49
0.0
 49
0.0
 49
0.0
 49
1.0
 49
0.0
 49
0.0
 49
0.0
 49
0.0
 49
1.0
175
     0
142
0.0208333333333333
142
0.0
142
0.0
142
0.0
142
0.0
142
0.0208333333333333
142
0.0
142
0.0
142
0.0
142
0.0
142
1.0
142
0.0
142
0.0
142
0.0
142
0.0
142
1.0
179
     0
144
0.0208333333333333
144
0.0
144
0.0
144
0.0
144
0.0
144
0.0208333333333333
144
0.0
144
0.0
144
0.0
144
0.0
144
1.0
144
0.0
144
0.0
144
0.0
144
0.0
144
1.0
147
0.0208333333333333
147
0.0
147
0.0
147
0.0
147
0.0
147
0.0208333333333333
147
0.0
147
0.0
147
0.0
147
0.0
147
1.0
147
0.0
147
0.0
147
0.0
147
0.0
147
1.0
  0
MLEADERSTYLE
  5
3B0
102
{ACAD_REACTORS
330
4E
102
}
330
4E
100
AcDbMLeaderStyle
170
     2
171
     1
172
     0
 90
        2
 40
0.0
 41
0.0
173
     1
 91
-1056964608
340
2A
 92
       -2
290
     1
 42
0.09
291
     1
 43
0.36
  3
Standard
 44
0.18
300

342
27
174
     1
178
     6
175
     1
176
     0
 93
-1056964608
 45
0.18
292
     0
297
     0
 46
0.18
 94
-1056964608
 47
1.0
 49
1.0
140
1.0
293
     1
141
0.0
294
     1
177
     0
142
1.0
295
     0
296
     0
143
0.125
1001
ACAD_MLEADERVER
1070
     2
  0
MLINESTYLE
  5
56
102
{ACAD_REACTORS
330
40
102
}
330
40
100
AcDbMlineStyle
  2
STANDARD
 70
     0
  3

 62
     0
 51
90.0
 52
90.0
 71
     2
 49
0.5
 62
   256
  6
BYLAYER
 49
-0.5
 62
   256
  6
BYLAYER
  0
ACDBPLACEHOLDER
  5
7
102
{ACAD_REACTORS
330
8
102
}
330
8
  0
SCALE
  5
5B
102
{ACAD_REACTORS
330
4C
102
}
330
4C
100
AcDbScale
 70
     0
300
1:1
140
1.0
141
1.0
290
     1
  0
SCALE
  5
5C
102
{ACAD_REACTORS
330
4C
102
}
330
4C
100
AcDbScale
 70
     0
300
1/128" = 1'-0"
140
0.0078125
141
12.0
290
     0
  0
SCALE
  5
5D
102
{ACAD_REACTORS
330
4C
102
}
330
4C
100
AcDbScale
 70
     0
300
1/64" = 1'-0"
140
0.015625
141
12.0
290
     0
  0
SCALE
  5
5E
102
{ACAD_REACTORS
330
4C
102
}
330
4C
100
AcDbScale
 70
     0
300
1/32" = 1'-0"
140
0.03125
141
12.0
290
     0
  0
SCALE
  5
5F
102
{ACAD_REACTORS
330
4C
102
}
330
4C
100
AcDbScale
 70
     0
300
1/16" = 1'-0"
140
0.0625
141
12.0
290
     0
  0
SCALE
  5
60
102
{ACAD_REACTORS
330
4C
102
}
330
4C
100
AcDbScale
 70
     0
300
3/32" = 1'-0"
140
0.09375
141
12.0
290
     0
  0
SCALE
  5
61
102
{ACAD_REACTORS
330
4C
102
}
330
4C
100
AcDbScale
 70
     0
300
1/8" = 1'-0"
140
0.125
141
12.0
290
     0
  0
SCALE
  5
62
102
{ACAD_REACTORS
330
4C
102
}
330
4C
100
AcDbScale
 70
     0
300
3/16" = 1'-0"
140
0.1875
141
12.0
290
     0
  0
SCALE
  5
63
102
{ACAD_REACTORS
330
4C
102
}
330
4C
100
AcDbScale
 70
     0
300
1/4" = 1'-0"
140
0.25
141
12.0
290
     0
  0
SCALE
  5
64
102
{ACAD_REACTORS
330
4C
102
}
330
4C
100
AcDbScale
 70
     0
300
3/8" = 1'-0"
140
0.375
141
12.0
290
     0
  0
SCALE
  5
65
102
{ACAD_REACTORS
330
4C
102
}
330
4C
100
AcDbScale
 70
     0
300
1/2" = 1'-0"
140
0.5
141
12.0
290
     0
  0
SCALE
  5
66
102
{ACAD_REACTORS
330
4C
102
}
330
4C
100
AcDbScale
 70
     0
300
3/4" = 1'-0"
140
0.75
141
12.0
290
     0
  0
SCALE
  5
67
102
{ACAD_REACTORS
330
4C
102
}
330
4C
100
AcDbScale
 70
     0
300
1" = 1'-0"
140
1.0
141
12.0
290
     0
  0
SCALE
  5
68
102
{ACAD_REACTORS
330
4C
102
}
330
4C
100
AcDbScale
 70
     0
300
1-1/2" = 1'-0"
140
1.5
141
12.0
290
     0
  0
SCALE
  5
69
102
{ACAD_REACTORS
330
4C
102
}
330
4C
100
AcDbScale
 70
     0
300
3" = 1'-0"
140
3.0
141
12.0
290
     0
  0
SCALE
  5
6A
102
{ACAD_REACTORS
330
4C
102
}
330
4C
100
AcDbScale
 70
     0
300
6" = 1'-0"
140
6.0
141
12.0
290
     0
  0
SCALE
  5
6B
102
{ACAD_REACTORS
330
4C
102
}
330
4C
100
AcDbScale
 70
     0
300
1'-0" = 1'-0"
140
12.0
141
12.0
290
     0
  0
ACDBSECTIONVIEWSTYLE
  5
3B2
102
{ACAD_XDICTIONARY
360
16B9
102
}
102
{ACAD_REACTORS
330
3B1
102
}
330
3B1
100
AcDbModelDocViewStyle
 70
     0
  3
Imperial24
290
     0
100
AcDbSectionViewStyle
 70
     0
 71
     0
 90
       78
 71
     1
340
27
 40
0.24
340
0
340
0
 40
0.24
300
I, O, Q, S, X, Z
 40
0.48
 90
        3
 40
0.18
 90
        1
 71
     2
340
14
 90
       25
340
14
 90
       50
 40
0.24
 40
0.0
 40
0.24
 71
     3
340
27
 40
0.24
 90
        1
 40
0.75
 90
        1
300
%<\AcVar ViewType \f "%tc1">% %<\AcVar ViewSectionStartId>%-%<\AcVar ViewSectionEndId>%\PSCALE %<\AcVar ViewScale \f "%sn">%
 71
     4
300
ANSI31
 40
1.0
 90
        0
290
     0
290
     0
 90
        6
 40
0.0
 40
1.570796326794896
 40
0.2617993877991494
 40
1.308996938995747
 40
-0.2617993877991494
 40
1.832595714594044
  0
TABLESTYLE
  5
57
102
{ACAD_XDICTIONARY
360
58
102
}
102
{ACAD_REACTORS
330
4D
102
}
330
4D
100
AcDbTableStyle
  3
Standard
 70
     0
 71
     0
 40
0.06
 41
0.06
280
     0
281
     0
  7
STANDARD
140
0.18
170
     2
 62
     0
 63
     7
283
     0
274
    -2
284
     1
 64
     0
275
    -2
285
     1
 65
     0
276
    -2
286
     1
 66
     0
277
    -2
287
     1
 67
     0
278
    -2
288
     1
 68
     0
279
    -2
289
     1
 69
     0
  7
STANDARD
140
0.25
170
     5
 62
     0
 63
     7
283
     0
274
    -2
284
     1
 64
     0
275
    -2
285
     1
 65
     0
276
    -2
286
     1
 66
     0
277
    -2
287
     1
 67
     0
278
    -2
288
     1
 68
     0
279
    -2
289
     1
 69
     0
  7
STANDARD
140
0.18
170
     5
 62
     0
 63
     7
283
     0
274
    -2
284
     1
 64
     0
275
    -2
285
     1
 65
     0
276
    -2
286
     1
 66
     0
277
    -2
287
     1
 67
     0
278
    -2
288
     1
 68
     0
279
    -2
289
     1
 69
     0
  0
VISUALSTYLE
  5
30
102
{ACAD_XDICTIONARY
360
1688
102
}
102
{ACAD_REACTORS
330
31
102
}
330
31
100
AcDbVisualStyle
  2

 70
     4
 71
     0
 72
     2
 73
     0
 90
        0
 40
-0.6
 41
-30.0
 62
     5
 63
     7
 74
     1
 91
        4
 64
     7
 65
   257
 75
     1
175
     1
 42
1.0
 92
        0
 66
   257
 43
1.0
 76
     1
 77
     6
 78
     2
 67
     7
 79
     5
170
     0
171
     0
290
     0
174
     0
 93
        1
 44
0.0
173
     0
291
     0
 45
0.0
1001
ACAD
1000
AcDbSavedByObjectVersion
1070
     0
  0
VISUALSTYLE
  5
39F
102
{ACAD_XDICTIONARY
360
1697
102
}
102
{ACAD_REACTORS
330
31
102
}
330
31
100
AcDbVisualStyle
  2

 70
     7
 71
     1
 72
     0
 73
     1
 90
        0
 40
-0.6
 41
-30.0
 62
     5
 63
     7
 74
     0
 91
        4
 64
     7
 65
   257
 75
     1
175
     1
 42
1.0
 92
        8
 66
     7
 43
1.0
 76
     1
 77
     6
 78
     2
 67
     7
 79
     5
170
     0
171
     0
290
     0
174
     0
 93
        1
 44
0.0
173
     0
291
     1
 45
0.0
1001
ACAD
1000
AcDbSavedByObjectVersion
1070
     0
  0
VISUALSTYLE
  5
3A3
102
{ACAD_XDICTIONARY
360
169F
102
}
102
{ACAD_REACTORS
330
31
102
}
330
31
100
AcDbVisualStyle
  2

 70
    12
 71
     2
 72
     2
 73
     0
 90
        0
 40
-0.6
 41
-30.0
 62
     5
 63
     7
 74
     1
 91
        4
 64
     7
 65
   257
 75
     1
175
     1
 42
1.0
 92
        8
 66
     7
 43
1.0
 76
     1
 77
     6
 78
     2
 67
     7
 79
     5
170
     0
171
     0
290
     0
174
     0
 93
        1
 44
50.0
173
     0
291
     1
 45
0.0
1001
ACAD
1000
AcDbSavedByObjectVersion
1070
     0
  0
VISUALSTYLE
  5
3A7
102
{ACAD_XDICTIONARY
360
16A7
102
}
102
{ACAD_REACTORS
330
31
102
}
330
31
100
AcDbVisualStyle
  2

 70
    16
 71
     2
 72
     2
 73
     3
 90
        0
 40
-0.6
 41
-30.0
 62
     5
 63
     8
 74
     1
 91
        4
 64
     7
 65
   257
 75
     1
175
     1
 42
1.0
 92
        8
 66
     8
 43
1.0
 76
     1
 77
     6
 78
     2
 67
     7
 79
     5
170
     0
171
     0
290
     0
174
     0
 93
        1
 44
0.0
173
     0
291
     1
 45
0.0
1001
ACAD
1000
AcDbSavedByObjectVersion
1070
     0
  0
VISUALSTYLE
  5
3A1
102
{ACAD_XDICTIONARY
360
169B
102
}
102
{ACAD_REACTORS
330
31
102
}
330
31
100
AcDbVisualStyle
  2

 70
     9
 71
     3
 72
     2
 73
     0
 90
        0
 40
-0.6
 41
-30.0
 62
     5
 63
     7
 74
     2
 91
        2
 64
     7
 65
   257
 75
     1
175
     1
 42
179.0
 92
        8
 66
     7
 43
1.0
 76
     1
 77
     6
 78
     2
 67
     7
 79
     3
170
     0
171
     0
290
     0
174
     0
 93
        1
 44
0.0
173
     0
291
     0
 45
0.0
1001
ACAD
1000
AcDbSavedByObjectVersion
1070
     0
  0
VISUALSTYLE
  5
3A2
102
{ACAD_XDICTIONARY
360
169D
102
}
102
{ACAD_REACTORS
330
31
102
}
330
31
100
AcDbVisualStyle
  2

 70
    11
 71
     2
 72
     2
 73
     0
 90
        0
 40
-0.6
 41
-30.0
 62
     5
 63
     7
 74
     1
 91
        4
 64
     7
 65
   257
 75
     1
175
     1
 42
1.0
 92
        8
 66
     7
 43
1.0
 76
     1
 77
     6
 78
     2
 67
     7
 79
     5
170
     0
171
     0
290
     0
174
     0
 93
        1
 44
-50.0
173
     0
291
     1
 45
0.0
1001
ACAD
1000
AcDbSavedByObjectVersion
1070
     0
  0
VISUALSTYLE
  5
3AF
102
{ACAD_XDICTIONARY
360
16B7
102
}
102
{ACAD_REACTORS
330
31
102
}
330
31
100
AcDbVisualStyle
  2

 70
    22
 71
     2
 72
     2
 73
     0
 90
        0
 40
-0.6
 41
-30.0
 62
     5
 63
     7
 74
     1
 91
        4
 64
     7
 65
   257
 75
     1
175
     1
 42
1.0
 92
        8
 66
     7
 43
1.0
 76
     1
 77
     6
 78
     2
 67
     7
 79
     5
170
     0
171
     0
290
     0
174
     0
 93
        1
 44
0.0
173
     0
291
     1
 45
0.0
1001
ACAD
1000
AcDbSavedByObjectVersion
1070
     0
  0
VISUALSTYLE
  5
3A6
102
{ACAD_XDICTIONARY
360
16A5
102
}
102
{ACAD_REACTORS
330
31
102
}
330
31
100
AcDbVisualStyle
  2

 70
    15
 71
     2
 72
     2
 73
     0
 90
        0
 40
-0.6
 41
-30.0
 62
     5
 63
     7
 74
     1
 91
        4
 64
     7
 65
   257
 75
     1
175
     1
 42
1.0
 92
        8
 66
     7
 43
1.0
 76
     1
 77
     6
 78
     2
 67
     7
 79
     5
170
     0
171
     0
290
     0
174
     0
 93
        1
 44
0.0
173
     0
291
     1
 45
0.0
1001
ACAD
1000
AcDbSavedByObjectVersion
1070
     0
  0
VISUALSTYLE
  5
39B
102
{ACAD_XDICTIONARY
360
168F
102
}
102
{ACAD_REACTORS
330
31
102
}
330
31
100
AcDbVisualStyle
  2

 70
     0
 71
     2
 72
     1
 73
     1
 90
        2
 40
-0.6
 41
30.0
 62
     5
 63
     7
 74
     0
 91
        0
 64
     7
 65
   257
 75
     1
175
     1
 42
1.0
 92
        8
 66
     7
 43
1.0
 76
     1
 77
     6
 78
     2
 67
     7
 79
     5
170
     0
171
     0
290
     0
174
     0
 93
       13
 44
0.0
173
     0
291
     1
 45
0.0
1001
ACAD
1000
AcDbSavedByObjectVersion
1070
     0
  0
VISUALSTYLE
  5
39C
102
{ACAD_XDICTIONARY
360
1691
102
}
102
{ACAD_REACTORS
330
31
102
}
330
31
100
AcDbVisualStyle
  2

 70
     1
 71
     2
 72
     1
 73
     1
 90
        2
 40
-0.6
 41
30.0
 62
     5
 63
     7
 74
     1
 91
        0
 64
     7
 65
   257
 75
     1
175
     1
 42
1.0
 92
        0
 66
   257
 43
1.0
 76
     1
 77
     6
 78
     2
 67
     7
 79
     5
170
     0
171
     0
290
     0
174
     0
 93
       13
 44
0.0
173
     0
291
     1
 45
0.0
1001
ACAD
1000
AcDbSavedByObjectVersion
1070
     0
  0
VISUALSTYLE
  5
39D
102
{ACAD_XDICTIONARY
360
1693
102
}
102
{ACAD_REACTORS
330
31
102
}
330
31
100
AcDbVisualStyle
  2

 70
     2
 71
     2
 72
     2
 73
     1
 90
        2
 40
-0.6
 41
30.0
 62
     5
 63
     7
 74
     0
 91
        0
 64
     7
 65
   257
 75
     1
175
     1
 42
1.0
 92
        0
 66
     7
 43
1.0
 76
     1
 77
     6
 78
     2
 67
     7
 79
     5
170
     0
171
     0
290
     0
174
     0
 93
       13
 44
0.0
173
     0
291
     1
 45
0.0
1001
ACAD
1000
AcDbSavedByObjectVersion
1070
     0
  0
VISUALSTYLE
  5
39E
102
{ACAD_XDICTIONARY
360
1695
102
}
102
{ACAD_REACTORS
330
31
102
}
330
31
100
AcDbVisualStyle
  2

 70
     3
 71
     2
 72
     2
 73
     1
 90
        2
 40
-0.6
 41
30.0
 62
     5
 63
     7
 74
     1
 91
        0
 64
     7
 65
   257
 75
     1
175
     1
 42
1.0
 92
        0
 66
   257
 43
1.0
 76
     1
 77
     6
 78
     2
 67
     7
 79
     5
170
     0
171
     0
290
     0
174
     0
 93
       13
 44
0.0
173
     0
291
     1
 45
0.0
1001
ACAD
1000
AcDbSavedByObjectVersion
1070
     0
  0
VISUALSTYLE
  5
3A0
102
{ACAD_XDICTIONARY
360
1699
102
}
102
{ACAD_REACTORS
330
31
102
}
330
31
100
AcDbVisualStyle
  2

 70
     6
 71
     1
 72
     2
 73
     2
 90
        0
 40
-0.6
 41
-30.0
 62
     5
 63
     7
 74
     2
 91
        2
 64
     7
 65
   257
 75
     2
175
     1
 42
40.0
 92
        0
 66
   257
 43
1.0
 76
     1
 77
     6
 78
     2
 67
     7
 79
     3
170
     0
171
     0
290
     0
174
     0
 93
        1
 44
0.0
173
     0
291
     0
 45
0.0
1001
ACAD
1000
AcDbSavedByObjectVersion
1070
     0
  0
VISUALSTYLE
  5
3AD
102
{ACAD_XDICTIONARY
360
16B3
102
}
102
{ACAD_REACTORS
330
31
102
}
330
31
100
AcDbVisualStyle
  2

 70
    20
 71
     2
 72
     2
 73
     0
 90
        0
 40
-0.6
 41
-30.0
 62
     5
 63
     7
 74
     1
 91
        4
 64
     7
 65
   257
 75
     1
175
     1
 42
1.0
 92
       10
 66
     7
 43
1.0
 76
     1
 77
     6
 78
     2
 67
     7
 79
     5
170
     0
171
     0
290
     0
174
     0
 93
        1
 44
0.0
173
     0
291
     1
 45
0.0
1001
ACAD
1000
AcDbSavedByObjectVersion
1070
     0
  0
VISUALSTYLE
  5
3A5
102
{ACAD_XDICTIONARY
360
16A3
102
}
102
{ACAD_REACTORS
330
31
102
}
330
31
100
AcDbVisualStyle
  2

 70
    14
 71
     2
 72
     2
 73
     0
 90
        0
 40
-0.6
 41
-30.0
 62
     5
 63
     7
 74
     1
 91
        4
 64
     7
 65
   257
 75
     7
175
     7
 42
1.0
 92
        8
 66
     7
 43
1.0
 76
     1
 77
     6
 78
     2
 67
     7
 79
     5
170
     0
171
     0
290
     0
174
     0
 93
        1
 44
0.0
173
     0
291
     1
 45
0.0
1001
ACAD
1000
AcDbSavedByObjectVersion
1070
     0
  0
VISUALSTYLE
  5
3AE
102
{ACAD_XDICTIONARY
360
16B5
102
}
102
{ACAD_REACTORS
330
31
102
}
330
31
100
AcDbVisualStyle
  2

 70
    21
 71
     2
 72
     2
 73
     0
 90
        0
 40
-0.6
 41
-30.0
 62
     5
 63
     7
 74
     1
 91
        4
 64
     7
 65
   257
 75
     1
175
     1
 42
1.0
 92
        9
 66
     7
 43
1.0
 76
     1
 77
     6
 78
     2
 67
     7
 79
     5
170
     0
171
     0
290
     0
174
     0
 93
        1
 44
0.0
173
     0
291
     1
 45
0.0
1001
ACAD
1000
AcDbSavedByObjectVersion
1070
     0
  0
VISUALSTYLE
  5
59
102
{ACAD_XDICTIONARY
360
168B
102
}
102
{ACAD_REACTORS
330
31
102
}
330
31
100
AcDbVisualStyle
  2

 70
     8
 71
     2
 72
     3
 73
     0
 90
        2
 40
-0.6
 41
30.0
 62
     5
 63
     7
 74
     0
 91
        0
 64
     7
 65
   257
 75
     1
175
     1
 42
1.0
 92
        8
 66
   257
 43
1.0
 76
     1
 77
     6
 78
     2
 67
     7
 79
     3
170
     0
171
     0
290
     0
174
     0
 93
       13
 44
0.0
173
     0
291
     0
 45
0.0
1001
ACAD
1000
AcDbSavedByObjectVersion
1070
     0
  0
VISUALSTYLE
  5
3AC
102
{ACAD_XDICTIONARY
360
16B1
102
}
102
{ACAD_REACTORS
330
31
102
}
330
31
100
AcDbVisualStyle
  2

 70
    27
 71
     2
 72
     2
 73
     1
 90
        2
 40
-0.6
 41
30.0
 62
     5
 63
     7
 74
     0
 91
        4
 64
     7
 65
   257
 75
     1
175
     1
 42
1.0
 92
        8
 66
   257
 43
1.0
 76
     1
 77
     6
 78
     2
 67
     8
 79
     3
170
     0
171
     0
290
     0
174
     0
 93
        5
 44
0.0
173
     0
291
     0
 45
0.0
1001
ACAD
1000
AcDbSavedByObjectVersion
1070
     0
  0
VISUALSTYLE
  5
3AB
102
{ACAD_XDICTIONARY
360
16AF
102
}
102
{ACAD_REACTORS
330
31
102
}
330
31
100
AcDbVisualStyle
  2

 70
    26
 71
     2
 72
     2
 73
     1
 90
        2
 40
-0.6
 41
30.0
 62
     5
 63
     7
 74
     1
 91
        2
 64
     7
 65
   257
 75
     2
175
     1
 42
1.0
 92
        8
 66
   257
 43
1.0
 76
     1
 77
     6
 78
     2
 67
     7
 79
     3
170
     0
171
     0
290
     0
174
     0
 93
        5
 44
0.0
173
     0
291
     0
 45
0.0
1001
ACAD
1000
AcDbSavedByObjectVersion
1070
     0
  0
VISUALSTYLE
  5
3A8
102
{ACAD_XDICTIONARY
360
16A9
102
}
102
{ACAD_REACTORS
330
31
102
}
330
31
100
AcDbVisualStyle
  2

 70
    23
 71
     2
 72
     2
 73
     3
 90
        0
 40
-0.6
 41
-30.0
 62
     5
 63
     7
 74
     2
 91
        2
 64
     7
 65
     7
 75
     1
175
     1
 42
40.0
 92
        8
 66
     7
 43
1.0
 76
     1
 77
     6
 78
     2
 67
     7
 79
     3
170
     0
171
     0
290
     0
174
     0
 93
        1
 44
0.0
173
     0
291
     0
 45
0.0
1001
ACAD
1000
AcDbSavedByObjectVersion
1070
     0
  0
VISUALSTYLE
  5
3A9
102
{ACAD_XDICTIONARY
360
16AB
102
}
102
{ACAD_REACTORS
330
31
102
}
330
31
100
AcDbVisualStyle
  2

 70
    24
 71
     1
 72
     2
 73
     2
 90
        0
 40
-0.6
 41
-30.0
 62
     5
 63
     7
 74
     2
 91
        2
 64
     7
 65
     7
 75
     1
175
     1
 42
40.0
 92
       11
 66
     7
 43
1.0
 76
     1
 77
     6
 78
     2
 67
     7
 79
     6
170
     0
171
     0
290
     0
174
     0
 93
        1
 44
0.0
173
     0
291
     0
 45
0.0
1001
ACAD
1000
AcDbSavedByObjectVersion
1070
     0
  0
VISUALSTYLE
  5
3A4
102
{ACAD_XDICTIONARY
360
16A1
102
}
102
{ACAD_REACTORS
330
31
102
}
330
31
100
AcDbVisualStyle
  2

 70
    13
 71
     2
 72
     2
 73
     0
 90
        0
 40
-0.6
 41
-30.0
 62
     5
 63
     7
 74
     1
 91
        4
 64
     7
 65
   257
 75
     1
175
     1
 42
1.0
 92
       12
 66
     7
 43
1.0
 76
     1
 77
     6
 78
     2
 67
     7
 79
     5
170
     0
171
     0
290
     0
174
     0
 93
        1
 44
0.0
173
     0
291
     1
 45
0.0
1001
ACAD
1000
AcDbSavedByObjectVersion
1070
     0
  0
VISUALSTYLE
  5
5A
102
{ACAD_XDICTIONARY
360
168D
102
}
102
{ACAD_REACTORS
330
31
102
}
330
31
100
AcDbVisualStyle
  2

 70
     5
 71
     0
 72
     2
 73
     0
 90
        0
 40
-0.6
 41
-30.0
 62
     5
 63
     7
 74
     1
 91
        4
 64
     7
 65
   257
 75
     1
175
     1
 42
1.0
 92
        0
 66
   257
 43
1.0
 76
     1
 77
     6
 78
     2
 67
     7
 79
     3
170
     0
171
     0
290
     0
174
     0
 93
        1
 44
0.0
173
     0
291
     0
 45
0.0
1001
ACAD
1000
AcDbSavedByObjectVersion
1070
     0
  0
VISUALSTYLE
  5
3AA
102
{ACAD_XDICTIONARY
360
16AD
102
}
102
{ACAD_REACTORS
330
31
102
}
330
31
100
AcDbVisualStyle
  2

 70
    25
 71
     2
 72
     2
 73
     1
 90
        1
 40
0.5
 41
-30.0
 62
     5
 63
     7
 74
     1
 91
        0
 64
     7
 65
   257
 75
     1
175
     1
 42
1.0
 92
        8
 66
     7
 43
1.0
 76
     1
 77
     6
 78
     2
 67
     7
 79
     3
170
     0
171
     0
290
     0
174
     0
 93
       13
 44
0.0
173
     0
291
     0
 45
0.0
1001
ACAD
1000
AcDbSavedByObjectVersion
1070
     0
  0
DICTIONARYVAR
  5
386
102
{ACAD_REACTORS
330
383
102
}
330
383
100
DictionaryVariables
280
     0
  1
1:1
  0
DICTIONARYVAR
  5
385
102
{ACAD_REACTORS
330
383
102
}
330
383
100
DictionaryVariables
280
     0
  1
STANDARD
  0
DICTIONARYVAR
  5
384
102
{ACAD_REACTORS
330
383
102
}
330
383
100
DictionaryVariables
280
     0
  1
STANDARD
  0
DICTIONARYVAR
  5
F9B
102
{ACAD_REACTORS
330
383
102
}
330
383
100
DictionaryVariables
280
     0
  1
Imperial24
  0
DICTIONARYVAR
  5
F9C
102
{ACAD_REACTORS
330
383
102
}
330
383
100
DictionaryVariables
280
     0
  1
Imperial24
  0
DICTIONARYVAR
  5
38A
102
{ACAD_REACTORS
330
383
102
}
330
383
100
DictionaryVariables
280
     0
  1
1
  0
DICTIONARYVAR
  5
389
102
{ACAD_REACTORS
330
383
102
}
330
383
100
DictionaryVariables
280
     0
  1
1
  0
DICTIONARYVAR
  5
388
102
{ACAD_REACTORS
330
383
102
}
330
383
100
DictionaryVariables
280
     0
  1
0
  0
DICTIONARYVAR
  5
F9F
102
{ACAD_REACTORS
330
383
102
}
330
383
100
DictionaryVariables
280
     0
  1
1
  0
DICTIONARYVAR
  5
FA0
102
{ACAD_REACTORS
330
383
102
}
330
383
100
DictionaryVariables
280
     0
  1
15
  0
DICTIONARYVAR
  5
F9E
102
{ACAD_REACTORS
330
383
102
}
330
383
100
DictionaryVariables
280
     0
  1
0
  0
DICTIONARYVAR
  5
167E
102
{ACAD_REACTORS
330
383
102
}
330
383
100
DictionaryVariables
280
     0
  1
1.570796
  0
DICTIONARYVAR
  5
167F
102
{ACAD_REACTORS
330
383
102
}
330
383
100
DictionaryVariables
280
     0
  1
1.570796
  0
DICTIONARYVAR
  5
F9D
102
{ACAD_REACTORS
330
383
102
}
330
383
100
DictionaryVariables
280
     0
  1
0
  0
DICTIONARYVAR
  5
387
102
{ACAD_REACTORS
330
383
102
}
330
383
100
DictionaryVariables
280
     0
  1
127
  0
DICTIONARYVAR
  5
1680
102
{ACAD_REACTORS
330
383
102
}
330
383
100
DictionaryVariables
280
     0
  1
2
  0
DICTIONARY
  5
16BB
330
3B4
100
AcDbDictionary
280
     1
281
     1
  3
ACAD_XREC_ROUNDTRIP
360
16BC
  0
DICTIONARY
  5
1684
330
1F
100
AcDbDictionary
280
     1
281
     1
  3
ACAD_XREC_ROUNDTRIP
360
1685
  0
DICTIONARY
  5
1686
330
24
100
AcDbDictionary
280
     1
281
     1
  3
ACAD_XREC_ROUNDTRIP
360
1687
  0
DICTIONARY
  5
43
330
42
100
AcDbDictionary
280
     1
281
     1
  3
ACAD_XREC_ROUNDTRIP
360
44
  3
BUMPTILE
360
45
  3
DIFFUSETILE
360
46
  3
OPACITYTILE
360
47
  3
REFLECTIONTILE
360
48
  3
REFRACTIONTILE
360
49
  3
SPECULARTILE
360
4A
  0
DICTIONARY
  5
16
330
15
100
AcDbDictionary
280
     1
281
     1
  3
ACAD_XREC_ROUNDTRIP
360
17
  3
BUMPTILE
360
18
  3
DIFFUSETILE
360
19
  3
OPACITYTILE
360
1A
  3
REFLECTIONTILE
360
1B
  3
REFRACTIONTILE
360
1C
  3
SPECULARTILE
360
1D
  0
DICTIONARY
  5
C
330
A
100
AcDbDictionary
280
     1
281
     1
  3
ACAD_XREC_ROUNDTRIP
360
D
  3
BUMPTILE
360
E
  3
DIFFUSETILE
360
F
  3
OPACITYTILE
360
10
  3
REFLECTIONTILE
360
11
  3
REFRACTIONTILE
360
12
  3
SPECULARTILE
360
13
  0
DICTIONARY
  5
16B9
330
3B2
100
AcDbDictionary
280
     1
281
     1
  3
ACAD_XREC_ROUNDTRIP
360
16BA
  0
DICTIONARY
  5
58
330
57
100
AcDbDictionary
280
     1
281
     1
  3
ACAD_ROUNDTRIP_2008_TABLESTYLE_CELLSTYLEMAP
360
1681
  3
ACAD_XREC_ROUNDTRIP
360
168A
  0
DICTIONARY
  5
1688
330
30
100
AcDbDictionary
280
     1
281
     1
  3
ACAD_XREC_ROUNDTRIP
360
1689
  0
DICTIONARY
  5
1697
330
39F
100
AcDbDictionary
280
     1
281
     1
  3
ACAD_XREC_ROUNDTRIP
360
1698
  0
DICTIONARY
  5
169F
330
3A3
100
AcDbDictionary
280
     1
281
     1
  3
ACAD_XREC_ROUNDTRIP
360
16A0
  0
DICTIONARY
  5
16A7
330
3A7
100
AcDbDictionary
280
     1
281
     1
  3
ACAD_XREC_ROUNDTRIP
360
16A8
  0
DICTIONARY
  5
169B
330
3A1
100
AcDbDictionary
280
     1
281
     1
  3
ACAD_XREC_ROUNDTRIP
360
169C
  0
DICTIONARY
  5
169D
330
3A2
100
AcDbDictionary
280
     1
281
     1
  3
ACAD_XREC_ROUNDTRIP
360
169E
  0
DICTIONARY
  5
16B7
330
3AF
100
AcDbDictionary
280
     1
281
     1
  3
ACAD_XREC_ROUNDTRIP
360
16B8
  0
DICTIONARY
  5
16A5
330
3A6
100
AcDbDictionary
280
     1
281
     1
  3
ACAD_XREC_ROUNDTRIP
360
16A6
  0
DICTIONARY
  5
168F
330
39B
100
AcDbDictionary
280
     1
281
     1
  3
ACAD_XREC_ROUNDTRIP
360
1690
  0
DICTIONARY
  5
1691
330
39C
100
AcDbDictionary
280
     1
281
     1
  3
ACAD_XREC_ROUNDTRIP
360
1692
  0
DICTIONARY
  5
1693
330
39D
100
AcDbDictionary
280
     1
281
     1
  3
ACAD_XREC_ROUNDTRIP
360
1694
  0
DICTIONARY
  5
1695
330
39E
100
AcDbDictionary
280
     1
281
     1
  3
ACAD_XREC_ROUNDTRIP
360
1696
  0
DICTIONARY
  5
1699
330
3A0
100
AcDbDictionary
280
     1
281
     1
  3
ACAD_XREC_ROUNDTRIP
360
169A
  0
DICTIONARY
  5
16B3
330
3AD
100
AcDbDictionary
280
     1
281
     1
  3
ACAD_XREC_ROUNDTRIP
360
16B4
  0
DICTIONARY
  5
16A3
330
3A5
100
AcDbDictionary
280
     1
281
     1
  3
ACAD_XREC_ROUNDTRIP
360
16A4
  0
DICTIONARY
  5
16B5
330
3AE
100
AcDbDictionary
280
     1
281
     1
  3
ACAD_XREC_ROUNDTRIP
360
16B6
  0
DICTIONARY
  5
168B
330
59
100
AcDbDictionary
280
     1
281
     1
  3
ACAD_XREC_ROUNDTRIP
360
168C
  0
DICTIONARY
  5
16B1
330
3AC
100
AcDbDictionary
280
     1
281
     1
  3
ACAD_XREC_ROUNDTRIP
360
16B2
  0
DICTIONARY
  5
16AF
330
3AB
100
AcDbDictionary
280
     1
281
     1
  3
ACAD_XREC_ROUNDTRIP
360
16B0
  0
DICTIONARY
  5
16A9
330
3A8
100
AcDbDictionary
280
     1
281
     1
  3
ACAD_XREC_ROUNDTRIP
360
16AA
  0
DICTIONARY
  5
16AB
330
3A9
100
AcDbDictionary
280
     1
281
     1
  3
ACAD_XREC_ROUNDTRIP
360
16AC
  0
DICTIONARY
  5
16A1
330
3A4
100
AcDbDictionary
280
     1
281
     1
  3
ACAD_XREC_ROUNDTRIP
360
16A2
  0
DICTIONARY
  5
168D
330
5A
100
AcDbDictionary
280
     1
281
     1
  3
ACAD_XREC_ROUNDTRIP
360
168E
  0
DICTIONARY
  5
16AD
330
3AA
100
AcDbDictionary
280
     1
281
     1
  3
ACAD_XREC_ROUNDTRIP
360
16AE
  0
XRECORD
  5
16BC
102
{ACAD_REACTORS
330
16BB
102
}
330
16BB
100
AcDbXrecord
280
     1
102
DISPLAYNAME
  1
Imperial24
102
FLAGS
 90
        0
  0
XRECORD
  5
1685
102
{ACAD_REACTORS
330
1684
102
}
330
1684
100
AcDbXrecord
280
     1
102
SHADEPLOT
 70
     0
102
SHADEPLOTRESLEVEL
 70
     2
102
SHADEPLOTCUSTOMDPI
 70
   300
  0
XRECORD
  5
1687
102
{ACAD_REACTORS
330
1686
102
}
330
1686
100
AcDbXrecord
280
     1
102
SHADEPLOT
 70
     0
102
SHADEPLOTRESLEVEL
 70
     2
102
SHADEPLOTCUSTOMDPI
 70
   300
  0
XRECORD
  5
44
102
{ACAD_REACTORS
330
43
102
}
330
43
100
AcDbXrecord
280
     1
102
MATERIAL
148
0.0
149
0.0
149
0.0
 93
        0
 94
      127
282
     0
 72
     0
 77
     0
171
     0
175
     0
179
     0
273
     0
  0
XRECORD
  5
45
102
{ACAD_REACTORS
330
43
102
}
330
43
100
AcDbXrecord
280
     1
270
     1
271
     1
  0
XRECORD
  5
46
102
{ACAD_REACTORS
330
43
102
}
330
43
100
AcDbXrecord
280
     1
270
     1
271
     1
  0
XRECORD
  5
47
102
{ACAD_REACTORS
330
43
102
}
330
43
100
AcDbXrecord
280
     1
270
     1
271
     1
  0
XRECORD
  5
48
102
{ACAD_REACTORS
330
43
102
}
330
43
100
AcDbXrecord
280
     1
270
     1
271
     1
  0
XRECORD
  5
49
102
{ACAD_REACTORS
330
43
102
}
330
43
100
AcDbXrecord
280
     1
270
     1
271
     1
  0
XRECORD
  5
4A
102
{ACAD_REACTORS
330
43
102
}
330
43
100
AcDbXrecord
280
     1
270
     1
271
     1
  0
XRECORD
  5
17
102
{ACAD_REACTORS
330
16
102
}
330
16
100
AcDbXrecord
280
     1
102
MATERIAL
148
0.0
149
0.0
149
0.0
 93
        0
 94
      127
282
     0
 72
     0
 77
     0
171
     0
175
     0
179
     0
273
     0
  0
XRECORD
  5
18
102
{ACAD_REACTORS
330
16
102
}
330
16
100
AcDbXrecord
280
     1
270
     1
271
     1
  0
XRECORD
  5
19
102
{ACAD_REACTORS
330
16
102
}
330
16
100
AcDbXrecord
280
     1
270
     1
271
     1
  0
XRECORD
  5
1A
102
{ACAD_REACTORS
330
16
102
}
330
16
100
AcDbXrecord
280
     1
270
     1
271
     1
  0
XRECORD
  5
1B
102
{ACAD_REACTORS
330
16
102
}
330
16
100
AcDbXrecord
280
     1
270
     1
271
     1
  0
XRECORD
  5
1C
102
{ACAD_REACTORS
330
16
102
}
330
16
100
AcDbXrecord
280
     1
270
     1
271
     1
  0
XRECORD
  5
1D
102
{ACAD_REACTORS
330
16
102
}
330
16
100
AcDbXrecord
280
     1
270
     1
271
     1
  0
XRECORD
  5
D
102
{ACAD_REACTORS
330
C
102
}
330
C
100
AcDbXrecord
280
     1
102
MATERIAL
148
0.0
149
0.0
149
0.0
 93
        0
 94
      127
282
     0
 72
     0
 77
     0
171
     0
175
     0
179
     0
273
     0
  0
XRECORD
  5
E
102
{ACAD_REACTORS
330
C
102
}
330
C
100
AcDbXrecord
280
     1
270
     1
271
     1
  0
XRECORD
  5
F
102
{ACAD_REACTORS
330
C
102
}
330
C
100
AcDbXrecord
280
     1
270
     1
271
     1
  0
XRECORD
  5
10
102
{ACAD_REACTORS
330
C
102
}
330
C
100
AcDbXrecord
280
     1
270
     1
271
     1
  0
XRECORD
  5
11
102
{ACAD_REACTORS
330
C
102
}
330
C
100
AcDbXrecord
280
     1
270
     1
271
     1
  0
XRECORD
  5
12
102
{ACAD_REACTORS
330
C
102
}
330
C
100
AcDbXrecord
280
     1
270
     1
271
     1
  0
XRECORD
  5
13
102
{ACAD_REACTORS
330
C
102
}
330
C
100
AcDbXrecord
280
     1
270
     1
271
     1
  0
XRECORD
  5
16BA
102
{ACAD_REACTORS
330
16B9
102
}
330
16B9
100
AcDbXrecord
280
     1
102
DISPLAYNAME
  1
Imperial24
102
FLAGS
 90
        0
  0
CELLSTYLEMAP
  5
1681
102
{ACAD_REACTORS
330
58
102
}
330
58
100
AcDbCellStyleMap
 90
        3
300
CELLSTYLE
  1
TABLEFORMAT_BEGIN
 90
        5
170
     1
 91
        0
 92
    32768
 62
   257
 93
        1
300
CONTENTFORMAT
  1
CONTENTFORMAT_BEGIN
 90
        0
 91
        0
 92
      512
 93
        0
300

 40
0.0
140
1.0
 94
        5
 62
     0
340
27
144
0.25
309
CONTENTFORMAT_END
171
     1
301
MARGIN
  1
CELLMARGIN_BEGIN
 40
0.06
 40
0.06
 40
0.06
 40
0.06
 40
0.18
 40
0.18
309
CELLMARGIN_END
 94
        6
 95
        1
302
GRIDFORMAT
  1
GRIDFORMAT_BEGIN
 90
        0
 91
        1
 62
     0
 92
       -2
340
0
 93
        0
 40
0.045
309
GRIDFORMAT_END
 95
        2
302
GRIDFORMAT
  1
GRIDFORMAT_BEGIN
 90
        0
 91
        1
 62
     0
 92
       -2
340
0
 93
        0
 40
0.045
309
GRIDFORMAT_END
 95
        4
302
GRIDFORMAT
  1
GRIDFORMAT_BEGIN
 90
        0
 91
        1
 62
     0
 92
       -2
340
0
 93
        0
 40
0.045
309
GRIDFORMAT_END
 95
        8
302
GRIDFORMAT
  1
GRIDFORMAT_BEGIN
 90
        0
 91
        1
 62
     0
 92
       -2
340
0
 93
        0
 40
0.045
309
GRIDFORMAT_END
 95
       16
302
GRIDFORMAT
  1
GRIDFORMAT_BEGIN
 90
        0
 91
        1
 62
     0
 92
       -2
340
0
 93
        0
 40
0.045
309
GRIDFORMAT_END
 95
       32
302
GRIDFORMAT
  1
GRIDFORMAT_BEGIN
 90
        0
 91
        1
 62
     0
 92
       -2
340
0
 93
        0
 40
0.045
309
GRIDFORMAT_END
309
TABLEFORMAT_END
  1
CELLSTYLE_BEGIN
 90
        1
 91
        1
300
_TITLE
309
CELLSTYLE_END
300
CELLSTYLE
  1
TABLEFORMAT_BEGIN
 90
        5
170
     1
 91
        0
 92
        0
 62
   257
 93
        1
300
CONTENTFORMAT
  1
CONTENTFORMAT_BEGIN
 90
        0
 91
        0
 92
      512
 93
        0
300

 40
0.0
140
1.0
 94
        5
 62
     0
340
27
144
0.18
309
CONTENTFORMAT_END
171
     1
301
MARGIN
  1
CELLMARGIN_BEGIN
 40
0.06
 40
0.06
 40
0.06
 40
0.06
 40
0.18
 40
0.18
309
CELLMARGIN_END
 94
        6
 95
        1
302
GRIDFORMAT
  1
GRIDFORMAT_BEGIN
 90
        0
 91
        1
 62
     0
 92
       -2
340
0
 93
        0
 40
0.045
309
GRIDFORMAT_END
 95
        2
302
GRIDFORMAT
  1
GRIDFORMAT_BEGIN
 90
        0
 91
        1
 62
     0
 92
       -2
340
0
 93
        0
 40
0.045
309
GRIDFORMAT_END
 95
        4
302
GRIDFORMAT
  1
GRIDFORMAT_BEGIN
 90
        0
 91
        1
 62
     0
 92
       -2
340
0
 93
        0
 40
0.045
309
GRIDFORMAT_END
 95
        8
302
GRIDFORMAT
  1
GRIDFORMAT_BEGIN
 90
        0
 91
        1
 62
     0
 92
       -2
340
0
 93
        0
 40
0.045
309
GRIDFORMAT_END
 95
       16
302
GRIDFORMAT
  1
GRIDFORMAT_BEGIN
 90
        0
 91
        1
 62
     0
 92
       -2
340
0
 93
        0
 40
0.045
309
GRIDFORMAT_END
 95
       32
302
GRIDFORMAT
  1
GRIDFORMAT_BEGIN
 90
        0
 91
        1
 62
     0
 92
       -2
340
0
 93
        0
 40
0.045
309
GRIDFORMAT_END
309
TABLEFORMAT_END
  1
CELLSTYLE_BEGIN
 90
        2
 91
        1
300
_HEADER
309
CELLSTYLE_END
300
CELLSTYLE
  1
TABLEFORMAT_BEGIN
 90
        5
170
     1
 91
        0
 92
        0
 62
   257
 93
        1
300
CONTENTFORMAT
  1
CONTENTFORMAT_BEGIN
 90
        0
 91
        0
 92
      512
 93
        0
300

 40
0.0
140
1.0
 94
        2
 62
     0
340
27
144
0.18
309
CONTENTFORMAT_END
171
     1
301
MARGIN
  1
CELLMARGIN_BEGIN
 40
0.06
 40
0.06
 40
0.06
 40
0.06
 40
0.18
 40
0.18
309
CELLMARGIN_END
 94
        6
 95
        1
302
GRIDFORMAT
  1
GRIDFORMAT_BEGIN
 90
        0
 91
        1
 62
     0
 92
       -2
340
0
 93
        0
 40
0.045
309
GRIDFORMAT_END
 95
        2
302
GRIDFORMAT
  1
GRIDFORMAT_BEGIN
 90
        0
 91
        1
 62
     0
 92
       -2
340
0
 93
        0
 40
0.045
309
GRIDFORMAT_END
 95
        4
302
GRIDFORMAT
  1
GRIDFORMAT_BEGIN
 90
        0
 91
        1
 62
     0
 92
       -2
340
0
 93
        0
 40
0.045
309
GRIDFORMAT_END
 95
        8
302
GRIDFORMAT
  1
GRIDFORMAT_BEGIN
 90
        0
 91
        1
 62
     0
 92
       -2
340
0
 93
        0
 40
0.045
309
GRIDFORMAT_END
 95
       16
302
GRIDFORMAT
  1
GRIDFORMAT_BEGIN
 90
        0
 91
        1
 62
     0
 92
       -2
340
0
 93
        0
 40
0.045
309
GRIDFORMAT_END
 95
       32
302
GRIDFORMAT
  1
GRIDFORMAT_BEGIN
 90
        0
 91
        1
 62
     0
 92
       -2
340
0
 93
        0
 40
0.045
309
GRIDFORMAT_END
309
TABLEFORMAT_END
  1
CELLSTYLE_BEGIN
 90
        3
 91
        2
300
_DATA
309
CELLSTYLE_END
  0
XRECORD
  5
168A
102
{ACAD_REACTORS
330
58
102
}
330
58
100
AcDbXrecord
280
     1
102
ACAD_ROUNDTRIP_PRE2007_TABLESTYLE
 90
      512
 91
        0
  1

 92
      512
 93
        0
  2

 94
      512
 95
        0
  3

  0
XRECORD
  5
1689
102
{ACAD_REACTORS
330
1688
102
}
330
1688
100
AcDbXrecord
280
     1
102
RTVSPost2010Prop28
280
     1
102
RTVSPost2010PropOp28
 70
     1
102
RTVSPost2010Prop29
280
     1
102
RTVSPost2010PropOp29
 70
     1
102
RTVSPost2010Prop30
280
     0
102
RTVSPost2010PropOp30
 70
     1
102
RTVSPost2010Prop31
280
     0
102
RTVSPost2010PropOp31
 70
     1
102
RTVSPost2010Prop32
280
     0
102
RTVSPost2010PropOp32
 70
     1
102
RTVSPost2010Prop33
280
     0
102
RTVSPost2010PropOp33
 70
     1
102
RTVSPost2010Prop34
280
     0
102
RTVSPost2010PropOp34
 70
     1
102
RTVSPost2010Prop35
280
     0
102
RTVSPost2010PropOp35
 70
     1
102
RTVSPost2010Prop36
280
     0
102
RTVSPost2010PropOp36
 70
     1
102
RTVSPost2010Prop37
 90
       50
102
RTVSPost2010PropOp37
 70
     1
102
RTVSPost2010Prop38
140
0.0
102
RTVSPost2010PropOp38
 70
     1
102
RTVSPost2010Prop39
140
1.0
102
RTVSPost2010PropOp39
 70
     1
102
RTVSPost2010Prop40
 90
        0
102
RTVSPost2010PropOp40
 70
     1
102
RTVSPost2010Prop41ColorIndex
 90
       18
102
RTVSPost2010Prop41ColorRGB
 90
-16777216
102
RTVSPost2010PropOp41
 70
     1
102
RTVSPost2010Prop42
 90
       50
102
RTVSPost2010PropOp42
 70
     1
102
RTVSPost2010Prop43
 90
        3
102
RTVSPost2010PropOp43
 70
     1
102
RTVSPost2010Prop44ColorIndex
 90
        5
102
RTVSPost2010Prop44ColorRGB
 90
      255
102
RTVSPost2010PropOp44
 70
     1
102
RTVSPost2010Prop45
280
     0
102
RTVSPost2010PropOp45
 70
     1
102
RTVSPost2010Prop46
 90
       50
102
RTVSPost2010PropOp46
 70
     1
102
RTVSPost2010Prop47
 90
       50
102
RTVSPost2010PropOp47
 70
     1
102
RTVSPost2010Prop48
 90
       50
102
RTVSPost2010PropOp48
 70
     1
102
RTVSPost2010Prop49
280
     0
102
RTVSPost2010PropOp49
 70
     1
102
RTVSPost2010Prop50
 90
       50
102
RTVSPost2010PropOp50
 70
     1
102
RTVSPost2010Prop51ColorIndex
 90
      256
102
RTVSPost2010Prop51ColorRGB
 90
-16777216
102
RTVSPost2010PropOp51
 70
     0
102
RTVSPost2010Prop52
140
1.0
102
RTVSPost2010PropOp52
 70
     0
102
RTVSPost2010Prop53
 90
        2
102
RTVSPost2010PropOp53
 70
     1
102
RTVSPost2010Prop54
  1
strokes_ogs.tif
102
RTVSPost2010PropOp54
 70
     1
102
RTVSPost2010Prop55
280
     0
102
RTVSPost2010PropOp55
 70
     1
102
RTVSPost2010Prop56
140
1.0
102
RTVSPost2010PropOp56
 70
     1
102
RTVSPost2010Prop57
140
1.0
102
RTVSPost2010PropOp57
 70
     1
102
RTVSPropertyOp0
 70
     1
102
RTVSPropertyOp1
 70
     1
102
RTVSPropertyOp2
 70
     1
102
RTVSPropertyOp3
 70
     1
102
RTVSPropertyOp4
 70
     1
102
RTVSPropertyOp5
 70
     1
102
RTVSPropertyOp6
 70
     1
102
RTVSPropertyOp7
 70
     1
102
RTVSPropertyOp8
 70
     1
102
RTVSPropertyOp9
 70
     1
102
RTVSPropertyOp10
 70
     1
102
RTVSPropertyOp11
 70
     1
102
RTVSPropertyOp12
 70
     1
102
RTVSPropertyOp13
 70
     1
102
RTVSPropertyOp14
 70
     1
102
RTVSPropertyOp15
 70
     1
102
RTVSPropertyOp16
 70
     1
102
RTVSPropertyOp17
 70
     1
102
RTVSPropertyOp18
 70
     1
102
RTVSPropertyOp19
 70
     1
102
RTVSPropertyOp20
 70
     1
102
RTVSPropertyOp21
 70
     1
102
RTVSPropertyOp22
 70
     1
102
RTVSPropertyOp23
 70
     1
102
RTVSPropertyOp24
 70
     1
102
RTVSPropertyOp25
 70
     1
102
RTVSPropertyOp26
 70
     1
102
RTVSPropertyOp27
 70
     1
102
RTVSPropertyOp28
 70
     1
102
RTVSPropertyOp29
 70
     1
102
RTVSPropertyOp30
 70
     1
102
RTVSPropertyOp31
 70
     1
102
RTVSPropertyOp32
 70
     1
102
RTVSPropertyOp33
 70
     1
102
RTVSPropertyOp34
 70
     1
102
RTVSPropertyOp35
 70
     1
102
RTVSPropertyOp36
 70
     1
102
RTVSPropertyOp37
 70
     1
102
RTVSPropertyOp38
 70
     1
102
RTVSPropertyOp39
 70
     1
102
RTVSPropertyOp40
 70
     1
102
RTVSPropertyOp41
 70
     1
102
RTVSPropertyOp42
 70
     1
102
RTVSPropertyOp43
 70
     1
102
RTVSPropertyOp44
 70
     1
102
RTVSPropertyOp45
 70
     1
102
RTVSPropertyOp46
 70
     1
102
RTVSPropertyOp47
 70
     1
102
RTVSPropertyOp48
 70
     1
102
RTVSPropertyOp49
 70
     1
102
RTVSPropertyOp50
 70
     1
102
RTVSPropertyOp51
 70
     0
102
RTVSPropertyOp52
 70
     0
102
RTVSPropertyOp53
 70
     1
102
RTVSPropertyOp54
 70
     1
102
RTVSPropertyOp55
 70
     1
102
RTVSPropertyOp56
 70
     1
102
RTVSPropertyOp57
 70
     1
102
RTVSPropertyOp58
 70
     1
102
RTVSPropertyOp59
 70
     1
102
RTVSPropertyOp60
 70
     1
102
RTVSPropertyOp61
 70
     1
102
RTVSPropertyOp62
 70
     1
  0
XRECORD
  5
1698
102
{ACAD_REACTORS
330
1697
102
}
330
1697
100
AcDbXrecord
280
     1
102
RTVSPost2010Prop28
280
     0
102
RTVSPost2010PropOp28
 70
     1
102
RTVSPost2010Prop29
280
     1
102
RTVSPost2010PropOp29
 70
     1
102
RTVSPost2010Prop30
280
     1
102
RTVSPost2010PropOp30
 70
     1
102
RTVSPost2010Prop31
280
     0
102
RTVSPost2010PropOp31
 70
     1
102
RTVSPost2010Prop32
280
     0
102
RTVSPost2010PropOp32
 70
     1
102
RTVSPost2010Prop33
280
     0
102
RTVSPost2010PropOp33
 70
     1
102
RTVSPost2010Prop34
280
     0
102
RTVSPost2010PropOp34
 70
     1
102
RTVSPost2010Prop35
280
     0
102
RTVSPost2010PropOp35
 70
     1
102
RTVSPost2010Prop36
280
     0
102
RTVSPost2010PropOp36
 70
     1
102
RTVSPost2010Prop37
 90
       50
102
RTVSPost2010PropOp37
 70
     1
102
RTVSPost2010Prop38
140
0.0
102
RTVSPost2010PropOp38
 70
     1
102
RTVSPost2010Prop39
140
1.0
102
RTVSPost2010PropOp39
 70
     1
102
RTVSPost2010Prop40
 90
        0
102
RTVSPost2010PropOp40
 70
     1
102
RTVSPost2010Prop41ColorIndex
 90
       18
102
RTVSPost2010Prop41ColorRGB
 90
-16777216
102
RTVSPost2010PropOp41
 70
     1
102
RTVSPost2010Prop42
 90
       50
102
RTVSPost2010PropOp42
 70
     1
102
RTVSPost2010Prop43
 90
        3
102
RTVSPost2010PropOp43
 70
     1
102
RTVSPost2010Prop44ColorIndex
 90
        5
102
RTVSPost2010Prop44ColorRGB
 90
      255
102
RTVSPost2010PropOp44
 70
     1
102
RTVSPost2010Prop45
280
     0
102
RTVSPost2010PropOp45
 70
     1
102
RTVSPost2010Prop46
 90
       50
102
RTVSPost2010PropOp46
 70
     1
102
RTVSPost2010Prop47
 90
       50
102
RTVSPost2010PropOp47
 70
     1
102
RTVSPost2010Prop48
 90
       50
102
RTVSPost2010PropOp48
 70
     1
102
RTVSPost2010Prop49
280
     0
102
RTVSPost2010PropOp49
 70
     1
102
RTVSPost2010Prop50
 90
       50
102
RTVSPost2010PropOp50
 70
     1
102
RTVSPost2010Prop51ColorIndex
 90
      256
102
RTVSPost2010Prop51ColorRGB
 90
-16777216
102
RTVSPost2010PropOp51
 70
     0
102
RTVSPost2010Prop52
140
1.0
102
RTVSPost2010PropOp52
 70
     0
102
RTVSPost2010Prop53
 90
        2
102
RTVSPost2010PropOp53
 70
     1
102
RTVSPost2010Prop54
  1
strokes_ogs.tif
102
RTVSPost2010PropOp54
 70
     1
102
RTVSPost2010Prop55
280
     0
102
RTVSPost2010PropOp55
 70
     1
102
RTVSPost2010Prop56
140
1.0
102
RTVSPost2010PropOp56
 70
     1
102
RTVSPost2010Prop57
140
1.0
102
RTVSPost2010PropOp57
 70
     1
102
RTVSPropertyOp0
 70
     1
102
RTVSPropertyOp1
 70
     1
102
RTVSPropertyOp2
 70
     1
102
RTVSPropertyOp3
 70
     1
102
RTVSPropertyOp4
 70
     1
102
RTVSPropertyOp5
 70
     1
102
RTVSPropertyOp6
 70
     1
102
RTVSPropertyOp7
 70
     1
102
RTVSPropertyOp8
 70
     1
102
RTVSPropertyOp9
 70
     1
102
RTVSPropertyOp10
 70
     1
102
RTVSPropertyOp11
 70
     1
102
RTVSPropertyOp12
 70
     1
102
RTVSPropertyOp13
 70
     1
102
RTVSPropertyOp14
 70
     1
102
RTVSPropertyOp15
 70
     1
102
RTVSPropertyOp16
 70
     1
102
RTVSPropertyOp17
 70
     1
102
RTVSPropertyOp18
 70
     1
102
RTVSPropertyOp19
 70
     1
102
RTVSPropertyOp20
 70
     1
102
RTVSPropertyOp21
 70
     1
102
RTVSPropertyOp22
 70
     1
102
RTVSPropertyOp23
 70
     1
102
RTVSPropertyOp24
 70
     1
102
RTVSPropertyOp25
 70
     1
102
RTVSPropertyOp26
 70
     1
102
RTVSPropertyOp27
 70
     1
102
RTVSPropertyOp28
 70
     1
102
RTVSPropertyOp29
 70
     1
102
RTVSPropertyOp30
 70
     1
102
RTVSPropertyOp31
 70
     1
102
RTVSPropertyOp32
 70
     1
102
RTVSPropertyOp33
 70
     1
102
RTVSPropertyOp34
 70
     1
102
RTVSPropertyOp35
 70
     1
102
RTVSPropertyOp36
 70
     1
102
RTVSPropertyOp37
 70
     1
102
RTVSPropertyOp38
 70
     1
102
RTVSPropertyOp39
 70
     1
102
RTVSPropertyOp40
 70
     1
102
RTVSPropertyOp41
 70
     1
102
RTVSPropertyOp42
 70
     1
102
RTVSPropertyOp43
 70
     1
102
RTVSPropertyOp44
 70
     1
102
RTVSPropertyOp45
 70
     1
102
RTVSPropertyOp46
 70
     1
102
RTVSPropertyOp47
 70
     1
102
RTVSPropertyOp48
 70
     1
102
RTVSPropertyOp49
 70
     1
102
RTVSPropertyOp50
 70
     1
102
RTVSPropertyOp51
 70
     0
102
RTVSPropertyOp52
 70
     0
102
RTVSPropertyOp53
 70
     1
102
RTVSPropertyOp54
 70
     1
102
RTVSPropertyOp55
 70
     1
102
RTVSPropertyOp56
 70
     1
102
RTVSPropertyOp57
 70
     1
102
RTVSPropertyOp58
 70
     1
102
RTVSPropertyOp59
 70
     1
102
RTVSPropertyOp60
 70
     1
102
RTVSPropertyOp61
 70
     1
102
RTVSPropertyOp62
 70
     1
  0
XRECORD
  5
16A0
102
{ACAD_REACTORS
330
169F
102
}
330
169F
100
AcDbXrecord
280
     1
102
RTVSPost2010Prop28
280
     0
102
RTVSPost2010PropOp28
 70
     1
102
RTVSPost2010Prop29
280
     1
102
RTVSPost2010PropOp29
 70
     1
102
RTVSPost2010Prop30
280
     1
102
RTVSPost2010PropOp30
 70
     1
102
RTVSPost2010Prop31
280
     0
102
RTVSPost2010PropOp31
 70
     1
102
RTVSPost2010Prop32
280
     0
102
RTVSPost2010PropOp32
 70
     1
102
RTVSPost2010Prop33
280
     0
102
RTVSPost2010PropOp33
 70
     1
102
RTVSPost2010Prop34
280
     0
102
RTVSPost2010PropOp34
 70
     1
102
RTVSPost2010Prop35
280
     0
102
RTVSPost2010PropOp35
 70
     1
102
RTVSPost2010Prop36
280
     0
102
RTVSPost2010PropOp36
 70
     1
102
RTVSPost2010Prop37
 90
       50
102
RTVSPost2010PropOp37
 70
     1
102
RTVSPost2010Prop38
140
0.0
102
RTVSPost2010PropOp38
 70
     1
102
RTVSPost2010Prop39
140
1.0
102
RTVSPost2010PropOp39
 70
     1
102
RTVSPost2010Prop40
 90
        0
102
RTVSPost2010PropOp40
 70
     1
102
RTVSPost2010Prop41ColorIndex
 90
       18
102
RTVSPost2010Prop41ColorRGB
 90
-16777216
102
RTVSPost2010PropOp41
 70
     1
102
RTVSPost2010Prop42
 90
       50
102
RTVSPost2010PropOp42
 70
     1
102
RTVSPost2010Prop43
 90
        3
102
RTVSPost2010PropOp43
 70
     1
102
RTVSPost2010Prop44ColorIndex
 90
        5
102
RTVSPost2010Prop44ColorRGB
 90
      255
102
RTVSPost2010PropOp44
 70
     1
102
RTVSPost2010Prop45
280
     0
102
RTVSPost2010PropOp45
 70
     1
102
RTVSPost2010Prop46
 90
       50
102
RTVSPost2010PropOp46
 70
     1
102
RTVSPost2010Prop47
 90
       50
102
RTVSPost2010PropOp47
 70
     1
102
RTVSPost2010Prop48
 90
       50
102
RTVSPost2010PropOp48
 70
     1
102
RTVSPost2010Prop49
280
     0
102
RTVSPost2010PropOp49
 70
     1
102
RTVSPost2010Prop50
 90
       50
102
RTVSPost2010PropOp50
 70
     1
102
RTVSPost2010Prop51ColorIndex
 90
      256
102
RTVSPost2010Prop51ColorRGB
 90
-16777216
102
RTVSPost2010PropOp51
 70
     0
102
RTVSPost2010Prop52
140
1.0
102
RTVSPost2010PropOp52
 70
     0
102
RTVSPost2010Prop53
 90
        2
102
RTVSPost2010PropOp53
 70
     1
102
RTVSPost2010Prop54
  1
strokes_ogs.tif
102
RTVSPost2010PropOp54
 70
     1
102
RTVSPost2010Prop55
280
     0
102
RTVSPost2010PropOp55
 70
     1
102
RTVSPost2010Prop56
140
1.0
102
RTVSPost2010PropOp56
 70
     1
102
RTVSPost2010Prop57
140
1.0
102
RTVSPost2010PropOp57
 70
     1
102
RTVSPropertyOp0
 70
     1
102
RTVSPropertyOp1
 70
     1
102
RTVSPropertyOp2
 70
     1
102
RTVSPropertyOp3
 70
     1
102
RTVSPropertyOp4
 70
     1
102
RTVSPropertyOp5
 70
     1
102
RTVSPropertyOp6
 70
     1
102
RTVSPropertyOp7
 70
     1
102
RTVSPropertyOp8
 70
     1
102
RTVSPropertyOp9
 70
     1
102
RTVSPropertyOp10
 70
     1
102
RTVSPropertyOp11
 70
     1
102
RTVSPropertyOp12
 70
     1
102
RTVSPropertyOp13
 70
     1
102
RTVSPropertyOp14
 70
     1
102
RTVSPropertyOp15
 70
     1
102
RTVSPropertyOp16
 70
     1
102
RTVSPropertyOp17
 70
     1
102
RTVSPropertyOp18
 70
     1
102
RTVSPropertyOp19
 70
     1
102
RTVSPropertyOp20
 70
     1
102
RTVSPropertyOp21
 70
     1
102
RTVSPropertyOp22
 70
     1
102
RTVSPropertyOp23
 70
     1
102
RTVSPropertyOp24
 70
     1
102
RTVSPropertyOp25
 70
     1
102
RTVSPropertyOp26
 70
     1
102
RTVSPropertyOp27
 70
     1
102
RTVSPropertyOp28
 70
     1
102
RTVSPropertyOp29
 70
     1
102
RTVSPropertyOp30
 70
     1
102
RTVSPropertyOp31
 70
     1
102
RTVSPropertyOp32
 70
     1
102
RTVSPropertyOp33
 70
     1
102
RTVSPropertyOp34
 70
     1
102
RTVSPropertyOp35
 70
     1
102
RTVSPropertyOp36
 70
     1
102
RTVSPropertyOp37
 70
     1
102
RTVSPropertyOp38
 70
     1
102
RTVSPropertyOp39
 70
     1
102
RTVSPropertyOp40
 70
     1
102
RTVSPropertyOp41
 70
     1
102
RTVSPropertyOp42
 70
     1
102
RTVSPropertyOp43
 70
     1
102
RTVSPropertyOp44
 70
     1
102
RTVSPropertyOp45
 70
     1
102
RTVSPropertyOp46
 70
     1
102
RTVSPropertyOp47
 70
     1
102
RTVSPropertyOp48
 70
     1
102
RTVSPropertyOp49
 70
     1
102
RTVSPropertyOp50
 70
     1
102
RTVSPropertyOp51
 70
     0
102
RTVSPropertyOp52
 70
     0
102
RTVSPropertyOp53
 70
     1
102
RTVSPropertyOp54
 70
     1
102
RTVSPropertyOp55
 70
     1
102
RTVSPropertyOp56
 70
     1
102
RTVSPropertyOp57
 70
     1
102
RTVSPropertyOp58
 70
     1
102
RTVSPropertyOp59
 70
     1
102
RTVSPropertyOp60
 70
     1
102
RTVSPropertyOp61
 70
     1
102
RTVSPropertyOp62
 70
     1
  0
XRECORD
  5
16A8
102
{ACAD_REACTORS
330
16A7
102
}
330
16A7
100
AcDbXrecord
280
     1
102
RTVSPost2010Prop28
280
     0
102
RTVSPost2010PropOp28
 70
     1
102
RTVSPost2010Prop29
280
     1
102
RTVSPost2010PropOp29
 70
     1
102
RTVSPost2010Prop30
280
     1
102
RTVSPost2010PropOp30
 70
     1
102
RTVSPost2010Prop31
280
     0
102
RTVSPost2010PropOp31
 70
     1
102
RTVSPost2010Prop32
280
     0
102
RTVSPost2010PropOp32
 70
     1
102
RTVSPost2010Prop33
280
     0
102
RTVSPost2010PropOp33
 70
     1
102
RTVSPost2010Prop34
280
     0
102
RTVSPost2010PropOp34
 70
     1
102
RTVSPost2010Prop35
280
     0
102
RTVSPost2010PropOp35
 70
     1
102
RTVSPost2010Prop36
280
     0
102
RTVSPost2010PropOp36
 70
     1
102
RTVSPost2010Prop37
 90
       50
102
RTVSPost2010PropOp37
 70
     1
102
RTVSPost2010Prop38
140
0.0
102
RTVSPost2010PropOp38
 70
     1
102
RTVSPost2010Prop39
140
1.0
102
RTVSPost2010PropOp39
 70
     1
102
RTVSPost2010Prop40
 90
        0
102
RTVSPost2010PropOp40
 70
     1
102
RTVSPost2010Prop41ColorIndex
 90
       18
102
RTVSPost2010Prop41ColorRGB
 90
-16777216
102
RTVSPost2010PropOp41
 70
     1
102
RTVSPost2010Prop42
 90
       50
102
RTVSPost2010PropOp42
 70
     1
102
RTVSPost2010Prop43
 90
        3
102
RTVSPost2010PropOp43
 70
     1
102
RTVSPost2010Prop44ColorIndex
 90
        5
102
RTVSPost2010Prop44ColorRGB
 90
      255
102
RTVSPost2010PropOp44
 70
     1
102
RTVSPost2010Prop45
280
     0
102
RTVSPost2010PropOp45
 70
     1
102
RTVSPost2010Prop46
 90
       50
102
RTVSPost2010PropOp46
 70
     1
102
RTVSPost2010Prop47
 90
       50
102
RTVSPost2010PropOp47
 70
     1
102
RTVSPost2010Prop48
 90
       50
102
RTVSPost2010PropOp48
 70
     1
102
RTVSPost2010Prop49
280
     0
102
RTVSPost2010PropOp49
 70
     1
102
RTVSPost2010Prop50
 90
       50
102
RTVSPost2010PropOp50
 70
     1
102
RTVSPost2010Prop51ColorIndex
 90
      256
102
RTVSPost2010Prop51ColorRGB
 90
-16777216
102
RTVSPost2010PropOp51
 70
     0
102
RTVSPost2010Prop52
140
1.0
102
RTVSPost2010PropOp52
 70
     0
102
RTVSPost2010Prop53
 90
        2
102
RTVSPost2010PropOp53
 70
     1
102
RTVSPost2010Prop54
  1
strokes_ogs.tif
102
RTVSPost2010PropOp54
 70
     1
102
RTVSPost2010Prop55
280
     0
102
RTVSPost2010PropOp55
 70
     1
102
RTVSPost2010Prop56
140
1.0
102
RTVSPost2010PropOp56
 70
     1
102
RTVSPost2010Prop57
140
1.0
102
RTVSPost2010PropOp57
 70
     1
102
RTVSPropertyOp0
 70
     1
102
RTVSPropertyOp1
 70
     1
102
RTVSPropertyOp2
 70
     1
102
RTVSPropertyOp3
 70
     1
102
RTVSPropertyOp4
 70
     1
102
RTVSPropertyOp5
 70
     1
102
RTVSPropertyOp6
 70
     1
102
RTVSPropertyOp7
 70
     1
102
RTVSPropertyOp8
 70
     1
102
RTVSPropertyOp9
 70
     1
102
RTVSPropertyOp10
 70
     1
102
RTVSPropertyOp11
 70
     1
102
RTVSPropertyOp12
 70
     1
102
RTVSPropertyOp13
 70
     1
102
RTVSPropertyOp14
 70
     1
102
RTVSPropertyOp15
 70
     1
102
RTVSPropertyOp16
 70
     1
102
RTVSPropertyOp17
 70
     1
102
RTVSPropertyOp18
 70
     1
102
RTVSPropertyOp19
 70
     1
102
RTVSPropertyOp20
 70
     1
102
RTVSPropertyOp21
 70
     1
102
RTVSPropertyOp22
 70
     1
102
RTVSPropertyOp23
 70
     1
102
RTVSPropertyOp24
 70
     1
102
RTVSPropertyOp25
 70
     1
102
RTVSPropertyOp26
 70
     1
102
RTVSPropertyOp27
 70
     1
102
RTVSPropertyOp28
 70
     1
102
RTVSPropertyOp29
 70
     1
102
RTVSPropertyOp30
 70
     1
102
RTVSPropertyOp31
 70
     1
102
RTVSPropertyOp32
 70
     1
102
RTVSPropertyOp33
 70
     1
102
RTVSPropertyOp34
 70
     1
102
RTVSPropertyOp35
 70
     1
102
RTVSPropertyOp36
 70
     1
102
RTVSPropertyOp37
 70
     1
102
RTVSPropertyOp38
 70
     1
102
RTVSPropertyOp39
 70
     1
102
RTVSPropertyOp40
 70
     1
102
RTVSPropertyOp41
 70
     1
102
RTVSPropertyOp42
 70
     1
102
RTVSPropertyOp43
 70
     1
102
RTVSPropertyOp44
 70
     1
102
RTVSPropertyOp45
 70
     1
102
RTVSPropertyOp46
 70
     1
102
RTVSPropertyOp47
 70
     1
102
RTVSPropertyOp48
 70
     1
102
RTVSPropertyOp49
 70
     1
102
RTVSPropertyOp50
 70
     1
102
RTVSPropertyOp51
 70
     0
102
RTVSPropertyOp52
 70
     0
102
RTVSPropertyOp53
 70
     1
102
RTVSPropertyOp54
 70
     1
102
RTVSPropertyOp55
 70
     1
102
RTVSPropertyOp56
 70
     1
102
RTVSPropertyOp57
 70
     1
102
RTVSPropertyOp58
 70
     1
102
RTVSPropertyOp59
 70
     1
102
RTVSPropertyOp60
 70
     1
102
RTVSPropertyOp61
 70
     1
102
RTVSPropertyOp62
 70
     1
  0
XRECORD
  5
169C
102
{ACAD_REACTORS
330
169B
102
}
330
169B
100
AcDbXrecord
280
     1
102
RTVSPost2010Prop28
280
     0
102
RTVSPost2010PropOp28
 70
     1
102
RTVSPost2010Prop29
280
     1
102
RTVSPost2010PropOp29
 70
     1
102
RTVSPost2010Prop30
280
     1
102
RTVSPost2010PropOp30
 70
     1
102
RTVSPost2010Prop31
280
     0
102
RTVSPost2010PropOp31
 70
     1
102
RTVSPost2010Prop32
280
     0
102
RTVSPost2010PropOp32
 70
     1
102
RTVSPost2010Prop33
280
     0
102
RTVSPost2010PropOp33
 70
     1
102
RTVSPost2010Prop34
280
     0
102
RTVSPost2010PropOp34
 70
     1
102
RTVSPost2010Prop35
280
     0
102
RTVSPost2010PropOp35
 70
     1
102
RTVSPost2010Prop36
280
     0
102
RTVSPost2010PropOp36
 70
     1
102
RTVSPost2010Prop37
 90
       50
102
RTVSPost2010PropOp37
 70
     1
102
RTVSPost2010Prop38
140
0.0
102
RTVSPost2010PropOp38
 70
     1
102
RTVSPost2010Prop39
140
1.0
102
RTVSPost2010PropOp39
 70
     1
102
RTVSPost2010Prop40
 90
        0
102
RTVSPost2010PropOp40
 70
     1
102
RTVSPost2010Prop41ColorIndex
 90
       18
102
RTVSPost2010Prop41ColorRGB
 90
-16777216
102
RTVSPost2010PropOp41
 70
     1
102
RTVSPost2010Prop42
 90
       50
102
RTVSPost2010PropOp42
 70
     1
102
RTVSPost2010Prop43
 90
        3
102
RTVSPost2010PropOp43
 70
     1
102
RTVSPost2010Prop44ColorIndex
 90
        5
102
RTVSPost2010Prop44ColorRGB
 90
      255
102
RTVSPost2010PropOp44
 70
     1
102
RTVSPost2010Prop45
280
     0
102
RTVSPost2010PropOp45
 70
     1
102
RTVSPost2010Prop46
 90
       50
102
RTVSPost2010PropOp46
 70
     1
102
RTVSPost2010Prop47
 90
       50
102
RTVSPost2010PropOp47
 70
     1
102
RTVSPost2010Prop48
 90
       50
102
RTVSPost2010PropOp48
 70
     1
102
RTVSPost2010Prop49
280
     0
102
RTVSPost2010PropOp49
 70
     1
102
RTVSPost2010Prop50
 90
       50
102
RTVSPost2010PropOp50
 70
     1
102
RTVSPost2010Prop51ColorIndex
 90
      256
102
RTVSPost2010Prop51ColorRGB
 90
-16777216
102
RTVSPost2010PropOp51
 70
     0
102
RTVSPost2010Prop52
140
1.0
102
RTVSPost2010PropOp52
 70
     0
102
RTVSPost2010Prop53
 90
        2
102
RTVSPost2010PropOp53
 70
     1
102
RTVSPost2010Prop54
  1
strokes_ogs.tif
102
RTVSPost2010PropOp54
 70
     1
102
RTVSPost2010Prop55
280
     0
102
RTVSPost2010PropOp55
 70
     1
102
RTVSPost2010Prop56
140
1.0
102
RTVSPost2010PropOp56
 70
     1
102
RTVSPost2010Prop57
140
1.0
102
RTVSPost2010PropOp57
 70
     1
102
RTVSPropertyOp0
 70
     1
102
RTVSPropertyOp1
 70
     1
102
RTVSPropertyOp2
 70
     1
102
RTVSPropertyOp3
 70
     1
102
RTVSPropertyOp4
 70
     1
102
RTVSPropertyOp5
 70
     1
102
RTVSPropertyOp6
 70
     1
102
RTVSPropertyOp7
 70
     1
102
RTVSPropertyOp8
 70
     1
102
RTVSPropertyOp9
 70
     1
102
RTVSPropertyOp10
 70
     1
102
RTVSPropertyOp11
 70
     1
102
RTVSPropertyOp12
 70
     1
102
RTVSPropertyOp13
 70
     1
102
RTVSPropertyOp14
 70
     1
102
RTVSPropertyOp15
 70
     1
102
RTVSPropertyOp16
 70
     1
102
RTVSPropertyOp17
 70
     1
102
RTVSPropertyOp18
 70
     1
102
RTVSPropertyOp19
 70
     1
102
RTVSPropertyOp20
 70
     1
102
RTVSPropertyOp21
 70
     1
102
RTVSPropertyOp22
 70
     1
102
RTVSPropertyOp23
 70
     1
102
RTVSPropertyOp24
 70
     1
102
RTVSPropertyOp25
 70
     1
102
RTVSPropertyOp26
 70
     1
102
RTVSPropertyOp27
 70
     1
102
RTVSPropertyOp28
 70
     1
102
RTVSPropertyOp29
 70
     1
102
RTVSPropertyOp30
 70
     1
102
RTVSPropertyOp31
 70
     1
102
RTVSPropertyOp32
 70
     1
102
RTVSPropertyOp33
 70
     1
102
RTVSPropertyOp34
 70
     1
102
RTVSPropertyOp35
 70
     1
102
RTVSPropertyOp36
 70
     1
102
RTVSPropertyOp37
 70
     1
102
RTVSPropertyOp38
 70
     1
102
RTVSPropertyOp39
 70
     1
102
RTVSPropertyOp40
 70
     1
102
RTVSPropertyOp41
 70
     1
102
RTVSPropertyOp42
 70
     1
102
RTVSPropertyOp43
 70
     1
102
RTVSPropertyOp44
 70
     1
102
RTVSPropertyOp45
 70
     1
102
RTVSPropertyOp46
 70
     1
102
RTVSPropertyOp47
 70
     1
102
RTVSPropertyOp48
 70
     1
102
RTVSPropertyOp49
 70
     1
102
RTVSPropertyOp50
 70
     1
102
RTVSPropertyOp51
 70
     0
102
RTVSPropertyOp52
 70
     0
102
RTVSPropertyOp53
 70
     1
102
RTVSPropertyOp54
 70
     1
102
RTVSPropertyOp55
 70
     1
102
RTVSPropertyOp56
 70
     1
102
RTVSPropertyOp57
 70
     1
102
RTVSPropertyOp58
 70
     1
102
RTVSPropertyOp59
 70
     1
102
RTVSPropertyOp60
 70
     1
102
RTVSPropertyOp61
 70
     1
102
RTVSPropertyOp62
 70
     1
  0
XRECORD
  5
169E
102
{ACAD_REACTORS
330
169D
102
}
330
169D
100
AcDbXrecord
280
     1
102
RTVSPost2010Prop28
280
     0
102
RTVSPost2010PropOp28
 70
     1
102
RTVSPost2010Prop29
280
     1
102
RTVSPost2010PropOp29
 70
     1
102
RTVSPost2010Prop30
280
     1
102
RTVSPost2010PropOp30
 70
     1
102
RTVSPost2010Prop31
280
     0
102
RTVSPost2010PropOp31
 70
     1
102
RTVSPost2010Prop32
280
     0
102
RTVSPost2010PropOp32
 70
     1
102
RTVSPost2010Prop33
280
     0
102
RTVSPost2010PropOp33
 70
     1
102
RTVSPost2010Prop34
280
     0
102
RTVSPost2010PropOp34
 70
     1
102
RTVSPost2010Prop35
280
     0
102
RTVSPost2010PropOp35
 70
     1
102
RTVSPost2010Prop36
280
     0
102
RTVSPost2010PropOp36
 70
     1
102
RTVSPost2010Prop37
 90
       50
102
RTVSPost2010PropOp37
 70
     1
102
RTVSPost2010Prop38
140
0.0
102
RTVSPost2010PropOp38
 70
     1
102
RTVSPost2010Prop39
140
1.0
102
RTVSPost2010PropOp39
 70
     1
102
RTVSPost2010Prop40
 90
        0
102
RTVSPost2010PropOp40
 70
     1
102
RTVSPost2010Prop41ColorIndex
 90
       18
102
RTVSPost2010Prop41ColorRGB
 90
-16777216
102
RTVSPost2010PropOp41
 70
     1
102
RTVSPost2010Prop42
 90
       50
102
RTVSPost2010PropOp42
 70
     1
102
RTVSPost2010Prop43
 90
        3
102
RTVSPost2010PropOp43
 70
     1
102
RTVSPost2010Prop44ColorIndex
 90
        5
102
RTVSPost2010Prop44ColorRGB
 90
      255
102
RTVSPost2010PropOp44
 70
     1
102
RTVSPost2010Prop45
280
     0
102
RTVSPost2010PropOp45
 70
     1
102
RTVSPost2010Prop46
 90
       50
102
RTVSPost2010PropOp46
 70
     1
102
RTVSPost2010Prop47
 90
       50
102
RTVSPost2010PropOp47
 70
     1
102
RTVSPost2010Prop48
 90
       50
102
RTVSPost2010PropOp48
 70
     1
102
RTVSPost2010Prop49
280
     0
102
RTVSPost2010PropOp49
 70
     1
102
RTVSPost2010Prop50
 90
       50
102
RTVSPost2010PropOp50
 70
     1
102
RTVSPost2010Prop51ColorIndex
 90
      256
102
RTVSPost2010Prop51ColorRGB
 90
-16777216
102
RTVSPost2010PropOp51
 70
     0
102
RTVSPost2010Prop52
140
1.0
102
RTVSPost2010PropOp52
 70
     0
102
RTVSPost2010Prop53
 90
        2
102
RTVSPost2010PropOp53
 70
     1
102
RTVSPost2010Prop54
  1
strokes_ogs.tif
102
RTVSPost2010PropOp54
 70
     1
102
RTVSPost2010Prop55
280
     0
102
RTVSPost2010PropOp55
 70
     1
102
RTVSPost2010Prop56
140
1.0
102
RTVSPost2010PropOp56
 70
     1
102
RTVSPost2010Prop57
140
1.0
102
RTVSPost2010PropOp57
 70
     1
102
RTVSPropertyOp0
 70
     1
102
RTVSPropertyOp1
 70
     1
102
RTVSPropertyOp2
 70
     1
102
RTVSPropertyOp3
 70
     1
102
RTVSPropertyOp4
 70
     1
102
RTVSPropertyOp5
 70
     1
102
RTVSPropertyOp6
 70
     1
102
RTVSPropertyOp7
 70
     1
102
RTVSPropertyOp8
 70
     1
102
RTVSPropertyOp9
 70
     1
102
RTVSPropertyOp10
 70
     1
102
RTVSPropertyOp11
 70
     1
102
RTVSPropertyOp12
 70
     1
102
RTVSPropertyOp13
 70
     1
102
RTVSPropertyOp14
 70
     1
102
RTVSPropertyOp15
 70
     1
102
RTVSPropertyOp16
 70
     1
102
RTVSPropertyOp17
 70
     1
102
RTVSPropertyOp18
 70
     1
102
RTVSPropertyOp19
 70
     1
102
RTVSPropertyOp20
 70
     1
102
RTVSPropertyOp21
 70
     1
102
RTVSPropertyOp22
 70
     1
102
RTVSPropertyOp23
 70
     1
102
RTVSPropertyOp24
 70
     1
102
RTVSPropertyOp25
 70
     1
102
RTVSPropertyOp26
 70
     1
102
RTVSPropertyOp27
 70
     1
102
RTVSPropertyOp28
 70
     1
102
RTVSPropertyOp29
 70
     1
102
RTVSPropertyOp30
 70
     1
102
RTVSPropertyOp31
 70
     1
102
RTVSPropertyOp32
 70
     1
102
RTVSPropertyOp33
 70
     1
102
RTVSPropertyOp34
 70
     1
102
RTVSPropertyOp35
 70
     1
102
RTVSPropertyOp36
 70
     1
102
RTVSPropertyOp37
 70
     1
102
RTVSPropertyOp38
 70
     1
102
RTVSPropertyOp39
 70
     1
102
RTVSPropertyOp40
 70
     1
102
RTVSPropertyOp41
 70
     1
102
RTVSPropertyOp42
 70
     1
102
RTVSPropertyOp43
 70
     1
102
RTVSPropertyOp44
 70
     1
102
RTVSPropertyOp45
 70
     1
102
RTVSPropertyOp46
 70
     1
102
RTVSPropertyOp47
 70
     1
102
RTVSPropertyOp48
 70
     1
102
RTVSPropertyOp49
 70
     1
102
RTVSPropertyOp50
 70
     1
102
RTVSPropertyOp51
 70
     0
102
RTVSPropertyOp52
 70
     0
102
RTVSPropertyOp53
 70
     1
102
RTVSPropertyOp54
 70
     1
102
RTVSPropertyOp55
 70
     1
102
RTVSPropertyOp56
 70
     1
102
RTVSPropertyOp57
 70
     1
102
RTVSPropertyOp58
 70
     1
102
RTVSPropertyOp59
 70
     1
102
RTVSPropertyOp60
 70
     1
102
RTVSPropertyOp61
 70
     1
102
RTVSPropertyOp62
 70
     1
  0
XRECORD
  5
16B8
102
{ACAD_REACTORS
330
16B7
102
}
330
16B7
100
AcDbXrecord
280
     1
102
RTVSPost2010Prop28
280
     0
102
RTVSPost2010PropOp28
 70
     1
102
RTVSPost2010Prop29
280
     1
102
RTVSPost2010PropOp29
 70
     1
102
RTVSPost2010Prop30
280
     1
102
RTVSPost2010PropOp30
 70
     1
102
RTVSPost2010Prop31
280
     0
102
RTVSPost2010PropOp31
 70
     1
102
RTVSPost2010Prop32
280
     0
102
RTVSPost2010PropOp32
 70
     1
102
RTVSPost2010Prop33
280
     0
102
RTVSPost2010PropOp33
 70
     1
102
RTVSPost2010Prop34
280
     0
102
RTVSPost2010PropOp34
 70
     1
102
RTVSPost2010Prop35
280
     0
102
RTVSPost2010PropOp35
 70
     1
102
RTVSPost2010Prop36
280
     0
102
RTVSPost2010PropOp36
 70
     1
102
RTVSPost2010Prop37
 90
       50
102
RTVSPost2010PropOp37
 70
     0
102
RTVSPost2010Prop38
140
0.0
102
RTVSPost2010PropOp38
 70
     0
102
RTVSPost2010Prop39
140
1.0
102
RTVSPost2010PropOp39
 70
     0
102
RTVSPost2010Prop40
 90
        0
102
RTVSPost2010PropOp40
 70
     0
102
RTVSPost2010Prop41ColorIndex
 90
       18
102
RTVSPost2010Prop41ColorRGB
 90
-16777216
102
RTVSPost2010PropOp41
 70
     0
102
RTVSPost2010Prop42
 90
       50
102
RTVSPost2010PropOp42
 70
     0
102
RTVSPost2010Prop43
 90
        3
102
RTVSPost2010PropOp43
 70
     0
102
RTVSPost2010Prop44ColorIndex
 90
        5
102
RTVSPost2010Prop44ColorRGB
 90
      255
102
RTVSPost2010PropOp44
 70
     0
102
RTVSPost2010Prop45
280
     0
102
RTVSPost2010PropOp45
 70
     1
102
RTVSPost2010Prop46
 90
       50
102
RTVSPost2010PropOp46
 70
     0
102
RTVSPost2010Prop47
 90
       50
102
RTVSPost2010PropOp47
 70
     0
102
RTVSPost2010Prop48
 90
       50
102
RTVSPost2010PropOp48
 70
     0
102
RTVSPost2010Prop49
280
     0
102
RTVSPost2010PropOp49
 70
     1
102
RTVSPost2010Prop50
 90
       50
102
RTVSPost2010PropOp50
 70
     0
102
RTVSPost2010Prop51ColorIndex
 90
      256
102
RTVSPost2010Prop51ColorRGB
 90
-16777216
102
RTVSPost2010PropOp51
 70
     0
102
RTVSPost2010Prop52
140
1.0
102
RTVSPost2010PropOp52
 70
     0
102
RTVSPost2010Prop53
 90
        2
102
RTVSPost2010PropOp53
 70
     0
102
RTVSPost2010Prop54
  1
strokes_ogs.tif
102
RTVSPost2010PropOp54
 70
     0
102
RTVSPost2010Prop55
280
     0
102
RTVSPost2010PropOp55
 70
     1
102
RTVSPost2010Prop56
140
1.0
102
RTVSPost2010PropOp56
 70
     0
102
RTVSPost2010Prop57
140
1.0
102
RTVSPost2010PropOp57
 70
     0
102
RTVSPropertyOp0
 70
     0
102
RTVSPropertyOp1
 70
     0
102
RTVSPropertyOp2
 70
     0
102
RTVSPropertyOp3
 70
     0
102
RTVSPropertyOp4
 70
     0
102
RTVSPropertyOp5
 70
     0
102
RTVSPropertyOp6
 70
     0
102
RTVSPropertyOp7
 70
     0
102
RTVSPropertyOp8
 70
     0
102
RTVSPropertyOp9
 70
     0
102
RTVSPropertyOp10
 70
     0
102
RTVSPropertyOp11
 70
     0
102
RTVSPropertyOp12
 70
     0
102
RTVSPropertyOp13
 70
     0
102
RTVSPropertyOp14
 70
     2
102
RTVSPropertyOp15
 70
     0
102
RTVSPropertyOp16
 70
     0
102
RTVSPropertyOp17
 70
     0
102
RTVSPropertyOp18
 70
     0
102
RTVSPropertyOp19
 70
     0
102
RTVSPropertyOp20
 70
     0
102
RTVSPropertyOp21
 70
     0
102
RTVSPropertyOp22
 70
     0
102
RTVSPropertyOp23
 70
     0
102
RTVSPropertyOp24
 70
     0
102
RTVSPropertyOp25
 70
     0
102
RTVSPropertyOp26
 70
     0
102
RTVSPropertyOp27
 70
     0
102
RTVSPropertyOp28
 70
     1
102
RTVSPropertyOp29
 70
     1
102
RTVSPropertyOp30
 70
     1
102
RTVSPropertyOp31
 70
     1
102
RTVSPropertyOp32
 70
     1
102
RTVSPropertyOp33
 70
     1
102
RTVSPropertyOp34
 70
     1
102
RTVSPropertyOp35
 70
     1
102
RTVSPropertyOp36
 70
     1
102
RTVSPropertyOp37
 70
     0
102
RTVSPropertyOp38
 70
     0
102
RTVSPropertyOp39
 70
     0
102
RTVSPropertyOp40
 70
     0
102
RTVSPropertyOp41
 70
     0
102
RTVSPropertyOp42
 70
     0
102
RTVSPropertyOp43
 70
     0
102
RTVSPropertyOp44
 70
     0
102
RTVSPropertyOp45
 70
     1
102
RTVSPropertyOp46
 70
     0
102
RTVSPropertyOp47
 70
     0
102
RTVSPropertyOp48
 70
     0
102
RTVSPropertyOp49
 70
     1
102
RTVSPropertyOp50
 70
     0
102
RTVSPropertyOp51
 70
     0
102
RTVSPropertyOp52
 70
     0
102
RTVSPropertyOp53
 70
     0
102
RTVSPropertyOp54
 70
     0
102
RTVSPropertyOp55
 70
     1
102
RTVSPropertyOp56
 70
     0
102
RTVSPropertyOp57
 70
     0
102
RTVSPropertyOp58
 70
     1
102
RTVSPropertyOp59
 70
     1
102
RTVSPropertyOp60
 70
     1
102
RTVSPropertyOp61
 70
     1
102
RTVSPropertyOp62
 70
     1
  0
XRECORD
  5
16A6
102
{ACAD_REACTORS
330
16A5
102
}
330
16A5
100
AcDbXrecord
280
     1
102
RTVSPost2010Prop28
280
     0
102
RTVSPost2010PropOp28
 70
     1
102
RTVSPost2010Prop29
280
     1
102
RTVSPost2010PropOp29
 70
     1
102
RTVSPost2010Prop30
280
     1
102
RTVSPost2010PropOp30
 70
     1
102
RTVSPost2010Prop31
280
     0
102
RTVSPost2010PropOp31
 70
     1
102
RTVSPost2010Prop32
280
     0
102
RTVSPost2010PropOp32
 70
     1
102
RTVSPost2010Prop33
280
     0
102
RTVSPost2010PropOp33
 70
     1
102
RTVSPost2010Prop34
280
     0
102
RTVSPost2010PropOp34
 70
     1
102
RTVSPost2010Prop35
280
     0
102
RTVSPost2010PropOp35
 70
     1
102
RTVSPost2010Prop36
280
     0
102
RTVSPost2010PropOp36
 70
     1
102
RTVSPost2010Prop37
 90
       50
102
RTVSPost2010PropOp37
 70
     1
102
RTVSPost2010Prop38
140
0.0
102
RTVSPost2010PropOp38
 70
     1
102
RTVSPost2010Prop39
140
1.0
102
RTVSPost2010PropOp39
 70
     1
102
RTVSPost2010Prop40
 90
        0
102
RTVSPost2010PropOp40
 70
     1
102
RTVSPost2010Prop41ColorIndex
 90
       18
102
RTVSPost2010Prop41ColorRGB
 90
-16777216
102
RTVSPost2010PropOp41
 70
     1
102
RTVSPost2010Prop42
 90
       50
102
RTVSPost2010PropOp42
 70
     1
102
RTVSPost2010Prop43
 90
        3
102
RTVSPost2010PropOp43
 70
     1
102
RTVSPost2010Prop44ColorIndex
 90
        5
102
RTVSPost2010Prop44ColorRGB
 90
      255
102
RTVSPost2010PropOp44
 70
     1
102
RTVSPost2010Prop45
280
     0
102
RTVSPost2010PropOp45
 70
     1
102
RTVSPost2010Prop46
 90
       50
102
RTVSPost2010PropOp46
 70
     1
102
RTVSPost2010Prop47
 90
       50
102
RTVSPost2010PropOp47
 70
     1
102
RTVSPost2010Prop48
 90
       50
102
RTVSPost2010PropOp48
 70
     1
102
RTVSPost2010Prop49
280
     0
102
RTVSPost2010PropOp49
 70
     1
102
RTVSPost2010Prop50
 90
       50
102
RTVSPost2010PropOp50
 70
     1
102
RTVSPost2010Prop51ColorIndex
 90
      256
102
RTVSPost2010Prop51ColorRGB
 90
-16777216
102
RTVSPost2010PropOp51
 70
     0
102
RTVSPost2010Prop52
140
1.0
102
RTVSPost2010PropOp52
 70
     0
102
RTVSPost2010Prop53
 90
        2
102
RTVSPost2010PropOp53
 70
     1
102
RTVSPost2010Prop54
  1
strokes_ogs.tif
102
RTVSPost2010PropOp54
 70
     1
102
RTVSPost2010Prop55
280
     0
102
RTVSPost2010PropOp55
 70
     1
102
RTVSPost2010Prop56
140
1.0
102
RTVSPost2010PropOp56
 70
     1
102
RTVSPost2010Prop57
140
1.0
102
RTVSPost2010PropOp57
 70
     1
102
RTVSPropertyOp0
 70
     1
102
RTVSPropertyOp1
 70
     1
102
RTVSPropertyOp2
 70
     1
102
RTVSPropertyOp3
 70
     1
102
RTVSPropertyOp4
 70
     1
102
RTVSPropertyOp5
 70
     1
102
RTVSPropertyOp6
 70
     1
102
RTVSPropertyOp7
 70
     1
102
RTVSPropertyOp8
 70
     1
102
RTVSPropertyOp9
 70
     1
102
RTVSPropertyOp10
 70
     1
102
RTVSPropertyOp11
 70
     1
102
RTVSPropertyOp12
 70
     1
102
RTVSPropertyOp13
 70
     1
102
RTVSPropertyOp14
 70
     1
102
RTVSPropertyOp15
 70
     1
102
RTVSPropertyOp16
 70
     1
102
RTVSPropertyOp17
 70
     1
102
RTVSPropertyOp18
 70
     1
102
RTVSPropertyOp19
 70
     1
102
RTVSPropertyOp20
 70
     1
102
RTVSPropertyOp21
 70
     1
102
RTVSPropertyOp22
 70
     1
102
RTVSPropertyOp23
 70
     1
102
RTVSPropertyOp24
 70
     1
102
RTVSPropertyOp25
 70
     1
102
RTVSPropertyOp26
 70
     1
102
RTVSPropertyOp27
 70
     1
102
RTVSPropertyOp28
 70
     1
102
RTVSPropertyOp29
 70
     1
102
RTVSPropertyOp30
 70
     1
102
RTVSPropertyOp31
 70
     1
102
RTVSPropertyOp32
 70
     1
102
RTVSPropertyOp33
 70
     1
102
RTVSPropertyOp34
 70
     1
102
RTVSPropertyOp35
 70
     1
102
RTVSPropertyOp36
 70
     1
102
RTVSPropertyOp37
 70
     1
102
RTVSPropertyOp38
 70
     1
102
RTVSPropertyOp39
 70
     1
102
RTVSPropertyOp40
 70
     1
102
RTVSPropertyOp41
 70
     1
102
RTVSPropertyOp42
 70
     1
102
RTVSPropertyOp43
 70
     1
102
RTVSPropertyOp44
 70
     1
102
RTVSPropertyOp45
 70
     1
102
RTVSPropertyOp46
 70
     1
102
RTVSPropertyOp47
 70
     1
102
RTVSPropertyOp48
 70
     1
102
RTVSPropertyOp49
 70
     1
102
RTVSPropertyOp50
 70
     1
102
RTVSPropertyOp51
 70
     0
102
RTVSPropertyOp52
 70
     0
102
RTVSPropertyOp53
 70
     1
102
RTVSPropertyOp54
 70
     1
102
RTVSPropertyOp55
 70
     1
102
RTVSPropertyOp56
 70
     1
102
RTVSPropertyOp57
 70
     1
102
RTVSPropertyOp58
 70
     1
102
RTVSPropertyOp59
 70
     1
102
RTVSPropertyOp60
 70
     1
102
RTVSPropertyOp61
 70
     1
102
RTVSPropertyOp62
 70
     1
  0
XRECORD
  5
1690
102
{ACAD_REACTORS
330
168F
102
}
330
168F
100
AcDbXrecord
280
     1
102
RTVSPost2010Prop28
280
     0
102
RTVSPost2010PropOp28
 70
     1
102
RTVSPost2010Prop29
280
     1
102
RTVSPost2010PropOp29
 70
     1
102
RTVSPost2010Prop30
280
     1
102
RTVSPost2010PropOp30
 70
     1
102
RTVSPost2010Prop31
280
     0
102
RTVSPost2010PropOp31
 70
     1
102
RTVSPost2010Prop32
280
     0
102
RTVSPost2010PropOp32
 70
     1
102
RTVSPost2010Prop33
280
     0
102
RTVSPost2010PropOp33
 70
     1
102
RTVSPost2010Prop34
280
     0
102
RTVSPost2010PropOp34
 70
     1
102
RTVSPost2010Prop35
280
     0
102
RTVSPost2010PropOp35
 70
     1
102
RTVSPost2010Prop36
280
     0
102
RTVSPost2010PropOp36
 70
     1
102
RTVSPost2010Prop37
 90
       50
102
RTVSPost2010PropOp37
 70
     1
102
RTVSPost2010Prop38
140
0.0
102
RTVSPost2010PropOp38
 70
     1
102
RTVSPost2010Prop39
140
1.0
102
RTVSPost2010PropOp39
 70
     1
102
RTVSPost2010Prop40
 90
        0
102
RTVSPost2010PropOp40
 70
     1
102
RTVSPost2010Prop41ColorIndex
 90
       18
102
RTVSPost2010Prop41ColorRGB
 90
-16777216
102
RTVSPost2010PropOp41
 70
     1
102
RTVSPost2010Prop42
 90
       50
102
RTVSPost2010PropOp42
 70
     1
102
RTVSPost2010Prop43
 90
        3
102
RTVSPost2010PropOp43
 70
     1
102
RTVSPost2010Prop44ColorIndex
 90
        5
102
RTVSPost2010Prop44ColorRGB
 90
      255
102
RTVSPost2010PropOp44
 70
     1
102
RTVSPost2010Prop45
280
     0
102
RTVSPost2010PropOp45
 70
     1
102
RTVSPost2010Prop46
 90
       50
102
RTVSPost2010PropOp46
 70
     1
102
RTVSPost2010Prop47
 90
       50
102
RTVSPost2010PropOp47
 70
     1
102
RTVSPost2010Prop48
 90
       50
102
RTVSPost2010PropOp48
 70
     1
102
RTVSPost2010Prop49
280
     0
102
RTVSPost2010PropOp49
 70
     1
102
RTVSPost2010Prop50
 90
       50
102
RTVSPost2010PropOp50
 70
     1
102
RTVSPost2010Prop51ColorIndex
 90
      256
102
RTVSPost2010Prop51ColorRGB
 90
-16777216
102
RTVSPost2010PropOp51
 70
     0
102
RTVSPost2010Prop52
140
1.0
102
RTVSPost2010PropOp52
 70
     0
102
RTVSPost2010Prop53
 90
        2
102
RTVSPost2010PropOp53
 70
     1
102
RTVSPost2010Prop54
  1
strokes_ogs.tif
102
RTVSPost2010PropOp54
 70
     1
102
RTVSPost2010Prop55
280
     0
102
RTVSPost2010PropOp55
 70
     1
102
RTVSPost2010Prop56
140
1.0
102
RTVSPost2010PropOp56
 70
     1
102
RTVSPost2010Prop57
140
1.0
102
RTVSPost2010PropOp57
 70
     1
102
RTVSPropertyOp0
 70
     1
102
RTVSPropertyOp1
 70
     1
102
RTVSPropertyOp2
 70
     1
102
RTVSPropertyOp3
 70
     1
102
RTVSPropertyOp4
 70
     1
102
RTVSPropertyOp5
 70
     1
102
RTVSPropertyOp6
 70
     1
102
RTVSPropertyOp7
 70
     1
102
RTVSPropertyOp8
 70
     1
102
RTVSPropertyOp9
 70
     1
102
RTVSPropertyOp10
 70
     1
102
RTVSPropertyOp11
 70
     1
102
RTVSPropertyOp12
 70
     1
102
RTVSPropertyOp13
 70
     1
102
RTVSPropertyOp14
 70
     1
102
RTVSPropertyOp15
 70
     1
102
RTVSPropertyOp16
 70
     1
102
RTVSPropertyOp17
 70
     1
102
RTVSPropertyOp18
 70
     1
102
RTVSPropertyOp19
 70
     1
102
RTVSPropertyOp20
 70
     1
102
RTVSPropertyOp21
 70
     1
102
RTVSPropertyOp22
 70
     1
102
RTVSPropertyOp23
 70
     1
102
RTVSPropertyOp24
 70
     1
102
RTVSPropertyOp25
 70
     1
102
RTVSPropertyOp26
 70
     1
102
RTVSPropertyOp27
 70
     1
102
RTVSPropertyOp28
 70
     1
102
RTVSPropertyOp29
 70
     1
102
RTVSPropertyOp30
 70
     1
102
RTVSPropertyOp31
 70
     1
102
RTVSPropertyOp32
 70
     1
102
RTVSPropertyOp33
 70
     1
102
RTVSPropertyOp34
 70
     1
102
RTVSPropertyOp35
 70
     1
102
RTVSPropertyOp36
 70
     1
102
RTVSPropertyOp37
 70
     1
102
RTVSPropertyOp38
 70
     1
102
RTVSPropertyOp39
 70
     1
102
RTVSPropertyOp40
 70
     1
102
RTVSPropertyOp41
 70
     1
102
RTVSPropertyOp42
 70
     1
102
RTVSPropertyOp43
 70
     1
102
RTVSPropertyOp44
 70
     1
102
RTVSPropertyOp45
 70
     1
102
RTVSPropertyOp46
 70
     1
102
RTVSPropertyOp47
 70
     1
102
RTVSPropertyOp48
 70
     1
102
RTVSPropertyOp49
 70
     1
102
RTVSPropertyOp50
 70
     1
102
RTVSPropertyOp51
 70
     0
102
RTVSPropertyOp52
 70
     0
102
RTVSPropertyOp53
 70
     1
102
RTVSPropertyOp54
 70
     1
102
RTVSPropertyOp55
 70
     1
102
RTVSPropertyOp56
 70
     1
102
RTVSPropertyOp57
 70
     1
102
RTVSPropertyOp58
 70
     1
102
RTVSPropertyOp59
 70
     1
102
RTVSPropertyOp60
 70
     1
102
RTVSPropertyOp61
 70
     1
102
RTVSPropertyOp62
 70
     1
  0
XRECORD
  5
1692
102
{ACAD_REACTORS
330
1691
102
}
330
1691
100
AcDbXrecord
280
     1
102
RTVSPost2010Prop28
280
     0
102
RTVSPost2010PropOp28
 70
     1
102
RTVSPost2010Prop29
280
     1
102
RTVSPost2010PropOp29
 70
     1
102
RTVSPost2010Prop30
280
     1
102
RTVSPost2010PropOp30
 70
     1
102
RTVSPost2010Prop31
280
     0
102
RTVSPost2010PropOp31
 70
     1
102
RTVSPost2010Prop32
280
     0
102
RTVSPost2010PropOp32
 70
     1
102
RTVSPost2010Prop33
280
     0
102
RTVSPost2010PropOp33
 70
     1
102
RTVSPost2010Prop34
280
     0
102
RTVSPost2010PropOp34
 70
     1
102
RTVSPost2010Prop35
280
     0
102
RTVSPost2010PropOp35
 70
     1
102
RTVSPost2010Prop36
280
     0
102
RTVSPost2010PropOp36
 70
     1
102
RTVSPost2010Prop37
 90
       50
102
RTVSPost2010PropOp37
 70
     1
102
RTVSPost2010Prop38
140
0.0
102
RTVSPost2010PropOp38
 70
     1
102
RTVSPost2010Prop39
140
1.0
102
RTVSPost2010PropOp39
 70
     1
102
RTVSPost2010Prop40
 90
        0
102
RTVSPost2010PropOp40
 70
     1
102
RTVSPost2010Prop41ColorIndex
 90
       18
102
RTVSPost2010Prop41ColorRGB
 90
-16777216
102
RTVSPost2010PropOp41
 70
     1
102
RTVSPost2010Prop42
 90
       50
102
RTVSPost2010PropOp42
 70
     1
102
RTVSPost2010Prop43
 90
        3
102
RTVSPost2010PropOp43
 70
     1
102
RTVSPost2010Prop44ColorIndex
 90
        5
102
RTVSPost2010Prop44ColorRGB
 90
      255
102
RTVSPost2010PropOp44
 70
     1
102
RTVSPost2010Prop45
280
     0
102
RTVSPost2010PropOp45
 70
     1
102
RTVSPost2010Prop46
 90
       50
102
RTVSPost2010PropOp46
 70
     1
102
RTVSPost2010Prop47
 90
       50
102
RTVSPost2010PropOp47
 70
     1
102
RTVSPost2010Prop48
 90
       50
102
RTVSPost2010PropOp48
 70
     1
102
RTVSPost2010Prop49
280
     0
102
RTVSPost2010PropOp49
 70
     1
102
RTVSPost2010Prop50
 90
       50
102
RTVSPost2010PropOp50
 70
     1
102
RTVSPost2010Prop51ColorIndex
 90
      256
102
RTVSPost2010Prop51ColorRGB
 90
-16777216
102
RTVSPost2010PropOp51
 70
     0
102
RTVSPost2010Prop52
140
1.0
102
RTVSPost2010PropOp52
 70
     0
102
RTVSPost2010Prop53
 90
        2
102
RTVSPost2010PropOp53
 70
     1
102
RTVSPost2010Prop54
  1
strokes_ogs.tif
102
RTVSPost2010PropOp54
 70
     1
102
RTVSPost2010Prop55
280
     0
102
RTVSPost2010PropOp55
 70
     1
102
RTVSPost2010Prop56
140
1.0
102
RTVSPost2010PropOp56
 70
     1
102
RTVSPost2010Prop57
140
1.0
102
RTVSPost2010PropOp57
 70
     1
102
RTVSPropertyOp0
 70
     1
102
RTVSPropertyOp1
 70
     1
102
RTVSPropertyOp2
 70
     1
102
RTVSPropertyOp3
 70
     1
102
RTVSPropertyOp4
 70
     1
102
RTVSPropertyOp5
 70
     1
102
RTVSPropertyOp6
 70
     1
102
RTVSPropertyOp7
 70
     1
102
RTVSPropertyOp8
 70
     1
102
RTVSPropertyOp9
 70
     1
102
RTVSPropertyOp10
 70
     1
102
RTVSPropertyOp11
 70
     1
102
RTVSPropertyOp12
 70
     1
102
RTVSPropertyOp13
 70
     1
102
RTVSPropertyOp14
 70
     1
102
RTVSPropertyOp15
 70
     1
102
RTVSPropertyOp16
 70
     1
102
RTVSPropertyOp17
 70
     1
102
RTVSPropertyOp18
 70
     1
102
RTVSPropertyOp19
 70
     1
102
RTVSPropertyOp20
 70
     1
102
RTVSPropertyOp21
 70
     1
102
RTVSPropertyOp22
 70
     1
102
RTVSPropertyOp23
 70
     1
102
RTVSPropertyOp24
 70
     1
102
RTVSPropertyOp25
 70
     1
102
RTVSPropertyOp26
 70
     1
102
RTVSPropertyOp27
 70
     1
102
RTVSPropertyOp28
 70
     1
102
RTVSPropertyOp29
 70
     1
102
RTVSPropertyOp30
 70
     1
102
RTVSPropertyOp31
 70
     1
102
RTVSPropertyOp32
 70
     1
102
RTVSPropertyOp33
 70
     1
102
RTVSPropertyOp34
 70
     1
102
RTVSPropertyOp35
 70
     1
102
RTVSPropertyOp36
 70
     1
102
RTVSPropertyOp37
 70
     1
102
RTVSPropertyOp38
 70
     1
102
RTVSPropertyOp39
 70
     1
102
RTVSPropertyOp40
 70
     1
102
RTVSPropertyOp41
 70
     1
102
RTVSPropertyOp42
 70
     1
102
RTVSPropertyOp43
 70
     1
102
RTVSPropertyOp44
 70
     1
102
RTVSPropertyOp45
 70
     1
102
RTVSPropertyOp46
 70
     1
102
RTVSPropertyOp47
 70
     1
102
RTVSPropertyOp48
 70
     1
102
RTVSPropertyOp49
 70
     1
102
RTVSPropertyOp50
 70
     1
102
RTVSPropertyOp51
 70
     0
102
RTVSPropertyOp52
 70
     0
102
RTVSPropertyOp53
 70
     1
102
RTVSPropertyOp54
 70
     1
102
RTVSPropertyOp55
 70
     1
102
RTVSPropertyOp56
 70
     1
102
RTVSPropertyOp57
 70
     1
102
RTVSPropertyOp58
 70
     1
102
RTVSPropertyOp59
 70
     1
102
RTVSPropertyOp60
 70
     1
102
RTVSPropertyOp61
 70
     1
102
RTVSPropertyOp62
 70
     1
  0
XRECORD
  5
1694
102
{ACAD_REACTORS
330
1693
102
}
330
1693
100
AcDbXrecord
280
     1
102
RTVSPost2010Prop28
280
     0
102
RTVSPost2010PropOp28
 70
     1
102
RTVSPost2010Prop29
280
     1
102
RTVSPost2010PropOp29
 70
     1
102
RTVSPost2010Prop30
280
     1
102
RTVSPost2010PropOp30
 70
     1
102
RTVSPost2010Prop31
280
     0
102
RTVSPost2010PropOp31
 70
     1
102
RTVSPost2010Prop32
280
     0
102
RTVSPost2010PropOp32
 70
     1
102
RTVSPost2010Prop33
280
     0
102
RTVSPost2010PropOp33
 70
     1
102
RTVSPost2010Prop34
280
     0
102
RTVSPost2010PropOp34
 70
     1
102
RTVSPost2010Prop35
280
     0
102
RTVSPost2010PropOp35
 70
     1
102
RTVSPost2010Prop36
280
     0
102
RTVSPost2010PropOp36
 70
     1
102
RTVSPost2010Prop37
 90
       50
102
RTVSPost2010PropOp37
 70
     1
102
RTVSPost2010Prop38
140
0.0
102
RTVSPost2010PropOp38
 70
     1
102
RTVSPost2010Prop39
140
1.0
102
RTVSPost2010PropOp39
 70
     1
102
RTVSPost2010Prop40
 90
        0
102
RTVSPost2010PropOp40
 70
     1
102
RTVSPost2010Prop41ColorIndex
 90
       18
102
RTVSPost2010Prop41ColorRGB
 90
-16777216
102
RTVSPost2010PropOp41
 70
     1
102
RTVSPost2010Prop42
 90
       50
102
RTVSPost2010PropOp42
 70
     1
102
RTVSPost2010Prop43
 90
        3
102
RTVSPost2010PropOp43
 70
     1
102
RTVSPost2010Prop44ColorIndex
 90
        5
102
RTVSPost2010Prop44ColorRGB
 90
      255
102
RTVSPost2010PropOp44
 70
     1
102
RTVSPost2010Prop45
280
     0
102
RTVSPost2010PropOp45
 70
     1
102
RTVSPost2010Prop46
 90
       50
102
RTVSPost2010PropOp46
 70
     1
102
RTVSPost2010Prop47
 90
       50
102
RTVSPost2010PropOp47
 70
     1
102
RTVSPost2010Prop48
 90
       50
102
RTVSPost2010PropOp48
 70
     1
102
RTVSPost2010Prop49
280
     0
102
RTVSPost2010PropOp49
 70
     1
102
RTVSPost2010Prop50
 90
       50
102
RTVSPost2010PropOp50
 70
     1
102
RTVSPost2010Prop51ColorIndex
 90
      256
102
RTVSPost2010Prop51ColorRGB
 90
-16777216
102
RTVSPost2010PropOp51
 70
     0
102
RTVSPost2010Prop52
140
1.0
102
RTVSPost2010PropOp52
 70
     0
102
RTVSPost2010Prop53
 90
        2
102
RTVSPost2010PropOp53
 70
     1
102
RTVSPost2010Prop54
  1
strokes_ogs.tif
102
RTVSPost2010PropOp54
 70
     1
102
RTVSPost2010Prop55
280
     0
102
RTVSPost2010PropOp55
 70
     1
102
RTVSPost2010Prop56
140
1.0
102
RTVSPost2010PropOp56
 70
     1
102
RTVSPost2010Prop57
140
1.0
102
RTVSPost2010PropOp57
 70
     1
102
RTVSPropertyOp0
 70
     1
102
RTVSPropertyOp1
 70
     1
102
RTVSPropertyOp2
 70
     1
102
RTVSPropertyOp3
 70
     1
102
RTVSPropertyOp4
 70
     1
102
RTVSPropertyOp5
 70
     1
102
RTVSPropertyOp6
 70
     1
102
RTVSPropertyOp7
 70
     1
102
RTVSPropertyOp8
 70
     1
102
RTVSPropertyOp9
 70
     1
102
RTVSPropertyOp10
 70
     1
102
RTVSPropertyOp11
 70
     1
102
RTVSPropertyOp12
 70
     1
102
RTVSPropertyOp13
 70
     1
102
RTVSPropertyOp14
 70
     1
102
RTVSPropertyOp15
 70
     1
102
RTVSPropertyOp16
 70
     1
102
RTVSPropertyOp17
 70
     1
102
RTVSPropertyOp18
 70
     1
102
RTVSPropertyOp19
 70
     1
102
RTVSPropertyOp20
 70
     1
102
RTVSPropertyOp21
 70
     1
102
RTVSPropertyOp22
 70
     1
102
RTVSPropertyOp23
 70
     1
102
RTVSPropertyOp24
 70
     1
102
RTVSPropertyOp25
 70
     1
102
RTVSPropertyOp26
 70
     1
102
RTVSPropertyOp27
 70
     1
102
RTVSPropertyOp28
 70
     1
102
RTVSPropertyOp29
 70
     1
102
RTVSPropertyOp30
 70
     1
102
RTVSPropertyOp31
 70
     1
102
RTVSPropertyOp32
 70
     1
102
RTVSPropertyOp33
 70
     1
102
RTVSPropertyOp34
 70
     1
102
RTVSPropertyOp35
 70
     1
102
RTVSPropertyOp36
 70
     1
102
RTVSPropertyOp37
 70
     1
102
RTVSPropertyOp38
 70
     1
102
RTVSPropertyOp39
 70
     1
102
RTVSPropertyOp40
 70
     1
102
RTVSPropertyOp41
 70
     1
102
RTVSPropertyOp42
 70
     1
102
RTVSPropertyOp43
 70
     1
102
RTVSPropertyOp44
 70
     1
102
RTVSPropertyOp45
 70
     1
102
RTVSPropertyOp46
 70
     1
102
RTVSPropertyOp47
 70
     1
102
RTVSPropertyOp48
 70
     1
102
RTVSPropertyOp49
 70
     1
102
RTVSPropertyOp50
 70
     1
102
RTVSPropertyOp51
 70
     0
102
RTVSPropertyOp52
 70
     0
102
RTVSPropertyOp53
 70
     1
102
RTVSPropertyOp54
 70
     1
102
RTVSPropertyOp55
 70
     1
102
RTVSPropertyOp56
 70
     1
102
RTVSPropertyOp57
 70
     1
102
RTVSPropertyOp58
 70
     1
102
RTVSPropertyOp59
 70
     1
102
RTVSPropertyOp60
 70
     1
102
RTVSPropertyOp61
 70
     1
102
RTVSPropertyOp62
 70
     1
  0
XRECORD
  5
1696
102
{ACAD_REACTORS
330
1695
102
}
330
1695
100
AcDbXrecord
280
     1
102
RTVSPost2010Prop28
280
     0
102
RTVSPost2010PropOp28
 70
     1
102
RTVSPost2010Prop29
280
     1
102
RTVSPost2010PropOp29
 70
     1
102
RTVSPost2010Prop30
280
     1
102
RTVSPost2010PropOp30
 70
     1
102
RTVSPost2010Prop31
280
     0
102
RTVSPost2010PropOp31
 70
     1
102
RTVSPost2010Prop32
280
     0
102
RTVSPost2010PropOp32
 70
     1
102
RTVSPost2010Prop33
280
     0
102
RTVSPost2010PropOp33
 70
     1
102
RTVSPost2010Prop34
280
     0
102
RTVSPost2010PropOp34
 70
     1
102
RTVSPost2010Prop35
280
     0
102
RTVSPost2010PropOp35
 70
     1
102
RTVSPost2010Prop36
280
     0
102
RTVSPost2010PropOp36
 70
     1
102
RTVSPost2010Prop37
 90
       50
102
RTVSPost2010PropOp37
 70
     1
102
RTVSPost2010Prop38
140
0.0
102
RTVSPost2010PropOp38
 70
     1
102
RTVSPost2010Prop39
140
1.0
102
RTVSPost2010PropOp39
 70
     1
102
RTVSPost2010Prop40
 90
        0
102
RTVSPost2010PropOp40
 70
     1
102
RTVSPost2010Prop41ColorIndex
 90
       18
102
RTVSPost2010Prop41ColorRGB
 90
-16777216
102
RTVSPost2010PropOp41
 70
     1
102
RTVSPost2010Prop42
 90
       50
102
RTVSPost2010PropOp42
 70
     1
102
RTVSPost2010Prop43
 90
        3
102
RTVSPost2010PropOp43
 70
     1
102
RTVSPost2010Prop44ColorIndex
 90
        5
102
RTVSPost2010Prop44ColorRGB
 90
      255
102
RTVSPost2010PropOp44
 70
     1
102
RTVSPost2010Prop45
280
     0
102
RTVSPost2010PropOp45
 70
     1
102
RTVSPost2010Prop46
 90
       50
102
RTVSPost2010PropOp46
 70
     1
102
RTVSPost2010Prop47
 90
       50
102
RTVSPost2010PropOp47
 70
     1
102
RTVSPost2010Prop48
 90
       50
102
RTVSPost2010PropOp48
 70
     1
102
RTVSPost2010Prop49
280
     0
102
RTVSPost2010PropOp49
 70
     1
102
RTVSPost2010Prop50
 90
       50
102
RTVSPost2010PropOp50
 70
     1
102
RTVSPost2010Prop51ColorIndex
 90
      256
102
RTVSPost2010Prop51ColorRGB
 90
-16777216
102
RTVSPost2010PropOp51
 70
     0
102
RTVSPost2010Prop52
140
1.0
102
RTVSPost2010PropOp52
 70
     0
102
RTVSPost2010Prop53
 90
        2
102
RTVSPost2010PropOp53
 70
     1
102
RTVSPost2010Prop54
  1
strokes_ogs.tif
102
RTVSPost2010PropOp54
 70
     1
102
RTVSPost2010Prop55
280
     0
102
RTVSPost2010PropOp55
 70
     1
102
RTVSPost2010Prop56
140
1.0
102
RTVSPost2010PropOp56
 70
     1
102
RTVSPost2010Prop57
140
1.0
102
RTVSPost2010PropOp57
 70
     1
102
RTVSPropertyOp0
 70
     1
102
RTVSPropertyOp1
 70
     1
102
RTVSPropertyOp2
 70
     1
102
RTVSPropertyOp3
 70
     1
102
RTVSPropertyOp4
 70
     1
102
RTVSPropertyOp5
 70
     1
102
RTVSPropertyOp6
 70
     1
102
RTVSPropertyOp7
 70
     1
102
RTVSPropertyOp8
 70
     1
102
RTVSPropertyOp9
 70
     1
102
RTVSPropertyOp10
 70
     1
102
RTVSPropertyOp11
 70
     1
102
RTVSPropertyOp12
 70
     1
102
RTVSPropertyOp13
 70
     1
102
RTVSPropertyOp14
 70
     1
102
RTVSPropertyOp15
 70
     1
102
RTVSPropertyOp16
 70
     1
102
RTVSPropertyOp17
 70
     1
102
RTVSPropertyOp18
 70
     1
102
RTVSPropertyOp19
 70
     1
102
RTVSPropertyOp20
 70
     1
102
RTVSPropertyOp21
 70
     1
102
RTVSPropertyOp22
 70
     1
102
RTVSPropertyOp23
 70
     1
102
RTVSPropertyOp24
 70
     1
102
RTVSPropertyOp25
 70
     1
102
RTVSPropertyOp26
 70
     1
102
RTVSPropertyOp27
 70
     1
102
RTVSPropertyOp28
 70
     1
102
RTVSPropertyOp29
 70
     1
102
RTVSPropertyOp30
 70
     1
102
RTVSPropertyOp31
 70
     1
102
RTVSPropertyOp32
 70
     1
102
RTVSPropertyOp33
 70
     1
102
RTVSPropertyOp34
 70
     1
102
RTVSPropertyOp35
 70
     1
102
RTVSPropertyOp36
 70
     1
102
RTVSPropertyOp37
 70
     1
102
RTVSPropertyOp38
 70
     1
102
RTVSPropertyOp39
 70
     1
102
RTVSPropertyOp40
 70
     1
102
RTVSPropertyOp41
 70
     1
102
RTVSPropertyOp42
 70
     1
102
RTVSPropertyOp43
 70
     1
102
RTVSPropertyOp44
 70
     1
102
RTVSPropertyOp45
 70
     1
102
RTVSPropertyOp46
 70
     1
102
RTVSPropertyOp47
 70
     1
102
RTVSPropertyOp48
 70
     1
102
RTVSPropertyOp49
 70
     1
102
RTVSPropertyOp50
 70
     1
102
RTVSPropertyOp51
 70
     0
102
RTVSPropertyOp52
 70
     0
102
RTVSPropertyOp53
 70
     1
102
RTVSPropertyOp54
 70
     1
102
RTVSPropertyOp55
 70
     1
102
RTVSPropertyOp56
 70
     1
102
RTVSPropertyOp57
 70
     1
102
RTVSPropertyOp58
 70
     1
102
RTVSPropertyOp59
 70
     1
102
RTVSPropertyOp60
 70
     1
102
RTVSPropertyOp61
 70
     1
102
RTVSPropertyOp62
 70
     1
  0
XRECORD
  5
169A
102
{ACAD_REACTORS
330
1699
102
}
330
1699
100
AcDbXrecord
280
     1
102
RTVSPost2010Prop28
280
     0
102
RTVSPost2010PropOp28
 70
     1
102
RTVSPost2010Prop29
280
     1
102
RTVSPost2010PropOp29
 70
     1
102
RTVSPost2010Prop30
280
     1
102
RTVSPost2010PropOp30
 70
     1
102
RTVSPost2010Prop31
280
     0
102
RTVSPost2010PropOp31
 70
     1
102
RTVSPost2010Prop32
280
     0
102
RTVSPost2010PropOp32
 70
     1
102
RTVSPost2010Prop33
280
     0
102
RTVSPost2010PropOp33
 70
     1
102
RTVSPost2010Prop34
280
     0
102
RTVSPost2010PropOp34
 70
     1
102
RTVSPost2010Prop35
280
     0
102
RTVSPost2010PropOp35
 70
     1
102
RTVSPost2010Prop36
280
     0
102
RTVSPost2010PropOp36
 70
     1
102
RTVSPost2010Prop37
 90
       50
102
RTVSPost2010PropOp37
 70
     1
102
RTVSPost2010Prop38
140
0.0
102
RTVSPost2010PropOp38
 70
     1
102
RTVSPost2010Prop39
140
1.0
102
RTVSPost2010PropOp39
 70
     1
102
RTVSPost2010Prop40
 90
        0
102
RTVSPost2010PropOp40
 70
     1
102
RTVSPost2010Prop41ColorIndex
 90
       18
102
RTVSPost2010Prop41ColorRGB
 90
-16777216
102
RTVSPost2010PropOp41
 70
     1
102
RTVSPost2010Prop42
 90
       50
102
RTVSPost2010PropOp42
 70
     1
102
RTVSPost2010Prop43
 90
        3
102
RTVSPost2010PropOp43
 70
     1
102
RTVSPost2010Prop44ColorIndex
 90
        5
102
RTVSPost2010Prop44ColorRGB
 90
      255
102
RTVSPost2010PropOp44
 70
     1
102
RTVSPost2010Prop45
280
     0
102
RTVSPost2010PropOp45
 70
     1
102
RTVSPost2010Prop46
 90
       50
102
RTVSPost2010PropOp46
 70
     1
102
RTVSPost2010Prop47
 90
       50
102
RTVSPost2010PropOp47
 70
     1
102
RTVSPost2010Prop48
 90
       50
102
RTVSPost2010PropOp48
 70
     1
102
RTVSPost2010Prop49
280
     0
102
RTVSPost2010PropOp49
 70
     1
102
RTVSPost2010Prop50
 90
       50
102
RTVSPost2010PropOp50
 70
     1
102
RTVSPost2010Prop51ColorIndex
 90
      256
102
RTVSPost2010Prop51ColorRGB
 90
-16777216
102
RTVSPost2010PropOp51
 70
     0
102
RTVSPost2010Prop52
140
1.0
102
RTVSPost2010PropOp52
 70
     0
102
RTVSPost2010Prop53
 90
        2
102
RTVSPost2010PropOp53
 70
     1
102
RTVSPost2010Prop54
  1
strokes_ogs.tif
102
RTVSPost2010PropOp54
 70
     1
102
RTVSPost2010Prop55
280
     0
102
RTVSPost2010PropOp55
 70
     1
102
RTVSPost2010Prop56
140
1.0
102
RTVSPost2010PropOp56
 70
     1
102
RTVSPost2010Prop57
140
1.0
102
RTVSPost2010PropOp57
 70
     1
102
RTVSPropertyOp0
 70
     1
102
RTVSPropertyOp1
 70
     1
102
RTVSPropertyOp2
 70
     1
102
RTVSPropertyOp3
 70
     1
102
RTVSPropertyOp4
 70
     1
102
RTVSPropertyOp5
 70
     1
102
RTVSPropertyOp6
 70
     1
102
RTVSPropertyOp7
 70
     1
102
RTVSPropertyOp8
 70
     1
102
RTVSPropertyOp9
 70
     1
102
RTVSPropertyOp10
 70
     1
102
RTVSPropertyOp11
 70
     1
102
RTVSPropertyOp12
 70
     1
102
RTVSPropertyOp13
 70
     1
102
RTVSPropertyOp14
 70
     1
102
RTVSPropertyOp15
 70
     1
102
RTVSPropertyOp16
 70
     1
102
RTVSPropertyOp17
 70
     1
102
RTVSPropertyOp18
 70
     1
102
RTVSPropertyOp19
 70
     1
102
RTVSPropertyOp20
 70
     1
102
RTVSPropertyOp21
 70
     1
102
RTVSPropertyOp22
 70
     1
102
RTVSPropertyOp23
 70
     1
102
RTVSPropertyOp24
 70
     1
102
RTVSPropertyOp25
 70
     1
102
RTVSPropertyOp26
 70
     1
102
RTVSPropertyOp27
 70
     1
102
RTVSPropertyOp28
 70
     1
102
RTVSPropertyOp29
 70
     1
102
RTVSPropertyOp30
 70
     1
102
RTVSPropertyOp31
 70
     1
102
RTVSPropertyOp32
 70
     1
102
RTVSPropertyOp33
 70
     1
102
RTVSPropertyOp34
 70
     1
102
RTVSPropertyOp35
 70
     1
102
RTVSPropertyOp36
 70
     1
102
RTVSPropertyOp37
 70
     1
102
RTVSPropertyOp38
 70
     1
102
RTVSPropertyOp39
 70
     1
102
RTVSPropertyOp40
 70
     1
102
RTVSPropertyOp41
 70
     1
102
RTVSPropertyOp42
 70
     1
102
RTVSPropertyOp43
 70
     1
102
RTVSPropertyOp44
 70
     1
102
RTVSPropertyOp45
 70
     1
102
RTVSPropertyOp46
 70
     1
102
RTVSPropertyOp47
 70
     1
102
RTVSPropertyOp48
 70
     1
102
RTVSPropertyOp49
 70
     1
102
RTVSPropertyOp50
 70
     1
102
RTVSPropertyOp51
 70
     0
102
RTVSPropertyOp52
 70
     0
102
RTVSPropertyOp53
 70
     1
102
RTVSPropertyOp54
 70
     1
102
RTVSPropertyOp55
 70
     1
102
RTVSPropertyOp56
 70
     1
102
RTVSPropertyOp57
 70
     1
102
RTVSPropertyOp58
 70
     1
102
RTVSPropertyOp59
 70
     1
102
RTVSPropertyOp60
 70
     1
102
RTVSPropertyOp61
 70
     1
102
RTVSPropertyOp62
 70
     1
  0
XRECORD
  5
16B4
102
{ACAD_REACTORS
330
16B3
102
}
330
16B3
100
AcDbXrecord
280
     1
102
RTVSPost2010Prop28
280
     0
102
RTVSPost2010PropOp28
 70
     1
102
RTVSPost2010Prop29
280
     1
102
RTVSPost2010PropOp29
 70
     1
102
RTVSPost2010Prop30
280
     1
102
RTVSPost2010PropOp30
 70
     1
102
RTVSPost2010Prop31
280
     0
102
RTVSPost2010PropOp31
 70
     1
102
RTVSPost2010Prop32
280
     0
102
RTVSPost2010PropOp32
 70
     1
102
RTVSPost2010Prop33
280
     0
102
RTVSPost2010PropOp33
 70
     1
102
RTVSPost2010Prop34
280
     0
102
RTVSPost2010PropOp34
 70
     1
102
RTVSPost2010Prop35
280
     0
102
RTVSPost2010PropOp35
 70
     1
102
RTVSPost2010Prop36
280
     0
102
RTVSPost2010PropOp36
 70
     1
102
RTVSPost2010Prop37
 90
       50
102
RTVSPost2010PropOp37
 70
     0
102
RTVSPost2010Prop38
140
0.0
102
RTVSPost2010PropOp38
 70
     0
102
RTVSPost2010Prop39
140
1.0
102
RTVSPost2010PropOp39
 70
     0
102
RTVSPost2010Prop40
 90
        0
102
RTVSPost2010PropOp40
 70
     0
102
RTVSPost2010Prop41ColorIndex
 90
       18
102
RTVSPost2010Prop41ColorRGB
 90
-16777216
102
RTVSPost2010PropOp41
 70
     0
102
RTVSPost2010Prop42
 90
       50
102
RTVSPost2010PropOp42
 70
     0
102
RTVSPost2010Prop43
 90
        3
102
RTVSPost2010PropOp43
 70
     0
102
RTVSPost2010Prop44ColorIndex
 90
        5
102
RTVSPost2010Prop44ColorRGB
 90
      255
102
RTVSPost2010PropOp44
 70
     0
102
RTVSPost2010Prop45
280
     0
102
RTVSPost2010PropOp45
 70
     1
102
RTVSPost2010Prop46
 90
       50
102
RTVSPost2010PropOp46
 70
     0
102
RTVSPost2010Prop47
 90
       50
102
RTVSPost2010PropOp47
 70
     0
102
RTVSPost2010Prop48
 90
       50
102
RTVSPost2010PropOp48
 70
     0
102
RTVSPost2010Prop49
280
     0
102
RTVSPost2010PropOp49
 70
     1
102
RTVSPost2010Prop50
 90
       50
102
RTVSPost2010PropOp50
 70
     0
102
RTVSPost2010Prop51ColorIndex
 90
      256
102
RTVSPost2010Prop51ColorRGB
 90
-16777216
102
RTVSPost2010PropOp51
 70
     0
102
RTVSPost2010Prop52
140
1.0
102
RTVSPost2010PropOp52
 70
     0
102
RTVSPost2010Prop53
 90
        2
102
RTVSPost2010PropOp53
 70
     0
102
RTVSPost2010Prop54
  1
strokes_ogs.tif
102
RTVSPost2010PropOp54
 70
     0
102
RTVSPost2010Prop55
280
     0
102
RTVSPost2010PropOp55
 70
     1
102
RTVSPost2010Prop56
140
1.0
102
RTVSPost2010PropOp56
 70
     0
102
RTVSPost2010Prop57
140
1.0
102
RTVSPost2010PropOp57
 70
     0
102
RTVSPropertyOp0
 70
     0
102
RTVSPropertyOp1
 70
     0
102
RTVSPropertyOp2
 70
     0
102
RTVSPropertyOp3
 70
     0
102
RTVSPropertyOp4
 70
     0
102
RTVSPropertyOp5
 70
     0
102
RTVSPropertyOp6
 70
     0
102
RTVSPropertyOp7
 70
     0
102
RTVSPropertyOp8
 70
     0
102
RTVSPropertyOp9
 70
     0
102
RTVSPropertyOp10
 70
     0
102
RTVSPropertyOp11
 70
     0
102
RTVSPropertyOp12
 70
     0
102
RTVSPropertyOp13
 70
     0
102
RTVSPropertyOp14
 70
     2
102
RTVSPropertyOp15
 70
     0
102
RTVSPropertyOp16
 70
     0
102
RTVSPropertyOp17
 70
     0
102
RTVSPropertyOp18
 70
     0
102
RTVSPropertyOp19
 70
     0
102
RTVSPropertyOp20
 70
     0
102
RTVSPropertyOp21
 70
     0
102
RTVSPropertyOp22
 70
     0
102
RTVSPropertyOp23
 70
     0
102
RTVSPropertyOp24
 70
     0
102
RTVSPropertyOp25
 70
     0
102
RTVSPropertyOp26
 70
     0
102
RTVSPropertyOp27
 70
     0
102
RTVSPropertyOp28
 70
     1
102
RTVSPropertyOp29
 70
     1
102
RTVSPropertyOp30
 70
     1
102
RTVSPropertyOp31
 70
     1
102
RTVSPropertyOp32
 70
     1
102
RTVSPropertyOp33
 70
     1
102
RTVSPropertyOp34
 70
     1
102
RTVSPropertyOp35
 70
     1
102
RTVSPropertyOp36
 70
     1
102
RTVSPropertyOp37
 70
     0
102
RTVSPropertyOp38
 70
     0
102
RTVSPropertyOp39
 70
     0
102
RTVSPropertyOp40
 70
     0
102
RTVSPropertyOp41
 70
     0
102
RTVSPropertyOp42
 70
     0
102
RTVSPropertyOp43
 70
     0
102
RTVSPropertyOp44
 70
     0
102
RTVSPropertyOp45
 70
     1
102
RTVSPropertyOp46
 70
     0
102
RTVSPropertyOp47
 70
     0
102
RTVSPropertyOp48
 70
     0
102
RTVSPropertyOp49
 70
     1
102
RTVSPropertyOp50
 70
     0
102
RTVSPropertyOp51
 70
     0
102
RTVSPropertyOp52
 70
     0
102
RTVSPropertyOp53
 70
     0
102
RTVSPropertyOp54
 70
     0
102
RTVSPropertyOp55
 70
     1
102
RTVSPropertyOp56
 70
     0
102
RTVSPropertyOp57
 70
     0
102
RTVSPropertyOp58
 70
     1
102
RTVSPropertyOp59
 70
     1
102
RTVSPropertyOp60
 70
     1
102
RTVSPropertyOp61
 70
     1
102
RTVSPropertyOp62
 70
     1
  0
XRECORD
  5
16A4
102
{ACAD_REACTORS
330
16A3
102
}
330
16A3
100
AcDbXrecord
280
     1
102
RTVSPost2010Prop28
280
     0
102
RTVSPost2010PropOp28
 70
     1
102
RTVSPost2010Prop29
280
     1
102
RTVSPost2010PropOp29
 70
     1
102
RTVSPost2010Prop30
280
     1
102
RTVSPost2010PropOp30
 70
     1
102
RTVSPost2010Prop31
280
     0
102
RTVSPost2010PropOp31
 70
     1
102
RTVSPost2010Prop32
280
     0
102
RTVSPost2010PropOp32
 70
     1
102
RTVSPost2010Prop33
280
     0
102
RTVSPost2010PropOp33
 70
     1
102
RTVSPost2010Prop34
280
     0
102
RTVSPost2010PropOp34
 70
     1
102
RTVSPost2010Prop35
280
     0
102
RTVSPost2010PropOp35
 70
     1
102
RTVSPost2010Prop36
280
     0
102
RTVSPost2010PropOp36
 70
     1
102
RTVSPost2010Prop37
 90
       50
102
RTVSPost2010PropOp37
 70
     1
102
RTVSPost2010Prop38
140
0.0
102
RTVSPost2010PropOp38
 70
     1
102
RTVSPost2010Prop39
140
1.0
102
RTVSPost2010PropOp39
 70
     1
102
RTVSPost2010Prop40
 90
        0
102
RTVSPost2010PropOp40
 70
     1
102
RTVSPost2010Prop41ColorIndex
 90
       18
102
RTVSPost2010Prop41ColorRGB
 90
-16777216
102
RTVSPost2010PropOp41
 70
     1
102
RTVSPost2010Prop42
 90
       50
102
RTVSPost2010PropOp42
 70
     1
102
RTVSPost2010Prop43
 90
        3
102
RTVSPost2010PropOp43
 70
     1
102
RTVSPost2010Prop44ColorIndex
 90
        5
102
RTVSPost2010Prop44ColorRGB
 90
      255
102
RTVSPost2010PropOp44
 70
     1
102
RTVSPost2010Prop45
280
     0
102
RTVSPost2010PropOp45
 70
     1
102
RTVSPost2010Prop46
 90
       50
102
RTVSPost2010PropOp46
 70
     1
102
RTVSPost2010Prop47
 90
       50
102
RTVSPost2010PropOp47
 70
     1
102
RTVSPost2010Prop48
 90
       50
102
RTVSPost2010PropOp48
 70
     1
102
RTVSPost2010Prop49
280
     0
102
RTVSPost2010PropOp49
 70
     1
102
RTVSPost2010Prop50
 90
       50
102
RTVSPost2010PropOp50
 70
     1
102
RTVSPost2010Prop51ColorIndex
 90
      256
102
RTVSPost2010Prop51ColorRGB
 90
-16777216
102
RTVSPost2010PropOp51
 70
     0
102
RTVSPost2010Prop52
140
1.0
102
RTVSPost2010PropOp52
 70
     0
102
RTVSPost2010Prop53
 90
        2
102
RTVSPost2010PropOp53
 70
     1
102
RTVSPost2010Prop54
  1
strokes_ogs.tif
102
RTVSPost2010PropOp54
 70
     1
102
RTVSPost2010Prop55
280
     0
102
RTVSPost2010PropOp55
 70
     1
102
RTVSPost2010Prop56
140
1.0
102
RTVSPost2010PropOp56
 70
     1
102
RTVSPost2010Prop57
140
1.0
102
RTVSPost2010PropOp57
 70
     1
102
RTVSPropertyOp0
 70
     1
102
RTVSPropertyOp1
 70
     1
102
RTVSPropertyOp2
 70
     1
102
RTVSPropertyOp3
 70
     1
102
RTVSPropertyOp4
 70
     1
102
RTVSPropertyOp5
 70
     1
102
RTVSPropertyOp6
 70
     1
102
RTVSPropertyOp7
 70
     1
102
RTVSPropertyOp8
 70
     1
102
RTVSPropertyOp9
 70
     1
102
RTVSPropertyOp10
 70
     1
102
RTVSPropertyOp11
 70
     1
102
RTVSPropertyOp12
 70
     1
102
RTVSPropertyOp13
 70
     1
102
RTVSPropertyOp14
 70
     1
102
RTVSPropertyOp15
 70
     1
102
RTVSPropertyOp16
 70
     1
102
RTVSPropertyOp17
 70
     1
102
RTVSPropertyOp18
 70
     1
102
RTVSPropertyOp19
 70
     1
102
RTVSPropertyOp20
 70
     1
102
RTVSPropertyOp21
 70
     1
102
RTVSPropertyOp22
 70
     1
102
RTVSPropertyOp23
 70
     1
102
RTVSPropertyOp24
 70
     1
102
RTVSPropertyOp25
 70
     1
102
RTVSPropertyOp26
 70
     1
102
RTVSPropertyOp27
 70
     1
102
RTVSPropertyOp28
 70
     1
102
RTVSPropertyOp29
 70
     1
102
RTVSPropertyOp30
 70
     1
102
RTVSPropertyOp31
 70
     1
102
RTVSPropertyOp32
 70
     1
102
RTVSPropertyOp33
 70
     1
102
RTVSPropertyOp34
 70
     1
102
RTVSPropertyOp35
 70
     1
102
RTVSPropertyOp36
 70
     1
102
RTVSPropertyOp37
 70
     1
102
RTVSPropertyOp38
 70
     1
102
RTVSPropertyOp39
 70
     1
102
RTVSPropertyOp40
 70
     1
102
RTVSPropertyOp41
 70
     1
102
RTVSPropertyOp42
 70
     1
102
RTVSPropertyOp43
 70
     1
102
RTVSPropertyOp44
 70
     1
102
RTVSPropertyOp45
 70
     1
102
RTVSPropertyOp46
 70
     1
102
RTVSPropertyOp47
 70
     1
102
RTVSPropertyOp48
 70
     1
102
RTVSPropertyOp49
 70
     1
102
RTVSPropertyOp50
 70
     1
102
RTVSPropertyOp51
 70
     0
102
RTVSPropertyOp52
 70
     0
102
RTVSPropertyOp53
 70
     1
102
RTVSPropertyOp54
 70
     1
102
RTVSPropertyOp55
 70
     1
102
RTVSPropertyOp56
 70
     1
102
RTVSPropertyOp57
 70
     1
102
RTVSPropertyOp58
 70
     1
102
RTVSPropertyOp59
 70
     1
102
RTVSPropertyOp60
 70
     1
102
RTVSPropertyOp61
 70
     1
102
RTVSPropertyOp62
 70
     1
  0
XRECORD
  5
16B6
102
{ACAD_REACTORS
330
16B5
102
}
330
16B5
100
AcDbXrecord
280
     1
102
RTVSPost2010Prop28
280
     0
102
RTVSPost2010PropOp28
 70
     1
102
RTVSPost2010Prop29
280
     1
102
RTVSPost2010PropOp29
 70
     1
102
RTVSPost2010Prop30
280
     1
102
RTVSPost2010PropOp30
 70
     1
102
RTVSPost2010Prop31
280
     0
102
RTVSPost2010PropOp31
 70
     1
102
RTVSPost2010Prop32
280
     0
102
RTVSPost2010PropOp32
 70
     1
102
RTVSPost2010Prop33
280
     0
102
RTVSPost2010PropOp33
 70
     1
102
RTVSPost2010Prop34
280
     0
102
RTVSPost2010PropOp34
 70
     1
102
RTVSPost2010Prop35
280
     0
102
RTVSPost2010PropOp35
 70
     1
102
RTVSPost2010Prop36
280
     0
102
RTVSPost2010PropOp36
 70
     1
102
RTVSPost2010Prop37
 90
       50
102
RTVSPost2010PropOp37
 70
     0
102
RTVSPost2010Prop38
140
0.0
102
RTVSPost2010PropOp38
 70
     0
102
RTVSPost2010Prop39
140
1.0
102
RTVSPost2010PropOp39
 70
     0
102
RTVSPost2010Prop40
 90
        0
102
RTVSPost2010PropOp40
 70
     0
102
RTVSPost2010Prop41ColorIndex
 90
       18
102
RTVSPost2010Prop41ColorRGB
 90
-16777216
102
RTVSPost2010PropOp41
 70
     0
102
RTVSPost2010Prop42
 90
       50
102
RTVSPost2010PropOp42
 70
     0
102
RTVSPost2010Prop43
 90
        3
102
RTVSPost2010PropOp43
 70
     0
102
RTVSPost2010Prop44ColorIndex
 90
        5
102
RTVSPost2010Prop44ColorRGB
 90
      255
102
RTVSPost2010PropOp44
 70
     0
102
RTVSPost2010Prop45
280
     0
102
RTVSPost2010PropOp45
 70
     1
102
RTVSPost2010Prop46
 90
       50
102
RTVSPost2010PropOp46
 70
     0
102
RTVSPost2010Prop47
 90
       50
102
RTVSPost2010PropOp47
 70
     0
102
RTVSPost2010Prop48
 90
       50
102
RTVSPost2010PropOp48
 70
     0
102
RTVSPost2010Prop49
280
     0
102
RTVSPost2010PropOp49
 70
     1
102
RTVSPost2010Prop50
 90
       50
102
RTVSPost2010PropOp50
 70
     0
102
RTVSPost2010Prop51ColorIndex
 90
      256
102
RTVSPost2010Prop51ColorRGB
 90
-16777216
102
RTVSPost2010PropOp51
 70
     0
102
RTVSPost2010Prop52
140
1.0
102
RTVSPost2010PropOp52
 70
     0
102
RTVSPost2010Prop53
 90
        2
102
RTVSPost2010PropOp53
 70
     0
102
RTVSPost2010Prop54
  1
strokes_ogs.tif
102
RTVSPost2010PropOp54
 70
     0
102
RTVSPost2010Prop55
280
     0
102
RTVSPost2010PropOp55
 70
     1
102
RTVSPost2010Prop56
140
1.0
102
RTVSPost2010PropOp56
 70
     0
102
RTVSPost2010Prop57
140
1.0
102
RTVSPost2010PropOp57
 70
     0
102
RTVSPropertyOp0
 70
     0
102
RTVSPropertyOp1
 70
     0
102
RTVSPropertyOp2
 70
     0
102
RTVSPropertyOp3
 70
     0
102
RTVSPropertyOp4
 70
     0
102
RTVSPropertyOp5
 70
     0
102
RTVSPropertyOp6
 70
     0
102
RTVSPropertyOp7
 70
     0
102
RTVSPropertyOp8
 70
     0
102
RTVSPropertyOp9
 70
     0
102
RTVSPropertyOp10
 70
     0
102
RTVSPropertyOp11
 70
     0
102
RTVSPropertyOp12
 70
     0
102
RTVSPropertyOp13
 70
     0
102
RTVSPropertyOp14
 70
     2
102
RTVSPropertyOp15
 70
     0
102
RTVSPropertyOp16
 70
     0
102
RTVSPropertyOp17
 70
     0
102
RTVSPropertyOp18
 70
     0
102
RTVSPropertyOp19
 70
     0
102
RTVSPropertyOp20
 70
     0
102
RTVSPropertyOp21
 70
     0
102
RTVSPropertyOp22
 70
     0
102
RTVSPropertyOp23
 70
     0
102
RTVSPropertyOp24
 70
     0
102
RTVSPropertyOp25
 70
     0
102
RTVSPropertyOp26
 70
     0
102
RTVSPropertyOp27
 70
     0
102
RTVSPropertyOp28
 70
     1
102
RTVSPropertyOp29
 70
     1
102
RTVSPropertyOp30
 70
     1
102
RTVSPropertyOp31
 70
     1
102
RTVSPropertyOp32
 70
     1
102
RTVSPropertyOp33
 70
     1
102
RTVSPropertyOp34
 70
     1
102
RTVSPropertyOp35
 70
     1
102
RTVSPropertyOp36
 70
     1
102
RTVSPropertyOp37
 70
     0
102
RTVSPropertyOp38
 70
     0
102
RTVSPropertyOp39
 70
     0
102
RTVSPropertyOp40
 70
     0
102
RTVSPropertyOp41
 70
     0
102
RTVSPropertyOp42
 70
     0
102
RTVSPropertyOp43
 70
     0
102
RTVSPropertyOp44
 70
     0
102
RTVSPropertyOp45
 70
     1
102
RTVSPropertyOp46
 70
     0
102
RTVSPropertyOp47
 70
     0
102
RTVSPropertyOp48
 70
     0
102
RTVSPropertyOp49
 70
     1
102
RTVSPropertyOp50
 70
     0
102
RTVSPropertyOp51
 70
     0
102
RTVSPropertyOp52
 70
     0
102
RTVSPropertyOp53
 70
     0
102
RTVSPropertyOp54
 70
     0
102
RTVSPropertyOp55
 70
     1
102
RTVSPropertyOp56
 70
     0
102
RTVSPropertyOp57
 70
     0
102
RTVSPropertyOp58
 70
     1
102
RTVSPropertyOp59
 70
     1
102
RTVSPropertyOp60
 70
     1
102
RTVSPropertyOp61
 70
     1
102
RTVSPropertyOp62
 70
     1
  0
XRECORD
  5
168C
102
{ACAD_REACTORS
330
168B
102
}
330
168B
100
AcDbXrecord
280
     1
102
RTVSPost2010Prop28
280
     0
102
RTVSPost2010PropOp28
 70
     1
102
RTVSPost2010Prop29
280
     1
102
RTVSPost2010PropOp29
 70
     1
102
RTVSPost2010Prop30
280
     1
102
RTVSPost2010PropOp30
 70
     1
102
RTVSPost2010Prop31
280
     0
102
RTVSPost2010PropOp31
 70
     1
102
RTVSPost2010Prop32
280
     0
102
RTVSPost2010PropOp32
 70
     1
102
RTVSPost2010Prop33
280
     0
102
RTVSPost2010PropOp33
 70
     1
102
RTVSPost2010Prop34
280
     0
102
RTVSPost2010PropOp34
 70
     1
102
RTVSPost2010Prop35
280
     0
102
RTVSPost2010PropOp35
 70
     1
102
RTVSPost2010Prop36
280
     0
102
RTVSPost2010PropOp36
 70
     1
102
RTVSPost2010Prop37
 90
       50
102
RTVSPost2010PropOp37
 70
     1
102
RTVSPost2010Prop38
140
0.0
102
RTVSPost2010PropOp38
 70
     1
102
RTVSPost2010Prop39
140
1.0
102
RTVSPost2010PropOp39
 70
     1
102
RTVSPost2010Prop40
 90
        0
102
RTVSPost2010PropOp40
 70
     1
102
RTVSPost2010Prop41ColorIndex
 90
       18
102
RTVSPost2010Prop41ColorRGB
 90
-16777216
102
RTVSPost2010PropOp41
 70
     1
102
RTVSPost2010Prop42
 90
       50
102
RTVSPost2010PropOp42
 70
     1
102
RTVSPost2010Prop43
 90
        3
102
RTVSPost2010PropOp43
 70
     1
102
RTVSPost2010Prop44ColorIndex
 90
        5
102
RTVSPost2010Prop44ColorRGB
 90
      255
102
RTVSPost2010PropOp44
 70
     1
102
RTVSPost2010Prop45
280
     0
102
RTVSPost2010PropOp45
 70
     1
102
RTVSPost2010Prop46
 90
       50
102
RTVSPost2010PropOp46
 70
     1
102
RTVSPost2010Prop47
 90
       50
102
RTVSPost2010PropOp47
 70
     1
102
RTVSPost2010Prop48
 90
       50
102
RTVSPost2010PropOp48
 70
     1
102
RTVSPost2010Prop49
280
     0
102
RTVSPost2010PropOp49
 70
     1
102
RTVSPost2010Prop50
 90
       50
102
RTVSPost2010PropOp50
 70
     1
102
RTVSPost2010Prop51ColorIndex
 90
      256
102
RTVSPost2010Prop51ColorRGB
 90
-16777216
102
RTVSPost2010PropOp51
 70
     0
102
RTVSPost2010Prop52
140
1.0
102
RTVSPost2010PropOp52
 70
     0
102
RTVSPost2010Prop53
 90
        2
102
RTVSPost2010PropOp53
 70
     1
102
RTVSPost2010Prop54
  1
strokes_ogs.tif
102
RTVSPost2010PropOp54
 70
     1
102
RTVSPost2010Prop55
280
     0
102
RTVSPost2010PropOp55
 70
     1
102
RTVSPost2010Prop56
140
1.0
102
RTVSPost2010PropOp56
 70
     1
102
RTVSPost2010Prop57
140
1.0
102
RTVSPost2010PropOp57
 70
     1
102
RTVSPropertyOp0
 70
     1
102
RTVSPropertyOp1
 70
     1
102
RTVSPropertyOp2
 70
     1
102
RTVSPropertyOp3
 70
     1
102
RTVSPropertyOp4
 70
     1
102
RTVSPropertyOp5
 70
     1
102
RTVSPropertyOp6
 70
     1
102
RTVSPropertyOp7
 70
     1
102
RTVSPropertyOp8
 70
     1
102
RTVSPropertyOp9
 70
     1
102
RTVSPropertyOp10
 70
     1
102
RTVSPropertyOp11
 70
     1
102
RTVSPropertyOp12
 70
     1
102
RTVSPropertyOp13
 70
     1
102
RTVSPropertyOp14
 70
     1
102
RTVSPropertyOp15
 70
     1
102
RTVSPropertyOp16
 70
     1
102
RTVSPropertyOp17
 70
     1
102
RTVSPropertyOp18
 70
     1
102
RTVSPropertyOp19
 70
     1
102
RTVSPropertyOp20
 70
     1
102
RTVSPropertyOp21
 70
     1
102
RTVSPropertyOp22
 70
     1
102
RTVSPropertyOp23
 70
     1
102
RTVSPropertyOp24
 70
     1
102
RTVSPropertyOp25
 70
     1
102
RTVSPropertyOp26
 70
     1
102
RTVSPropertyOp27
 70
     1
102
RTVSPropertyOp28
 70
     1
102
RTVSPropertyOp29
 70
     1
102
RTVSPropertyOp30
 70
     1
102
RTVSPropertyOp31
 70
     1
102
RTVSPropertyOp32
 70
     1
102
RTVSPropertyOp33
 70
     1
102
RTVSPropertyOp34
 70
     1
102
RTVSPropertyOp35
 70
     1
102
RTVSPropertyOp36
 70
     1
102
RTVSPropertyOp37
 70
     1
102
RTVSPropertyOp38
 70
     1
102
RTVSPropertyOp39
 70
     1
102
RTVSPropertyOp40
 70
     1
102
RTVSPropertyOp41
 70
     1
102
RTVSPropertyOp42
 70
     1
102
RTVSPropertyOp43
 70
     1
102
RTVSPropertyOp44
 70
     1
102
RTVSPropertyOp45
 70
     1
102
RTVSPropertyOp46
 70
     1
102
RTVSPropertyOp47
 70
     1
102
RTVSPropertyOp48
 70
     1
102
RTVSPropertyOp49
 70
     1
102
RTVSPropertyOp50
 70
     1
102
RTVSPropertyOp51
 70
     0
102
RTVSPropertyOp52
 70
     0
102
RTVSPropertyOp53
 70
     1
102
RTVSPropertyOp54
 70
     1
102
RTVSPropertyOp55
 70
     1
102
RTVSPropertyOp56
 70
     1
102
RTVSPropertyOp57
 70
     1
102
RTVSPropertyOp58
 70
     1
102
RTVSPropertyOp59
 70
     1
102
RTVSPropertyOp60
 70
     1
102
RTVSPropertyOp61
 70
     1
102
RTVSPropertyOp62
 70
     1
  0
XRECORD
  5
16B2
102
{ACAD_REACTORS
330
16B1
102
}
330
16B1
100
AcDbXrecord
280
     1
102
RTVSPost2010Prop28
280
     0
102
RTVSPost2010PropOp28
 70
     1
102
RTVSPost2010Prop29
280
     1
102
RTVSPost2010PropOp29
 70
     1
102
RTVSPost2010Prop30
280
     1
102
RTVSPost2010PropOp30
 70
     1
102
RTVSPost2010Prop31
280
     0
102
RTVSPost2010PropOp31
 70
     1
102
RTVSPost2010Prop32
280
     0
102
RTVSPost2010PropOp32
 70
     1
102
RTVSPost2010Prop33
280
     0
102
RTVSPost2010PropOp33
 70
     1
102
RTVSPost2010Prop34
280
     0
102
RTVSPost2010PropOp34
 70
     1
102
RTVSPost2010Prop35
280
     0
102
RTVSPost2010PropOp35
 70
     1
102
RTVSPost2010Prop36
280
     0
102
RTVSPost2010PropOp36
 70
     1
102
RTVSPost2010Prop37
 90
       50
102
RTVSPost2010PropOp37
 70
     1
102
RTVSPost2010Prop38
140
0.0
102
RTVSPost2010PropOp38
 70
     1
102
RTVSPost2010Prop39
140
1.0
102
RTVSPost2010PropOp39
 70
     1
102
RTVSPost2010Prop40
 90
        0
102
RTVSPost2010PropOp40
 70
     1
102
RTVSPost2010Prop41ColorIndex
 90
       18
102
RTVSPost2010Prop41ColorRGB
 90
-16777216
102
RTVSPost2010PropOp41
 70
     1
102
RTVSPost2010Prop42
 90
       50
102
RTVSPost2010PropOp42
 70
     1
102
RTVSPost2010Prop43
 90
        3
102
RTVSPost2010PropOp43
 70
     1
102
RTVSPost2010Prop44ColorIndex
 90
        5
102
RTVSPost2010Prop44ColorRGB
 90
      255
102
RTVSPost2010PropOp44
 70
     1
102
RTVSPost2010Prop45
280
     0
102
RTVSPost2010PropOp45
 70
     1
102
RTVSPost2010Prop46
 90
       50
102
RTVSPost2010PropOp46
 70
     1
102
RTVSPost2010Prop47
 90
       50
102
RTVSPost2010PropOp47
 70
     1
102
RTVSPost2010Prop48
 90
       50
102
RTVSPost2010PropOp48
 70
     1
102
RTVSPost2010Prop49
280
     0
102
RTVSPost2010PropOp49
 70
     1
102
RTVSPost2010Prop50
 90
       50
102
RTVSPost2010PropOp50
 70
     1
102
RTVSPost2010Prop51ColorIndex
 90
      256
102
RTVSPost2010Prop51ColorRGB
 90
-16777216
102
RTVSPost2010PropOp51
 70
     0
102
RTVSPost2010Prop52
140
1.0
102
RTVSPost2010PropOp52
 70
     0
102
RTVSPost2010Prop53
 90
        2
102
RTVSPost2010PropOp53
 70
     1
102
RTVSPost2010Prop54
  1
strokes_ogs.tif
102
RTVSPost2010PropOp54
 70
     1
102
RTVSPost2010Prop55
280
     0
102
RTVSPost2010PropOp55
 70
     1
102
RTVSPost2010Prop56
140
1.0
102
RTVSPost2010PropOp56
 70
     1
102
RTVSPost2010Prop57
140
1.0
102
RTVSPost2010PropOp57
 70
     1
102
RTVSPropertyOp0
 70
     1
102
RTVSPropertyOp1
 70
     1
102
RTVSPropertyOp2
 70
     1
102
RTVSPropertyOp3
 70
     1
102
RTVSPropertyOp4
 70
     1
102
RTVSPropertyOp5
 70
     1
102
RTVSPropertyOp6
 70
     1
102
RTVSPropertyOp7
 70
     1
102
RTVSPropertyOp8
 70
     1
102
RTVSPropertyOp9
 70
     1
102
RTVSPropertyOp10
 70
     1
102
RTVSPropertyOp11
 70
     1
102
RTVSPropertyOp12
 70
     1
102
RTVSPropertyOp13
 70
     1
102
RTVSPropertyOp14
 70
     1
102
RTVSPropertyOp15
 70
     1
102
RTVSPropertyOp16
 70
     1
102
RTVSPropertyOp17
 70
     1
102
RTVSPropertyOp18
 70
     1
102
RTVSPropertyOp19
 70
     1
102
RTVSPropertyOp20
 70
     1
102
RTVSPropertyOp21
 70
     1
102
RTVSPropertyOp22
 70
     1
102
RTVSPropertyOp23
 70
     1
102
RTVSPropertyOp24
 70
     1
102
RTVSPropertyOp25
 70
     1
102
RTVSPropertyOp26
 70
     1
102
RTVSPropertyOp27
 70
     1
102
RTVSPropertyOp28
 70
     1
102
RTVSPropertyOp29
 70
     1
102
RTVSPropertyOp30
 70
     1
102
RTVSPropertyOp31
 70
     1
102
RTVSPropertyOp32
 70
     1
102
RTVSPropertyOp33
 70
     1
102
RTVSPropertyOp34
 70
     1
102
RTVSPropertyOp35
 70
     1
102
RTVSPropertyOp36
 70
     1
102
RTVSPropertyOp37
 70
     1
102
RTVSPropertyOp38
 70
     1
102
RTVSPropertyOp39
 70
     1
102
RTVSPropertyOp40
 70
     1
102
RTVSPropertyOp41
 70
     1
102
RTVSPropertyOp42
 70
     1
102
RTVSPropertyOp43
 70
     1
102
RTVSPropertyOp44
 70
     1
102
RTVSPropertyOp45
 70
     1
102
RTVSPropertyOp46
 70
     1
102
RTVSPropertyOp47
 70
     1
102
RTVSPropertyOp48
 70
     1
102
RTVSPropertyOp49
 70
     1
102
RTVSPropertyOp50
 70
     1
102
RTVSPropertyOp51
 70
     0
102
RTVSPropertyOp52
 70
     0
102
RTVSPropertyOp53
 70
     1
102
RTVSPropertyOp54
 70
     1
102
RTVSPropertyOp55
 70
     1
102
RTVSPropertyOp56
 70
     1
102
RTVSPropertyOp57
 70
     1
102
RTVSPropertyOp58
 70
     1
102
RTVSPropertyOp59
 70
     1
102
RTVSPropertyOp60
 70
     1
102
RTVSPropertyOp61
 70
     1
102
RTVSPropertyOp62
 70
     1
  0
XRECORD
  5
16B0
102
{ACAD_REACTORS
330
16AF
102
}
330
16AF
100
AcDbXrecord
280
     1
102
RTVSPost2010Prop28
280
     0
102
RTVSPost2010PropOp28
 70
     1
102
RTVSPost2010Prop29
280
     1
102
RTVSPost2010PropOp29
 70
     1
102
RTVSPost2010Prop30
280
     1
102
RTVSPost2010PropOp30
 70
     1
102
RTVSPost2010Prop31
280
     0
102
RTVSPost2010PropOp31
 70
     1
102
RTVSPost2010Prop32
280
     0
102
RTVSPost2010PropOp32
 70
     1
102
RTVSPost2010Prop33
280
     0
102
RTVSPost2010PropOp33
 70
     1
102
RTVSPost2010Prop34
280
     0
102
RTVSPost2010PropOp34
 70
     1
102
RTVSPost2010Prop35
280
     0
102
RTVSPost2010PropOp35
 70
     1
102
RTVSPost2010Prop36
280
     0
102
RTVSPost2010PropOp36
 70
     1
102
RTVSPost2010Prop37
 90
       50
102
RTVSPost2010PropOp37
 70
     1
102
RTVSPost2010Prop38
140
0.0
102
RTVSPost2010PropOp38
 70
     1
102
RTVSPost2010Prop39
140
1.0
102
RTVSPost2010PropOp39
 70
     1
102
RTVSPost2010Prop40
 90
        0
102
RTVSPost2010PropOp40
 70
     1
102
RTVSPost2010Prop41ColorIndex
 90
       18
102
RTVSPost2010Prop41ColorRGB
 90
-16777216
102
RTVSPost2010PropOp41
 70
     1
102
RTVSPost2010Prop42
 90
       50
102
RTVSPost2010PropOp42
 70
     1
102
RTVSPost2010Prop43
 90
        3
102
RTVSPost2010PropOp43
 70
     1
102
RTVSPost2010Prop44ColorIndex
 90
        5
102
RTVSPost2010Prop44ColorRGB
 90
      255
102
RTVSPost2010PropOp44
 70
     1
102
RTVSPost2010Prop45
280
     0
102
RTVSPost2010PropOp45
 70
     1
102
RTVSPost2010Prop46
 90
       50
102
RTVSPost2010PropOp46
 70
     1
102
RTVSPost2010Prop47
 90
       50
102
RTVSPost2010PropOp47
 70
     1
102
RTVSPost2010Prop48
 90
       50
102
RTVSPost2010PropOp48
 70
     1
102
RTVSPost2010Prop49
280
     0
102
RTVSPost2010PropOp49
 70
     1
102
RTVSPost2010Prop50
 90
       50
102
RTVSPost2010PropOp50
 70
     1
102
RTVSPost2010Prop51ColorIndex
 90
      256
102
RTVSPost2010Prop51ColorRGB
 90
-16777216
102
RTVSPost2010PropOp51
 70
     0
102
RTVSPost2010Prop52
140
1.0
102
RTVSPost2010PropOp52
 70
     0
102
RTVSPost2010Prop53
 90
        2
102
RTVSPost2010PropOp53
 70
     1
102
RTVSPost2010Prop54
  1
strokes_ogs.tif
102
RTVSPost2010PropOp54
 70
     1
102
RTVSPost2010Prop55
280
     0
102
RTVSPost2010PropOp55
 70
     1
102
RTVSPost2010Prop56
140
1.0
102
RTVSPost2010PropOp56
 70
     1
102
RTVSPost2010Prop57
140
1.0
102
RTVSPost2010PropOp57
 70
     1
102
RTVSPropertyOp0
 70
     1
102
RTVSPropertyOp1
 70
     1
102
RTVSPropertyOp2
 70
     1
102
RTVSPropertyOp3
 70
     1
102
RTVSPropertyOp4
 70
     1
102
RTVSPropertyOp5
 70
     1
102
RTVSPropertyOp6
 70
     1
102
RTVSPropertyOp7
 70
     1
102
RTVSPropertyOp8
 70
     1
102
RTVSPropertyOp9
 70
     1
102
RTVSPropertyOp10
 70
     1
102
RTVSPropertyOp11
 70
     1
102
RTVSPropertyOp12
 70
     1
102
RTVSPropertyOp13
 70
     1
102
RTVSPropertyOp14
 70
     1
102
RTVSPropertyOp15
 70
     1
102
RTVSPropertyOp16
 70
     1
102
RTVSPropertyOp17
 70
     1
102
RTVSPropertyOp18
 70
     1
102
RTVSPropertyOp19
 70
     1
102
RTVSPropertyOp20
 70
     1
102
RTVSPropertyOp21
 70
     1
102
RTVSPropertyOp22
 70
     1
102
RTVSPropertyOp23
 70
     1
102
RTVSPropertyOp24
 70
     1
102
RTVSPropertyOp25
 70
     1
102
RTVSPropertyOp26
 70
     1
102
RTVSPropertyOp27
 70
     1
102
RTVSPropertyOp28
 70
     1
102
RTVSPropertyOp29
 70
     1
102
RTVSPropertyOp30
 70
     1
102
RTVSPropertyOp31
 70
     1
102
RTVSPropertyOp32
 70
     1
102
RTVSPropertyOp33
 70
     1
102
RTVSPropertyOp34
 70
     1
102
RTVSPropertyOp35
 70
     1
102
RTVSPropertyOp36
 70
     1
102
RTVSPropertyOp37
 70
     1
102
RTVSPropertyOp38
 70
     1
102
RTVSPropertyOp39
 70
     1
102
RTVSPropertyOp40
 70
     1
102
RTVSPropertyOp41
 70
     1
102
RTVSPropertyOp42
 70
     1
102
RTVSPropertyOp43
 70
     1
102
RTVSPropertyOp44
 70
     1
102
RTVSPropertyOp45
 70
     1
102
RTVSPropertyOp46
 70
     1
102
RTVSPropertyOp47
 70
     1
102
RTVSPropertyOp48
 70
     1
102
RTVSPropertyOp49
 70
     1
102
RTVSPropertyOp50
 70
     1
102
RTVSPropertyOp51
 70
     0
102
RTVSPropertyOp52
 70
     0
102
RTVSPropertyOp53
 70
     1
102
RTVSPropertyOp54
 70
     1
102
RTVSPropertyOp55
 70
     1
102
RTVSPropertyOp56
 70
     1
102
RTVSPropertyOp57
 70
     1
102
RTVSPropertyOp58
 70
     1
102
RTVSPropertyOp59
 70
     1
102
RTVSPropertyOp60
 70
     1
102
RTVSPropertyOp61
 70
     1
102
RTVSPropertyOp62
 70
     1
  0
XRECORD
  5
16AA
102
{ACAD_REACTORS
330
16A9
102
}
330
16A9
100
AcDbXrecord
280
     1
102
RTVSPost2010Prop28
280
     0
102
RTVSPost2010PropOp28
 70
     1
102
RTVSPost2010Prop29
280
     1
102
RTVSPost2010PropOp29
 70
     1
102
RTVSPost2010Prop30
280
     1
102
RTVSPost2010PropOp30
 70
     1
102
RTVSPost2010Prop31
280
     0
102
RTVSPost2010PropOp31
 70
     1
102
RTVSPost2010Prop32
280
     0
102
RTVSPost2010PropOp32
 70
     1
102
RTVSPost2010Prop33
280
     0
102
RTVSPost2010PropOp33
 70
     1
102
RTVSPost2010Prop34
280
     0
102
RTVSPost2010PropOp34
 70
     1
102
RTVSPost2010Prop35
280
     0
102
RTVSPost2010PropOp35
 70
     1
102
RTVSPost2010Prop36
280
     0
102
RTVSPost2010PropOp36
 70
     1
102
RTVSPost2010Prop37
 90
       50
102
RTVSPost2010PropOp37
 70
     1
102
RTVSPost2010Prop38
140
0.0
102
RTVSPost2010PropOp38
 70
     1
102
RTVSPost2010Prop39
140
1.0
102
RTVSPost2010PropOp39
 70
     1
102
RTVSPost2010Prop40
 90
        0
102
RTVSPost2010PropOp40
 70
     1
102
RTVSPost2010Prop41ColorIndex
 90
       18
102
RTVSPost2010Prop41ColorRGB
 90
-16777216
102
RTVSPost2010PropOp41
 70
     1
102
RTVSPost2010Prop42
 90
       50
102
RTVSPost2010PropOp42
 70
     1
102
RTVSPost2010Prop43
 90
        3
102
RTVSPost2010PropOp43
 70
     1
102
RTVSPost2010Prop44ColorIndex
 90
        5
102
RTVSPost2010Prop44ColorRGB
 90
      255
102
RTVSPost2010PropOp44
 70
     1
102
RTVSPost2010Prop45
280
     0
102
RTVSPost2010PropOp45
 70
     1
102
RTVSPost2010Prop46
 90
       50
102
RTVSPost2010PropOp46
 70
     1
102
RTVSPost2010Prop47
 90
       50
102
RTVSPost2010PropOp47
 70
     1
102
RTVSPost2010Prop48
 90
       50
102
RTVSPost2010PropOp48
 70
     1
102
RTVSPost2010Prop49
280
     0
102
RTVSPost2010PropOp49
 70
     1
102
RTVSPost2010Prop50
 90
       50
102
RTVSPost2010PropOp50
 70
     1
102
RTVSPost2010Prop51ColorIndex
 90
      256
102
RTVSPost2010Prop51ColorRGB
 90
-16777216
102
RTVSPost2010PropOp51
 70
     0
102
RTVSPost2010Prop52
140
1.0
102
RTVSPost2010PropOp52
 70
     0
102
RTVSPost2010Prop53
 90
        2
102
RTVSPost2010PropOp53
 70
     1
102
RTVSPost2010Prop54
  1
strokes_ogs.tif
102
RTVSPost2010PropOp54
 70
     1
102
RTVSPost2010Prop55
280
     0
102
RTVSPost2010PropOp55
 70
     1
102
RTVSPost2010Prop56
140
1.0
102
RTVSPost2010PropOp56
 70
     1
102
RTVSPost2010Prop57
140
1.0
102
RTVSPost2010PropOp57
 70
     1
102
RTVSPropertyOp0
 70
     1
102
RTVSPropertyOp1
 70
     1
102
RTVSPropertyOp2
 70
     1
102
RTVSPropertyOp3
 70
     1
102
RTVSPropertyOp4
 70
     1
102
RTVSPropertyOp5
 70
     1
102
RTVSPropertyOp6
 70
     1
102
RTVSPropertyOp7
 70
     1
102
RTVSPropertyOp8
 70
     1
102
RTVSPropertyOp9
 70
     1
102
RTVSPropertyOp10
 70
     1
102
RTVSPropertyOp11
 70
     1
102
RTVSPropertyOp12
 70
     1
102
RTVSPropertyOp13
 70
     1
102
RTVSPropertyOp14
 70
     1
102
RTVSPropertyOp15
 70
     1
102
RTVSPropertyOp16
 70
     1
102
RTVSPropertyOp17
 70
     1
102
RTVSPropertyOp18
 70
     1
102
RTVSPropertyOp19
 70
     1
102
RTVSPropertyOp20
 70
     1
102
RTVSPropertyOp21
 70
     1
102
RTVSPropertyOp22
 70
     1
102
RTVSPropertyOp23
 70
     1
102
RTVSPropertyOp24
 70
     1
102
RTVSPropertyOp25
 70
     1
102
RTVSPropertyOp26
 70
     1
102
RTVSPropertyOp27
 70
     1
102
RTVSPropertyOp28
 70
     1
102
RTVSPropertyOp29
 70
     1
102
RTVSPropertyOp30
 70
     1
102
RTVSPropertyOp31
 70
     1
102
RTVSPropertyOp32
 70
     1
102
RTVSPropertyOp33
 70
     1
102
RTVSPropertyOp34
 70
     1
102
RTVSPropertyOp35
 70
     1
102
RTVSPropertyOp36
 70
     1
102
RTVSPropertyOp37
 70
     1
102
RTVSPropertyOp38
 70
     1
102
RTVSPropertyOp39
 70
     1
102
RTVSPropertyOp40
 70
     1
102
RTVSPropertyOp41
 70
     1
102
RTVSPropertyOp42
 70
     1
102
RTVSPropertyOp43
 70
     1
102
RTVSPropertyOp44
 70
     1
102
RTVSPropertyOp45
 70
     1
102
RTVSPropertyOp46
 70
     1
102
RTVSPropertyOp47
 70
     1
102
RTVSPropertyOp48
 70
     1
102
RTVSPropertyOp49
 70
     1
102
RTVSPropertyOp50
 70
     1
102
RTVSPropertyOp51
 70
     0
102
RTVSPropertyOp52
 70
     0
102
RTVSPropertyOp53
 70
     1
102
RTVSPropertyOp54
 70
     1
102
RTVSPropertyOp55
 70
     1
102
RTVSPropertyOp56
 70
     1
102
RTVSPropertyOp57
 70
     1
102
RTVSPropertyOp58
 70
     1
102
RTVSPropertyOp59
 70
     1
102
RTVSPropertyOp60
 70
     1
102
RTVSPropertyOp61
 70
     1
102
RTVSPropertyOp62
 70
     1
  0
XRECORD
  5
16AC
102
{ACAD_REACTORS
330
16AB
102
}
330
16AB
100
AcDbXrecord
280
     1
102
RTVSPost2010Prop28
280
     0
102
RTVSPost2010PropOp28
 70
     1
102
RTVSPost2010Prop29
280
     1
102
RTVSPost2010PropOp29
 70
     1
102
RTVSPost2010Prop30
280
     1
102
RTVSPost2010PropOp30
 70
     1
102
RTVSPost2010Prop31
280
     0
102
RTVSPost2010PropOp31
 70
     1
102
RTVSPost2010Prop32
280
     0
102
RTVSPost2010PropOp32
 70
     1
102
RTVSPost2010Prop33
280
     0
102
RTVSPost2010PropOp33
 70
     1
102
RTVSPost2010Prop34
280
     0
102
RTVSPost2010PropOp34
 70
     1
102
RTVSPost2010Prop35
280
     0
102
RTVSPost2010PropOp35
 70
     1
102
RTVSPost2010Prop36
280
     0
102
RTVSPost2010PropOp36
 70
     1
102
RTVSPost2010Prop37
 90
       50
102
RTVSPost2010PropOp37
 70
     1
102
RTVSPost2010Prop38
140
0.0
102
RTVSPost2010PropOp38
 70
     1
102
RTVSPost2010Prop39
140
1.0
102
RTVSPost2010PropOp39
 70
     1
102
RTVSPost2010Prop40
 90
        0
102
RTVSPost2010PropOp40
 70
     1
102
RTVSPost2010Prop41ColorIndex
 90
       18
102
RTVSPost2010Prop41ColorRGB
 90
-16777216
102
RTVSPost2010PropOp41
 70
     1
102
RTVSPost2010Prop42
 90
       50
102
RTVSPost2010PropOp42
 70
     1
102
RTVSPost2010Prop43
 90
        3
102
RTVSPost2010PropOp43
 70
     1
102
RTVSPost2010Prop44ColorIndex
 90
        5
102
RTVSPost2010Prop44ColorRGB
 90
      255
102
RTVSPost2010PropOp44
 70
     1
102
RTVSPost2010Prop45
280
     0
102
RTVSPost2010PropOp45
 70
     1
102
RTVSPost2010Prop46
 90
       50
102
RTVSPost2010PropOp46
 70
     1
102
RTVSPost2010Prop47
 90
       50
102
RTVSPost2010PropOp47
 70
     1
102
RTVSPost2010Prop48
 90
       50
102
RTVSPost2010PropOp48
 70
     1
102
RTVSPost2010Prop49
280
     0
102
RTVSPost2010PropOp49
 70
     1
102
RTVSPost2010Prop50
 90
       50
102
RTVSPost2010PropOp50
 70
     1
102
RTVSPost2010Prop51ColorIndex
 90
      256
102
RTVSPost2010Prop51ColorRGB
 90
-16777216
102
RTVSPost2010PropOp51
 70
     0
102
RTVSPost2010Prop52
140
1.0
102
RTVSPost2010PropOp52
 70
     0
102
RTVSPost2010Prop53
 90
        2
102
RTVSPost2010PropOp53
 70
     1
102
RTVSPost2010Prop54
  1
strokes_ogs.tif
102
RTVSPost2010PropOp54
 70
     1
102
RTVSPost2010Prop55
280
     0
102
RTVSPost2010PropOp55
 70
     1
102
RTVSPost2010Prop56
140
1.0
102
RTVSPost2010PropOp56
 70
     1
102
RTVSPost2010Prop57
140
1.0
102
RTVSPost2010PropOp57
 70
     1
102
RTVSPropertyOp0
 70
     1
102
RTVSPropertyOp1
 70
     1
102
RTVSPropertyOp2
 70
     1
102
RTVSPropertyOp3
 70
     1
102
RTVSPropertyOp4
 70
     1
102
RTVSPropertyOp5
 70
     1
102
RTVSPropertyOp6
 70
     1
102
RTVSPropertyOp7
 70
     1
102
RTVSPropertyOp8
 70
     1
102
RTVSPropertyOp9
 70
     1
102
RTVSPropertyOp10
 70
     1
102
RTVSPropertyOp11
 70
     1
102
RTVSPropertyOp12
 70
     1
102
RTVSPropertyOp13
 70
     1
102
RTVSPropertyOp14
 70
     1
102
RTVSPropertyOp15
 70
     1
102
RTVSPropertyOp16
 70
     1
102
RTVSPropertyOp17
 70
     1
102
RTVSPropertyOp18
 70
     1
102
RTVSPropertyOp19
 70
     1
102
RTVSPropertyOp20
 70
     1
102
RTVSPropertyOp21
 70
     1
102
RTVSPropertyOp22
 70
     1
102
RTVSPropertyOp23
 70
     1
102
RTVSPropertyOp24
 70
     1
102
RTVSPropertyOp25
 70
     1
102
RTVSPropertyOp26
 70
     1
102
RTVSPropertyOp27
 70
     1
102
RTVSPropertyOp28
 70
     1
102
RTVSPropertyOp29
 70
     1
102
RTVSPropertyOp30
 70
     1
102
RTVSPropertyOp31
 70
     1
102
RTVSPropertyOp32
 70
     1
102
RTVSPropertyOp33
 70
     1
102
RTVSPropertyOp34
 70
     1
102
RTVSPropertyOp35
 70
     1
102
RTVSPropertyOp36
 70
     1
102
RTVSPropertyOp37
 70
     1
102
RTVSPropertyOp38
 70
     1
102
RTVSPropertyOp39
 70
     1
102
RTVSPropertyOp40
 70
     1
102
RTVSPropertyOp41
 70
     1
102
RTVSPropertyOp42
 70
     1
102
RTVSPropertyOp43
 70
     1
102
RTVSPropertyOp44
 70
     1
102
RTVSPropertyOp45
 70
     1
102
RTVSPropertyOp46
 70
     1
102
RTVSPropertyOp47
 70
     1
102
RTVSPropertyOp48
 70
     1
102
RTVSPropertyOp49
 70
     1
102
RTVSPropertyOp50
 70
     1
102
RTVSPropertyOp51
 70
     0
102
RTVSPropertyOp52
 70
     0
102
RTVSPropertyOp53
 70
     1
102
RTVSPropertyOp54
 70
     1
102
RTVSPropertyOp55
 70
     1
102
RTVSPropertyOp56
 70
     1
102
RTVSPropertyOp57
 70
     1
102
RTVSPropertyOp58
 70
     1
102
RTVSPropertyOp59
 70
     1
102
RTVSPropertyOp60
 70
     1
102
RTVSPropertyOp61
 70
     1
102
RTVSPropertyOp62
 70
     1
  0
XRECORD
  5
16A2
102
{ACAD_REACTORS
330
16A1
102
}
330
16A1
100
AcDbXrecord
280
     1
102
RTVSPost2010Prop28
280
     0
102
RTVSPost2010PropOp28
 70
     1
102
RTVSPost2010Prop29
280
     1
102
RTVSPost2010PropOp29
 70
     1
102
RTVSPost2010Prop30
280
     1
102
RTVSPost2010PropOp30
 70
     1
102
RTVSPost2010Prop31
280
     0
102
RTVSPost2010PropOp31
 70
     1
102
RTVSPost2010Prop32
280
     0
102
RTVSPost2010PropOp32
 70
     1
102
RTVSPost2010Prop33
280
     0
102
RTVSPost2010PropOp33
 70
     1
102
RTVSPost2010Prop34
280
     0
102
RTVSPost2010PropOp34
 70
     1
102
RTVSPost2010Prop35
280
     0
102
RTVSPost2010PropOp35
 70
     1
102
RTVSPost2010Prop36
280
     0
102
RTVSPost2010PropOp36
 70
     1
102
RTVSPost2010Prop37
 90
       50
102
RTVSPost2010PropOp37
 70
     1
102
RTVSPost2010Prop38
140
0.0
102
RTVSPost2010PropOp38
 70
     1
102
RTVSPost2010Prop39
140
1.0
102
RTVSPost2010PropOp39
 70
     1
102
RTVSPost2010Prop40
 90
        0
102
RTVSPost2010PropOp40
 70
     1
102
RTVSPost2010Prop41ColorIndex
 90
       18
102
RTVSPost2010Prop41ColorRGB
 90
-16777216
102
RTVSPost2010PropOp41
 70
     1
102
RTVSPost2010Prop42
 90
       50
102
RTVSPost2010PropOp42
 70
     1
102
RTVSPost2010Prop43
 90
        3
102
RTVSPost2010PropOp43
 70
     1
102
RTVSPost2010Prop44ColorIndex
 90
        5
102
RTVSPost2010Prop44ColorRGB
 90
      255
102
RTVSPost2010PropOp44
 70
     1
102
RTVSPost2010Prop45
280
     0
102
RTVSPost2010PropOp45
 70
     1
102
RTVSPost2010Prop46
 90
       50
102
RTVSPost2010PropOp46
 70
     1
102
RTVSPost2010Prop47
 90
       50
102
RTVSPost2010PropOp47
 70
     1
102
RTVSPost2010Prop48
 90
       50
102
RTVSPost2010PropOp48
 70
     1
102
RTVSPost2010Prop49
280
     0
102
RTVSPost2010PropOp49
 70
     1
102
RTVSPost2010Prop50
 90
       50
102
RTVSPost2010PropOp50
 70
     1
102
RTVSPost2010Prop51ColorIndex
 90
      256
102
RTVSPost2010Prop51ColorRGB
 90
-16777216
102
RTVSPost2010PropOp51
 70
     0
102
RTVSPost2010Prop52
140
1.0
102
RTVSPost2010PropOp52
 70
     0
102
RTVSPost2010Prop53
 90
        2
102
RTVSPost2010PropOp53
 70
     1
102
RTVSPost2010Prop54
  1
strokes_ogs.tif
102
RTVSPost2010PropOp54
 70
     1
102
RTVSPost2010Prop55
280
     0
102
RTVSPost2010PropOp55
 70
     1
102
RTVSPost2010Prop56
140
1.0
102
RTVSPost2010PropOp56
 70
     1
102
RTVSPost2010Prop57
140
1.0
102
RTVSPost2010PropOp57
 70
     1
102
RTVSPropertyOp0
 70
     1
102
RTVSPropertyOp1
 70
     1
102
RTVSPropertyOp2
 70
     1
102
RTVSPropertyOp3
 70
     1
102
RTVSPropertyOp4
 70
     1
102
RTVSPropertyOp5
 70
     1
102
RTVSPropertyOp6
 70
     1
102
RTVSPropertyOp7
 70
     1
102
RTVSPropertyOp8
 70
     1
102
RTVSPropertyOp9
 70
     1
102
RTVSPropertyOp10
 70
     1
102
RTVSPropertyOp11
 70
     1
102
RTVSPropertyOp12
 70
     1
102
RTVSPropertyOp13
 70
     1
102
RTVSPropertyOp14
 70
     1
102
RTVSPropertyOp15
 70
     1
102
RTVSPropertyOp16
 70
     1
102
RTVSPropertyOp17
 70
     1
102
RTVSPropertyOp18
 70
     1
102
RTVSPropertyOp19
 70
     1
102
RTVSPropertyOp20
 70
     1
102
RTVSPropertyOp21
 70
     1
102
RTVSPropertyOp22
 70
     1
102
RTVSPropertyOp23
 70
     1
102
RTVSPropertyOp24
 70
     1
102
RTVSPropertyOp25
 70
     1
102
RTVSPropertyOp26
 70
     1
102
RTVSPropertyOp27
 70
     1
102
RTVSPropertyOp28
 70
     1
102
RTVSPropertyOp29
 70
     1
102
RTVSPropertyOp30
 70
     1
102
RTVSPropertyOp31
 70
     1
102
RTVSPropertyOp32
 70
     1
102
RTVSPropertyOp33
 70
     1
102
RTVSPropertyOp34
 70
     1
102
RTVSPropertyOp35
 70
     1
102
RTVSPropertyOp36
 70
     1
102
RTVSPropertyOp37
 70
     1
102
RTVSPropertyOp38
 70
     1
102
RTVSPropertyOp39
 70
     1
102
RTVSPropertyOp40
 70
     1
102
RTVSPropertyOp41
 70
     1
102
RTVSPropertyOp42
 70
     1
102
RTVSPropertyOp43
 70
     1
102
RTVSPropertyOp44
 70
     1
102
RTVSPropertyOp45
 70
     1
102
RTVSPropertyOp46
 70
     1
102
RTVSPropertyOp47
 70
     1
102
RTVSPropertyOp48
 70
     1
102
RTVSPropertyOp49
 70
     1
102
RTVSPropertyOp50
 70
     1
102
RTVSPropertyOp51
 70
     0
102
RTVSPropertyOp52
 70
     0
102
RTVSPropertyOp53
 70
     1
102
RTVSPropertyOp54
 70
     1
102
RTVSPropertyOp55
 70
     1
102
RTVSPropertyOp56
 70
     1
102
RTVSPropertyOp57
 70
     1
102
RTVSPropertyOp58
 70
     1
102
RTVSPropertyOp59
 70
     1
102
RTVSPropertyOp60
 70
     1
102
RTVSPropertyOp61
 70
     1
102
RTVSPropertyOp62
 70
     1
  0
XRECORD
  5
168E
102
{ACAD_REACTORS
330
168D
102
}
330
168D
100
AcDbXrecord
280
     1
102
RTVSPost2010Prop28
280
     0
102
RTVSPost2010PropOp28
 70
     1
102
RTVSPost2010Prop29
280
     1
102
RTVSPost2010PropOp29
 70
     1
102
RTVSPost2010Prop30
280
     1
102
RTVSPost2010PropOp30
 70
     1
102
RTVSPost2010Prop31
280
     0
102
RTVSPost2010PropOp31
 70
     1
102
RTVSPost2010Prop32
280
     0
102
RTVSPost2010PropOp32
 70
     1
102
RTVSPost2010Prop33
280
     0
102
RTVSPost2010PropOp33
 70
     1
102
RTVSPost2010Prop34
280
     0
102
RTVSPost2010PropOp34
 70
     1
102
RTVSPost2010Prop35
280
     0
102
RTVSPost2010PropOp35
 70
     1
102
RTVSPost2010Prop36
280
     0
102
RTVSPost2010PropOp36
 70
     1
102
RTVSPost2010Prop37
 90
       50
102
RTVSPost2010PropOp37
 70
     1
102
RTVSPost2010Prop38
140
0.0
102
RTVSPost2010PropOp38
 70
     1
102
RTVSPost2010Prop39
140
1.0
102
RTVSPost2010PropOp39
 70
     1
102
RTVSPost2010Prop40
 90
        0
102
RTVSPost2010PropOp40
 70
     1
102
RTVSPost2010Prop41ColorIndex
 90
       18
102
RTVSPost2010Prop41ColorRGB
 90
-16777216
102
RTVSPost2010PropOp41
 70
     1
102
RTVSPost2010Prop42
 90
       50
102
RTVSPost2010PropOp42
 70
     1
102
RTVSPost2010Prop43
 90
        3
102
RTVSPost2010PropOp43
 70
     1
102
RTVSPost2010Prop44ColorIndex
 90
        5
102
RTVSPost2010Prop44ColorRGB
 90
      255
102
RTVSPost2010PropOp44
 70
     1
102
RTVSPost2010Prop45
280
     0
102
RTVSPost2010PropOp45
 70
     1
102
RTVSPost2010Prop46
 90
       50
102
RTVSPost2010PropOp46
 70
     1
102
RTVSPost2010Prop47
 90
       50
102
RTVSPost2010PropOp47
 70
     1
102
RTVSPost2010Prop48
 90
       50
102
RTVSPost2010PropOp48
 70
     1
102
RTVSPost2010Prop49
280
     0
102
RTVSPost2010PropOp49
 70
     1
102
RTVSPost2010Prop50
 90
       50
102
RTVSPost2010PropOp50
 70
     1
102
RTVSPost2010Prop51ColorIndex
 90
      256
102
RTVSPost2010Prop51ColorRGB
 90
-16777216
102
RTVSPost2010PropOp51
 70
     0
102
RTVSPost2010Prop52
140
1.0
102
RTVSPost2010PropOp52
 70
     0
102
RTVSPost2010Prop53
 90
        2
102
RTVSPost2010PropOp53
 70
     1
102
RTVSPost2010Prop54
  1
strokes_ogs.tif
102
RTVSPost2010PropOp54
 70
     1
102
RTVSPost2010Prop55
280
     0
102
RTVSPost2010PropOp55
 70
     1
102
RTVSPost2010Prop56
140
1.0
102
RTVSPost2010PropOp56
 70
     1
102
RTVSPost2010Prop57
140
1.0
102
RTVSPost2010PropOp57
 70
     1
102
RTVSPropertyOp0
 70
     1
102
RTVSPropertyOp1
 70
     1
102
RTVSPropertyOp2
 70
     1
102
RTVSPropertyOp3
 70
     1
102
RTVSPropertyOp4
 70
     1
102
RTVSPropertyOp5
 70
     1
102
RTVSPropertyOp6
 70
     1
102
RTVSPropertyOp7
 70
     1
102
RTVSPropertyOp8
 70
     1
102
RTVSPropertyOp9
 70
     1
102
RTVSPropertyOp10
 70
     1
102
RTVSPropertyOp11
 70
     1
102
RTVSPropertyOp12
 70
     1
102
RTVSPropertyOp13
 70
     1
102
RTVSPropertyOp14
 70
     1
102
RTVSPropertyOp15
 70
     1
102
RTVSPropertyOp16
 70
     1
102
RTVSPropertyOp17
 70
     1
102
RTVSPropertyOp18
 70
     1
102
RTVSPropertyOp19
 70
     1
102
RTVSPropertyOp20
 70
     1
102
RTVSPropertyOp21
 70
     1
102
RTVSPropertyOp22
 70
     1
102
RTVSPropertyOp23
 70
     1
102
RTVSPropertyOp24
 70
     1
102
RTVSPropertyOp25
 70
     1
102
RTVSPropertyOp26
 70
     1
102
RTVSPropertyOp27
 70
     1
102
RTVSPropertyOp28
 70
     1
102
RTVSPropertyOp29
 70
     1
102
RTVSPropertyOp30
 70
     1
102
RTVSPropertyOp31
 70
     1
102
RTVSPropertyOp32
 70
     1
102
RTVSPropertyOp33
 70
     1
102
RTVSPropertyOp34
 70
     1
102
RTVSPropertyOp35
 70
     1
102
RTVSPropertyOp36
 70
     1
102
RTVSPropertyOp37
 70
     1
102
RTVSPropertyOp38
 70
     1
102
RTVSPropertyOp39
 70
     1
102
RTVSPropertyOp40
 70
     1
102
RTVSPropertyOp41
 70
     1
102
RTVSPropertyOp42
 70
     1
102
RTVSPropertyOp43
 70
     1
102
RTVSPropertyOp44
 70
     1
102
RTVSPropertyOp45
 70
     1
102
RTVSPropertyOp46
 70
     1
102
RTVSPropertyOp47
 70
     1
102
RTVSPropertyOp48
 70
     1
102
RTVSPropertyOp49
 70
     1
102
RTVSPropertyOp50
 70
     1
102
RTVSPropertyOp51
 70
     0
102
RTVSPropertyOp52
 70
     0
102
RTVSPropertyOp53
 70
     1
102
RTVSPropertyOp54
 70
     1
102
RTVSPropertyOp55
 70
     1
102
RTVSPropertyOp56
 70
     1
102
RTVSPropertyOp57
 70
     1
102
RTVSPropertyOp58
 70
     1
102
RTVSPropertyOp59
 70
     1
102
RTVSPropertyOp60
 70
     1
102
RTVSPropertyOp61
 70
     1
102
RTVSPropertyOp62
 70
     1
  0
XRECORD
  5
16AE
102
{ACAD_REACTORS
330
16AD
102
}
330
16AD
100
AcDbXrecord
280
     1
102
RTVSPost2010Prop28
280
     0
102
RTVSPost2010PropOp28
 70
     1
102
RTVSPost2010Prop29
280
     1
102
RTVSPost2010PropOp29
 70
     1
102
RTVSPost2010Prop30
280
     1
102
RTVSPost2010PropOp30
 70
     1
102
RTVSPost2010Prop31
280
     0
102
RTVSPost2010PropOp31
 70
     1
102
RTVSPost2010Prop32
280
     0
102
RTVSPost2010PropOp32
 70
     1
102
RTVSPost2010Prop33
280
     0
102
RTVSPost2010PropOp33
 70
     1
102
RTVSPost2010Prop34
280
     0
102
RTVSPost2010PropOp34
 70
     1
102
RTVSPost2010Prop35
280
     0
102
RTVSPost2010PropOp35
 70
     1
102
RTVSPost2010Prop36
280
     0
102
RTVSPost2010PropOp36
 70
     1
102
RTVSPost2010Prop37
 90
       50
102
RTVSPost2010PropOp37
 70
     1
102
RTVSPost2010Prop38
140
0.0
102
RTVSPost2010PropOp38
 70
     1
102
RTVSPost2010Prop39
140
1.0
102
RTVSPost2010PropOp39
 70
     1
102
RTVSPost2010Prop40
 90
        0
102
RTVSPost2010PropOp40
 70
     1
102
RTVSPost2010Prop41ColorIndex
 90
       18
102
RTVSPost2010Prop41ColorRGB
 90
-16777216
102
RTVSPost2010PropOp41
 70
     1
102
RTVSPost2010Prop42
 90
       50
102
RTVSPost2010PropOp42
 70
     1
102
RTVSPost2010Prop43
 90
        3
102
RTVSPost2010PropOp43
 70
     1
102
RTVSPost2010Prop44ColorIndex
 90
        5
102
RTVSPost2010Prop44ColorRGB
 90
      255
102
RTVSPost2010PropOp44
 70
     1
102
RTVSPost2010Prop45
280
     0
102
RTVSPost2010PropOp45
 70
     1
102
RTVSPost2010Prop46
 90
       50
102
RTVSPost2010PropOp46
 70
     1
102
RTVSPost2010Prop47
 90
       50
102
RTVSPost2010PropOp47
 70
     1
102
RTVSPost2010Prop48
 90
       50
102
RTVSPost2010PropOp48
 70
     1
102
RTVSPost2010Prop49
280
     0
102
RTVSPost2010PropOp49
 70
     1
102
RTVSPost2010Prop50
 90
       50
102
RTVSPost2010PropOp50
 70
     1
102
RTVSPost2010Prop51ColorIndex
 90
      256
102
RTVSPost2010Prop51ColorRGB
 90
-16777216
102
RTVSPost2010PropOp51
 70
     0
102
RTVSPost2010Prop52
140
1.0
102
RTVSPost2010PropOp52
 70
     0
102
RTVSPost2010Prop53
 90
        2
102
RTVSPost2010PropOp53
 70
     1
102
RTVSPost2010Prop54
  1
strokes_ogs.tif
102
RTVSPost2010PropOp54
 70
     1
102
RTVSPost2010Prop55
280
     0
102
RTVSPost2010PropOp55
 70
     1
102
RTVSPost2010Prop56
140
1.0
102
RTVSPost2010PropOp56
 70
     1
102
RTVSPost2010Prop57
140
1.0
102
RTVSPost2010PropOp57
 70
     1
102
RTVSPropertyOp0
 70
     1
102
RTVSPropertyOp1
 70
     1
102
RTVSPropertyOp2
 70
     1
102
RTVSPropertyOp3
 70
     1
102
RTVSPropertyOp4
 70
     1
102
RTVSPropertyOp5
 70
     1
102
RTVSPropertyOp6
 70
     1
102
RTVSPropertyOp7
 70
     1
102
RTVSPropertyOp8
 70
     1
102
RTVSPropertyOp9
 70
     1
102
RTVSPropertyOp10
 70
     1
102
RTVSPropertyOp11
 70
     1
102
RTVSPropertyOp12
 70
     1
102
RTVSPropertyOp13
 70
     1
102
RTVSPropertyOp14
 70
     1
102
RTVSPropertyOp15
 70
     1
102
RTVSPropertyOp16
 70
     1
102
RTVSPropertyOp17
 70
     1
102
RTVSPropertyOp18
 70
     1
102
RTVSPropertyOp19
 70
     1
102
RTVSPropertyOp20
 70
     1
102
RTVSPropertyOp21
 70
     1
102
RTVSPropertyOp22
 70
     1
102
RTVSPropertyOp23
 70
     1
102
RTVSPropertyOp24
 70
     1
102
RTVSPropertyOp25
 70
     1
102
RTVSPropertyOp26
 70
     1
102
RTVSPropertyOp27
 70
     1
102
RTVSPropertyOp28
 70
     1
102
RTVSPropertyOp29
 70
     1
102
RTVSPropertyOp30
 70
     1
102
RTVSPropertyOp31
 70
     1
102
RTVSPropertyOp32
 70
     1
102
RTVSPropertyOp33
 70
     1
102
RTVSPropertyOp34
 70
     1
102
RTVSPropertyOp35
 70
     1
102
RTVSPropertyOp36
 70
     1
102
RTVSPropertyOp37
 70
     1
102
RTVSPropertyOp38
 70
     1
102
RTVSPropertyOp39
 70
     1
102
RTVSPropertyOp40
 70
     1
102
RTVSPropertyOp41
 70
     1
102
RTVSPropertyOp42
 70
     1
102
RTVSPropertyOp43
 70
     1
102
RTVSPropertyOp44
 70
     1
102
RTVSPropertyOp45
 70
     1
102
RTVSPropertyOp46
 70
     1
102
RTVSPropertyOp47
 70
     1
102
RTVSPropertyOp48
 70
     1
102
RTVSPropertyOp49
 70
     1
102
RTVSPropertyOp50
 70
     1
102
RTVSPropertyOp51
 70
     0
102
RTVSPropertyOp52
 70
     0
102
RTVSPropertyOp53
 70
     1
102
RTVSPropertyOp54
 70
     1
102
RTVSPropertyOp55
 70
     1
102
RTVSPropertyOp56
 70
     1
102
RTVSPropertyOp57
 70
     1
102
RTVSPropertyOp58
 70
     1
102
RTVSPropertyOp59
 70
     1
102
RTVSPropertyOp60
 70
     1
102
RTVSPropertyOp61
 70
     1
102
RTVSPropertyOp62
 70
     1
  0
ENDSEC
  0
EOF
