  0
SECTION
  2
HEADER
  9
$ACADVER
  1
AC1015
  9
$ACADMAINTVER
 70
    20
  9
$DWGCODEPAGE
  3
ANSI_932
  9
$INSBASE
 10
0.0
 20
0.0
 30
0.0
  9
$EXTMIN
 10
231.704910668348
 20
106.9001891730015
 30
0.0
  9
$EXTMAX
 10
571.204910668348
 20
336.4001891730016
 30
0.0
  9
$LIMMIN
 10
0.0
 20
0.0
  9
$LIMMAX
 10
594.0
 20
420.0
  9
$ORTHOMODE
 70
     1
  9
$REGENMODE
 70
     1
  9
$FILLMODE
 70
     1
  9
$QTEXTMODE
 70
     0
  9
$MIRRTEXT
 70
     0
  9
$LTSCALE
 40
5.0
  9
$ATTMODE
 70
     1
  9
$TEXTSIZE
 40
5.0
  9
$TRACEWID
 40
0.05
  9
$TEXTSTYLE
  7
STYLE2
  9
$CLAYER
  8
0
  9
$CELTYPE
  6
BYLAYER
  9
$CECOLOR
 62
   256
  9
$CELTSCALE
 40
1.0
  9
$DISPSILH
 70
     0
  9
$DIMSCALE
 40
2.0
  9
$DIMASZ
 40
2.0
  9
$DIMEXO
 40
1.0
  9
$DIMDLI
 40
6.0
  9
$DIMRND
 40
0.0
  9
$DIMDLE
 40
0.0
  9
$DIMEXE
 40
2.0
  9
$DIMTP
 40
495.0
  9
$DIMTM
 40
0.0
  9
$DIMTXT
 40
3.0
  9
$DIMCEN
 40
0.0
  9
$DIMTSZ
 40
0.0
  9
$DIMTOL
 70
     0
  9
$DIMLIM
 70
     0
  9
$DIMTIH
 70
     0
  9
$DIMTOH
 70
     0
  9
$DIMSE1
 70
     0
  9
$DIMSE2
 70
     0
  9
$DIMTAD
 70
     3
  9
$DIMZIN
 70
     8
  9
$DIMBLK
  1
ARROW
  9
$DIMASO
 70
     1
  9
$DIMSHO
 70
     0
  9
$DIMPOST
  1

  9
$DIMAPOST
  1

  9
$DIMALT
 70
     0
  9
$DIMALTD
 70
     2
  9
$DIMALTF
 40
25.4
  9
$DIMLFAC
 40
1.0
  9
$DIMTOFL
 70
     1
  9
$DIMTVP
 40
0.0
  9
$DIMTIX
 70
     1
  9
$DIMSOXD
 70
     0
  9
$DIMSAH
 70
     1
  9
$DIMBLK1
  1
OPEN
  9
$DIMBLK2
  1
OPEN
  9
$DIMSTYLE
  2
IMAO
  9
$DIMCLRD
 70
     0
  9
$DIMCLRE
 70
     0
  9
$DIMCLRT
 70
     0
  9
$DIMTFAC
 40
1.0
  9
$DIMGAP
 40
1.0
  9
$DIMJUST
 70
     0
  9
$DIMSD1
 70
     0
  9
$DIMSD2
 70
     0
  9
$DIMTOLJ
 70
     1
  9
$DIMTZIN
 70
     0
  9
$DIMALTZ
 70
     0
  9
$DIMALTTZ
 70
     0
  9
$DIMUPT
 70
     1
  9
$DIMDEC
 70
     4
  9
$DIMTDEC
 70
     4
  9
$DIMALTU
 70
     2
  9
$DIMALTTD
 70
     2
  9
$DIMTXSTY
  7
STYLE2
  9
$DIMAUNIT
 70
     0
  9
$DIMADEC
 70
     0
  9
$DIMALTRND
 40
0.0
  9
$DIMAZIN
 70
     0
  9
$DIMDSEP
 70
    46
  9
$DIMATFIT
 70
     3
  9
$DIMFRAC
 70
     0
  9
$DIMLDRBLK
  1

  9
$DIMLUNIT
 70
     2
  9
$DIMLWD
 70
    -2
  9
$DIMLWE
 70
    -2
  9
$DIMTMOVE
 70
     0
  9
$LUNITS
 70
     2
  9
$LUPREC
 70
     2
  9
$SKETCHINC
 40
0.1
  9
$FILLETRAD
 40
20.0
  9
$AUNITS
 70
     0
  9
$AUPREC
 70
     2
  9
$MENU
  1
STDR12J
  9
$ELEVATION
 40
0.0
  9
$PELEVATION
 40
0.0
  9
$THICKNESS
 40
0.0
  9
$LIMCHECK
 70
     0
  9
$CHAMFERA
 40
0.5
  9
$CHAMFERB
 40
0.5
  9
$CHAMFERC
 40
0.0
  9
$CHAMFERD
 40
0.0
  9
$SKPOLY
 70
     0
  9
$TDCREATE
 40
2450690.700081019
  9
$TDUCREATE
 40
2450690.325083218
  9
$TDUPDATE
 40
2459548.437453704
  9
$TDUUPDATE
 40
2459548.062453703
  9
$TDINDWG
 40
0.3826749537
  9
$TDUSRTIMER
 40
0.3826747801
  9
$USRTIMER
 70
     1
  9
$ANGBASE
 50
0.0
  9
$ANGDIR
 70
     0
  9
$PDMODE
 70
     3
  9
$PDSIZE
 40
0.0
  9
$PLINEWID
 40
0.0
  9
$SPLFRAME
 70
     0
  9
$SPLINETYPE
 70
     6
  9
$SPLINESEGS
 70
     8
  9
$HANDSEED
  5
1589
  9
$SURFTAB1
 70
     6
  9
$SURFTAB2
 70
     6
  9
$SURFTYPE
 70
     6
  9
$SURFU
 70
     6
  9
$SURFV
 70
     6
  9
$UCSBASE
  2

  9
$UCSNAME
  2

  9
$UCSORG
 10
0.0
 20
0.0
 30
0.0
  9
$UCSXDIR
 10
1.0
 20
0.0
 30
0.0
  9
$UCSYDIR
 10
0.0
 20
1.0
 30
0.0
  9
$UCSORTHOREF
  2

  9
$UCSORTHOVIEW
 70
     0
  9
$UCSORGTOP
 10
0.0
 20
0.0
 30
0.0
  9
$UCSORGBOTTOM
 10
0.0
 20
0.0
 30
0.0
  9
$UCSORGLEFT
 10
0.0
 20
0.0
 30
0.0
  9
$UCSORGRIGHT
 10
0.0
 20
0.0
 30
0.0
  9
$UCSORGFRONT
 10
0.0
 20
0.0
 30
0.0
  9
$UCSORGBACK
 10
0.0
 20
0.0
 30
0.0
  9
$PUCSBASE
  2

  9
$PUCSNAME
  2

  9
$PUCSORG
 10
0.0
 20
0.0
 30
0.0
  9
$PUCSXDIR
 10
1.0
 20
0.0
 30
0.0
  9
$PUCSYDIR
 10
0.0
 20
1.0
 30
0.0
  9
$PUCSORTHOREF
  2

  9
$PUCSORTHOVIEW
 70
     0
  9
$PUCSORGTOP
 10
0.0
 20
0.0
 30
0.0
  9
$PUCSORGBOTTOM
 10
0.0
 20
0.0
 30
0.0
  9
$PUCSORGLEFT
 10
0.0
 20
0.0
 30
0.0
  9
$PUCSORGRIGHT
 10
0.0
 20
0.0
 30
0.0
  9
$PUCSORGFRONT
 10
0.0
 20
0.0
 30
0.0
  9
$PUCSORGBACK
 10
0.0
 20
0.0
 30
0.0
  9
$USERI1
 70
     3
  9
$USERI2
 70
     1
  9
$USERI3
 70
     1
  9
$USERI4
 70
     1
  9
$USERI5
 70
     1
  9
$USERR1
 40
1.0
  9
$USERR2
 40
3.0
  9
$USERR3
 40
3.0
  9
$USERR4
 40
1.5
  9
$USERR5
 40
10.0
  9
$WORLDVIEW
 70
     1
  9
$SHADEDGE
 70
     3
  9
$SHADEDIF
 70
    70
  9
$TILEMODE
 70
     1
  9
$MAXACTVP
 70
    16
  9
$PINSBASE
 10
0.0
 20
0.0
 30
0.0
  9
$PLIMCHECK
 70
     0
  9
$PEXTMIN
 10
1.000000000000000E+20
 20
1.000000000000000E+20
 30
1.000000000000000E+20
  9
$PEXTMAX
 10
-1.000000000000000E+20
 20
-1.000000000000000E+20
 30
-1.000000000000000E+20
  9
$PLIMMIN
 10
0.0
 20
0.0
  9
$PLIMMAX
 10
12.0
 20
9.0
  9
$UNITMODE
 70
     0
  9
$VISRETAIN
 70
     0
  9
$PLINEGEN
 70
     0
  9
$PSLTSCALE
 70
     0
  9
$TREEDEPTH
 70
     0
  9
$CMLSTYLE
  2
STANDARD
  9
$CMLJUST
 70
     0
  9
$CMLSCALE
 40
1.0
  9
$PROXYGRAPHICS
 70
     1
  9
$MEASUREMENT
 70
     0
  9
$CELWEIGHT
370
    -1
  9
$ENDCAPS
280
     0
  9
$JOINSTYLE
280
     0
  9
$LWDISPLAY
290
     0
  9
$INSUNITS
 70
     0
  9
$HYPERLINKBASE
  1

  9
$STYLESHEET
  1

  9
$XEDIT
290
     1
  9
$CEPSNTYPE
380
     0
  9
$PSTYLEMODE
290
     1
  9
$FINGERPRINTGUID
  2
{635BB1EA-724A-4C04-9F46-C8B6B581BDF0}
  9
$VERSIONGUID
  2
{F31AE16C-5727-0847-8BA1-3970E0D67D69}
  9
$EXTNAMES
290
     1
  9
$PSVPSCALE
 40
0.0
  9
$OLESTARTUP
290
     0
  0
ENDSEC
  0
SECTION
  2
CLASSES
  0
CLASS
  1
ACDBDICTIONARYWDFLT
  2
AcDbDictionaryWithDefault
  3
ObjectDBX Classes
 90
        0
280
     0
281
     0
  0
CLASS
  1
MATERIAL
  2
AcDbMaterial
  3
ObjectDBX Classes
 90
     1153
280
     0
281
     0
  0
CLASS
  1
VISUALSTYLE
  2
AcDbVisualStyle
  3
ObjectDBX Classes
 90
     4095
280
     0
281
     0
  0
CLASS
  1
TABLESTYLE
  2
AcDbTableStyle
  3
ObjectDBX Classes
 90
     4095
280
     0
281
     0
  0
CLASS
  1
SCALE
  2
AcDbScale
  3
ObjectDBX Classes
 90
     1153
280
     0
281
     0
  0
CLASS
  1
MLEADERSTYLE
  2
AcDbMLeaderStyle
  3
ACDB_MLEADERSTYLE_CLASS
 90
     4095
280
     0
281
     0
  0
CLASS
  1
DICTIONARYVAR
  2
AcDbDictionaryVar
  3
ObjectDBX Classes
 90
        0
280
     0
281
     0
  0
CLASS
  1
CELLSTYLEMAP
  2
AcDbCellStyleMap
  3
ObjectDBX Classes
 90
     1152
280
     0
281
     0
  0
CLASS
  1
ACDBSECTIONVIEWSTYLE
  2
AcDbSectionViewStyle
  3
ObjectDBX Classes
 90
     1025
280
     0
281
     0
  0
CLASS
  1
ACDBDETAILVIEWSTYLE
  2
AcDbDetailViewStyle
  3
ObjectDBX Classes
 90
     1025
280
     0
281
     0
  0
CLASS
  1
SORTENTSTABLE
  2
AcDbSortentsTable
  3
ObjectDBX Classes
 90
    32768
280
     0
281
     0
  0
CLASS
  1
ACDBPLACEHOLDER
  2
AcDbPlaceHolder
  3
ObjectDBX Classes
 90
        0
280
     0
281
     0
  0
CLASS
  1
LAYOUT
  2
AcDbLayout
  3
ObjectDBX Classes
 90
        0
280
     0
281
     0
  0
ENDSEC
  0
SECTION
  2
TABLES
  0
TABLE
  2
VPORT
  5
2E
330
0
100
AcDbSymbolTable
 70
     1
1001
ACAD
1000
DbSaveVer
1071
      205
  0
VPORT
  5
2F
330
2E
100
AcDbSymbolTableRecord
100
AcDbViewportTableRecord
  2
*ACTIVE
 70
     0
 10
0.0
 20
0.0
 11
1.0
 21
1.0
 12
418.5590850701212
 22
205.8789233297824
 13
0.0
 23
0.0
 14
0.5
 24
0.5
 15
10.0
 25
10.0
 16
0.0
 26
0.0
 36
1.0
 17
0.0
 27
0.0
 37
0.0
 40
339.3499202245066
 41
1.301690507152145
 42
50.0
 43
0.0
 44
0.0
 50
0.0
 51
0.0
 71
     0
 72
   500
 73
     1
 74
     0
 75
     1
 76
     0
 77
     0
 78
     0
281
     0
 65
     1
110
0.0
120
0.0
130
0.0
111
1.0
121
0.0
131
0.0
112
0.0
122
1.0
132
0.0
 79
     0
146
0.0
1001
ACAD_NAV_VCDISPLAY
1070
     3
  0
ENDTAB
  0
TABLE
  2
LTYPE
  5
29
330
0
100
AcDbSymbolTable
 70
     2
  0
LTYPE
  5
2A
330
29
100
AcDbSymbolTableRecord
100
AcDbLinetypeTableRecord
  2
BYBLOCK
 70
     0
  3

 72
    65
 73
     0
 40
0.0
  0
LTYPE
  5
2B
330
29
100
AcDbSymbolTableRecord
100
AcDbLinetypeTableRecord
  2
BYLAYER
 70
     0
  3

 72
    65
 73
     0
 40
0.0
  0
LTYPE
  5
14
330
29
100
AcDbSymbolTableRecord
100
AcDbLinetypeTableRecord
  2
CONTINUOUS
 70
     0
  3
実線
 72
    65
 73
     0
 40
0.0
  0
LTYPE
  5
17F
330
29
100
AcDbSymbolTableRecord
100
AcDbLinetypeTableRecord
  2
CENTER
 70
     0
  3
____ _ ____ _ ____ _ ____ _ ____ _ ____ _ ____
 72
    65
 73
     4
 40
2.0
 49
1.25
 74
     0
 49
-0.25
 74
     0
 49
0.25
 74
     0
 49
-0.25
 74
     0
  0
ENDTAB
  0
TABLE
  2
LAYER
  5
25
102
{ACAD_XDICTIONARY
360
3BD
102
}
330
0
100
AcDbSymbolTable
 70
     1
  0
LAYER
  5
4
102
{ACAD_XDICTIONARY
360
5
102
}
330
25
100
AcDbSymbolTableRecord
100
AcDbLayerTableRecord
  2
0
 70
     0
 62
     7
  6
CONTINUOUS
370
    -3
390
7
  0
ENDTAB
  0
TABLE
  2
STYLE
  5
26
330
0
100
AcDbSymbolTable
 70
     4
  0
STYLE
  5
27
330
26
100
AcDbSymbolTableRecord
100
AcDbTextStyleTableRecord
  2
STANDARD
 70
     0
 40
0.0
 41
1.0
 50
0.0
 71
     0
 42
5.0
  3
ROMANS
  4
bigfont.shx
  0
STYLE
  5
37
330
26
100
AcDbSymbolTableRecord
100
AcDbTextStyleTableRecord
  2
K
 70
     0
 40
0.0
 41
1.0
 50
0.0
 71
     0
 42
1.0
  3
ROMANS
  4
bigfont.shx
  0
STYLE
  5
4F
330
26
100
AcDbSymbolTableRecord
100
AcDbTextStyleTableRecord
  2
STYLE2
 70
     0
 40
0.0
 41
1.0
 50
0.0
 71
     0
 42
5.0
  3

  4

1001
ACAD
1000
DHPHSGothic-W5
1071
    32770
  0
STYLE
  5
3B9
330
26
100
AcDbSymbolTableRecord
100
AcDbTextStyleTableRecord
  2
BIGFONT
 70
     0
 40
3.0
 41
1.0
 50
0.0
 71
     0
 42
3.0
  3
txt
  4
extfont.shx
  0
ENDTAB
  0
TABLE
  2
VIEW
  5
2C
330
0
100
AcDbSymbolTable
 70
     0
  0
ENDTAB
  0
TABLE
  2
UCS
  5
2D
330
0
100
AcDbSymbolTable
 70
     0
  0
ENDTAB
  0
TABLE
  2
APPID
  5
34
330
0
100
AcDbSymbolTable
 70
     8
  0
APPID
  5
32
330
34
100
AcDbSymbolTableRecord
100
AcDbRegAppTableRecord
  2
ACAD
 70
     0
  0
APPID
  5
33
330
34
100
AcDbSymbolTableRecord
100
AcDbRegAppTableRecord
  2
ACAD_NAV_VCDISPLAY
 70
     0
  0
APPID
  5
3BA
330
34
100
AcDbSymbolTableRecord
100
AcDbRegAppTableRecord
  2
GENIUS_GENODEF_13
 70
     0
  0
APPID
  5
3BB
330
34
100
AcDbSymbolTableRecord
100
AcDbRegAppTableRecord
  2
GENIUS_GENOBJ-N-CEN_13
 70
     0
  0
APPID
  5
3BC
330
34
100
AcDbSymbolTableRecord
100
AcDbRegAppTableRecord
  2
GENIUS_GENCEN_19
 70
     0
  0
APPID
  5
FC6
330
34
100
AcDbSymbolTableRecord
100
AcDbRegAppTableRecord
  2
ACAD_PSEXT
 70
     0
  0
APPID
  5
FC7
330
34
100
AcDbSymbolTableRecord
100
AcDbRegAppTableRecord
  2
AcAecLayerStandard
 70
     0
  0
APPID
  5
153A
330
34
100
AcDbSymbolTableRecord
100
AcDbRegAppTableRecord
  2
ACAD_MLEADERVER
 70
     0
  0
ENDTAB
  0
TABLE
  2
DIMSTYLE
  5
35
330
0
100
AcDbSymbolTable
 70
     5
100
AcDbDimStyleTable
 71
     1
340
36
  0
DIMSTYLE
105
36
330
35
100
AcDbSymbolTableRecord
100
AcDbDimStyleTableRecord
  2
IMAO
 70
     0
 41
1.5
 42
1.0
 43
6.0
 44
1.0
 47
495.0
 73
     0
 74
     0
 77
     1
 78
     8
140
3.0
141
0.0
172
     1
174
     1
271
     2
272
     2
279
     2
284
     8
285
     8
286
     8
340
37
341
38
342
38
  0
DIMSTYLE
105
FC2
330
35
100
AcDbSymbolTableRecord
100
AcDbDimStyleTableRecord
  2
Standard
 70
     0
340
27
  0
DIMSTYLE
105
FC3
330
35
100
AcDbSymbolTableRecord
100
AcDbDimStyleTableRecord
  2
ISO-25
 70
     0
 41
2.5
 42
0.625
 43
3.75
 44
1.25
 73
     0
 74
     0
 77
     1
 78
     8
140
2.5
141
2.5
143
0.03937007874016
147
0.625
171
     3
172
     1
271
     2
272
     2
274
     3
278
    44
283
     0
284
     8
340
27
  0
DIMSTYLE
105
FC4
330
35
100
AcDbSymbolTableRecord
100
AcDbDimStyleTableRecord
  2
AM_ISO
 70
     0
  4
"
 41
2.5
 42
1.0
 43
10.0
 44
1.0
 47
0.1
 48
0.1
 73
     0
 74
     0
 77
     1
 78
     8
 79
     2
140
3.5
141
0.0
143
0.0393701
146
0.71
147
1.5
172
     1
176
   256
177
   256
178
     2
271
     2
272
     3
274
     4
283
     0
284
     8
340
27
371
    -1
372
    -1
  0
DIMSTYLE
105
FC5
330
35
100
AcDbSymbolTableRecord
100
AcDbDimStyleTableRecord
  2
AM_JIS
 70
     0
  4
"
 41
15.0
 42
10.0
 43
80.0
 44
10.0
 47
0.1
 48
0.1
 73
     0
 74
     0
 77
     3
 78
     8
 79
     2
140
30.0
141
0.0
143
0.0393701
146
0.71
147
5.0
172
     1
176
   256
177
   256
178
     2
271
     2
272
     2
283
     0
284
     8
340
27
341
FBB
342
FBB
371
    -1
372
    -1
  0
ENDTAB
  0
TABLE
  2
BLOCK_RECORD
  5
1
330
0
100
AcDbSymbolTable
 70
     3
  0
BLOCK_RECORD
  5
2
330
1
100
AcDbSymbolTableRecord
100
AcDbBlockTableRecord
  2
*MODEL_SPACE
340
1F
  0
BLOCK_RECORD
  5
21
330
1
100
AcDbSymbolTableRecord
100
AcDbBlockTableRecord
  2
*PAPER_SPACE
340
24
  0
BLOCK_RECORD
  5
50
330
1
100
AcDbSymbolTableRecord
100
AcDbBlockTableRecord
  2
_OPEN
340
0
  0
BLOCK_RECORD
  5
38
330
1
100
AcDbSymbolTableRecord
100
AcDbBlockTableRecord
  2
ARROW
340
0
  0
BLOCK_RECORD
  5
FBB
330
1
100
AcDbSymbolTableRecord
100
AcDbBlockTableRecord
  2
_Open30
340
0
  0
ENDTAB
  0
ENDSEC
  0
SECTION
  2
BLOCKS
  0
BLOCK
  5
3
330
2
100
AcDbEntity
  8
0
100
AcDbBlockBegin
  2
*MODEL_SPACE
 70
     0
 10
0.0
 20
0.0
 30
0.0
  3
*MODEL_SPACE
  1

  0
ENDBLK
  5
1E
330
2
100
AcDbEntity
  8
0
100
AcDbBlockEnd
  0
BLOCK
  5
22
330
21
100
AcDbEntity
 67
     1
  8
0
100
AcDbBlockBegin
  2
*PAPER_SPACE
 70
     0
 10
0.0
 20
0.0
 30
0.0
  3
*PAPER_SPACE
  1

  0
ENDBLK
  5
23
330
21
100
AcDbEntity
 67
     1
  8
0
100
AcDbBlockEnd
  0
BLOCK
  5
51
330
50
100
AcDbEntity
  8
0
100
AcDbBlockBegin
  2
_OPEN
 70
     0
 10
0.0
 20
0.0
 30
0.0
  3
_OPEN
  1

  0
LINE
  5
52
330
50
100
AcDbEntity
  8
0
  6
ByBlock
 62
     0
100
AcDbLine
 10
-1.0
 20
0.1666666666666666
 30
0.0
 11
0.0
 21
0.0
 31
0.0
  0
LINE
  5
53
330
50
100
AcDbEntity
  8
0
  6
ByBlock
 62
     0
100
AcDbLine
 10
0.0
 20
0.0
 30
0.0
 11
-1.0
 21
-0.1666666666666666
 31
0.0
  0
LINE
  5
54
330
50
100
AcDbEntity
  8
0
  6
ByBlock
 62
     0
100
AcDbLine
 10
0.0
 20
0.0
 30
0.0
 11
-1.0
 21
0.0
 31
0.0
  0
ENDBLK
  5
55
330
50
100
AcDbEntity
  8
0
100
AcDbBlockEnd
  0
BLOCK
  5
39
330
38
100
AcDbEntity
  8
0
100
AcDbBlockBegin
  2
ARROW
 70
     0
 10
1.0
 20
0.5
 30
0.0
  3
ARROW
  1

  0
LINE
  5
3A
330
38
100
AcDbEntity
  8
0
100
AcDbLine
 10
1.0
 20
0.5
 30
0.0
 11
-0.5000000000000214
 21
0.0980762113533018
 31
0.0
  0
LINE
  5
3B
330
38
100
AcDbEntity
  8
0
100
AcDbLine
 10
0.0
 20
0.5
 30
0.0
 11
1.0
 21
0.5
 31
0.0
  0
LINE
  5
3C
330
38
100
AcDbEntity
  8
0
100
AcDbLine
 10
1.0
 20
0.5
 30
0.0
 11
-0.4999999999999575
 21
0.9019237886467408
 31
0.0
  0
ENDBLK
  5
3D
330
38
100
AcDbEntity
  8
0
100
AcDbBlockEnd
  0
BLOCK
  5
FBC
330
FBB
100
AcDbEntity
  8
0
100
AcDbBlockBegin
  2
_Open30
 70
     0
 10
0.0
 20
0.0
 30
0.0
  3
_Open30
  1

  0
LINE
  5
FBD
330
FBB
100
AcDbEntity
  8
0
  6
ByBlock
 62
     0
370
    -2
100
AcDbLine
 10
-1.0
 20
0.26794919
 30
0.0
 11
0.0
 21
0.0
 31
0.0
  0
LINE
  5
FBE
330
FBB
100
AcDbEntity
  8
0
  6
ByBlock
 62
     0
370
    -2
100
AcDbLine
 10
0.0
 20
0.0
 30
0.0
 11
-1.0
 21
-0.26794919
 31
0.0
  0
LINE
  5
FBF
330
FBB
100
AcDbEntity
  8
0
  6
ByBlock
 62
     0
370
    -2
100
AcDbLine
 10
0.0
 20
0.0
 30
0.0
 11
-1.0
 21
0.0
 31
0.0
  0
ENDBLK
  5
FC0
330
FBB
100
AcDbEntity
  8
0
100
AcDbBlockEnd
  0
ENDSEC
  0
SECTION
  2
ENTITIES
  0
LINE
  5
1258
330
2
100
AcDbEntity
  8
0
 62
     0
 48
0.2
100
AcDbLine
 10
318.204910668348
 20
267.1501891730015
 30
0.0
 11
318.204910668348
 21
263.4001891730015
 31
0.0
  0
LINE
  5
1259
330
2
100
AcDbEntity
  8
0
 62
     0
 48
0.2
100
AcDbLine
 10
318.204910668348
 20
237.4001891730015
 30
0.0
 11
318.204910668348
 21
233.6501891730015
 31
0.0
  0
LINE
  5
125A
330
2
100
AcDbEntity
  8
0
 62
     0
 48
0.2
100
AcDbLine
 10
323.204910668348
 20
264.9001891730011
 30
0.0
 11
323.204910668348
 21
204.9001891730011
 31
0.0
  0
LINE
  5
125B
330
2
100
AcDbEntity
  8
0
 62
     0
 48
0.2
100
AcDbLine
 10
318.204910668348
 20
204.9001891730011
 30
0.0
 11
318.204910668348
 21
264.9001891730011
 31
0.0
  0
CIRCLE
  5
125C
330
2
100
AcDbEntity
  8
0
 62
     4
 48
0.2
100
AcDbCircle
 10
320.704910668348
 20
305.4001891730016
 30
0.0
 40
1.5
  0
CIRCLE
  5
125D
330
2
100
AcDbEntity
  8
0
 62
     0
 48
0.2
100
AcDbCircle
 10
320.704910668348
 20
305.4001891730016
 30
0.0
 40
1.25
  0
LINE
  5
125E
330
2
100
AcDbEntity
  8
0
 62
     0
 48
0.2
100
AcDbLine
 10
318.204910668348
 20
267.3001891730012
 30
0.0
 11
323.204910668348
 21
267.3001891730012
 31
0.0
  0
LINE
  5
125F
330
2
100
AcDbEntity
  8
0
 62
     0
 48
0.2
100
AcDbLine
 10
323.204910668348
 20
267.3001891730012
 30
0.0
 11
323.204910668348
 21
202.5001891730014
 31
0.0
  0
LINE
  5
1260
330
2
100
AcDbEntity
  8
0
 62
     0
 48
0.2
100
AcDbLine
 10
323.204910668348
 20
202.5001891730014
 30
0.0
 11
318.204910668348
 21
202.5001891730014
 31
0.0
  0
LINE
  5
1261
330
2
100
AcDbEntity
  8
0
 62
     0
 48
0.2
100
AcDbLine
 10
318.204910668348
 20
202.5001891730014
 30
0.0
 11
318.204910668348
 21
267.3001891730012
 31
0.0
  0
LINE
  5
1262
330
2
100
AcDbEntity
  8
0
 62
     0
 48
0.2
100
AcDbLine
 10
323.204910668348
 20
287.4001891730015
 30
0.0
 11
323.204910668348
 21
274.5001891730014
 31
0.0
  0
LINE
  5
1263
330
2
100
AcDbEntity
  8
0
 62
     0
 48
0.2
100
AcDbLine
 10
323.204910668348
 20
274.5001891730014
 30
0.0
 11
318.204910668348
 21
274.5001891730014
 31
0.0
  0
LINE
  5
1264
330
2
100
AcDbEntity
  8
0
 62
     0
 48
0.2
100
AcDbLine
 10
318.204910668348
 20
274.5001891730014
 30
0.0
 11
318.204910668348
 21
336.3001891730016
 31
0.0
  0
LINE
  5
1265
330
2
100
AcDbEntity
  8
0
 62
     0
 48
0.2
100
AcDbLine
 10
318.204910668348
 20
336.3001891730016
 30
0.0
 11
323.204910668348
 21
336.3001891730016
 31
0.0
  0
LINE
  5
1266
330
2
100
AcDbEntity
  8
0
 62
     0
 48
0.2
100
AcDbLine
 10
323.204910668348
 20
336.3001891730016
 30
0.0
 11
323.204910668348
 21
323.4001891730015
 31
0.0
  0
LINE
  5
1267
330
2
100
AcDbEntity
  8
0
 62
     0
 48
0.2
100
AcDbLine
 10
318.204910668348
 20
321.400189173002
 30
0.0
 11
318.204910668348
 21
288.900189173002
 31
0.0
  0
LINE
  5
1268
330
2
100
AcDbEntity
  8
0
 62
     0
 48
0.2
100
AcDbLine
 10
473.204910668348
 20
267.3001891730012
 30
0.0
 11
477.704910668348
 21
267.3001891730012
 31
0.0
  0
LINE
  5
1269
330
2
100
AcDbEntity
  8
0
 62
     0
 48
0.2
100
AcDbLine
 10
477.704910668348
 20
267.1501891730011
 30
0.0
 11
478.204910668348
 21
267.1501891730011
 31
0.0
  0
LINE
  5
126A
330
2
100
AcDbEntity
  8
0
 62
     0
 48
0.2
100
AcDbLine
 10
478.204910668348
 20
267.3001891730012
 30
0.0
 11
478.204910668348
 21
234.9001891730013
 31
0.0
  0
LINE
  5
126B
330
2
100
AcDbEntity
  8
0
 62
     0
 48
0.2
100
AcDbLine
 10
477.704910668348
 20
267.3001891730012
 30
0.0
 11
477.704910668348
 21
234.9001891730013
 31
0.0
  0
LINE
  5
126C
330
2
100
AcDbEntity
  8
0
 62
     0
 48
0.2
100
AcDbLine
 10
480.204910668348
 20
265.3001891730012
 30
0.0
 11
480.204910668348
 21
204.5001891730014
 31
0.0
  0
LINE
  5
126D
330
2
100
AcDbEntity
  8
0
 62
     0
 48
0.2
100
AcDbLine
 10
478.204910668348
 20
202.5001891730014
 30
0.0
 11
480.204910668348
 21
204.5001891730014
 31
0.0
  0
LINE
  5
126E
330
2
100
AcDbEntity
  8
0
 62
     0
 48
0.2
100
AcDbLine
 10
478.204910668348
 20
267.3001891730012
 30
0.0
 11
480.204910668348
 21
265.3001891730012
 31
0.0
  0
LINE
  5
126F
330
2
100
AcDbEntity
  8
0
 62
     0
 48
0.2
100
AcDbLine
 10
478.204910668348
 20
202.5001891730014
 30
0.0
 11
473.204910668348
 21
202.5001891730014
 31
0.0
  0
LINE
  5
1270
330
2
100
AcDbEntity
  8
0
 62
     0
 48
0.2
100
AcDbLine
 10
473.204910668348
 20
195.5001891730014
 30
0.0
 11
473.204910668348
 21
267.3001891730012
 31
0.0
  0
LINE
  5
1271
330
2
100
AcDbEntity
  8
0
 62
     0
 48
0.2
100
AcDbLine
 10
323.704910668348
 20
267.4001891730011
 30
0.0
 11
472.7049106683478
 21
267.4001891730011
 31
0.0
  0
LINE
  5
1272
330
2
100
AcDbEntity
  8
0
 62
     0
 48
0.2
100
AcDbLine
 10
472.7049106683478
 20
267.4001891730011
 30
0.0
 11
472.7049106683478
 21
202.4001891730011
 31
0.0
  0
LINE
  5
1273
330
2
100
AcDbEntity
  8
0
 62
     0
 48
0.2
100
AcDbLine
 10
472.7049106683478
 20
202.4001891730011
 30
0.0
 11
323.704910668348
 21
202.4001891730011
 31
0.0
  0
LINE
  5
1274
330
2
100
AcDbEntity
  8
0
 62
     0
 48
0.2
100
AcDbLine
 10
323.704910668348
 20
202.4001891730011
 30
0.0
 11
323.704910668348
 21
267.4001891730011
 31
0.0
  0
LINE
  5
1275
330
2
100
AcDbEntity
  8
0
 62
     0
 48
0.2
100
AcDbLine
 10
472.7049106683478
 20
264.6501891730011
 30
0.0
 11
472.7049106683478
 21
205.1501891730011
 31
0.0
  0
LINE
  5
1276
330
2
100
AcDbEntity
  8
0
 62
     0
 48
0.2
100
AcDbLine
 10
323.704910668348
 20
205.1501891730011
 30
0.0
 11
323.704910668348
 21
264.6501891730011
 31
0.0
  0
LINE
  5
1277
330
2
100
AcDbEntity
  8
0
 62
     0
 48
0.2
100
AcDbLine
 10
513.204910668348
 20
267.4001891730015
 30
0.0
 11
567.204910668348
 21
267.4001891730015
 31
0.0
  0
ARC
  5
1278
330
2
100
AcDbEntity
  8
0
 62
     0
 48
0.2
100
AcDbCircle
 10
567.204910668348
 20
263.4001891730015
 30
0.0
 40
4.0
100
AcDbArc
 50
0.0
 51
90.0
  0
LINE
  5
1279
330
2
100
AcDbEntity
  8
0
 62
     0
 48
0.2
100
AcDbLine
 10
571.204910668348
 20
263.4001891730015
 30
0.0
 11
571.204910668348
 21
206.4001891730015
 31
0.0
  0
ARC
  5
127A
330
2
100
AcDbEntity
  8
0
 62
     0
 48
0.2
100
AcDbCircle
 10
567.204910668348
 20
206.4001891730015
 30
0.0
 40
4.0
100
AcDbArc
 50
270.0
 51
0.0
  0
LINE
  5
127B
330
2
100
AcDbEntity
  8
0
 62
     0
 48
0.2
100
AcDbLine
 10
567.204910668348
 20
202.4001891730015
 30
0.0
 11
513.204910668348
 21
202.4001891730015
 31
0.0
  0
ARC
  5
127C
330
2
100
AcDbEntity
  8
0
 62
     0
 48
0.2
100
AcDbCircle
 10
513.204910668348
 20
206.4001891730015
 30
0.0
 40
4.0
100
AcDbArc
 50
180.0
 51
270.0
  0
LINE
  5
127D
330
2
100
AcDbEntity
  8
0
 62
     0
 48
0.2
100
AcDbLine
 10
509.204910668348
 20
206.4001891730015
 30
0.0
 11
509.204910668348
 21
263.4001891730015
 31
0.0
  0
ARC
  5
127E
330
2
100
AcDbEntity
  8
0
 62
     0
 48
0.2
100
AcDbCircle
 10
513.204910668348
 20
263.4001891730015
 30
0.0
 40
4.0
100
AcDbArc
 50
90.0
 51
180.0
  0
LINE
  5
127F
330
2
100
AcDbEntity
  8
0
 62
     0
 48
0.2
100
AcDbLine
 10
323.704910668348
 20
336.4001891730016
 30
0.0
 11
472.7049106683478
 21
336.4001891730016
 31
0.0
  0
LINE
  5
1280
330
2
100
AcDbEntity
  8
0
 62
     0
 48
0.2
100
AcDbLine
 10
472.7049106683478
 20
336.4001891730016
 30
0.0
 11
472.7049106683478
 21
274.4001891730015
 31
0.0
  0
LINE
  5
1281
330
2
100
AcDbEntity
  8
0
 62
     0
 48
0.2
100
AcDbLine
 10
472.7049106683478
 20
274.4001891730015
 30
0.0
 11
323.704910668348
 21
274.4001891730015
 31
0.0
  0
LINE
  5
1282
330
2
100
AcDbEntity
  8
0
 62
     0
 48
0.2
100
AcDbLine
 10
323.704910668348
 20
274.4001891730015
 30
0.0
 11
323.704910668348
 21
336.4001891730016
 31
0.0
  0
LINE
  5
1283
330
2
100
AcDbEntity
  8
0
 62
     0
 48
0.2
100
AcDbLine
 10
473.204910668348
 20
336.3001891730016
 30
0.0
 11
477.704910668348
 21
336.3001891730016
 31
0.0
  0
LINE
  5
1284
330
2
100
AcDbEntity
  8
0
 62
     0
 48
0.2
100
AcDbLine
 10
478.204910668348
 20
336.3001891730016
 30
0.0
 11
478.204910668348
 21
274.5001891730014
 31
0.0
  0
LINE
  5
1285
330
2
100
AcDbEntity
  8
0
 62
     0
 48
0.2
100
AcDbLine
 10
477.704910668348
 20
336.3001891730016
 30
0.0
 11
477.704910668348
 21
274.5001891730014
 31
0.0
  0
LINE
  5
1286
330
2
100
AcDbEntity
  8
0
 62
     0
 48
0.2
100
AcDbLine
 10
480.204910668348
 20
334.3001891730016
 30
0.0
 11
480.204910668348
 21
276.5001891730017
 31
0.0
  0
LINE
  5
1287
330
2
100
AcDbEntity
  8
0
 62
     0
 48
0.2
100
AcDbLine
 10
478.204910668348
 20
274.5001891730017
 30
0.0
 11
480.204910668348
 21
276.5001891730017
 31
0.0
  0
LINE
  5
1288
330
2
100
AcDbEntity
  8
0
 62
     0
 48
0.2
100
AcDbLine
 10
478.204910668348
 20
336.3001891730016
 30
0.0
 11
480.204910668348
 21
334.3001891730016
 31
0.0
  0
LINE
  5
1289
330
2
100
AcDbEntity
  8
0
 62
     0
 48
0.2
100
AcDbLine
 10
477.704910668348
 20
274.5001891730017
 30
0.0
 11
473.204910668348
 21
274.5001891730014
 31
0.0
  0
LINE
  5
128A
330
2
100
AcDbEntity
  8
0
 62
     0
 48
0.2
100
AcDbLine
 10
473.204910668348
 20
274.5001891730014
 30
0.0
 11
473.204910668348
 21
336.3001891730016
 31
0.0
  0
LINE
  5
128B
330
2
100
AcDbEntity
  8
0
 62
     0
 48
0.2
100
AcDbLine
 10
318.204910668348
 20
322.1501891730015
 30
0.0
 11
318.204910668348
 21
318.400189173002
 31
0.0
  0
LINE
  5
128C
330
2
100
AcDbEntity
  8
0
 62
     0
 48
0.2
100
AcDbLine
 10
318.204910668348
 20
292.4001891730015
 30
0.0
 11
318.204910668348
 21
288.6501891730016
 31
0.0
  0
LINE
  5
128D
330
2
100
AcDbEntity
  8
0
 62
     0
 48
0.5
100
AcDbLine
 10
520.204910668348
 20
195.4001891730015
 30
0.0
 11
560.2049106683478
 21
195.4001891730015
 31
0.0
  0
LINE
  5
128E
330
2
100
AcDbEntity
  8
0
 62
     0
 48
0.5
100
AcDbLine
 10
560.2049106683478
 20
195.4001891730015
 30
0.0
 11
565.204910668348
 21
202.4001891730015
 31
0.0
  0
LINE
  5
128F
330
2
100
AcDbEntity
  8
0
 62
     0
 48
0.5
100
AcDbLine
 10
520.204910668348
 20
195.4001891730015
 30
0.0
 11
515.204910668348
 21
202.4001891730015
 31
0.0
  0
LINE
  5
1290
330
2
100
AcDbEntity
  8
0
 62
     0
 48
0.5
100
AcDbLine
 10
323.704910668348
 20
202.4001891730011
 30
0.0
 11
323.704910668348
 21
195.4001891730015
 31
0.0
  0
LINE
  5
1291
330
2
100
AcDbEntity
  8
0
 62
     0
 48
0.5
100
AcDbLine
 10
472.7049106683478
 20
195.4001891730015
 30
0.0
 11
323.704910668348
 21
195.4001891730015
 31
0.0
  0
LINE
  5
1292
330
2
100
AcDbEntity
  8
0
 62
     0
 48
0.5
100
AcDbLine
 10
472.7049106683478
 20
202.4001891730011
 30
0.0
 11
472.7049106683478
 21
195.4001891730015
 31
0.0
  0
LINE
  5
1293
330
2
100
AcDbEntity
  8
0
 62
     0
 48
0.5
100
AcDbLine
 10
319.204910668348
 20
305.4001891730016
 30
0.0
 11
318.204910668348
 21
305.4001891730016
 31
0.0
  0
LINE
  5
1294
330
2
100
AcDbEntity
  8
0
 62
     0
 48
0.5
100
AcDbLine
 10
472.7049106683478
 20
267.1501891730011
 30
0.0
 11
473.204910668348
 21
267.1501891730011
 31
0.0
  0
LINE
  5
1295
330
2
100
AcDbEntity
  8
0
 62
     0
 48
0.5
100
AcDbLine
 10
473.204910668348
 20
267.1501891730011
 30
0.0
 11
473.204910668348
 21
202.6501891730011
 31
0.0
  0
LINE
  5
1296
330
2
100
AcDbEntity
  8
0
 62
     0
 48
0.5
100
AcDbLine
 10
473.204910668348
 20
202.6501891730011
 30
0.0
 11
472.7049106683478
 21
202.6501891730011
 31
0.0
  0
LINE
  5
1297
330
2
100
AcDbEntity
  8
0
 62
     0
 48
0.5
100
AcDbLine
 10
472.7049106683478
 20
202.6501891730011
 30
0.0
 11
472.7049106683478
 21
267.1501891730011
 31
0.0
  0
LWPOLYLINE
  5
1298
330
2
100
AcDbEntity
  8
0
 62
     0
 48
0.5
100
AcDbPolyline
 90
        4
 70
     1
 43
0.0
 10
323.704910668348
 20
267.1501891730011
 10
323.204910668348
 20
267.1501891730011
 10
323.204910668348
 20
202.6501891730011
 10
323.704910668348
 20
202.6501891730011
  0
LWPOLYLINE
  5
1299
330
2
100
AcDbEntity
  8
0
 62
     0
 48
0.5
100
AcDbPolyline
 90
        4
 70
     1
 43
0.0
 10
472.7049106683478
 20
274.6501891730015
 10
472.7049106683478
 20
336.1501891730015
 10
473.204910668348
 20
336.1501891730015
 10
473.204910668348
 20
274.6501891730015
  0
LWPOLYLINE
  5
129A
330
2
100
AcDbEntity
  8
0
 62
     0
 48
0.5
100
AcDbPolyline
 90
        4
 70
     1
 43
0.0
 10
323.704910668348
 20
274.6501891730015
 10
323.704910668348
 20
336.1501891730015
 10
323.204910668348
 20
336.1501891730015
 10
323.204910668348
 20
274.6501891730015
  0
CIRCLE
  5
129B
330
2
100
AcDbEntity
  8
0
 62
     0
100
AcDbCircle
 10
289.704910668348
 20
263.4001891730015
 30
0.0
 40
2.75
  0
LWPOLYLINE
  5
129C
330
2
100
AcDbEntity
  8
0
 62
     0
100
AcDbPolyline
 90
        6
 70
     1
 43
0.0
 10
289.127560399158
 20
262.4001891730015
 10
288.5502101299699
 20
263.4001891730015
 10
289.127560399158
 20
264.4001891730015
 10
290.282260937538
 20
264.4001891730015
 10
290.859611206728
 20
263.4001891730015
 10
290.282260937538
 20
262.4001891730015
  0
CIRCLE
  5
129D
330
2
100
AcDbEntity
  8
0
 62
     0
100
AcDbCircle
 10
235.704910668348
 20
263.4001891730015
 30
0.0
 40
2.75
  0
LWPOLYLINE
  5
129E
330
2
100
AcDbEntity
  8
0
 62
     0
100
AcDbPolyline
 90
        6
 70
     1
 43
0.0
 10
236.282260937538
 20
262.4001891730015
 10
236.859611206728
 20
263.4001891730015
 10
236.282260937538
 20
264.4001891730015
 10
235.127560399158
 20
264.4001891730015
 10
234.5502101299699
 20
263.4001891730015
 10
235.127560399158
 20
262.4001891730015
  0
CIRCLE
  5
129F
330
2
100
AcDbEntity
  8
0
 62
     0
100
AcDbCircle
 10
289.704910668348
 20
206.4001891730015
 30
0.0
 40
2.75
  0
LWPOLYLINE
  5
12A0
330
2
100
AcDbEntity
  8
0
 62
     0
100
AcDbPolyline
 90
        6
 70
     1
 43
0.0
 10
289.127560399158
 20
207.4001891730016
 10
288.5502101299699
 20
206.4001891730015
 10
289.127560399158
 20
205.4001891730016
 10
290.282260937538
 20
205.4001891730016
 10
290.859611206728
 20
206.4001891730015
 10
290.282260937538
 20
207.4001891730016
  0
CIRCLE
  5
12A1
330
2
100
AcDbEntity
  8
0
 62
     0
100
AcDbCircle
 10
235.704910668348
 20
206.4001891730015
 30
0.0
 40
2.75
  0
LWPOLYLINE
  5
12A2
330
2
100
AcDbEntity
  8
0
 62
     0
100
AcDbPolyline
 90
        6
 70
     1
 43
0.0
 10
236.282260937538
 20
207.4001891730016
 10
236.859611206728
 20
206.4001891730015
 10
236.282260937538
 20
205.4001891730016
 10
235.127560399158
 20
205.4001891730016
 10
234.5502101299699
 20
206.4001891730015
 10
235.127560399158
 20
207.4001891730016
  0
CIRCLE
  5
12A3
330
2
100
AcDbEntity
  8
0
 62
     0
 48
0.2
100
AcDbCircle
 10
289.704910668348
 20
263.4001891730015
 30
0.0
 40
3.0
  0
CIRCLE
  5
12A4
330
2
100
AcDbEntity
  8
0
 62
     0
 48
0.2
100
AcDbCircle
 10
235.704910668348
 20
263.4001891730015
 30
0.0
 40
3.0
  0
CIRCLE
  5
12A5
330
2
100
AcDbEntity
  8
0
 62
     0
 48
0.2
100
AcDbCircle
 10
289.704910668348
 20
206.4001891730015
 30
0.0
 40
3.0
  0
CIRCLE
  5
12A6
330
2
100
AcDbEntity
  8
0
 62
     0
 48
0.2
100
AcDbCircle
 10
235.704910668348
 20
206.4001891730015
 30
0.0
 40
3.0
  0
LWPOLYLINE
  5
12A7
330
2
100
AcDbEntity
  8
0
 62
     0
 48
0.2
100
AcDbPolyline
 90
        8
 70
     1
 43
0.0
 10
289.704910668348
 20
267.4001891730015
 10
235.704910668348
 20
267.4001891730015
 42
0.4142135623730951
 10
231.704910668348
 20
263.4001891730015
 10
231.704910668348
 20
206.4001891730015
 42
0.4142135623730951
 10
235.704910668348
 20
202.4001891730015
 10
289.704910668348
 20
202.4001891730015
 42
0.4142135623730951
 10
293.704910668348
 20
206.4001891730015
 10
293.704910668348
 20
263.4001891730015
 42
0.4142135623730951
  0
LINE
  5
12A8
330
2
100
AcDbEntity
  8
0
 62
     0
 48
0.5
100
AcDbLine
 10
282.704910668348
 20
195.4001891730015
 30
0.0
 11
242.704910668348
 21
195.4001891730015
 31
0.0
  0
LINE
  5
12A9
330
2
100
AcDbEntity
  8
0
 62
     0
 48
0.5
100
AcDbLine
 10
242.704910668348
 20
195.4001891730015
 30
0.0
 11
237.704910668348
 21
202.4001891730015
 31
0.0
  0
LINE
  5
12AA
330
2
100
AcDbEntity
  8
0
 62
     0
 48
0.5
100
AcDbLine
 10
282.704910668348
 20
195.4001891730015
 30
0.0
 11
287.704910668348
 21
202.4001891730015
 31
0.0
  0
CIRCLE
  5
12AB
330
2
100
AcDbEntity
  8
0
 62
     0
100
AcDbCircle
 10
262.704910668348
 20
250.4001891730015
 30
0.0
 40
16.75
  0
CIRCLE
  5
12AC
330
2
100
AcDbEntity
  8
0
 62
     0
100
AcDbCircle
 10
262.704910668348
 20
250.4001891730015
 30
0.0
 40
15.75
  0
CIRCLE
  5
12AD
330
2
100
AcDbEntity
  8
0
 62
     0
100
AcDbCircle
 10
262.704910668348
 20
250.4001891730015
 30
0.0
 40
12.0
  0
CIRCLE
  5
12AE
330
2
100
AcDbEntity
  8
0
 62
     0
100
AcDbCircle
 10
262.704910668348
 20
250.4001891730015
 30
0.0
 40
11.0
  0
LINE
  5
12AF
330
2
100
AcDbEntity
  8
0
  6
CENTER
 62
     4
 48
2.0
100
AcDbLine
 10
242.704910668348
 20
250.4001891730015
 30
0.0
 11
282.704910668348
 21
250.4001891730015
 31
0.0
1001
GENIUS_GENOBJ-N-CEN_13
1002
{
1000
OWNER
1000
GEN
1002
}
1001
GENIUS_GENODEF_13
1002
{
1000
HIER
1070
     0
1002
}
1002
{
1000
MANEDIT
1070
     0
1002
}
1002
{
1000
NOSEL
1070
     0
1002
}
1002
{
1000
BEHIND
1070
     0
1002
}
1002
{
1000
OTHER
1070
     0
1002
}
1002
{
1000
REACTOR
1002
}
1001
GENIUS_GENCEN_19
1002
{
1040
3.0
1002
}
  0
LINE
  5
12B0
330
2
100
AcDbEntity
  8
0
  6
CENTER
 62
     4
 48
2.0
100
AcDbLine
 10
528.704910668348
 20
250.4001891730015
 30
0.0
 11
551.7049106683479
 21
250.4001891730015
 31
0.0
1001
GENIUS_GENOBJ-N-CEN_13
1002
{
1000
OWNER
1000
GEN
1002
}
1001
GENIUS_GENODEF_13
1002
{
1000
HIER
1070
     0
1002
}
1002
{
1000
MANEDIT
1070
     0
1002
}
1002
{
1000
NOSEL
1070
     0
1002
}
1002
{
1000
BEHIND
1070
     0
1002
}
1002
{
1000
OTHER
1070
     0
1002
}
1002
{
1000
REACTOR
1002
}
1001
GENIUS_GENCEN_19
1002
{
1040
3.0
1002
}
  0
LINE
  5
12B1
330
2
100
AcDbEntity
  8
0
 62
     0
 48
0.2
100
AcDbLine
 10
323.204910668348
 20
155.9001891730015
 30
0.0
 11
323.204910668348
 21
168.8001891730016
 31
0.0
  0
LINE
  5
12B2
330
2
100
AcDbEntity
  8
0
 62
     0
 48
0.2
100
AcDbLine
 10
323.204910668348
 20
168.8001891730016
 30
0.0
 11
318.204910668348
 21
168.8001891730016
 31
0.0
  0
LINE
  5
12B3
330
2
100
AcDbEntity
  8
0
 62
     0
 48
0.2
100
AcDbLine
 10
318.204910668348
 20
168.8001891730016
 30
0.0
 11
318.204910668348
 21
107.0001891730014
 31
0.0
  0
LINE
  5
12B4
330
2
100
AcDbEntity
  8
0
 62
     0
 48
0.2
100
AcDbLine
 10
318.204910668348
 20
107.0001891730014
 30
0.0
 11
323.204910668348
 21
107.0001891730014
 31
0.0
  0
LINE
  5
12B5
330
2
100
AcDbEntity
  8
0
 62
     0
 48
0.2
100
AcDbLine
 10
323.204910668348
 20
107.0001891730014
 30
0.0
 11
323.204910668348
 21
119.9001891730015
 31
0.0
  0
LINE
  5
12B6
330
2
100
AcDbEntity
  8
0
 62
     0
 48
0.2
100
AcDbLine
 10
318.204910668348
 20
121.6501891730015
 30
0.0
 11
318.204910668348
 21
154.1501891730015
 31
0.0
  0
LINE
  5
12B7
330
2
100
AcDbEntity
  8
0
 62
     0
 48
0.2
100
AcDbLine
 10
323.704910668348
 20
106.9001891730015
 30
0.0
 11
472.7049106683478
 21
106.9001891730015
 31
0.0
  0
LINE
  5
12B8
330
2
100
AcDbEntity
  8
0
 62
     0
 48
0.2
100
AcDbLine
 10
472.7049106683478
 20
106.9001891730015
 30
0.0
 11
472.7049106683478
 21
168.9001891730015
 31
0.0
  0
LINE
  5
12B9
330
2
100
AcDbEntity
  8
0
 62
     0
 48
0.2
100
AcDbLine
 10
472.7049106683478
 20
168.9001891730015
 30
0.0
 11
323.704910668348
 21
168.9001891730015
 31
0.0
  0
LINE
  5
12BA
330
2
100
AcDbEntity
  8
0
 62
     0
 48
0.2
100
AcDbLine
 10
323.704910668348
 20
168.9001891730015
 30
0.0
 11
323.704910668348
 21
106.9001891730015
 31
0.0
  0
LINE
  5
12BB
330
2
100
AcDbEntity
  8
0
 62
     0
 48
0.2
100
AcDbLine
 10
473.204910668348
 20
107.0001891730014
 30
0.0
 11
478.204910668348
 21
107.0001891730014
 31
0.0
  0
LINE
  5
12BC
330
2
100
AcDbEntity
  8
0
 62
     0
 48
0.2
100
AcDbLine
 10
478.204910668348
 20
107.0001891730014
 30
0.0
 11
478.204910668348
 21
116.1501891729983
 31
0.0
  0
LINE
  5
12BD
330
2
100
AcDbEntity
  8
0
 62
     0
 48
0.2
100
AcDbLine
 10
478.204910668348
 20
119.6501891729981
 30
0.0
 11
478.204910668348
 21
156.1501891729983
 31
0.0
  0
LINE
  5
12BE
330
2
100
AcDbEntity
  8
0
 62
     0
 48
0.2
100
AcDbLine
 10
478.204910668348
 20
159.6501891729983
 30
0.0
 11
478.204910668348
 21
168.8001891730016
 31
0.0
  0
LINE
  5
12BF
330
2
100
AcDbEntity
  8
0
 62
     0
 48
0.2
100
AcDbLine
 10
480.204910668348
 20
109.0001891730014
 30
0.0
 11
480.204910668348
 21
166.8001891730018
 31
0.0
  0
LINE
  5
12C0
330
2
100
AcDbEntity
  8
0
 62
     0
 48
0.2
100
AcDbLine
 10
478.204910668348
 20
107.0001891730014
 30
0.0
 11
480.204910668348
 21
109.0001891730014
 31
0.0
  0
LINE
  5
12C1
330
2
100
AcDbEntity
  8
0
 62
     0
 48
0.2
100
AcDbLine
 10
478.204910668348
 20
168.8001891730018
 30
0.0
 11
480.204910668348
 21
166.8001891730018
 31
0.0
  0
LINE
  5
12C2
330
2
100
AcDbEntity
  8
0
 62
     0
 48
0.2
100
AcDbLine
 10
478.204910668348
 20
168.8001891730018
 30
0.0
 11
473.204910668348
 21
168.8001891730016
 31
0.0
  0
LINE
  5
12C3
330
2
100
AcDbEntity
  8
0
 62
     0
 48
0.2
100
AcDbLine
 10
473.204910668348
 20
168.8001891730016
 30
0.0
 11
473.204910668348
 21
107.0001891730014
 31
0.0
  0
LINE
  5
12C4
330
2
100
AcDbEntity
  8
0
 62
     0
 48
0.2
100
AcDbLine
 10
318.204910668348
 20
121.1501891730015
 30
0.0
 11
318.204910668348
 21
124.900189173001
 31
0.0
  0
LINE
  5
12C5
330
2
100
AcDbEntity
  8
0
 62
     0
 48
0.2
100
AcDbLine
 10
318.204910668348
 20
150.9001891730015
 30
0.0
 11
318.204910668348
 21
154.6501891730015
 31
0.0
  0
LWPOLYLINE
  5
12C6
330
2
100
AcDbEntity
  8
0
 62
     0
 48
0.5
100
AcDbPolyline
 90
        4
 70
     1
 43
0.0
 10
472.7049106683478
 20
168.6501891730015
 10
472.7049106683478
 20
107.1501891730015
 10
473.204910668348
 20
107.1501891730015
 10
473.204910668348
 20
168.6501891730015
  0
LWPOLYLINE
  5
12C7
330
2
100
AcDbEntity
  8
0
 62
     0
 48
0.5
100
AcDbPolyline
 90
        4
 70
     1
 43
0.0
 10
323.704910668348
 20
168.6501891730015
 10
323.704910668348
 20
107.1501891730015
 10
323.204910668348
 20
107.1501891730015
 10
323.204910668348
 20
168.6501891730015
  0
CIRCLE
  5
12C8
330
2
100
AcDbEntity
  8
0
 62
     0
 48
0.5
100
AcDbCircle
 10
398.204910668348
 20
137.9001891730015
 30
0.0
 40
2.680000000000004
  0
CIRCLE
  5
12C9
330
2
100
AcDbEntity
  8
0
 62
     4
 48
0.5
100
AcDbCircle
 10
398.204910668348
 20
137.9001891730015
 30
0.0
 40
3.175000000000011
  0
CIRCLE
  5
12CA
330
2
100
AcDbEntity
  8
0
 62
     0
 48
0.5
100
AcDbCircle
 10
363.204910668348
 20
122.9001891730015
 30
0.0
 40
1.650000000000004
  0
CIRCLE
  5
12CB
330
2
100
AcDbEntity
  8
0
 62
     4
 48
0.5
100
AcDbCircle
 10
363.204910668348
 20
122.9001891730015
 30
0.0
 40
2.0
  0
CIRCLE
  5
12CC
330
2
100
AcDbEntity
  8
0
 62
     0
 48
0.5
100
AcDbCircle
 10
363.204910668348
 20
152.9001891730015
 30
0.0
 40
1.650000000000004
  0
CIRCLE
  5
12CD
330
2
100
AcDbEntity
  8
0
 62
     4
 48
0.5
100
AcDbCircle
 10
363.204910668348
 20
152.9001891730015
 30
0.0
 40
2.0
  0
CIRCLE
  5
12CE
330
2
100
AcDbEntity
  8
0
 62
     0
 48
0.5
100
AcDbCircle
 10
433.204910668348
 20
152.9001891730015
 30
0.0
 40
1.650000000000004
  0
CIRCLE
  5
12CF
330
2
100
AcDbEntity
  8
0
 62
     4
 48
0.5
100
AcDbCircle
 10
433.204910668348
 20
152.9001891730015
 30
0.0
 40
2.0
  0
CIRCLE
  5
12D0
330
2
100
AcDbEntity
  8
0
 62
     0
 48
0.5
100
AcDbCircle
 10
433.204910668348
 20
122.9001891730015
 30
0.0
 40
1.650000000000004
  0
CIRCLE
  5
12D1
330
2
100
AcDbEntity
  8
0
 62
     4
 48
0.5
100
AcDbCircle
 10
433.204910668348
 20
122.9001891730015
 30
0.0
 40
2.0
  0
LINE
  5
12D2
330
2
100
AcDbEntity
  8
0
 62
     0
100
AcDbLine
 10
323.704910668348
 20
162.9001891730015
 30
0.0
 11
472.7049106683478
 21
162.9001891730015
 31
0.0
  0
LINE
  5
12D3
330
2
100
AcDbEntity
  8
0
 62
     0
100
AcDbLine
 10
473.204910668348
 20
162.9001891730015
 30
0.0
 11
477.204910668348
 21
162.9001891730015
 31
0.0
  0
LINE
  5
12D4
330
2
100
AcDbEntity
  8
0
 62
     0
100
AcDbLine
 10
477.204910668348
 20
157.9001891730015
 30
0.0
 11
473.204910668348
 21
157.9001891730015
 31
0.0
  0
LINE
  5
12D5
330
2
100
AcDbEntity
  8
0
 62
     0
100
AcDbLine
 10
472.7049106683478
 20
157.9001891730015
 30
0.0
 11
323.704910668348
 21
157.9001891730015
 31
0.0
  0
LINE
  5
12D6
330
2
100
AcDbEntity
  8
0
 62
     0
100
AcDbLine
 10
323.704910668348
 20
112.9001891730015
 30
0.0
 11
472.7049106683478
 21
112.9001891730015
 31
0.0
  0
LINE
  5
12D7
330
2
100
AcDbEntity
  8
0
 62
     0
100
AcDbLine
 10
472.7049106683478
 20
117.9001891730015
 30
0.0
 11
323.704910668348
 21
117.9001891730015
 31
0.0
  0
LINE
  5
12D8
330
2
100
AcDbEntity
  8
0
  6
CENTER
 62
     4
 48
2.0
100
AcDbLine
 10
359.204910668348
 20
152.9001891730015
 30
0.0
 11
367.204910668348
 21
152.9001891730015
 31
0.0
1001
GENIUS_GENOBJ-N-CEN_13
1002
{
1000
OWNER
1000
GEN
1002
}
1001
GENIUS_GENODEF_13
1002
{
1000
HIER
1070
     0
1002
}
1002
{
1000
MANEDIT
1070
     0
1002
}
1002
{
1000
NOSEL
1070
     0
1002
}
1002
{
1000
BEHIND
1070
     0
1002
}
1002
{
1000
OTHER
1070
     0
1002
}
1002
{
1000
REACTOR
1002
}
1001
GENIUS_GENCEN_19
1002
{
1040
3.0
1002
}
  0
LINE
  5
12D9
330
2
100
AcDbEntity
  8
0
  6
CENTER
 62
     4
 48
2.0
100
AcDbLine
 10
363.204910668348
 20
148.9001891730015
 30
0.0
 11
363.204910668348
 21
156.9001891730015
 31
0.0
1001
GENIUS_GENODEF_13
1002
{
1000
HIER
1070
     0
1002
}
1002
{
1000
MANEDIT
1070
     0
1002
}
1002
{
1000
NOSEL
1070
     0
1002
}
1002
{
1000
BEHIND
1070
     0
1002
}
1002
{
1000
OTHER
1070
     0
1002
}
1002
{
1000
REACTOR
1002
}
1001
GENIUS_GENOBJ-N-CEN_13
1002
{
1000
OWNER
1000
GEN
1002
}
1001
GENIUS_GENCEN_19
1002
{
1040
3.0
1002
}
  0
LINE
  5
12DA
330
2
100
AcDbEntity
  8
0
  6
CENTER
 62
     4
 48
2.0
100
AcDbLine
 10
429.204910668348
 20
152.9001891730015
 30
0.0
 11
437.204910668348
 21
152.9001891730015
 31
0.0
1001
GENIUS_GENOBJ-N-CEN_13
1002
{
1000
OWNER
1000
GEN
1002
}
1001
GENIUS_GENODEF_13
1002
{
1000
HIER
1070
     0
1002
}
1002
{
1000
MANEDIT
1070
     0
1002
}
1002
{
1000
NOSEL
1070
     0
1002
}
1002
{
1000
BEHIND
1070
     0
1002
}
1002
{
1000
OTHER
1070
     0
1002
}
1002
{
1000
REACTOR
1002
}
1001
GENIUS_GENCEN_19
1002
{
1040
3.0
1002
}
  0
LINE
  5
12DB
330
2
100
AcDbEntity
  8
0
  6
CENTER
 62
     4
 48
2.0
100
AcDbLine
 10
433.204910668348
 20
148.9001891730015
 30
0.0
 11
433.204910668348
 21
156.9001891730015
 31
0.0
1001
GENIUS_GENODEF_13
1002
{
1000
HIER
1070
     0
1002
}
1002
{
1000
MANEDIT
1070
     0
1002
}
1002
{
1000
NOSEL
1070
     0
1002
}
1002
{
1000
BEHIND
1070
     0
1002
}
1002
{
1000
OTHER
1070
     0
1002
}
1002
{
1000
REACTOR
1002
}
1001
GENIUS_GENOBJ-N-CEN_13
1002
{
1000
OWNER
1000
GEN
1002
}
1001
GENIUS_GENCEN_19
1002
{
1040
3.0
1002
}
  0
LINE
  5
12DC
330
2
100
AcDbEntity
  8
0
  6
CENTER
 62
     4
 48
2.0
100
AcDbLine
 10
359.204910668348
 20
122.9001891730015
 30
0.0
 11
367.204910668348
 21
122.9001891730015
 31
0.0
1001
GENIUS_GENOBJ-N-CEN_13
1002
{
1000
OWNER
1000
GEN
1002
}
1001
GENIUS_GENODEF_13
1002
{
1000
HIER
1070
     0
1002
}
1002
{
1000
MANEDIT
1070
     0
1002
}
1002
{
1000
NOSEL
1070
     0
1002
}
1002
{
1000
BEHIND
1070
     0
1002
}
1002
{
1000
OTHER
1070
     0
1002
}
1002
{
1000
REACTOR
1002
}
1001
GENIUS_GENCEN_19
1002
{
1040
3.0
1002
}
  0
LINE
  5
12DD
330
2
100
AcDbEntity
  8
0
  6
CENTER
 62
     4
 48
2.0
100
AcDbLine
 10
363.204910668348
 20
118.9001891730015
 30
0.0
 11
363.204910668348
 21
126.9001891730015
 31
0.0
1001
GENIUS_GENODEF_13
1002
{
1000
HIER
1070
     0
1002
}
1002
{
1000
MANEDIT
1070
     0
1002
}
1002
{
1000
NOSEL
1070
     0
1002
}
1002
{
1000
BEHIND
1070
     0
1002
}
1002
{
1000
OTHER
1070
     0
1002
}
1002
{
1000
REACTOR
1002
}
1001
GENIUS_GENOBJ-N-CEN_13
1002
{
1000
OWNER
1000
GEN
1002
}
1001
GENIUS_GENCEN_19
1002
{
1040
3.0
1002
}
  0
LINE
  5
12DE
330
2
100
AcDbEntity
  8
0
  6
CENTER
 62
     4
 48
2.0
100
AcDbLine
 10
429.204910668348
 20
122.9001891730015
 30
0.0
 11
437.204910668348
 21
122.9001891730015
 31
0.0
1001
GENIUS_GENOBJ-N-CEN_13
1002
{
1000
OWNER
1000
GEN
1002
}
1001
GENIUS_GENODEF_13
1002
{
1000
HIER
1070
     0
1002
}
1002
{
1000
MANEDIT
1070
     0
1002
}
1002
{
1000
NOSEL
1070
     0
1002
}
1002
{
1000
BEHIND
1070
     0
1002
}
1002
{
1000
OTHER
1070
     0
1002
}
1002
{
1000
REACTOR
1002
}
1001
GENIUS_GENCEN_19
1002
{
1040
3.0
1002
}
  0
LINE
  5
12DF
330
2
100
AcDbEntity
  8
0
  6
CENTER
 62
     4
 48
2.0
100
AcDbLine
 10
433.204910668348
 20
118.9001891730015
 30
0.0
 11
433.204910668348
 21
126.9001891730015
 31
0.0
1001
GENIUS_GENODEF_13
1002
{
1000
HIER
1070
     0
1002
}
1002
{
1000
MANEDIT
1070
     0
1002
}
1002
{
1000
NOSEL
1070
     0
1002
}
1002
{
1000
BEHIND
1070
     0
1002
}
1002
{
1000
OTHER
1070
     0
1002
}
1002
{
1000
REACTOR
1002
}
1001
GENIUS_GENOBJ-N-CEN_13
1002
{
1000
OWNER
1000
GEN
1002
}
1001
GENIUS_GENCEN_19
1002
{
1040
3.0
1002
}
  0
LINE
  5
12E0
330
2
100
AcDbEntity
  8
0
  6
CENTER
 62
     4
 48
2.0
100
AcDbLine
 10
398.204910668348
 20
131.4001891730015
 30
0.0
 11
398.204910668348
 21
144.4001891730015
 31
0.0
1001
GENIUS_GENODEF_13
1002
{
1000
HIER
1070
     0
1002
}
1002
{
1000
MANEDIT
1070
     0
1002
}
1002
{
1000
NOSEL
1070
     0
1002
}
1002
{
1000
BEHIND
1070
     0
1002
}
1002
{
1000
OTHER
1070
     0
1002
}
1002
{
1000
REACTOR
1002
}
1001
GENIUS_GENOBJ-N-CEN_13
1002
{
1000
OWNER
1000
GEN
1002
}
1001
GENIUS_GENCEN_19
1002
{
1040
3.0
1002
}
  0
LINE
  5
12E1
330
2
100
AcDbEntity
  8
0
 62
     0
 48
0.5
100
AcDbLine
 10
314.204910668348
 20
321.900189173002
 30
0.0
 11
313.204910668348
 21
320.900189173002
 31
0.0
  0
LINE
  5
12E2
330
2
100
AcDbEntity
  8
0
 62
     0
 48
0.5
100
AcDbLine
 10
318.204910668348
 20
288.400189173002
 30
0.0
 11
318.204910668348
 21
321.900189173002
 31
0.0
  0
LINE
  5
12E3
330
2
100
AcDbEntity
  8
0
 62
     0
 48
0.5
100
AcDbLine
 10
318.204910668348
 20
321.900189173002
 30
0.0
 11
314.204910668348
 21
321.900189173002
 31
0.0
  0
LINE
  5
12E4
330
2
100
AcDbEntity
  8
0
 62
     0
 48
0.5
100
AcDbLine
 10
313.204910668348
 20
320.900189173002
 30
0.0
 11
313.204910668348
 21
289.400189173002
 31
0.0
  0
LINE
  5
12E5
330
2
100
AcDbEntity
  8
0
 62
     0
 48
0.5
100
AcDbLine
 10
314.204910668348
 20
288.400189173002
 30
0.0
 11
313.204910668348
 21
289.400189173002
 31
0.0
  0
LINE
  5
12E6
330
2
100
AcDbEntity
  8
0
 62
     0
 48
0.5
100
AcDbLine
 10
318.204910668348
 20
288.400189173002
 30
0.0
 11
314.204910668348
 21
288.400189173002
 31
0.0
  0
LINE
  5
12E7
330
2
100
AcDbEntity
  8
0
 62
     0
100
AcDbLine
 10
314.204910668348
 20
321.900189173002
 30
0.0
 11
314.204910668348
 21
288.400189173002
 31
0.0
  0
LINE
  5
12E8
330
2
100
AcDbEntity
  8
0
 62
     0
 48
0.5
100
AcDbLine
 10
314.204910668348
 20
267.1501891730015
 30
0.0
 11
313.204910668348
 21
266.1501891730015
 31
0.0
  0
LINE
  5
12E9
330
2
100
AcDbEntity
  8
0
 62
     0
 48
0.5
100
AcDbLine
 10
318.204910668348
 20
233.6501891730015
 30
0.0
 11
318.204910668348
 21
267.1501891730015
 31
0.0
  0
LINE
  5
12EA
330
2
100
AcDbEntity
  8
0
 62
     0
 48
0.5
100
AcDbLine
 10
318.204910668348
 20
267.1501891730015
 30
0.0
 11
314.204910668348
 21
267.1501891730015
 31
0.0
  0
LINE
  5
12EB
330
2
100
AcDbEntity
  8
0
 62
     0
 48
0.5
100
AcDbLine
 10
313.204910668348
 20
266.1501891730015
 30
0.0
 11
313.204910668348
 21
234.6501891730015
 31
0.0
  0
LINE
  5
12EC
330
2
100
AcDbEntity
  8
0
 62
     0
 48
0.5
100
AcDbLine
 10
314.204910668348
 20
233.6501891730015
 30
0.0
 11
313.204910668348
 21
234.6501891730015
 31
0.0
  0
LINE
  5
12ED
330
2
100
AcDbEntity
  8
0
 62
     0
 48
0.5
100
AcDbLine
 10
318.204910668348
 20
233.6501891730015
 30
0.0
 11
314.204910668348
 21
233.6501891730015
 31
0.0
  0
LINE
  5
12EE
330
2
100
AcDbEntity
  8
0
 62
     0
100
AcDbLine
 10
314.204910668348
 20
267.1501891730015
 30
0.0
 11
314.204910668348
 21
233.6501891730015
 31
0.0
  0
LINE
  5
12EF
330
2
100
AcDbEntity
  8
0
 62
     0
 48
0.5
100
AcDbLine
 10
314.204910668348
 20
154.6501891730015
 30
0.0
 11
313.204910668348
 21
153.6501891730015
 31
0.0
  0
LINE
  5
12F0
330
2
100
AcDbEntity
  8
0
 62
     0
 48
0.5
100
AcDbLine
 10
318.204910668348
 20
121.1501891730015
 30
0.0
 11
318.204910668348
 21
154.6501891730015
 31
0.0
  0
LINE
  5
12F1
330
2
100
AcDbEntity
  8
0
 62
     0
 48
0.5
100
AcDbLine
 10
318.204910668348
 20
154.6501891730015
 30
0.0
 11
314.204910668348
 21
154.6501891730015
 31
0.0
  0
LINE
  5
12F2
330
2
100
AcDbEntity
  8
0
 62
     0
 48
0.5
100
AcDbLine
 10
313.204910668348
 20
153.6501891730015
 30
0.0
 11
313.204910668348
 21
122.1501891730015
 31
0.0
  0
LINE
  5
12F3
330
2
100
AcDbEntity
  8
0
 62
     0
 48
0.5
100
AcDbLine
 10
314.204910668348
 20
121.1501891730015
 30
0.0
 11
313.204910668348
 21
122.1501891730015
 31
0.0
  0
LINE
  5
12F4
330
2
100
AcDbEntity
  8
0
 62
     0
 48
0.5
100
AcDbLine
 10
318.204910668348
 20
121.1501891730015
 30
0.0
 11
314.204910668348
 21
121.1501891730015
 31
0.0
  0
LINE
  5
12F5
330
2
100
AcDbEntity
  8
0
 62
     0
100
AcDbLine
 10
314.204910668348
 20
154.6501891730015
 30
0.0
 11
314.204910668348
 21
121.1501891730015
 31
0.0
  0
LINE
  5
12F6
330
2
100
AcDbEntity
  8
0
 62
     0
100
AcDbLine
 10
480.204910668348
 20
234.9001891730013
 30
0.0
 11
477.704910668348
 21
234.9001891730013
 31
0.0
  0
LINE
  5
12F7
330
2
100
AcDbEntity
  8
0
 62
     0
100
AcDbLine
 10
478.204910668348
 20
202.5001891730014
 30
0.0
 11
478.204910668348
 21
234.9001891730013
 31
0.0
  0
LINE
  5
12F8
330
2
100
AcDbEntity
  8
0
 62
     0
 48
0.2
100
AcDbLine
 10
477.704910668348
 20
336.1501891730015
 30
0.0
 11
478.204910668348
 21
336.1501891730015
 31
0.0
  0
LINE
  5
12F9
330
2
100
AcDbEntity
  8
0
 62
     0
 48
0.2
100
AcDbLine
 10
477.704910668348
 20
274.650189173002
 30
0.0
 11
478.204910668348
 21
274.650189173002
 31
0.0
  0
CIRCLE
  5
12FA
330
2
100
AcDbEntity
  8
0
 62
     0
 48
0.5
100
AcDbCircle
 10
330.704910668348
 20
125.4001891730015
 30
0.0
 40
1.650000000000004
  0
CIRCLE
  5
12FB
330
2
100
AcDbEntity
  8
0
 62
     4
 48
0.5
100
AcDbCircle
 10
330.704910668348
 20
125.4001891730015
 30
0.0
 40
2.0
  0
CIRCLE
  5
12FC
330
2
100
AcDbEntity
  8
0
 62
     0
 48
0.5
100
AcDbCircle
 10
330.704910668348
 20
150.4001891730015
 30
0.0
 40
1.650000000000004
  0
CIRCLE
  5
12FD
330
2
100
AcDbEntity
  8
0
 62
     4
 48
0.5
100
AcDbCircle
 10
330.704910668348
 20
150.4001891730015
 30
0.0
 40
2.0
  0
CIRCLE
  5
12FE
330
2
100
AcDbEntity
  8
0
 62
     0
 48
0.5
100
AcDbCircle
 10
465.704910668348
 20
150.4001891730015
 30
0.0
 40
1.650000000000004
  0
CIRCLE
  5
12FF
330
2
100
AcDbEntity
  8
0
 62
     4
 48
0.5
100
AcDbCircle
 10
465.704910668348
 20
150.4001891730015
 30
0.0
 40
2.0
  0
CIRCLE
  5
1300
330
2
100
AcDbEntity
  8
0
 62
     0
 48
0.5
100
AcDbCircle
 10
465.704910668348
 20
125.4001891730015
 30
0.0
 40
1.650000000000004
  0
CIRCLE
  5
1301
330
2
100
AcDbEntity
  8
0
 62
     4
 48
0.5
100
AcDbCircle
 10
465.704910668348
 20
125.4001891730015
 30
0.0
 40
2.0
  0
LINE
  5
1302
330
2
100
AcDbEntity
  8
0
 62
     0
100
AcDbLine
 10
509.204910668348
 20
234.9001891730015
 30
0.0
 11
571.204910668348
 21
234.9001891730015
 31
0.0
  0
LINE
  5
1303
330
2
100
AcDbEntity
  8
0
  6
CENTER
 62
     4
 48
2.0
100
AcDbLine
 10
326.704910668348
 20
150.4001891730015
 30
0.0
 11
334.704910668348
 21
150.4001891730015
 31
0.0
1001
GENIUS_GENODEF_13
1002
{
1000
HIER
1070
     0
1002
}
1002
{
1000
MANEDIT
1070
     0
1002
}
1002
{
1000
NOSEL
1070
     0
1002
}
1002
{
1000
BEHIND
1070
     0
1002
}
1002
{
1000
OTHER
1070
     0
1002
}
1002
{
1000
REACTOR
1002
}
1001
GENIUS_GENOBJ-N-CEN_13
1002
{
1000
OWNER
1000
GEN
1002
}
1001
GENIUS_GENCEN_19
1002
{
1040
3.0
1002
}
  0
LINE
  5
1304
330
2
100
AcDbEntity
  8
0
  6
CENTER
 62
     4
 48
2.0
100
AcDbLine
 10
330.704910668348
 20
146.4001891730015
 30
0.0
 11
330.704910668348
 21
154.4001891730015
 31
0.0
1001
GENIUS_GENODEF_13
1002
{
1000
HIER
1070
     0
1002
}
1002
{
1000
MANEDIT
1070
     0
1002
}
1002
{
1000
NOSEL
1070
     0
1002
}
1002
{
1000
BEHIND
1070
     0
1002
}
1002
{
1000
OTHER
1070
     0
1002
}
1002
{
1000
REACTOR
1002
}
1001
GENIUS_GENOBJ-N-CEN_13
1002
{
1000
OWNER
1000
GEN
1002
}
1001
GENIUS_GENCEN_19
1002
{
1040
3.0
1002
}
  0
LINE
  5
1305
330
2
100
AcDbEntity
  8
0
  6
CENTER
 62
     4
 48
2.0
100
AcDbLine
 10
326.704910668348
 20
125.4001891730015
 30
0.0
 11
334.704910668348
 21
125.4001891730015
 31
0.0
1001
GENIUS_GENODEF_13
1002
{
1000
HIER
1070
     0
1002
}
1002
{
1000
MANEDIT
1070
     0
1002
}
1002
{
1000
NOSEL
1070
     0
1002
}
1002
{
1000
BEHIND
1070
     0
1002
}
1002
{
1000
OTHER
1070
     0
1002
}
1002
{
1000
REACTOR
1002
}
1001
GENIUS_GENOBJ-N-CEN_13
1002
{
1000
OWNER
1000
GEN
1002
}
1001
GENIUS_GENCEN_19
1002
{
1040
3.0
1002
}
  0
LINE
  5
1306
330
2
100
AcDbEntity
  8
0
  6
CENTER
 62
     4
 48
2.0
100
AcDbLine
 10
330.704910668348
 20
129.4001891730015
 30
0.0
 11
330.704910668348
 21
121.4001891730015
 31
0.0
1001
GENIUS_GENODEF_13
1002
{
1000
HIER
1070
     0
1002
}
1002
{
1000
MANEDIT
1070
     0
1002
}
1002
{
1000
NOSEL
1070
     0
1002
}
1002
{
1000
BEHIND
1070
     0
1002
}
1002
{
1000
OTHER
1070
     0
1002
}
1002
{
1000
REACTOR
1002
}
1001
GENIUS_GENOBJ-N-CEN_13
1002
{
1000
OWNER
1000
GEN
1002
}
1001
GENIUS_GENCEN_19
1002
{
1040
3.0
1002
}
  0
LINE
  5
1307
330
2
100
AcDbEntity
  8
0
  6
CENTER
 62
     4
 48
2.0
100
AcDbLine
 10
469.704910668348
 20
150.4001891730015
 30
0.0
 11
461.704910668348
 21
150.4001891730015
 31
0.0
1001
GENIUS_GENODEF_13
1002
{
1000
HIER
1070
     0
1002
}
1002
{
1000
MANEDIT
1070
     0
1002
}
1002
{
1000
NOSEL
1070
     0
1002
}
1002
{
1000
BEHIND
1070
     0
1002
}
1002
{
1000
OTHER
1070
     0
1002
}
1002
{
1000
REACTOR
1002
}
1001
GENIUS_GENOBJ-N-CEN_13
1002
{
1000
OWNER
1000
GEN
1002
}
1001
GENIUS_GENCEN_19
1002
{
1040
3.0
1002
}
  0
LINE
  5
1308
330
2
100
AcDbEntity
  8
0
  6
CENTER
 62
     4
 48
2.0
100
AcDbLine
 10
465.704910668348
 20
146.4001891730015
 30
0.0
 11
465.704910668348
 21
154.4001891730015
 31
0.0
1001
GENIUS_GENODEF_13
1002
{
1000
HIER
1070
     0
1002
}
1002
{
1000
MANEDIT
1070
     0
1002
}
1002
{
1000
NOSEL
1070
     0
1002
}
1002
{
1000
BEHIND
1070
     0
1002
}
1002
{
1000
OTHER
1070
     0
1002
}
1002
{
1000
REACTOR
1002
}
1001
GENIUS_GENOBJ-N-CEN_13
1002
{
1000
OWNER
1000
GEN
1002
}
1001
GENIUS_GENCEN_19
1002
{
1040
3.0
1002
}
  0
LINE
  5
1309
330
2
100
AcDbEntity
  8
0
  6
CENTER
 62
     4
 48
2.0
100
AcDbLine
 10
469.704910668348
 20
125.4001891730015
 30
0.0
 11
461.704910668348
 21
125.4001891730015
 31
0.0
1001
GENIUS_GENODEF_13
1002
{
1000
HIER
1070
     0
1002
}
1002
{
1000
MANEDIT
1070
     0
1002
}
1002
{
1000
NOSEL
1070
     0
1002
}
1002
{
1000
BEHIND
1070
     0
1002
}
1002
{
1000
OTHER
1070
     0
1002
}
1002
{
1000
REACTOR
1002
}
1001
GENIUS_GENOBJ-N-CEN_13
1002
{
1000
OWNER
1000
GEN
1002
}
1001
GENIUS_GENCEN_19
1002
{
1040
3.0
1002
}
  0
LINE
  5
130A
330
2
100
AcDbEntity
  8
0
  6
CENTER
 62
     4
 48
2.0
100
AcDbLine
 10
465.704910668348
 20
129.4001891730015
 30
0.0
 11
465.704910668348
 21
121.4001891730015
 31
0.0
1001
GENIUS_GENODEF_13
1002
{
1000
HIER
1070
     0
1002
}
1002
{
1000
MANEDIT
1070
     0
1002
}
1002
{
1000
NOSEL
1070
     0
1002
}
1002
{
1000
BEHIND
1070
     0
1002
}
1002
{
1000
OTHER
1070
     0
1002
}
1002
{
1000
REACTOR
1002
}
1001
GENIUS_GENOBJ-N-CEN_13
1002
{
1000
OWNER
1000
GEN
1002
}
1001
GENIUS_GENCEN_19
1002
{
1040
3.0
1002
}
  0
LINE
  5
130B
330
2
100
AcDbEntity
  8
0
  6
CENTER
 62
     4
 48
2.0
100
AcDbLine
 10
320.704910668348
 20
301.9001891730015
 30
0.0
 11
320.704910668348
 21
308.9001891730015
 31
0.0
1001
GENIUS_GENODEF_13
1002
{
1000
HIER
1070
     0
1002
}
1002
{
1000
MANEDIT
1070
     0
1002
}
1002
{
1000
NOSEL
1070
     0
1002
}
1002
{
1000
BEHIND
1070
     0
1002
}
1002
{
1000
OTHER
1070
     0
1002
}
1002
{
1000
REACTOR
1002
}
1001
GENIUS_GENOBJ-N-CEN_13
1002
{
1000
OWNER
1000
GEN
1002
}
1001
GENIUS_GENCEN_19
1002
{
1040
3.0
1002
}
  0
LWPOLYLINE
  5
130C
330
2
100
AcDbEntity
  8
0
 62
     0
100
AcDbPolyline
 90
        4
 70
     1
 43
0.0
 10
477.204910668348
 20
202.5001891730014
 10
477.704910668348
 20
202.5001891730014
 10
477.704910668348
 20
195.7001891730019
 10
477.204910668348
 20
195.7001891730019
  0
LINE
  5
130D
330
2
100
AcDbEntity
  8
0
 62
     0
100
AcDbLine
 10
480.0049106683473
 20
199.7001891730016
 30
0.0
 11
479.3717533104864
 21
199.1657254534255
 31
0.0
  0
LINE
  5
130E
330
2
100
AcDbEntity
  8
0
 62
     0
100
AcDbLine
 10
478.6049106683476
 20
199.6052438121821
 30
0.0
 11
478.1049106683474
 21
199.3032972080548
 31
0.0
  0
LWPOLYLINE
  5
130F
330
2
100
AcDbEntity
  8
0
 62
     0
100
AcDbPolyline
 90
        6
 70
     1
 43
0.0
 10
480.0049106683473
 20
200.4501891730013
 10
480.0049106683473
 20
198.9501891730016
 42
-0.4142135623730951
 10
479.0049106683473
 20
197.9501891730016
 10
478.6049106683476
 20
197.9501891730016
 10
478.6049106683476
 20
201.4501891730017
 10
479.0049106683473
 20
201.4501891730013
 42
-0.4142135623730951
  0
LWPOLYLINE
  5
1310
330
2
100
AcDbEntity
  8
0
 62
     0
100
AcDbPolyline
 90
        4
 70
     1
 43
0.0
 10
477.704910668348
 20
201.7001891730016
 10
477.704910668348
 20
197.7001891730017
 10
478.1049106683474
 20
197.7001891730017
 10
478.1049106683474
 20
201.7001891730016
  0
LINE
  5
1311
330
2
100
AcDbEntity
  8
0
 62
     0
100
AcDbLine
 10
478.1049106683474
 20
201.4501891730017
 30
0.0
 11
478.1049106683474
 21
197.9501891730016
 31
0.0
  0
LINE
  5
1312
330
2
100
AcDbEntity
  8
0
 62
     0
100
AcDbLine
 10
478.1049106683474
 20
197.9501891730016
 30
0.0
 11
478.6049106683476
 21
197.9501891730016
 31
0.0
  0
LINE
  5
1313
330
2
100
AcDbEntity
  8
0
 62
     0
100
AcDbLine
 10
478.6049106683476
 20
197.9501891730016
 30
0.0
 11
478.6049106683476
 21
201.4501891730017
 31
0.0
  0
LINE
  5
1314
330
2
100
AcDbEntity
  8
0
 62
     0
100
AcDbLine
 10
478.6049106683476
 20
201.4501891730017
 30
0.0
 11
478.1049106683474
 21
201.4501891730017
 31
0.0
  0
LINE
  5
1315
330
2
100
AcDbEntity
  8
0
 62
     0
100
AcDbLine
 10
480.0049106683473
 20
199.7001891730016
 30
0.0
 11
479.3717533104864
 21
200.234652892578
 31
0.0
  0
LINE
  5
1316
330
2
100
AcDbEntity
  8
0
 62
     0
100
AcDbLine
 10
478.6049106683476
 20
200.1893429062954
 30
0.0
 11
478.1049106683474
 21
199.887396302168
 31
0.0
  0
LINE
  5
1317
330
2
100
AcDbEntity
  8
0
 62
     0
100
AcDbLine
 10
477.704910668348
 20
200.7001891730017
 30
0.0
 11
477.704910668348
 21
198.7001891730017
 31
0.0
  0
CIRCLE
  5
1318
330
2
100
AcDbEntity
  8
0
 62
     0
100
AcDbCircle
 10
540.204910668348
 20
250.4001891729984
 30
0.0
 40
8.75
  0
LINE
  5
1319
330
2
100
AcDbEntity
  8
0
 62
     0
100
AcDbLine
 10
477.204910668348
 20
113.9875232569895
 30
0.0
 11
477.704910668348
 21
113.9875232569886
 31
0.0
  0
LINE
  5
131A
330
2
100
AcDbEntity
  8
0
 62
     0
100
AcDbLine
 10
477.204910668348
 20
161.8128550890135
 30
0.0
 11
477.704910668348
 21
161.8128550890135
 31
0.0
  0
LINE
  5
131B
330
2
100
AcDbEntity
  8
0
 62
     0
 48
0.2
100
AcDbLine
 10
477.204910668348
 20
161.8128550890144
 30
0.0
 11
477.204910668348
 21
112.9001891730015
 31
0.0
  0
LINE
  5
131C
330
2
100
AcDbEntity
  8
0
 62
     0
 48
0.2
100
AcDbLine
 10
477.704910668348
 20
161.8128550890144
 30
0.0
 11
477.704910668348
 21
113.9875232569886
 31
0.0
  0
LINE
  5
131D
330
2
100
AcDbEntity
  8
0
 62
     0
100
AcDbLine
 10
480.0049106683473
 20
157.9001891729983
 30
0.0
 11
479.3717533104864
 21
157.3657254534221
 31
0.0
  0
LINE
  5
131E
330
2
100
AcDbEntity
  8
0
 62
     0
100
AcDbLine
 10
478.6049106683476
 20
157.8052438121788
 30
0.0
 11
478.1049106683474
 21
157.5032972080514
 31
0.0
  0
LWPOLYLINE
  5
131F
330
2
100
AcDbEntity
  8
0
 62
     0
100
AcDbPolyline
 90
        6
 70
     1
 43
0.0
 10
480.0049106683473
 20
158.6501891729979
 10
480.0049106683473
 20
157.1501891729983
 42
-0.4142135623730951
 10
479.0049106683473
 20
156.1501891729983
 10
478.6049106683476
 20
156.1501891729983
 10
478.6049106683476
 20
159.6501891729983
 10
479.0049106683473
 20
159.6501891729979
 42
-0.4142135623730951
  0
LWPOLYLINE
  5
1320
330
2
100
AcDbEntity
  8
0
 62
     0
100
AcDbPolyline
 90
        4
 70
     1
 43
0.0
 10
477.704910668348
 20
159.9001891729983
 10
477.704910668348
 20
155.9001891729983
 10
478.1049106683474
 20
155.9001891729983
 10
478.1049106683474
 20
159.9001891729983
  0
LINE
  5
1321
330
2
100
AcDbEntity
  8
0
 62
     0
100
AcDbLine
 10
478.1049106683474
 20
159.6501891729983
 30
0.0
 11
478.1049106683474
 21
156.1501891729983
 31
0.0
  0
LINE
  5
1322
330
2
100
AcDbEntity
  8
0
 62
     0
100
AcDbLine
 10
478.1049106683474
 20
156.1501891729983
 30
0.0
 11
478.6049106683476
 21
156.1501891729983
 31
0.0
  0
LINE
  5
1323
330
2
100
AcDbEntity
  8
0
 62
     0
100
AcDbLine
 10
478.6049106683476
 20
156.1501891729983
 30
0.0
 11
478.6049106683476
 21
159.6501891729983
 31
0.0
  0
LINE
  5
1324
330
2
100
AcDbEntity
  8
0
 62
     0
100
AcDbLine
 10
478.6049106683476
 20
159.6501891729983
 30
0.0
 11
478.1049106683474
 21
159.6501891729983
 31
0.0
  0
LINE
  5
1325
330
2
100
AcDbEntity
  8
0
 62
     0
100
AcDbLine
 10
480.0049106683473
 20
157.9001891729983
 30
0.0
 11
479.3717533104864
 21
158.4346528925746
 31
0.0
  0
LINE
  5
1326
330
2
100
AcDbEntity
  8
0
 62
     0
100
AcDbLine
 10
478.6049106683476
 20
158.3893429062921
 30
0.0
 11
478.1049106683474
 21
158.0873963021647
 31
0.0
  0
LINE
  5
1327
330
2
100
AcDbEntity
  8
0
 62
     0
100
AcDbLine
 10
477.704910668348
 20
158.9001891729983
 30
0.0
 11
477.704910668348
 21
156.9001891729983
 31
0.0
  0
LINE
  5
1328
330
2
100
AcDbEntity
  8
0
 62
     0
100
AcDbLine
 10
480.0049106683473
 20
117.9001891729983
 30
0.0
 11
479.3717533104864
 21
117.3657254534221
 31
0.0
  0
LINE
  5
1329
330
2
100
AcDbEntity
  8
0
 62
     0
100
AcDbLine
 10
478.6049106683476
 20
117.8052438121788
 30
0.0
 11
478.1049106683474
 21
117.5032972080514
 31
0.0
  0
LWPOLYLINE
  5
132A
330
2
100
AcDbEntity
  8
0
 62
     0
100
AcDbPolyline
 90
        6
 70
     1
 43
0.0
 10
480.0049106683473
 20
118.6501891729979
 10
480.0049106683473
 20
117.1501891729983
 42
-0.4142135623730951
 10
479.0049106683473
 20
116.1501891729983
 10
478.6049106683476
 20
116.1501891729983
 10
478.6049106683476
 20
119.6501891729983
 10
479.0049106683473
 20
119.6501891729979
 42
-0.4142135623730951
  0
LWPOLYLINE
  5
132B
330
2
100
AcDbEntity
  8
0
 62
     0
100
AcDbPolyline
 90
        4
 70
     1
 43
0.0
 10
477.704910668348
 20
119.9001891729983
 10
477.704910668348
 20
115.9001891729983
 10
478.1049106683474
 20
115.9001891729983
 10
478.1049106683474
 20
119.9001891729983
  0
LINE
  5
132C
330
2
100
AcDbEntity
  8
0
 62
     0
100
AcDbLine
 10
478.1049106683474
 20
119.6501891729983
 30
0.0
 11
478.1049106683474
 21
116.1501891729983
 31
0.0
  0
LINE
  5
132D
330
2
100
AcDbEntity
  8
0
 62
     0
100
AcDbLine
 10
478.1049106683474
 20
116.1501891729983
 30
0.0
 11
478.6049106683476
 21
116.1501891729983
 31
0.0
  0
LINE
  5
132E
330
2
100
AcDbEntity
  8
0
 62
     0
100
AcDbLine
 10
478.6049106683476
 20
116.1501891729983
 30
0.0
 11
478.6049106683476
 21
119.6501891729983
 31
0.0
  0
LINE
  5
132F
330
2
100
AcDbEntity
  8
0
 62
     0
100
AcDbLine
 10
478.6049106683476
 20
119.6501891729983
 30
0.0
 11
478.1049106683474
 21
119.6501891729983
 31
0.0
  0
LINE
  5
1330
330
2
100
AcDbEntity
  8
0
 62
     0
100
AcDbLine
 10
480.0049106683473
 20
117.9001891729983
 30
0.0
 11
479.3717533104864
 21
118.4346528925746
 31
0.0
  0
LINE
  5
1331
330
2
100
AcDbEntity
  8
0
 62
     0
100
AcDbLine
 10
478.6049106683476
 20
118.3893429062921
 30
0.0
 11
478.1049106683474
 21
118.0873963021647
 31
0.0
  0
LINE
  5
1332
330
2
100
AcDbEntity
  8
0
 62
     0
100
AcDbLine
 10
473.204910668348
 20
118.9001891729983
 30
0.0
 11
473.204910668348
 21
116.9001891729983
 31
0.0
  0
LINE
  5
1333
330
2
100
AcDbEntity
  8
0
 62
     0
 48
0.0351
100
AcDbLine
 10
538.998355043348
 20
261.1501891730013
 30
0.0
 11
541.411466293348
 21
261.1501891730013
 31
0.0
  0
LINE
  5
1334
330
2
100
AcDbEntity
  8
0
 62
     0
 48
0.005062
100
AcDbLine
 10
541.411466293348
 20
261.1501891730013
 30
0.0
 11
541.411466293348
 21
261.4982360480015
 31
0.0
  0
LINE
  5
1335
330
2
100
AcDbEntity
  8
0
 62
     0
 48
0.00945
100
AcDbLine
 10
541.411466293348
 20
261.4982360480015
 30
0.0
 11
540.7617942620963
 21
261.4982360480015
 31
0.0
  0
LINE
  5
1336
330
2
100
AcDbEntity
  8
0
 62
     0
 48
0.03375
100
AcDbLine
 10
540.7617942620963
 20
261.4982360480015
 30
0.0
 11
540.7617942620963
 21
263.8185588605014
 31
0.0
  0
LINE
  5
1337
330
2
100
AcDbEntity
  8
0
 62
     0
 48
0.00945
100
AcDbLine
 10
540.7617942620963
 20
263.8185588605014
 30
0.0
 11
541.411466293348
 21
263.8185588605014
 31
0.0
  0
LINE
  5
1338
330
2
100
AcDbEntity
  8
0
 62
     0
 48
0.005062
100
AcDbLine
 10
541.411466293348
 20
263.8185588605014
 30
0.0
 11
541.411466293348
 21
264.1666040167513
 31
0.0
  0
LINE
  5
1339
330
2
100
AcDbEntity
  8
0
 62
     0
 48
0.0351
100
AcDbLine
 10
541.411466293348
 20
264.1666040167513
 30
0.0
 11
538.998355043348
 21
264.1666040167513
 31
0.0
  0
LINE
  5
133A
330
2
100
AcDbEntity
  8
0
 62
     0
 48
0.005062
100
AcDbLine
 10
538.998355043348
 20
264.1666040167513
 30
0.0
 11
538.998355043348
 21
263.8185588605014
 31
0.0
  0
LINE
  5
133B
330
2
100
AcDbEntity
  8
0
 62
     0
 48
0.00945
100
AcDbLine
 10
538.998355043348
 20
263.8185588605014
 30
0.0
 11
539.6480270745977
 21
263.8185588605014
 31
0.0
  0
LINE
  5
133C
330
2
100
AcDbEntity
  8
0
 62
     0
 48
0.03375
100
AcDbLine
 10
539.6480270745977
 20
263.8185588605014
 30
0.0
 11
539.6480270745977
 21
261.4982360480015
 31
0.0
  0
LINE
  5
133D
330
2
100
AcDbEntity
  8
0
 62
     0
 48
0.00945
100
AcDbLine
 10
539.6480270745977
 20
261.4982360480015
 30
0.0
 11
538.998355043348
 21
261.4982360480015
 31
0.0
  0
LINE
  5
133E
330
2
100
AcDbEntity
  8
0
 62
     0
 48
0.005062
100
AcDbLine
 10
538.998355043348
 20
261.4982360480015
 30
0.0
 11
538.998355043348
 21
261.1501891730013
 31
0.0
  0
LINE
  5
133F
330
2
100
AcDbEntity
  8
0
 62
     0
 48
0.005062
100
AcDbLine
 10
537.8381936370987
 20
261.1501891730013
 30
0.0
 11
537.8381936370987
 21
261.4982360480015
 31
0.0
  0
LINE
  5
1340
330
2
100
AcDbEntity
  8
0
 62
     0
 48
0.00945
100
AcDbLine
 10
537.8381936370987
 20
261.4982360480015
 30
0.0
 11
537.1884958245991
 21
261.4982360480015
 31
0.0
  0
LINE
  5
1341
330
2
100
AcDbEntity
  8
0
 62
     0
 48
0.03375
100
AcDbLine
 10
537.1884958245991
 20
261.4982360480015
 30
0.0
 11
537.1884958245991
 21
263.8185588605014
 31
0.0
  0
LINE
  5
1342
330
2
100
AcDbEntity
  8
0
 62
     0
 48
0.00945
100
AcDbLine
 10
537.1884958245991
 20
263.8185588605014
 30
0.0
 11
537.8381936370987
 21
263.8185588605014
 31
0.0
  0
LINE
  5
1343
330
2
100
AcDbEntity
  8
0
 62
     0
 48
0.005062
100
AcDbLine
 10
537.8381936370987
 20
263.8185588605014
 30
0.0
 11
537.8381936370987
 21
264.1666040167513
 31
0.0
  0
LINE
  5
1344
330
2
100
AcDbEntity
  8
0
 62
     0
 48
0.03375
100
AcDbLine
 10
537.8381936370987
 20
264.1666040167513
 30
0.0
 11
535.5178708245967
 21
264.1666040167513
 31
0.0
  0
LINE
  5
1345
330
2
100
AcDbEntity
  8
0
 62
     0
 48
0.005062
100
AcDbLine
 10
535.5178708245967
 20
264.1666040167513
 30
0.0
 11
535.5178708245967
 21
263.8185588605014
 31
0.0
  0
LINE
  5
1346
330
2
100
AcDbEntity
  8
0
 62
     0
 48
0.00945
100
AcDbLine
 10
535.5178708245967
 20
263.8185588605014
 30
0.0
 11
536.1675686370963
 21
263.8185588605014
 31
0.0
  0
LINE
  5
1347
330
2
100
AcDbEntity
  8
0
 62
     0
 48
0.012825
100
AcDbLine
 10
536.1675686370963
 20
263.8185588605014
 30
0.0
 11
536.1675686370963
 21
262.9368383917513
 31
0.0
  0
LINE
  5
1348
330
2
100
AcDbEntity
  8
0
 62
     0
 48
0.0324
100
AcDbLine
 10
536.1675686370963
 20
262.9368383917513
 30
0.0
 11
533.940058324597
 21
262.9368383917513
 31
0.0
  0
LINE
  5
1349
330
2
100
AcDbEntity
  8
0
 62
     0
 48
0.012825
100
AcDbLine
 10
533.940058324597
 20
262.9368383917513
 30
0.0
 11
533.940058324597
 21
263.8185588605014
 31
0.0
  0
LINE
  5
134A
330
2
100
AcDbEntity
  8
0
 62
     0
 48
0.00945
100
AcDbLine
 10
533.940058324597
 20
263.8185588605014
 30
0.0
 11
534.5897561370983
 21
263.8185588605014
 31
0.0
  0
LINE
  5
134B
330
2
100
AcDbEntity
  8
0
 62
     0
 48
0.005062
100
AcDbLine
 10
534.5897561370983
 20
263.8185588605014
 30
0.0
 11
534.5897561370983
 21
264.1666040167513
 31
0.0
  0
LINE
  5
134C
330
2
100
AcDbEntity
  8
0
 62
     0
 48
0.03375
100
AcDbLine
 10
534.5897561370983
 20
264.1666040167513
 30
0.0
 11
532.2694333245981
 21
264.1666040167513
 31
0.0
  0
LINE
  5
134D
330
2
100
AcDbEntity
  8
0
 62
     0
 48
0.005062
100
AcDbLine
 10
532.2694333245981
 20
264.1666040167513
 30
0.0
 11
532.2694333245981
 21
263.8185588605014
 31
0.0
  0
LINE
  5
134E
330
2
100
AcDbEntity
  8
0
 62
     0
 48
0.00945
100
AcDbLine
 10
532.2694333245981
 20
263.8185588605014
 30
0.0
 11
532.9191311370976
 21
263.8185588605014
 31
0.0
  0
LINE
  5
134F
330
2
100
AcDbEntity
  8
0
 62
     0
 48
0.03375
100
AcDbLine
 10
532.9191311370976
 20
263.8185588605014
 30
0.0
 11
532.9191311370976
 21
261.4982360480015
 31
0.0
  0
LINE
  5
1350
330
2
100
AcDbEntity
  8
0
 62
     0
 48
0.00945
100
AcDbLine
 10
532.9191311370976
 20
261.4982360480015
 30
0.0
 11
532.2694333245981
 21
261.4982360480015
 31
0.0
  0
LINE
  5
1351
330
2
100
AcDbEntity
  8
0
 62
     0
 48
0.005062
100
AcDbLine
 10
532.2694333245981
 20
261.4982360480015
 30
0.0
 11
532.2694333245981
 21
261.1501891730013
 31
0.0
  0
LINE
  5
1352
330
2
100
AcDbEntity
  8
0
 62
     0
 48
0.03375
100
AcDbLine
 10
532.2694333245981
 20
261.1501891730013
 30
0.0
 11
534.5897561370983
 21
261.1501891730013
 31
0.0
  0
LINE
  5
1353
330
2
100
AcDbEntity
  8
0
 62
     0
 48
0.005062
100
AcDbLine
 10
534.5897561370983
 20
261.1501891730013
 30
0.0
 11
534.5897561370983
 21
261.4982360480015
 31
0.0
  0
LINE
  5
1354
330
2
100
AcDbEntity
  8
0
 62
     0
 48
0.00945
100
AcDbLine
 10
534.5897561370983
 20
261.4982360480015
 30
0.0
 11
533.940058324597
 21
261.4982360480015
 31
0.0
  0
LINE
  5
1355
330
2
100
AcDbEntity
  8
0
 62
     0
 48
0.012825
100
AcDbLine
 10
533.940058324597
 20
261.4982360480015
 30
0.0
 11
533.940058324597
 21
262.3799547980011
 31
0.0
  0
LINE
  5
1356
330
2
100
AcDbEntity
  8
0
 62
     0
 48
0.0324
100
AcDbLine
 10
533.940058324597
 20
262.3799547980011
 30
0.0
 11
536.1675686370963
 21
262.3799547980011
 31
0.0
  0
LINE
  5
1357
330
2
100
AcDbEntity
  8
0
 62
     0
 48
0.012825
100
AcDbLine
 10
536.1675686370963
 20
262.3799547980011
 30
0.0
 11
536.1675686370963
 21
261.4982360480015
 31
0.0
  0
LINE
  5
1358
330
2
100
AcDbEntity
  8
0
 62
     0
 48
0.00945
100
AcDbLine
 10
536.1675686370963
 20
261.4982360480015
 30
0.0
 11
535.5178708245967
 21
261.4982360480015
 31
0.0
  0
LINE
  5
1359
330
2
100
AcDbEntity
  8
0
 62
     0
 48
0.005062
100
AcDbLine
 10
535.5178708245967
 20
261.4982360480015
 30
0.0
 11
535.5178708245967
 21
261.1501891730013
 31
0.0
  0
LINE
  5
135A
330
2
100
AcDbEntity
  8
0
 62
     0
 48
0.03375
100
AcDbLine
 10
535.5178708245967
 20
261.1501891730013
 30
0.0
 11
537.8381936370987
 21
261.1501891730013
 31
0.0
  0
LINE
  5
135B
330
2
100
AcDbEntity
  8
0
 62
     0
 48
0.029025
100
AcDbLine
 10
544.5670878558464
 20
261.1501891730013
 30
0.0
 11
542.5716276995991
 21
261.1501891730013
 31
0.0
  0
LINE
  5
135C
330
2
100
AcDbEntity
  8
0
 62
     0
 48
0.005062
100
AcDbLine
 10
544.5670878558464
 20
261.4982360480015
 30
0.0
 11
544.5670878558464
 21
261.1501891730013
 31
0.0
  0
LINE
  5
135D
330
2
100
AcDbEntity
  8
0
 62
     0
 48
0.00945
100
AcDbLine
 10
543.9174158245987
 20
261.4982360480015
 30
0.0
 11
544.5670878558464
 21
261.4982360480015
 31
0.0
  0
LINE
  5
135E
330
2
100
AcDbEntity
  8
0
 62
     0
 48
0.023288
100
AcDbLine
 10
543.9174158245987
 20
263.0992568292513
 30
0.0
 11
543.9174158245987
 21
261.4982360480015
 31
0.0
  0
LINE
  5
135F
330
2
100
AcDbEntity
  8
0
 62
     0
 48
0.045119
100
AcDbLine
 10
546.3305270745986
 20
261.1501891730013
 30
0.0
 11
543.9174158245987
 21
263.0992568292513
 31
0.0
  0
LINE
  5
1360
330
2
100
AcDbEntity
  8
0
 62
     0
 48
0.0135
100
AcDbLine
 10
547.2586675433483
 20
261.1501891730013
 30
0.0
 11
546.3305270745986
 21
261.1501891730013
 31
0.0
  0
LINE
  5
1361
330
2
100
AcDbEntity
  8
0
 62
     0
 48
0.038813
100
AcDbLine
 10
547.2586675433483
 20
263.8185588605014
 30
0.0
 11
547.2586675433483
 21
261.1501891730013
 31
0.0
  0
LINE
  5
1362
330
2
100
AcDbEntity
  8
0
 62
     0
 48
0.00945
100
AcDbLine
 10
547.9083378558478
 20
263.8185588605014
 30
0.0
 11
547.2586675433483
 21
263.8185588605014
 31
0.0
  0
LINE
  5
1363
330
2
100
AcDbEntity
  8
0
 62
     0
 48
0.005062
100
AcDbLine
 10
547.9083378558478
 20
264.1666040167513
 30
0.0
 11
547.9083378558478
 21
263.8185588605014
 31
0.0
  0
LINE
  5
1364
330
2
100
AcDbEntity
  8
0
 62
     0
 48
0.029025
100
AcDbLine
 10
545.9128776995984
 20
264.1666040167513
 30
0.0
 11
547.9083378558478
 21
264.1666040167513
 31
0.0
  0
LINE
  5
1365
330
2
100
AcDbEntity
  8
0
 62
     0
 48
0.005062
100
AcDbLine
 10
545.9128776995984
 20
263.8185588605014
 30
0.0
 11
545.9128776995984
 21
264.1666040167513
 31
0.0
  0
LINE
  5
1366
330
2
100
AcDbEntity
  8
0
 62
     0
 48
0.00945
100
AcDbLine
 10
546.5625755120964
 20
263.8185588605014
 30
0.0
 11
545.9128776995984
 21
263.8185588605014
 31
0.0
  0
LINE
  5
1367
330
2
100
AcDbEntity
  8
0
 62
     0
 48
0.023288
100
AcDbLine
 10
546.5625755120964
 20
262.2175380792512
 30
0.0
 11
546.5625755120964
 21
263.8185588605014
 31
0.0
  0
LINE
  5
1368
330
2
100
AcDbEntity
  8
0
 62
     0
 48
0.045119
100
AcDbLine
 10
544.1494384808484
 20
264.1666040167513
 30
0.0
 11
546.5625755120964
 21
262.2175380792512
 31
0.0
  0
LINE
  5
1369
330
2
100
AcDbEntity
  8
0
 62
     0
 48
0.02295
100
AcDbLine
 10
542.5716276995991
 20
264.1666040167513
 30
0.0
 11
544.1494384808484
 21
264.1666040167513
 31
0.0
  0
LINE
  5
136A
330
2
100
AcDbEntity
  8
0
 62
     0
 48
0.005062
100
AcDbLine
 10
542.5716276995991
 20
263.8185588605014
 30
0.0
 11
542.5716276995991
 21
264.1666040167513
 31
0.0
  0
LINE
  5
136B
330
2
100
AcDbEntity
  8
0
 62
     0
 48
0.00945
100
AcDbLine
 10
543.2213255120987
 20
263.8185588605014
 30
0.0
 11
542.5716276995991
 21
263.8185588605014
 31
0.0
  0
LINE
  5
136C
330
2
100
AcDbEntity
  8
0
 62
     0
 48
0.03375
100
AcDbLine
 10
543.2213255120987
 20
261.4982360480015
 30
0.0
 11
543.2213255120987
 21
263.8185588605014
 31
0.0
  0
LINE
  5
136D
330
2
100
AcDbEntity
  8
0
 62
     0
 48
0.00945
100
AcDbLine
 10
542.5716276995991
 20
261.4982360480015
 30
0.0
 11
543.2213255120987
 21
261.4982360480015
 31
0.0
  0
LINE
  5
136E
330
2
100
AcDbEntity
  8
0
 62
     0
 48
0.005062
100
AcDbLine
 10
542.5716276995991
 20
261.1501891730013
 30
0.0
 11
542.5716276995991
 21
261.4982360480015
 31
0.0
  0
ARC
  5
136F
330
2
100
AcDbEntity
  8
0
 62
     0
100
AcDbCircle
 10
551.272799574599
 20
259.6884026105013
 30
0.0
 40
4.594218749999998
100
AcDbArc
 50
64.72499000000538
 51
115.2750149999924
  0
ARC
  5
1370
330
2
100
AcDbEntity
  8
0
 62
     0
100
AcDbCircle
 10
549.9502197308482
 20
262.6583974542516
 30
0.0
 40
1.345781249999999
100
AcDbArc
 50
118.3467549999781
 51
241.653242000021
  0
ARC
  5
1371
330
2
100
AcDbEntity
  8
0
 62
     0
100
AcDbCircle
 10
551.272799574599
 20
265.6283922980015
 30
0.0
 40
4.594218749999998
100
AcDbArc
 50
244.7249960000042
 51
295.2750069999963
  0
ARC
  5
1372
330
2
100
AcDbEntity
  8
0
 62
     0
100
AcDbCircle
 10
552.5953776995975
 20
262.6583974542516
 30
0.0
 40
1.345781249999999
100
AcDbArc
 50
298.3467619999716
 51
61.65324300002192
  0
ARC
  5
1373
330
2
100
AcDbEntity
  8
0
 62
     0
100
AcDbCircle
 10
551.5744505120983
 20
262.6583974542516
 30
0.0
 40
1.206562499999998
100
AcDbArc
 50
305.4392029999974
 51
70.52459300000347
  0
ARC
  5
1374
330
2
100
AcDbEntity
  8
0
 62
     0
100
AcDbCircle
 10
551.272799574599
 20
263.2384652667515
 30
0.0
 40
1.85628609375
100
AcDbArc
 50
237.3582280000173
 51
302.6417750000066
  0
ARC
  5
1375
330
2
100
AcDbEntity
  8
0
 62
     0
100
AcDbCircle
 10
550.9711726995991
 20
262.6583974542516
 30
0.0
 40
1.206562499999998
100
AcDbArc
 50
125.4734560000041
 51
234.5607989999658
  0
ARC
  5
1376
330
2
100
AcDbEntity
  8
0
 62
     0
100
AcDbCircle
 10
551.272799574599
 20
262.0783038605014
 30
0.0
 40
1.85625
100
AcDbArc
 50
67.71515100001727
 51
122.6640080000099
  0
ARC
  5
1377
330
2
100
AcDbEntity
  8
0
 62
     0
100
AcDbCircle
 10
528.9746033245974
 20
261.5214460480014
 30
0.0
 40
2.343515625
100
AcDbArc
 50
47.61290100002475
 51
130.836589999987
  0
ARC
  5
1378
330
2
100
AcDbEntity
  8
0
 62
     0
100
AcDbCircle
 10
529.6242753558471
 20
262.6583974542516
 30
0.0
 40
1.103638593749999
100
AcDbArc
 50
22.23683299997167
 51
32.56157500002255
  0
LINE
  5
1379
330
2
100
AcDbEntity
  8
0
 62
     0
 48
0.009779
100
AcDbLine
 10
531.3181103558488
 20
263.076046829251
 30
0.0
 11
530.6458316058487
 21
263.076046829251
 31
0.0
  0
LINE
  5
137A
330
2
100
AcDbEntity
  8
0
 62
     0
 48
0.015863
100
AcDbLine
 10
531.3181103558488
 20
263.076046829251
 30
0.0
 11
531.3181103558488
 21
264.1666040167513
 31
0.0
  0
LINE
  5
137B
330
2
100
AcDbEntity
  8
0
 62
     0
 48
0.007425
100
AcDbLine
 10
531.3181103558488
 20
264.1666040167513
 30
0.0
 11
530.8076467620976
 21
264.1666040167513
 31
0.0
  0
LINE
  5
137C
330
2
100
AcDbEntity
  8
0
 62
     0
 48
0.006848
100
AcDbLine
 10
530.8076467620976
 20
264.1666040167513
 30
0.0
 11
530.8076467620976
 21
263.6958212042511
 31
0.0
  0
ARC
  5
137D
330
2
100
AcDbEntity
  8
0
 62
     0
100
AcDbCircle
 10
529.6242753558471
 20
262.2407480792513
 30
0.0
 40
1.875522343749999
100
AcDbArc
 50
50.87978999997882
 51
69.67686400002098
  0
ARC
  5
137E
330
2
100
AcDbEntity
  8
0
 62
     0
100
AcDbCircle
 10
528.6961623870991
 20
259.7347968292513
 30
0.0
 40
4.5478125
100
AcDbArc
 50
69.67686400002098
 51
114.9026060000152
  0
ARC
  5
137F
330
2
100
AcDbEntity
  8
0
 62
     0
100
AcDbCircle
 10
527.4896067620993
 20
262.6583974542516
 30
0.0
 40
1.394696874999999
100
AcDbArc
 50
120.5264329999936
 51
239.4735630000054
  0
ARC
  5
1380
330
2
100
AcDbEntity
  8
0
 62
     0
100
AcDbCircle
 10
528.6961623870991
 20
265.581998079251
 30
0.0
 40
4.5478125
100
AcDbArc
 50
245.0974039999865
 51
290.3231459999842
  0
ARC
  5
1381
330
2
100
AcDbEntity
  8
0
 62
     0
100
AcDbCircle
 10
529.6242753558471
 20
263.076046829251
 30
0.0
 40
1.875522343749999
100
AcDbArc
 50
290.3231459999842
 51
333.552588999979
  0
LINE
  5
1382
330
2
100
AcDbEntity
  8
0
 62
     0
 48
0.009566
100
AcDbLine
 10
531.3035284808463
 20
262.2407480792513
 30
0.0
 11
530.6458316058487
 21
262.2407480792513
 31
0.0
  0
ARC
  5
1383
330
2
100
AcDbEntity
  8
0
 62
     0
100
AcDbCircle
 10
529.6242753558471
 20
262.6583974542516
 30
0.0
 40
1.103638593749999
100
AcDbArc
 50
299.7448730000126
 51
337.7631540000332
  0
ARC
  5
1384
330
2
100
AcDbEntity
  8
0
 62
     0
100
AcDbCircle
 10
528.9746033245974
 20
263.7953488605012
 30
0.0
 40
2.413124999999999
100
AcDbArc
 50
242.0490359999814
 51
299.7448730000126
  0
ARC
  5
1385
330
2
100
AcDbEntity
  8
0
 62
     0
100
AcDbCircle
 10
528.3713255120983
 20
262.6583974542516
 30
0.0
 40
1.12603046875
100
AcDbArc
 50
145.6044559999883
 51
242.0490359999814
  0
LINE
  5
1386
330
2
100
AcDbEntity
  8
0
 62
     0
100
AcDbLine
 10
480.204910668348
 20
284.8501891730018
 30
0.0
 11
480.204910668348
 21
314.4001891730015
 31
0.0
  0
LINE
  5
1387
330
2
100
AcDbEntity
  8
0
 62
     0
 48
5.0
100
AcDbLine
 10
480.204910668348
 20
314.4001891730015
 30
0.0
 11
480.204910668348
 21
326.4001891730015
 31
0.0
  0
LINE
  5
1388
330
2
100
AcDbEntity
  8
0
  6
CENTER
 62
     4
 48
2.0
100
AcDbLine
 10
298.204910668348
 20
305.4001891730016
 30
0.0
 11
485.2049106683478
 21
305.4001891730016
 31
0.0
1001
GENIUS_GENODEF_13
1002
{
1000
HIER
1070
     0
1002
}
1002
{
1000
MANEDIT
1070
     0
1002
}
1002
{
1000
NOSEL
1070
     0
1002
}
1002
{
1000
BEHIND
1070
     0
1002
}
1002
{
1000
OTHER
1070
     0
1002
}
1002
{
1000
REACTOR
1002
}
1001
GENIUS_GENOBJ-N-CEN_13
1002
{
1000
OWNER
1000
GEN
1002
}
1001
GENIUS_GENCEN_19
1002
{
1040
3.0
1002
}
  0
LINE
  5
1389
330
2
100
AcDbEntity
  8
0
  6
CENTER
 62
     4
 48
2.0
100
AcDbLine
 10
298.204910668348
 20
137.9001891730015
 30
0.0
 11
485.2049106683478
 21
137.9001891730015
 31
0.0
1001
GENIUS_GENODEF_13
1002
{
1000
HIER
1070
     0
1002
}
1002
{
1000
MANEDIT
1070
     0
1002
}
1002
{
1000
NOSEL
1070
     0
1002
}
1002
{
1000
BEHIND
1070
     0
1002
}
1002
{
1000
OTHER
1070
     0
1002
}
1002
{
1000
REACTOR
1002
}
1001
GENIUS_GENOBJ-N-CEN_13
1002
{
1000
OWNER
1000
GEN
1002
}
1001
GENIUS_GENCEN_19
1002
{
1040
3.0
1002
}
  0
LINE
  5
138A
330
2
100
AcDbEntity
  8
0
  6
CENTER
 62
     4
 48
2.0
100
AcDbLine
 10
262.704910668348
 20
190.4001891730015
 30
0.0
 11
262.704910668348
 21
272.4001891730015
 31
0.0
1001
GENIUS_GENODEF_13
1002
{
1000
HIER
1070
     0
1002
}
1002
{
1000
MANEDIT
1070
     0
1002
}
1002
{
1000
NOSEL
1070
     0
1002
}
1002
{
1000
BEHIND
1070
     0
1002
}
1002
{
1000
OTHER
1070
     0
1002
}
1002
{
1000
REACTOR
1002
}
1001
GENIUS_GENOBJ-N-CEN_13
1002
{
1000
OWNER
1000
GEN
1002
}
1001
GENIUS_GENCEN_19
1002
{
1040
3.0
1002
}
  0
LINE
  5
138B
330
2
100
AcDbEntity
  8
0
  6
CENTER
 62
     4
 48
2.0
100
AcDbLine
 10
540.204910668348
 20
190.4001891730015
 30
0.0
 11
540.204910668348
 21
272.4001891730015
 31
0.0
1001
GENIUS_GENOBJ-N-CEN_13
1002
{
1000
OWNER
1000
GEN
1002
}
1001
GENIUS_GENODEF_13
1002
{
1000
HIER
1070
     0
1002
}
1002
{
1000
MANEDIT
1070
     0
1002
}
1002
{
1000
NOSEL
1070
     0
1002
}
1002
{
1000
BEHIND
1070
     0
1002
}
1002
{
1000
OTHER
1070
     0
1002
}
1002
{
1000
REACTOR
1002
}
1001
GENIUS_GENCEN_19
1002
{
1040
3.0
1002
}
  0
LINE
  5
138C
330
2
100
AcDbEntity
  8
0
 62
     0
 48
0.5
100
AcDbLine
 10
320.2718979664551
 20
306.1501891730015
 30
0.0
 11
321.1379233702392
 21
306.1501891730015
 31
0.0
  0
LINE
  5
138D
330
2
100
AcDbEntity
  8
0
 62
     0
 48
0.5
100
AcDbLine
 10
321.1379233702392
 20
306.1501891730015
 30
0.0
 11
321.5709360721321
 21
305.4001891730016
 31
0.0
  0
LINE
  5
138E
330
2
100
AcDbEntity
  8
0
 62
     0
 48
0.5
100
AcDbLine
 10
321.5709360721321
 20
305.4001891730016
 30
0.0
 11
321.1379233702392
 21
304.6501891730015
 31
0.0
  0
LINE
  5
138F
330
2
100
AcDbEntity
  8
0
 62
     0
 48
0.5
100
AcDbLine
 10
321.1379233702392
 20
304.6501891730015
 30
0.0
 11
320.2718979664551
 21
304.6501891730015
 31
0.0
  0
LINE
  5
1390
330
2
100
AcDbEntity
  8
0
 62
     0
 48
0.5
100
AcDbLine
 10
320.2718979664551
 20
304.6501891730015
 30
0.0
 11
319.8388852645621
 21
305.4001891730016
 31
0.0
  0
LINE
  5
1391
330
2
100
AcDbEntity
  8
0
 62
     0
 48
0.5
100
AcDbLine
 10
319.8388852645621
 20
305.4001891730016
 30
0.0
 11
320.2718979664551
 21
306.1501891730015
 31
0.0
  0
LINE
  5
1392
330
2
100
AcDbEntity
  8
0
 62
     0
100
AcDbLine
 10
480.204910668348
 20
313.9001891729986
 30
0.0
 11
480.204910668348
 21
296.9001891730045
 31
0.0
  0
LINE
  5
1393
330
2
100
AcDbEntity
  8
0
 62
     0
100
AcDbLine
 10
480.204910668348
 20
258.9001891729986
 30
0.0
 11
480.204910668348
 21
241.9001891730045
 31
0.0
  0
CIRCLE
  5
1394
330
2
100
AcDbEntity
  8
0
 62
     0
100
AcDbCircle
 10
540.204910668348
 20
250.4001891729984
 30
0.0
 40
8.5
  0
CIRCLE
  5
1395
330
2
100
AcDbEntity
  8
0
 62
     0
100
AcDbCircle
 10
540.204910668348
 20
250.4001891729984
 30
0.0
 40
8.0
  0
LINE
  5
1396
330
2
100
AcDbEntity
  8
0
  6
CENTER
 62
     4
 48
2.0
100
AcDbLine
 10
298.204910668348
 20
250.4001891730015
 30
0.0
 11
485.2049106683478
 21
250.4001891729986
 31
0.0
1001
GENIUS_GENOBJ-N-CEN_13
1002
{
1000
OWNER
1000
GEN
1002
}
1001
GENIUS_GENODEF_13
1002
{
1000
HIER
1070
     0
1002
}
1002
{
1000
MANEDIT
1070
     0
1002
}
1002
{
1000
NOSEL
1070
     0
1002
}
1002
{
1000
BEHIND
1070
     0
1002
}
1002
{
1000
OTHER
1070
     0
1002
}
1002
{
1000
REACTOR
1002
}
1001
GENIUS_GENCEN_19
1002
{
1040
3.0
1002
}
  0
LINE
  5
1397
330
2
100
AcDbEntity
  8
0
 62
     0
100
AcDbLine
 10
520.7198241174154
 20
195.7001891730019
 30
0.0
 11
559.6899972192821
 21
195.7001891730019
 31
0.0
  0
ARC
  5
1398
330
2
100
AcDbEntity
  8
0
 62
     0
100
AcDbCircle
 10
520.7198241174154
 20
196.2001891730018
 30
0.0
 40
0.5
100
AcDbArc
 50
216.2833970363742
 51
270.0
  0
LINE
  5
1399
330
2
100
AcDbEntity
  8
0
 62
     0
100
AcDbLine
 10
516.5353003078908
 20
202.4001891730015
 30
0.0
 11
563.8745210288052
 21
202.4001891730015
 31
0.0
  0
ARC
  5
139A
330
2
100
AcDbEntity
  8
0
 62
     0
100
AcDbCircle
 10
516.5353003078908
 20
201.9001891730015
 30
0.0
 40
0.5
100
AcDbArc
 50
90.0
 51
216.2833970363742
  0
LINE
  5
139B
330
2
100
AcDbEntity
  8
0
 62
     0
100
AcDbLine
 10
516.132250407969
 20
201.6042993655185
 30
0.0
 11
520.3167742174936
 21
195.9042993655187
 31
0.0
  0
LINE
  5
139C
330
2
100
AcDbEntity
  8
0
 62
     0
100
AcDbLine
 10
560.0930471192041
 20
195.9042993655189
 30
0.0
 11
564.2775709287287
 21
201.6042993655185
 31
0.0
  0
ARC
  5
139D
330
2
100
AcDbEntity
  8
0
 62
     0
100
AcDbCircle
 10
563.8745210288052
 20
201.9001891730015
 30
0.0
 40
0.5
100
AcDbArc
 50
323.7166029636258
 51
90.0
  0
ARC
  5
139E
330
2
100
AcDbEntity
  8
0
 62
     0
100
AcDbCircle
 10
559.6899972192821
 20
196.2001891730018
 30
0.0
 40
0.5
100
AcDbArc
 50
270.0
 51
323.7166029636258
  0
LINE
  5
13A0
330
2
100
AcDbEntity
  8
0
 62
     0
100
AcDbLine
 10
557.7049106683498
 20
199.0501891730016
 30
0.0
 11
557.7049106683498
 21
202.400189173002
 31
0.0
  0
LINE
  5
13A1
330
2
100
AcDbEntity
  8
0
 62
     0
100
AcDbLine
 10
522.7049106683498
 20
199.0501891730016
 30
0.0
 11
522.7049106683498
 21
202.400189173002
 31
0.0
  0
LINE
  5
13A2
330
2
100
AcDbEntity
  8
0
 62
     0
100
AcDbLine
 10
543.9049106683487
 20
199.0501891730016
 30
0.0
 11
543.9049106683487
 21
202.400189173002
 31
0.0
  0
LINE
  5
13A3
330
2
100
AcDbEntity
  8
0
 62
     0
100
AcDbLine
 10
544.4049106683487
 20
199.0501891730016
 30
0.0
 11
544.4049106683487
 21
202.400189173002
 31
0.0
  0
LINE
  5
13A4
330
2
100
AcDbEntity
  8
0
 62
     0
100
AcDbLine
 10
531.9049106683487
 20
199.0501891730016
 30
0.0
 11
531.9049106683487
 21
202.400189173002
 31
0.0
  0
LINE
  5
13A5
330
2
100
AcDbEntity
  8
0
 62
     0
100
AcDbLine
 10
531.4049106683487
 20
199.0501891730016
 30
0.0
 11
531.4049106683487
 21
202.4001891730017
 31
0.0
  0
LINE
  5
13A6
330
2
100
AcDbEntity
  8
0
 62
     0
100
AcDbLine
 10
557.7049106683498
 20
199.0501891730016
 30
0.0
 11
544.4049106683487
 21
199.0501891730016
 31
0.0
  0
LINE
  5
13A7
330
2
100
AcDbEntity
  8
0
 62
     0
100
AcDbLine
 10
543.9049106683487
 20
199.0501891730016
 30
0.0
 11
531.9049106683487
 21
199.0501891730016
 31
0.0
  0
LINE
  5
13A8
330
2
100
AcDbEntity
  8
0
 62
     0
100
AcDbLine
 10
531.4049106683487
 20
199.0501891730016
 30
0.0
 11
522.7049106683498
 21
199.0501891730016
 31
0.0
  0
CIRCLE
  5
13AB
330
2
100
AcDbEntity
  8
0
 62
     0
 48
0.5
100
AcDbCircle
 10
520.2049106683498
 20
199.7001891730016
 30
0.0
 40
2.0
  0
CIRCLE
  5
13AC
330
2
100
AcDbEntity
  8
0
 62
     0
 48
0.5
100
AcDbCircle
 10
520.2049106683498
 20
199.7001891730016
 30
0.0
 40
1.75
  0
LWPOLYLINE
  5
13AD
330
2
100
AcDbEntity
  8
0
 62
     0
 48
0.5
100
AcDbPolyline
 90
        4
 70
     0
 43
0.0
 10
519.9049106683487
 20
200.0001891730017
 10
518.7049106683498
 20
200.0001891730017
 10
518.7049106683498
 20
199.4001891730015
 10
519.9049106683487
 20
199.4001891730015
  0
LWPOLYLINE
  5
13AE
330
2
100
AcDbEntity
  8
0
 62
     0
 48
0.5
100
AcDbPolyline
 90
        4
 70
     0
 43
0.0
 10
520.5049106683491
 20
200.0001891730017
 10
520.5049106683491
 20
201.2001891730017
 10
519.9049106683487
 20
201.2001891730017
 10
519.9049106683487
 20
200.0001891730017
  0
LWPOLYLINE
  5
13AF
330
2
100
AcDbEntity
  8
0
 62
     0
 48
0.5
100
AcDbPolyline
 90
        4
 70
     0
 43
0.0
 10
519.9049106683487
 20
199.4001891730015
 10
519.9049106683487
 20
198.2001891730016
 10
520.5049106683491
 20
198.2001891730016
 10
520.5049106683491
 20
199.4001891730015
  0
LWPOLYLINE
  5
13B0
330
2
100
AcDbEntity
  8
0
 62
     0
 48
0.5
100
AcDbPolyline
 90
        4
 70
     0
 43
0.0
 10
520.5049106683491
 20
199.4001891730015
 10
521.7049106683498
 20
199.4001891730015
 10
521.7049106683498
 20
200.0001891730017
 10
520.5049106683491
 20
200.0001891730017
  0
CIRCLE
  5
13B1
330
2
100
AcDbEntity
  8
0
 62
     0
 48
0.5
100
AcDbCircle
 10
560.2049106683498
 20
199.7001891730016
 30
0.0
 40
2.0
  0
CIRCLE
  5
13B2
330
2
100
AcDbEntity
  8
0
 62
     0
 48
0.5
100
AcDbCircle
 10
560.2049106683498
 20
199.7001891730016
 30
0.0
 40
1.75
  0
LWPOLYLINE
  5
13B3
330
2
100
AcDbEntity
  8
0
 62
     0
 48
0.5
100
AcDbPolyline
 90
        4
 70
     0
 43
0.0
 10
560.5049106683491
 20
200.0001891730017
 10
561.7049106683498
 20
200.0001891730017
 10
561.7049106683498
 20
199.4001891730015
 10
560.5049106683491
 20
199.4001891730015
  0
LWPOLYLINE
  5
13B4
330
2
100
AcDbEntity
  8
0
 62
     0
 48
0.5
100
AcDbPolyline
 90
        4
 70
     0
 43
0.0
 10
559.9049106683487
 20
200.0001891730017
 10
559.9049106683487
 20
201.2001891730017
 10
560.5049106683491
 20
201.2001891730017
 10
560.5049106683491
 20
200.0001891730017
  0
LWPOLYLINE
  5
13B5
330
2
100
AcDbEntity
  8
0
 62
     0
 48
0.5
100
AcDbPolyline
 90
        4
 70
     0
 43
0.0
 10
560.5049106683491
 20
199.4001891730015
 10
560.5049106683491
 20
198.2001891730016
 10
559.9049106683487
 20
198.2001891730016
 10
559.9049106683487
 20
199.4001891730015
  0
LWPOLYLINE
  5
13B6
330
2
100
AcDbEntity
  8
0
 62
     0
 48
0.5
100
AcDbPolyline
 90
        4
 70
     0
 43
0.0
 10
559.9049106683487
 20
199.4001891730015
 10
558.7049106683498
 20
199.4001891730015
 10
558.7049106683498
 20
200.0001891730017
 10
559.9049106683487
 20
200.0001891730017
  0
LINE
  5
13B7
330
2
100
AcDbEntity
  8
0
 62
     0
100
AcDbLine
 10
513.1049106683476
 20
265.4001891730013
 30
0.0
 11
567.3049106683484
 21
265.4001891730013
 31
0.0
  0
ARC
  5
13B8
330
2
100
AcDbEntity
  8
0
 62
     0
100
AcDbCircle
 10
513.1049106683476
 20
263.5001891730015
 30
0.0
 40
1.899999999999636
100
AcDbArc
 50
90.0
 51
180.0
  0
ARC
  5
13B9
330
2
100
AcDbEntity
  8
0
 62
     0
100
AcDbCircle
 10
567.3049106683484
 20
263.5001891730015
 30
0.0
 40
1.90000000000009
100
AcDbArc
 50
0.0
 51
90.0
  0
LINE
  5
13BA
330
2
100
AcDbEntity
  8
0
 62
     0
100
AcDbLine
 10
511.204910668348
 20
206.3001891730014
 30
0.0
 11
511.204910668348
 21
263.5001891730015
 31
0.0
  0
ARC
  5
13BB
330
2
100
AcDbEntity
  8
0
 62
     0
100
AcDbCircle
 10
513.1049106683476
 20
206.3001891730014
 30
0.0
 40
1.9
100
AcDbArc
 50
180.0
 51
270.0
  0
LINE
  5
13BC
330
2
100
AcDbEntity
  8
0
 62
     0
100
AcDbLine
 10
569.204910668348
 20
263.5001891730015
 30
0.0
 11
569.204910668348
 21
206.3001891730014
 31
0.0
  0
ARC
  5
13BD
330
2
100
AcDbEntity
  8
0
 62
     0
100
AcDbCircle
 10
567.3049106683484
 20
206.3001891730014
 30
0.0
 40
1.9
100
AcDbArc
 50
270.0
 51
0.0
  0
LINE
  5
13BE
330
2
100
AcDbEntity
  8
0
 62
     0
100
AcDbLine
 10
513.1049106683476
 20
204.4001891730014
 30
0.0
 11
567.3049106683484
 21
204.4001891730014
 31
0.0
  0
LINE
  5
13BF
330
2
100
AcDbEntity
  8
0
 62
     0
 48
0.5
100
AcDbLine
 10
473.204910668348
 20
195.5001891730014
 30
0.0
 11
477.204910668348
 21
195.5001891730014
 31
0.0
  0
LINE
  5
13C0
330
2
100
AcDbEntity
  8
0
 62
     0
 48
0.5
100
AcDbLine
 10
477.204910668348
 20
202.5001891730014
 30
0.0
 11
477.204910668348
 21
195.5001891730014
 31
0.0
  0
LINE
  5
13C1
330
2
100
AcDbEntity
  8
0
 62
     0
 48
0.5
100
AcDbLine
 10
473.204910668348
 20
195.650189173001
 30
0.0
 11
472.7049106683478
 21
195.650189173001
 31
0.0
  0
LINE
  5
13C2
330
2
100
AcDbEntity
  8
0
 62
     0
 48
0.5
100
AcDbLine
 10
477.204910668348
 20
161.8128550890135
 30
0.0
 11
477.204910668348
 21
162.9001891730015
 31
0.0
  0
LINE
  5
13C3
330
2
100
AcDbEntity
  8
0
 62
     0
100
AcDbLine
 10
473.204910668348
 20
112.9001891730015
 30
0.0
 11
477.204910668348
 21
112.9001891730015
 31
0.0
  0
LINE
  5
13C4
330
2
100
AcDbEntity
  8
0
 62
     0
100
AcDbLine
 10
477.204910668348
 20
117.9001891730015
 30
0.0
 11
473.204910668348
 21
117.9001891730015
 31
0.0
  0
LINE
  5
13C5
330
2
100
AcDbEntity
  8
0
 62
     0
100
AcDbLine
 10
478.204910668348
 20
277.230189173001
 30
0.0
 11
478.204910668348
 21
333.5701891730021
 31
0.0
  0
CIRCLE
  5
13C6
330
2
100
AcDbEntity
  8
0
 62
     0
 48
0.2
100
AcDbCircle
 10
556.704910668348
 20
218.4001891730015
 30
0.0
 40
10.25
  0
CIRCLE
  5
13C7
330
2
100
AcDbEntity
  8
0
 62
     4
 48
0.2
100
AcDbCircle
 10
556.704910668348
 20
218.4001891730015
 30
0.0
 40
8.5
  0
CIRCLE
  5
13C8
330
2
100
AcDbEntity
  8
0
 62
     0
 48
0.2
100
AcDbCircle
 10
556.704910668348
 20
218.4001891730015
 30
0.0
 40
8.999999999999943
  0
CIRCLE
  5
13C9
330
2
100
AcDbEntity
  8
0
 62
     0
 48
0.2
100
AcDbCircle
 10
556.704910668348
 20
218.4001891730015
 30
0.0
 40
10.0
  0
CIRCLE
  5
13CA
330
2
100
AcDbEntity
  8
0
 62
     0
 48
0.5
100
AcDbCircle
 10
556.704910668348
 20
218.4001891730015
 30
0.0
 40
7.0
  0
LWPOLYLINE
  5
13CB
330
2
100
AcDbEntity
  8
0
 62
     0
 48
0.5
100
AcDbPolyline
 90
        4
 70
     0
 43
0.0
 10
557.204910668348
 20
225.3823091948859
 10
557.204910668348
 20
224.9001891730015
 10
556.204910668348
 20
224.9001891730015
 10
556.204910668348
 20
225.3823091948859
  0
CIRCLE
  5
13CC
330
2
100
AcDbEntity
  8
0
 62
     0
 48
0.5
100
AcDbCircle
 10
555.454910668348
 20
222.1501891730015
 30
0.0
 40
0.4
  0
CIRCLE
  5
13CD
330
2
100
AcDbEntity
  8
0
 62
     0
 48
0.5
100
AcDbCircle
 10
557.9549106683479
 20
222.1501891730015
 30
0.0
 40
0.4
  0
CIRCLE
  5
13CE
330
2
100
AcDbEntity
  8
0
 62
     0
 48
0.5
100
AcDbCircle
 10
555.454910668348
 20
219.6501891730015
 30
0.0
 40
0.4
  0
CIRCLE
  5
13CF
330
2
100
AcDbEntity
  8
0
 62
     0
 48
0.5
100
AcDbCircle
 10
557.9549106683479
 20
219.6501891730015
 30
0.0
 40
0.4
  0
CIRCLE
  5
13D0
330
2
100
AcDbEntity
  8
0
 62
     0
 48
0.5
100
AcDbCircle
 10
555.454910668348
 20
217.1501891730015
 30
0.0
 40
0.4
  0
CIRCLE
  5
13D1
330
2
100
AcDbEntity
  8
0
 62
     0
 48
0.5
100
AcDbCircle
 10
557.9549106683479
 20
217.1501891730015
 30
0.0
 40
0.4
  0
CIRCLE
  5
13D2
330
2
100
AcDbEntity
  8
0
 62
     0
 48
0.5
100
AcDbCircle
 10
555.454910668348
 20
214.6501891730015
 30
0.0
 40
0.4
  0
CIRCLE
  5
13D3
330
2
100
AcDbEntity
  8
0
 62
     0
 48
0.5
100
AcDbCircle
 10
557.9549106683479
 20
214.6501891730015
 30
0.0
 40
0.4
  0
CIRCLE
  5
13D4
330
2
100
AcDbEntity
  8
0
 62
     0
 48
0.5
100
AcDbCircle
 10
552.954910668348
 20
219.6501891730015
 30
0.0
 40
0.4
  0
CIRCLE
  5
13D5
330
2
100
AcDbEntity
  8
0
 62
     0
 48
0.5
100
AcDbCircle
 10
552.954910668348
 20
217.1501891730015
 30
0.0
 40
0.4
  0
CIRCLE
  5
13D6
330
2
100
AcDbEntity
  8
0
 62
     0
 48
0.5
100
AcDbCircle
 10
560.454910668348
 20
219.6501891730015
 30
0.0
 40
0.4
  0
CIRCLE
  5
13D7
330
2
100
AcDbEntity
  8
0
 62
     0
 48
0.5
100
AcDbCircle
 10
560.454910668348
 20
217.1501891730015
 30
0.0
 40
0.4
  0
LINE
  5
13D8
330
2
100
AcDbEntity
  8
0
 62
     0
100
AcDbLine
 10
480.204910668348
 20
146.4001891729985
 30
0.0
 11
480.204910668348
 21
129.4001891730045
 31
0.0
  0
LINE
  5
13D9
330
2
100
AcDbEntity
  8
0
 62
     0
100
AcDbLine
 10
328.704910668348
 20
206.4001891730011
 30
0.0
 11
395.439703663631
 21
261.13232155762
 31
0.0
  0
ARC
  5
13DA
330
2
100
AcDbEntity
  8
0
 62
     0
100
AcDbCircle
 10
401.7811647560527
 20
253.4001891729997
 30
0.0
 40
10.0
100
AcDbArc
 50
90.0
 51
129.3566817194784
  0
LINE
  5
13DB
330
2
100
AcDbEntity
  8
0
 62
     0
100
AcDbLine
 10
338.704910668348
 20
206.4001891730011
 30
0.0
 11
408.204910668348
 21
263.4001891729996
 31
0.0
  0
LINE
  5
13DC
330
2
100
AcDbEntity
  8
0
 62
     0
100
AcDbLine
 10
380.8060298009286
 20
208.6680567883809
 30
0.0
 11
447.5408227962116
 21
263.4001891729996
 31
0.0
  0
ARC
  5
13DD
330
2
100
AcDbEntity
  8
0
 62
     0
100
AcDbCircle
 10
374.4645687085067
 20
216.4001891730011
 30
0.0
 40
10.0
100
AcDbArc
 50
270.0
 51
309.3566817194785
  0
LINE
  5
13DE
330
2
100
AcDbEntity
  8
0
 62
     0
100
AcDbLine
 10
401.7811647560527
 20
263.4001891729996
 30
0.0
 11
447.5408227962116
 21
263.4001891729996
 31
0.0
  0
LINE
  5
13DF
330
2
100
AcDbEntity
  8
0
 62
     0
100
AcDbLine
 10
328.704910668348
 20
206.4001891730011
 30
0.0
 11
374.4645687085067
 21
206.4001891730011
 31
0.0
  0
LINE
  5
13E1
330
2
100
AcDbEntity
  8
0
 62
     0
 48
0.0351
100
AcDbLine
 10
434.1462805433466
 20
209.6685016730007
 30
0.0
 11
439.7271487433481
 21
209.6685016730007
 31
0.0
  0
LINE
  5
13E2
330
2
100
AcDbEntity
  8
0
 62
     0
 48
0.005062
100
AcDbLine
 10
439.7271487433481
 20
209.6685016730007
 30
0.0
 11
439.7271487433481
 21
210.473439173001
 31
0.0
  0
LINE
  5
13E3
330
2
100
AcDbEntity
  8
0
 62
     0
 48
0.00945
100
AcDbLine
 10
439.7271487433481
 20
210.473439173001
 30
0.0
 11
438.2246345183467
 21
210.473439173001
 31
0.0
  0
LINE
  5
13E4
330
2
100
AcDbEntity
  8
0
 62
     0
 48
0.03375
100
AcDbLine
 10
438.2246345183467
 20
210.473439173001
 30
0.0
 11
438.2246345183467
 21
215.8397130230016
 31
0.0
  0
LINE
  5
13E5
330
2
100
AcDbEntity
  8
0
 62
     0
 48
0.00945
100
AcDbLine
 10
438.2246345183467
 20
215.8397130230016
 30
0.0
 11
439.7271487433481
 21
215.8397130230016
 31
0.0
  0
LINE
  5
13E6
330
2
100
AcDbEntity
  8
0
 62
     0
 48
0.005062
100
AcDbLine
 10
439.7271487433481
 20
215.8397130230016
 30
0.0
 11
439.7271487433481
 21
216.6446465480017
 31
0.0
  0
LINE
  5
13E7
330
2
100
AcDbEntity
  8
0
 62
     0
 48
0.0351
100
AcDbLine
 10
439.7271487433481
 20
216.6446465480017
 30
0.0
 11
434.1462805433466
 21
216.6446465480017
 31
0.0
  0
LINE
  5
13E8
330
2
100
AcDbEntity
  8
0
 62
     0
 48
0.005062
100
AcDbLine
 10
434.1462805433466
 20
216.6446465480017
 30
0.0
 11
434.1462805433466
 21
215.8397130230016
 31
0.0
  0
LINE
  5
13E9
330
2
100
AcDbEntity
  8
0
 62
     0
 48
0.00945
100
AcDbLine
 10
434.1462805433466
 20
215.8397130230016
 30
0.0
 11
435.6487947683482
 21
215.8397130230016
 31
0.0
  0
LINE
  5
13EA
330
2
100
AcDbEntity
  8
0
 62
     0
 48
0.03375
100
AcDbLine
 10
435.6487947683482
 20
215.8397130230016
 30
0.0
 11
435.6487947683482
 21
210.473439173001
 31
0.0
  0
LINE
  5
13EB
330
2
100
AcDbEntity
  8
0
 62
     0
 48
0.00945
100
AcDbLine
 10
435.6487947683482
 20
210.473439173001
 30
0.0
 11
434.1462805433466
 21
210.473439173001
 31
0.0
  0
LINE
  5
13EC
330
2
100
AcDbEntity
  8
0
 62
     0
 48
0.005062
100
AcDbLine
 10
434.1462805433466
 20
210.473439173001
 30
0.0
 11
434.1462805433466
 21
209.6685016730007
 31
0.0
  0
LINE
  5
13ED
330
2
100
AcDbEntity
  8
0
 62
     0
 48
0.005062
100
AcDbLine
 10
431.463143618349
 20
209.6685016730007
 30
0.0
 11
431.463143618349
 21
210.473439173001
 31
0.0
  0
LINE
  5
13EE
330
2
100
AcDbEntity
  8
0
 62
     0
 48
0.00945
100
AcDbLine
 10
431.463143618349
 20
210.473439173001
 30
0.0
 11
429.9605697683491
 21
210.473439173001
 31
0.0
  0
LINE
  5
13EF
330
2
100
AcDbEntity
  8
0
 62
     0
 48
0.03375
100
AcDbLine
 10
429.9605697683491
 20
210.473439173001
 30
0.0
 11
429.9605697683491
 21
215.8397130230016
 31
0.0
  0
LINE
  5
13F0
330
2
100
AcDbEntity
  8
0
 62
     0
 48
0.00945
100
AcDbLine
 10
429.9605697683491
 20
215.8397130230016
 30
0.0
 11
431.463143618349
 21
215.8397130230016
 31
0.0
  0
LINE
  5
13F1
330
2
100
AcDbEntity
  8
0
 62
     0
 48
0.005062
100
AcDbLine
 10
431.463143618349
 20
215.8397130230016
 30
0.0
 11
431.463143618349
 21
216.6446465480017
 31
0.0
  0
LINE
  5
13F2
330
2
100
AcDbEntity
  8
0
 62
     0
 48
0.03375
100
AcDbLine
 10
431.463143618349
 20
216.6446465480017
 30
0.0
 11
426.0968697683483
 21
216.6446465480017
 31
0.0
  0
LINE
  5
13F3
330
2
100
AcDbEntity
  8
0
 62
     0
 48
0.005062
100
AcDbLine
 10
426.0968697683483
 20
216.6446465480017
 30
0.0
 11
426.0968697683483
 21
215.8397130230016
 31
0.0
  0
LINE
  5
13F4
330
2
100
AcDbEntity
  8
0
 62
     0
 48
0.00945
100
AcDbLine
 10
426.0968697683483
 20
215.8397130230016
 30
0.0
 11
427.5994436183482
 21
215.8397130230016
 31
0.0
  0
LINE
  5
13F5
330
2
100
AcDbEntity
  8
0
 62
     0
 48
0.012825
100
AcDbLine
 10
427.5994436183482
 20
215.8397130230016
 30
0.0
 11
427.5994436183482
 21
213.8005340480015
 31
0.0
  0
LINE
  5
13F6
330
2
100
AcDbEntity
  8
0
 62
     0
 48
0.0324
100
AcDbLine
 10
427.5994436183482
 20
213.8005340480015
 30
0.0
 11
422.4478197683493
 21
213.8005340480015
 31
0.0
  0
LINE
  5
13F7
330
2
100
AcDbEntity
  8
0
 62
     0
 48
0.012825
100
AcDbLine
 10
422.4478197683493
 20
213.8005340480015
 30
0.0
 11
422.4478197683493
 21
215.8397130230016
 31
0.0
  0
LINE
  5
13F8
330
2
100
AcDbEntity
  8
0
 62
     0
 48
0.00945
100
AcDbLine
 10
422.4478197683493
 20
215.8397130230016
 30
0.0
 11
423.9503936183491
 21
215.8397130230016
 31
0.0
  0
LINE
  5
13F9
330
2
100
AcDbEntity
  8
0
 62
     0
 48
0.005062
100
AcDbLine
 10
423.9503936183491
 20
215.8397130230016
 30
0.0
 11
423.9503936183491
 21
216.6446465480017
 31
0.0
  0
LINE
  5
13FA
330
2
100
AcDbEntity
  8
0
 62
     0
 48
0.03375
100
AcDbLine
 10
423.9503936183491
 20
216.6446465480017
 30
0.0
 11
418.5841197683483
 21
216.6446465480017
 31
0.0
  0
LINE
  5
13FB
330
2
100
AcDbEntity
  8
0
 62
     0
 48
0.005062
100
AcDbLine
 10
418.5841197683483
 20
216.6446465480017
 30
0.0
 11
418.5841197683483
 21
215.8397130230016
 31
0.0
  0
LINE
  5
13FC
330
2
100
AcDbEntity
  8
0
 62
     0
 48
0.00945
100
AcDbLine
 10
418.5841197683483
 20
215.8397130230016
 30
0.0
 11
420.0866936183484
 21
215.8397130230016
 31
0.0
  0
LINE
  5
13FD
330
2
100
AcDbEntity
  8
0
 62
     0
 48
0.03375
100
AcDbLine
 10
420.0866936183484
 20
215.8397130230016
 30
0.0
 11
420.0866936183484
 21
210.473439173001
 31
0.0
  0
LINE
  5
13FE
330
2
100
AcDbEntity
  8
0
 62
     0
 48
0.00945
100
AcDbLine
 10
420.0866936183484
 20
210.473439173001
 30
0.0
 11
418.5841197683483
 21
210.473439173001
 31
0.0
  0
LINE
  5
13FF
330
2
100
AcDbEntity
  8
0
 62
     0
 48
0.005062
100
AcDbLine
 10
418.5841197683483
 20
210.473439173001
 30
0.0
 11
418.5841197683483
 21
209.6685016730007
 31
0.0
  0
LINE
  5
1400
330
2
100
AcDbEntity
  8
0
 62
     0
 48
0.03375
100
AcDbLine
 10
418.5841197683483
 20
209.6685016730007
 30
0.0
 11
423.9503936183491
 21
209.6685016730007
 31
0.0
  0
LINE
  5
1401
330
2
100
AcDbEntity
  8
0
 62
     0
 48
0.005062
100
AcDbLine
 10
423.9503936183491
 20
209.6685016730007
 30
0.0
 11
423.9503936183491
 21
210.473439173001
 31
0.0
  0
LINE
  5
1402
330
2
100
AcDbEntity
  8
0
 62
     0
 48
0.00945
100
AcDbLine
 10
423.9503936183491
 20
210.473439173001
 30
0.0
 11
422.4478197683493
 21
210.473439173001
 31
0.0
  0
LINE
  5
1403
330
2
100
AcDbEntity
  8
0
 62
     0
 48
0.012825
100
AcDbLine
 10
422.4478197683493
 20
210.473439173001
 30
0.0
 11
422.4478197683493
 21
212.5126141730009
 31
0.0
  0
LINE
  5
1404
330
2
100
AcDbEntity
  8
0
 62
     0
 48
0.0324
100
AcDbLine
 10
422.4478197683493
 20
212.5126141730009
 30
0.0
 11
427.5994436183482
 21
212.5126141730009
 31
0.0
  0
LINE
  5
1405
330
2
100
AcDbEntity
  8
0
 62
     0
 48
0.012825
100
AcDbLine
 10
427.5994436183482
 20
212.5126141730009
 30
0.0
 11
427.5994436183482
 21
210.473439173001
 31
0.0
  0
LINE
  5
1406
330
2
100
AcDbEntity
  8
0
 62
     0
 48
0.00945
100
AcDbLine
 10
427.5994436183482
 20
210.473439173001
 30
0.0
 11
426.0968697683483
 21
210.473439173001
 31
0.0
  0
LINE
  5
1407
330
2
100
AcDbEntity
  8
0
 62
     0
 48
0.005062
100
AcDbLine
 10
426.0968697683483
 20
210.473439173001
 30
0.0
 11
426.0968697683483
 21
209.6685016730007
 31
0.0
  0
LINE
  5
1408
330
2
100
AcDbEntity
  8
0
 62
     0
 48
0.03375
100
AcDbLine
 10
426.0968697683483
 20
209.6685016730007
 30
0.0
 11
431.463143618349
 21
209.6685016730007
 31
0.0
  0
LINE
  5
1409
330
2
100
AcDbEntity
  8
0
 62
     0
 48
0.029025
100
AcDbLine
 10
447.0252407933484
 20
209.6685016730007
 30
0.0
 11
442.4102856683512
 21
209.6685016730007
 31
0.0
  0
LINE
  5
140A
330
2
100
AcDbEntity
  8
0
 62
     0
 48
0.005062
100
AcDbLine
 10
447.0252407933484
 20
210.473439173001
 30
0.0
 11
447.0252407933484
 21
209.6685016730007
 31
0.0
  0
LINE
  5
140B
330
2
100
AcDbEntity
  8
0
 62
     0
 48
0.00945
100
AcDbLine
 10
445.5227265683497
 20
210.473439173001
 30
0.0
 11
447.0252407933484
 21
210.473439173001
 31
0.0
  0
LINE
  5
140C
330
2
100
AcDbEntity
  8
0
 62
     0
 48
0.023288
100
AcDbLine
 10
445.5227265683497
 20
214.1761635980013
 30
0.0
 11
445.5227265683497
 21
210.473439173001
 31
0.0
  0
LINE
  5
140D
330
2
100
AcDbEntity
  8
0
 62
     0
 48
0.045119
100
AcDbLine
 10
451.1035947683486
 20
209.6685016730007
 30
0.0
 11
445.5227265683497
 21
214.1761635980013
 31
0.0
  0
LINE
  5
140E
330
2
100
AcDbEntity
  8
0
 62
     0
 48
0.0135
100
AcDbLine
 10
453.2501305433489
 20
209.6685016730007
 30
0.0
 11
451.1035947683486
 21
209.6685016730007
 31
0.0
  0
LINE
  5
140F
330
2
100
AcDbEntity
  8
0
 62
     0
 48
0.038813
100
AcDbLine
 10
453.2501305433489
 20
215.8397130230016
 30
0.0
 11
453.2501305433489
 21
209.6685016730007
 31
0.0
  0
LINE
  5
1410
330
2
100
AcDbEntity
  8
0
 62
     0
 48
0.00945
100
AcDbLine
 10
454.7526407933501
 20
215.8397130230016
 30
0.0
 11
453.2501305433489
 21
215.8397130230016
 31
0.0
  0
LINE
  5
1411
330
2
100
AcDbEntity
  8
0
 62
     0
 48
0.005062
100
AcDbLine
 10
454.7526407933501
 20
216.6446465480017
 30
0.0
 11
454.7526407933501
 21
215.8397130230016
 31
0.0
  0
LINE
  5
1412
330
2
100
AcDbEntity
  8
0
 62
     0
 48
0.029025
100
AcDbLine
 10
450.1376856683473
 20
216.6446465480017
 30
0.0
 11
454.7526407933501
 21
216.6446465480017
 31
0.0
  0
LINE
  5
1413
330
2
100
AcDbEntity
  8
0
 62
     0
 48
0.005062
100
AcDbLine
 10
450.1376856683473
 20
215.8397130230016
 30
0.0
 11
450.1376856683473
 21
216.6446465480017
 31
0.0
  0
LINE
  5
1414
330
2
100
AcDbEntity
  8
0
 62
     0
 48
0.00945
100
AcDbLine
 10
451.640259518347
 20
215.8397130230016
 30
0.0
 11
450.1376856683473
 21
215.8397130230016
 31
0.0
  0
LINE
  5
1415
330
2
100
AcDbEntity
  8
0
 62
     0
 48
0.023288
100
AcDbLine
 10
451.640259518347
 20
212.1369885980007
 30
0.0
 11
451.640259518347
 21
215.8397130230016
 31
0.0
  0
LINE
  5
1416
330
2
100
AcDbEntity
  8
0
 62
     0
 48
0.045119
100
AcDbLine
 10
446.0593316933473
 20
216.6446465480017
 30
0.0
 11
451.640259518347
 21
212.1369885980007
 31
0.0
  0
LINE
  5
1417
330
2
100
AcDbEntity
  8
0
 62
     0
 48
0.02295
100
AcDbLine
 10
442.4102856683512
 20
216.6446465480017
 30
0.0
 11
446.0593316933473
 21
216.6446465480017
 31
0.0
  0
LINE
  5
1418
330
2
100
AcDbEntity
  8
0
 62
     0
 48
0.005062
100
AcDbLine
 10
442.4102856683512
 20
215.8397130230016
 30
0.0
 11
442.4102856683512
 21
216.6446465480017
 31
0.0
  0
LINE
  5
1419
330
2
100
AcDbEntity
  8
0
 62
     0
 48
0.00945
100
AcDbLine
 10
443.9128595183508
 20
215.8397130230016
 30
0.0
 11
442.4102856683512
 21
215.8397130230016
 31
0.0
  0
LINE
  5
141A
330
2
100
AcDbEntity
  8
0
 62
     0
 48
0.03375
100
AcDbLine
 10
443.9128595183508
 20
210.473439173001
 30
0.0
 11
443.9128595183508
 21
215.8397130230016
 31
0.0
  0
LINE
  5
141B
330
2
100
AcDbEntity
  8
0
 62
     0
 48
0.00945
100
AcDbLine
 10
442.4102856683512
 20
210.473439173001
 30
0.0
 11
443.9128595183508
 21
210.473439173001
 31
0.0
  0
LINE
  5
141C
330
2
100
AcDbEntity
  8
0
 62
     0
 48
0.005062
100
AcDbLine
 10
442.4102856683512
 20
209.6685016730007
 30
0.0
 11
442.4102856683512
 21
210.473439173001
 31
0.0
  0
ARC
  5
141D
330
2
100
AcDbEntity
  8
0
 62
     0
100
AcDbCircle
 10
462.5337231683507
 20
206.2877880230005
 30
0.0
 40
10.625175
100
AcDbArc
 50
64.7249900000072
 51
115.2750149999942
  0
ARC
  5
141E
330
2
100
AcDbEntity
  8
0
 62
     0
100
AcDbCircle
 10
459.4749566933479
 20
213.1565760980013
 30
0.0
 40
3.112424999999998
100
AcDbArc
 50
118.3467549999894
 51
241.6532420000006
  0
ARC
  5
141F
330
2
100
AcDbEntity
  8
0
 62
     0
100
AcDbCircle
 10
462.5337231683507
 20
220.0253641730014
 30
0.0
 40
10.625175
100
AcDbArc
 50
244.7249959999987
 51
295.2750069999945
  0
ARC
  5
1420
330
2
100
AcDbEntity
  8
0
 62
     0
100
AcDbCircle
 10
465.5924856683476
 20
213.1565760980013
 30
0.0
 40
3.112424999999998
100
AcDbArc
 50
298.3467619999952
 51
61.65324300002192
  0
ARC
  5
1421
330
2
100
AcDbEntity
  8
0
 62
     0
100
AcDbCircle
 10
463.2313595183496
 20
213.1565760980013
 30
0.0
 40
2.790449999999998
100
AcDbArc
 50
305.4392029999758
 51
70.52459300000347
  0
ARC
  5
1422
330
2
100
AcDbEntity
  8
0
 62
     0
100
AcDbCircle
 10
462.5337231683507
 20
214.498114748001
 30
0.0
 40
4.293083474999998
100
AcDbArc
 50
237.358228
 51
302.6417750000072
  0
ARC
  5
1423
330
2
100
AcDbEntity
  8
0
 62
     0
100
AcDbCircle
 10
461.8361424683498
 20
213.1565760980013
 30
0.0
 40
2.790449999999998
100
AcDbArc
 50
125.4734559999925
 51
234.5607989999776
  0
ARC
  5
1424
330
2
100
AcDbEntity
  8
0
 62
     0
100
AcDbCircle
 10
462.5337231683507
 20
211.8149778230013
 30
0.0
 40
4.293
100
AcDbArc
 50
67.71515100001909
 51
122.6640080000099
  0
ARC
  5
1425
330
2
100
AcDbEntity
  8
0
 62
     0
100
AcDbCircle
 10
410.9640765683471
 20
210.5271175730011
 30
0.0
 40
5.419912499999997
100
AcDbArc
 50
47.61290100002136
 51
130.836589999987
  0
ARC
  5
1426
330
2
100
AcDbEntity
  8
0
 62
     0
100
AcDbCircle
 10
412.4665907933485
 20
213.1565760980013
 30
0.0
 40
2.552415074999998
100
AcDbArc
 50
22.23683299998921
 51
32.56157500000718
  0
LINE
  5
1427
330
2
100
AcDbEntity
  8
0
 62
     0
 48
0.009779
100
AcDbLine
 10
416.3839691933508
 20
214.1224851980012
 30
0.0
 11
414.8291717933497
 21
214.1224851980012
 31
0.0
  0
LINE
  5
1428
330
2
100
AcDbEntity
  8
0
 62
     0
 48
0.015863
100
AcDbLine
 10
416.3839691933508
 20
214.1224851980012
 30
0.0
 11
416.3839691933508
 21
216.6446465480017
 31
0.0
  0
LINE
  5
1429
330
2
100
AcDbEntity
  8
0
 62
     0
 48
0.007425
100
AcDbLine
 10
416.3839691933508
 20
216.6446465480017
 30
0.0
 11
415.2034061183476
 21
216.6446465480017
 31
0.0
  0
LINE
  5
142A
330
2
100
AcDbEntity
  8
0
 62
     0
 48
0.006848
100
AcDbLine
 10
415.2034061183476
 20
216.6446465480017
 30
0.0
 11
415.2034061183476
 21
215.5558542980009
 31
0.0
  0
ARC
  5
142B
330
2
100
AcDbEntity
  8
0
 62
     0
100
AcDbCircle
 10
412.4665907933485
 20
212.1906669980008
 30
0.0
 40
4.337571674999998
100
AcDbArc
 50
50.87978999997882
 51
69.67686400002128
  0
ARC
  5
142C
330
2
100
AcDbEntity
  8
0
 62
     0
100
AcDbCircle
 10
410.3201186183468
 20
206.3950851980016
 30
0.0
 40
10.51785
100
AcDbArc
 50
69.67686400002098
 51
114.9026059999956
  0
ARC
  5
142D
330
2
100
AcDbEntity
  8
0
 62
     0
100
AcDbCircle
 10
407.5296845183475
 20
213.1565760980013
 30
0.0
 40
3.2255535
100
AcDbArc
 50
120.526432999999
 51
239.4735629999976
  0
ARC
  5
142E
330
2
100
AcDbEntity
  8
0
 62
     0
100
AcDbCircle
 10
410.3201186183468
 20
219.9180669980017
 30
0.0
 40
10.51785
100
AcDbArc
 50
245.0974039999865
 51
290.3231459999651
  0
ARC
  5
142F
330
2
100
AcDbEntity
  8
0
 62
     0
100
AcDbCircle
 10
412.4665907933485
 20
214.1224851980012
 30
0.0
 40
4.337571674999998
100
AcDbArc
 50
290.32314599996
 51
333.5525890000081
  0
LINE
  5
1430
330
2
100
AcDbEntity
  8
0
 62
     0
 48
0.009566
100
AcDbLine
 10
416.3502452933461
 20
212.1906669980008
 30
0.0
 11
414.8291717933497
 21
212.1906669980008
 31
0.0
  0
ARC
  5
1431
330
2
100
AcDbEntity
  8
0
 62
     0
100
AcDbCircle
 10
412.4665907933485
 20
213.1565760980013
 30
0.0
 40
2.552415074999998
100
AcDbArc
 50
299.7448729999918
 51
337.7631539999982
  0
ARC
  5
1432
330
2
100
AcDbEntity
  8
0
 62
     0
100
AcDbCircle
 10
410.9640765683471
 20
215.7860346230016
 30
0.0
 40
5.580899999999997
100
AcDbArc
 50
242.0490359999746
 51
299.7448729999918
  0
ARC
  5
1433
330
2
100
AcDbEntity
  8
0
 62
     0
100
AcDbCircle
 10
409.5688595183474
 20
213.1565760980013
 30
0.0
 40
2.604201374999999
100
AcDbArc
 50
145.604456
 51
242.0490359999782
  0
LINE
  5
1436
330
2
100
AcDbEntity
  8
0
 62
     0
 48
0.2
100
AcDbLine
 10
480.204910668348
 20
330.9001891730016
 30
0.0
 11
487.204910668348
 21
330.9001891730016
 31
0.0
  0
LINE
  5
1437
330
2
100
AcDbEntity
  8
0
 62
     0
 48
0.2
100
AcDbLine
 10
487.204910668348
 20
330.9001891730016
 30
0.0
 11
487.704910668348
 21
330.4001891730016
 31
0.0
  0
LINE
  5
1438
330
2
100
AcDbEntity
  8
0
 62
     0
 48
0.2
100
AcDbLine
 10
487.704910668348
 20
330.4001891730016
 30
0.0
 11
487.704910668348
 21
313.4001891730016
 31
0.0
  0
LINE
  5
1439
330
2
100
AcDbEntity
  8
0
 62
     4
 48
0.2
100
AcDbLine
 10
480.204910668348
 20
330.4001891730016
 30
0.0
 11
487.704910668348
 21
330.4001891730016
 31
0.0
  0
LINE
  5
143A
330
2
100
AcDbEntity
  8
0
 62
     0
 48
0.2
100
AcDbLine
 10
487.704910668348
 20
330.4001891730016
 30
0.0
 11
487.704910668348
 21
313.4001891730016
 31
0.0
  0
LINE
  5
143B
330
2
100
AcDbEntity
  8
0
 62
     4
 48
0.2
100
AcDbLine
 10
487.204910668348
 20
330.9001891730016
 30
0.0
 11
487.204910668348
 21
312.9001891730017
 31
0.0
  0
LINE
  5
143C
330
2
100
AcDbEntity
  8
0
 62
     4
 48
0.2
100
AcDbLine
 10
487.704910668348
 20
313.4001891730016
 30
0.0
 11
480.204910668348
 21
313.4001891730016
 31
0.0
  0
LINE
  5
143D
330
2
100
AcDbEntity
  8
0
 62
     0
 48
0.2
100
AcDbLine
 10
487.704910668348
 20
313.4001891730016
 30
0.0
 11
487.204910668348
 21
312.9001891730017
 31
0.0
  0
LINE
  5
143E
330
2
100
AcDbEntity
  8
0
 62
     0
 48
0.2
100
AcDbLine
 10
487.204910668348
 20
312.9001891730017
 30
0.0
 11
480.204910668348
 21
312.9001891730017
 31
0.0
  0
LINE
  5
143F
330
2
100
AcDbEntity
  8
0
 62
     4
 48
0.2
100
AcDbLine
 10
480.204910668348
 20
226.9001891730015
 30
0.0
 11
487.704910668348
 21
226.9001891730015
 31
0.0
  0
LINE
  5
1440
330
2
100
AcDbEntity
  8
0
 62
     0
 48
0.2
100
AcDbLine
 10
487.704910668348
 20
226.9001891730015
 30
0.0
 11
487.704910668348
 21
209.9001891730015
 31
0.0
  0
LINE
  5
1441
330
2
100
AcDbEntity
  8
0
 62
     4
 48
0.2
100
AcDbLine
 10
487.704910668348
 20
209.9001891730015
 30
0.0
 11
480.204910668348
 21
209.9001891730015
 31
0.0
  0
LINE
  5
1442
330
2
100
AcDbEntity
  8
0
 62
     0
 48
0.2
100
AcDbLine
 10
480.204910668348
 20
227.4001891730015
 30
0.0
 11
487.204910668348
 21
227.4001891730015
 31
0.0
  0
LINE
  5
1443
330
2
100
AcDbEntity
  8
0
 62
     0
 48
0.2
100
AcDbLine
 10
487.204910668348
 20
227.4001891730015
 30
0.0
 11
487.704910668348
 21
226.9001891730015
 31
0.0
  0
LINE
  5
1444
330
2
100
AcDbEntity
  8
0
 62
     0
 48
0.2
100
AcDbLine
 10
487.704910668348
 20
226.9001891730015
 30
0.0
 11
487.704910668348
 21
209.9001891730015
 31
0.0
  0
LINE
  5
1445
330
2
100
AcDbEntity
  8
0
 62
     0
 48
0.2
100
AcDbLine
 10
487.704910668348
 20
209.9001891730015
 30
0.0
 11
487.204910668348
 21
209.4001891730016
 31
0.0
  0
LINE
  5
1446
330
2
100
AcDbEntity
  8
0
 62
     0
 48
0.2
100
AcDbLine
 10
487.204910668348
 20
209.4001891730016
 30
0.0
 11
480.204910668348
 21
209.4001891730016
 31
0.0
  0
LINE
  5
1447
330
2
100
AcDbEntity
  8
0
 62
     4
 48
0.2
100
AcDbLine
 10
487.204910668348
 20
227.4001891730015
 30
0.0
 11
487.204910668348
 21
209.4001891730016
 31
0.0
  0
LINE
  5
1448
330
2
100
AcDbEntity
  8
0
 62
     0
 48
0.2
100
AcDbLine
 10
480.204910668348
 20
112.4001891730015
 30
0.0
 11
487.204910668348
 21
112.4001891730015
 31
0.0
  0
LINE
  5
1449
330
2
100
AcDbEntity
  8
0
 62
     4
 48
0.2
100
AcDbLine
 10
480.204910668348
 20
129.9001891730013
 30
0.0
 11
487.704910668348
 21
129.9001891730013
 31
0.0
  0
LINE
  5
144A
330
2
100
AcDbEntity
  8
0
 62
     0
 48
0.2
100
AcDbLine
 10
487.704910668348
 20
129.9001891730013
 30
0.0
 11
487.704910668348
 21
112.9001891730015
 31
0.0
  0
LINE
  5
144B
330
2
100
AcDbEntity
  8
0
 62
     4
 48
0.2
100
AcDbLine
 10
487.704910668348
 20
112.9001891730015
 30
0.0
 11
480.204910668348
 21
112.9001891730015
 31
0.0
  0
LINE
  5
144C
330
2
100
AcDbEntity
  8
0
 62
     0
 48
0.2
100
AcDbLine
 10
480.204910668348
 20
130.4001891730013
 30
0.0
 11
487.204910668348
 21
130.4001891730013
 31
0.0
  0
LINE
  5
144D
330
2
100
AcDbEntity
  8
0
 62
     0
 48
0.2
100
AcDbLine
 10
487.204910668348
 20
130.4001891730013
 30
0.0
 11
487.704910668348
 21
129.9001891730013
 31
0.0
  0
LINE
  5
144E
330
2
100
AcDbEntity
  8
0
 62
     0
 48
0.2
100
AcDbLine
 10
487.704910668348
 20
129.9001891730013
 30
0.0
 11
487.704910668348
 21
112.9001891730015
 31
0.0
  0
LINE
  5
144F
330
2
100
AcDbEntity
  8
0
 62
     0
 48
0.2
100
AcDbLine
 10
487.704910668348
 20
112.9001891730015
 30
0.0
 11
487.204910668348
 21
112.4001891730015
 31
0.0
  0
LINE
  5
1450
330
2
100
AcDbEntity
  8
0
 62
     4
 48
0.2
100
AcDbLine
 10
487.204910668348
 20
130.4001891730013
 30
0.0
 11
487.204910668348
 21
112.4001891730015
 31
0.0
  0
LINE
  5
1451
330
2
100
AcDbEntity
  8
0
 62
     0
 48
0.2
100
AcDbLine
 10
542.3690724276617
 20
234.9001891730015
 30
0.0
 11
542.3690724276617
 21
217.5001891730016
 31
0.0
  0
LINE
  5
1452
330
2
100
AcDbEntity
  8
0
 62
     0
 48
0.2
100
AcDbLine
 10
542.3690724276617
 20
217.5001891730016
 30
0.0
 11
515.8690724276619
 21
217.5001891730016
 31
0.0
  0
LINE
  5
1453
330
2
100
AcDbEntity
  8
0
 62
     0
 48
0.2
100
AcDbLine
 10
515.8690724276619
 20
217.5001891730016
 30
0.0
 11
515.8690724276608
 21
234.9001891730015
 31
0.0
  0
LINE
  5
1454
330
2
100
AcDbEntity
  8
0
 62
     0
 48
0.5
100
AcDbLine
 10
513.1190724276619
 20
234.9001891730015
 30
0.0
 11
513.1190724276619
 21
214.7501891730017
 31
0.0
  0
LINE
  5
1455
330
2
100
AcDbEntity
  8
0
 62
     0
 48
0.5
100
AcDbLine
 10
545.1190724276616
 20
234.9001891730015
 30
0.0
 11
545.1190724276616
 21
214.7501891730014
 31
0.0
  0
LINE
  5
1456
330
2
100
AcDbEntity
  8
0
 62
     0
 48
0.2
100
AcDbLine
 10
542.3690724276617
 20
217.5001891730016
 30
0.0
 11
515.8690724276619
 21
217.5001891730016
 31
0.0
  0
LINE
  5
1457
330
2
100
AcDbEntity
  8
0
 62
     0
 48
0.5
100
AcDbLine
 10
545.1190724276608
 20
214.7501891730014
 30
0.0
 11
513.1190724276619
 21
214.7501891730017
 31
0.0
  0
LINE
  5
1458
330
2
100
AcDbEntity
  8
0
 62
     0
 48
0.5
100
AcDbLine
 10
515.8690724276619
 20
217.5001891730016
 30
0.0
 11
513.1190724276619
 21
214.7501891730017
 31
0.0
  0
LINE
  5
1459
330
2
100
AcDbEntity
  8
0
 62
     0
 48
0.5
100
AcDbLine
 10
542.3690724276617
 20
217.5001891730016
 30
0.0
 11
545.1190724276608
 21
214.7501891730014
 31
0.0
  0
CIRCLE
  5
145A
330
2
100
AcDbEntity
  8
0
 62
     0
100
AcDbCircle
 10
516.204910668348
 20
250.4001891730015
 30
0.0
 40
3.0
  0
CIRCLE
  5
145B
330
2
100
AcDbEntity
  8
0
 62
     0
100
AcDbCircle
 10
564.2049106683479
 20
250.4001891730015
 30
0.0
 40
3.0
  0
LWPOLYLINE
  5
145C
330
2
100
AcDbEntity
  8
0
 62
     0
100
AcDbPolyline
 90
        4
 70
     0
 43
0.0
 10
515.704910668348
 20
249.9001891730015
 10
513.704910668348
 20
249.9001891730015
 10
513.704910668348
 20
250.9001891730015
 10
515.704910668348
 20
250.9001891730015
  0
LWPOLYLINE
  5
145D
330
2
100
AcDbEntity
  8
0
 62
     0
100
AcDbPolyline
 90
        4
 70
     0
 43
0.0
 10
516.704910668348
 20
250.9001891730015
 10
518.704910668348
 20
250.9001891730015
 10
518.704910668348
 20
249.9001891730015
 10
516.704910668348
 20
249.9001891730015
  0
LWPOLYLINE
  5
145E
330
2
100
AcDbEntity
  8
0
 62
     0
100
AcDbPolyline
 90
        4
 70
     0
 43
0.0
 10
515.704910668348
 20
250.9001891730015
 10
515.704910668348
 20
252.9001891730015
 10
516.704910668348
 20
252.9001891730015
 10
516.704910668348
 20
250.9001891730015
  0
LWPOLYLINE
  5
145F
330
2
100
AcDbEntity
  8
0
 62
     0
100
AcDbPolyline
 90
        4
 70
     0
 43
0.0
 10
516.704910668348
 20
249.9001891730015
 10
516.704910668348
 20
247.9001891730015
 10
515.704910668348
 20
247.9001891730015
 10
515.704910668348
 20
249.9001891730015
  0
LWPOLYLINE
  5
1460
330
2
100
AcDbEntity
  8
0
 62
     0
100
AcDbPolyline
 90
        4
 70
     0
 43
0.0
 10
564.704910668348
 20
249.9001891730015
 10
566.704910668348
 20
249.9001891730015
 10
566.704910668348
 20
250.9001891730015
 10
564.704910668348
 20
250.9001891730015
  0
LWPOLYLINE
  5
1461
330
2
100
AcDbEntity
  8
0
 62
     0
100
AcDbPolyline
 90
        4
 70
     0
 43
0.0
 10
563.704910668348
 20
250.9001891730015
 10
561.704910668348
 20
250.9001891730015
 10
561.704910668348
 20
249.9001891730015
 10
563.704910668348
 20
249.9001891730015
  0
LWPOLYLINE
  5
1462
330
2
100
AcDbEntity
  8
0
 62
     0
100
AcDbPolyline
 90
        4
 70
     0
 43
0.0
 10
564.704910668348
 20
250.9001891730015
 10
564.704910668348
 20
252.9001891730015
 10
563.704910668348
 20
252.9001891730015
 10
563.704910668348
 20
250.9001891730015
  0
LWPOLYLINE
  5
1463
330
2
100
AcDbEntity
  8
0
 62
     0
100
AcDbPolyline
 90
        4
 70
     0
 43
0.0
 10
563.704910668348
 20
249.9001891730015
 10
563.704910668348
 20
247.9001891730015
 10
564.704910668348
 20
247.9001891730015
 10
564.704910668348
 20
249.9001891730015
  0
LINE
  5
1465
330
2
100
AcDbEntity
  8
0
 62
     7
100
AcDbLine
 10
332.9049106683481
 20
314.9001891730015
 30
0.0
 11
344.204910668348
 21
314.9001891730013
 31
0.0
  0
ARC
  5
1466
330
2
100
AcDbEntity
  8
0
 62
     7
100
AcDbCircle
 10
344.204910668348
 20
295.9001891730013
 30
0.0
 40
0.5
100
AcDbArc
 50
270.0
 51
0.0
  0
LINE
  5
1467
330
2
100
AcDbEntity
  8
0
 62
     7
100
AcDbLine
 10
344.204910668348
 20
295.9001891730015
 30
0.0
 11
344.204910668348
 21
314.9001891730013
 31
0.0
  0
LINE
  5
146D
330
2
100
AcDbEntity
  8
0
 62
     7
100
AcDbLine
 10
332.9049106683481
 20
303.4001891730015
 30
0.0
 11
332.9049106683481
 21
314.9001891730015
 31
0.0
  0
LINE
  5
146E
330
2
100
AcDbEntity
  8
0
 62
     7
100
AcDbLine
 10
329.204910668348
 20
303.4001891730015
 30
0.0
 11
332.9049106683481
 21
303.4001891730013
 31
0.0
  0
LINE
  5
146F
330
2
100
AcDbEntity
  8
0
 62
     7
100
AcDbLine
 10
329.204910668348
 20
295.9001891730015
 30
0.0
 11
344.204910668348
 21
295.9001891730015
 31
0.0
  0
ARC
  5
1470
330
2
100
AcDbEntity
  8
0
 62
     7
100
AcDbCircle
 10
344.204910668348
 20
314.9001891730013
 30
0.0
 40
0.5
100
AcDbArc
 50
0.0
 51
90.0
  0
ARC
  5
1471
330
2
100
AcDbEntity
  8
0
 62
     7
100
AcDbCircle
 10
329.204910668348
 20
295.9001891730015
 30
0.0
 40
0.5
100
AcDbArc
 50
180.0
 51
270.0
  0
ARC
  5
1472
330
2
100
AcDbEntity
  8
0
 62
     7
100
AcDbCircle
 10
329.204910668348
 20
314.9001891730015
 30
0.0
 40
0.5
100
AcDbArc
 50
90.0
 51
180.0
  0
LINE
  5
1473
330
2
100
AcDbEntity
  8
0
 62
     7
100
AcDbLine
 10
329.204910668348
 20
315.4001891730013
 30
0.0
 11
344.204910668348
 21
315.4001891730013
 31
0.0
  0
LINE
  5
1474
330
2
100
AcDbEntity
  8
0
 62
     7
100
AcDbLine
 10
328.704910668348
 20
295.9001891730015
 30
0.0
 11
328.704910668348
 21
314.9001891730015
 31
0.0
  0
LINE
  5
1475
330
2
100
AcDbEntity
  8
0
 62
     7
100
AcDbLine
 10
344.704910668348
 20
295.9001891730013
 30
0.0
 11
344.704910668348
 21
314.9001891730013
 31
0.0
  0
LINE
  5
1476
330
2
100
AcDbEntity
  8
0
 62
     7
100
AcDbLine
 10
329.204910668348
 20
295.4001891730013
 30
0.0
 11
344.204910668348
 21
295.4001891730013
 31
0.0
  0
LINE
  5
1477
330
2
100
AcDbEntity
  8
0
 62
     7
100
AcDbLine
 10
329.204910668348
 20
295.9001891730015
 30
0.0
 11
329.204910668348
 21
303.4001891730015
 31
0.0
  0
LINE
  5
1478
330
2
100
AcDbEntity
  8
0
 62
     7
100
AcDbLine
 10
333.649910668348
 20
301.5504177020118
 30
0.0
 11
330.3585777840976
 21
299.6501657807248
 31
0.0
  0
ARC
  5
1479
330
2
100
AcDbEntity
  8
0
 62
     7
100
AcDbCircle
 10
333.704910668348
 20
299.6501657719159
 30
0.0
 40
0.51
100
AcDbArc
 50
156.1859646674569
 51
158.8140353325464
  0
ARC
  5
147A
330
2
100
AcDbEntity
  8
0
 62
     7
100
AcDbCircle
 10
333.704910668348
 20
299.6501657719159
 30
0.0
 40
0.51
100
AcDbArc
 50
126.1859646674445
 51
128.8140353325437
  0
ARC
  5
147B
330
2
100
AcDbEntity
  8
0
 62
     7
100
AcDbCircle
 10
333.704910668348
 20
299.6501657719159
 30
0.0
 40
0.51
100
AcDbArc
 50
141.1859646674481
 51
143.8140353325491
  0
ARC
  5
147C
330
2
100
AcDbEntity
  8
0
 62
     7
100
AcDbCircle
 10
333.704910668348
 20
299.6501657719159
 30
0.0
 40
0.51
100
AcDbArc
 50
111.1859646674538
 51
113.8140353325431
  0
ARC
  5
147D
330
2
100
AcDbEntity
  8
0
 62
     7
100
AcDbCircle
 10
333.704910668348
 20
299.6501657719159
 30
0.0
 40
0.51
100
AcDbArc
 50
96.18596466745831
 51
98.81403533253964
  0
ARC
  5
147E
330
2
100
AcDbEntity
  8
0
 62
     7
100
AcDbCircle
 10
333.704910668348
 20
299.6501657719159
 30
0.0
 40
0.51
100
AcDbArc
 50
66.18596466746571
 51
68.81403533254827
  0
ARC
  5
147F
330
2
100
AcDbEntity
  8
0
 62
     7
100
AcDbCircle
 10
333.704910668348
 20
299.6501657719159
 30
0.0
 40
0.51
100
AcDbArc
 50
81.18596466746032
 51
83.8140353325417
  0
ARC
  5
1480
330
2
100
AcDbEntity
  8
0
 62
     7
100
AcDbCircle
 10
333.704910668348
 20
299.6501657719159
 30
0.0
 40
0.51
100
AcDbArc
 50
51.18596466744536
 51
53.81403533255552
  0
ARC
  5
1481
330
2
100
AcDbEntity
  8
0
 62
     7
100
AcDbCircle
 10
333.704910668348
 20
299.6501657719159
 30
0.0
 40
0.51
100
AcDbArc
 50
36.18596466745538
 51
38.81403533255184
  0
ARC
  5
1482
330
2
100
AcDbEntity
  8
0
 62
     7
100
AcDbCircle
 10
333.704910668348
 20
299.6501657719159
 30
0.0
 40
0.51
100
AcDbArc
 50
6.185964667456689
 51
8.814035332551167
  0
ARC
  5
1483
330
2
100
AcDbEntity
  8
0
 62
     7
100
AcDbCircle
 10
333.704910668348
 20
299.6501657719159
 30
0.0
 40
0.51
100
AcDbArc
 50
21.18596466746746
 51
23.81403533256424
  0
ARC
  5
1484
330
2
100
AcDbEntity
  8
0
 62
     7
100
AcDbCircle
 10
333.704910668348
 20
299.6501657719159
 30
0.0
 40
0.51
100
AcDbArc
 50
351.185964667462
 51
353.8140353325629
  0
ARC
  5
1485
330
2
100
AcDbEntity
  8
0
 62
     7
100
AcDbCircle
 10
333.704910668348
 20
299.6501657719159
 30
0.0
 40
0.51
100
AcDbArc
 50
336.1859646674671
 51
338.8140353325779
  0
ARC
  5
1486
330
2
100
AcDbEntity
  8
0
 62
     7
100
AcDbCircle
 10
333.704910668348
 20
299.6501657719159
 30
0.0
 40
0.51
100
AcDbArc
 50
306.1859646674508
 51
308.8140353325796
  0
ARC
  5
1487
330
2
100
AcDbEntity
  8
0
 62
     7
100
AcDbCircle
 10
333.704910668348
 20
299.6501657719159
 30
0.0
 40
0.51
100
AcDbArc
 50
321.1859646674564
 51
323.8140353325655
  0
ARC
  5
1488
330
2
100
AcDbEntity
  8
0
 62
     7
100
AcDbCircle
 10
333.704910668348
 20
299.6501657719159
 30
0.0
 40
0.51
100
AcDbArc
 50
291.1859646674554
 51
293.8140353325431
  0
ARC
  5
1489
330
2
100
AcDbEntity
  8
0
 62
     7
100
AcDbCircle
 10
333.704910668348
 20
299.6501657719159
 30
0.0
 40
0.51
100
AcDbArc
 50
276.1859646674616
 51
278.8140353325414
  0
ARC
  5
148A
330
2
100
AcDbEntity
  8
0
 62
     7
100
AcDbCircle
 10
333.704910668348
 20
299.6501657719159
 30
0.0
 40
0.51
100
AcDbArc
 50
216.1859646674508
 51
218.8140353325437
  0
ARC
  5
148B
330
2
100
AcDbEntity
  8
0
 62
     7
100
AcDbCircle
 10
333.704910668348
 20
299.6501657719159
 30
0.0
 40
0.51
100
AcDbArc
 50
231.1859646674413
 51
233.8140353325492
  0
ARC
  5
148C
330
2
100
AcDbEntity
  8
0
 62
     7
100
AcDbCircle
 10
333.704910668348
 20
299.6501657719159
 30
0.0
 40
0.51
100
AcDbArc
 50
246.1859646674478
 51
248.814035332541
  0
ARC
  5
148D
330
2
100
AcDbEntity
  8
0
 62
     7
100
AcDbCircle
 10
333.704910668348
 20
299.6501657719159
 30
0.0
 40
0.51
100
AcDbArc
 50
261.1859646674586
 51
263.8140353325383
  0
ARC
  5
148E
330
2
100
AcDbEntity
  8
0
 62
     7
100
AcDbCircle
 10
333.704910668348
 20
299.6501657719159
 30
0.0
 40
0.51
100
AcDbArc
 50
201.1859646674293
 51
203.814035332543
  0
ARC
  5
148F
330
2
100
AcDbEntity
  8
0
 62
     7
100
AcDbCircle
 10
333.704910668348
 20
299.6501657719159
 30
0.0
 40
0.51
100
AcDbArc
 50
186.1859646674599
 51
188.8140353325412
  0
ARC
  5
1490
330
2
100
AcDbEntity
  8
0
 62
     7
100
AcDbCircle
 10
333.704910668348
 20
299.6501657719159
 30
0.0
 40
1.02
100
AcDbArc
 50
161.9090226026879
 51
168.0909773973096
  0
LINE
  5
1491
330
2
100
AcDbEntity
  8
0
 62
     7
100
AcDbLine
 10
333.2289950427307
 20
299.8346271693879
 30
0.0
 11
332.7353347321405
 21
299.966903050946
 31
0.0
  0
LINE
  5
1492
330
2
100
AcDbEntity
  8
0
 62
     7
100
AcDbLine
 10
333.2005249477695
 20
299.7283753284961
 30
0.0
 11
332.7068646371793
 21
299.8606512100541
 31
0.0
  0
ARC
  5
1493
330
2
100
AcDbEntity
  8
0
 62
     7
100
AcDbCircle
 10
333.704910668348
 20
299.6501657719159
 30
0.0
 40
1.02
100
AcDbArc
 50
131.9090226026821
 51
138.0909773973138
  0
LINE
  5
1494
330
2
100
AcDbEntity
  8
0
 62
     7
100
AcDbLine
 10
333.3849863452415
 20
300.0478718409531
 30
0.0
 11
333.0236019162094
 21
300.4092562699852
 31
0.0
  0
LINE
  5
1495
330
2
100
AcDbEntity
  8
0
 62
     7
100
AcDbLine
 10
333.307204599311
 20
299.9700900950224
 30
0.0
 11
332.9458201702787
 21
300.3314745240548
 31
0.0
  0
ARC
  5
1496
330
2
100
AcDbEntity
  8
0
 62
     7
100
AcDbCircle
 10
333.704910668348
 20
299.6501657719159
 30
0.0
 40
1.02
100
AcDbArc
 50
101.9090226026769
 51
108.0909773973053
  0
LINE
  5
1497
330
2
100
AcDbEntity
  8
0
 62
     7
100
AcDbLine
 10
333.6267011117677
 20
300.1545514924946
 30
0.0
 11
333.49442523021
 21
300.6482118030849
 31
0.0
  0
LINE
  5
1498
330
2
100
AcDbEntity
  8
0
 62
     7
100
AcDbLine
 10
333.520449270876
 20
300.1260813975332
 30
0.0
 11
333.3881733893181
 21
300.6197417081235
 31
0.0
  0
ARC
  5
1499
330
2
100
AcDbEntity
  8
0
 62
     7
100
AcDbCircle
 10
333.704910668348
 20
299.6501657719159
 30
0.0
 40
1.02
100
AcDbArc
 50
71.90902260268437
 51
78.09097739731321
  0
LINE
  5
149A
330
2
100
AcDbEntity
  8
0
 62
     7
100
AcDbLine
 10
333.8893720658202
 20
300.1260813975332
 30
0.0
 11
334.0216479473781
 21
300.6197417081235
 31
0.0
  0
LINE
  5
149B
330
2
100
AcDbEntity
  8
0
 62
     7
100
AcDbLine
 10
333.7831202249283
 20
300.1545514924946
 30
0.0
 11
333.9153961064862
 21
300.6482118030849
 31
0.0
  0
ARC
  5
149C
330
2
100
AcDbEntity
  8
0
 62
     7
100
AcDbCircle
 10
333.704910668348
 20
299.6501657719159
 30
0.0
 40
1.02
100
AcDbArc
 50
41.90902260268155
 51
48.09097739731154
  0
LINE
  5
149D
330
2
100
AcDbEntity
  8
0
 62
     7
100
AcDbLine
 10
334.1026167373852
 20
299.9700900950224
 30
0.0
 11
334.4640011664174
 21
300.3314745240548
 31
0.0
  0
LINE
  5
149E
330
2
100
AcDbEntity
  8
0
 62
     7
100
AcDbLine
 10
334.0248349914546
 20
300.0478718409531
 30
0.0
 11
334.3862194204869
 21
300.4092562699852
 31
0.0
  0
ARC
  5
149F
330
2
100
AcDbEntity
  8
0
 62
     7
100
AcDbCircle
 10
333.704910668348
 20
299.6501657719159
 30
0.0
 40
1.02
100
AcDbArc
 50
11.9090226026868
 51
18.09097739731564
  0
LINE
  5
14A0
330
2
100
AcDbEntity
  8
0
 62
     7
100
AcDbLine
 10
334.2092963889268
 20
299.7283753284961
 30
0.0
 11
334.7029566995169
 21
299.8606512100541
 31
0.0
  0
LINE
  5
14A1
330
2
100
AcDbEntity
  8
0
 62
     7
100
AcDbLine
 10
334.1808262939653
 20
299.8346271693881
 30
0.0
 11
334.6744866045556
 21
299.966903050946
 31
0.0
  0
ARC
  5
14A2
330
2
100
AcDbEntity
  8
0
 62
     7
100
AcDbCircle
 10
333.704910668348
 20
299.6501657719159
 30
0.0
 40
1.02
100
AcDbArc
 50
341.9090226026844
 51
348.0909773973199
  0
LINE
  5
14A3
330
2
100
AcDbEntity
  8
0
 62
     7
100
AcDbLine
 10
334.1808262939653
 20
299.4657043744439
 30
0.0
 11
334.6744866045556
 21
299.333428492886
 31
0.0
  0
LINE
  5
14A4
330
2
100
AcDbEntity
  8
0
 62
     7
100
AcDbLine
 10
334.2092963889268
 20
299.5719562153356
 30
0.0
 11
334.7029566995169
 21
299.4396803337778
 31
0.0
  0
ARC
  5
14A5
330
2
100
AcDbEntity
  8
0
 62
     7
100
AcDbCircle
 10
333.704910668348
 20
299.6501657719159
 30
0.0
 40
1.02
100
AcDbArc
 50
311.909022602689
 51
318.0909773973219
  0
LINE
  5
14A6
330
2
100
AcDbEntity
  8
0
 62
     7
100
AcDbLine
 10
334.0248349914546
 20
299.252459702879
 30
0.0
 11
334.3862194204869
 21
298.8910752738466
 31
0.0
  0
LINE
  5
14A7
330
2
100
AcDbEntity
  8
0
 62
     7
100
AcDbLine
 10
334.1026167373852
 20
299.3302414488096
 30
0.0
 11
334.4640011664174
 21
298.9688570197773
 31
0.0
  0
ARC
  5
14A8
330
2
100
AcDbEntity
  8
0
 62
     7
100
AcDbCircle
 10
333.704910668348
 20
299.6501657719159
 30
0.0
 40
1.02
100
AcDbArc
 50
281.9090226026887
 51
288.0909773973172
  0
LINE
  5
14A9
330
2
100
AcDbEntity
  8
0
 62
     7
100
AcDbLine
 10
333.7831202249283
 20
299.1457800513373
 30
0.0
 11
333.9153961064862
 21
298.6521197407471
 31
0.0
  0
LINE
  5
14AA
330
2
100
AcDbEntity
  8
0
 62
     7
100
AcDbLine
 10
333.8893720658202
 20
299.1742501462986
 30
0.0
 11
334.0216479473781
 21
298.6805898357084
 31
0.0
  0
ARC
  5
14AB
330
2
100
AcDbEntity
  8
0
 62
     7
100
AcDbCircle
 10
333.704910668348
 20
299.6501657719159
 30
0.0
 40
1.02
100
AcDbArc
 50
251.9090226026913
 51
258.090977397323
  0
LINE
  5
14AC
330
2
100
AcDbEntity
  8
0
 62
     7
100
AcDbLine
 10
333.520449270876
 20
299.1742501462988
 30
0.0
 11
333.3881733893181
 21
298.6805898357084
 31
0.0
  0
LINE
  5
14AD
330
2
100
AcDbEntity
  8
0
 62
     7
100
AcDbLine
 10
333.6267011117677
 20
299.1457800513373
 30
0.0
 11
333.4944252302098
 21
298.6521197407471
 31
0.0
  0
ARC
  5
14AE
330
2
100
AcDbEntity
  8
0
 62
     7
100
AcDbCircle
 10
333.704910668348
 20
299.6501657719159
 30
0.0
 40
1.02
100
AcDbArc
 50
221.9090226026816
 51
228.0909773973115
  0
LINE
  5
14AF
330
2
100
AcDbEntity
  8
0
 62
     7
100
AcDbLine
 10
333.307204599311
 20
299.3302414488096
 30
0.0
 11
332.9458201702787
 21
298.9688570197773
 31
0.0
  0
LINE
  5
14B0
330
2
100
AcDbEntity
  8
0
 62
     7
100
AcDbLine
 10
333.3849863452415
 20
299.252459702879
 30
0.0
 11
333.0236019162094
 21
298.8910752738466
 31
0.0
  0
LINE
  5
14B1
330
2
100
AcDbEntity
  8
0
 62
     7
100
AcDbLine
 10
333.2289950427307
 20
299.4657043744439
 30
0.0
 11
332.7353347321405
 21
299.333428492886
 31
0.0
  0
LINE
  5
14B2
330
2
100
AcDbEntity
  8
0
 62
     7
100
AcDbLine
 10
333.2005249477695
 20
299.5719562153356
 30
0.0
 11
332.7068646371793
 21
299.4396803337778
 31
0.0
  0
ARC
  5
14B3
330
2
100
AcDbEntity
  8
0
 62
     7
100
AcDbCircle
 10
333.704910668348
 20
299.6501657719159
 30
0.0
 40
0.51
100
AcDbArc
 50
171.1859646674454
 51
173.8140353325531
  0
ARC
  5
14B4
330
2
100
AcDbEntity
  8
0
 62
     7
100
AcDbCircle
 10
333.704910668348
 20
299.6501657719159
 30
0.0
 40
1.02
100
AcDbArc
 50
191.9090226026836
 51
198.0909773973223
  0
ARC
  5
14B5
330
2
100
AcDbEntity
  8
0
 62
     7
100
AcDbCircle
 10
333.704910668348
 20
299.6501657719159
 30
0.0
 40
1.53
100
AcDbArc
 50
147.9399039436408
 51
152.0600960563488
  0
LINE
  5
14B6
330
2
100
AcDbEntity
  8
0
 62
     7
100
AcDbLine
 10
333.2379535971818
 20
299.856255033043
 30
0.0
 11
332.3532481971988
 21
300.3670399338767
 31
0.0
  0
LINE
  5
14B7
330
2
100
AcDbEntity
  8
0
 62
     7
100
AcDbLine
 10
333.2929535971818
 20
299.9515178274594
 30
0.0
 11
332.4082481971989
 21
300.462302728293
 31
0.0
  0
ARC
  5
14B8
330
2
100
AcDbEntity
  8
0
 62
     7
100
AcDbCircle
 10
333.704910668348
 20
299.6501657719159
 30
0.0
 40
1.53
100
AcDbArc
 50
117.9399039436398
 51
122.0600960563551
  0
LINE
  5
14B9
330
2
100
AcDbEntity
  8
0
 62
     7
100
AcDbLine
 10
333.4035586128048
 20
300.0621228430823
 30
0.0
 11
332.8927737119711
 21
300.9468282430653
 31
0.0
  0
LINE
  5
14BA
330
2
100
AcDbEntity
  8
0
 62
     7
100
AcDbLine
 10
333.4988214072212
 20
300.1171228430824
 30
0.0
 11
332.9880365063875
 21
301.0018282430654
 31
0.0
  0
LINE
  5
14BB
330
2
100
AcDbEntity
  8
0
 62
     7
100
AcDbLine
 10
333.649910668348
 20
300.1576070885862
 30
0.0
 11
333.649910668348
 21
301.5504177020118
 31
0.0
  0
LINE
  5
14BC
330
2
100
AcDbEntity
  8
0
 62
     7
100
AcDbLine
 10
333.7599106683482
 20
300.1576070885862
 30
0.0
 11
333.7599106683482
 21
301.6139262314411
 31
0.0
  0
ARC
  5
14BD
330
2
100
AcDbEntity
  8
0
 62
     7
100
AcDbCircle
 10
333.704910668348
 20
299.6501657719159
 30
0.0
 40
1.53
100
AcDbArc
 50
57.93990394365071
 51
62.06009605635288
  0
LINE
  5
14BE
330
2
100
AcDbEntity
  8
0
 62
     7
100
AcDbLine
 10
333.9109999294751
 20
300.1171228430824
 30
0.0
 11
334.4217848303088
 21
301.0018282430654
 31
0.0
  0
LINE
  5
14BF
330
2
100
AcDbEntity
  8
0
 62
     7
100
AcDbLine
 10
334.0062627238913
 20
300.0621228430823
 30
0.0
 11
334.5170476247249
 21
300.9468282430653
 31
0.0
  0
ARC
  5
14C0
330
2
100
AcDbEntity
  8
0
 62
     7
100
AcDbCircle
 10
333.704910668348
 20
299.6501657719159
 30
0.0
 40
1.53
100
AcDbArc
 50
27.93990394364023
 51
32.06009605634748
  0
LINE
  5
14C1
330
2
100
AcDbEntity
  8
0
 62
     7
100
AcDbLine
 10
334.1168677395144
 20
299.9515178274594
 30
0.0
 11
335.0015731394972
 21
300.4623027282928
 31
0.0
  0
LINE
  5
14C2
330
2
100
AcDbEntity
  8
0
 62
     7
100
AcDbLine
 10
334.1718677395143
 20
299.856255033043
 30
0.0
 11
335.0565731394973
 21
300.3670399338767
 31
0.0
  0
ARC
  5
14C3
330
2
100
AcDbEntity
  8
0
 62
     7
100
AcDbCircle
 10
333.704910668348
 20
299.6501657719159
 30
0.0
 40
1.53
100
AcDbArc
 50
357.9399039436425
 51
2.060096056357473
  0
LINE
  5
14C4
330
2
100
AcDbEntity
  8
0
 62
     7
100
AcDbLine
 10
334.2123519850184
 20
299.705165771916
 30
0.0
 11
335.2339217866856
 21
299.705165771916
 31
0.0
  0
LINE
  5
14C5
330
2
100
AcDbEntity
  8
0
 62
     7
100
AcDbLine
 10
334.2123519850184
 20
299.5951657719161
 30
0.0
 11
335.2339217866856
 21
299.5951657719161
 31
0.0
  0
ARC
  5
14C6
330
2
100
AcDbEntity
  8
0
 62
     7
100
AcDbCircle
 10
333.704910668348
 20
299.6501657719159
 30
0.0
 40
1.53
100
AcDbArc
 50
327.9399039436444
 51
332.0600960563599
  0
LINE
  5
14C7
330
2
100
AcDbEntity
  8
0
 62
     7
100
AcDbLine
 10
334.1718677395143
 20
299.444076510789
 30
0.0
 11
335.0565731394973
 21
298.9332916099554
 31
0.0
  0
LINE
  5
14C8
330
2
100
AcDbEntity
  8
0
 62
     7
100
AcDbLine
 10
334.1168677395144
 20
299.3488137163727
 30
0.0
 11
335.0015731394972
 21
298.838028815539
 31
0.0
  0
ARC
  5
14C9
330
2
100
AcDbEntity
  8
0
 62
     7
100
AcDbCircle
 10
333.704910668348
 20
299.6501657719159
 30
0.0
 40
1.53
100
AcDbArc
 50
297.9399039436489
 51
302.0600960563515
  0
LINE
  5
14CA
330
2
100
AcDbEntity
  8
0
 62
     7
100
AcDbLine
 10
334.0062627238913
 20
299.2382087007497
 30
0.0
 11
334.5170476247249
 21
298.3535033007667
 31
0.0
  0
LINE
  5
14CB
330
2
100
AcDbEntity
  8
0
 62
     7
100
AcDbLine
 10
333.9109999294751
 20
299.1832087007497
 30
0.0
 11
334.4217848303088
 21
298.2985033007667
 31
0.0
  0
ARC
  5
14CC
330
2
100
AcDbEntity
  8
0
 62
     7
100
AcDbCircle
 10
333.704910668348
 20
299.6501657719159
 30
0.0
 40
1.53
100
AcDbArc
 50
267.9399039436441
 51
272.0600960563559
  0
LINE
  5
14CD
330
2
100
AcDbEntity
  8
0
 62
     7
100
AcDbLine
 10
333.7599106683482
 20
299.1427244552458
 30
0.0
 11
333.7599106683482
 21
298.1211546535785
 31
0.0
  0
LINE
  5
14CE
330
2
100
AcDbEntity
  8
0
 62
     7
100
AcDbLine
 10
333.649910668348
 20
299.1427244552458
 30
0.0
 11
333.649910668348
 21
298.1211546535785
 31
0.0
  0
ARC
  5
14CF
330
2
100
AcDbEntity
  8
0
 62
     7
100
AcDbCircle
 10
333.704910668348
 20
299.6501657719159
 30
0.0
 40
1.53
100
AcDbArc
 50
237.9399039436444
 51
242.0600960563583
  0
LINE
  5
14D0
330
2
100
AcDbEntity
  8
0
 62
     7
100
AcDbLine
 10
333.4988214072212
 20
299.1832087007497
 30
0.0
 11
332.9880365063875
 21
298.2985033007667
 31
0.0
  0
LINE
  5
14D1
330
2
100
AcDbEntity
  8
0
 62
     7
100
AcDbLine
 10
333.4035586128048
 20
299.2382087007497
 30
0.0
 11
332.8927737119711
 21
298.3535033007667
 31
0.0
  0
ARC
  5
14D2
330
2
100
AcDbEntity
  8
0
 62
     7
100
AcDbCircle
 10
333.704910668348
 20
299.6501657719159
 30
0.0
 40
1.53
100
AcDbArc
 50
207.9399039436395
 51
212.0600960563511
  0
LINE
  5
14D3
330
2
100
AcDbEntity
  8
0
 62
     7
100
AcDbLine
 10
333.2929535971818
 20
299.3488137163727
 30
0.0
 11
332.4082481971989
 21
298.838028815539
 31
0.0
  0
LINE
  5
14D4
330
2
100
AcDbEntity
  8
0
 62
     7
100
AcDbLine
 10
333.2379535971818
 20
299.444076510789
 30
0.0
 11
332.3532481971988
 21
298.9332916099554
 31
0.0
  0
ARC
  5
14D5
330
2
100
AcDbEntity
  8
0
 62
     7
100
AcDbCircle
 10
333.704910668348
 20
299.6501657719159
 30
0.0
 40
1.53
100
AcDbArc
 50
177.9399039436392
 51
182.0600960563509
  0
LINE
  5
14D6
330
2
100
AcDbEntity
  8
0
 62
     7
100
AcDbLine
 10
333.1974693516778
 20
299.5951657719161
 30
0.0
 11
332.1758995500104
 21
299.5951657719161
 31
0.0
  0
LINE
  5
14D7
330
2
100
AcDbEntity
  8
0
 62
     7
100
AcDbLine
 10
333.1974693516778
 20
299.705165771916
 30
0.0
 11
332.1758995500104
 21
299.705165771916
 31
0.0
  0
LINE
  5
14D8
330
2
100
AcDbEntity
  8
0
 62
     7
100
AcDbLine
 10
335.3780771100617
 20
296.7521564853987
 30
0.0
 11
335.3780771100617
 21
302.5481750594896
 31
0.0
  0
LINE
  5
14D9
330
2
100
AcDbEntity
  8
0
 62
     7
100
AcDbLine
 10
335.3780771100617
 20
302.5481750594896
 30
0.0
 11
333.7599106683482
 21
301.6139262314411
 31
0.0
  0
LINE
  5
14DA
330
2
100
AcDbEntity
  8
0
 62
     7
100
AcDbLine
 10
335.3780771100617
 20
296.7521564853987
 30
0.0
 11
330.3585777840976
 21
299.6501657807248
 31
0.0
  0
LINE
  5
14DB
330
2
100
AcDbEntity
  8
0
 62
     7
100
AcDbLine
 10
335.4880771098259
 20
296.1805797184927
 30
0.0
 11
329.8085777838621
 21
299.4596401931172
 31
0.0
  0
LINE
  5
14DC
330
2
100
AcDbEntity
  8
0
 62
     7
100
AcDbLine
 10
335.4880771102971
 20
303.1197518255792
 30
0.0
 11
329.8085777843335
 21
299.8406913707822
 31
0.0
  0
LINE
  5
14DD
330
2
100
AcDbEntity
  8
0
 62
     7
100
AcDbLine
 10
335.8180771100615
 20
296.371105307189
 30
0.0
 11
335.8180771100615
 21
302.9292262366107
 31
0.0
  0
ARC
  5
14DE
330
2
100
AcDbEntity
  8
0
 62
     7
100
AcDbCircle
 10
335.5980771100615
 20
296.371105307189
 30
0.0
 40
0.22
100
AcDbArc
 50
239.9999999291142
 51
0.0
  0
ARC
  5
14DF
330
2
100
AcDbEntity
  8
0
 62
     7
100
AcDbCircle
 10
335.5980771100617
 20
302.9292262366107
 30
0.0
 40
0.22
100
AcDbArc
 50
0.0
 51
119.9999999291833
  0
ARC
  5
14E0
330
2
100
AcDbEntity
  8
0
 62
     7
100
AcDbCircle
 10
329.918577784098
 20
299.6501657818135
 30
0.0
 40
0.22
100
AcDbArc
 50
119.9999999291833
 51
239.9999999290649
  0
ENDSEC
  0
SECTION
  2
OBJECTS
  0
DICTIONARY
  5
9
330
0
100
AcDbDictionary
281
     1
  3
ACAD_CIP_PREVIOUS_PRODUCT_INFO
350
3B8
  3
ACAD_COLOR
350
4B
  3
ACAD_DETAILVIEWSTYLE
350
3B3
  3
ACAD_GROUP
350
3F
  3
ACAD_LAYOUT
350
20
  3
ACAD_MATERIAL
350
B
  3
ACAD_MLEADERSTYLE
350
4E
  3
ACAD_MLINESTYLE
350
40
  3
ACAD_PLOTSETTINGS
350
41
  3
ACAD_PLOTSTYLENAME
350
8
  3
ACAD_SCALELIST
350
4C
  3
ACAD_SECTIONVIEWSTYLE
350
3B1
  3
ACAD_TABLESTYLE
350
4D
  3
ACAD_VISUALSTYLE
350
31
  3
ACDB_RECOMPOSE_DATA
350
154E
  3
AcDbVariableDictionary
350
383
  3
DWGPROPS
350
154F
  0
DICTIONARY
  5
3BD
330
25
100
AcDbDictionary
280
     1
281
     1
  3
ACAD_LAYERSTATES
360
3BE
  0
DICTIONARY
  5
5
330
4
100
AcDbDictionary
280
     1
281
     1
  3
ADSK_XREC_LAYER_RECONCILED
360
6
  0
XRECORD
  5
3B8
102
{ACAD_REACTORS
330
9
102
}
330
9
100
AcDbXrecord
280
     1
300
ACDLT
300
2020
300

  0
DICTIONARY
  5
4B
102
{ACAD_REACTORS
330
9
102
}
330
9
100
AcDbDictionary
281
     1
  0
DICTIONARY
  5
3B3
102
{ACAD_REACTORS
330
9
102
}
330
9
100
AcDbDictionary
281
     1
  3
Imperial24
350
3B4
  0
DICTIONARY
  5
3F
102
{ACAD_REACTORS
330
9
102
}
330
9
100
AcDbDictionary
281
     1
  0
DICTIONARY
  5
20
102
{ACAD_REACTORS
330
9
102
}
330
9
100
AcDbDictionary
281
     1
  3
Model
350
1F
  3
レイアウト1
350
24
  0
DICTIONARY
  5
B
102
{ACAD_REACTORS
330
9
102
}
330
9
100
AcDbDictionary
281
     1
  3
ByBlock
350
42
  3
ByLayer
350
15
  3
Global
350
A
  0
DICTIONARY
  5
4E
102
{ACAD_REACTORS
330
9
102
}
330
9
100
AcDbDictionary
281
     1
  3
Standard
350
3B0
  0
DICTIONARY
  5
40
102
{ACAD_REACTORS
330
9
102
}
330
9
100
AcDbDictionary
281
     1
  3
STANDARD
350
56
  0
DICTIONARY
  5
41
102
{ACAD_REACTORS
330
9
102
}
330
9
100
AcDbDictionary
281
     1
  0
ACDBDICTIONARYWDFLT
  5
8
102
{ACAD_REACTORS
330
9
102
}
330
9
100
AcDbDictionary
281
     1
  3
Normal
350
7
100
AcDbDictionaryWithDefault
340
7
  0
DICTIONARY
  5
4C
102
{ACAD_REACTORS
330
9
102
}
330
9
100
AcDbDictionary
281
     1
  3
A0
350
5B
  3
A1
350
5C
  3
A2
350
5D
  3
A3
350
5E
  3
A4
350
5F
  3
A5
350
60
  3
A6
350
61
  3
A7
350
62
  3
A8
350
63
  3
A9
350
64
  3
B0
350
65
  3
B1
350
66
  3
B2
350
67
  3
B3
350
68
  3
B4
350
69
  3
B5
350
6A
  3
B6
350
6B
  0
DICTIONARY
  5
3B1
102
{ACAD_REACTORS
330
9
102
}
330
9
100
AcDbDictionary
281
     1
  3
Imperial24
350
3B2
  0
DICTIONARY
  5
4D
102
{ACAD_REACTORS
330
9
102
}
330
9
100
AcDbDictionary
281
     1
  3
Standard
350
57
  0
DICTIONARY
  5
31
102
{ACAD_REACTORS
330
9
102
}
330
9
100
AcDbDictionary
281
     1
  3
2dWireframe
350
30
  3
Basic
350
39F
  3
Brighten
350
3A3
  3
ColorChange
350
3A7
  3
Conceptual
350
3A1
  3
Dim
350
3A2
  3
EdgeColorOff
350
3AF
  3
Facepattern
350
3A6
  3
Flat
350
39B
  3
FlatWithEdges
350
39C
  3
Gouraud
350
39D
  3
GouraudWithEdges
350
39E
  3
Hidden
350
3A0
  3
JitterOff
350
3AD
  3
Linepattern
350
3A5
  3
OverhangOff
350
3AE
  3
Realistic
350
59
  3
Shaded
350
3AC
  3
Shaded with edges
350
3AB
  3
Shades of Gray
350
3A8
  3
Sketchy
350
3A9
  3
Thicken
350
3A4
  3
Wireframe
350
5A
  3
X-Ray
350
3AA
  0
XRECORD
  5
154E
102
{ACAD_REACTORS
330
9
102
}
330
9
100
AcDbXrecord
280
     1
 90
        1
330
57
  0
DICTIONARY
  5
383
102
{ACAD_REACTORS
330
9
102
}
330
9
100
AcDbDictionary
281
     1
  3
CANNOSCALE
350
386
  3
CMLEADERSTYLE
350
385
  3
CTABLESTYLE
350
384
  3
CVIEWDETAILSTYLE
350
F9B
  3
CVIEWSECTIONSTYLE
350
F9C
  3
DIMASSOC
350
38A
  3
HIDETEXT
350
389
  3
INDEXCTL
350
388
  3
LAYEREVAL
350
F9F
  3
LAYERNOTIFY
350
FA0
  3
LIGHTINGUNITS
350
F9E
  3
LOFTANG1
350
154A
  3
LOFTANG2
350
154B
  3
MSLTSCALE
350
F9D
  3
SORTENTS
350
387
  3
XCLIPFRAME
350
154C
  0
XRECORD
  5
154F
102
{ACAD_REACTORS
330
9
102
}
330
9
100
AcDbXrecord
280
     1
  1
DWGPROPS COOKIE
  2

  3

  4

  6

  7

  8
yanase-ka
  9

300
=
301
=
302
=
303
=
304
=
305
=
306
=
307
=
308
=
309
=
 40
0.3826749537037037
 41
2450690.700081019
 42
2459548.437453704
  1

 90
        0
  0
DICTIONARY
  5
3BE
102
{ACAD_REACTORS
330
3BD
102
}
330
3BD
100
AcDbDictionary
281
     1
  0
XRECORD
  5
6
102
{ACAD_REACTORS
330
5
102
}
330
5
100
AcDbXrecord
280
     1
290
     1
  0
ACDBDETAILVIEWSTYLE
  5
3B4
102
{ACAD_XDICTIONARY
360
1587
102
}
102
{ACAD_REACTORS
330
3B3
102
}
330
3B3
100
AcDbModelDocViewStyle
 70
     0
  3
Imperial24
290
     0
100
AcDbDetailViewStyle
 70
     0
 71
     0
 90
        3
 71
     1
340
27
 40
0.24
340
0
 40
0.24
300

 40
0.36
280
     3
 71
     2
340
14
 90
       25
 71
     3
340
27
 40
0.24
 90
        1
 40
0.75
 90
        1
300
%<\AcVar ViewType \f "%tc1">% %<\AcVar ViewDetailId>%\PSCALE %<\AcVar ViewScale \f "%sn">%
 71
     4
340
14
 90
       25
340
14
 90
       25
280
     0
  0
LAYOUT
  5
1F
102
{ACAD_XDICTIONARY
360
1550
102
}
102
{ACAD_REACTORS
330
20
102
}
330
20
100
AcDbPlotSettings
  1

  2
C:\Users\onodera\appdata\roaming\autodesk\autocad lt 2012 - japanese\r17\jpn\plotters\postscript level 1 plus.pc3
  4

  6

 40
0.0
 41
0.0
 42
0.0
 43
0.0
 44
0.0
 45
0.0
 46
0.0
 47
0.0
 48
0.0
 49
0.0
140
0.0
141
0.0
142
1.0
143
1.0
 70
  1712
 72
     0
 73
     0
 74
     0
  7

 75
     0
147
1.0
148
0.0
149
0.0
100
AcDbLayout
  1
Model
 70
     1
 71
     0
 10
0.0
 20
0.0
 11
12.0
 21
9.0
 12
0.0
 22
0.0
 32
0.0
 14
0.0
 24
0.0
 34
0.0
 15
0.0
 25
0.0
 35
0.0
146
0.0
 13
0.0
 23
0.0
 33
0.0
 16
1.0
 26
0.0
 36
0.0
 17
0.0
 27
1.0
 37
0.0
 76
     0
330
2
331
2F
  0
LAYOUT
  5
24
102
{ACAD_XDICTIONARY
360
1552
102
}
102
{ACAD_REACTORS
330
20
102
}
330
20
100
AcDbPlotSettings
  1

  2
C:\Users\onodera\appdata\roaming\autodesk\autocad lt 2012 - japanese\r17\jpn\plotters\postscript level 1 plus.pc3
  4

  6

 40
0.0
 41
0.0
 42
0.0
 43
0.0
 44
0.0
 45
0.0
 46
0.0
 47
0.0
 48
0.0
 49
0.0
140
0.0
141
0.0
142
1.0
143
1.0
 70
   688
 72
     0
 73
     0
 74
     5
  7

 75
    16
147
1.0
148
0.0
149
0.0
100
AcDbLayout
  1
レイアウト1
 70
     0
 71
     1
 10
0.0
 20
0.0
 11
12.0
 21
9.0
 12
0.0
 22
0.0
 32
0.0
 14
1.000000000000000E+20
 24
1.000000000000000E+20
 34
1.000000000000000E+20
 15
-1.000000000000000E+20
 25
-1.000000000000000E+20
 35
-1.000000000000000E+20
146
0.0
 13
0.0
 23
0.0
 33
0.0
 16
1.0
 26
0.0
 36
0.0
 17
0.0
 27
1.0
 37
0.0
 76
     0
330
21
  0
MATERIAL
  5
42
102
{ACAD_XDICTIONARY
360
43
102
}
102
{ACAD_REACTORS
330
B
102
}
330
B
100
AcDbMaterial
  1
ByBlock
 72
     0
 43
0.0208333333333333
 43
0.0
 43
0.0
 43
0.0
 43
0.0
 43
0.0208333333333333
 43
0.0
 43
0.0
 43
0.0
 43
0.0
 43
1.0
 43
0.0
 43
0.0
 43
0.0
 43
0.0
 43
1.0
 77
     0
 47
0.0208333333333333
 47
0.0
 47
0.0
 47
0.0
 47
0.0
 47
0.0208333333333333
 47
0.0
 47
0.0
 47
0.0
 47
0.0
 47
1.0
 47
0.0
 47
0.0
 47
0.0
 47
0.0
 47
1.0
171
     0
 49
0.0208333333333333
 49
0.0
 49
0.0
 49
0.0
 49
0.0
 49
0.0208333333333333
 49
0.0
 49
0.0
 49
0.0
 49
0.0
 49
1.0
 49
0.0
 49
0.0
 49
0.0
 49
0.0
 49
1.0
175
     0
142
0.0208333333333333
142
0.0
142
0.0
142
0.0
142
0.0
142
0.0208333333333333
142
0.0
142
0.0
142
0.0
142
0.0
142
1.0
142
0.0
142
0.0
142
0.0
142
0.0
142
1.0
179
     0
144
0.0208333333333333
144
0.0
144
0.0
144
0.0
144
0.0
144
0.0208333333333333
144
0.0
144
0.0
144
0.0
144
0.0
144
1.0
144
0.0
144
0.0
144
0.0
144
0.0
144
1.0
147
0.0208333333333333
147
0.0
147
0.0
147
0.0
147
0.0
147
0.0208333333333333
147
0.0
147
0.0
147
0.0
147
0.0
147
1.0
147
0.0
147
0.0
147
0.0
147
0.0
147
1.0
  0
MATERIAL
  5
15
102
{ACAD_XDICTIONARY
360
16
102
}
102
{ACAD_REACTORS
330
B
102
}
330
B
100
AcDbMaterial
  1
ByLayer
 72
     0
 43
0.0208333333333333
 43
0.0
 43
0.0
 43
0.0
 43
0.0
 43
0.0208333333333333
 43
0.0
 43
0.0
 43
0.0
 43
0.0
 43
1.0
 43
0.0
 43
0.0
 43
0.0
 43
0.0
 43
1.0
 77
     0
 47
0.0208333333333333
 47
0.0
 47
0.0
 47
0.0
 47
0.0
 47
0.0208333333333333
 47
0.0
 47
0.0
 47
0.0
 47
0.0
 47
1.0
 47
0.0
 47
0.0
 47
0.0
 47
0.0
 47
1.0
171
     0
 49
0.0208333333333333
 49
0.0
 49
0.0
 49
0.0
 49
0.0
 49
0.0208333333333333
 49
0.0
 49
0.0
 49
0.0
 49
0.0
 49
1.0
 49
0.0
 49
0.0
 49
0.0
 49
0.0
 49
1.0
175
     0
142
0.0208333333333333
142
0.0
142
0.0
142
0.0
142
0.0
142
0.0208333333333333
142
0.0
142
0.0
142
0.0
142
0.0
142
1.0
142
0.0
142
0.0
142
0.0
142
0.0
142
1.0
179
     0
144
0.0208333333333333
144
0.0
144
0.0
144
0.0
144
0.0
144
0.0208333333333333
144
0.0
144
0.0
144
0.0
144
0.0
144
1.0
144
0.0
144
0.0
144
0.0
144
0.0
144
1.0
147
0.0208333333333333
147
0.0
147
0.0
147
0.0
147
0.0
147
0.0208333333333333
147
0.0
147
0.0
147
0.0
147
0.0
147
1.0
147
0.0
147
0.0
147
0.0
147
0.0
147
1.0
  0
MATERIAL
  5
A
102
{ACAD_XDICTIONARY
360
C
102
}
102
{ACAD_REACTORS
330
B
102
}
330
B
100
AcDbMaterial
  1
Global
 72
     0
 43
0.0208333333333333
 43
0.0
 43
0.0
 43
0.0
 43
0.0
 43
0.0208333333333333
 43
0.0
 43
0.0
 43
0.0
 43
0.0
 43
1.0
 43
0.0
 43
0.0
 43
0.0
 43
0.0
 43
1.0
 77
     0
 47
0.0208333333333333
 47
0.0
 47
0.0
 47
0.0
 47
0.0
 47
0.0208333333333333
 47
0.0
 47
0.0
 47
0.0
 47
0.0
 47
1.0
 47
0.0
 47
0.0
 47
0.0
 47
0.0
 47
1.0
171
     0
 49
0.0208333333333333
 49
0.0
 49
0.0
 49
0.0
 49
0.0
 49
0.0208333333333333
 49
0.0
 49
0.0
 49
0.0
 49
0.0
 49
1.0
 49
0.0
 49
0.0
 49
0.0
 49
0.0
 49
1.0
175
     0
142
0.0208333333333333
142
0.0
142
0.0
142
0.0
142
0.0
142
0.0208333333333333
142
0.0
142
0.0
142
0.0
142
0.0
142
1.0
142
0.0
142
0.0
142
0.0
142
0.0
142
1.0
179
     0
144
0.0208333333333333
144
0.0
144
0.0
144
0.0
144
0.0
144
0.0208333333333333
144
0.0
144
0.0
144
0.0
144
0.0
144
1.0
144
0.0
144
0.0
144
0.0
144
0.0
144
1.0
147
0.0208333333333333
147
0.0
147
0.0
147
0.0
147
0.0
147
0.0208333333333333
147
0.0
147
0.0
147
0.0
147
0.0
147
1.0
147
0.0
147
0.0
147
0.0
147
0.0
147
1.0
  0
MLEADERSTYLE
  5
3B0
102
{ACAD_REACTORS
330
4E
102
}
330
4E
100
AcDbMLeaderStyle
170
     2
171
     1
172
     0
 90
        2
 40
0.0
 41
0.0
173
     1
 91
-1056964608
340
2A
 92
       -2
290
     1
 42
0.09
291
     1
 43
0.36
  3
Standard
 44
0.18
300

342
27
174
     1
178
     6
175
     1
176
     0
 93
-1056964608
 45
0.18
292
     0
297
     0
 46
0.18
 94
-1056964608
 47
1.0
 49
1.0
140
1.0
293
     1
141
0.0
294
     1
177
     0
142
1.0
295
     0
296
     0
143
0.125
1001
ACAD_MLEADERVER
1070
     2
  0
MLINESTYLE
  5
56
102
{ACAD_REACTORS
330
40
102
}
330
40
100
AcDbMlineStyle
  2
STANDARD
 70
     0
  3

 62
     0
 51
90.0
 52
90.0
 71
     2
 49
0.5
 62
   256
  6
BYLAYER
 49
-0.5
 62
   256
  6
BYLAYER
  0
ACDBPLACEHOLDER
  5
7
102
{ACAD_REACTORS
330
8
102
}
330
8
  0
SCALE
  5
5B
102
{ACAD_REACTORS
330
4C
102
}
330
4C
100
AcDbScale
 70
     0
300
1:1
140
1.0
141
1.0
290
     1
  0
SCALE
  5
5C
102
{ACAD_REACTORS
330
4C
102
}
330
4C
100
AcDbScale
 70
     0
300
1/128" = 1'-0"
140
0.0078125
141
12.0
290
     0
  0
SCALE
  5
5D
102
{ACAD_REACTORS
330
4C
102
}
330
4C
100
AcDbScale
 70
     0
300
1/64" = 1'-0"
140
0.015625
141
12.0
290
     0
  0
SCALE
  5
5E
102
{ACAD_REACTORS
330
4C
102
}
330
4C
100
AcDbScale
 70
     0
300
1/32" = 1'-0"
140
0.03125
141
12.0
290
     0
  0
SCALE
  5
5F
102
{ACAD_REACTORS
330
4C
102
}
330
4C
100
AcDbScale
 70
     0
300
1/16" = 1'-0"
140
0.0625
141
12.0
290
     0
  0
SCALE
  5
60
102
{ACAD_REACTORS
330
4C
102
}
330
4C
100
AcDbScale
 70
     0
300
3/32" = 1'-0"
140
0.09375
141
12.0
290
     0
  0
SCALE
  5
61
102
{ACAD_REACTORS
330
4C
102
}
330
4C
100
AcDbScale
 70
     0
300
1/8" = 1'-0"
140
0.125
141
12.0
290
     0
  0
SCALE
  5
62
102
{ACAD_REACTORS
330
4C
102
}
330
4C
100
AcDbScale
 70
     0
300
3/16" = 1'-0"
140
0.1875
141
12.0
290
     0
  0
SCALE
  5
63
102
{ACAD_REACTORS
330
4C
102
}
330
4C
100
AcDbScale
 70
     0
300
1/4" = 1'-0"
140
0.25
141
12.0
290
     0
  0
SCALE
  5
64
102
{ACAD_REACTORS
330
4C
102
}
330
4C
100
AcDbScale
 70
     0
300
3/8" = 1'-0"
140
0.375
141
12.0
290
     0
  0
SCALE
  5
65
102
{ACAD_REACTORS
330
4C
102
}
330
4C
100
AcDbScale
 70
     0
300
1/2" = 1'-0"
140
0.5
141
12.0
290
     0
  0
SCALE
  5
66
102
{ACAD_REACTORS
330
4C
102
}
330
4C
100
AcDbScale
 70
     0
300
3/4" = 1'-0"
140
0.75
141
12.0
290
     0
  0
SCALE
  5
67
102
{ACAD_REACTORS
330
4C
102
}
330
4C
100
AcDbScale
 70
     0
300
1" = 1'-0"
140
1.0
141
12.0
290
     0
  0
SCALE
  5
68
102
{ACAD_REACTORS
330
4C
102
}
330
4C
100
AcDbScale
 70
     0
300
1-1/2" = 1'-0"
140
1.5
141
12.0
290
     0
  0
SCALE
  5
69
102
{ACAD_REACTORS
330
4C
102
}
330
4C
100
AcDbScale
 70
     0
300
3" = 1'-0"
140
3.0
141
12.0
290
     0
  0
SCALE
  5
6A
102
{ACAD_REACTORS
330
4C
102
}
330
4C
100
AcDbScale
 70
     0
300
6" = 1'-0"
140
6.0
141
12.0
290
     0
  0
SCALE
  5
6B
102
{ACAD_REACTORS
330
4C
102
}
330
4C
100
AcDbScale
 70
     0
300
1'-0" = 1'-0"
140
12.0
141
12.0
290
     0
  0
ACDBSECTIONVIEWSTYLE
  5
3B2
102
{ACAD_XDICTIONARY
360
1585
102
}
102
{ACAD_REACTORS
330
3B1
102
}
330
3B1
100
AcDbModelDocViewStyle
 70
     0
  3
Imperial24
290
     0
100
AcDbSectionViewStyle
 70
     0
 71
     0
 90
       78
 71
     1
340
27
 40
0.24
340
0
340
0
 40
0.24
300
I, O, Q, S, X, Z
 40
0.48
 90
        3
 40
0.18
 90
        1
 71
     2
340
14
 90
       25
340
14
 90
       50
 40
0.24
 40
0.0
 40
0.24
 71
     3
340
27
 40
0.24
 90
        1
 40
0.75
 90
        1
300
%<\AcVar ViewType \f "%tc1">% %<\AcVar ViewSectionStartId>%-%<\AcVar ViewSectionEndId>%\PSCALE %<\AcVar ViewScale \f "%sn">%
 71
     4
300
ANSI31
 40
1.0
 90
        0
290
     0
290
     0
 90
        6
 40
0.0
 40
1.570796326794896
 40
0.2617993877991494
 40
1.308996938995747
 40
-0.2617993877991494
 40
1.832595714594044
  0
TABLESTYLE
  5
57
102
{ACAD_XDICTIONARY
360
58
102
}
102
{ACAD_REACTORS
330
4D
102
}
330
4D
100
AcDbTableStyle
  3
Standard
 70
     0
 71
     0
 40
0.06
 41
0.06
280
     0
281
     0
  7
STANDARD
140
0.18
170
     2
 62
     0
 63
     7
283
     0
274
    -2
284
     1
 64
     0
275
    -2
285
     1
 65
     0
276
    -2
286
     1
 66
     0
277
    -2
287
     1
 67
     0
278
    -2
288
     1
 68
     0
279
    -2
289
     1
 69
     0
  7
STANDARD
140
0.25
170
     5
 62
     0
 63
     7
283
     0
274
    -2
284
     1
 64
     0
275
    -2
285
     1
 65
     0
276
    -2
286
     1
 66
     0
277
    -2
287
     1
 67
     0
278
    -2
288
     1
 68
     0
279
    -2
289
     1
 69
     0
  7
STANDARD
140
0.18
170
     5
 62
     0
 63
     7
283
     0
274
    -2
284
     1
 64
     0
275
    -2
285
     1
 65
     0
276
    -2
286
     1
 66
     0
277
    -2
287
     1
 67
     0
278
    -2
288
     1
 68
     0
279
    -2
289
     1
 69
     0
  0
VISUALSTYLE
  5
30
102
{ACAD_XDICTIONARY
360
1554
102
}
102
{ACAD_REACTORS
330
31
102
}
330
31
100
AcDbVisualStyle
  2

 70
     4
 71
     0
 72
     2
 73
     0
 90
        0
 40
-0.6
 41
-30.0
 62
     5
 63
     7
 74
     1
 91
        4
 64
     7
 65
   257
 75
     1
175
     1
 42
1.0
 92
        0
 66
   257
 43
1.0
 76
     1
 77
     6
 78
     2
 67
     7
 79
     5
170
     0
171
     0
290
     0
174
     0
 93
        1
 44
0.0
173
     0
291
     0
 45
0.0
1001
ACAD
1000
AcDbSavedByObjectVersion
1070
     0
  0
VISUALSTYLE
  5
39F
102
{ACAD_XDICTIONARY
360
1563
102
}
102
{ACAD_REACTORS
330
31
102
}
330
31
100
AcDbVisualStyle
  2

 70
     7
 71
     1
 72
     0
 73
     1
 90
        0
 40
-0.6
 41
-30.0
 62
     5
 63
     7
 74
     0
 91
        4
 64
     7
 65
   257
 75
     1
175
     1
 42
1.0
 92
        8
 66
     7
 43
1.0
 76
     1
 77
     6
 78
     2
 67
     7
 79
     5
170
     0
171
     0
290
     0
174
     0
 93
        1
 44
0.0
173
     0
291
     1
 45
0.0
1001
ACAD
1000
AcDbSavedByObjectVersion
1070
     0
  0
VISUALSTYLE
  5
3A3
102
{ACAD_XDICTIONARY
360
156B
102
}
102
{ACAD_REACTORS
330
31
102
}
330
31
100
AcDbVisualStyle
  2

 70
    12
 71
     2
 72
     2
 73
     0
 90
        0
 40
-0.6
 41
-30.0
 62
     5
 63
     7
 74
     1
 91
        4
 64
     7
 65
   257
 75
     1
175
     1
 42
1.0
 92
        8
 66
     7
 43
1.0
 76
     1
 77
     6
 78
     2
 67
     7
 79
     5
170
     0
171
     0
290
     0
174
     0
 93
        1
 44
50.0
173
     0
291
     1
 45
0.0
1001
ACAD
1000
AcDbSavedByObjectVersion
1070
     0
  0
VISUALSTYLE
  5
3A7
102
{ACAD_XDICTIONARY
360
1573
102
}
102
{ACAD_REACTORS
330
31
102
}
330
31
100
AcDbVisualStyle
  2

 70
    16
 71
     2
 72
     2
 73
     3
 90
        0
 40
-0.6
 41
-30.0
 62
     5
 63
     8
 74
     1
 91
        4
 64
     7
 65
   257
 75
     1
175
     1
 42
1.0
 92
        8
 66
     8
 43
1.0
 76
     1
 77
     6
 78
     2
 67
     7
 79
     5
170
     0
171
     0
290
     0
174
     0
 93
        1
 44
0.0
173
     0
291
     1
 45
0.0
1001
ACAD
1000
AcDbSavedByObjectVersion
1070
     0
  0
VISUALSTYLE
  5
3A1
102
{ACAD_XDICTIONARY
360
1567
102
}
102
{ACAD_REACTORS
330
31
102
}
330
31
100
AcDbVisualStyle
  2

 70
     9
 71
     3
 72
     2
 73
     0
 90
        0
 40
-0.6
 41
-30.0
 62
     5
 63
     7
 74
     2
 91
        2
 64
     7
 65
   257
 75
     1
175
     1
 42
179.0
 92
        8
 66
     7
 43
1.0
 76
     1
 77
     6
 78
     2
 67
     7
 79
     3
170
     0
171
     0
290
     0
174
     0
 93
        1
 44
0.0
173
     0
291
     0
 45
0.0
1001
ACAD
1000
AcDbSavedByObjectVersion
1070
     0
  0
VISUALSTYLE
  5
3A2
102
{ACAD_XDICTIONARY
360
1569
102
}
102
{ACAD_REACTORS
330
31
102
}
330
31
100
AcDbVisualStyle
  2

 70
    11
 71
     2
 72
     2
 73
     0
 90
        0
 40
-0.6
 41
-30.0
 62
     5
 63
     7
 74
     1
 91
        4
 64
     7
 65
   257
 75
     1
175
     1
 42
1.0
 92
        8
 66
     7
 43
1.0
 76
     1
 77
     6
 78
     2
 67
     7
 79
     5
170
     0
171
     0
290
     0
174
     0
 93
        1
 44
-50.0
173
     0
291
     1
 45
0.0
1001
ACAD
1000
AcDbSavedByObjectVersion
1070
     0
  0
VISUALSTYLE
  5
3AF
102
{ACAD_XDICTIONARY
360
1583
102
}
102
{ACAD_REACTORS
330
31
102
}
330
31
100
AcDbVisualStyle
  2

 70
    22
 71
     2
 72
     2
 73
     0
 90
        0
 40
-0.6
 41
-30.0
 62
     5
 63
     7
 74
     1
 91
        4
 64
     7
 65
   257
 75
     1
175
     1
 42
1.0
 92
        8
 66
     7
 43
1.0
 76
     1
 77
     6
 78
     2
 67
     7
 79
     5
170
     0
171
     0
290
     0
174
     0
 93
        1
 44
0.0
173
     0
291
     1
 45
0.0
1001
ACAD
1000
AcDbSavedByObjectVersion
1070
     0
  0
VISUALSTYLE
  5
3A6
102
{ACAD_XDICTIONARY
360
1571
102
}
102
{ACAD_REACTORS
330
31
102
}
330
31
100
AcDbVisualStyle
  2

 70
    15
 71
     2
 72
     2
 73
     0
 90
        0
 40
-0.6
 41
-30.0
 62
     5
 63
     7
 74
     1
 91
        4
 64
     7
 65
   257
 75
     1
175
     1
 42
1.0
 92
        8
 66
     7
 43
1.0
 76
     1
 77
     6
 78
     2
 67
     7
 79
     5
170
     0
171
     0
290
     0
174
     0
 93
        1
 44
0.0
173
     0
291
     1
 45
0.0
1001
ACAD
1000
AcDbSavedByObjectVersion
1070
     0
  0
VISUALSTYLE
  5
39B
102
{ACAD_XDICTIONARY
360
155B
102
}
102
{ACAD_REACTORS
330
31
102
}
330
31
100
AcDbVisualStyle
  2

 70
     0
 71
     2
 72
     1
 73
     1
 90
        2
 40
-0.6
 41
30.0
 62
     5
 63
     7
 74
     0
 91
        0
 64
     7
 65
   257
 75
     1
175
     1
 42
1.0
 92
        8
 66
     7
 43
1.0
 76
     1
 77
     6
 78
     2
 67
     7
 79
     5
170
     0
171
     0
290
     0
174
     0
 93
       13
 44
0.0
173
     0
291
     1
 45
0.0
1001
ACAD
1000
AcDbSavedByObjectVersion
1070
     0
  0
VISUALSTYLE
  5
39C
102
{ACAD_XDICTIONARY
360
155D
102
}
102
{ACAD_REACTORS
330
31
102
}
330
31
100
AcDbVisualStyle
  2

 70
     1
 71
     2
 72
     1
 73
     1
 90
        2
 40
-0.6
 41
30.0
 62
     5
 63
     7
 74
     1
 91
        0
 64
     7
 65
   257
 75
     1
175
     1
 42
1.0
 92
        0
 66
   257
 43
1.0
 76
     1
 77
     6
 78
     2
 67
     7
 79
     5
170
     0
171
     0
290
     0
174
     0
 93
       13
 44
0.0
173
     0
291
     1
 45
0.0
1001
ACAD
1000
AcDbSavedByObjectVersion
1070
     0
  0
VISUALSTYLE
  5
39D
102
{ACAD_XDICTIONARY
360
155F
102
}
102
{ACAD_REACTORS
330
31
102
}
330
31
100
AcDbVisualStyle
  2

 70
     2
 71
     2
 72
     2
 73
     1
 90
        2
 40
-0.6
 41
30.0
 62
     5
 63
     7
 74
     0
 91
        0
 64
     7
 65
   257
 75
     1
175
     1
 42
1.0
 92
        0
 66
     7
 43
1.0
 76
     1
 77
     6
 78
     2
 67
     7
 79
     5
170
     0
171
     0
290
     0
174
     0
 93
       13
 44
0.0
173
     0
291
     1
 45
0.0
1001
ACAD
1000
AcDbSavedByObjectVersion
1070
     0
  0
VISUALSTYLE
  5
39E
102
{ACAD_XDICTIONARY
360
1561
102
}
102
{ACAD_REACTORS
330
31
102
}
330
31
100
AcDbVisualStyle
  2

 70
     3
 71
     2
 72
     2
 73
     1
 90
        2
 40
-0.6
 41
30.0
 62
     5
 63
     7
 74
     1
 91
        0
 64
     7
 65
   257
 75
     1
175
     1
 42
1.0
 92
        0
 66
   257
 43
1.0
 76
     1
 77
     6
 78
     2
 67
     7
 79
     5
170
     0
171
     0
290
     0
174
     0
 93
       13
 44
0.0
173
     0
291
     1
 45
0.0
1001
ACAD
1000
AcDbSavedByObjectVersion
1070
     0
  0
VISUALSTYLE
  5
3A0
102
{ACAD_XDICTIONARY
360
1565
102
}
102
{ACAD_REACTORS
330
31
102
}
330
31
100
AcDbVisualStyle
  2

 70
     6
 71
     1
 72
     2
 73
     2
 90
        0
 40
-0.6
 41
-30.0
 62
     5
 63
     7
 74
     2
 91
        2
 64
     7
 65
   257
 75
     2
175
     1
 42
40.0
 92
        0
 66
   257
 43
1.0
 76
     1
 77
     6
 78
     2
 67
     7
 79
     3
170
     0
171
     0
290
     0
174
     0
 93
        1
 44
0.0
173
     0
291
     0
 45
0.0
1001
ACAD
1000
AcDbSavedByObjectVersion
1070
     0
  0
VISUALSTYLE
  5
3AD
102
{ACAD_XDICTIONARY
360
157F
102
}
102
{ACAD_REACTORS
330
31
102
}
330
31
100
AcDbVisualStyle
  2

 70
    20
 71
     2
 72
     2
 73
     0
 90
        0
 40
-0.6
 41
-30.0
 62
     5
 63
     7
 74
     1
 91
        4
 64
     7
 65
   257
 75
     1
175
     1
 42
1.0
 92
       10
 66
     7
 43
1.0
 76
     1
 77
     6
 78
     2
 67
     7
 79
     5
170
     0
171
     0
290
     0
174
     0
 93
        1
 44
0.0
173
     0
291
     1
 45
0.0
1001
ACAD
1000
AcDbSavedByObjectVersion
1070
     0
  0
VISUALSTYLE
  5
3A5
102
{ACAD_XDICTIONARY
360
156F
102
}
102
{ACAD_REACTORS
330
31
102
}
330
31
100
AcDbVisualStyle
  2

 70
    14
 71
     2
 72
     2
 73
     0
 90
        0
 40
-0.6
 41
-30.0
 62
     5
 63
     7
 74
     1
 91
        4
 64
     7
 65
   257
 75
     7
175
     7
 42
1.0
 92
        8
 66
     7
 43
1.0
 76
     1
 77
     6
 78
     2
 67
     7
 79
     5
170
     0
171
     0
290
     0
174
     0
 93
        1
 44
0.0
173
     0
291
     1
 45
0.0
1001
ACAD
1000
AcDbSavedByObjectVersion
1070
     0
  0
VISUALSTYLE
  5
3AE
102
{ACAD_XDICTIONARY
360
1581
102
}
102
{ACAD_REACTORS
330
31
102
}
330
31
100
AcDbVisualStyle
  2

 70
    21
 71
     2
 72
     2
 73
     0
 90
        0
 40
-0.6
 41
-30.0
 62
     5
 63
     7
 74
     1
 91
        4
 64
     7
 65
   257
 75
     1
175
     1
 42
1.0
 92
        9
 66
     7
 43
1.0
 76
     1
 77
     6
 78
     2
 67
     7
 79
     5
170
     0
171
     0
290
     0
174
     0
 93
        1
 44
0.0
173
     0
291
     1
 45
0.0
1001
ACAD
1000
AcDbSavedByObjectVersion
1070
     0
  0
VISUALSTYLE
  5
59
102
{ACAD_XDICTIONARY
360
1557
102
}
102
{ACAD_REACTORS
330
31
102
}
330
31
100
AcDbVisualStyle
  2

 70
     8
 71
     2
 72
     3
 73
     0
 90
        2
 40
-0.6
 41
30.0
 62
     5
 63
     7
 74
     0
 91
        0
 64
     7
 65
   257
 75
     1
175
     1
 42
1.0
 92
        8
 66
   257
 43
1.0
 76
     1
 77
     6
 78
     2
 67
     7
 79
     3
170
     0
171
     0
290
     0
174
     0
 93
       13
 44
0.0
173
     0
291
     0
 45
0.0
1001
ACAD
1000
AcDbSavedByObjectVersion
1070
     0
  0
VISUALSTYLE
  5
3AC
102
{ACAD_XDICTIONARY
360
157D
102
}
102
{ACAD_REACTORS
330
31
102
}
330
31
100
AcDbVisualStyle
  2

 70
    27
 71
     2
 72
     2
 73
     1
 90
        2
 40
-0.6
 41
30.0
 62
     5
 63
     7
 74
     0
 91
        4
 64
     7
 65
   257
 75
     1
175
     1
 42
1.0
 92
        8
 66
   257
 43
1.0
 76
     1
 77
     6
 78
     2
 67
     8
 79
     3
170
     0
171
     0
290
     0
174
     0
 93
        5
 44
0.0
173
     0
291
     0
 45
0.0
1001
ACAD
1000
AcDbSavedByObjectVersion
1070
     0
  0
VISUALSTYLE
  5
3AB
102
{ACAD_XDICTIONARY
360
157B
102
}
102
{ACAD_REACTORS
330
31
102
}
330
31
100
AcDbVisualStyle
  2

 70
    26
 71
     2
 72
     2
 73
     1
 90
        2
 40
-0.6
 41
30.0
 62
     5
 63
     7
 74
     1
 91
        2
 64
     7
 65
   257
 75
     2
175
     1
 42
1.0
 92
        8
 66
   257
 43
1.0
 76
     1
 77
     6
 78
     2
 67
     7
 79
     3
170
     0
171
     0
290
     0
174
     0
 93
        5
 44
0.0
173
     0
291
     0
 45
0.0
1001
ACAD
1000
AcDbSavedByObjectVersion
1070
     0
  0
VISUALSTYLE
  5
3A8
102
{ACAD_XDICTIONARY
360
1575
102
}
102
{ACAD_REACTORS
330
31
102
}
330
31
100
AcDbVisualStyle
  2

 70
    23
 71
     2
 72
     2
 73
     3
 90
        0
 40
-0.6
 41
-30.0
 62
     5
 63
     7
 74
     2
 91
        2
 64
     7
 65
     7
 75
     1
175
     1
 42
40.0
 92
        8
 66
     7
 43
1.0
 76
     1
 77
     6
 78
     2
 67
     7
 79
     3
170
     0
171
     0
290
     0
174
     0
 93
        1
 44
0.0
173
     0
291
     0
 45
0.0
1001
ACAD
1000
AcDbSavedByObjectVersion
1070
     0
  0
VISUALSTYLE
  5
3A9
102
{ACAD_XDICTIONARY
360
1577
102
}
102
{ACAD_REACTORS
330
31
102
}
330
31
100
AcDbVisualStyle
  2

 70
    24
 71
     1
 72
     2
 73
     2
 90
        0
 40
-0.6
 41
-30.0
 62
     5
 63
     7
 74
     2
 91
        2
 64
     7
 65
     7
 75
     1
175
     1
 42
40.0
 92
       11
 66
     7
 43
1.0
 76
     1
 77
     6
 78
     2
 67
     7
 79
     6
170
     0
171
     0
290
     0
174
     0
 93
        1
 44
0.0
173
     0
291
     0
 45
0.0
1001
ACAD
1000
AcDbSavedByObjectVersion
1070
     0
  0
VISUALSTYLE
  5
3A4
102
{ACAD_XDICTIONARY
360
156D
102
}
102
{ACAD_REACTORS
330
31
102
}
330
31
100
AcDbVisualStyle
  2

 70
    13
 71
     2
 72
     2
 73
     0
 90
        0
 40
-0.6
 41
-30.0
 62
     5
 63
     7
 74
     1
 91
        4
 64
     7
 65
   257
 75
     1
175
     1
 42
1.0
 92
       12
 66
     7
 43
1.0
 76
     1
 77
     6
 78
     2
 67
     7
 79
     5
170
     0
171
     0
290
     0
174
     0
 93
        1
 44
0.0
173
     0
291
     1
 45
0.0
1001
ACAD
1000
AcDbSavedByObjectVersion
1070
     0
  0
VISUALSTYLE
  5
5A
102
{ACAD_XDICTIONARY
360
1559
102
}
102
{ACAD_REACTORS
330
31
102
}
330
31
100
AcDbVisualStyle
  2

 70
     5
 71
     0
 72
     2
 73
     0
 90
        0
 40
-0.6
 41
-30.0
 62
     5
 63
     7
 74
     1
 91
        4
 64
     7
 65
   257
 75
     1
175
     1
 42
1.0
 92
        0
 66
   257
 43
1.0
 76
     1
 77
     6
 78
     2
 67
     7
 79
     3
170
     0
171
     0
290
     0
174
     0
 93
        1
 44
0.0
173
     0
291
     0
 45
0.0
1001
ACAD
1000
AcDbSavedByObjectVersion
1070
     0
  0
VISUALSTYLE
  5
3AA
102
{ACAD_XDICTIONARY
360
1579
102
}
102
{ACAD_REACTORS
330
31
102
}
330
31
100
AcDbVisualStyle
  2

 70
    25
 71
     2
 72
     2
 73
     1
 90
        1
 40
0.5
 41
-30.0
 62
     5
 63
     7
 74
     1
 91
        0
 64
     7
 65
   257
 75
     1
175
     1
 42
1.0
 92
        8
 66
     7
 43
1.0
 76
     1
 77
     6
 78
     2
 67
     7
 79
     3
170
     0
171
     0
290
     0
174
     0
 93
       13
 44
0.0
173
     0
291
     0
 45
0.0
1001
ACAD
1000
AcDbSavedByObjectVersion
1070
     0
  0
DICTIONARYVAR
  5
386
102
{ACAD_REACTORS
330
383
102
}
330
383
100
DictionaryVariables
280
     0
  1
1:1
  0
DICTIONARYVAR
  5
385
102
{ACAD_REACTORS
330
383
102
}
330
383
100
DictionaryVariables
280
     0
  1
STANDARD
  0
DICTIONARYVAR
  5
384
102
{ACAD_REACTORS
330
383
102
}
330
383
100
DictionaryVariables
280
     0
  1
STANDARD
  0
DICTIONARYVAR
  5
F9B
102
{ACAD_REACTORS
330
383
102
}
330
383
100
DictionaryVariables
280
     0
  1
Imperial24
  0
DICTIONARYVAR
  5
F9C
102
{ACAD_REACTORS
330
383
102
}
330
383
100
DictionaryVariables
280
     0
  1
Imperial24
  0
DICTIONARYVAR
  5
38A
102
{ACAD_REACTORS
330
383
102
}
330
383
100
DictionaryVariables
280
     0
  1
1
  0
DICTIONARYVAR
  5
389
102
{ACAD_REACTORS
330
383
102
}
330
383
100
DictionaryVariables
280
     0
  1
1
  0
DICTIONARYVAR
  5
388
102
{ACAD_REACTORS
330
383
102
}
330
383
100
DictionaryVariables
280
     0
  1
0
  0
DICTIONARYVAR
  5
F9F
102
{ACAD_REACTORS
330
383
102
}
330
383
100
DictionaryVariables
280
     0
  1
1
  0
DICTIONARYVAR
  5
FA0
102
{ACAD_REACTORS
330
383
102
}
330
383
100
DictionaryVariables
280
     0
  1
15
  0
DICTIONARYVAR
  5
F9E
102
{ACAD_REACTORS
330
383
102
}
330
383
100
DictionaryVariables
280
     0
  1
0
  0
DICTIONARYVAR
  5
154A
102
{ACAD_REACTORS
330
383
102
}
330
383
100
DictionaryVariables
280
     0
  1
1.570796
  0
DICTIONARYVAR
  5
154B
102
{ACAD_REACTORS
330
383
102
}
330
383
100
DictionaryVariables
280
     0
  1
1.570796
  0
DICTIONARYVAR
  5
F9D
102
{ACAD_REACTORS
330
383
102
}
330
383
100
DictionaryVariables
280
     0
  1
0
  0
DICTIONARYVAR
  5
387
102
{ACAD_REACTORS
330
383
102
}
330
383
100
DictionaryVariables
280
     0
  1
127
  0
DICTIONARYVAR
  5
154C
102
{ACAD_REACTORS
330
383
102
}
330
383
100
DictionaryVariables
280
     0
  1
2
  0
DICTIONARY
  5
1587
330
3B4
100
AcDbDictionary
280
     1
281
     1
  3
ACAD_XREC_ROUNDTRIP
360
1588
  0
DICTIONARY
  5
1550
330
1F
100
AcDbDictionary
280
     1
281
     1
  3
ACAD_XREC_ROUNDTRIP
360
1551
  0
DICTIONARY
  5
1552
330
24
100
AcDbDictionary
280
     1
281
     1
  3
ACAD_XREC_ROUNDTRIP
360
1553
  0
DICTIONARY
  5
43
330
42
100
AcDbDictionary
280
     1
281
     1
  3
ACAD_XREC_ROUNDTRIP
360
44
  3
BUMPTILE
360
45
  3
DIFFUSETILE
360
46
  3
OPACITYTILE
360
47
  3
REFLECTIONTILE
360
48
  3
REFRACTIONTILE
360
49
  3
SPECULARTILE
360
4A
  0
DICTIONARY
  5
16
330
15
100
AcDbDictionary
280
     1
281
     1
  3
ACAD_XREC_ROUNDTRIP
360
17
  3
BUMPTILE
360
18
  3
DIFFUSETILE
360
19
  3
OPACITYTILE
360
1A
  3
REFLECTIONTILE
360
1B
  3
REFRACTIONTILE
360
1C
  3
SPECULARTILE
360
1D
  0
DICTIONARY
  5
C
330
A
100
AcDbDictionary
280
     1
281
     1
  3
ACAD_XREC_ROUNDTRIP
360
D
  3
BUMPTILE
360
E
  3
DIFFUSETILE
360
F
  3
OPACITYTILE
360
10
  3
REFLECTIONTILE
360
11
  3
REFRACTIONTILE
360
12
  3
SPECULARTILE
360
13
  0
DICTIONARY
  5
1585
330
3B2
100
AcDbDictionary
280
     1
281
     1
  3
ACAD_XREC_ROUNDTRIP
360
1586
  0
DICTIONARY
  5
58
330
57
100
AcDbDictionary
280
     1
281
     1
  3
ACAD_ROUNDTRIP_2008_TABLESTYLE_CELLSTYLEMAP
360
154D
  3
ACAD_XREC_ROUNDTRIP
360
1556
  0
DICTIONARY
  5
1554
330
30
100
AcDbDictionary
280
     1
281
     1
  3
ACAD_XREC_ROUNDTRIP
360
1555
  0
DICTIONARY
  5
1563
330
39F
100
AcDbDictionary
280
     1
281
     1
  3
ACAD_XREC_ROUNDTRIP
360
1564
  0
DICTIONARY
  5
156B
330
3A3
100
AcDbDictionary
280
     1
281
     1
  3
ACAD_XREC_ROUNDTRIP
360
156C
  0
DICTIONARY
  5
1573
330
3A7
100
AcDbDictionary
280
     1
281
     1
  3
ACAD_XREC_ROUNDTRIP
360
1574
  0
DICTIONARY
  5
1567
330
3A1
100
AcDbDictionary
280
     1
281
     1
  3
ACAD_XREC_ROUNDTRIP
360
1568
  0
DICTIONARY
  5
1569
330
3A2
100
AcDbDictionary
280
     1
281
     1
  3
ACAD_XREC_ROUNDTRIP
360
156A
  0
DICTIONARY
  5
1583
330
3AF
100
AcDbDictionary
280
     1
281
     1
  3
ACAD_XREC_ROUNDTRIP
360
1584
  0
DICTIONARY
  5
1571
330
3A6
100
AcDbDictionary
280
     1
281
     1
  3
ACAD_XREC_ROUNDTRIP
360
1572
  0
DICTIONARY
  5
155B
330
39B
100
AcDbDictionary
280
     1
281
     1
  3
ACAD_XREC_ROUNDTRIP
360
155C
  0
DICTIONARY
  5
155D
330
39C
100
AcDbDictionary
280
     1
281
     1
  3
ACAD_XREC_ROUNDTRIP
360
155E
  0
DICTIONARY
  5
155F
330
39D
100
AcDbDictionary
280
     1
281
     1
  3
ACAD_XREC_ROUNDTRIP
360
1560
  0
DICTIONARY
  5
1561
330
39E
100
AcDbDictionary
280
     1
281
     1
  3
ACAD_XREC_ROUNDTRIP
360
1562
  0
DICTIONARY
  5
1565
330
3A0
100
AcDbDictionary
280
     1
281
     1
  3
ACAD_XREC_ROUNDTRIP
360
1566
  0
DICTIONARY
  5
157F
330
3AD
100
AcDbDictionary
280
     1
281
     1
  3
ACAD_XREC_ROUNDTRIP
360
1580
  0
DICTIONARY
  5
156F
330
3A5
100
AcDbDictionary
280
     1
281
     1
  3
ACAD_XREC_ROUNDTRIP
360
1570
  0
DICTIONARY
  5
1581
330
3AE
100
AcDbDictionary
280
     1
281
     1
  3
ACAD_XREC_ROUNDTRIP
360
1582
  0
DICTIONARY
  5
1557
330
59
100
AcDbDictionary
280
     1
281
     1
  3
ACAD_XREC_ROUNDTRIP
360
1558
  0
DICTIONARY
  5
157D
330
3AC
100
AcDbDictionary
280
     1
281
     1
  3
ACAD_XREC_ROUNDTRIP
360
157E
  0
DICTIONARY
  5
157B
330
3AB
100
AcDbDictionary
280
     1
281
     1
  3
ACAD_XREC_ROUNDTRIP
360
157C
  0
DICTIONARY
  5
1575
330
3A8
100
AcDbDictionary
280
     1
281
     1
  3
ACAD_XREC_ROUNDTRIP
360
1576
  0
DICTIONARY
  5
1577
330
3A9
100
AcDbDictionary
280
     1
281
     1
  3
ACAD_XREC_ROUNDTRIP
360
1578
  0
DICTIONARY
  5
156D
330
3A4
100
AcDbDictionary
280
     1
281
     1
  3
ACAD_XREC_ROUNDTRIP
360
156E
  0
DICTIONARY
  5
1559
330
5A
100
AcDbDictionary
280
     1
281
     1
  3
ACAD_XREC_ROUNDTRIP
360
155A
  0
DICTIONARY
  5
1579
330
3AA
100
AcDbDictionary
280
     1
281
     1
  3
ACAD_XREC_ROUNDTRIP
360
157A
  0
XRECORD
  5
1588
102
{ACAD_REACTORS
330
1587
102
}
330
1587
100
AcDbXrecord
280
     1
102
DISPLAYNAME
  1
Imperial24
102
FLAGS
 90
        0
  0
XRECORD
  5
1551
102
{ACAD_REACTORS
330
1550
102
}
330
1550
100
AcDbXrecord
280
     1
102
SHADEPLOT
 70
     0
102
SHADEPLOTRESLEVEL
 70
     2
102
SHADEPLOTCUSTOMDPI
 70
   300
  0
XRECORD
  5
1553
102
{ACAD_REACTORS
330
1552
102
}
330
1552
100
AcDbXrecord
280
     1
102
SHADEPLOT
 70
     0
102
SHADEPLOTRESLEVEL
 70
     2
102
SHADEPLOTCUSTOMDPI
 70
   300
  0
XRECORD
  5
44
102
{ACAD_REACTORS
330
43
102
}
330
43
100
AcDbXrecord
280
     1
102
MATERIAL
148
0.0
149
0.0
149
0.0
 93
        0
 94
      127
282
     0
 72
     0
 77
     0
171
     0
175
     0
179
     0
273
     0
  0
XRECORD
  5
45
102
{ACAD_REACTORS
330
43
102
}
330
43
100
AcDbXrecord
280
     1
270
     1
271
     1
  0
XRECORD
  5
46
102
{ACAD_REACTORS
330
43
102
}
330
43
100
AcDbXrecord
280
     1
270
     1
271
     1
  0
XRECORD
  5
47
102
{ACAD_REACTORS
330
43
102
}
330
43
100
AcDbXrecord
280
     1
270
     1
271
     1
  0
XRECORD
  5
48
102
{ACAD_REACTORS
330
43
102
}
330
43
100
AcDbXrecord
280
     1
270
     1
271
     1
  0
XRECORD
  5
49
102
{ACAD_REACTORS
330
43
102
}
330
43
100
AcDbXrecord
280
     1
270
     1
271
     1
  0
XRECORD
  5
4A
102
{ACAD_REACTORS
330
43
102
}
330
43
100
AcDbXrecord
280
     1
270
     1
271
     1
  0
XRECORD
  5
17
102
{ACAD_REACTORS
330
16
102
}
330
16
100
AcDbXrecord
280
     1
102
MATERIAL
148
0.0
149
0.0
149
0.0
 93
        0
 94
      127
282
     0
 72
     0
 77
     0
171
     0
175
     0
179
     0
273
     0
  0
XRECORD
  5
18
102
{ACAD_REACTORS
330
16
102
}
330
16
100
AcDbXrecord
280
     1
270
     1
271
     1
  0
XRECORD
  5
19
102
{ACAD_REACTORS
330
16
102
}
330
16
100
AcDbXrecord
280
     1
270
     1
271
     1
  0
XRECORD
  5
1A
102
{ACAD_REACTORS
330
16
102
}
330
16
100
AcDbXrecord
280
     1
270
     1
271
     1
  0
XRECORD
  5
1B
102
{ACAD_REACTORS
330
16
102
}
330
16
100
AcDbXrecord
280
     1
270
     1
271
     1
  0
XRECORD
  5
1C
102
{ACAD_REACTORS
330
16
102
}
330
16
100
AcDbXrecord
280
     1
270
     1
271
     1
  0
XRECORD
  5
1D
102
{ACAD_REACTORS
330
16
102
}
330
16
100
AcDbXrecord
280
     1
270
     1
271
     1
  0
XRECORD
  5
D
102
{ACAD_REACTORS
330
C
102
}
330
C
100
AcDbXrecord
280
     1
102
MATERIAL
148
0.0
149
0.0
149
0.0
 93
        0
 94
      127
282
     0
 72
     0
 77
     0
171
     0
175
     0
179
     0
273
     0
  0
XRECORD
  5
E
102
{ACAD_REACTORS
330
C
102
}
330
C
100
AcDbXrecord
280
     1
270
     1
271
     1
  0
XRECORD
  5
F
102
{ACAD_REACTORS
330
C
102
}
330
C
100
AcDbXrecord
280
     1
270
     1
271
     1
  0
XRECORD
  5
10
102
{ACAD_REACTORS
330
C
102
}
330
C
100
AcDbXrecord
280
     1
270
     1
271
     1
  0
XRECORD
  5
11
102
{ACAD_REACTORS
330
C
102
}
330
C
100
AcDbXrecord
280
     1
270
     1
271
     1
  0
XRECORD
  5
12
102
{ACAD_REACTORS
330
C
102
}
330
C
100
AcDbXrecord
280
     1
270
     1
271
     1
  0
XRECORD
  5
13
102
{ACAD_REACTORS
330
C
102
}
330
C
100
AcDbXrecord
280
     1
270
     1
271
     1
  0
XRECORD
  5
1586
102
{ACAD_REACTORS
330
1585
102
}
330
1585
100
AcDbXrecord
280
     1
102
DISPLAYNAME
  1
Imperial24
102
FLAGS
 90
        0
  0
CELLSTYLEMAP
  5
154D
102
{ACAD_REACTORS
330
58
102
}
330
58
100
AcDbCellStyleMap
 90
        3
300
CELLSTYLE
  1
TABLEFORMAT_BEGIN
 90
        5
170
     1
 91
        0
 92
    32768
 62
   257
 93
        1
300
CONTENTFORMAT
  1
CONTENTFORMAT_BEGIN
 90
        0
 91
        0
 92
      512
 93
        0
300

 40
0.0
140
1.0
 94
        5
 62
     0
340
27
144
0.25
309
CONTENTFORMAT_END
171
     1
301
MARGIN
  1
CELLMARGIN_BEGIN
 40
0.06
 40
0.06
 40
0.06
 40
0.06
 40
0.18
 40
0.18
309
CELLMARGIN_END
 94
        6
 95
        1
302
GRIDFORMAT
  1
GRIDFORMAT_BEGIN
 90
        0
 91
        1
 62
     0
 92
       -2
340
0
 93
        0
 40
0.045
309
GRIDFORMAT_END
 95
        2
302
GRIDFORMAT
  1
GRIDFORMAT_BEGIN
 90
        0
 91
        1
 62
     0
 92
       -2
340
0
 93
        0
 40
0.045
309
GRIDFORMAT_END
 95
        4
302
GRIDFORMAT
  1
GRIDFORMAT_BEGIN
 90
        0
 91
        1
 62
     0
 92
       -2
340
0
 93
        0
 40
0.045
309
GRIDFORMAT_END
 95
        8
302
GRIDFORMAT
  1
GRIDFORMAT_BEGIN
 90
        0
 91
        1
 62
     0
 92
       -2
340
0
 93
        0
 40
0.045
309
GRIDFORMAT_END
 95
       16
302
GRIDFORMAT
  1
GRIDFORMAT_BEGIN
 90
        0
 91
        1
 62
     0
 92
       -2
340
0
 93
        0
 40
0.045
309
GRIDFORMAT_END
 95
       32
302
GRIDFORMAT
  1
GRIDFORMAT_BEGIN
 90
        0
 91
        1
 62
     0
 92
       -2
340
0
 93
        0
 40
0.045
309
GRIDFORMAT_END
309
TABLEFORMAT_END
  1
CELLSTYLE_BEGIN
 90
        1
 91
        1
300
_TITLE
309
CELLSTYLE_END
300
CELLSTYLE
  1
TABLEFORMAT_BEGIN
 90
        5
170
     1
 91
        0
 92
        0
 62
   257
 93
        1
300
CONTENTFORMAT
  1
CONTENTFORMAT_BEGIN
 90
        0
 91
        0
 92
      512
 93
        0
300

 40
0.0
140
1.0
 94
        5
 62
     0
340
27
144
0.18
309
CONTENTFORMAT_END
171
     1
301
MARGIN
  1
CELLMARGIN_BEGIN
 40
0.06
 40
0.06
 40
0.06
 40
0.06
 40
0.18
 40
0.18
309
CELLMARGIN_END
 94
        6
 95
        1
302
GRIDFORMAT
  1
GRIDFORMAT_BEGIN
 90
        0
 91
        1
 62
     0
 92
       -2
340
0
 93
        0
 40
0.045
309
GRIDFORMAT_END
 95
        2
302
GRIDFORMAT
  1
GRIDFORMAT_BEGIN
 90
        0
 91
        1
 62
     0
 92
       -2
340
0
 93
        0
 40
0.045
309
GRIDFORMAT_END
 95
        4
302
GRIDFORMAT
  1
GRIDFORMAT_BEGIN
 90
        0
 91
        1
 62
     0
 92
       -2
340
0
 93
        0
 40
0.045
309
GRIDFORMAT_END
 95
        8
302
GRIDFORMAT
  1
GRIDFORMAT_BEGIN
 90
        0
 91
        1
 62
     0
 92
       -2
340
0
 93
        0
 40
0.045
309
GRIDFORMAT_END
 95
       16
302
GRIDFORMAT
  1
GRIDFORMAT_BEGIN
 90
        0
 91
        1
 62
     0
 92
       -2
340
0
 93
        0
 40
0.045
309
GRIDFORMAT_END
 95
       32
302
GRIDFORMAT
  1
GRIDFORMAT_BEGIN
 90
        0
 91
        1
 62
     0
 92
       -2
340
0
 93
        0
 40
0.045
309
GRIDFORMAT_END
309
TABLEFORMAT_END
  1
CELLSTYLE_BEGIN
 90
        2
 91
        1
300
_HEADER
309
CELLSTYLE_END
300
CELLSTYLE
  1
TABLEFORMAT_BEGIN
 90
        5
170
     1
 91
        0
 92
        0
 62
   257
 93
        1
300
CONTENTFORMAT
  1
CONTENTFORMAT_BEGIN
 90
        0
 91
        0
 92
      512
 93
        0
300

 40
0.0
140
1.0
 94
        2
 62
     0
340
27
144
0.18
309
CONTENTFORMAT_END
171
     1
301
MARGIN
  1
CELLMARGIN_BEGIN
 40
0.06
 40
0.06
 40
0.06
 40
0.06
 40
0.18
 40
0.18
309
CELLMARGIN_END
 94
        6
 95
        1
302
GRIDFORMAT
  1
GRIDFORMAT_BEGIN
 90
        0
 91
        1
 62
     0
 92
       -2
340
0
 93
        0
 40
0.045
309
GRIDFORMAT_END
 95
        2
302
GRIDFORMAT
  1
GRIDFORMAT_BEGIN
 90
        0
 91
        1
 62
     0
 92
       -2
340
0
 93
        0
 40
0.045
309
GRIDFORMAT_END
 95
        4
302
GRIDFORMAT
  1
GRIDFORMAT_BEGIN
 90
        0
 91
        1
 62
     0
 92
       -2
340
0
 93
        0
 40
0.045
309
GRIDFORMAT_END
 95
        8
302
GRIDFORMAT
  1
GRIDFORMAT_BEGIN
 90
        0
 91
        1
 62
     0
 92
       -2
340
0
 93
        0
 40
0.045
309
GRIDFORMAT_END
 95
       16
302
GRIDFORMAT
  1
GRIDFORMAT_BEGIN
 90
        0
 91
        1
 62
     0
 92
       -2
340
0
 93
        0
 40
0.045
309
GRIDFORMAT_END
 95
       32
302
GRIDFORMAT
  1
GRIDFORMAT_BEGIN
 90
        0
 91
        1
 62
     0
 92
       -2
340
0
 93
        0
 40
0.045
309
GRIDFORMAT_END
309
TABLEFORMAT_END
  1
CELLSTYLE_BEGIN
 90
        3
 91
        2
300
_DATA
309
CELLSTYLE_END
  0
XRECORD
  5
1556
102
{ACAD_REACTORS
330
58
102
}
330
58
100
AcDbXrecord
280
     1
102
ACAD_ROUNDTRIP_PRE2007_TABLESTYLE
 90
      512
 91
        0
  1

 92
      512
 93
        0
  2

 94
      512
 95
        0
  3

  0
XRECORD
  5
1555
102
{ACAD_REACTORS
330
1554
102
}
330
1554
100
AcDbXrecord
280
     1
102
RTVSPost2010Prop28
280
     1
102
RTVSPost2010PropOp28
 70
     1
102
RTVSPost2010Prop29
280
     1
102
RTVSPost2010PropOp29
 70
     1
102
RTVSPost2010Prop30
280
     0
102
RTVSPost2010PropOp30
 70
     1
102
RTVSPost2010Prop31
280
     0
102
RTVSPost2010PropOp31
 70
     1
102
RTVSPost2010Prop32
280
     0
102
RTVSPost2010PropOp32
 70
     1
102
RTVSPost2010Prop33
280
     0
102
RTVSPost2010PropOp33
 70
     1
102
RTVSPost2010Prop34
280
     0
102
RTVSPost2010PropOp34
 70
     1
102
RTVSPost2010Prop35
280
     0
102
RTVSPost2010PropOp35
 70
     1
102
RTVSPost2010Prop36
280
     0
102
RTVSPost2010PropOp36
 70
     1
102
RTVSPost2010Prop37
 90
       50
102
RTVSPost2010PropOp37
 70
     1
102
RTVSPost2010Prop38
140
0.0
102
RTVSPost2010PropOp38
 70
     1
102
RTVSPost2010Prop39
140
1.0
102
RTVSPost2010PropOp39
 70
     1
102
RTVSPost2010Prop40
 90
        0
102
RTVSPost2010PropOp40
 70
     1
102
RTVSPost2010Prop41ColorIndex
 90
       18
102
RTVSPost2010Prop41ColorRGB
 90
-16777216
102
RTVSPost2010PropOp41
 70
     1
102
RTVSPost2010Prop42
 90
       50
102
RTVSPost2010PropOp42
 70
     1
102
RTVSPost2010Prop43
 90
        3
102
RTVSPost2010PropOp43
 70
     1
102
RTVSPost2010Prop44ColorIndex
 90
        5
102
RTVSPost2010Prop44ColorRGB
 90
      255
102
RTVSPost2010PropOp44
 70
     1
102
RTVSPost2010Prop45
280
     0
102
RTVSPost2010PropOp45
 70
     1
102
RTVSPost2010Prop46
 90
       50
102
RTVSPost2010PropOp46
 70
     1
102
RTVSPost2010Prop47
 90
       50
102
RTVSPost2010PropOp47
 70
     1
102
RTVSPost2010Prop48
 90
       50
102
RTVSPost2010PropOp48
 70
     1
102
RTVSPost2010Prop49
280
     0
102
RTVSPost2010PropOp49
 70
     1
102
RTVSPost2010Prop50
 90
       50
102
RTVSPost2010PropOp50
 70
     1
102
RTVSPost2010Prop51ColorIndex
 90
      256
102
RTVSPost2010Prop51ColorRGB
 90
-16777216
102
RTVSPost2010PropOp51
 70
     0
102
RTVSPost2010Prop52
140
1.0
102
RTVSPost2010PropOp52
 70
     0
102
RTVSPost2010Prop53
 90
        2
102
RTVSPost2010PropOp53
 70
     1
102
RTVSPost2010Prop54
  1
strokes_ogs.tif
102
RTVSPost2010PropOp54
 70
     1
102
RTVSPost2010Prop55
280
     0
102
RTVSPost2010PropOp55
 70
     1
102
RTVSPost2010Prop56
140
1.0
102
RTVSPost2010PropOp56
 70
     1
102
RTVSPost2010Prop57
140
1.0
102
RTVSPost2010PropOp57
 70
     1
102
RTVSPropertyOp0
 70
     1
102
RTVSPropertyOp1
 70
     1
102
RTVSPropertyOp2
 70
     1
102
RTVSPropertyOp3
 70
     1
102
RTVSPropertyOp4
 70
     1
102
RTVSPropertyOp5
 70
     1
102
RTVSPropertyOp6
 70
     1
102
RTVSPropertyOp7
 70
     1
102
RTVSPropertyOp8
 70
     1
102
RTVSPropertyOp9
 70
     1
102
RTVSPropertyOp10
 70
     1
102
RTVSPropertyOp11
 70
     1
102
RTVSPropertyOp12
 70
     1
102
RTVSPropertyOp13
 70
     1
102
RTVSPropertyOp14
 70
     1
102
RTVSPropertyOp15
 70
     1
102
RTVSPropertyOp16
 70
     1
102
RTVSPropertyOp17
 70
     1
102
RTVSPropertyOp18
 70
     1
102
RTVSPropertyOp19
 70
     1
102
RTVSPropertyOp20
 70
     1
102
RTVSPropertyOp21
 70
     1
102
RTVSPropertyOp22
 70
     1
102
RTVSPropertyOp23
 70
     1
102
RTVSPropertyOp24
 70
     1
102
RTVSPropertyOp25
 70
     1
102
RTVSPropertyOp26
 70
     1
102
RTVSPropertyOp27
 70
     1
102
RTVSPropertyOp28
 70
     1
102
RTVSPropertyOp29
 70
     1
102
RTVSPropertyOp30
 70
     1
102
RTVSPropertyOp31
 70
     1
102
RTVSPropertyOp32
 70
     1
102
RTVSPropertyOp33
 70
     1
102
RTVSPropertyOp34
 70
     1
102
RTVSPropertyOp35
 70
     1
102
RTVSPropertyOp36
 70
     1
102
RTVSPropertyOp37
 70
     1
102
RTVSPropertyOp38
 70
     1
102
RTVSPropertyOp39
 70
     1
102
RTVSPropertyOp40
 70
     1
102
RTVSPropertyOp41
 70
     1
102
RTVSPropertyOp42
 70
     1
102
RTVSPropertyOp43
 70
     1
102
RTVSPropertyOp44
 70
     1
102
RTVSPropertyOp45
 70
     1
102
RTVSPropertyOp46
 70
     1
102
RTVSPropertyOp47
 70
     1
102
RTVSPropertyOp48
 70
     1
102
RTVSPropertyOp49
 70
     1
102
RTVSPropertyOp50
 70
     1
102
RTVSPropertyOp51
 70
     0
102
RTVSPropertyOp52
 70
     0
102
RTVSPropertyOp53
 70
     1
102
RTVSPropertyOp54
 70
     1
102
RTVSPropertyOp55
 70
     1
102
RTVSPropertyOp56
 70
     1
102
RTVSPropertyOp57
 70
     1
102
RTVSPropertyOp58
 70
     1
102
RTVSPropertyOp59
 70
     1
102
RTVSPropertyOp60
 70
     1
102
RTVSPropertyOp61
 70
     1
102
RTVSPropertyOp62
 70
     1
  0
XRECORD
  5
1564
102
{ACAD_REACTORS
330
1563
102
}
330
1563
100
AcDbXrecord
280
     1
102
RTVSPost2010Prop28
280
     0
102
RTVSPost2010PropOp28
 70
     1
102
RTVSPost2010Prop29
280
     1
102
RTVSPost2010PropOp29
 70
     1
102
RTVSPost2010Prop30
280
     1
102
RTVSPost2010PropOp30
 70
     1
102
RTVSPost2010Prop31
280
     0
102
RTVSPost2010PropOp31
 70
     1
102
RTVSPost2010Prop32
280
     0
102
RTVSPost2010PropOp32
 70
     1
102
RTVSPost2010Prop33
280
     0
102
RTVSPost2010PropOp33
 70
     1
102
RTVSPost2010Prop34
280
     0
102
RTVSPost2010PropOp34
 70
     1
102
RTVSPost2010Prop35
280
     0
102
RTVSPost2010PropOp35
 70
     1
102
RTVSPost2010Prop36
280
     0
102
RTVSPost2010PropOp36
 70
     1
102
RTVSPost2010Prop37
 90
       50
102
RTVSPost2010PropOp37
 70
     1
102
RTVSPost2010Prop38
140
0.0
102
RTVSPost2010PropOp38
 70
     1
102
RTVSPost2010Prop39
140
1.0
102
RTVSPost2010PropOp39
 70
     1
102
RTVSPost2010Prop40
 90
        0
102
RTVSPost2010PropOp40
 70
     1
102
RTVSPost2010Prop41ColorIndex
 90
       18
102
RTVSPost2010Prop41ColorRGB
 90
-16777216
102
RTVSPost2010PropOp41
 70
     1
102
RTVSPost2010Prop42
 90
       50
102
RTVSPost2010PropOp42
 70
     1
102
RTVSPost2010Prop43
 90
        3
102
RTVSPost2010PropOp43
 70
     1
102
RTVSPost2010Prop44ColorIndex
 90
        5
102
RTVSPost2010Prop44ColorRGB
 90
      255
102
RTVSPost2010PropOp44
 70
     1
102
RTVSPost2010Prop45
280
     0
102
RTVSPost2010PropOp45
 70
     1
102
RTVSPost2010Prop46
 90
       50
102
RTVSPost2010PropOp46
 70
     1
102
RTVSPost2010Prop47
 90
       50
102
RTVSPost2010PropOp47
 70
     1
102
RTVSPost2010Prop48
 90
       50
102
RTVSPost2010PropOp48
 70
     1
102
RTVSPost2010Prop49
280
     0
102
RTVSPost2010PropOp49
 70
     1
102
RTVSPost2010Prop50
 90
       50
102
RTVSPost2010PropOp50
 70
     1
102
RTVSPost2010Prop51ColorIndex
 90
      256
102
RTVSPost2010Prop51ColorRGB
 90
-16777216
102
RTVSPost2010PropOp51
 70
     0
102
RTVSPost2010Prop52
140
1.0
102
RTVSPost2010PropOp52
 70
     0
102
RTVSPost2010Prop53
 90
        2
102
RTVSPost2010PropOp53
 70
     1
102
RTVSPost2010Prop54
  1
strokes_ogs.tif
102
RTVSPost2010PropOp54
 70
     1
102
RTVSPost2010Prop55
280
     0
102
RTVSPost2010PropOp55
 70
     1
102
RTVSPost2010Prop56
140
1.0
102
RTVSPost2010PropOp56
 70
     1
102
RTVSPost2010Prop57
140
1.0
102
RTVSPost2010PropOp57
 70
     1
102
RTVSPropertyOp0
 70
     1
102
RTVSPropertyOp1
 70
     1
102
RTVSPropertyOp2
 70
     1
102
RTVSPropertyOp3
 70
     1
102
RTVSPropertyOp4
 70
     1
102
RTVSPropertyOp5
 70
     1
102
RTVSPropertyOp6
 70
     1
102
RTVSPropertyOp7
 70
     1
102
RTVSPropertyOp8
 70
     1
102
RTVSPropertyOp9
 70
     1
102
RTVSPropertyOp10
 70
     1
102
RTVSPropertyOp11
 70
     1
102
RTVSPropertyOp12
 70
     1
102
RTVSPropertyOp13
 70
     1
102
RTVSPropertyOp14
 70
     1
102
RTVSPropertyOp15
 70
     1
102
RTVSPropertyOp16
 70
     1
102
RTVSPropertyOp17
 70
     1
102
RTVSPropertyOp18
 70
     1
102
RTVSPropertyOp19
 70
     1
102
RTVSPropertyOp20
 70
     1
102
RTVSPropertyOp21
 70
     1
102
RTVSPropertyOp22
 70
     1
102
RTVSPropertyOp23
 70
     1
102
RTVSPropertyOp24
 70
     1
102
RTVSPropertyOp25
 70
     1
102
RTVSPropertyOp26
 70
     1
102
RTVSPropertyOp27
 70
     1
102
RTVSPropertyOp28
 70
     1
102
RTVSPropertyOp29
 70
     1
102
RTVSPropertyOp30
 70
     1
102
RTVSPropertyOp31
 70
     1
102
RTVSPropertyOp32
 70
     1
102
RTVSPropertyOp33
 70
     1
102
RTVSPropertyOp34
 70
     1
102
RTVSPropertyOp35
 70
     1
102
RTVSPropertyOp36
 70
     1
102
RTVSPropertyOp37
 70
     1
102
RTVSPropertyOp38
 70
     1
102
RTVSPropertyOp39
 70
     1
102
RTVSPropertyOp40
 70
     1
102
RTVSPropertyOp41
 70
     1
102
RTVSPropertyOp42
 70
     1
102
RTVSPropertyOp43
 70
     1
102
RTVSPropertyOp44
 70
     1
102
RTVSPropertyOp45
 70
     1
102
RTVSPropertyOp46
 70
     1
102
RTVSPropertyOp47
 70
     1
102
RTVSPropertyOp48
 70
     1
102
RTVSPropertyOp49
 70
     1
102
RTVSPropertyOp50
 70
     1
102
RTVSPropertyOp51
 70
     0
102
RTVSPropertyOp52
 70
     0
102
RTVSPropertyOp53
 70
     1
102
RTVSPropertyOp54
 70
     1
102
RTVSPropertyOp55
 70
     1
102
RTVSPropertyOp56
 70
     1
102
RTVSPropertyOp57
 70
     1
102
RTVSPropertyOp58
 70
     1
102
RTVSPropertyOp59
 70
     1
102
RTVSPropertyOp60
 70
     1
102
RTVSPropertyOp61
 70
     1
102
RTVSPropertyOp62
 70
     1
  0
XRECORD
  5
156C
102
{ACAD_REACTORS
330
156B
102
}
330
156B
100
AcDbXrecord
280
     1
102
RTVSPost2010Prop28
280
     0
102
RTVSPost2010PropOp28
 70
     1
102
RTVSPost2010Prop29
280
     1
102
RTVSPost2010PropOp29
 70
     1
102
RTVSPost2010Prop30
280
     1
102
RTVSPost2010PropOp30
 70
     1
102
RTVSPost2010Prop31
280
     0
102
RTVSPost2010PropOp31
 70
     1
102
RTVSPost2010Prop32
280
     0
102
RTVSPost2010PropOp32
 70
     1
102
RTVSPost2010Prop33
280
     0
102
RTVSPost2010PropOp33
 70
     1
102
RTVSPost2010Prop34
280
     0
102
RTVSPost2010PropOp34
 70
     1
102
RTVSPost2010Prop35
280
     0
102
RTVSPost2010PropOp35
 70
     1
102
RTVSPost2010Prop36
280
     0
102
RTVSPost2010PropOp36
 70
     1
102
RTVSPost2010Prop37
 90
       50
102
RTVSPost2010PropOp37
 70
     1
102
RTVSPost2010Prop38
140
0.0
102
RTVSPost2010PropOp38
 70
     1
102
RTVSPost2010Prop39
140
1.0
102
RTVSPost2010PropOp39
 70
     1
102
RTVSPost2010Prop40
 90
        0
102
RTVSPost2010PropOp40
 70
     1
102
RTVSPost2010Prop41ColorIndex
 90
       18
102
RTVSPost2010Prop41ColorRGB
 90
-16777216
102
RTVSPost2010PropOp41
 70
     1
102
RTVSPost2010Prop42
 90
       50
102
RTVSPost2010PropOp42
 70
     1
102
RTVSPost2010Prop43
 90
        3
102
RTVSPost2010PropOp43
 70
     1
102
RTVSPost2010Prop44ColorIndex
 90
        5
102
RTVSPost2010Prop44ColorRGB
 90
      255
102
RTVSPost2010PropOp44
 70
     1
102
RTVSPost2010Prop45
280
     0
102
RTVSPost2010PropOp45
 70
     1
102
RTVSPost2010Prop46
 90
       50
102
RTVSPost2010PropOp46
 70
     1
102
RTVSPost2010Prop47
 90
       50
102
RTVSPost2010PropOp47
 70
     1
102
RTVSPost2010Prop48
 90
       50
102
RTVSPost2010PropOp48
 70
     1
102
RTVSPost2010Prop49
280
     0
102
RTVSPost2010PropOp49
 70
     1
102
RTVSPost2010Prop50
 90
       50
102
RTVSPost2010PropOp50
 70
     1
102
RTVSPost2010Prop51ColorIndex
 90
      256
102
RTVSPost2010Prop51ColorRGB
 90
-16777216
102
RTVSPost2010PropOp51
 70
     0
102
RTVSPost2010Prop52
140
1.0
102
RTVSPost2010PropOp52
 70
     0
102
RTVSPost2010Prop53
 90
        2
102
RTVSPost2010PropOp53
 70
     1
102
RTVSPost2010Prop54
  1
strokes_ogs.tif
102
RTVSPost2010PropOp54
 70
     1
102
RTVSPost2010Prop55
280
     0
102
RTVSPost2010PropOp55
 70
     1
102
RTVSPost2010Prop56
140
1.0
102
RTVSPost2010PropOp56
 70
     1
102
RTVSPost2010Prop57
140
1.0
102
RTVSPost2010PropOp57
 70
     1
102
RTVSPropertyOp0
 70
     1
102
RTVSPropertyOp1
 70
     1
102
RTVSPropertyOp2
 70
     1
102
RTVSPropertyOp3
 70
     1
102
RTVSPropertyOp4
 70
     1
102
RTVSPropertyOp5
 70
     1
102
RTVSPropertyOp6
 70
     1
102
RTVSPropertyOp7
 70
     1
102
RTVSPropertyOp8
 70
     1
102
RTVSPropertyOp9
 70
     1
102
RTVSPropertyOp10
 70
     1
102
RTVSPropertyOp11
 70
     1
102
RTVSPropertyOp12
 70
     1
102
RTVSPropertyOp13
 70
     1
102
RTVSPropertyOp14
 70
     1
102
RTVSPropertyOp15
 70
     1
102
RTVSPropertyOp16
 70
     1
102
RTVSPropertyOp17
 70
     1
102
RTVSPropertyOp18
 70
     1
102
RTVSPropertyOp19
 70
     1
102
RTVSPropertyOp20
 70
     1
102
RTVSPropertyOp21
 70
     1
102
RTVSPropertyOp22
 70
     1
102
RTVSPropertyOp23
 70
     1
102
RTVSPropertyOp24
 70
     1
102
RTVSPropertyOp25
 70
     1
102
RTVSPropertyOp26
 70
     1
102
RTVSPropertyOp27
 70
     1
102
RTVSPropertyOp28
 70
     1
102
RTVSPropertyOp29
 70
     1
102
RTVSPropertyOp30
 70
     1
102
RTVSPropertyOp31
 70
     1
102
RTVSPropertyOp32
 70
     1
102
RTVSPropertyOp33
 70
     1
102
RTVSPropertyOp34
 70
     1
102
RTVSPropertyOp35
 70
     1
102
RTVSPropertyOp36
 70
     1
102
RTVSPropertyOp37
 70
     1
102
RTVSPropertyOp38
 70
     1
102
RTVSPropertyOp39
 70
     1
102
RTVSPropertyOp40
 70
     1
102
RTVSPropertyOp41
 70
     1
102
RTVSPropertyOp42
 70
     1
102
RTVSPropertyOp43
 70
     1
102
RTVSPropertyOp44
 70
     1
102
RTVSPropertyOp45
 70
     1
102
RTVSPropertyOp46
 70
     1
102
RTVSPropertyOp47
 70
     1
102
RTVSPropertyOp48
 70
     1
102
RTVSPropertyOp49
 70
     1
102
RTVSPropertyOp50
 70
     1
102
RTVSPropertyOp51
 70
     0
102
RTVSPropertyOp52
 70
     0
102
RTVSPropertyOp53
 70
     1
102
RTVSPropertyOp54
 70
     1
102
RTVSPropertyOp55
 70
     1
102
RTVSPropertyOp56
 70
     1
102
RTVSPropertyOp57
 70
     1
102
RTVSPropertyOp58
 70
     1
102
RTVSPropertyOp59
 70
     1
102
RTVSPropertyOp60
 70
     1
102
RTVSPropertyOp61
 70
     1
102
RTVSPropertyOp62
 70
     1
  0
XRECORD
  5
1574
102
{ACAD_REACTORS
330
1573
102
}
330
1573
100
AcDbXrecord
280
     1
102
RTVSPost2010Prop28
280
     0
102
RTVSPost2010PropOp28
 70
     1
102
RTVSPost2010Prop29
280
     1
102
RTVSPost2010PropOp29
 70
     1
102
RTVSPost2010Prop30
280
     1
102
RTVSPost2010PropOp30
 70
     1
102
RTVSPost2010Prop31
280
     0
102
RTVSPost2010PropOp31
 70
     1
102
RTVSPost2010Prop32
280
     0
102
RTVSPost2010PropOp32
 70
     1
102
RTVSPost2010Prop33
280
     0
102
RTVSPost2010PropOp33
 70
     1
102
RTVSPost2010Prop34
280
     0
102
RTVSPost2010PropOp34
 70
     1
102
RTVSPost2010Prop35
280
     0
102
RTVSPost2010PropOp35
 70
     1
102
RTVSPost2010Prop36
280
     0
102
RTVSPost2010PropOp36
 70
     1
102
RTVSPost2010Prop37
 90
       50
102
RTVSPost2010PropOp37
 70
     1
102
RTVSPost2010Prop38
140
0.0
102
RTVSPost2010PropOp38
 70
     1
102
RTVSPost2010Prop39
140
1.0
102
RTVSPost2010PropOp39
 70
     1
102
RTVSPost2010Prop40
 90
        0
102
RTVSPost2010PropOp40
 70
     1
102
RTVSPost2010Prop41ColorIndex
 90
       18
102
RTVSPost2010Prop41ColorRGB
 90
-16777216
102
RTVSPost2010PropOp41
 70
     1
102
RTVSPost2010Prop42
 90
       50
102
RTVSPost2010PropOp42
 70
     1
102
RTVSPost2010Prop43
 90
        3
102
RTVSPost2010PropOp43
 70
     1
102
RTVSPost2010Prop44ColorIndex
 90
        5
102
RTVSPost2010Prop44ColorRGB
 90
      255
102
RTVSPost2010PropOp44
 70
     1
102
RTVSPost2010Prop45
280
     0
102
RTVSPost2010PropOp45
 70
     1
102
RTVSPost2010Prop46
 90
       50
102
RTVSPost2010PropOp46
 70
     1
102
RTVSPost2010Prop47
 90
       50
102
RTVSPost2010PropOp47
 70
     1
102
RTVSPost2010Prop48
 90
       50
102
RTVSPost2010PropOp48
 70
     1
102
RTVSPost2010Prop49
280
     0
102
RTVSPost2010PropOp49
 70
     1
102
RTVSPost2010Prop50
 90
       50
102
RTVSPost2010PropOp50
 70
     1
102
RTVSPost2010Prop51ColorIndex
 90
      256
102
RTVSPost2010Prop51ColorRGB
 90
-16777216
102
RTVSPost2010PropOp51
 70
     0
102
RTVSPost2010Prop52
140
1.0
102
RTVSPost2010PropOp52
 70
     0
102
RTVSPost2010Prop53
 90
        2
102
RTVSPost2010PropOp53
 70
     1
102
RTVSPost2010Prop54
  1
strokes_ogs.tif
102
RTVSPost2010PropOp54
 70
     1
102
RTVSPost2010Prop55
280
     0
102
RTVSPost2010PropOp55
 70
     1
102
RTVSPost2010Prop56
140
1.0
102
RTVSPost2010PropOp56
 70
     1
102
RTVSPost2010Prop57
140
1.0
102
RTVSPost2010PropOp57
 70
     1
102
RTVSPropertyOp0
 70
     1
102
RTVSPropertyOp1
 70
     1
102
RTVSPropertyOp2
 70
     1
102
RTVSPropertyOp3
 70
     1
102
RTVSPropertyOp4
 70
     1
102
RTVSPropertyOp5
 70
     1
102
RTVSPropertyOp6
 70
     1
102
RTVSPropertyOp7
 70
     1
102
RTVSPropertyOp8
 70
     1
102
RTVSPropertyOp9
 70
     1
102
RTVSPropertyOp10
 70
     1
102
RTVSPropertyOp11
 70
     1
102
RTVSPropertyOp12
 70
     1
102
RTVSPropertyOp13
 70
     1
102
RTVSPropertyOp14
 70
     1
102
RTVSPropertyOp15
 70
     1
102
RTVSPropertyOp16
 70
     1
102
RTVSPropertyOp17
 70
     1
102
RTVSPropertyOp18
 70
     1
102
RTVSPropertyOp19
 70
     1
102
RTVSPropertyOp20
 70
     1
102
RTVSPropertyOp21
 70
     1
102
RTVSPropertyOp22
 70
     1
102
RTVSPropertyOp23
 70
     1
102
RTVSPropertyOp24
 70
     1
102
RTVSPropertyOp25
 70
     1
102
RTVSPropertyOp26
 70
     1
102
RTVSPropertyOp27
 70
     1
102
RTVSPropertyOp28
 70
     1
102
RTVSPropertyOp29
 70
     1
102
RTVSPropertyOp30
 70
     1
102
RTVSPropertyOp31
 70
     1
102
RTVSPropertyOp32
 70
     1
102
RTVSPropertyOp33
 70
     1
102
RTVSPropertyOp34
 70
     1
102
RTVSPropertyOp35
 70
     1
102
RTVSPropertyOp36
 70
     1
102
RTVSPropertyOp37
 70
     1
102
RTVSPropertyOp38
 70
     1
102
RTVSPropertyOp39
 70
     1
102
RTVSPropertyOp40
 70
     1
102
RTVSPropertyOp41
 70
     1
102
RTVSPropertyOp42
 70
     1
102
RTVSPropertyOp43
 70
     1
102
RTVSPropertyOp44
 70
     1
102
RTVSPropertyOp45
 70
     1
102
RTVSPropertyOp46
 70
     1
102
RTVSPropertyOp47
 70
     1
102
RTVSPropertyOp48
 70
     1
102
RTVSPropertyOp49
 70
     1
102
RTVSPropertyOp50
 70
     1
102
RTVSPropertyOp51
 70
     0
102
RTVSPropertyOp52
 70
     0
102
RTVSPropertyOp53
 70
     1
102
RTVSPropertyOp54
 70
     1
102
RTVSPropertyOp55
 70
     1
102
RTVSPropertyOp56
 70
     1
102
RTVSPropertyOp57
 70
     1
102
RTVSPropertyOp58
 70
     1
102
RTVSPropertyOp59
 70
     1
102
RTVSPropertyOp60
 70
     1
102
RTVSPropertyOp61
 70
     1
102
RTVSPropertyOp62
 70
     1
  0
XRECORD
  5
1568
102
{ACAD_REACTORS
330
1567
102
}
330
1567
100
AcDbXrecord
280
     1
102
RTVSPost2010Prop28
280
     0
102
RTVSPost2010PropOp28
 70
     1
102
RTVSPost2010Prop29
280
     1
102
RTVSPost2010PropOp29
 70
     1
102
RTVSPost2010Prop30
280
     1
102
RTVSPost2010PropOp30
 70
     1
102
RTVSPost2010Prop31
280
     0
102
RTVSPost2010PropOp31
 70
     1
102
RTVSPost2010Prop32
280
     0
102
RTVSPost2010PropOp32
 70
     1
102
RTVSPost2010Prop33
280
     0
102
RTVSPost2010PropOp33
 70
     1
102
RTVSPost2010Prop34
280
     0
102
RTVSPost2010PropOp34
 70
     1
102
RTVSPost2010Prop35
280
     0
102
RTVSPost2010PropOp35
 70
     1
102
RTVSPost2010Prop36
280
     0
102
RTVSPost2010PropOp36
 70
     1
102
RTVSPost2010Prop37
 90
       50
102
RTVSPost2010PropOp37
 70
     1
102
RTVSPost2010Prop38
140
0.0
102
RTVSPost2010PropOp38
 70
     1
102
RTVSPost2010Prop39
140
1.0
102
RTVSPost2010PropOp39
 70
     1
102
RTVSPost2010Prop40
 90
        0
102
RTVSPost2010PropOp40
 70
     1
102
RTVSPost2010Prop41ColorIndex
 90
       18
102
RTVSPost2010Prop41ColorRGB
 90
-16777216
102
RTVSPost2010PropOp41
 70
     1
102
RTVSPost2010Prop42
 90
       50
102
RTVSPost2010PropOp42
 70
     1
102
RTVSPost2010Prop43
 90
        3
102
RTVSPost2010PropOp43
 70
     1
102
RTVSPost2010Prop44ColorIndex
 90
        5
102
RTVSPost2010Prop44ColorRGB
 90
      255
102
RTVSPost2010PropOp44
 70
     1
102
RTVSPost2010Prop45
280
     0
102
RTVSPost2010PropOp45
 70
     1
102
RTVSPost2010Prop46
 90
       50
102
RTVSPost2010PropOp46
 70
     1
102
RTVSPost2010Prop47
 90
       50
102
RTVSPost2010PropOp47
 70
     1
102
RTVSPost2010Prop48
 90
       50
102
RTVSPost2010PropOp48
 70
     1
102
RTVSPost2010Prop49
280
     0
102
RTVSPost2010PropOp49
 70
     1
102
RTVSPost2010Prop50
 90
       50
102
RTVSPost2010PropOp50
 70
     1
102
RTVSPost2010Prop51ColorIndex
 90
      256
102
RTVSPost2010Prop51ColorRGB
 90
-16777216
102
RTVSPost2010PropOp51
 70
     0
102
RTVSPost2010Prop52
140
1.0
102
RTVSPost2010PropOp52
 70
     0
102
RTVSPost2010Prop53
 90
        2
102
RTVSPost2010PropOp53
 70
     1
102
RTVSPost2010Prop54
  1
strokes_ogs.tif
102
RTVSPost2010PropOp54
 70
     1
102
RTVSPost2010Prop55
280
     0
102
RTVSPost2010PropOp55
 70
     1
102
RTVSPost2010Prop56
140
1.0
102
RTVSPost2010PropOp56
 70
     1
102
RTVSPost2010Prop57
140
1.0
102
RTVSPost2010PropOp57
 70
     1
102
RTVSPropertyOp0
 70
     1
102
RTVSPropertyOp1
 70
     1
102
RTVSPropertyOp2
 70
     1
102
RTVSPropertyOp3
 70
     1
102
RTVSPropertyOp4
 70
     1
102
RTVSPropertyOp5
 70
     1
102
RTVSPropertyOp6
 70
     1
102
RTVSPropertyOp7
 70
     1
102
RTVSPropertyOp8
 70
     1
102
RTVSPropertyOp9
 70
     1
102
RTVSPropertyOp10
 70
     1
102
RTVSPropertyOp11
 70
     1
102
RTVSPropertyOp12
 70
     1
102
RTVSPropertyOp13
 70
     1
102
RTVSPropertyOp14
 70
     1
102
RTVSPropertyOp15
 70
     1
102
RTVSPropertyOp16
 70
     1
102
RTVSPropertyOp17
 70
     1
102
RTVSPropertyOp18
 70
     1
102
RTVSPropertyOp19
 70
     1
102
RTVSPropertyOp20
 70
     1
102
RTVSPropertyOp21
 70
     1
102
RTVSPropertyOp22
 70
     1
102
RTVSPropertyOp23
 70
     1
102
RTVSPropertyOp24
 70
     1
102
RTVSPropertyOp25
 70
     1
102
RTVSPropertyOp26
 70
     1
102
RTVSPropertyOp27
 70
     1
102
RTVSPropertyOp28
 70
     1
102
RTVSPropertyOp29
 70
     1
102
RTVSPropertyOp30
 70
     1
102
RTVSPropertyOp31
 70
     1
102
RTVSPropertyOp32
 70
     1
102
RTVSPropertyOp33
 70
     1
102
RTVSPropertyOp34
 70
     1
102
RTVSPropertyOp35
 70
     1
102
RTVSPropertyOp36
 70
     1
102
RTVSPropertyOp37
 70
     1
102
RTVSPropertyOp38
 70
     1
102
RTVSPropertyOp39
 70
     1
102
RTVSPropertyOp40
 70
     1
102
RTVSPropertyOp41
 70
     1
102
RTVSPropertyOp42
 70
     1
102
RTVSPropertyOp43
 70
     1
102
RTVSPropertyOp44
 70
     1
102
RTVSPropertyOp45
 70
     1
102
RTVSPropertyOp46
 70
     1
102
RTVSPropertyOp47
 70
     1
102
RTVSPropertyOp48
 70
     1
102
RTVSPropertyOp49
 70
     1
102
RTVSPropertyOp50
 70
     1
102
RTVSPropertyOp51
 70
     0
102
RTVSPropertyOp52
 70
     0
102
RTVSPropertyOp53
 70
     1
102
RTVSPropertyOp54
 70
     1
102
RTVSPropertyOp55
 70
     1
102
RTVSPropertyOp56
 70
     1
102
RTVSPropertyOp57
 70
     1
102
RTVSPropertyOp58
 70
     1
102
RTVSPropertyOp59
 70
     1
102
RTVSPropertyOp60
 70
     1
102
RTVSPropertyOp61
 70
     1
102
RTVSPropertyOp62
 70
     1
  0
XRECORD
  5
156A
102
{ACAD_REACTORS
330
1569
102
}
330
1569
100
AcDbXrecord
280
     1
102
RTVSPost2010Prop28
280
     0
102
RTVSPost2010PropOp28
 70
     1
102
RTVSPost2010Prop29
280
     1
102
RTVSPost2010PropOp29
 70
     1
102
RTVSPost2010Prop30
280
     1
102
RTVSPost2010PropOp30
 70
     1
102
RTVSPost2010Prop31
280
     0
102
RTVSPost2010PropOp31
 70
     1
102
RTVSPost2010Prop32
280
     0
102
RTVSPost2010PropOp32
 70
     1
102
RTVSPost2010Prop33
280
     0
102
RTVSPost2010PropOp33
 70
     1
102
RTVSPost2010Prop34
280
     0
102
RTVSPost2010PropOp34
 70
     1
102
RTVSPost2010Prop35
280
     0
102
RTVSPost2010PropOp35
 70
     1
102
RTVSPost2010Prop36
280
     0
102
RTVSPost2010PropOp36
 70
     1
102
RTVSPost2010Prop37
 90
       50
102
RTVSPost2010PropOp37
 70
     1
102
RTVSPost2010Prop38
140
0.0
102
RTVSPost2010PropOp38
 70
     1
102
RTVSPost2010Prop39
140
1.0
102
RTVSPost2010PropOp39
 70
     1
102
RTVSPost2010Prop40
 90
        0
102
RTVSPost2010PropOp40
 70
     1
102
RTVSPost2010Prop41ColorIndex
 90
       18
102
RTVSPost2010Prop41ColorRGB
 90
-16777216
102
RTVSPost2010PropOp41
 70
     1
102
RTVSPost2010Prop42
 90
       50
102
RTVSPost2010PropOp42
 70
     1
102
RTVSPost2010Prop43
 90
        3
102
RTVSPost2010PropOp43
 70
     1
102
RTVSPost2010Prop44ColorIndex
 90
        5
102
RTVSPost2010Prop44ColorRGB
 90
      255
102
RTVSPost2010PropOp44
 70
     1
102
RTVSPost2010Prop45
280
     0
102
RTVSPost2010PropOp45
 70
     1
102
RTVSPost2010Prop46
 90
       50
102
RTVSPost2010PropOp46
 70
     1
102
RTVSPost2010Prop47
 90
       50
102
RTVSPost2010PropOp47
 70
     1
102
RTVSPost2010Prop48
 90
       50
102
RTVSPost2010PropOp48
 70
     1
102
RTVSPost2010Prop49
280
     0
102
RTVSPost2010PropOp49
 70
     1
102
RTVSPost2010Prop50
 90
       50
102
RTVSPost2010PropOp50
 70
     1
102
RTVSPost2010Prop51ColorIndex
 90
      256
102
RTVSPost2010Prop51ColorRGB
 90
-16777216
102
RTVSPost2010PropOp51
 70
     0
102
RTVSPost2010Prop52
140
1.0
102
RTVSPost2010PropOp52
 70
     0
102
RTVSPost2010Prop53
 90
        2
102
RTVSPost2010PropOp53
 70
     1
102
RTVSPost2010Prop54
  1
strokes_ogs.tif
102
RTVSPost2010PropOp54
 70
     1
102
RTVSPost2010Prop55
280
     0
102
RTVSPost2010PropOp55
 70
     1
102
RTVSPost2010Prop56
140
1.0
102
RTVSPost2010PropOp56
 70
     1
102
RTVSPost2010Prop57
140
1.0
102
RTVSPost2010PropOp57
 70
     1
102
RTVSPropertyOp0
 70
     1
102
RTVSPropertyOp1
 70
     1
102
RTVSPropertyOp2
 70
     1
102
RTVSPropertyOp3
 70
     1
102
RTVSPropertyOp4
 70
     1
102
RTVSPropertyOp5
 70
     1
102
RTVSPropertyOp6
 70
     1
102
RTVSPropertyOp7
 70
     1
102
RTVSPropertyOp8
 70
     1
102
RTVSPropertyOp9
 70
     1
102
RTVSPropertyOp10
 70
     1
102
RTVSPropertyOp11
 70
     1
102
RTVSPropertyOp12
 70
     1
102
RTVSPropertyOp13
 70
     1
102
RTVSPropertyOp14
 70
     1
102
RTVSPropertyOp15
 70
     1
102
RTVSPropertyOp16
 70
     1
102
RTVSPropertyOp17
 70
     1
102
RTVSPropertyOp18
 70
     1
102
RTVSPropertyOp19
 70
     1
102
RTVSPropertyOp20
 70
     1
102
RTVSPropertyOp21
 70
     1
102
RTVSPropertyOp22
 70
     1
102
RTVSPropertyOp23
 70
     1
102
RTVSPropertyOp24
 70
     1
102
RTVSPropertyOp25
 70
     1
102
RTVSPropertyOp26
 70
     1
102
RTVSPropertyOp27
 70
     1
102
RTVSPropertyOp28
 70
     1
102
RTVSPropertyOp29
 70
     1
102
RTVSPropertyOp30
 70
     1
102
RTVSPropertyOp31
 70
     1
102
RTVSPropertyOp32
 70
     1
102
RTVSPropertyOp33
 70
     1
102
RTVSPropertyOp34
 70
     1
102
RTVSPropertyOp35
 70
     1
102
RTVSPropertyOp36
 70
     1
102
RTVSPropertyOp37
 70
     1
102
RTVSPropertyOp38
 70
     1
102
RTVSPropertyOp39
 70
     1
102
RTVSPropertyOp40
 70
     1
102
RTVSPropertyOp41
 70
     1
102
RTVSPropertyOp42
 70
     1
102
RTVSPropertyOp43
 70
     1
102
RTVSPropertyOp44
 70
     1
102
RTVSPropertyOp45
 70
     1
102
RTVSPropertyOp46
 70
     1
102
RTVSPropertyOp47
 70
     1
102
RTVSPropertyOp48
 70
     1
102
RTVSPropertyOp49
 70
     1
102
RTVSPropertyOp50
 70
     1
102
RTVSPropertyOp51
 70
     0
102
RTVSPropertyOp52
 70
     0
102
RTVSPropertyOp53
 70
     1
102
RTVSPropertyOp54
 70
     1
102
RTVSPropertyOp55
 70
     1
102
RTVSPropertyOp56
 70
     1
102
RTVSPropertyOp57
 70
     1
102
RTVSPropertyOp58
 70
     1
102
RTVSPropertyOp59
 70
     1
102
RTVSPropertyOp60
 70
     1
102
RTVSPropertyOp61
 70
     1
102
RTVSPropertyOp62
 70
     1
  0
XRECORD
  5
1584
102
{ACAD_REACTORS
330
1583
102
}
330
1583
100
AcDbXrecord
280
     1
102
RTVSPost2010Prop28
280
     0
102
RTVSPost2010PropOp28
 70
     1
102
RTVSPost2010Prop29
280
     1
102
RTVSPost2010PropOp29
 70
     1
102
RTVSPost2010Prop30
280
     1
102
RTVSPost2010PropOp30
 70
     1
102
RTVSPost2010Prop31
280
     0
102
RTVSPost2010PropOp31
 70
     1
102
RTVSPost2010Prop32
280
     0
102
RTVSPost2010PropOp32
 70
     1
102
RTVSPost2010Prop33
280
     0
102
RTVSPost2010PropOp33
 70
     1
102
RTVSPost2010Prop34
280
     0
102
RTVSPost2010PropOp34
 70
     1
102
RTVSPost2010Prop35
280
     0
102
RTVSPost2010PropOp35
 70
     1
102
RTVSPost2010Prop36
280
     0
102
RTVSPost2010PropOp36
 70
     1
102
RTVSPost2010Prop37
 90
       50
102
RTVSPost2010PropOp37
 70
     0
102
RTVSPost2010Prop38
140
0.0
102
RTVSPost2010PropOp38
 70
     0
102
RTVSPost2010Prop39
140
1.0
102
RTVSPost2010PropOp39
 70
     0
102
RTVSPost2010Prop40
 90
        0
102
RTVSPost2010PropOp40
 70
     0
102
RTVSPost2010Prop41ColorIndex
 90
       18
102
RTVSPost2010Prop41ColorRGB
 90
-16777216
102
RTVSPost2010PropOp41
 70
     0
102
RTVSPost2010Prop42
 90
       50
102
RTVSPost2010PropOp42
 70
     0
102
RTVSPost2010Prop43
 90
        3
102
RTVSPost2010PropOp43
 70
     0
102
RTVSPost2010Prop44ColorIndex
 90
        5
102
RTVSPost2010Prop44ColorRGB
 90
      255
102
RTVSPost2010PropOp44
 70
     0
102
RTVSPost2010Prop45
280
     0
102
RTVSPost2010PropOp45
 70
     1
102
RTVSPost2010Prop46
 90
       50
102
RTVSPost2010PropOp46
 70
     0
102
RTVSPost2010Prop47
 90
       50
102
RTVSPost2010PropOp47
 70
     0
102
RTVSPost2010Prop48
 90
       50
102
RTVSPost2010PropOp48
 70
     0
102
RTVSPost2010Prop49
280
     0
102
RTVSPost2010PropOp49
 70
     1
102
RTVSPost2010Prop50
 90
       50
102
RTVSPost2010PropOp50
 70
     0
102
RTVSPost2010Prop51ColorIndex
 90
      256
102
RTVSPost2010Prop51ColorRGB
 90
-16777216
102
RTVSPost2010PropOp51
 70
     0
102
RTVSPost2010Prop52
140
1.0
102
RTVSPost2010PropOp52
 70
     0
102
RTVSPost2010Prop53
 90
        2
102
RTVSPost2010PropOp53
 70
     0
102
RTVSPost2010Prop54
  1
strokes_ogs.tif
102
RTVSPost2010PropOp54
 70
     0
102
RTVSPost2010Prop55
280
     0
102
RTVSPost2010PropOp55
 70
     1
102
RTVSPost2010Prop56
140
1.0
102
RTVSPost2010PropOp56
 70
     0
102
RTVSPost2010Prop57
140
1.0
102
RTVSPost2010PropOp57
 70
     0
102
RTVSPropertyOp0
 70
     0
102
RTVSPropertyOp1
 70
     0
102
RTVSPropertyOp2
 70
     0
102
RTVSPropertyOp3
 70
     0
102
RTVSPropertyOp4
 70
     0
102
RTVSPropertyOp5
 70
     0
102
RTVSPropertyOp6
 70
     0
102
RTVSPropertyOp7
 70
     0
102
RTVSPropertyOp8
 70
     0
102
RTVSPropertyOp9
 70
     0
102
RTVSPropertyOp10
 70
     0
102
RTVSPropertyOp11
 70
     0
102
RTVSPropertyOp12
 70
     0
102
RTVSPropertyOp13
 70
     0
102
RTVSPropertyOp14
 70
     2
102
RTVSPropertyOp15
 70
     0
102
RTVSPropertyOp16
 70
     0
102
RTVSPropertyOp17
 70
     0
102
RTVSPropertyOp18
 70
     0
102
RTVSPropertyOp19
 70
     0
102
RTVSPropertyOp20
 70
     0
102
RTVSPropertyOp21
 70
     0
102
RTVSPropertyOp22
 70
     0
102
RTVSPropertyOp23
 70
     0
102
RTVSPropertyOp24
 70
     0
102
RTVSPropertyOp25
 70
     0
102
RTVSPropertyOp26
 70
     0
102
RTVSPropertyOp27
 70
     0
102
RTVSPropertyOp28
 70
     1
102
RTVSPropertyOp29
 70
     1
102
RTVSPropertyOp30
 70
     1
102
RTVSPropertyOp31
 70
     1
102
RTVSPropertyOp32
 70
     1
102
RTVSPropertyOp33
 70
     1
102
RTVSPropertyOp34
 70
     1
102
RTVSPropertyOp35
 70
     1
102
RTVSPropertyOp36
 70
     1
102
RTVSPropertyOp37
 70
     0
102
RTVSPropertyOp38
 70
     0
102
RTVSPropertyOp39
 70
     0
102
RTVSPropertyOp40
 70
     0
102
RTVSPropertyOp41
 70
     0
102
RTVSPropertyOp42
 70
     0
102
RTVSPropertyOp43
 70
     0
102
RTVSPropertyOp44
 70
     0
102
RTVSPropertyOp45
 70
     1
102
RTVSPropertyOp46
 70
     0
102
RTVSPropertyOp47
 70
     0
102
RTVSPropertyOp48
 70
     0
102
RTVSPropertyOp49
 70
     1
102
RTVSPropertyOp50
 70
     0
102
RTVSPropertyOp51
 70
     0
102
RTVSPropertyOp52
 70
     0
102
RTVSPropertyOp53
 70
     0
102
RTVSPropertyOp54
 70
     0
102
RTVSPropertyOp55
 70
     1
102
RTVSPropertyOp56
 70
     0
102
RTVSPropertyOp57
 70
     0
102
RTVSPropertyOp58
 70
     1
102
RTVSPropertyOp59
 70
     1
102
RTVSPropertyOp60
 70
     1
102
RTVSPropertyOp61
 70
     1
102
RTVSPropertyOp62
 70
     1
  0
XRECORD
  5
1572
102
{ACAD_REACTORS
330
1571
102
}
330
1571
100
AcDbXrecord
280
     1
102
RTVSPost2010Prop28
280
     0
102
RTVSPost2010PropOp28
 70
     1
102
RTVSPost2010Prop29
280
     1
102
RTVSPost2010PropOp29
 70
     1
102
RTVSPost2010Prop30
280
     1
102
RTVSPost2010PropOp30
 70
     1
102
RTVSPost2010Prop31
280
     0
102
RTVSPost2010PropOp31
 70
     1
102
RTVSPost2010Prop32
280
     0
102
RTVSPost2010PropOp32
 70
     1
102
RTVSPost2010Prop33
280
     0
102
RTVSPost2010PropOp33
 70
     1
102
RTVSPost2010Prop34
280
     0
102
RTVSPost2010PropOp34
 70
     1
102
RTVSPost2010Prop35
280
     0
102
RTVSPost2010PropOp35
 70
     1
102
RTVSPost2010Prop36
280
     0
102
RTVSPost2010PropOp36
 70
     1
102
RTVSPost2010Prop37
 90
       50
102
RTVSPost2010PropOp37
 70
     1
102
RTVSPost2010Prop38
140
0.0
102
RTVSPost2010PropOp38
 70
     1
102
RTVSPost2010Prop39
140
1.0
102
RTVSPost2010PropOp39
 70
     1
102
RTVSPost2010Prop40
 90
        0
102
RTVSPost2010PropOp40
 70
     1
102
RTVSPost2010Prop41ColorIndex
 90
       18
102
RTVSPost2010Prop41ColorRGB
 90
-16777216
102
RTVSPost2010PropOp41
 70
     1
102
RTVSPost2010Prop42
 90
       50
102
RTVSPost2010PropOp42
 70
     1
102
RTVSPost2010Prop43
 90
        3
102
RTVSPost2010PropOp43
 70
     1
102
RTVSPost2010Prop44ColorIndex
 90
        5
102
RTVSPost2010Prop44ColorRGB
 90
      255
102
RTVSPost2010PropOp44
 70
     1
102
RTVSPost2010Prop45
280
     0
102
RTVSPost2010PropOp45
 70
     1
102
RTVSPost2010Prop46
 90
       50
102
RTVSPost2010PropOp46
 70
     1
102
RTVSPost2010Prop47
 90
       50
102
RTVSPost2010PropOp47
 70
     1
102
RTVSPost2010Prop48
 90
       50
102
RTVSPost2010PropOp48
 70
     1
102
RTVSPost2010Prop49
280
     0
102
RTVSPost2010PropOp49
 70
     1
102
RTVSPost2010Prop50
 90
       50
102
RTVSPost2010PropOp50
 70
     1
102
RTVSPost2010Prop51ColorIndex
 90
      256
102
RTVSPost2010Prop51ColorRGB
 90
-16777216
102
RTVSPost2010PropOp51
 70
     0
102
RTVSPost2010Prop52
140
1.0
102
RTVSPost2010PropOp52
 70
     0
102
RTVSPost2010Prop53
 90
        2
102
RTVSPost2010PropOp53
 70
     1
102
RTVSPost2010Prop54
  1
strokes_ogs.tif
102
RTVSPost2010PropOp54
 70
     1
102
RTVSPost2010Prop55
280
     0
102
RTVSPost2010PropOp55
 70
     1
102
RTVSPost2010Prop56
140
1.0
102
RTVSPost2010PropOp56
 70
     1
102
RTVSPost2010Prop57
140
1.0
102
RTVSPost2010PropOp57
 70
     1
102
RTVSPropertyOp0
 70
     1
102
RTVSPropertyOp1
 70
     1
102
RTVSPropertyOp2
 70
     1
102
RTVSPropertyOp3
 70
     1
102
RTVSPropertyOp4
 70
     1
102
RTVSPropertyOp5
 70
     1
102
RTVSPropertyOp6
 70
     1
102
RTVSPropertyOp7
 70
     1
102
RTVSPropertyOp8
 70
     1
102
RTVSPropertyOp9
 70
     1
102
RTVSPropertyOp10
 70
     1
102
RTVSPropertyOp11
 70
     1
102
RTVSPropertyOp12
 70
     1
102
RTVSPropertyOp13
 70
     1
102
RTVSPropertyOp14
 70
     1
102
RTVSPropertyOp15
 70
     1
102
RTVSPropertyOp16
 70
     1
102
RTVSPropertyOp17
 70
     1
102
RTVSPropertyOp18
 70
     1
102
RTVSPropertyOp19
 70
     1
102
RTVSPropertyOp20
 70
     1
102
RTVSPropertyOp21
 70
     1
102
RTVSPropertyOp22
 70
     1
102
RTVSPropertyOp23
 70
     1
102
RTVSPropertyOp24
 70
     1
102
RTVSPropertyOp25
 70
     1
102
RTVSPropertyOp26
 70
     1
102
RTVSPropertyOp27
 70
     1
102
RTVSPropertyOp28
 70
     1
102
RTVSPropertyOp29
 70
     1
102
RTVSPropertyOp30
 70
     1
102
RTVSPropertyOp31
 70
     1
102
RTVSPropertyOp32
 70
     1
102
RTVSPropertyOp33
 70
     1
102
RTVSPropertyOp34
 70
     1
102
RTVSPropertyOp35
 70
     1
102
RTVSPropertyOp36
 70
     1
102
RTVSPropertyOp37
 70
     1
102
RTVSPropertyOp38
 70
     1
102
RTVSPropertyOp39
 70
     1
102
RTVSPropertyOp40
 70
     1
102
RTVSPropertyOp41
 70
     1
102
RTVSPropertyOp42
 70
     1
102
RTVSPropertyOp43
 70
     1
102
RTVSPropertyOp44
 70
     1
102
RTVSPropertyOp45
 70
     1
102
RTVSPropertyOp46
 70
     1
102
RTVSPropertyOp47
 70
     1
102
RTVSPropertyOp48
 70
     1
102
RTVSPropertyOp49
 70
     1
102
RTVSPropertyOp50
 70
     1
102
RTVSPropertyOp51
 70
     0
102
RTVSPropertyOp52
 70
     0
102
RTVSPropertyOp53
 70
     1
102
RTVSPropertyOp54
 70
     1
102
RTVSPropertyOp55
 70
     1
102
RTVSPropertyOp56
 70
     1
102
RTVSPropertyOp57
 70
     1
102
RTVSPropertyOp58
 70
     1
102
RTVSPropertyOp59
 70
     1
102
RTVSPropertyOp60
 70
     1
102
RTVSPropertyOp61
 70
     1
102
RTVSPropertyOp62
 70
     1
  0
XRECORD
  5
155C
102
{ACAD_REACTORS
330
155B
102
}
330
155B
100
AcDbXrecord
280
     1
102
RTVSPost2010Prop28
280
     0
102
RTVSPost2010PropOp28
 70
     1
102
RTVSPost2010Prop29
280
     1
102
RTVSPost2010PropOp29
 70
     1
102
RTVSPost2010Prop30
280
     1
102
RTVSPost2010PropOp30
 70
     1
102
RTVSPost2010Prop31
280
     0
102
RTVSPost2010PropOp31
 70
     1
102
RTVSPost2010Prop32
280
     0
102
RTVSPost2010PropOp32
 70
     1
102
RTVSPost2010Prop33
280
     0
102
RTVSPost2010PropOp33
 70
     1
102
RTVSPost2010Prop34
280
     0
102
RTVSPost2010PropOp34
 70
     1
102
RTVSPost2010Prop35
280
     0
102
RTVSPost2010PropOp35
 70
     1
102
RTVSPost2010Prop36
280
     0
102
RTVSPost2010PropOp36
 70
     1
102
RTVSPost2010Prop37
 90
       50
102
RTVSPost2010PropOp37
 70
     1
102
RTVSPost2010Prop38
140
0.0
102
RTVSPost2010PropOp38
 70
     1
102
RTVSPost2010Prop39
140
1.0
102
RTVSPost2010PropOp39
 70
     1
102
RTVSPost2010Prop40
 90
        0
102
RTVSPost2010PropOp40
 70
     1
102
RTVSPost2010Prop41ColorIndex
 90
       18
102
RTVSPost2010Prop41ColorRGB
 90
-16777216
102
RTVSPost2010PropOp41
 70
     1
102
RTVSPost2010Prop42
 90
       50
102
RTVSPost2010PropOp42
 70
     1
102
RTVSPost2010Prop43
 90
        3
102
RTVSPost2010PropOp43
 70
     1
102
RTVSPost2010Prop44ColorIndex
 90
        5
102
RTVSPost2010Prop44ColorRGB
 90
      255
102
RTVSPost2010PropOp44
 70
     1
102
RTVSPost2010Prop45
280
     0
102
RTVSPost2010PropOp45
 70
     1
102
RTVSPost2010Prop46
 90
       50
102
RTVSPost2010PropOp46
 70
     1
102
RTVSPost2010Prop47
 90
       50
102
RTVSPost2010PropOp47
 70
     1
102
RTVSPost2010Prop48
 90
       50
102
RTVSPost2010PropOp48
 70
     1
102
RTVSPost2010Prop49
280
     0
102
RTVSPost2010PropOp49
 70
     1
102
RTVSPost2010Prop50
 90
       50
102
RTVSPost2010PropOp50
 70
     1
102
RTVSPost2010Prop51ColorIndex
 90
      256
102
RTVSPost2010Prop51ColorRGB
 90
-16777216
102
RTVSPost2010PropOp51
 70
     0
102
RTVSPost2010Prop52
140
1.0
102
RTVSPost2010PropOp52
 70
     0
102
RTVSPost2010Prop53
 90
        2
102
RTVSPost2010PropOp53
 70
     1
102
RTVSPost2010Prop54
  1
strokes_ogs.tif
102
RTVSPost2010PropOp54
 70
     1
102
RTVSPost2010Prop55
280
     0
102
RTVSPost2010PropOp55
 70
     1
102
RTVSPost2010Prop56
140
1.0
102
RTVSPost2010PropOp56
 70
     1
102
RTVSPost2010Prop57
140
1.0
102
RTVSPost2010PropOp57
 70
     1
102
RTVSPropertyOp0
 70
     1
102
RTVSPropertyOp1
 70
     1
102
RTVSPropertyOp2
 70
     1
102
RTVSPropertyOp3
 70
     1
102
RTVSPropertyOp4
 70
     1
102
RTVSPropertyOp5
 70
     1
102
RTVSPropertyOp6
 70
     1
102
RTVSPropertyOp7
 70
     1
102
RTVSPropertyOp8
 70
     1
102
RTVSPropertyOp9
 70
     1
102
RTVSPropertyOp10
 70
     1
102
RTVSPropertyOp11
 70
     1
102
RTVSPropertyOp12
 70
     1
102
RTVSPropertyOp13
 70
     1
102
RTVSPropertyOp14
 70
     1
102
RTVSPropertyOp15
 70
     1
102
RTVSPropertyOp16
 70
     1
102
RTVSPropertyOp17
 70
     1
102
RTVSPropertyOp18
 70
     1
102
RTVSPropertyOp19
 70
     1
102
RTVSPropertyOp20
 70
     1
102
RTVSPropertyOp21
 70
     1
102
RTVSPropertyOp22
 70
     1
102
RTVSPropertyOp23
 70
     1
102
RTVSPropertyOp24
 70
     1
102
RTVSPropertyOp25
 70
     1
102
RTVSPropertyOp26
 70
     1
102
RTVSPropertyOp27
 70
     1
102
RTVSPropertyOp28
 70
     1
102
RTVSPropertyOp29
 70
     1
102
RTVSPropertyOp30
 70
     1
102
RTVSPropertyOp31
 70
     1
102
RTVSPropertyOp32
 70
     1
102
RTVSPropertyOp33
 70
     1
102
RTVSPropertyOp34
 70
     1
102
RTVSPropertyOp35
 70
     1
102
RTVSPropertyOp36
 70
     1
102
RTVSPropertyOp37
 70
     1
102
RTVSPropertyOp38
 70
     1
102
RTVSPropertyOp39
 70
     1
102
RTVSPropertyOp40
 70
     1
102
RTVSPropertyOp41
 70
     1
102
RTVSPropertyOp42
 70
     1
102
RTVSPropertyOp43
 70
     1
102
RTVSPropertyOp44
 70
     1
102
RTVSPropertyOp45
 70
     1
102
RTVSPropertyOp46
 70
     1
102
RTVSPropertyOp47
 70
     1
102
RTVSPropertyOp48
 70
     1
102
RTVSPropertyOp49
 70
     1
102
RTVSPropertyOp50
 70
     1
102
RTVSPropertyOp51
 70
     0
102
RTVSPropertyOp52
 70
     0
102
RTVSPropertyOp53
 70
     1
102
RTVSPropertyOp54
 70
     1
102
RTVSPropertyOp55
 70
     1
102
RTVSPropertyOp56
 70
     1
102
RTVSPropertyOp57
 70
     1
102
RTVSPropertyOp58
 70
     1
102
RTVSPropertyOp59
 70
     1
102
RTVSPropertyOp60
 70
     1
102
RTVSPropertyOp61
 70
     1
102
RTVSPropertyOp62
 70
     1
  0
XRECORD
  5
155E
102
{ACAD_REACTORS
330
155D
102
}
330
155D
100
AcDbXrecord
280
     1
102
RTVSPost2010Prop28
280
     0
102
RTVSPost2010PropOp28
 70
     1
102
RTVSPost2010Prop29
280
     1
102
RTVSPost2010PropOp29
 70
     1
102
RTVSPost2010Prop30
280
     1
102
RTVSPost2010PropOp30
 70
     1
102
RTVSPost2010Prop31
280
     0
102
RTVSPost2010PropOp31
 70
     1
102
RTVSPost2010Prop32
280
     0
102
RTVSPost2010PropOp32
 70
     1
102
RTVSPost2010Prop33
280
     0
102
RTVSPost2010PropOp33
 70
     1
102
RTVSPost2010Prop34
280
     0
102
RTVSPost2010PropOp34
 70
     1
102
RTVSPost2010Prop35
280
     0
102
RTVSPost2010PropOp35
 70
     1
102
RTVSPost2010Prop36
280
     0
102
RTVSPost2010PropOp36
 70
     1
102
RTVSPost2010Prop37
 90
       50
102
RTVSPost2010PropOp37
 70
     1
102
RTVSPost2010Prop38
140
0.0
102
RTVSPost2010PropOp38
 70
     1
102
RTVSPost2010Prop39
140
1.0
102
RTVSPost2010PropOp39
 70
     1
102
RTVSPost2010Prop40
 90
        0
102
RTVSPost2010PropOp40
 70
     1
102
RTVSPost2010Prop41ColorIndex
 90
       18
102
RTVSPost2010Prop41ColorRGB
 90
-16777216
102
RTVSPost2010PropOp41
 70
     1
102
RTVSPost2010Prop42
 90
       50
102
RTVSPost2010PropOp42
 70
     1
102
RTVSPost2010Prop43
 90
        3
102
RTVSPost2010PropOp43
 70
     1
102
RTVSPost2010Prop44ColorIndex
 90
        5
102
RTVSPost2010Prop44ColorRGB
 90
      255
102
RTVSPost2010PropOp44
 70
     1
102
RTVSPost2010Prop45
280
     0
102
RTVSPost2010PropOp45
 70
     1
102
RTVSPost2010Prop46
 90
       50
102
RTVSPost2010PropOp46
 70
     1
102
RTVSPost2010Prop47
 90
       50
102
RTVSPost2010PropOp47
 70
     1
102
RTVSPost2010Prop48
 90
       50
102
RTVSPost2010PropOp48
 70
     1
102
RTVSPost2010Prop49
280
     0
102
RTVSPost2010PropOp49
 70
     1
102
RTVSPost2010Prop50
 90
       50
102
RTVSPost2010PropOp50
 70
     1
102
RTVSPost2010Prop51ColorIndex
 90
      256
102
RTVSPost2010Prop51ColorRGB
 90
-16777216
102
RTVSPost2010PropOp51
 70
     0
102
RTVSPost2010Prop52
140
1.0
102
RTVSPost2010PropOp52
 70
     0
102
RTVSPost2010Prop53
 90
        2
102
RTVSPost2010PropOp53
 70
     1
102
RTVSPost2010Prop54
  1
strokes_ogs.tif
102
RTVSPost2010PropOp54
 70
     1
102
RTVSPost2010Prop55
280
     0
102
RTVSPost2010PropOp55
 70
     1
102
RTVSPost2010Prop56
140
1.0
102
RTVSPost2010PropOp56
 70
     1
102
RTVSPost2010Prop57
140
1.0
102
RTVSPost2010PropOp57
 70
     1
102
RTVSPropertyOp0
 70
     1
102
RTVSPropertyOp1
 70
     1
102
RTVSPropertyOp2
 70
     1
102
RTVSPropertyOp3
 70
     1
102
RTVSPropertyOp4
 70
     1
102
RTVSPropertyOp5
 70
     1
102
RTVSPropertyOp6
 70
     1
102
RTVSPropertyOp7
 70
     1
102
RTVSPropertyOp8
 70
     1
102
RTVSPropertyOp9
 70
     1
102
RTVSPropertyOp10
 70
     1
102
RTVSPropertyOp11
 70
     1
102
RTVSPropertyOp12
 70
     1
102
RTVSPropertyOp13
 70
     1
102
RTVSPropertyOp14
 70
     1
102
RTVSPropertyOp15
 70
     1
102
RTVSPropertyOp16
 70
     1
102
RTVSPropertyOp17
 70
     1
102
RTVSPropertyOp18
 70
     1
102
RTVSPropertyOp19
 70
     1
102
RTVSPropertyOp20
 70
     1
102
RTVSPropertyOp21
 70
     1
102
RTVSPropertyOp22
 70
     1
102
RTVSPropertyOp23
 70
     1
102
RTVSPropertyOp24
 70
     1
102
RTVSPropertyOp25
 70
     1
102
RTVSPropertyOp26
 70
     1
102
RTVSPropertyOp27
 70
     1
102
RTVSPropertyOp28
 70
     1
102
RTVSPropertyOp29
 70
     1
102
RTVSPropertyOp30
 70
     1
102
RTVSPropertyOp31
 70
     1
102
RTVSPropertyOp32
 70
     1
102
RTVSPropertyOp33
 70
     1
102
RTVSPropertyOp34
 70
     1
102
RTVSPropertyOp35
 70
     1
102
RTVSPropertyOp36
 70
     1
102
RTVSPropertyOp37
 70
     1
102
RTVSPropertyOp38
 70
     1
102
RTVSPropertyOp39
 70
     1
102
RTVSPropertyOp40
 70
     1
102
RTVSPropertyOp41
 70
     1
102
RTVSPropertyOp42
 70
     1
102
RTVSPropertyOp43
 70
     1
102
RTVSPropertyOp44
 70
     1
102
RTVSPropertyOp45
 70
     1
102
RTVSPropertyOp46
 70
     1
102
RTVSPropertyOp47
 70
     1
102
RTVSPropertyOp48
 70
     1
102
RTVSPropertyOp49
 70
     1
102
RTVSPropertyOp50
 70
     1
102
RTVSPropertyOp51
 70
     0
102
RTVSPropertyOp52
 70
     0
102
RTVSPropertyOp53
 70
     1
102
RTVSPropertyOp54
 70
     1
102
RTVSPropertyOp55
 70
     1
102
RTVSPropertyOp56
 70
     1
102
RTVSPropertyOp57
 70
     1
102
RTVSPropertyOp58
 70
     1
102
RTVSPropertyOp59
 70
     1
102
RTVSPropertyOp60
 70
     1
102
RTVSPropertyOp61
 70
     1
102
RTVSPropertyOp62
 70
     1
  0
XRECORD
  5
1560
102
{ACAD_REACTORS
330
155F
102
}
330
155F
100
AcDbXrecord
280
     1
102
RTVSPost2010Prop28
280
     0
102
RTVSPost2010PropOp28
 70
     1
102
RTVSPost2010Prop29
280
     1
102
RTVSPost2010PropOp29
 70
     1
102
RTVSPost2010Prop30
280
     1
102
RTVSPost2010PropOp30
 70
     1
102
RTVSPost2010Prop31
280
     0
102
RTVSPost2010PropOp31
 70
     1
102
RTVSPost2010Prop32
280
     0
102
RTVSPost2010PropOp32
 70
     1
102
RTVSPost2010Prop33
280
     0
102
RTVSPost2010PropOp33
 70
     1
102
RTVSPost2010Prop34
280
     0
102
RTVSPost2010PropOp34
 70
     1
102
RTVSPost2010Prop35
280
     0
102
RTVSPost2010PropOp35
 70
     1
102
RTVSPost2010Prop36
280
     0
102
RTVSPost2010PropOp36
 70
     1
102
RTVSPost2010Prop37
 90
       50
102
RTVSPost2010PropOp37
 70
     1
102
RTVSPost2010Prop38
140
0.0
102
RTVSPost2010PropOp38
 70
     1
102
RTVSPost2010Prop39
140
1.0
102
RTVSPost2010PropOp39
 70
     1
102
RTVSPost2010Prop40
 90
        0
102
RTVSPost2010PropOp40
 70
     1
102
RTVSPost2010Prop41ColorIndex
 90
       18
102
RTVSPost2010Prop41ColorRGB
 90
-16777216
102
RTVSPost2010PropOp41
 70
     1
102
RTVSPost2010Prop42
 90
       50
102
RTVSPost2010PropOp42
 70
     1
102
RTVSPost2010Prop43
 90
        3
102
RTVSPost2010PropOp43
 70
     1
102
RTVSPost2010Prop44ColorIndex
 90
        5
102
RTVSPost2010Prop44ColorRGB
 90
      255
102
RTVSPost2010PropOp44
 70
     1
102
RTVSPost2010Prop45
280
     0
102
RTVSPost2010PropOp45
 70
     1
102
RTVSPost2010Prop46
 90
       50
102
RTVSPost2010PropOp46
 70
     1
102
RTVSPost2010Prop47
 90
       50
102
RTVSPost2010PropOp47
 70
     1
102
RTVSPost2010Prop48
 90
       50
102
RTVSPost2010PropOp48
 70
     1
102
RTVSPost2010Prop49
280
     0
102
RTVSPost2010PropOp49
 70
     1
102
RTVSPost2010Prop50
 90
       50
102
RTVSPost2010PropOp50
 70
     1
102
RTVSPost2010Prop51ColorIndex
 90
      256
102
RTVSPost2010Prop51ColorRGB
 90
-16777216
102
RTVSPost2010PropOp51
 70
     0
102
RTVSPost2010Prop52
140
1.0
102
RTVSPost2010PropOp52
 70
     0
102
RTVSPost2010Prop53
 90
        2
102
RTVSPost2010PropOp53
 70
     1
102
RTVSPost2010Prop54
  1
strokes_ogs.tif
102
RTVSPost2010PropOp54
 70
     1
102
RTVSPost2010Prop55
280
     0
102
RTVSPost2010PropOp55
 70
     1
102
RTVSPost2010Prop56
140
1.0
102
RTVSPost2010PropOp56
 70
     1
102
RTVSPost2010Prop57
140
1.0
102
RTVSPost2010PropOp57
 70
     1
102
RTVSPropertyOp0
 70
     1
102
RTVSPropertyOp1
 70
     1
102
RTVSPropertyOp2
 70
     1
102
RTVSPropertyOp3
 70
     1
102
RTVSPropertyOp4
 70
     1
102
RTVSPropertyOp5
 70
     1
102
RTVSPropertyOp6
 70
     1
102
RTVSPropertyOp7
 70
     1
102
RTVSPropertyOp8
 70
     1
102
RTVSPropertyOp9
 70
     1
102
RTVSPropertyOp10
 70
     1
102
RTVSPropertyOp11
 70
     1
102
RTVSPropertyOp12
 70
     1
102
RTVSPropertyOp13
 70
     1
102
RTVSPropertyOp14
 70
     1
102
RTVSPropertyOp15
 70
     1
102
RTVSPropertyOp16
 70
     1
102
RTVSPropertyOp17
 70
     1
102
RTVSPropertyOp18
 70
     1
102
RTVSPropertyOp19
 70
     1
102
RTVSPropertyOp20
 70
     1
102
RTVSPropertyOp21
 70
     1
102
RTVSPropertyOp22
 70
     1
102
RTVSPropertyOp23
 70
     1
102
RTVSPropertyOp24
 70
     1
102
RTVSPropertyOp25
 70
     1
102
RTVSPropertyOp26
 70
     1
102
RTVSPropertyOp27
 70
     1
102
RTVSPropertyOp28
 70
     1
102
RTVSPropertyOp29
 70
     1
102
RTVSPropertyOp30
 70
     1
102
RTVSPropertyOp31
 70
     1
102
RTVSPropertyOp32
 70
     1
102
RTVSPropertyOp33
 70
     1
102
RTVSPropertyOp34
 70
     1
102
RTVSPropertyOp35
 70
     1
102
RTVSPropertyOp36
 70
     1
102
RTVSPropertyOp37
 70
     1
102
RTVSPropertyOp38
 70
     1
102
RTVSPropertyOp39
 70
     1
102
RTVSPropertyOp40
 70
     1
102
RTVSPropertyOp41
 70
     1
102
RTVSPropertyOp42
 70
     1
102
RTVSPropertyOp43
 70
     1
102
RTVSPropertyOp44
 70
     1
102
RTVSPropertyOp45
 70
     1
102
RTVSPropertyOp46
 70
     1
102
RTVSPropertyOp47
 70
     1
102
RTVSPropertyOp48
 70
     1
102
RTVSPropertyOp49
 70
     1
102
RTVSPropertyOp50
 70
     1
102
RTVSPropertyOp51
 70
     0
102
RTVSPropertyOp52
 70
     0
102
RTVSPropertyOp53
 70
     1
102
RTVSPropertyOp54
 70
     1
102
RTVSPropertyOp55
 70
     1
102
RTVSPropertyOp56
 70
     1
102
RTVSPropertyOp57
 70
     1
102
RTVSPropertyOp58
 70
     1
102
RTVSPropertyOp59
 70
     1
102
RTVSPropertyOp60
 70
     1
102
RTVSPropertyOp61
 70
     1
102
RTVSPropertyOp62
 70
     1
  0
XRECORD
  5
1562
102
{ACAD_REACTORS
330
1561
102
}
330
1561
100
AcDbXrecord
280
     1
102
RTVSPost2010Prop28
280
     0
102
RTVSPost2010PropOp28
 70
     1
102
RTVSPost2010Prop29
280
     1
102
RTVSPost2010PropOp29
 70
     1
102
RTVSPost2010Prop30
280
     1
102
RTVSPost2010PropOp30
 70
     1
102
RTVSPost2010Prop31
280
     0
102
RTVSPost2010PropOp31
 70
     1
102
RTVSPost2010Prop32
280
     0
102
RTVSPost2010PropOp32
 70
     1
102
RTVSPost2010Prop33
280
     0
102
RTVSPost2010PropOp33
 70
     1
102
RTVSPost2010Prop34
280
     0
102
RTVSPost2010PropOp34
 70
     1
102
RTVSPost2010Prop35
280
     0
102
RTVSPost2010PropOp35
 70
     1
102
RTVSPost2010Prop36
280
     0
102
RTVSPost2010PropOp36
 70
     1
102
RTVSPost2010Prop37
 90
       50
102
RTVSPost2010PropOp37
 70
     1
102
RTVSPost2010Prop38
140
0.0
102
RTVSPost2010PropOp38
 70
     1
102
RTVSPost2010Prop39
140
1.0
102
RTVSPost2010PropOp39
 70
     1
102
RTVSPost2010Prop40
 90
        0
102
RTVSPost2010PropOp40
 70
     1
102
RTVSPost2010Prop41ColorIndex
 90
       18
102
RTVSPost2010Prop41ColorRGB
 90
-16777216
102
RTVSPost2010PropOp41
 70
     1
102
RTVSPost2010Prop42
 90
       50
102
RTVSPost2010PropOp42
 70
     1
102
RTVSPost2010Prop43
 90
        3
102
RTVSPost2010PropOp43
 70
     1
102
RTVSPost2010Prop44ColorIndex
 90
        5
102
RTVSPost2010Prop44ColorRGB
 90
      255
102
RTVSPost2010PropOp44
 70
     1
102
RTVSPost2010Prop45
280
     0
102
RTVSPost2010PropOp45
 70
     1
102
RTVSPost2010Prop46
 90
       50
102
RTVSPost2010PropOp46
 70
     1
102
RTVSPost2010Prop47
 90
       50
102
RTVSPost2010PropOp47
 70
     1
102
RTVSPost2010Prop48
 90
       50
102
RTVSPost2010PropOp48
 70
     1
102
RTVSPost2010Prop49
280
     0
102
RTVSPost2010PropOp49
 70
     1
102
RTVSPost2010Prop50
 90
       50
102
RTVSPost2010PropOp50
 70
     1
102
RTVSPost2010Prop51ColorIndex
 90
      256
102
RTVSPost2010Prop51ColorRGB
 90
-16777216
102
RTVSPost2010PropOp51
 70
     0
102
RTVSPost2010Prop52
140
1.0
102
RTVSPost2010PropOp52
 70
     0
102
RTVSPost2010Prop53
 90
        2
102
RTVSPost2010PropOp53
 70
     1
102
RTVSPost2010Prop54
  1
strokes_ogs.tif
102
RTVSPost2010PropOp54
 70
     1
102
RTVSPost2010Prop55
280
     0
102
RTVSPost2010PropOp55
 70
     1
102
RTVSPost2010Prop56
140
1.0
102
RTVSPost2010PropOp56
 70
     1
102
RTVSPost2010Prop57
140
1.0
102
RTVSPost2010PropOp57
 70
     1
102
RTVSPropertyOp0
 70
     1
102
RTVSPropertyOp1
 70
     1
102
RTVSPropertyOp2
 70
     1
102
RTVSPropertyOp3
 70
     1
102
RTVSPropertyOp4
 70
     1
102
RTVSPropertyOp5
 70
     1
102
RTVSPropertyOp6
 70
     1
102
RTVSPropertyOp7
 70
     1
102
RTVSPropertyOp8
 70
     1
102
RTVSPropertyOp9
 70
     1
102
RTVSPropertyOp10
 70
     1
102
RTVSPropertyOp11
 70
     1
102
RTVSPropertyOp12
 70
     1
102
RTVSPropertyOp13
 70
     1
102
RTVSPropertyOp14
 70
     1
102
RTVSPropertyOp15
 70
     1
102
RTVSPropertyOp16
 70
     1
102
RTVSPropertyOp17
 70
     1
102
RTVSPropertyOp18
 70
     1
102
RTVSPropertyOp19
 70
     1
102
RTVSPropertyOp20
 70
     1
102
RTVSPropertyOp21
 70
     1
102
RTVSPropertyOp22
 70
     1
102
RTVSPropertyOp23
 70
     1
102
RTVSPropertyOp24
 70
     1
102
RTVSPropertyOp25
 70
     1
102
RTVSPropertyOp26
 70
     1
102
RTVSPropertyOp27
 70
     1
102
RTVSPropertyOp28
 70
     1
102
RTVSPropertyOp29
 70
     1
102
RTVSPropertyOp30
 70
     1
102
RTVSPropertyOp31
 70
     1
102
RTVSPropertyOp32
 70
     1
102
RTVSPropertyOp33
 70
     1
102
RTVSPropertyOp34
 70
     1
102
RTVSPropertyOp35
 70
     1
102
RTVSPropertyOp36
 70
     1
102
RTVSPropertyOp37
 70
     1
102
RTVSPropertyOp38
 70
     1
102
RTVSPropertyOp39
 70
     1
102
RTVSPropertyOp40
 70
     1
102
RTVSPropertyOp41
 70
     1
102
RTVSPropertyOp42
 70
     1
102
RTVSPropertyOp43
 70
     1
102
RTVSPropertyOp44
 70
     1
102
RTVSPropertyOp45
 70
     1
102
RTVSPropertyOp46
 70
     1
102
RTVSPropertyOp47
 70
     1
102
RTVSPropertyOp48
 70
     1
102
RTVSPropertyOp49
 70
     1
102
RTVSPropertyOp50
 70
     1
102
RTVSPropertyOp51
 70
     0
102
RTVSPropertyOp52
 70
     0
102
RTVSPropertyOp53
 70
     1
102
RTVSPropertyOp54
 70
     1
102
RTVSPropertyOp55
 70
     1
102
RTVSPropertyOp56
 70
     1
102
RTVSPropertyOp57
 70
     1
102
RTVSPropertyOp58
 70
     1
102
RTVSPropertyOp59
 70
     1
102
RTVSPropertyOp60
 70
     1
102
RTVSPropertyOp61
 70
     1
102
RTVSPropertyOp62
 70
     1
  0
XRECORD
  5
1566
102
{ACAD_REACTORS
330
1565
102
}
330
1565
100
AcDbXrecord
280
     1
102
RTVSPost2010Prop28
280
     0
102
RTVSPost2010PropOp28
 70
     1
102
RTVSPost2010Prop29
280
     1
102
RTVSPost2010PropOp29
 70
     1
102
RTVSPost2010Prop30
280
     1
102
RTVSPost2010PropOp30
 70
     1
102
RTVSPost2010Prop31
280
     0
102
RTVSPost2010PropOp31
 70
     1
102
RTVSPost2010Prop32
280
     0
102
RTVSPost2010PropOp32
 70
     1
102
RTVSPost2010Prop33
280
     0
102
RTVSPost2010PropOp33
 70
     1
102
RTVSPost2010Prop34
280
     0
102
RTVSPost2010PropOp34
 70
     1
102
RTVSPost2010Prop35
280
     0
102
RTVSPost2010PropOp35
 70
     1
102
RTVSPost2010Prop36
280
     0
102
RTVSPost2010PropOp36
 70
     1
102
RTVSPost2010Prop37
 90
       50
102
RTVSPost2010PropOp37
 70
     1
102
RTVSPost2010Prop38
140
0.0
102
RTVSPost2010PropOp38
 70
     1
102
RTVSPost2010Prop39
140
1.0
102
RTVSPost2010PropOp39
 70
     1
102
RTVSPost2010Prop40
 90
        0
102
RTVSPost2010PropOp40
 70
     1
102
RTVSPost2010Prop41ColorIndex
 90
       18
102
RTVSPost2010Prop41ColorRGB
 90
-16777216
102
RTVSPost2010PropOp41
 70
     1
102
RTVSPost2010Prop42
 90
       50
102
RTVSPost2010PropOp42
 70
     1
102
RTVSPost2010Prop43
 90
        3
102
RTVSPost2010PropOp43
 70
     1
102
RTVSPost2010Prop44ColorIndex
 90
        5
102
RTVSPost2010Prop44ColorRGB
 90
      255
102
RTVSPost2010PropOp44
 70
     1
102
RTVSPost2010Prop45
280
     0
102
RTVSPost2010PropOp45
 70
     1
102
RTVSPost2010Prop46
 90
       50
102
RTVSPost2010PropOp46
 70
     1
102
RTVSPost2010Prop47
 90
       50
102
RTVSPost2010PropOp47
 70
     1
102
RTVSPost2010Prop48
 90
       50
102
RTVSPost2010PropOp48
 70
     1
102
RTVSPost2010Prop49
280
     0
102
RTVSPost2010PropOp49
 70
     1
102
RTVSPost2010Prop50
 90
       50
102
RTVSPost2010PropOp50
 70
     1
102
RTVSPost2010Prop51ColorIndex
 90
      256
102
RTVSPost2010Prop51ColorRGB
 90
-16777216
102
RTVSPost2010PropOp51
 70
     0
102
RTVSPost2010Prop52
140
1.0
102
RTVSPost2010PropOp52
 70
     0
102
RTVSPost2010Prop53
 90
        2
102
RTVSPost2010PropOp53
 70
     1
102
RTVSPost2010Prop54
  1
strokes_ogs.tif
102
RTVSPost2010PropOp54
 70
     1
102
RTVSPost2010Prop55
280
     0
102
RTVSPost2010PropOp55
 70
     1
102
RTVSPost2010Prop56
140
1.0
102
RTVSPost2010PropOp56
 70
     1
102
RTVSPost2010Prop57
140
1.0
102
RTVSPost2010PropOp57
 70
     1
102
RTVSPropertyOp0
 70
     1
102
RTVSPropertyOp1
 70
     1
102
RTVSPropertyOp2
 70
     1
102
RTVSPropertyOp3
 70
     1
102
RTVSPropertyOp4
 70
     1
102
RTVSPropertyOp5
 70
     1
102
RTVSPropertyOp6
 70
     1
102
RTVSPropertyOp7
 70
     1
102
RTVSPropertyOp8
 70
     1
102
RTVSPropertyOp9
 70
     1
102
RTVSPropertyOp10
 70
     1
102
RTVSPropertyOp11
 70
     1
102
RTVSPropertyOp12
 70
     1
102
RTVSPropertyOp13
 70
     1
102
RTVSPropertyOp14
 70
     1
102
RTVSPropertyOp15
 70
     1
102
RTVSPropertyOp16
 70
     1
102
RTVSPropertyOp17
 70
     1
102
RTVSPropertyOp18
 70
     1
102
RTVSPropertyOp19
 70
     1
102
RTVSPropertyOp20
 70
     1
102
RTVSPropertyOp21
 70
     1
102
RTVSPropertyOp22
 70
     1
102
RTVSPropertyOp23
 70
     1
102
RTVSPropertyOp24
 70
     1
102
RTVSPropertyOp25
 70
     1
102
RTVSPropertyOp26
 70
     1
102
RTVSPropertyOp27
 70
     1
102
RTVSPropertyOp28
 70
     1
102
RTVSPropertyOp29
 70
     1
102
RTVSPropertyOp30
 70
     1
102
RTVSPropertyOp31
 70
     1
102
RTVSPropertyOp32
 70
     1
102
RTVSPropertyOp33
 70
     1
102
RTVSPropertyOp34
 70
     1
102
RTVSPropertyOp35
 70
     1
102
RTVSPropertyOp36
 70
     1
102
RTVSPropertyOp37
 70
     1
102
RTVSPropertyOp38
 70
     1
102
RTVSPropertyOp39
 70
     1
102
RTVSPropertyOp40
 70
     1
102
RTVSPropertyOp41
 70
     1
102
RTVSPropertyOp42
 70
     1
102
RTVSPropertyOp43
 70
     1
102
RTVSPropertyOp44
 70
     1
102
RTVSPropertyOp45
 70
     1
102
RTVSPropertyOp46
 70
     1
102
RTVSPropertyOp47
 70
     1
102
RTVSPropertyOp48
 70
     1
102
RTVSPropertyOp49
 70
     1
102
RTVSPropertyOp50
 70
     1
102
RTVSPropertyOp51
 70
     0
102
RTVSPropertyOp52
 70
     0
102
RTVSPropertyOp53
 70
     1
102
RTVSPropertyOp54
 70
     1
102
RTVSPropertyOp55
 70
     1
102
RTVSPropertyOp56
 70
     1
102
RTVSPropertyOp57
 70
     1
102
RTVSPropertyOp58
 70
     1
102
RTVSPropertyOp59
 70
     1
102
RTVSPropertyOp60
 70
     1
102
RTVSPropertyOp61
 70
     1
102
RTVSPropertyOp62
 70
     1
  0
XRECORD
  5
1580
102
{ACAD_REACTORS
330
157F
102
}
330
157F
100
AcDbXrecord
280
     1
102
RTVSPost2010Prop28
280
     0
102
RTVSPost2010PropOp28
 70
     1
102
RTVSPost2010Prop29
280
     1
102
RTVSPost2010PropOp29
 70
     1
102
RTVSPost2010Prop30
280
     1
102
RTVSPost2010PropOp30
 70
     1
102
RTVSPost2010Prop31
280
     0
102
RTVSPost2010PropOp31
 70
     1
102
RTVSPost2010Prop32
280
     0
102
RTVSPost2010PropOp32
 70
     1
102
RTVSPost2010Prop33
280
     0
102
RTVSPost2010PropOp33
 70
     1
102
RTVSPost2010Prop34
280
     0
102
RTVSPost2010PropOp34
 70
     1
102
RTVSPost2010Prop35
280
     0
102
RTVSPost2010PropOp35
 70
     1
102
RTVSPost2010Prop36
280
     0
102
RTVSPost2010PropOp36
 70
     1
102
RTVSPost2010Prop37
 90
       50
102
RTVSPost2010PropOp37
 70
     0
102
RTVSPost2010Prop38
140
0.0
102
RTVSPost2010PropOp38
 70
     0
102
RTVSPost2010Prop39
140
1.0
102
RTVSPost2010PropOp39
 70
     0
102
RTVSPost2010Prop40
 90
        0
102
RTVSPost2010PropOp40
 70
     0
102
RTVSPost2010Prop41ColorIndex
 90
       18
102
RTVSPost2010Prop41ColorRGB
 90
-16777216
102
RTVSPost2010PropOp41
 70
     0
102
RTVSPost2010Prop42
 90
       50
102
RTVSPost2010PropOp42
 70
     0
102
RTVSPost2010Prop43
 90
        3
102
RTVSPost2010PropOp43
 70
     0
102
RTVSPost2010Prop44ColorIndex
 90
        5
102
RTVSPost2010Prop44ColorRGB
 90
      255
102
RTVSPost2010PropOp44
 70
     0
102
RTVSPost2010Prop45
280
     0
102
RTVSPost2010PropOp45
 70
     1
102
RTVSPost2010Prop46
 90
       50
102
RTVSPost2010PropOp46
 70
     0
102
RTVSPost2010Prop47
 90
       50
102
RTVSPost2010PropOp47
 70
     0
102
RTVSPost2010Prop48
 90
       50
102
RTVSPost2010PropOp48
 70
     0
102
RTVSPost2010Prop49
280
     0
102
RTVSPost2010PropOp49
 70
     1
102
RTVSPost2010Prop50
 90
       50
102
RTVSPost2010PropOp50
 70
     0
102
RTVSPost2010Prop51ColorIndex
 90
      256
102
RTVSPost2010Prop51ColorRGB
 90
-16777216
102
RTVSPost2010PropOp51
 70
     0
102
RTVSPost2010Prop52
140
1.0
102
RTVSPost2010PropOp52
 70
     0
102
RTVSPost2010Prop53
 90
        2
102
RTVSPost2010PropOp53
 70
     0
102
RTVSPost2010Prop54
  1
strokes_ogs.tif
102
RTVSPost2010PropOp54
 70
     0
102
RTVSPost2010Prop55
280
     0
102
RTVSPost2010PropOp55
 70
     1
102
RTVSPost2010Prop56
140
1.0
102
RTVSPost2010PropOp56
 70
     0
102
RTVSPost2010Prop57
140
1.0
102
RTVSPost2010PropOp57
 70
     0
102
RTVSPropertyOp0
 70
     0
102
RTVSPropertyOp1
 70
     0
102
RTVSPropertyOp2
 70
     0
102
RTVSPropertyOp3
 70
     0
102
RTVSPropertyOp4
 70
     0
102
RTVSPropertyOp5
 70
     0
102
RTVSPropertyOp6
 70
     0
102
RTVSPropertyOp7
 70
     0
102
RTVSPropertyOp8
 70
     0
102
RTVSPropertyOp9
 70
     0
102
RTVSPropertyOp10
 70
     0
102
RTVSPropertyOp11
 70
     0
102
RTVSPropertyOp12
 70
     0
102
RTVSPropertyOp13
 70
     0
102
RTVSPropertyOp14
 70
     2
102
RTVSPropertyOp15
 70
     0
102
RTVSPropertyOp16
 70
     0
102
RTVSPropertyOp17
 70
     0
102
RTVSPropertyOp18
 70
     0
102
RTVSPropertyOp19
 70
     0
102
RTVSPropertyOp20
 70
     0
102
RTVSPropertyOp21
 70
     0
102
RTVSPropertyOp22
 70
     0
102
RTVSPropertyOp23
 70
     0
102
RTVSPropertyOp24
 70
     0
102
RTVSPropertyOp25
 70
     0
102
RTVSPropertyOp26
 70
     0
102
RTVSPropertyOp27
 70
     0
102
RTVSPropertyOp28
 70
     1
102
RTVSPropertyOp29
 70
     1
102
RTVSPropertyOp30
 70
     1
102
RTVSPropertyOp31
 70
     1
102
RTVSPropertyOp32
 70
     1
102
RTVSPropertyOp33
 70
     1
102
RTVSPropertyOp34
 70
     1
102
RTVSPropertyOp35
 70
     1
102
RTVSPropertyOp36
 70
     1
102
RTVSPropertyOp37
 70
     0
102
RTVSPropertyOp38
 70
     0
102
RTVSPropertyOp39
 70
     0
102
RTVSPropertyOp40
 70
     0
102
RTVSPropertyOp41
 70
     0
102
RTVSPropertyOp42
 70
     0
102
RTVSPropertyOp43
 70
     0
102
RTVSPropertyOp44
 70
     0
102
RTVSPropertyOp45
 70
     1
102
RTVSPropertyOp46
 70
     0
102
RTVSPropertyOp47
 70
     0
102
RTVSPropertyOp48
 70
     0
102
RTVSPropertyOp49
 70
     1
102
RTVSPropertyOp50
 70
     0
102
RTVSPropertyOp51
 70
     0
102
RTVSPropertyOp52
 70
     0
102
RTVSPropertyOp53
 70
     0
102
RTVSPropertyOp54
 70
     0
102
RTVSPropertyOp55
 70
     1
102
RTVSPropertyOp56
 70
     0
102
RTVSPropertyOp57
 70
     0
102
RTVSPropertyOp58
 70
     1
102
RTVSPropertyOp59
 70
     1
102
RTVSPropertyOp60
 70
     1
102
RTVSPropertyOp61
 70
     1
102
RTVSPropertyOp62
 70
     1
  0
XRECORD
  5
1570
102
{ACAD_REACTORS
330
156F
102
}
330
156F
100
AcDbXrecord
280
     1
102
RTVSPost2010Prop28
280
     0
102
RTVSPost2010PropOp28
 70
     1
102
RTVSPost2010Prop29
280
     1
102
RTVSPost2010PropOp29
 70
     1
102
RTVSPost2010Prop30
280
     1
102
RTVSPost2010PropOp30
 70
     1
102
RTVSPost2010Prop31
280
     0
102
RTVSPost2010PropOp31
 70
     1
102
RTVSPost2010Prop32
280
     0
102
RTVSPost2010PropOp32
 70
     1
102
RTVSPost2010Prop33
280
     0
102
RTVSPost2010PropOp33
 70
     1
102
RTVSPost2010Prop34
280
     0
102
RTVSPost2010PropOp34
 70
     1
102
RTVSPost2010Prop35
280
     0
102
RTVSPost2010PropOp35
 70
     1
102
RTVSPost2010Prop36
280
     0
102
RTVSPost2010PropOp36
 70
     1
102
RTVSPost2010Prop37
 90
       50
102
RTVSPost2010PropOp37
 70
     1
102
RTVSPost2010Prop38
140
0.0
102
RTVSPost2010PropOp38
 70
     1
102
RTVSPost2010Prop39
140
1.0
102
RTVSPost2010PropOp39
 70
     1
102
RTVSPost2010Prop40
 90
        0
102
RTVSPost2010PropOp40
 70
     1
102
RTVSPost2010Prop41ColorIndex
 90
       18
102
RTVSPost2010Prop41ColorRGB
 90
-16777216
102
RTVSPost2010PropOp41
 70
     1
102
RTVSPost2010Prop42
 90
       50
102
RTVSPost2010PropOp42
 70
     1
102
RTVSPost2010Prop43
 90
        3
102
RTVSPost2010PropOp43
 70
     1
102
RTVSPost2010Prop44ColorIndex
 90
        5
102
RTVSPost2010Prop44ColorRGB
 90
      255
102
RTVSPost2010PropOp44
 70
     1
102
RTVSPost2010Prop45
280
     0
102
RTVSPost2010PropOp45
 70
     1
102
RTVSPost2010Prop46
 90
       50
102
RTVSPost2010PropOp46
 70
     1
102
RTVSPost2010Prop47
 90
       50
102
RTVSPost2010PropOp47
 70
     1
102
RTVSPost2010Prop48
 90
       50
102
RTVSPost2010PropOp48
 70
     1
102
RTVSPost2010Prop49
280
     0
102
RTVSPost2010PropOp49
 70
     1
102
RTVSPost2010Prop50
 90
       50
102
RTVSPost2010PropOp50
 70
     1
102
RTVSPost2010Prop51ColorIndex
 90
      256
102
RTVSPost2010Prop51ColorRGB
 90
-16777216
102
RTVSPost2010PropOp51
 70
     0
102
RTVSPost2010Prop52
140
1.0
102
RTVSPost2010PropOp52
 70
     0
102
RTVSPost2010Prop53
 90
        2
102
RTVSPost2010PropOp53
 70
     1
102
RTVSPost2010Prop54
  1
strokes_ogs.tif
102
RTVSPost2010PropOp54
 70
     1
102
RTVSPost2010Prop55
280
     0
102
RTVSPost2010PropOp55
 70
     1
102
RTVSPost2010Prop56
140
1.0
102
RTVSPost2010PropOp56
 70
     1
102
RTVSPost2010Prop57
140
1.0
102
RTVSPost2010PropOp57
 70
     1
102
RTVSPropertyOp0
 70
     1
102
RTVSPropertyOp1
 70
     1
102
RTVSPropertyOp2
 70
     1
102
RTVSPropertyOp3
 70
     1
102
RTVSPropertyOp4
 70
     1
102
RTVSPropertyOp5
 70
     1
102
RTVSPropertyOp6
 70
     1
102
RTVSPropertyOp7
 70
     1
102
RTVSPropertyOp8
 70
     1
102
RTVSPropertyOp9
 70
     1
102
RTVSPropertyOp10
 70
     1
102
RTVSPropertyOp11
 70
     1
102
RTVSPropertyOp12
 70
     1
102
RTVSPropertyOp13
 70
     1
102
RTVSPropertyOp14
 70
     1
102
RTVSPropertyOp15
 70
     1
102
RTVSPropertyOp16
 70
     1
102
RTVSPropertyOp17
 70
     1
102
RTVSPropertyOp18
 70
     1
102
RTVSPropertyOp19
 70
     1
102
RTVSPropertyOp20
 70
     1
102
RTVSPropertyOp21
 70
     1
102
RTVSPropertyOp22
 70
     1
102
RTVSPropertyOp23
 70
     1
102
RTVSPropertyOp24
 70
     1
102
RTVSPropertyOp25
 70
     1
102
RTVSPropertyOp26
 70
     1
102
RTVSPropertyOp27
 70
     1
102
RTVSPropertyOp28
 70
     1
102
RTVSPropertyOp29
 70
     1
102
RTVSPropertyOp30
 70
     1
102
RTVSPropertyOp31
 70
     1
102
RTVSPropertyOp32
 70
     1
102
RTVSPropertyOp33
 70
     1
102
RTVSPropertyOp34
 70
     1
102
RTVSPropertyOp35
 70
     1
102
RTVSPropertyOp36
 70
     1
102
RTVSPropertyOp37
 70
     1
102
RTVSPropertyOp38
 70
     1
102
RTVSPropertyOp39
 70
     1
102
RTVSPropertyOp40
 70
     1
102
RTVSPropertyOp41
 70
     1
102
RTVSPropertyOp42
 70
     1
102
RTVSPropertyOp43
 70
     1
102
RTVSPropertyOp44
 70
     1
102
RTVSPropertyOp45
 70
     1
102
RTVSPropertyOp46
 70
     1
102
RTVSPropertyOp47
 70
     1
102
RTVSPropertyOp48
 70
     1
102
RTVSPropertyOp49
 70
     1
102
RTVSPropertyOp50
 70
     1
102
RTVSPropertyOp51
 70
     0
102
RTVSPropertyOp52
 70
     0
102
RTVSPropertyOp53
 70
     1
102
RTVSPropertyOp54
 70
     1
102
RTVSPropertyOp55
 70
     1
102
RTVSPropertyOp56
 70
     1
102
RTVSPropertyOp57
 70
     1
102
RTVSPropertyOp58
 70
     1
102
RTVSPropertyOp59
 70
     1
102
RTVSPropertyOp60
 70
     1
102
RTVSPropertyOp61
 70
     1
102
RTVSPropertyOp62
 70
     1
  0
XRECORD
  5
1582
102
{ACAD_REACTORS
330
1581
102
}
330
1581
100
AcDbXrecord
280
     1
102
RTVSPost2010Prop28
280
     0
102
RTVSPost2010PropOp28
 70
     1
102
RTVSPost2010Prop29
280
     1
102
RTVSPost2010PropOp29
 70
     1
102
RTVSPost2010Prop30
280
     1
102
RTVSPost2010PropOp30
 70
     1
102
RTVSPost2010Prop31
280
     0
102
RTVSPost2010PropOp31
 70
     1
102
RTVSPost2010Prop32
280
     0
102
RTVSPost2010PropOp32
 70
     1
102
RTVSPost2010Prop33
280
     0
102
RTVSPost2010PropOp33
 70
     1
102
RTVSPost2010Prop34
280
     0
102
RTVSPost2010PropOp34
 70
     1
102
RTVSPost2010Prop35
280
     0
102
RTVSPost2010PropOp35
 70
     1
102
RTVSPost2010Prop36
280
     0
102
RTVSPost2010PropOp36
 70
     1
102
RTVSPost2010Prop37
 90
       50
102
RTVSPost2010PropOp37
 70
     0
102
RTVSPost2010Prop38
140
0.0
102
RTVSPost2010PropOp38
 70
     0
102
RTVSPost2010Prop39
140
1.0
102
RTVSPost2010PropOp39
 70
     0
102
RTVSPost2010Prop40
 90
        0
102
RTVSPost2010PropOp40
 70
     0
102
RTVSPost2010Prop41ColorIndex
 90
       18
102
RTVSPost2010Prop41ColorRGB
 90
-16777216
102
RTVSPost2010PropOp41
 70
     0
102
RTVSPost2010Prop42
 90
       50
102
RTVSPost2010PropOp42
 70
     0
102
RTVSPost2010Prop43
 90
        3
102
RTVSPost2010PropOp43
 70
     0
102
RTVSPost2010Prop44ColorIndex
 90
        5
102
RTVSPost2010Prop44ColorRGB
 90
      255
102
RTVSPost2010PropOp44
 70
     0
102
RTVSPost2010Prop45
280
     0
102
RTVSPost2010PropOp45
 70
     1
102
RTVSPost2010Prop46
 90
       50
102
RTVSPost2010PropOp46
 70
     0
102
RTVSPost2010Prop47
 90
       50
102
RTVSPost2010PropOp47
 70
     0
102
RTVSPost2010Prop48
 90
       50
102
RTVSPost2010PropOp48
 70
     0
102
RTVSPost2010Prop49
280
     0
102
RTVSPost2010PropOp49
 70
     1
102
RTVSPost2010Prop50
 90
       50
102
RTVSPost2010PropOp50
 70
     0
102
RTVSPost2010Prop51ColorIndex
 90
      256
102
RTVSPost2010Prop51ColorRGB
 90
-16777216
102
RTVSPost2010PropOp51
 70
     0
102
RTVSPost2010Prop52
140
1.0
102
RTVSPost2010PropOp52
 70
     0
102
RTVSPost2010Prop53
 90
        2
102
RTVSPost2010PropOp53
 70
     0
102
RTVSPost2010Prop54
  1
strokes_ogs.tif
102
RTVSPost2010PropOp54
 70
     0
102
RTVSPost2010Prop55
280
     0
102
RTVSPost2010PropOp55
 70
     1
102
RTVSPost2010Prop56
140
1.0
102
RTVSPost2010PropOp56
 70
     0
102
RTVSPost2010Prop57
140
1.0
102
RTVSPost2010PropOp57
 70
     0
102
RTVSPropertyOp0
 70
     0
102
RTVSPropertyOp1
 70
     0
102
RTVSPropertyOp2
 70
     0
102
RTVSPropertyOp3
 70
     0
102
RTVSPropertyOp4
 70
     0
102
RTVSPropertyOp5
 70
     0
102
RTVSPropertyOp6
 70
     0
102
RTVSPropertyOp7
 70
     0
102
RTVSPropertyOp8
 70
     0
102
RTVSPropertyOp9
 70
     0
102
RTVSPropertyOp10
 70
     0
102
RTVSPropertyOp11
 70
     0
102
RTVSPropertyOp12
 70
     0
102
RTVSPropertyOp13
 70
     0
102
RTVSPropertyOp14
 70
     2
102
RTVSPropertyOp15
 70
     0
102
RTVSPropertyOp16
 70
     0
102
RTVSPropertyOp17
 70
     0
102
RTVSPropertyOp18
 70
     0
102
RTVSPropertyOp19
 70
     0
102
RTVSPropertyOp20
 70
     0
102
RTVSPropertyOp21
 70
     0
102
RTVSPropertyOp22
 70
     0
102
RTVSPropertyOp23
 70
     0
102
RTVSPropertyOp24
 70
     0
102
RTVSPropertyOp25
 70
     0
102
RTVSPropertyOp26
 70
     0
102
RTVSPropertyOp27
 70
     0
102
RTVSPropertyOp28
 70
     1
102
RTVSPropertyOp29
 70
     1
102
RTVSPropertyOp30
 70
     1
102
RTVSPropertyOp31
 70
     1
102
RTVSPropertyOp32
 70
     1
102
RTVSPropertyOp33
 70
     1
102
RTVSPropertyOp34
 70
     1
102
RTVSPropertyOp35
 70
     1
102
RTVSPropertyOp36
 70
     1
102
RTVSPropertyOp37
 70
     0
102
RTVSPropertyOp38
 70
     0
102
RTVSPropertyOp39
 70
     0
102
RTVSPropertyOp40
 70
     0
102
RTVSPropertyOp41
 70
     0
102
RTVSPropertyOp42
 70
     0
102
RTVSPropertyOp43
 70
     0
102
RTVSPropertyOp44
 70
     0
102
RTVSPropertyOp45
 70
     1
102
RTVSPropertyOp46
 70
     0
102
RTVSPropertyOp47
 70
     0
102
RTVSPropertyOp48
 70
     0
102
RTVSPropertyOp49
 70
     1
102
RTVSPropertyOp50
 70
     0
102
RTVSPropertyOp51
 70
     0
102
RTVSPropertyOp52
 70
     0
102
RTVSPropertyOp53
 70
     0
102
RTVSPropertyOp54
 70
     0
102
RTVSPropertyOp55
 70
     1
102
RTVSPropertyOp56
 70
     0
102
RTVSPropertyOp57
 70
     0
102
RTVSPropertyOp58
 70
     1
102
RTVSPropertyOp59
 70
     1
102
RTVSPropertyOp60
 70
     1
102
RTVSPropertyOp61
 70
     1
102
RTVSPropertyOp62
 70
     1
  0
XRECORD
  5
1558
102
{ACAD_REACTORS
330
1557
102
}
330
1557
100
AcDbXrecord
280
     1
102
RTVSPost2010Prop28
280
     0
102
RTVSPost2010PropOp28
 70
     1
102
RTVSPost2010Prop29
280
     1
102
RTVSPost2010PropOp29
 70
     1
102
RTVSPost2010Prop30
280
     1
102
RTVSPost2010PropOp30
 70
     1
102
RTVSPost2010Prop31
280
     0
102
RTVSPost2010PropOp31
 70
     1
102
RTVSPost2010Prop32
280
     0
102
RTVSPost2010PropOp32
 70
     1
102
RTVSPost2010Prop33
280
     0
102
RTVSPost2010PropOp33
 70
     1
102
RTVSPost2010Prop34
280
     0
102
RTVSPost2010PropOp34
 70
     1
102
RTVSPost2010Prop35
280
     0
102
RTVSPost2010PropOp35
 70
     1
102
RTVSPost2010Prop36
280
     0
102
RTVSPost2010PropOp36
 70
     1
102
RTVSPost2010Prop37
 90
       50
102
RTVSPost2010PropOp37
 70
     1
102
RTVSPost2010Prop38
140
0.0
102
RTVSPost2010PropOp38
 70
     1
102
RTVSPost2010Prop39
140
1.0
102
RTVSPost2010PropOp39
 70
     1
102
RTVSPost2010Prop40
 90
        0
102
RTVSPost2010PropOp40
 70
     1
102
RTVSPost2010Prop41ColorIndex
 90
       18
102
RTVSPost2010Prop41ColorRGB
 90
-16777216
102
RTVSPost2010PropOp41
 70
     1
102
RTVSPost2010Prop42
 90
       50
102
RTVSPost2010PropOp42
 70
     1
102
RTVSPost2010Prop43
 90
        3
102
RTVSPost2010PropOp43
 70
     1
102
RTVSPost2010Prop44ColorIndex
 90
        5
102
RTVSPost2010Prop44ColorRGB
 90
      255
102
RTVSPost2010PropOp44
 70
     1
102
RTVSPost2010Prop45
280
     0
102
RTVSPost2010PropOp45
 70
     1
102
RTVSPost2010Prop46
 90
       50
102
RTVSPost2010PropOp46
 70
     1
102
RTVSPost2010Prop47
 90
       50
102
RTVSPost2010PropOp47
 70
     1
102
RTVSPost2010Prop48
 90
       50
102
RTVSPost2010PropOp48
 70
     1
102
RTVSPost2010Prop49
280
     0
102
RTVSPost2010PropOp49
 70
     1
102
RTVSPost2010Prop50
 90
       50
102
RTVSPost2010PropOp50
 70
     1
102
RTVSPost2010Prop51ColorIndex
 90
      256
102
RTVSPost2010Prop51ColorRGB
 90
-16777216
102
RTVSPost2010PropOp51
 70
     0
102
RTVSPost2010Prop52
140
1.0
102
RTVSPost2010PropOp52
 70
     0
102
RTVSPost2010Prop53
 90
        2
102
RTVSPost2010PropOp53
 70
     1
102
RTVSPost2010Prop54
  1
strokes_ogs.tif
102
RTVSPost2010PropOp54
 70
     1
102
RTVSPost2010Prop55
280
     0
102
RTVSPost2010PropOp55
 70
     1
102
RTVSPost2010Prop56
140
1.0
102
RTVSPost2010PropOp56
 70
     1
102
RTVSPost2010Prop57
140
1.0
102
RTVSPost2010PropOp57
 70
     1
102
RTVSPropertyOp0
 70
     1
102
RTVSPropertyOp1
 70
     1
102
RTVSPropertyOp2
 70
     1
102
RTVSPropertyOp3
 70
     1
102
RTVSPropertyOp4
 70
     1
102
RTVSPropertyOp5
 70
     1
102
RTVSPropertyOp6
 70
     1
102
RTVSPropertyOp7
 70
     1
102
RTVSPropertyOp8
 70
     1
102
RTVSPropertyOp9
 70
     1
102
RTVSPropertyOp10
 70
     1
102
RTVSPropertyOp11
 70
     1
102
RTVSPropertyOp12
 70
     1
102
RTVSPropertyOp13
 70
     1
102
RTVSPropertyOp14
 70
     1
102
RTVSPropertyOp15
 70
     1
102
RTVSPropertyOp16
 70
     1
102
RTVSPropertyOp17
 70
     1
102
RTVSPropertyOp18
 70
     1
102
RTVSPropertyOp19
 70
     1
102
RTVSPropertyOp20
 70
     1
102
RTVSPropertyOp21
 70
     1
102
RTVSPropertyOp22
 70
     1
102
RTVSPropertyOp23
 70
     1
102
RTVSPropertyOp24
 70
     1
102
RTVSPropertyOp25
 70
     1
102
RTVSPropertyOp26
 70
     1
102
RTVSPropertyOp27
 70
     1
102
RTVSPropertyOp28
 70
     1
102
RTVSPropertyOp29
 70
     1
102
RTVSPropertyOp30
 70
     1
102
RTVSPropertyOp31
 70
     1
102
RTVSPropertyOp32
 70
     1
102
RTVSPropertyOp33
 70
     1
102
RTVSPropertyOp34
 70
     1
102
RTVSPropertyOp35
 70
     1
102
RTVSPropertyOp36
 70
     1
102
RTVSPropertyOp37
 70
     1
102
RTVSPropertyOp38
 70
     1
102
RTVSPropertyOp39
 70
     1
102
RTVSPropertyOp40
 70
     1
102
RTVSPropertyOp41
 70
     1
102
RTVSPropertyOp42
 70
     1
102
RTVSPropertyOp43
 70
     1
102
RTVSPropertyOp44
 70
     1
102
RTVSPropertyOp45
 70
     1
102
RTVSPropertyOp46
 70
     1
102
RTVSPropertyOp47
 70
     1
102
RTVSPropertyOp48
 70
     1
102
RTVSPropertyOp49
 70
     1
102
RTVSPropertyOp50
 70
     1
102
RTVSPropertyOp51
 70
     0
102
RTVSPropertyOp52
 70
     0
102
RTVSPropertyOp53
 70
     1
102
RTVSPropertyOp54
 70
     1
102
RTVSPropertyOp55
 70
     1
102
RTVSPropertyOp56
 70
     1
102
RTVSPropertyOp57
 70
     1
102
RTVSPropertyOp58
 70
     1
102
RTVSPropertyOp59
 70
     1
102
RTVSPropertyOp60
 70
     1
102
RTVSPropertyOp61
 70
     1
102
RTVSPropertyOp62
 70
     1
  0
XRECORD
  5
157E
102
{ACAD_REACTORS
330
157D
102
}
330
157D
100
AcDbXrecord
280
     1
102
RTVSPost2010Prop28
280
     0
102
RTVSPost2010PropOp28
 70
     1
102
RTVSPost2010Prop29
280
     1
102
RTVSPost2010PropOp29
 70
     1
102
RTVSPost2010Prop30
280
     1
102
RTVSPost2010PropOp30
 70
     1
102
RTVSPost2010Prop31
280
     0
102
RTVSPost2010PropOp31
 70
     1
102
RTVSPost2010Prop32
280
     0
102
RTVSPost2010PropOp32
 70
     1
102
RTVSPost2010Prop33
280
     0
102
RTVSPost2010PropOp33
 70
     1
102
RTVSPost2010Prop34
280
     0
102
RTVSPost2010PropOp34
 70
     1
102
RTVSPost2010Prop35
280
     0
102
RTVSPost2010PropOp35
 70
     1
102
RTVSPost2010Prop36
280
     0
102
RTVSPost2010PropOp36
 70
     1
102
RTVSPost2010Prop37
 90
       50
102
RTVSPost2010PropOp37
 70
     1
102
RTVSPost2010Prop38
140
0.0
102
RTVSPost2010PropOp38
 70
     1
102
RTVSPost2010Prop39
140
1.0
102
RTVSPost2010PropOp39
 70
     1
102
RTVSPost2010Prop40
 90
        0
102
RTVSPost2010PropOp40
 70
     1
102
RTVSPost2010Prop41ColorIndex
 90
       18
102
RTVSPost2010Prop41ColorRGB
 90
-16777216
102
RTVSPost2010PropOp41
 70
     1
102
RTVSPost2010Prop42
 90
       50
102
RTVSPost2010PropOp42
 70
     1
102
RTVSPost2010Prop43
 90
        3
102
RTVSPost2010PropOp43
 70
     1
102
RTVSPost2010Prop44ColorIndex
 90
        5
102
RTVSPost2010Prop44ColorRGB
 90
      255
102
RTVSPost2010PropOp44
 70
     1
102
RTVSPost2010Prop45
280
     0
102
RTVSPost2010PropOp45
 70
     1
102
RTVSPost2010Prop46
 90
       50
102
RTVSPost2010PropOp46
 70
     1
102
RTVSPost2010Prop47
 90
       50
102
RTVSPost2010PropOp47
 70
     1
102
RTVSPost2010Prop48
 90
       50
102
RTVSPost2010PropOp48
 70
     1
102
RTVSPost2010Prop49
280
     0
102
RTVSPost2010PropOp49
 70
     1
102
RTVSPost2010Prop50
 90
       50
102
RTVSPost2010PropOp50
 70
     1
102
RTVSPost2010Prop51ColorIndex
 90
      256
102
RTVSPost2010Prop51ColorRGB
 90
-16777216
102
RTVSPost2010PropOp51
 70
     0
102
RTVSPost2010Prop52
140
1.0
102
RTVSPost2010PropOp52
 70
     0
102
RTVSPost2010Prop53
 90
        2
102
RTVSPost2010PropOp53
 70
     1
102
RTVSPost2010Prop54
  1
strokes_ogs.tif
102
RTVSPost2010PropOp54
 70
     1
102
RTVSPost2010Prop55
280
     0
102
RTVSPost2010PropOp55
 70
     1
102
RTVSPost2010Prop56
140
1.0
102
RTVSPost2010PropOp56
 70
     1
102
RTVSPost2010Prop57
140
1.0
102
RTVSPost2010PropOp57
 70
     1
102
RTVSPropertyOp0
 70
     1
102
RTVSPropertyOp1
 70
     1
102
RTVSPropertyOp2
 70
     1
102
RTVSPropertyOp3
 70
     1
102
RTVSPropertyOp4
 70
     1
102
RTVSPropertyOp5
 70
     1
102
RTVSPropertyOp6
 70
     1
102
RTVSPropertyOp7
 70
     1
102
RTVSPropertyOp8
 70
     1
102
RTVSPropertyOp9
 70
     1
102
RTVSPropertyOp10
 70
     1
102
RTVSPropertyOp11
 70
     1
102
RTVSPropertyOp12
 70
     1
102
RTVSPropertyOp13
 70
     1
102
RTVSPropertyOp14
 70
     1
102
RTVSPropertyOp15
 70
     1
102
RTVSPropertyOp16
 70
     1
102
RTVSPropertyOp17
 70
     1
102
RTVSPropertyOp18
 70
     1
102
RTVSPropertyOp19
 70
     1
102
RTVSPropertyOp20
 70
     1
102
RTVSPropertyOp21
 70
     1
102
RTVSPropertyOp22
 70
     1
102
RTVSPropertyOp23
 70
     1
102
RTVSPropertyOp24
 70
     1
102
RTVSPropertyOp25
 70
     1
102
RTVSPropertyOp26
 70
     1
102
RTVSPropertyOp27
 70
     1
102
RTVSPropertyOp28
 70
     1
102
RTVSPropertyOp29
 70
     1
102
RTVSPropertyOp30
 70
     1
102
RTVSPropertyOp31
 70
     1
102
RTVSPropertyOp32
 70
     1
102
RTVSPropertyOp33
 70
     1
102
RTVSPropertyOp34
 70
     1
102
RTVSPropertyOp35
 70
     1
102
RTVSPropertyOp36
 70
     1
102
RTVSPropertyOp37
 70
     1
102
RTVSPropertyOp38
 70
     1
102
RTVSPropertyOp39
 70
     1
102
RTVSPropertyOp40
 70
     1
102
RTVSPropertyOp41
 70
     1
102
RTVSPropertyOp42
 70
     1
102
RTVSPropertyOp43
 70
     1
102
RTVSPropertyOp44
 70
     1
102
RTVSPropertyOp45
 70
     1
102
RTVSPropertyOp46
 70
     1
102
RTVSPropertyOp47
 70
     1
102
RTVSPropertyOp48
 70
     1
102
RTVSPropertyOp49
 70
     1
102
RTVSPropertyOp50
 70
     1
102
RTVSPropertyOp51
 70
     0
102
RTVSPropertyOp52
 70
     0
102
RTVSPropertyOp53
 70
     1
102
RTVSPropertyOp54
 70
     1
102
RTVSPropertyOp55
 70
     1
102
RTVSPropertyOp56
 70
     1
102
RTVSPropertyOp57
 70
     1
102
RTVSPropertyOp58
 70
     1
102
RTVSPropertyOp59
 70
     1
102
RTVSPropertyOp60
 70
     1
102
RTVSPropertyOp61
 70
     1
102
RTVSPropertyOp62
 70
     1
  0
XRECORD
  5
157C
102
{ACAD_REACTORS
330
157B
102
}
330
157B
100
AcDbXrecord
280
     1
102
RTVSPost2010Prop28
280
     0
102
RTVSPost2010PropOp28
 70
     1
102
RTVSPost2010Prop29
280
     1
102
RTVSPost2010PropOp29
 70
     1
102
RTVSPost2010Prop30
280
     1
102
RTVSPost2010PropOp30
 70
     1
102
RTVSPost2010Prop31
280
     0
102
RTVSPost2010PropOp31
 70
     1
102
RTVSPost2010Prop32
280
     0
102
RTVSPost2010PropOp32
 70
     1
102
RTVSPost2010Prop33
280
     0
102
RTVSPost2010PropOp33
 70
     1
102
RTVSPost2010Prop34
280
     0
102
RTVSPost2010PropOp34
 70
     1
102
RTVSPost2010Prop35
280
     0
102
RTVSPost2010PropOp35
 70
     1
102
RTVSPost2010Prop36
280
     0
102
RTVSPost2010PropOp36
 70
     1
102
RTVSPost2010Prop37
 90
       50
102
RTVSPost2010PropOp37
 70
     1
102
RTVSPost2010Prop38
140
0.0
102
RTVSPost2010PropOp38
 70
     1
102
RTVSPost2010Prop39
140
1.0
102
RTVSPost2010PropOp39
 70
     1
102
RTVSPost2010Prop40
 90
        0
102
RTVSPost2010PropOp40
 70
     1
102
RTVSPost2010Prop41ColorIndex
 90
       18
102
RTVSPost2010Prop41ColorRGB
 90
-16777216
102
RTVSPost2010PropOp41
 70
     1
102
RTVSPost2010Prop42
 90
       50
102
RTVSPost2010PropOp42
 70
     1
102
RTVSPost2010Prop43
 90
        3
102
RTVSPost2010PropOp43
 70
     1
102
RTVSPost2010Prop44ColorIndex
 90
        5
102
RTVSPost2010Prop44ColorRGB
 90
      255
102
RTVSPost2010PropOp44
 70
     1
102
RTVSPost2010Prop45
280
     0
102
RTVSPost2010PropOp45
 70
     1
102
RTVSPost2010Prop46
 90
       50
102
RTVSPost2010PropOp46
 70
     1
102
RTVSPost2010Prop47
 90
       50
102
RTVSPost2010PropOp47
 70
     1
102
RTVSPost2010Prop48
 90
       50
102
RTVSPost2010PropOp48
 70
     1
102
RTVSPost2010Prop49
280
     0
102
RTVSPost2010PropOp49
 70
     1
102
RTVSPost2010Prop50
 90
       50
102
RTVSPost2010PropOp50
 70
     1
102
RTVSPost2010Prop51ColorIndex
 90
      256
102
RTVSPost2010Prop51ColorRGB
 90
-16777216
102
RTVSPost2010PropOp51
 70
     0
102
RTVSPost2010Prop52
140
1.0
102
RTVSPost2010PropOp52
 70
     0
102
RTVSPost2010Prop53
 90
        2
102
RTVSPost2010PropOp53
 70
     1
102
RTVSPost2010Prop54
  1
strokes_ogs.tif
102
RTVSPost2010PropOp54
 70
     1
102
RTVSPost2010Prop55
280
     0
102
RTVSPost2010PropOp55
 70
     1
102
RTVSPost2010Prop56
140
1.0
102
RTVSPost2010PropOp56
 70
     1
102
RTVSPost2010Prop57
140
1.0
102
RTVSPost2010PropOp57
 70
     1
102
RTVSPropertyOp0
 70
     1
102
RTVSPropertyOp1
 70
     1
102
RTVSPropertyOp2
 70
     1
102
RTVSPropertyOp3
 70
     1
102
RTVSPropertyOp4
 70
     1
102
RTVSPropertyOp5
 70
     1
102
RTVSPropertyOp6
 70
     1
102
RTVSPropertyOp7
 70
     1
102
RTVSPropertyOp8
 70
     1
102
RTVSPropertyOp9
 70
     1
102
RTVSPropertyOp10
 70
     1
102
RTVSPropertyOp11
 70
     1
102
RTVSPropertyOp12
 70
     1
102
RTVSPropertyOp13
 70
     1
102
RTVSPropertyOp14
 70
     1
102
RTVSPropertyOp15
 70
     1
102
RTVSPropertyOp16
 70
     1
102
RTVSPropertyOp17
 70
     1
102
RTVSPropertyOp18
 70
     1
102
RTVSPropertyOp19
 70
     1
102
RTVSPropertyOp20
 70
     1
102
RTVSPropertyOp21
 70
     1
102
RTVSPropertyOp22
 70
     1
102
RTVSPropertyOp23
 70
     1
102
RTVSPropertyOp24
 70
     1
102
RTVSPropertyOp25
 70
     1
102
RTVSPropertyOp26
 70
     1
102
RTVSPropertyOp27
 70
     1
102
RTVSPropertyOp28
 70
     1
102
RTVSPropertyOp29
 70
     1
102
RTVSPropertyOp30
 70
     1
102
RTVSPropertyOp31
 70
     1
102
RTVSPropertyOp32
 70
     1
102
RTVSPropertyOp33
 70
     1
102
RTVSPropertyOp34
 70
     1
102
RTVSPropertyOp35
 70
     1
102
RTVSPropertyOp36
 70
     1
102
RTVSPropertyOp37
 70
     1
102
RTVSPropertyOp38
 70
     1
102
RTVSPropertyOp39
 70
     1
102
RTVSPropertyOp40
 70
     1
102
RTVSPropertyOp41
 70
     1
102
RTVSPropertyOp42
 70
     1
102
RTVSPropertyOp43
 70
     1
102
RTVSPropertyOp44
 70
     1
102
RTVSPropertyOp45
 70
     1
102
RTVSPropertyOp46
 70
     1
102
RTVSPropertyOp47
 70
     1
102
RTVSPropertyOp48
 70
     1
102
RTVSPropertyOp49
 70
     1
102
RTVSPropertyOp50
 70
     1
102
RTVSPropertyOp51
 70
     0
102
RTVSPropertyOp52
 70
     0
102
RTVSPropertyOp53
 70
     1
102
RTVSPropertyOp54
 70
     1
102
RTVSPropertyOp55
 70
     1
102
RTVSPropertyOp56
 70
     1
102
RTVSPropertyOp57
 70
     1
102
RTVSPropertyOp58
 70
     1
102
RTVSPropertyOp59
 70
     1
102
RTVSPropertyOp60
 70
     1
102
RTVSPropertyOp61
 70
     1
102
RTVSPropertyOp62
 70
     1
  0
XRECORD
  5
1576
102
{ACAD_REACTORS
330
1575
102
}
330
1575
100
AcDbXrecord
280
     1
102
RTVSPost2010Prop28
280
     0
102
RTVSPost2010PropOp28
 70
     1
102
RTVSPost2010Prop29
280
     1
102
RTVSPost2010PropOp29
 70
     1
102
RTVSPost2010Prop30
280
     1
102
RTVSPost2010PropOp30
 70
     1
102
RTVSPost2010Prop31
280
     0
102
RTVSPost2010PropOp31
 70
     1
102
RTVSPost2010Prop32
280
     0
102
RTVSPost2010PropOp32
 70
     1
102
RTVSPost2010Prop33
280
     0
102
RTVSPost2010PropOp33
 70
     1
102
RTVSPost2010Prop34
280
     0
102
RTVSPost2010PropOp34
 70
     1
102
RTVSPost2010Prop35
280
     0
102
RTVSPost2010PropOp35
 70
     1
102
RTVSPost2010Prop36
280
     0
102
RTVSPost2010PropOp36
 70
     1
102
RTVSPost2010Prop37
 90
       50
102
RTVSPost2010PropOp37
 70
     1
102
RTVSPost2010Prop38
140
0.0
102
RTVSPost2010PropOp38
 70
     1
102
RTVSPost2010Prop39
140
1.0
102
RTVSPost2010PropOp39
 70
     1
102
RTVSPost2010Prop40
 90
        0
102
RTVSPost2010PropOp40
 70
     1
102
RTVSPost2010Prop41ColorIndex
 90
       18
102
RTVSPost2010Prop41ColorRGB
 90
-16777216
102
RTVSPost2010PropOp41
 70
     1
102
RTVSPost2010Prop42
 90
       50
102
RTVSPost2010PropOp42
 70
     1
102
RTVSPost2010Prop43
 90
        3
102
RTVSPost2010PropOp43
 70
     1
102
RTVSPost2010Prop44ColorIndex
 90
        5
102
RTVSPost2010Prop44ColorRGB
 90
      255
102
RTVSPost2010PropOp44
 70
     1
102
RTVSPost2010Prop45
280
     0
102
RTVSPost2010PropOp45
 70
     1
102
RTVSPost2010Prop46
 90
       50
102
RTVSPost2010PropOp46
 70
     1
102
RTVSPost2010Prop47
 90
       50
102
RTVSPost2010PropOp47
 70
     1
102
RTVSPost2010Prop48
 90
       50
102
RTVSPost2010PropOp48
 70
     1
102
RTVSPost2010Prop49
280
     0
102
RTVSPost2010PropOp49
 70
     1
102
RTVSPost2010Prop50
 90
       50
102
RTVSPost2010PropOp50
 70
     1
102
RTVSPost2010Prop51ColorIndex
 90
      256
102
RTVSPost2010Prop51ColorRGB
 90
-16777216
102
RTVSPost2010PropOp51
 70
     0
102
RTVSPost2010Prop52
140
1.0
102
RTVSPost2010PropOp52
 70
     0
102
RTVSPost2010Prop53
 90
        2
102
RTVSPost2010PropOp53
 70
     1
102
RTVSPost2010Prop54
  1
strokes_ogs.tif
102
RTVSPost2010PropOp54
 70
     1
102
RTVSPost2010Prop55
280
     0
102
RTVSPost2010PropOp55
 70
     1
102
RTVSPost2010Prop56
140
1.0
102
RTVSPost2010PropOp56
 70
     1
102
RTVSPost2010Prop57
140
1.0
102
RTVSPost2010PropOp57
 70
     1
102
RTVSPropertyOp0
 70
     1
102
RTVSPropertyOp1
 70
     1
102
RTVSPropertyOp2
 70
     1
102
RTVSPropertyOp3
 70
     1
102
RTVSPropertyOp4
 70
     1
102
RTVSPropertyOp5
 70
     1
102
RTVSPropertyOp6
 70
     1
102
RTVSPropertyOp7
 70
     1
102
RTVSPropertyOp8
 70
     1
102
RTVSPropertyOp9
 70
     1
102
RTVSPropertyOp10
 70
     1
102
RTVSPropertyOp11
 70
     1
102
RTVSPropertyOp12
 70
     1
102
RTVSPropertyOp13
 70
     1
102
RTVSPropertyOp14
 70
     1
102
RTVSPropertyOp15
 70
     1
102
RTVSPropertyOp16
 70
     1
102
RTVSPropertyOp17
 70
     1
102
RTVSPropertyOp18
 70
     1
102
RTVSPropertyOp19
 70
     1
102
RTVSPropertyOp20
 70
     1
102
RTVSPropertyOp21
 70
     1
102
RTVSPropertyOp22
 70
     1
102
RTVSPropertyOp23
 70
     1
102
RTVSPropertyOp24
 70
     1
102
RTVSPropertyOp25
 70
     1
102
RTVSPropertyOp26
 70
     1
102
RTVSPropertyOp27
 70
     1
102
RTVSPropertyOp28
 70
     1
102
RTVSPropertyOp29
 70
     1
102
RTVSPropertyOp30
 70
     1
102
RTVSPropertyOp31
 70
     1
102
RTVSPropertyOp32
 70
     1
102
RTVSPropertyOp33
 70
     1
102
RTVSPropertyOp34
 70
     1
102
RTVSPropertyOp35
 70
     1
102
RTVSPropertyOp36
 70
     1
102
RTVSPropertyOp37
 70
     1
102
RTVSPropertyOp38
 70
     1
102
RTVSPropertyOp39
 70
     1
102
RTVSPropertyOp40
 70
     1
102
RTVSPropertyOp41
 70
     1
102
RTVSPropertyOp42
 70
     1
102
RTVSPropertyOp43
 70
     1
102
RTVSPropertyOp44
 70
     1
102
RTVSPropertyOp45
 70
     1
102
RTVSPropertyOp46
 70
     1
102
RTVSPropertyOp47
 70
     1
102
RTVSPropertyOp48
 70
     1
102
RTVSPropertyOp49
 70
     1
102
RTVSPropertyOp50
 70
     1
102
RTVSPropertyOp51
 70
     0
102
RTVSPropertyOp52
 70
     0
102
RTVSPropertyOp53
 70
     1
102
RTVSPropertyOp54
 70
     1
102
RTVSPropertyOp55
 70
     1
102
RTVSPropertyOp56
 70
     1
102
RTVSPropertyOp57
 70
     1
102
RTVSPropertyOp58
 70
     1
102
RTVSPropertyOp59
 70
     1
102
RTVSPropertyOp60
 70
     1
102
RTVSPropertyOp61
 70
     1
102
RTVSPropertyOp62
 70
     1
  0
XRECORD
  5
1578
102
{ACAD_REACTORS
330
1577
102
}
330
1577
100
AcDbXrecord
280
     1
102
RTVSPost2010Prop28
280
     0
102
RTVSPost2010PropOp28
 70
     1
102
RTVSPost2010Prop29
280
     1
102
RTVSPost2010PropOp29
 70
     1
102
RTVSPost2010Prop30
280
     1
102
RTVSPost2010PropOp30
 70
     1
102
RTVSPost2010Prop31
280
     0
102
RTVSPost2010PropOp31
 70
     1
102
RTVSPost2010Prop32
280
     0
102
RTVSPost2010PropOp32
 70
     1
102
RTVSPost2010Prop33
280
     0
102
RTVSPost2010PropOp33
 70
     1
102
RTVSPost2010Prop34
280
     0
102
RTVSPost2010PropOp34
 70
     1
102
RTVSPost2010Prop35
280
     0
102
RTVSPost2010PropOp35
 70
     1
102
RTVSPost2010Prop36
280
     0
102
RTVSPost2010PropOp36
 70
     1
102
RTVSPost2010Prop37
 90
       50
102
RTVSPost2010PropOp37
 70
     1
102
RTVSPost2010Prop38
140
0.0
102
RTVSPost2010PropOp38
 70
     1
102
RTVSPost2010Prop39
140
1.0
102
RTVSPost2010PropOp39
 70
     1
102
RTVSPost2010Prop40
 90
        0
102
RTVSPost2010PropOp40
 70
     1
102
RTVSPost2010Prop41ColorIndex
 90
       18
102
RTVSPost2010Prop41ColorRGB
 90
-16777216
102
RTVSPost2010PropOp41
 70
     1
102
RTVSPost2010Prop42
 90
       50
102
RTVSPost2010PropOp42
 70
     1
102
RTVSPost2010Prop43
 90
        3
102
RTVSPost2010PropOp43
 70
     1
102
RTVSPost2010Prop44ColorIndex
 90
        5
102
RTVSPost2010Prop44ColorRGB
 90
      255
102
RTVSPost2010PropOp44
 70
     1
102
RTVSPost2010Prop45
280
     0
102
RTVSPost2010PropOp45
 70
     1
102
RTVSPost2010Prop46
 90
       50
102
RTVSPost2010PropOp46
 70
     1
102
RTVSPost2010Prop47
 90
       50
102
RTVSPost2010PropOp47
 70
     1
102
RTVSPost2010Prop48
 90
       50
102
RTVSPost2010PropOp48
 70
     1
102
RTVSPost2010Prop49
280
     0
102
RTVSPost2010PropOp49
 70
     1
102
RTVSPost2010Prop50
 90
       50
102
RTVSPost2010PropOp50
 70
     1
102
RTVSPost2010Prop51ColorIndex
 90
      256
102
RTVSPost2010Prop51ColorRGB
 90
-16777216
102
RTVSPost2010PropOp51
 70
     0
102
RTVSPost2010Prop52
140
1.0
102
RTVSPost2010PropOp52
 70
     0
102
RTVSPost2010Prop53
 90
        2
102
RTVSPost2010PropOp53
 70
     1
102
RTVSPost2010Prop54
  1
strokes_ogs.tif
102
RTVSPost2010PropOp54
 70
     1
102
RTVSPost2010Prop55
280
     0
102
RTVSPost2010PropOp55
 70
     1
102
RTVSPost2010Prop56
140
1.0
102
RTVSPost2010PropOp56
 70
     1
102
RTVSPost2010Prop57
140
1.0
102
RTVSPost2010PropOp57
 70
     1
102
RTVSPropertyOp0
 70
     1
102
RTVSPropertyOp1
 70
     1
102
RTVSPropertyOp2
 70
     1
102
RTVSPropertyOp3
 70
     1
102
RTVSPropertyOp4
 70
     1
102
RTVSPropertyOp5
 70
     1
102
RTVSPropertyOp6
 70
     1
102
RTVSPropertyOp7
 70
     1
102
RTVSPropertyOp8
 70
     1
102
RTVSPropertyOp9
 70
     1
102
RTVSPropertyOp10
 70
     1
102
RTVSPropertyOp11
 70
     1
102
RTVSPropertyOp12
 70
     1
102
RTVSPropertyOp13
 70
     1
102
RTVSPropertyOp14
 70
     1
102
RTVSPropertyOp15
 70
     1
102
RTVSPropertyOp16
 70
     1
102
RTVSPropertyOp17
 70
     1
102
RTVSPropertyOp18
 70
     1
102
RTVSPropertyOp19
 70
     1
102
RTVSPropertyOp20
 70
     1
102
RTVSPropertyOp21
 70
     1
102
RTVSPropertyOp22
 70
     1
102
RTVSPropertyOp23
 70
     1
102
RTVSPropertyOp24
 70
     1
102
RTVSPropertyOp25
 70
     1
102
RTVSPropertyOp26
 70
     1
102
RTVSPropertyOp27
 70
     1
102
RTVSPropertyOp28
 70
     1
102
RTVSPropertyOp29
 70
     1
102
RTVSPropertyOp30
 70
     1
102
RTVSPropertyOp31
 70
     1
102
RTVSPropertyOp32
 70
     1
102
RTVSPropertyOp33
 70
     1
102
RTVSPropertyOp34
 70
     1
102
RTVSPropertyOp35
 70
     1
102
RTVSPropertyOp36
 70
     1
102
RTVSPropertyOp37
 70
     1
102
RTVSPropertyOp38
 70
     1
102
RTVSPropertyOp39
 70
     1
102
RTVSPropertyOp40
 70
     1
102
RTVSPropertyOp41
 70
     1
102
RTVSPropertyOp42
 70
     1
102
RTVSPropertyOp43
 70
     1
102
RTVSPropertyOp44
 70
     1
102
RTVSPropertyOp45
 70
     1
102
RTVSPropertyOp46
 70
     1
102
RTVSPropertyOp47
 70
     1
102
RTVSPropertyOp48
 70
     1
102
RTVSPropertyOp49
 70
     1
102
RTVSPropertyOp50
 70
     1
102
RTVSPropertyOp51
 70
     0
102
RTVSPropertyOp52
 70
     0
102
RTVSPropertyOp53
 70
     1
102
RTVSPropertyOp54
 70
     1
102
RTVSPropertyOp55
 70
     1
102
RTVSPropertyOp56
 70
     1
102
RTVSPropertyOp57
 70
     1
102
RTVSPropertyOp58
 70
     1
102
RTVSPropertyOp59
 70
     1
102
RTVSPropertyOp60
 70
     1
102
RTVSPropertyOp61
 70
     1
102
RTVSPropertyOp62
 70
     1
  0
XRECORD
  5
156E
102
{ACAD_REACTORS
330
156D
102
}
330
156D
100
AcDbXrecord
280
     1
102
RTVSPost2010Prop28
280
     0
102
RTVSPost2010PropOp28
 70
     1
102
RTVSPost2010Prop29
280
     1
102
RTVSPost2010PropOp29
 70
     1
102
RTVSPost2010Prop30
280
     1
102
RTVSPost2010PropOp30
 70
     1
102
RTVSPost2010Prop31
280
     0
102
RTVSPost2010PropOp31
 70
     1
102
RTVSPost2010Prop32
280
     0
102
RTVSPost2010PropOp32
 70
     1
102
RTVSPost2010Prop33
280
     0
102
RTVSPost2010PropOp33
 70
     1
102
RTVSPost2010Prop34
280
     0
102
RTVSPost2010PropOp34
 70
     1
102
RTVSPost2010Prop35
280
     0
102
RTVSPost2010PropOp35
 70
     1
102
RTVSPost2010Prop36
280
     0
102
RTVSPost2010PropOp36
 70
     1
102
RTVSPost2010Prop37
 90
       50
102
RTVSPost2010PropOp37
 70
     1
102
RTVSPost2010Prop38
140
0.0
102
RTVSPost2010PropOp38
 70
     1
102
RTVSPost2010Prop39
140
1.0
102
RTVSPost2010PropOp39
 70
     1
102
RTVSPost2010Prop40
 90
        0
102
RTVSPost2010PropOp40
 70
     1
102
RTVSPost2010Prop41ColorIndex
 90
       18
102
RTVSPost2010Prop41ColorRGB
 90
-16777216
102
RTVSPost2010PropOp41
 70
     1
102
RTVSPost2010Prop42
 90
       50
102
RTVSPost2010PropOp42
 70
     1
102
RTVSPost2010Prop43
 90
        3
102
RTVSPost2010PropOp43
 70
     1
102
RTVSPost2010Prop44ColorIndex
 90
        5
102
RTVSPost2010Prop44ColorRGB
 90
      255
102
RTVSPost2010PropOp44
 70
     1
102
RTVSPost2010Prop45
280
     0
102
RTVSPost2010PropOp45
 70
     1
102
RTVSPost2010Prop46
 90
       50
102
RTVSPost2010PropOp46
 70
     1
102
RTVSPost2010Prop47
 90
       50
102
RTVSPost2010PropOp47
 70
     1
102
RTVSPost2010Prop48
 90
       50
102
RTVSPost2010PropOp48
 70
     1
102
RTVSPost2010Prop49
280
     0
102
RTVSPost2010PropOp49
 70
     1
102
RTVSPost2010Prop50
 90
       50
102
RTVSPost2010PropOp50
 70
     1
102
RTVSPost2010Prop51ColorIndex
 90
      256
102
RTVSPost2010Prop51ColorRGB
 90
-16777216
102
RTVSPost2010PropOp51
 70
     0
102
RTVSPost2010Prop52
140
1.0
102
RTVSPost2010PropOp52
 70
     0
102
RTVSPost2010Prop53
 90
        2
102
RTVSPost2010PropOp53
 70
     1
102
RTVSPost2010Prop54
  1
strokes_ogs.tif
102
RTVSPost2010PropOp54
 70
     1
102
RTVSPost2010Prop55
280
     0
102
RTVSPost2010PropOp55
 70
     1
102
RTVSPost2010Prop56
140
1.0
102
RTVSPost2010PropOp56
 70
     1
102
RTVSPost2010Prop57
140
1.0
102
RTVSPost2010PropOp57
 70
     1
102
RTVSPropertyOp0
 70
     1
102
RTVSPropertyOp1
 70
     1
102
RTVSPropertyOp2
 70
     1
102
RTVSPropertyOp3
 70
     1
102
RTVSPropertyOp4
 70
     1
102
RTVSPropertyOp5
 70
     1
102
RTVSPropertyOp6
 70
     1
102
RTVSPropertyOp7
 70
     1
102
RTVSPropertyOp8
 70
     1
102
RTVSPropertyOp9
 70
     1
102
RTVSPropertyOp10
 70
     1
102
RTVSPropertyOp11
 70
     1
102
RTVSPropertyOp12
 70
     1
102
RTVSPropertyOp13
 70
     1
102
RTVSPropertyOp14
 70
     1
102
RTVSPropertyOp15
 70
     1
102
RTVSPropertyOp16
 70
     1
102
RTVSPropertyOp17
 70
     1
102
RTVSPropertyOp18
 70
     1
102
RTVSPropertyOp19
 70
     1
102
RTVSPropertyOp20
 70
     1
102
RTVSPropertyOp21
 70
     1
102
RTVSPropertyOp22
 70
     1
102
RTVSPropertyOp23
 70
     1
102
RTVSPropertyOp24
 70
     1
102
RTVSPropertyOp25
 70
     1
102
RTVSPropertyOp26
 70
     1
102
RTVSPropertyOp27
 70
     1
102
RTVSPropertyOp28
 70
     1
102
RTVSPropertyOp29
 70
     1
102
RTVSPropertyOp30
 70
     1
102
RTVSPropertyOp31
 70
     1
102
RTVSPropertyOp32
 70
     1
102
RTVSPropertyOp33
 70
     1
102
RTVSPropertyOp34
 70
     1
102
RTVSPropertyOp35
 70
     1
102
RTVSPropertyOp36
 70
     1
102
RTVSPropertyOp37
 70
     1
102
RTVSPropertyOp38
 70
     1
102
RTVSPropertyOp39
 70
     1
102
RTVSPropertyOp40
 70
     1
102
RTVSPropertyOp41
 70
     1
102
RTVSPropertyOp42
 70
     1
102
RTVSPropertyOp43
 70
     1
102
RTVSPropertyOp44
 70
     1
102
RTVSPropertyOp45
 70
     1
102
RTVSPropertyOp46
 70
     1
102
RTVSPropertyOp47
 70
     1
102
RTVSPropertyOp48
 70
     1
102
RTVSPropertyOp49
 70
     1
102
RTVSPropertyOp50
 70
     1
102
RTVSPropertyOp51
 70
     0
102
RTVSPropertyOp52
 70
     0
102
RTVSPropertyOp53
 70
     1
102
RTVSPropertyOp54
 70
     1
102
RTVSPropertyOp55
 70
     1
102
RTVSPropertyOp56
 70
     1
102
RTVSPropertyOp57
 70
     1
102
RTVSPropertyOp58
 70
     1
102
RTVSPropertyOp59
 70
     1
102
RTVSPropertyOp60
 70
     1
102
RTVSPropertyOp61
 70
     1
102
RTVSPropertyOp62
 70
     1
  0
XRECORD
  5
155A
102
{ACAD_REACTORS
330
1559
102
}
330
1559
100
AcDbXrecord
280
     1
102
RTVSPost2010Prop28
280
     0
102
RTVSPost2010PropOp28
 70
     1
102
RTVSPost2010Prop29
280
     1
102
RTVSPost2010PropOp29
 70
     1
102
RTVSPost2010Prop30
280
     1
102
RTVSPost2010PropOp30
 70
     1
102
RTVSPost2010Prop31
280
     0
102
RTVSPost2010PropOp31
 70
     1
102
RTVSPost2010Prop32
280
     0
102
RTVSPost2010PropOp32
 70
     1
102
RTVSPost2010Prop33
280
     0
102
RTVSPost2010PropOp33
 70
     1
102
RTVSPost2010Prop34
280
     0
102
RTVSPost2010PropOp34
 70
     1
102
RTVSPost2010Prop35
280
     0
102
RTVSPost2010PropOp35
 70
     1
102
RTVSPost2010Prop36
280
     0
102
RTVSPost2010PropOp36
 70
     1
102
RTVSPost2010Prop37
 90
       50
102
RTVSPost2010PropOp37
 70
     1
102
RTVSPost2010Prop38
140
0.0
102
RTVSPost2010PropOp38
 70
     1
102
RTVSPost2010Prop39
140
1.0
102
RTVSPost2010PropOp39
 70
     1
102
RTVSPost2010Prop40
 90
        0
102
RTVSPost2010PropOp40
 70
     1
102
RTVSPost2010Prop41ColorIndex
 90
       18
102
RTVSPost2010Prop41ColorRGB
 90
-16777216
102
RTVSPost2010PropOp41
 70
     1
102
RTVSPost2010Prop42
 90
       50
102
RTVSPost2010PropOp42
 70
     1
102
RTVSPost2010Prop43
 90
        3
102
RTVSPost2010PropOp43
 70
     1
102
RTVSPost2010Prop44ColorIndex
 90
        5
102
RTVSPost2010Prop44ColorRGB
 90
      255
102
RTVSPost2010PropOp44
 70
     1
102
RTVSPost2010Prop45
280
     0
102
RTVSPost2010PropOp45
 70
     1
102
RTVSPost2010Prop46
 90
       50
102
RTVSPost2010PropOp46
 70
     1
102
RTVSPost2010Prop47
 90
       50
102
RTVSPost2010PropOp47
 70
     1
102
RTVSPost2010Prop48
 90
       50
102
RTVSPost2010PropOp48
 70
     1
102
RTVSPost2010Prop49
280
     0
102
RTVSPost2010PropOp49
 70
     1
102
RTVSPost2010Prop50
 90
       50
102
RTVSPost2010PropOp50
 70
     1
102
RTVSPost2010Prop51ColorIndex
 90
      256
102
RTVSPost2010Prop51ColorRGB
 90
-16777216
102
RTVSPost2010PropOp51
 70
     0
102
RTVSPost2010Prop52
140
1.0
102
RTVSPost2010PropOp52
 70
     0
102
RTVSPost2010Prop53
 90
        2
102
RTVSPost2010PropOp53
 70
     1
102
RTVSPost2010Prop54
  1
strokes_ogs.tif
102
RTVSPost2010PropOp54
 70
     1
102
RTVSPost2010Prop55
280
     0
102
RTVSPost2010PropOp55
 70
     1
102
RTVSPost2010Prop56
140
1.0
102
RTVSPost2010PropOp56
 70
     1
102
RTVSPost2010Prop57
140
1.0
102
RTVSPost2010PropOp57
 70
     1
102
RTVSPropertyOp0
 70
     1
102
RTVSPropertyOp1
 70
     1
102
RTVSPropertyOp2
 70
     1
102
RTVSPropertyOp3
 70
     1
102
RTVSPropertyOp4
 70
     1
102
RTVSPropertyOp5
 70
     1
102
RTVSPropertyOp6
 70
     1
102
RTVSPropertyOp7
 70
     1
102
RTVSPropertyOp8
 70
     1
102
RTVSPropertyOp9
 70
     1
102
RTVSPropertyOp10
 70
     1
102
RTVSPropertyOp11
 70
     1
102
RTVSPropertyOp12
 70
     1
102
RTVSPropertyOp13
 70
     1
102
RTVSPropertyOp14
 70
     1
102
RTVSPropertyOp15
 70
     1
102
RTVSPropertyOp16
 70
     1
102
RTVSPropertyOp17
 70
     1
102
RTVSPropertyOp18
 70
     1
102
RTVSPropertyOp19
 70
     1
102
RTVSPropertyOp20
 70
     1
102
RTVSPropertyOp21
 70
     1
102
RTVSPropertyOp22
 70
     1
102
RTVSPropertyOp23
 70
     1
102
RTVSPropertyOp24
 70
     1
102
RTVSPropertyOp25
 70
     1
102
RTVSPropertyOp26
 70
     1
102
RTVSPropertyOp27
 70
     1
102
RTVSPropertyOp28
 70
     1
102
RTVSPropertyOp29
 70
     1
102
RTVSPropertyOp30
 70
     1
102
RTVSPropertyOp31
 70
     1
102
RTVSPropertyOp32
 70
     1
102
RTVSPropertyOp33
 70
     1
102
RTVSPropertyOp34
 70
     1
102
RTVSPropertyOp35
 70
     1
102
RTVSPropertyOp36
 70
     1
102
RTVSPropertyOp37
 70
     1
102
RTVSPropertyOp38
 70
     1
102
RTVSPropertyOp39
 70
     1
102
RTVSPropertyOp40
 70
     1
102
RTVSPropertyOp41
 70
     1
102
RTVSPropertyOp42
 70
     1
102
RTVSPropertyOp43
 70
     1
102
RTVSPropertyOp44
 70
     1
102
RTVSPropertyOp45
 70
     1
102
RTVSPropertyOp46
 70
     1
102
RTVSPropertyOp47
 70
     1
102
RTVSPropertyOp48
 70
     1
102
RTVSPropertyOp49
 70
     1
102
RTVSPropertyOp50
 70
     1
102
RTVSPropertyOp51
 70
     0
102
RTVSPropertyOp52
 70
     0
102
RTVSPropertyOp53
 70
     1
102
RTVSPropertyOp54
 70
     1
102
RTVSPropertyOp55
 70
     1
102
RTVSPropertyOp56
 70
     1
102
RTVSPropertyOp57
 70
     1
102
RTVSPropertyOp58
 70
     1
102
RTVSPropertyOp59
 70
     1
102
RTVSPropertyOp60
 70
     1
102
RTVSPropertyOp61
 70
     1
102
RTVSPropertyOp62
 70
     1
  0
XRECORD
  5
157A
102
{ACAD_REACTORS
330
1579
102
}
330
1579
100
AcDbXrecord
280
     1
102
RTVSPost2010Prop28
280
     0
102
RTVSPost2010PropOp28
 70
     1
102
RTVSPost2010Prop29
280
     1
102
RTVSPost2010PropOp29
 70
     1
102
RTVSPost2010Prop30
280
     1
102
RTVSPost2010PropOp30
 70
     1
102
RTVSPost2010Prop31
280
     0
102
RTVSPost2010PropOp31
 70
     1
102
RTVSPost2010Prop32
280
     0
102
RTVSPost2010PropOp32
 70
     1
102
RTVSPost2010Prop33
280
     0
102
RTVSPost2010PropOp33
 70
     1
102
RTVSPost2010Prop34
280
     0
102
RTVSPost2010PropOp34
 70
     1
102
RTVSPost2010Prop35
280
     0
102
RTVSPost2010PropOp35
 70
     1
102
RTVSPost2010Prop36
280
     0
102
RTVSPost2010PropOp36
 70
     1
102
RTVSPost2010Prop37
 90
       50
102
RTVSPost2010PropOp37
 70
     1
102
RTVSPost2010Prop38
140
0.0
102
RTVSPost2010PropOp38
 70
     1
102
RTVSPost2010Prop39
140
1.0
102
RTVSPost2010PropOp39
 70
     1
102
RTVSPost2010Prop40
 90
        0
102
RTVSPost2010PropOp40
 70
     1
102
RTVSPost2010Prop41ColorIndex
 90
       18
102
RTVSPost2010Prop41ColorRGB
 90
-16777216
102
RTVSPost2010PropOp41
 70
     1
102
RTVSPost2010Prop42
 90
       50
102
RTVSPost2010PropOp42
 70
     1
102
RTVSPost2010Prop43
 90
        3
102
RTVSPost2010PropOp43
 70
     1
102
RTVSPost2010Prop44ColorIndex
 90
        5
102
RTVSPost2010Prop44ColorRGB
 90
      255
102
RTVSPost2010PropOp44
 70
     1
102
RTVSPost2010Prop45
280
     0
102
RTVSPost2010PropOp45
 70
     1
102
RTVSPost2010Prop46
 90
       50
102
RTVSPost2010PropOp46
 70
     1
102
RTVSPost2010Prop47
 90
       50
102
RTVSPost2010PropOp47
 70
     1
102
RTVSPost2010Prop48
 90
       50
102
RTVSPost2010PropOp48
 70
     1
102
RTVSPost2010Prop49
280
     0
102
RTVSPost2010PropOp49
 70
     1
102
RTVSPost2010Prop50
 90
       50
102
RTVSPost2010PropOp50
 70
     1
102
RTVSPost2010Prop51ColorIndex
 90
      256
102
RTVSPost2010Prop51ColorRGB
 90
-16777216
102
RTVSPost2010PropOp51
 70
     0
102
RTVSPost2010Prop52
140
1.0
102
RTVSPost2010PropOp52
 70
     0
102
RTVSPost2010Prop53
 90
        2
102
RTVSPost2010PropOp53
 70
     1
102
RTVSPost2010Prop54
  1
strokes_ogs.tif
102
RTVSPost2010PropOp54
 70
     1
102
RTVSPost2010Prop55
280
     0
102
RTVSPost2010PropOp55
 70
     1
102
RTVSPost2010Prop56
140
1.0
102
RTVSPost2010PropOp56
 70
     1
102
RTVSPost2010Prop57
140
1.0
102
RTVSPost2010PropOp57
 70
     1
102
RTVSPropertyOp0
 70
     1
102
RTVSPropertyOp1
 70
     1
102
RTVSPropertyOp2
 70
     1
102
RTVSPropertyOp3
 70
     1
102
RTVSPropertyOp4
 70
     1
102
RTVSPropertyOp5
 70
     1
102
RTVSPropertyOp6
 70
     1
102
RTVSPropertyOp7
 70
     1
102
RTVSPropertyOp8
 70
     1
102
RTVSPropertyOp9
 70
     1
102
RTVSPropertyOp10
 70
     1
102
RTVSPropertyOp11
 70
     1
102
RTVSPropertyOp12
 70
     1
102
RTVSPropertyOp13
 70
     1
102
RTVSPropertyOp14
 70
     1
102
RTVSPropertyOp15
 70
     1
102
RTVSPropertyOp16
 70
     1
102
RTVSPropertyOp17
 70
     1
102
RTVSPropertyOp18
 70
     1
102
RTVSPropertyOp19
 70
     1
102
RTVSPropertyOp20
 70
     1
102
RTVSPropertyOp21
 70
     1
102
RTVSPropertyOp22
 70
     1
102
RTVSPropertyOp23
 70
     1
102
RTVSPropertyOp24
 70
     1
102
RTVSPropertyOp25
 70
     1
102
RTVSPropertyOp26
 70
     1
102
RTVSPropertyOp27
 70
     1
102
RTVSPropertyOp28
 70
     1
102
RTVSPropertyOp29
 70
     1
102
RTVSPropertyOp30
 70
     1
102
RTVSPropertyOp31
 70
     1
102
RTVSPropertyOp32
 70
     1
102
RTVSPropertyOp33
 70
     1
102
RTVSPropertyOp34
 70
     1
102
RTVSPropertyOp35
 70
     1
102
RTVSPropertyOp36
 70
     1
102
RTVSPropertyOp37
 70
     1
102
RTVSPropertyOp38
 70
     1
102
RTVSPropertyOp39
 70
     1
102
RTVSPropertyOp40
 70
     1
102
RTVSPropertyOp41
 70
     1
102
RTVSPropertyOp42
 70
     1
102
RTVSPropertyOp43
 70
     1
102
RTVSPropertyOp44
 70
     1
102
RTVSPropertyOp45
 70
     1
102
RTVSPropertyOp46
 70
     1
102
RTVSPropertyOp47
 70
     1
102
RTVSPropertyOp48
 70
     1
102
RTVSPropertyOp49
 70
     1
102
RTVSPropertyOp50
 70
     1
102
RTVSPropertyOp51
 70
     0
102
RTVSPropertyOp52
 70
     0
102
RTVSPropertyOp53
 70
     1
102
RTVSPropertyOp54
 70
     1
102
RTVSPropertyOp55
 70
     1
102
RTVSPropertyOp56
 70
     1
102
RTVSPropertyOp57
 70
     1
102
RTVSPropertyOp58
 70
     1
102
RTVSPropertyOp59
 70
     1
102
RTVSPropertyOp60
 70
     1
102
RTVSPropertyOp61
 70
     1
102
RTVSPropertyOp62
 70
     1
  0
ENDSEC
  0
EOF
