  0
SECTION
  2
HEADER
  9
$ACADVER
  1
AC1015
  9
$ACADMAINTVER
 70
    18
  9
$DWGCODEPAGE
  3
ANSI_932
  9
$INSBASE
 10
0.0
 20
0.0
 30
0.0
  9
$EXTMIN
 10
131.9999974344009
 20
127.0000003427717
 30
-150.0
  9
$EXTMAX
 10
725.4999974344009
 20
465.5
 30
0.0
  9
$LIMMIN
 10
0.0
 20
0.0
  9
$LIMMAX
 10
840.0
 20
594.0
  9
$ORTHOMODE
 70
     1
  9
$REGENMODE
 70
     1
  9
$FILLMODE
 70
     1
  9
$QTEXTMODE
 70
     0
  9
$MIRRTEXT
 70
     0
  9
$LTSCALE
 40
5.0
  9
$ATTMODE
 70
     1
  9
$TEXTSIZE
 40
3.0
  9
$TRACEWID
 40
0.05
  9
$TEXTSTYLE
  7
STANDARD
  9
$CLAYER
  8
0
  9
$CELTYPE
  6
BYLAYER
  9
$CECOLOR
 62
   256
  9
$CELTSCALE
 40
1.0
  9
$DISPSILH
 70
     0
  9
$DIMSCALE
 40
1.0
  9
$DIMASZ
 40
2.0
  9
$DIMEXO
 40
1.0
  9
$DIMDLI
 40
6.0
  9
$DIMRND
 40
0.0
  9
$DIMDLE
 40
0.0
  9
$DIMEXE
 40
2.0
  9
$DIMTP
 40
495.0
  9
$DIMTM
 40
0.0
  9
$DIMTXT
 40
3.0
  9
$DIMCEN
 40
0.0
  9
$DIMTSZ
 40
0.0
  9
$DIMTOL
 70
     0
  9
$DIMLIM
 70
     0
  9
$DIMTIH
 70
     0
  9
$DIMTOH
 70
     0
  9
$DIMSE1
 70
     0
  9
$DIMSE2
 70
     0
  9
$DIMTAD
 70
     3
  9
$DIMZIN
 70
     8
  9
$DIMBLK
  1

  9
$DIMASO
 70
     1
  9
$DIMSHO
 70
     0
  9
$DIMPOST
  1

  9
$DIMAPOST
  1

  9
$DIMALT
 70
     0
  9
$DIMALTD
 70
     2
  9
$DIMALTF
 40
25.4
  9
$DIMLFAC
 40
1.0
  9
$DIMTOFL
 70
     1
  9
$DIMTVP
 40
0.0
  9
$DIMTIX
 70
     0
  9
$DIMSOXD
 70
     0
  9
$DIMSAH
 70
     1
  9
$DIMBLK1
  1
OPEN
  9
$DIMBLK2
  1
OPEN
  9
$DIMSTYLE
  2
IMAO
  9
$DIMCLRD
 70
   256
  9
$DIMCLRE
 70
   256
  9
$DIMCLRT
 70
   256
  9
$DIMTFAC
 40
1.0
  9
$DIMGAP
 40
1.0
  9
$DIMJUST
 70
     0
  9
$DIMSD1
 70
     0
  9
$DIMSD2
 70
     0
  9
$DIMTOLJ
 70
     1
  9
$DIMTZIN
 70
     0
  9
$DIMALTZ
 70
     0
  9
$DIMALTTZ
 70
     0
  9
$DIMUPT
 70
     0
  9
$DIMDEC
 70
     4
  9
$DIMTDEC
 70
     4
  9
$DIMALTU
 70
     2
  9
$DIMALTTD
 70
     2
  9
$DIMTXSTY
  7
STANDARD
  9
$DIMAUNIT
 70
     0
  9
$DIMADEC
 70
     0
  9
$DIMALTRND
 40
0.0
  9
$DIMAZIN
 70
     0
  9
$DIMDSEP
 70
    46
  9
$DIMATFIT
 70
     0
  9
$DIMFRAC
 70
     0
  9
$DIMLDRBLK
  1
OPEN
  9
$DIMLUNIT
 70
     2
  9
$DIMLWD
 70
    -1
  9
$DIMLWE
 70
    -1
  9
$DIMTMOVE
 70
     0
  9
$LUNITS
 70
     2
  9
$LUPREC
 70
     2
  9
$SKETCHINC
 40
0.1
  9
$FILLETRAD
 40
0.0
  9
$AUNITS
 70
     0
  9
$AUPREC
 70
     2
  9
$MENU
  1
STDR12J
  9
$ELEVATION
 40
0.0
  9
$PELEVATION
 40
0.0
  9
$THICKNESS
 40
0.0
  9
$LIMCHECK
 70
     0
  9
$CHAMFERA
 40
0.0
  9
$CHAMFERB
 40
0.0
  9
$CHAMFERC
 40
0.0
  9
$CHAMFERD
 40
0.0
  9
$SKPOLY
 70
     0
  9
$TDCREATE
 40
2450690.700083218
  9
$TDUCREATE
 40
2450690.325083218
  9
$TDUPDATE
 40
2456471.642260278
  9
$TDUUPDATE
 40
2456471.267260278
  9
$TDINDWG
 40
0.6118807639
  9
$TDUSRTIMER
 40
0.6118807639
  9
$USRTIMER
 70
     1
  9
$ANGBASE
 50
0.0
  9
$ANGDIR
 70
     0
  9
$PDMODE
 70
     3
  9
$PDSIZE
 40
0.0
  9
$PLINEWID
 40
0.0
  9
$SPLFRAME
 70
     0
  9
$SPLINETYPE
 70
     6
  9
$SPLINESEGS
 70
     8
  9
$HANDSEED
  5
4AD
  9
$SURFTAB1
 70
     6
  9
$SURFTAB2
 70
     6
  9
$SURFTYPE
 70
     6
  9
$SURFU
 70
     6
  9
$SURFV
 70
     6
  9
$UCSBASE
  2

  9
$UCSNAME
  2

  9
$UCSORG
 10
0.0
 20
0.0
 30
0.0
  9
$UCSXDIR
 10
1.0
 20
0.0
 30
0.0
  9
$UCSYDIR
 10
0.0
 20
1.0
 30
0.0
  9
$UCSORTHOREF
  2

  9
$UCSORTHOVIEW
 70
     0
  9
$UCSORGTOP
 10
0.0
 20
0.0
 30
0.0
  9
$UCSORGBOTTOM
 10
0.0
 20
0.0
 30
0.0
  9
$UCSORGLEFT
 10
0.0
 20
0.0
 30
0.0
  9
$UCSORGRIGHT
 10
0.0
 20
0.0
 30
0.0
  9
$UCSORGFRONT
 10
0.0
 20
0.0
 30
0.0
  9
$UCSORGBACK
 10
0.0
 20
0.0
 30
0.0
  9
$PUCSBASE
  2

  9
$PUCSNAME
  2

  9
$PUCSORG
 10
0.0
 20
0.0
 30
0.0
  9
$PUCSXDIR
 10
1.0
 20
0.0
 30
0.0
  9
$PUCSYDIR
 10
0.0
 20
1.0
 30
0.0
  9
$PUCSORTHOREF
  2

  9
$PUCSORTHOVIEW
 70
     0
  9
$PUCSORGTOP
 10
0.0
 20
0.0
 30
0.0
  9
$PUCSORGBOTTOM
 10
0.0
 20
0.0
 30
0.0
  9
$PUCSORGLEFT
 10
0.0
 20
0.0
 30
0.0
  9
$PUCSORGRIGHT
 10
0.0
 20
0.0
 30
0.0
  9
$PUCSORGFRONT
 10
0.0
 20
0.0
 30
0.0
  9
$PUCSORGBACK
 10
0.0
 20
0.0
 30
0.0
  9
$USERI1
 70
     3
  9
$USERI2
 70
     1
  9
$USERI3
 70
     1
  9
$USERI4
 70
     1
  9
$USERI5
 70
     1
  9
$USERR1
 40
1.0
  9
$USERR2
 40
3.0
  9
$USERR3
 40
3.0
  9
$USERR4
 40
1.5
  9
$USERR5
 40
10.0
  9
$WORLDVIEW
 70
     1
  9
$SHADEDGE
 70
     3
  9
$SHADEDIF
 70
    70
  9
$TILEMODE
 70
     1
  9
$MAXACTVP
 70
    16
  9
$PINSBASE
 10
0.0
 20
0.0
 30
0.0
  9
$PLIMCHECK
 70
     0
  9
$PEXTMIN
 10
1.000000000000000E+20
 20
1.000000000000000E+20
 30
1.000000000000000E+20
  9
$PEXTMAX
 10
-1.000000000000000E+20
 20
-1.000000000000000E+20
 30
-1.000000000000000E+20
  9
$PLIMMIN
 10
0.0
 20
0.0
  9
$PLIMMAX
 10
12.0
 20
9.0
  9
$UNITMODE
 70
     0
  9
$VISRETAIN
 70
     0
  9
$PLINEGEN
 70
     0
  9
$PSLTSCALE
 70
     0
  9
$TREEDEPTH
 70
     0
  9
$CMLSTYLE
  2
STANDARD
  9
$CMLJUST
 70
     0
  9
$CMLSCALE
 40
1.0
  9
$PROXYGRAPHICS
 70
     1
  9
$MEASUREMENT
 70
     0
  9
$CELWEIGHT
370
    -1
  9
$ENDCAPS
280
     0
  9
$JOINSTYLE
280
     0
  9
$LWDISPLAY
290
     0
  9
$INSUNITS
 70
     0
  9
$HYPERLINKBASE
  1

  9
$STYLESHEET
  1

  9
$XEDIT
290
     1
  9
$CEPSNTYPE
380
     0
  9
$PSTYLEMODE
290
     1
  9
$FINGERPRINTGUID
  2
{2BE42C86-7C77-42BB-92A0-90383BCD40CD}
  9
$VERSIONGUID
  2
{19F060E8-5678-4B2F-B676-6A9A88C62FB2}
  9
$EXTNAMES
290
     1
  9
$PSVPSCALE
 40
0.0
  9
$OLESTARTUP
290
     0
  0
ENDSEC
  0
SECTION
  2
CLASSES
  0
CLASS
  1
ACDBDICTIONARYWDFLT
  2
AcDbDictionaryWithDefault
  3
ObjectDBX Classes
 90
        0
280
     0
281
     0
  0
CLASS
  1
ACDBPLACEHOLDER
  2
AcDbPlaceHolder
  3
ObjectDBX Classes
 90
        0
280
     0
281
     0
  0
CLASS
  1
LAYOUT
  2
AcDbLayout
  3
ObjectDBX Classes
 90
        0
280
     0
281
     0
  0
CLASS
  1
MATERIAL
  2
AcDbMaterial
  3
ObjectDBX Classes
 90
     1153
280
     0
281
     0
  0
CLASS
  1
VISUALSTYLE
  2
AcDbVisualStyle
  3
ObjectDBX Classes
 90
     4095
280
     0
281
     0
  0
CLASS
  1
TABLESTYLE
  2
AcDbTableStyle
  3
ObjectDBX Classes
 90
     4095
280
     0
281
     0
  0
CLASS
  1
DICTIONARYVAR
  2
AcDbDictionaryVar
  3
ObjectDBX Classes
 90
        0
280
     0
281
     0
  0
CLASS
  1
SORTENTSTABLE
  2
AcDbSortentsTable
  3
ObjectDBX Classes
 90
        0
280
     0
281
     0
  0
CLASS
  1
SCALE
  2
AcDbScale
  3
ObjectDBX Classes
 90
     1153
280
     0
281
     0
  0
CLASS
  1
MLEADERSTYLE
  2
AcDbMLeaderStyle
  3
ACDB_MLEADERSTYLE_CLASS
 90
    36863
280
     0
281
     0
  0
CLASS
  1
CELLSTYLEMAP
  2
AcDbCellStyleMap
  3
ObjectDBX Classes
 90
     1152
280
     0
281
     0
  0
ENDSEC
  0
SECTION
  2
TABLES
  0
TABLE
  2
VPORT
  5
28
330
0
100
AcDbSymbolTable
 70
     1
  0
VPORT
  5
29
330
28
100
AcDbSymbolTableRecord
100
AcDbViewportTableRecord
  2
*Active
 70
     0
 10
0.0
 20
0.0
 11
1.0
 21
1.0
 12
612.4023662778208
 22
462.0524667893866
 13
0.0
 23
0.0
 14
0.5
 24
0.5
 15
20.0
 25
20.0
 16
0.0
 26
0.0
 36
1.0
 17
0.0
 27
0.0
 37
0.0
 40
733.2968855726261
 41
2.240398293029871
 42
50.0
 43
0.0
 44
0.0
 50
0.0
 51
0.0
 71
     0
 72
   500
 73
     1
 74
     0
 75
     1
 76
     1
 77
     0
 78
     0
281
     0
 65
     1
110
0.0
120
0.0
130
0.0
111
1.0
121
0.0
131
0.0
112
0.0
122
1.0
132
0.0
 79
     0
146
0.0
1001
ACAD_NAV_VCDISPLAY
1070
     3
  0
ENDTAB
  0
TABLE
  2
LTYPE
  5
23
330
0
100
AcDbSymbolTable
 70
     2
  0
LTYPE
  5
24
330
23
100
AcDbSymbolTableRecord
100
AcDbLinetypeTableRecord
  2
BYBLOCK
 70
     0
  3

 72
    65
 73
     0
 40
0.0
  0
LTYPE
  5
25
330
23
100
AcDbSymbolTableRecord
100
AcDbLinetypeTableRecord
  2
BYLAYER
 70
     0
  3

 72
    65
 73
     0
 40
0.0
  0
LTYPE
  5
10
330
23
100
AcDbSymbolTableRecord
100
AcDbLinetypeTableRecord
  2
CONTINUOUS
 70
     0
  3
実線
 72
    65
 73
     0
 40
0.0
  0
LTYPE
  5
8C
330
23
100
AcDbSymbolTableRecord
100
AcDbLinetypeTableRecord
  2
CENTER
 70
     0
  3
____ _ ____ _ ____ _ ____ _ ____ _ ____ _ ____
 72
    65
 73
     4
 40
2.0
 49
1.25
 74
     0
 49
-0.25
 74
     0
 49
0.25
 74
     0
 49
-0.25
 74
     0
  0
ENDTAB
  0
TABLE
  2
LAYER
  5
1C
102
{ACAD_XDICTIONARY
360
1D
102
}
330
0
100
AcDbSymbolTable
 70
     1
  0
LAYER
  5
6
102
{ACAD_XDICTIONARY
360
7
102
}
330
1C
100
AcDbSymbolTableRecord
100
AcDbLayerTableRecord
  2
0
 70
     0
 62
     7
  6
CONTINUOUS
370
    -3
390
9
  0
ENDTAB
  0
TABLE
  2
STYLE
  5
20
330
0
100
AcDbSymbolTable
 70
     2
  0
STYLE
  5
21
330
20
100
AcDbSymbolTableRecord
100
AcDbTextStyleTableRecord
  2
STANDARD
 70
     0
 40
0.0
 41
1.0
 50
0.0
 71
     0
 42
3.0
  3
ROMANS.shx
  4
bigfont.shx
  0
STYLE
  5
31
330
20
100
AcDbSymbolTableRecord
100
AcDbTextStyleTableRecord
  2
K
 70
     0
 40
0.0
 41
1.0
 50
0.0
 71
     0
 42
1.0
  3
ROMANS
  4
EXTFONT
  0
ENDTAB
  0
TABLE
  2
VIEW
  5
26
330
0
100
AcDbSymbolTable
 70
     0
  0
ENDTAB
  0
TABLE
  2
UCS
  5
27
330
0
100
AcDbSymbolTable
 70
     0
  0
ENDTAB
  0
TABLE
  2
APPID
  5
2E
330
0
100
AcDbSymbolTable
 70
     3
  0
APPID
  5
2C
330
2E
100
AcDbSymbolTableRecord
100
AcDbRegAppTableRecord
  2
ACAD
 70
     0
  0
APPID
  5
17
330
2E
100
AcDbSymbolTableRecord
100
AcDbRegAppTableRecord
  2
ACAD_PSEXT
 70
     0
  0
APPID
  5
2D
330
2E
100
AcDbSymbolTableRecord
100
AcDbRegAppTableRecord
  2
ACAD_NAV_VCDISPLAY
 70
     0
  0
ENDTAB
  0
TABLE
  2
DIMSTYLE
  5
2F
330
0
100
AcDbSymbolTable
 70
     1
100
AcDbDimStyleTable
 71
     1
340
30
  0
DIMSTYLE
105
30
330
2F
100
AcDbSymbolTableRecord
100
AcDbDimStyleTableRecord
  2
IMAO
 70
     0
 41
1.5
 42
1.0
 43
6.0
 44
1.0
 47
495.0
 73
     0
 74
     0
 77
     1
 78
     8
140
3.0
141
0.0
172
     1
174
     1
271
     2
272
     2
279
     2
284
     8
285
     8
286
     8
340
31
341
32
342
32
  0
ENDTAB
  0
TABLE
  2
BLOCK_RECORD
  5
1
330
0
100
AcDbSymbolTable
 70
     2
  0
BLOCK_RECORD
  5
2
102
{ACAD_XDICTIONARY
360
3
102
}
330
1
100
AcDbSymbolTableRecord
100
AcDbBlockTableRecord
  2
*MODEL_SPACE
340
15
  0
BLOCK_RECORD
  5
18
330
1
100
AcDbSymbolTableRecord
100
AcDbBlockTableRecord
  2
*PAPER_SPACE
340
1B
  0
BLOCK_RECORD
  5
32
330
1
100
AcDbSymbolTableRecord
100
AcDbBlockTableRecord
  2
ARROW
340
0
  0
BLOCK_RECORD
  5
43
330
1
100
AcDbSymbolTableRecord
100
AcDbBlockTableRecord
  2
_OPEN
340
0
  0
ENDTAB
  0
ENDSEC
  0
SECTION
  2
BLOCKS
  0
BLOCK
  5
5
330
2
100
AcDbEntity
  8
0
100
AcDbBlockBegin
  2
*MODEL_SPACE
 70
     0
 10
0.0
 20
0.0
 30
0.0
  3
*MODEL_SPACE
  1

  0
ENDBLK
  5
14
330
2
100
AcDbEntity
  8
0
100
AcDbBlockEnd
  0
BLOCK
  5
19
330
18
100
AcDbEntity
 67
     1
  8
0
100
AcDbBlockBegin
  2
*PAPER_SPACE
 70
     0
 10
0.0
 20
0.0
 30
0.0
  3
*PAPER_SPACE
  1

  0
ENDBLK
  5
1A
330
18
100
AcDbEntity
 67
     1
  8
0
100
AcDbBlockEnd
  0
BLOCK
  5
33
330
32
100
AcDbEntity
  8
0
100
AcDbBlockBegin
  2
ARROW
 70
     0
 10
1.0
 20
0.5
 30
0.0
  3
ARROW
  1

  0
LINE
  5
34
330
32
100
AcDbEntity
  8
0
100
AcDbLine
 10
1.0
 20
0.5
 30
0.0
 11
-0.5000000000000214
 21
0.0980762113533018
 31
0.0
  0
LINE
  5
35
330
32
100
AcDbEntity
  8
0
100
AcDbLine
 10
0.0
 20
0.5
 30
0.0
 11
1.0
 21
0.5
 31
0.0
  0
LINE
  5
36
330
32
100
AcDbEntity
  8
0
100
AcDbLine
 10
1.0
 20
0.5
 30
0.0
 11
-0.4999999999999575
 21
0.9019237886467408
 31
0.0
  0
ENDBLK
  5
37
330
32
100
AcDbEntity
  8
0
100
AcDbBlockEnd
  0
BLOCK
  5
44
330
43
100
AcDbEntity
  8
0
100
AcDbBlockBegin
  2
_OPEN
 70
     0
 10
0.0
 20
0.0
 30
0.0
  3
_OPEN
  1

  0
LINE
  5
45
330
43
100
AcDbEntity
  8
0
  6
ByBlock
 62
     0
100
AcDbLine
 10
-1.0
 20
0.1666666666666666
 30
0.0
 11
0.0
 21
0.0
 31
0.0
  0
LINE
  5
46
330
43
100
AcDbEntity
  8
0
  6
ByBlock
 62
     0
100
AcDbLine
 10
0.0
 20
0.0
 30
0.0
 11
-1.0
 21
-0.1666666666666666
 31
0.0
  0
LINE
  5
47
330
43
100
AcDbEntity
  8
0
  6
ByBlock
 62
     0
100
AcDbLine
 10
0.0
 20
0.0
 30
0.0
 11
-1.0
 21
0.0
 31
0.0
  0
ENDBLK
  5
48
330
43
100
AcDbEntity
  8
0
100
AcDbBlockEnd
  0
ENDSEC
  0
SECTION
  2
ENTITIES
  0
LINE
  5
5F
330
2
100
AcDbEntity
  8
0
  6
Continuous
 62
     7
 48
10.0
100
AcDbLine
 10
321.4999974344012
 20
394.4999996572261
 30
0.0
 11
525.4999974344008
 21
394.4999996572261
 31
0.0
  0
LINE
  5
60
330
2
100
AcDbEntity
  8
0
  6
Continuous
 62
     7
 48
10.0
100
AcDbLine
 10
321.4999974344014
 20
410.4999996572258
 30
0.0
 11
525.4999974344008
 21
410.4999996572258
 31
0.0
  0
LINE
  5
61
330
2
100
AcDbEntity
  8
0
  6
Continuous
 62
     7
 48
10.0
100
AcDbLine
 10
321.499997434401
 20
427.4999996572257
 30
0.0
 11
525.4999974344008
 21
427.4999996572257
 31
0.0
  0
LINE
  5
62
330
2
100
AcDbEntity
  8
0
  6
Continuous
 62
     7
 48
10.0
100
AcDbLine
 10
321.499997434401
 20
426.4999996572258
 30
0.0
 11
525.4999974344008
 21
426.4999996572258
 31
0.0
  0
LINE
  5
63
330
2
100
AcDbEntity
  8
0
  6
Continuous
 62
     7
 48
10.0
100
AcDbLine
 10
321.499997434401
 20
424.4999996572259
 30
0.0
 11
525.4999974344008
 21
424.4999996572259
 31
0.0
  0
LINE
  5
64
330
2
100
AcDbEntity
  8
0
  6
Continuous
 62
     7
 48
10.0
100
AcDbLine
 10
321.499997434401
 20
423.4999996572256
 30
0.0
 11
525.4999974344008
 21
423.4999996572256
 31
0.0
  0
LINE
  5
65
330
2
100
AcDbEntity
  8
0
  6
Continuous
 62
     7
 48
10.0
100
AcDbLine
 10
321.499997434401
 20
435.4999996572257
 30
0.0
 11
525.4999974344008
 21
435.4999996572257
 31
0.0
  0
LINE
  5
66
330
2
100
AcDbEntity
  8
0
  6
Continuous
 62
     7
 48
10.0
100
AcDbLine
 10
321.499997434401
 20
434.4999996572258
 30
0.0
 11
525.4999974344008
 21
434.4999996572258
 31
0.0
  0
LINE
  5
67
330
2
100
AcDbEntity
  8
0
  6
Continuous
 62
     7
 48
10.0
100
AcDbLine
 10
321.499997434401
 20
432.4999996572257
 30
0.0
 11
525.4999974344008
 21
432.4999996572257
 31
0.0
  0
LINE
  5
68
330
2
100
AcDbEntity
  8
0
  6
Continuous
 62
     7
 48
10.0
100
AcDbLine
 10
321.499997434401
 20
431.4999996572256
 30
0.0
 11
525.4999974344008
 21
431.4999996572257
 31
0.0
  0
LINE
  5
69
330
2
100
AcDbEntity
  8
0
  6
Continuous
 62
     7
 48
10.0
100
AcDbLine
 10
321.499997434401
 20
439.4999996572257
 30
0.0
 11
525.4999974344008
 21
439.4999996572258
 31
0.0
  0
LINE
  5
6A
330
2
100
AcDbEntity
  8
0
  6
Continuous
 62
     7
 48
10.0
100
AcDbLine
 10
321.499997434401
 20
440.499999657226
 30
0.0
 11
525.4999974344008
 21
440.499999657226
 31
0.0
  0
LINE
  5
6B
330
2
100
AcDbEntity
  8
0
  6
Continuous
 62
     7
 48
10.0
100
AcDbLine
 10
321.499997434401
 20
442.4999996572259
 30
0.0
 11
525.4999974344008
 21
442.4999996572259
 31
0.0
  0
LINE
  5
6C
330
2
100
AcDbEntity
  8
0
  6
Continuous
 62
     7
 48
10.0
100
AcDbLine
 10
321.499997434401
 20
443.4999996572258
 30
0.0
 11
525.4999974344008
 21
443.4999996572258
 31
0.0
  0
LINE
  5
6D
330
2
100
AcDbEntity
  8
0
  6
Continuous
 62
     7
 48
10.0
100
AcDbLine
 10
556.4999965959973
 20
434.9999988591394
 30
0.0
 11
556.4999965959973
 21
414.9999988591393
 31
0.0
  0
CIRCLE
  5
6E
330
2
100
AcDbEntity
  8
0
  6
Continuous
 62
     7
 48
10.0
100
AcDbCircle
 10
189.4999974344009
 20
389.4999996572261
 30
0.0
 40
18.0
  0
ARC
  5
6F
330
2
100
AcDbEntity
  8
0
  6
Continuous
 62
     7
 48
10.0
100
AcDbCircle
 10
550.4999974344008
 20
354.2883915631243
 30
0.0
 40
4.0
100
AcDbArc
 50
270.9969305158152
 51
0.0
  0
LINE
  5
70
330
2
100
AcDbEntity
  8
0
  6
Continuous
 62
     7
 48
10.0
100
AcDbLine
 10
534.4981918633598
 20
351.6095266142467
 30
0.0
 11
533.4999974344007
 21
351.6095266142467
 31
0.0
  0
LINE
  5
71
330
2
100
AcDbEntity
  8
0
  6
Continuous
 62
     7
 48
10.0
100
AcDbLine
 10
534.4983856498921
 20
350.0093343219919
 30
0.0
 11
550.5695928022654
 21
350.2889970483544
 31
0.0
  0
ARC
  5
72
330
2
100
AcDbEntity
  8
0
  6
Continuous
 62
     7
 48
10.0
100
AcDbCircle
 10
550.4999974344008
 20
450.7119861932058
 30
0.0
 40
4.0
100
AcDbArc
 50
0.0
 51
89.00992909121944
  0
LINE
  5
73
330
2
100
AcDbEntity
  8
0
  6
Continuous
 62
     7
 48
10.0
100
AcDbLine
 10
554.4999965959973
 20
434.9999988591394
 30
0.0
 11
556.4999965959973
 21
434.9999988591394
 31
0.0
  0
LINE
  5
74
330
2
100
AcDbEntity
  8
0
  6
Continuous
 62
     7
 48
10.0
100
AcDbLine
 10
556.4999965959973
 20
434.9999988591394
 30
0.0
 11
557.4999965959973
 21
433.9999988591394
 31
0.0
  0
LINE
  5
75
330
2
100
AcDbEntity
  8
0
  6
Continuous
 62
     7
 48
10.0
100
AcDbLine
 10
534.4983856498921
 20
350.0093343219919
 30
0.0
 11
534.4983856498921
 21
454.9891187956117
 31
0.0
  0
LINE
  5
76
330
2
100
AcDbEntity
  8
0
  6
Continuous
 62
     7
 48
10.0
100
AcDbLine
 10
534.4979980768273
 20
453.3890233966231
 30
0.0
 11
533.4999974344007
 21
453.3892172207916
 31
0.0
  0
LINE
  5
77
330
2
100
AcDbEntity
  8
0
  6
Continuous
 62
     7
 48
10.0
100
AcDbLine
 10
534.4983856498921
 20
454.9891187956117
 30
0.0
 11
550.5691139833463
 21
454.7113890114601
 31
0.0
  0
LINE
  5
78
330
2
100
AcDbEntity
  8
0
  6
Continuous
 62
     7
 48
10.0
100
AcDbLine
 10
554.4999965959973
 20
414.9999988591393
 30
0.0
 11
556.4999965959973
 21
414.9999988591393
 31
0.0
  0
LINE
  5
79
330
2
100
AcDbEntity
  8
0
  6
Continuous
 62
     7
 48
10.0
100
AcDbLine
 10
556.4999965959973
 20
414.9999988591393
 30
0.0
 11
557.4999965959973
 21
415.9999988591393
 31
0.0
  0
LINE
  5
7A
330
2
100
AcDbEntity
  8
0
  6
Continuous
 62
     7
 48
10.0
100
AcDbLine
 10
554.4999974344007
 20
450.7119861932058
 30
0.0
 11
554.4999974344007
 21
354.2883915631243
 31
0.0
  0
LINE
  5
7B
330
2
100
AcDbEntity
  8
0
  6
Continuous
 62
     7
 48
10.0
100
AcDbLine
 10
557.4999965959973
 20
433.9999988591394
 30
0.0
 11
557.4999965959973
 21
415.9999988591393
 31
0.0
  0
LINE
  5
7C
330
2
100
AcDbEntity
  8
0
  6
Continuous
 62
     7
 48
10.0
100
AcDbLine
 10
321.4999974344014
 20
349.4999996572261
 30
0.0
 11
321.499997434401
 21
455.4999996572258
 31
0.0
  0
LINE
  5
7D
330
2
100
AcDbEntity
  8
0
  6
Continuous
 62
     7
 48
10.0
100
AcDbLine
 10
525.4999974344008
 20
349.4999996572261
 30
0.0
 11
321.499997434401
 21
349.4999996572261
 31
0.0
  0
LINE
  5
7E
330
2
100
AcDbEntity
  8
0
  6
Continuous
 62
     7
 48
10.0
100
AcDbLine
 10
525.4999974344008
 20
455.4999996572258
 30
0.0
 11
321.499997434401
 21
455.4999996572258
 31
0.0
  0
CIRCLE
  5
7F
330
2
100
AcDbEntity
  8
0
  6
Continuous
 62
     7
 48
10.0
100
AcDbCircle
 10
719.4999974344009
 20
449.499999657226
 30
0.0
 40
4.0
  0
ARC
  5
80
330
2
100
AcDbEntity
  8
0
  6
Continuous
 62
     7
 48
10.0
100
AcDbCircle
 10
717.4999974344009
 20
447.4999996572258
 30
0.0
 40
8.0
100
AcDbArc
 50
0.0
 51
90.0
  0
LINE
  5
81
330
2
100
AcDbEntity
  8
0
  6
Continuous
 62
     7
 48
10.0
100
AcDbLine
 10
717.4999974344009
 20
455.4999996572258
 30
0.0
 11
618.4999974344008
 21
455.4999996572258
 31
0.0
  0
CIRCLE
  5
82
330
2
100
AcDbEntity
  8
0
  6
Continuous
 62
     7
 48
10.0
100
AcDbCircle
 10
719.4999974344009
 20
355.4999996572261
 30
0.0
 40
4.0
  0
ARC
  5
83
330
2
100
AcDbEntity
  8
0
  6
Continuous
 62
     7
 48
10.0
100
AcDbCircle
 10
717.4999974344009
 20
357.4999996572261
 30
0.0
 40
8.0
100
AcDbArc
 50
270.0
 51
0.0
  0
LINE
  5
84
330
2
100
AcDbEntity
  8
0
  6
Continuous
 62
     7
 48
10.0
100
AcDbLine
 10
717.4999974343712
 20
349.4999996572261
 30
0.0
 11
618.4999974344012
 21
349.4999996572261
 31
0.0
  0
LINE
  5
85
330
2
100
AcDbEntity
  8
0
  6
Continuous
 62
     7
 48
10.0
100
AcDbLine
 10
725.4999974344009
 20
447.4999996572258
 30
0.0
 11
725.4999974344009
 21
357.4999996572261
 31
0.0
  0
ARC
  5
86
330
2
100
AcDbEntity
  8
0
  6
Continuous
 62
     7
 48
10.0
100
AcDbCircle
 10
618.4999974344008
 20
447.4999996572258
 30
0.0
 40
8.0
100
AcDbArc
 50
90.0
 51
180.0
  0
CIRCLE
  5
87
330
2
100
AcDbEntity
  8
0
  6
Continuous
 62
     7
 48
10.0
100
AcDbCircle
 10
616.5000027509777
 20
449.499999657226
 30
0.0
 40
4.0
  0
CIRCLE
  5
88
330
2
100
AcDbEntity
  8
0
  6
Continuous
 62
     7
 48
10.0
100
AcDbCircle
 10
616.5000027509782
 20
355.4999996572261
 30
0.0
 40
4.0
  0
ARC
  5
89
330
2
100
AcDbEntity
  8
0
  6
Continuous
 62
     7
 48
10.0
100
AcDbCircle
 10
618.4999974344012
 20
357.4999996572261
 30
0.0
 40
8.0
100
AcDbArc
 50
180.0
 51
270.0
  0
LINE
  5
8A
330
2
100
AcDbEntity
  8
0
  6
Continuous
 62
     7
 48
10.0
100
AcDbLine
 10
610.4999974344008
 20
447.4999996572258
 30
0.0
 11
610.4999974344008
 21
357.4999996572261
 31
0.0
  0
LINE
  5
8B
330
2
100
AcDbEntity
  8
0
  6
CENTER
 62
     4
 48
2.0
100
AcDbLine
 10
668.0000000926893
 20
330.5
 30
0.0
 11
668.0000000926893
 21
465.5
 31
0.0
  0
LINE
  5
8D
330
2
100
AcDbEntity
  8
0
  6
Continuous
 62
     7
 48
10.0
100
AcDbLine
 10
694.8000935218325
 20
383.2000508068889
 30
-150.0
 11
641.2000951335019
 21
383.2000508068889
 31
-150.0
  0
CIRCLE
  5
8E
330
2
100
AcDbEntity
  8
0
  6
Continuous
 62
     7
 48
10.0
100
AcDbCircle
 10
667.9999974344008
 20
424.9999996572261
 30
-150.0
 40
9.000000052789083
  0
CIRCLE
  5
8F
330
2
100
AcDbEntity
  8
0
  6
Continuous
 62
     7
 48
10.0
100
AcDbCircle
 10
667.9999974344008
 20
424.9999996572261
 30
-150.0
 40
10.00016016849517
  0
LINE
  5
90
330
2
100
AcDbEntity
  8
0
  6
Continuous
 62
     7
 48
10.0
100
AcDbLine
 10
645.3062577489679
 20
434.8001691517593
 30
-150.0
 11
690.7061790138636
 21
434.8001691517593
 31
-150.0
  0
LINE
  5
91
330
2
100
AcDbEntity
  8
0
  6
Continuous
 62
     7
 48
10.0
100
AcDbLine
 10
639.0000564078166
 20
454.9999928349459
 30
-150.0
 11
696.9999780169339
 21
455.0001866214783
 31
-150.0
  0
LINE
  5
92
330
2
100
AcDbEntity
  8
0
  6
Continuous
 62
     7
 48
10.0
100
AcDbLine
 10
645.3062577489679
 20
450.2001911043113
 30
-150.0
 11
690.7061790138636
 21
450.2001911043113
 31
-150.0
  0
LINE
  5
93
330
2
100
AcDbEntity
  8
0
  6
Continuous
 62
     7
 48
10.0
100
AcDbLine
 10
696.9999780169339
 20
350.0002483484768
 30
-150.0
 11
639.0000564078166
 21
350.0000545619442
 31
-150.0
  0
ARC
  5
94
330
2
100
AcDbEntity
  8
0
  6
Continuous
 62
     7
 48
10.0
100
AcDbCircle
 10
668.0000172123753
 20
425.0000965487457
 30
-150.0
 40
10.59992954211934
100
AcDbArc
 50
180.0000163572054
 51
359.9999836427882
  0
LINE
  5
95
330
2
100
AcDbEntity
  8
0
  6
Continuous
 62
     7
 48
10.0
100
AcDbLine
 10
639.2000243313994
 20
385.2000247157251
 30
-150.0
 11
639.2000243313994
 21
430.5010179557712
 31
-150.0
  0
LINE
  5
96
330
2
100
AcDbEntity
  8
0
  6
Continuous
 62
     7
 48
10.0
100
AcDbLine
 10
635.000108590144
 20
451.0000450172731
 30
-150.0
 11
635.000108590144
 21
354.0000992728832
 31
-150.0
  0
CIRCLE
  5
97
330
2
100
AcDbEntity
  8
0
  6
Continuous
 62
     7
 48
10.0
100
AcDbCircle
 10
639.0000564078166
 20
354.0001961661494
 30
-150.0
 40
2.75
  0
ARC
  5
98
330
2
100
AcDbEntity
  8
0
  6
Continuous
 62
     7
 48
10.0
100
AcDbCircle
 10
639.0001283660668
 20
354.0002682724743
 30
-150.0
 40
3.999875860072322
100
AcDbArc
 50
359.9989671209181
 51
89.98437551525828
  0
ARC
  5
99
330
2
100
AcDbEntity
  8
0
  6
Continuous
 62
     7
 48
10.0
100
AcDbCircle
 10
641.2500564078166
 20
356.2501961661494
 30
-150.0
 40
1.767766952966368
100
AcDbArc
 50
188.1301023541547
 51
261.869897645845
  0
ARC
  5
9A
330
2
100
AcDbEntity
  8
0
  6
Continuous
 62
     7
 48
10.0
100
AcDbCircle
 10
636.7500564078166
 20
356.2501961661495
 30
-150.0
 40
1.767766952966368
100
AcDbArc
 50
278.130102354155
 51
351.8698976458454
  0
ARC
  5
9B
330
2
100
AcDbEntity
  8
0
  6
Continuous
 62
     7
 48
10.0
100
AcDbCircle
 10
636.7500564078166
 20
351.7501961661495
 30
-150.0
 40
1.767766952966368
100
AcDbArc
 50
8.130102354154709
 51
81.86989764584501
  0
ARC
  5
9C
330
2
100
AcDbEntity
  8
0
  6
Continuous
 62
     7
 48
10.0
100
AcDbCircle
 10
641.2500564078166
 20
351.7501961661493
 30
-150.0
 40
1.767766952966368
100
AcDbArc
 50
98.13010235415498
 51
171.8698976458453
  0
LINE
  5
9D
330
2
100
AcDbEntity
  8
0
  6
Continuous
 62
     7
 48
10.0
100
AcDbLine
 10
635.000108590144
 20
358.0020818491472
 30
-150.0
 11
639.0012191270117
 21
358.0001439838221
 31
-150.0
  0
ARC
  5
9E
330
2
100
AcDbEntity
  8
0
  6
Continuous
 62
     7
 48
10.0
100
AcDbCircle
 10
638.9999843348901
 20
353.9999303096096
 30
-150.0
 40
3.999875748314669
100
AcDbArc
 50
179.9975797041996
 51
270.0010324006907
  0
LINE
  5
9F
330
2
100
AcDbEntity
  8
0
  6
Continuous
 62
     7
 48
10.0
100
AcDbLine
 10
643.0013607312169
 20
350.0000545619442
 30
-150.0
 11
643.0000042254893
 21
354.001940244942
 31
-150.0
  0
ARC
  5
A0
330
2
100
AcDbEntity
  8
0
  6
Continuous
 62
     7
 48
10.0
100
AcDbCircle
 10
641.2001276153505
 20
385.2001540947608
 30
-150.0
 40
2.000103288135762
100
AcDbArc
 50
180.0037062449496
 51
192.1097095661449
  0
CIRCLE
  5
A1
330
2
100
AcDbEntity
  8
0
  6
Continuous
 62
     7
 48
10.0
100
AcDbCircle
 10
639.5000941113623
 20
383.2011058968893
 30
-150.0
 40
1.6
  0
LINE
  5
A2
330
2
100
AcDbEntity
  8
0
  6
Continuous
 62
     7
 48
10.0
100
AcDbLine
 10
644.306319241183
 20
449.2001557032601
 30
-150.0
 11
644.306319241183
 21
435.8002045528106
 31
-150.0
  0
ARC
  5
A3
330
2
100
AcDbEntity
  8
0
  6
Continuous
 62
     7
 48
10.0
100
AcDbCircle
 10
649.9125843374797
 20
430.4125720863822
 30
-150.0
 40
1.502601910021413
100
AcDbArc
 50
188.1301023541547
 51
261.869897645845
  0
ARC
  5
A4
330
2
100
AcDbEntity
  8
0
  6
Continuous
 62
     7
 48
10.0
100
AcDbCircle
 10
649.9125843374797
 20
426.5875720863822
 30
-150.0
 40
1.502601910021413
100
AcDbArc
 50
98.13010235415498
 51
171.8698976458453
  0
CIRCLE
  5
A5
330
2
100
AcDbEntity
  8
0
  6
Continuous
 62
     7
 48
10.0
100
AcDbCircle
 10
648.0000843374796
 20
428.5000720863822
 30
-150.0
 40
2.337499999999999
  0
LINE
  5
A6
330
2
100
AcDbEntity
  8
0
  6
Continuous
 62
     7
 48
10.0
100
AcDbLine
 10
655.4000168681538
 20
432.5009888367175
 30
-150.0
 11
641.2001149114762
 21
432.5009888367175
 31
-150.0
  0
ARC
  5
A7
330
2
100
AcDbEntity
  8
0
  6
Continuous
 62
     7
 48
10.0
100
AcDbCircle
 10
641.1999819881262
 20
430.5010509614561
 30
-150.0
 40
1.999937879678725
100
AcDbArc
 50
89.99619190824132
 51
179.9982564441171
  0
ARC
  5
A8
330
2
100
AcDbEntity
  8
0
  6
Continuous
 62
     7
 48
10.0
100
AcDbCircle
 10
646.0875843374793
 20
430.4125720863825
 30
-150.0
 40
1.502601910021413
100
AcDbArc
 50
278.130102354155
 51
351.8698976458454
  0
ARC
  5
A9
330
2
100
AcDbEntity
  8
0
  6
Continuous
 62
     7
 48
10.0
100
AcDbCircle
 10
646.0875843374793
 20
426.5875720863823
 30
-150.0
 40
1.502601910021413
100
AcDbArc
 50
8.130102354154709
 51
81.86989764584501
  0
ARC
  5
AA
330
2
100
AcDbEntity
  8
0
  6
Continuous
 62
     7
 48
10.0
100
AcDbCircle
 10
645.3062054788348
 20
435.8000553991697
 30
-150.0
 40
0.9998862487766302
100
AcDbArc
 50
179.9914531536318
 51
270.0029951987255
  0
ARC
  5
AB
330
2
100
AcDbEntity
  8
0
  6
Continuous
 62
     7
 48
10.0
100
AcDbCircle
 10
655.4001497915037
 20
430.5010509614561
 30
-150.0
 40
1.999937879678725
100
AcDbArc
 50
0.0017435558828549
 51
90.00380809175869
  0
LINE
  5
AC
330
2
100
AcDbEntity
  8
0
  6
Continuous
 62
     7
 48
10.0
100
AcDbLine
 10
657.4000876702562
 20
425.0000935226021
 30
-150.0
 11
657.4000876702562
 21
430.5011118211475
 31
-150.0
  0
CIRCLE
  5
AD
330
2
100
AcDbEntity
  8
0
  6
Continuous
 62
     7
 48
10.0
100
AcDbCircle
 10
646.999952043162
 20
442.5001801280354
 30
-150.0
 40
1.814999999999999
  0
CIRCLE
  5
AE
330
2
100
AcDbEntity
  8
0
  6
Continuous
 62
     7
 48
10.0
100
AcDbCircle
 10
639.0000564078166
 20
451.0001419105393
 30
-150.0
 40
2.75
  0
LINE
  5
AF
330
2
100
AcDbEntity
  8
0
  6
Continuous
 62
     7
 48
10.0
100
AcDbLine
 10
643.0011669446844
 20
454.9999928349459
 30
-150.0
 11
643.0000042254893
 21
451.0026611354621
 31
-150.0
  0
ARC
  5
B0
330
2
100
AcDbEntity
  8
0
  6
Continuous
 62
     7
 48
10.0
100
AcDbCircle
 10
638.9998189453738
 20
451.0002824797161
 30
-150.0
 40
3.999710362278849
100
AcDbArc
 50
89.99659835474499
 51
180.003401645255
  0
ARC
  5
B1
330
2
100
AcDbEntity
  8
0
  6
Continuous
 62
     7
 48
10.0
100
AcDbCircle
 10
638.9999632472537
 20
451.0002356093396
 30
-150.0
 40
4.000041713625058
100
AcDbArc
 50
270.017988965126
 51
0.0347427422972201
  0
ARC
  5
B2
330
2
100
AcDbEntity
  8
0
  6
Continuous
 62
     7
 48
10.0
100
AcDbCircle
 10
641.2500564078166
 20
453.2501419105393
 30
-150.0
 40
1.767766952966368
100
AcDbArc
 50
188.1301023541547
 51
261.869897645845
  0
ARC
  5
B3
330
2
100
AcDbEntity
  8
0
  6
Continuous
 62
     7
 48
10.0
100
AcDbCircle
 10
636.7500564078166
 20
453.2501419105394
 30
-150.0
 40
1.767766952966368
100
AcDbArc
 50
278.130102354155
 51
351.8698976458454
  0
ARC
  5
B4
330
2
100
AcDbEntity
  8
0
  6
Continuous
 62
     7
 48
10.0
100
AcDbCircle
 10
636.7500564078166
 20
448.7501419105394
 30
-150.0
 40
1.767766952966368
100
AcDbArc
 50
8.130102354154709
 51
81.86989764584501
  0
ARC
  5
B5
330
2
100
AcDbEntity
  8
0
  6
Continuous
 62
     7
 48
10.0
100
AcDbCircle
 10
641.2500564078166
 20
448.7501419105393
 30
-150.0
 40
1.767766952966368
100
AcDbArc
 50
98.13010235415498
 51
171.8698976458453
  0
LINE
  5
B6
330
2
100
AcDbEntity
  8
0
  6
Continuous
 62
     7
 48
10.0
100
AcDbLine
 10
635.000108590144
 20
447.0022288514583
 30
-150.0
 11
639.0012191270117
 21
447.0001940928669
 31
-150.0
  0
ARC
  5
B7
330
2
100
AcDbEntity
  8
0
  6
Continuous
 62
     7
 48
10.0
100
AcDbCircle
 10
648.4849520431618
 20
443.9851801280354
 30
-150.0
 40
1.166726188957802
100
AcDbArc
 50
188.1301023541547
 51
261.869897645845
  0
ARC
  5
B8
330
2
100
AcDbEntity
  8
0
  6
Continuous
 62
     7
 48
10.0
100
AcDbCircle
 10
645.514952043162
 20
443.9851801280354
 30
-150.0
 40
1.166726188957802
100
AcDbArc
 50
278.130102354155
 51
351.8698976458454
  0
ARC
  5
B9
330
2
100
AcDbEntity
  8
0
  6
Continuous
 62
     7
 48
10.0
100
AcDbCircle
 10
645.5149520431619
 20
441.0151801280354
 30
-150.0
 40
1.166726188957802
100
AcDbArc
 50
8.130102354154709
 51
81.86989764584501
  0
ARC
  5
BA
330
2
100
AcDbEntity
  8
0
  6
Continuous
 62
     7
 48
10.0
100
AcDbCircle
 10
648.4849520431618
 20
441.0151801280352
 30
-150.0
 40
1.166726188957802
100
AcDbArc
 50
98.13010235415498
 51
171.8698976458453
  0
ARC
  5
BB
330
2
100
AcDbEntity
  8
0
  6
Continuous
 62
     7
 48
10.0
100
AcDbCircle
 10
645.3062054788348
 20
449.200304856901
 30
-150.0
 40
0.9998862487766302
100
AcDbArc
 50
89.99700480127456
 51
180.0085468463682
  0
LINE
  5
BC
330
2
100
AcDbEntity
  8
0
  6
Continuous
 62
     7
 48
10.0
100
AcDbLine
 10
696.800164323935
 20
385.2000247157251
 30
-150.0
 11
696.800164323935
 21
430.5010179557712
 31
-150.0
  0
LINE
  5
BD
330
2
100
AcDbEntity
  8
0
  6
Continuous
 62
     7
 48
10.0
100
AcDbLine
 10
701.0001196211391
 20
451.0001419105393
 30
-150.0
 11
701.0001196211391
 21
354.0001961661494
 31
-150.0
  0
ARC
  5
BE
330
2
100
AcDbEntity
  8
0
  6
Continuous
 62
     7
 48
10.0
100
AcDbCircle
 10
697.0002368465308
 20
353.9999369278023
 30
-150.0
 40
4.000207056548561
100
AcDbArc
 50
90.00093162504624
 51
179.974081724078
  0
LINE
  5
BF
330
2
100
AcDbEntity
  8
0
  6
Continuous
 62
     7
 48
10.0
100
AcDbLine
 10
701.0001196211391
 20
358.0022756356798
 30
-150.0
 11
697.0011407361291
 21
358.0001439838221
 31
-150.0
  0
ARC
  5
C0
330
2
100
AcDbEntity
  8
0
  6
Continuous
 62
     7
 48
10.0
100
AcDbCircle
 10
697.000243864484
 20
354.0001240969467
 30
-150.0
 40
3.99987575730441
100
AcDbArc
 50
269.9961918960606
 51
0.0010323473559227
  0
ARC
  5
C1
330
2
100
AcDbEntity
  8
0
  6
Continuous
 62
     7
 48
10.0
100
AcDbCircle
 10
699.2637368607428
 20
356.2502930594158
 30
-150.0
 40
1.767766952966368
100
AcDbArc
 50
188.1301023541547
 51
261.869897645845
  0
ARC
  5
C2
330
2
100
AcDbEntity
  8
0
  6
Continuous
 62
     7
 48
10.0
100
AcDbCircle
 10
694.7637368607428
 20
356.2502930594159
 30
-150.0
 40
1.767766952966368
100
AcDbArc
 50
278.130102354155
 51
351.8698976458454
  0
ARC
  5
C3
330
2
100
AcDbEntity
  8
0
  6
Continuous
 62
     7
 48
10.0
100
AcDbCircle
 10
694.7637368607428
 20
351.7502930594158
 30
-150.0
 40
1.767766952966368
100
AcDbArc
 50
8.130102354154709
 51
81.86989764584501
  0
ARC
  5
C4
330
2
100
AcDbEntity
  8
0
  6
Continuous
 62
     7
 48
10.0
100
AcDbCircle
 10
699.2637368607428
 20
351.7502930594156
 30
-150.0
 40
1.767766952966368
100
AcDbArc
 50
98.13010235415498
 51
171.8698976458453
  0
CIRCLE
  5
C5
330
2
100
AcDbEntity
  8
0
  6
Continuous
 62
     7
 48
10.0
100
AcDbCircle
 10
697.0137368607428
 20
354.0002930594158
 30
-150.0
 40
2.75
  0
LINE
  5
C6
330
2
100
AcDbEntity
  8
0
  6
Continuous
 62
     7
 48
10.0
100
AcDbLine
 10
693.0013867049886
 20
350.0002483484768
 30
-150.0
 11
693.0002239857937
 21
354.0017464584096
 31
-150.0
  0
ARC
  5
C7
330
2
100
AcDbEntity
  8
0
  6
Continuous
 62
     7
 48
10.0
100
AcDbCircle
 10
694.800061039984
 20
385.2001540947608
 30
-150.0
 40
2.000103288135684
100
AcDbArc
 50
347.8902884518302
 51
359.9962937550504
  0
ARC
  5
C8
330
2
100
AcDbEntity
  8
0
  6
Continuous
 62
     7
 48
10.0
100
AcDbCircle
 10
694.800061039984
 20
385.2001540947608
 30
-150.0
 40
2.000103288135684
100
AcDbArc
 50
270.0009304883533
 51
272.8668032127008
  0
CIRCLE
  5
C9
330
2
100
AcDbEntity
  8
0
  6
Continuous
 62
     7
 48
10.0
100
AcDbCircle
 10
696.5000941113621
 20
383.2011058968893
 30
-150.0
 40
1.6
  0
LINE
  5
CA
330
2
100
AcDbEntity
  8
0
  6
Continuous
 62
     7
 48
10.0
100
AcDbLine
 10
694.8001132998069
 20
432.5009888367175
 30
-150.0
 11
680.5963356124788
 21
432.5009888367175
 31
-150.0
  0
ARC
  5
CB
330
2
100
AcDbEntity
  8
0
  6
Continuous
 62
     7
 48
10.0
100
AcDbCircle
 10
697.0000718281193
 20
451.0002360038383
 30
-150.0
 40
4.000042053790497
100
AcDbArc
 50
179.9735901878466
 51
270.0153108186287
  0
LINE
  5
CC
330
2
100
AcDbEntity
  8
0
  6
Continuous
 62
     7
 48
10.0
100
AcDbLine
 10
691.7061175216487
 20
435.8002045528106
 30
-150.0
 11
691.7061175216487
 21
449.2001557032601
 31
-150.0
  0
CIRCLE
  5
CD
330
2
100
AcDbEntity
  8
0
  6
Continuous
 62
     7
 48
10.0
100
AcDbCircle
 10
685.5037857619262
 20
437.0001307621527
 30
-150.0
 40
1.699895463234558
  0
ARC
  5
CE
330
2
100
AcDbEntity
  8
0
  6
Continuous
 62
     7
 48
10.0
100
AcDbCircle
 10
680.5962311618444
 20
430.5012157412382
 30
-150.0
 40
1.999773098207185
100
AcDbArc
 50
89.99700737021662
 51
180.0418428686699
  0
LINE
  5
CF
330
2
100
AcDbEntity
  8
0
  6
Continuous
 62
     7
 48
10.0
100
AcDbLine
 10
678.5999467544942
 20
425.0000935226021
 30
-150.0
 11
678.5964585969089
 21
430.4997553154199
 31
-150.0
  0
ARC
  5
D0
330
2
100
AcDbEntity
  8
0
  6
Continuous
 62
     7
 48
10.0
100
AcDbCircle
 10
686.0874500872712
 20
430.4125720863825
 30
-150.0
 40
1.502601910021413
100
AcDbArc
 50
278.130102354155
 51
351.8698976458454
  0
ARC
  5
D1
330
2
100
AcDbEntity
  8
0
  6
Continuous
 62
     7
 48
10.0
100
AcDbCircle
 10
686.087450087271
 20
426.5875720863823
 30
-150.0
 40
1.502601910021413
100
AcDbArc
 50
8.130102354154709
 51
81.86989764584501
  0
ARC
  5
D2
330
2
100
AcDbEntity
  8
0
  6
Continuous
 62
     7
 48
10.0
100
AcDbCircle
 10
689.9124500872709
 20
430.4125720863822
 30
-150.0
 40
1.502601910021413
100
AcDbArc
 50
188.1301023541547
 51
261.869897645845
  0
ARC
  5
D3
330
2
100
AcDbEntity
  8
0
  6
Continuous
 62
     7
 48
10.0
100
AcDbCircle
 10
689.9124500872709
 20
426.5875720863822
 30
-150.0
 40
1.502601910021413
100
AcDbArc
 50
98.13010235415498
 51
171.8698976458453
  0
CIRCLE
  5
D4
330
2
100
AcDbEntity
  8
0
  6
Continuous
 62
     7
 48
10.0
100
AcDbCircle
 10
687.9999500872711
 20
428.5000720863822
 30
-150.0
 40
2.337499999999999
  0
ARC
  5
D5
330
2
100
AcDbEntity
  8
0
  6
Continuous
 62
     7
 48
10.0
100
AcDbCircle
 10
690.7062312839967
 20
435.8000553991697
 30
-150.0
 40
0.9998862487766395
100
AcDbArc
 50
269.9970048012746
 51
0.0085468463681895
  0
ARC
  5
D6
330
2
100
AcDbEntity
  8
0
  6
Continuous
 62
     7
 48
10.0
100
AcDbCircle
 10
690.4848885950563
 20
443.9851801280354
 30
-150.0
 40
1.166726188957802
100
AcDbArc
 50
188.1301023541547
 51
261.869897645845
  0
ARC
  5
D7
330
2
100
AcDbEntity
  8
0
  6
Continuous
 62
     7
 48
10.0
100
AcDbCircle
 10
687.5148885950558
 20
443.9851801280354
 30
-150.0
 40
1.166726188957802
100
AcDbArc
 50
278.130102354155
 51
351.8698976458454
  0
ARC
  5
D8
330
2
100
AcDbEntity
  8
0
  6
Continuous
 62
     7
 48
10.0
100
AcDbCircle
 10
687.5148885950558
 20
441.0151801280354
 30
-150.0
 40
1.166726188957802
100
AcDbArc
 50
8.130102354154709
 51
81.86989764584501
  0
ARC
  5
D9
330
2
100
AcDbEntity
  8
0
  6
Continuous
 62
     7
 48
10.0
100
AcDbCircle
 10
690.4848885950563
 20
441.0151801280352
 30
-150.0
 40
1.166726188957802
100
AcDbArc
 50
98.13010235415498
 51
171.8698976458453
  0
CIRCLE
  5
DA
330
2
100
AcDbEntity
  8
0
  6
Continuous
 62
     7
 48
10.0
100
AcDbCircle
 10
688.9998885950562
 20
442.5001801280354
 30
-150.0
 40
1.814999999999999
  0
ARC
  5
DB
330
2
100
AcDbEntity
  8
0
  6
Continuous
 62
     7
 48
10.0
100
AcDbCircle
 10
690.7062312839967
 20
449.200304856901
 30
-150.0
 40
0.9998862487766302
100
AcDbArc
 50
359.9914531536318
 51
90.00299519872541
  0
ARC
  5
DC
330
2
100
AcDbEntity
  8
0
  6
Continuous
 62
     7
 48
10.0
100
AcDbCircle
 10
694.8002462231567
 20
430.5010509614561
 30
-150.0
 40
1.999937879678725
100
AcDbArc
 50
0.0017435558828549
 51
90.00380809175869
  0
CIRCLE
  5
DD
330
2
100
AcDbEntity
  8
0
  6
Continuous
 62
     7
 48
10.0
100
AcDbCircle
 10
696.9999130568393
 20
450.9999800544314
 30
-150.0
 40
2.75
  0
LINE
  5
DE
330
2
100
AcDbEntity
  8
0
  6
Continuous
 62
     7
 48
10.0
100
AcDbLine
 10
693.0011929184562
 20
455.0001866214783
 30
-150.0
 11
693.0000301992613
 21
451.0020797758646
 31
-150.0
  0
ARC
  5
DF
330
2
100
AcDbEntity
  8
0
  6
Continuous
 62
     7
 48
10.0
100
AcDbCircle
 10
696.9999130568393
 20
450.9999800544314
 30
-150.0
 40
4.000206567574511
100
AcDbArc
 50
0.0023182982495962
 51
89.99906956323583
  0
LINE
  5
E0
330
2
100
AcDbEntity
  8
0
  6
Continuous
 62
     7
 48
10.0
100
AcDbLine
 10
701.0001196211391
 20
447.0028102110558
 30
-150.0
 11
697.0011407361291
 21
447.0001940928669
 31
-150.0
  0
ARC
  5
E1
330
2
100
AcDbEntity
  8
0
  6
Continuous
 62
     7
 48
10.0
100
AcDbCircle
 10
699.2499130568393
 20
453.2499800544314
 30
-150.0
 40
1.767766952966368
100
AcDbArc
 50
188.1301023541547
 51
261.869897645845
  0
ARC
  5
E2
330
2
100
AcDbEntity
  8
0
  6
Continuous
 62
     7
 48
10.0
100
AcDbCircle
 10
694.7499130568393
 20
453.2499800544314
 30
-150.0
 40
1.767766952966368
100
AcDbArc
 50
278.130102354155
 51
351.8698976458454
  0
ARC
  5
E3
330
2
100
AcDbEntity
  8
0
  6
Continuous
 62
     7
 48
10.0
100
AcDbCircle
 10
694.7499130568393
 20
448.7499800544314
 30
-150.0
 40
1.767766952966368
100
AcDbArc
 50
8.130102354154709
 51
81.86989764584501
  0
ARC
  5
E4
330
2
100
AcDbEntity
  8
0
  6
Continuous
 62
     7
 48
10.0
100
AcDbCircle
 10
699.2499130568393
 20
448.7499800544311
 30
-150.0
 40
1.767766952966368
100
AcDbArc
 50
98.13010235415498
 51
171.8698976458453
  0
LINE
  5
E5
330
2
100
AcDbEntity
  8
0
  6
CENTER
 62
     4
 48
2.0
100
AcDbLine
 10
189.4999947761125
 20
330.5
 30
0.0
 11
189.4999947761125
 21
465.5
 31
0.0
  0
LINE
  5
E6
330
2
100
AcDbEntity
  8
0
  6
Continuous
 62
     7
 48
10.0
100
AcDbLine
 10
246.9999974344009
 20
447.4999996572258
 30
0.0
 11
246.9999974344009
 21
357.4999996572261
 31
0.0
  0
ARC
  5
E7
330
2
100
AcDbEntity
  8
0
  6
Continuous
 62
     7
 48
10.0
100
AcDbCircle
 10
238.9999974344005
 20
357.4999996572261
 30
0.0
 40
8.0
100
AcDbArc
 50
270.0
 51
0.0
  0
CIRCLE
  5
E8
330
2
100
AcDbEntity
  8
0
  6
Continuous
 62
     7
 48
10.0
100
AcDbCircle
 10
240.9999921178237
 20
355.4999996572261
 30
0.0
 40
4.0
  0
CIRCLE
  5
E9
330
2
100
AcDbEntity
  8
0
  6
Continuous
 62
     7
 48
10.0
100
AcDbCircle
 10
240.9999921178242
 20
449.499999657226
 30
0.0
 40
4.0
  0
ARC
  5
EA
330
2
100
AcDbEntity
  8
0
  6
Continuous
 62
     7
 48
10.0
100
AcDbCircle
 10
238.9999974344009
 20
447.4999996572258
 30
0.0
 40
8.0
100
AcDbArc
 50
0.0
 51
90.0
  0
LINE
  5
EB
330
2
100
AcDbEntity
  8
0
  6
Continuous
 62
     7
 48
10.0
100
AcDbLine
 10
131.9999974344009
 20
447.4999996572258
 30
0.0
 11
131.9999974344009
 21
357.4999996572261
 31
0.0
  0
LINE
  5
EC
330
2
100
AcDbEntity
  8
0
  6
Continuous
 62
     7
 48
10.0
100
AcDbLine
 10
139.9999974344305
 20
349.4999996572261
 30
0.0
 11
238.9999974344005
 21
349.4999996572261
 31
0.0
  0
ARC
  5
ED
330
2
100
AcDbEntity
  8
0
  6
Continuous
 62
     7
 48
10.0
100
AcDbCircle
 10
139.9999974344009
 20
357.4999996572261
 30
0.0
 40
8.0
100
AcDbArc
 50
180.0
 51
270.0
  0
CIRCLE
  5
EE
330
2
100
AcDbEntity
  8
0
  6
Continuous
 62
     7
 48
10.0
100
AcDbCircle
 10
137.9999974344009
 20
355.4999996572261
 30
0.0
 40
4.0
  0
LINE
  5
EF
330
2
100
AcDbEntity
  8
0
  6
Continuous
 62
     7
 48
10.0
100
AcDbLine
 10
139.9999974344009
 20
455.4999996572258
 30
0.0
 11
238.9999974344009
 21
455.4999996572258
 31
0.0
  0
ARC
  5
F0
330
2
100
AcDbEntity
  8
0
  6
Continuous
 62
     7
 48
10.0
100
AcDbCircle
 10
139.9999974344009
 20
447.4999996572258
 30
0.0
 40
8.0
100
AcDbArc
 50
90.0
 51
180.0
  0
CIRCLE
  5
F1
330
2
100
AcDbEntity
  8
0
  6
Continuous
 62
     7
 48
10.0
100
AcDbCircle
 10
137.9999974344009
 20
449.499999657226
 30
0.0
 40
4.0
  0
LINE
  5
F2
330
2
100
AcDbEntity
  8
0
  6
Continuous
 62
     7
 48
10.0
100
AcDbLine
 10
321.499997434401
 20
455.4999996572258
 30
0.0
 11
313.499997434401
 21
455.4999996572258
 31
0.0
  0
LINE
  5
F3
330
2
100
AcDbEntity
  8
0
  6
Continuous
 62
     7
 48
10.0
100
AcDbLine
 10
313.499997434401
 20
455.4999996572258
 30
0.0
 11
313.499997434401
 21
349.4999996572261
 31
0.0
  0
LINE
  5
F4
330
2
100
AcDbEntity
  8
0
  6
Continuous
 62
     7
 48
10.0
100
AcDbLine
 10
313.499997434401
 20
349.4999996572261
 30
0.0
 11
321.499997434401
 21
349.4999996572261
 31
0.0
  0
LINE
  5
F5
330
2
100
AcDbEntity
  8
0
  6
Continuous
 62
     7
 48
10.0
100
AcDbLine
 10
533.4999974344007
 20
455.4999996572258
 30
0.0
 11
533.4999974344007
 21
349.4999996572261
 31
0.0
  0
LINE
  5
F6
330
2
100
AcDbEntity
  8
0
  6
Continuous
 62
     7
 48
10.0
100
AcDbLine
 10
533.4999974344007
 20
455.4999996572258
 30
0.0
 11
525.4999974344008
 21
455.4999996572258
 31
0.0
  0
LINE
  5
F7
330
2
100
AcDbEntity
  8
0
  6
Continuous
 62
     7
 48
10.0
100
AcDbLine
 10
525.4999974344008
 20
455.4999996572258
 30
0.0
 11
525.4999974344008
 21
349.4999996572261
 31
0.0
  0
LINE
  5
F8
330
2
100
AcDbEntity
  8
0
  6
Continuous
 62
     7
 48
10.0
100
AcDbLine
 10
525.4999974344008
 20
349.4999996572261
 30
0.0
 11
533.4999974344007
 21
349.4999996572261
 31
0.0
  0
LINE
  5
F9
330
2
100
AcDbEntity
  8
0
  6
CENTER
 62
     4
 48
2.0
100
AcDbLine
 10
354.999997434401
 20
409.4999999999997
 30
0.0
 11
354.999997434401
 21
369.5
 31
0.0
  0
LINE
  5
FA
330
2
100
AcDbEntity
  8
0
  6
CENTER
 62
     4
 48
2.0
100
AcDbLine
 10
335.0
 20
389.4999996572261
 30
0.0
 11
375.0
 21
389.4999996572261
 31
0.0
  0
LINE
  5
FB
330
2
100
AcDbEntity
  8
0
  6
Continuous
 62
     7
100
AcDbLine
 10
525.4999974344008
 20
230.000000342774
 30
0.0
 11
525.4999974344008
 21
245.000000342774
 31
0.0
  0
LINE
  5
FC
330
2
100
AcDbEntity
  8
0
  6
Continuous
 62
     7
100
AcDbLine
 10
321.499997434401
 20
252.000000342774
 30
0.0
 11
321.499997434401
 21
137.000000342774
 31
0.0
  0
LINE
  5
FD
330
2
100
AcDbEntity
  8
0
  6
Continuous
 62
     7
100
AcDbLine
 10
313.499997434401
 20
252.000000342774
 30
0.0
 11
321.499997434401
 21
252.000000342774
 31
0.0
  0
LINE
  5
FE
330
2
100
AcDbEntity
  8
0
  6
Continuous
 62
     7
100
AcDbLine
 10
313.499997434401
 20
137.000000342774
 30
0.0
 11
313.499997434401
 21
252.000000342774
 31
0.0
  0
LINE
  5
FF
330
2
100
AcDbEntity
  8
0
  6
Continuous
 62
     7
100
AcDbLine
 10
321.499997434401
 20
137.000000342774
 30
0.0
 11
313.499997434401
 21
137.000000342774
 31
0.0
  0
LINE
  5
100
330
2
100
AcDbEntity
  8
0
  6
Continuous
 62
     7
100
AcDbLine
 10
533.4999974344007
 20
137.000000342774
 30
0.0
 11
525.4999974344008
 21
137.0000003427506
 31
0.0
  0
LINE
  5
101
330
2
100
AcDbEntity
  8
0
  6
Continuous
 62
     7
100
AcDbLine
 10
525.4999974344008
 20
252.000000342774
 30
0.0
 11
525.4999974344008
 21
137.000000342774
 31
0.0
  0
LINE
  5
102
330
2
100
AcDbEntity
  8
0
  6
Continuous
 62
     7
100
AcDbLine
 10
533.4999974344007
 20
252.000000342774
 30
0.0
 11
525.4999974344008
 21
252.000000342774
 31
0.0
  0
LINE
  5
103
330
2
100
AcDbEntity
  8
0
  6
Continuous
 62
     7
100
AcDbLine
 10
533.4999974344007
 20
137.000000342774
 30
0.0
 11
533.4999974344007
 21
252.000000342774
 31
0.0
  0
LINE
  5
104
330
2
100
AcDbEntity
  8
0
  6
CENTER
 62
     4
 48
2.0
100
AcDbLine
 10
303.5
 20
194.5
 30
0.0
 11
573.0
 21
194.5
 31
0.0
  0
LINE
  5
105
330
2
100
AcDbEntity
  8
0
  6
Continuous
 62
     7
100
AcDbLine
 10
321.499997434401
 20
252.0000003427506
 30
0.0
 11
321.499997434401
 21
137.0000003427974
 31
0.0
  0
LINE
  5
106
330
2
100
AcDbEntity
  8
0
  6
Continuous
 62
     7
 48
10.0
100
AcDbLine
 10
525.4999974344008
 20
137.0000003427506
 30
0.0
 11
321.499997434401
 21
137.0000003427974
 31
0.0
  0
LINE
  5
107
330
2
100
AcDbEntity
  8
0
  6
Continuous
 62
     7
 48
10.0
100
AcDbLine
 10
525.4999974344008
 20
252.000000342774
 30
0.0
 11
321.499997434401
 21
252.0000003427506
 31
0.0
  0
LINE
  5
108
330
2
100
AcDbEntity
  8
0
  6
Continuous
 62
     7
100
AcDbLine
 10
525.4999974344008
 20
252.0000003427036
 30
0.0
 11
525.4999974344008
 21
137.0000003427506
 31
0.0
  0
LINE
  5
109
330
2
100
AcDbEntity
  8
0
  6
Continuous
 62
     7
100
AcDbLine
 10
554.4999974344007
 20
223.2201099917469
 30
0.0
 11
554.4999974344007
 21
165.7798906938011
 31
0.0
  0
LINE
  5
10A
330
2
100
AcDbEntity
  8
0
  6
Continuous
 62
     7
100
AcDbLine
 10
534.4999974344008
 20
161.500000342774
 30
0.0
 11
550.5698070601498
 21
161.7804999131755
 31
0.0
  0
LINE
  5
10B
330
2
100
AcDbEntity
  8
0
  6
Continuous
 62
     7
100
AcDbLine
 10
533.4999974344007
 20
163.000000342774
 30
0.0
 11
534.4999974344005
 21
163.000000342774
 31
0.0
  0
LINE
  5
10C
330
2
100
AcDbEntity
  8
0
  6
Continuous
 62
     7
100
AcDbLine
 10
534.4999974344008
 20
161.500000342774
 30
0.0
 11
534.4999974344008
 21
227.500000342774
 31
0.0
  0
ARC
  5
10D
330
2
100
AcDbEntity
  8
0
  6
Continuous
 62
     7
100
AcDbCircle
 10
550.4999974344008
 20
165.7798906938011
 30
0.0
 40
4.0
100
AcDbArc
 50
271.0000000000018
 51
0.0
  0
LINE
  5
10E
330
2
100
AcDbEntity
  8
0
  6
Continuous
 62
     7
100
AcDbLine
 10
534.4999974344008
 20
227.500000342774
 30
0.0
 11
550.5698070601498
 21
227.2195007723725
 31
0.0
  0
LINE
  5
10F
330
2
100
AcDbEntity
  8
0
  6
Continuous
 62
     7
100
AcDbLine
 10
533.4999974344007
 20
226.000000342774
 30
0.0
 11
534.4999974344005
 21
226.000000342774
 31
0.0
  0
ARC
  5
110
330
2
100
AcDbEntity
  8
0
  6
Continuous
 62
     7
100
AcDbCircle
 10
550.4999974344008
 20
223.2201099917469
 30
0.0
 40
4.0
100
AcDbArc
 50
0.0
 51
88.99999999999822
  0
LINE
  5
111
330
2
100
AcDbEntity
  8
0
  6
Continuous
 62
     7
100
AcDbLine
 10
321.499997434401
 20
232.5000000000001
 30
0.0
 11
525.4999974344008
 21
232.4999999999999
 31
0.0
  0
LINE
  5
112
330
2
100
AcDbEntity
  8
0
  6
Continuous
 62
     7
100
AcDbLine
 10
321.499997434401
 20
156.4999999999999
 30
0.0
 11
525.4999974344008
 21
156.5
 31
0.0
  0
LINE
  5
113
330
2
100
AcDbEntity
  8
0
  6
Continuous
 62
     7
 48
10.0
100
AcDbLine
 10
705.3500000926894
 20
347.5
 30
0.0
 11
630.6500000926897
 21
347.5
 31
0.0
  0
LINE
  5
114
330
2
100
AcDbEntity
  8
0
  6
Continuous
 62
     7
 48
10.0
100
AcDbLine
 10
633.0000000926893
 20
340.5
 30
0.0
 11
703.0000000926892
 21
340.5
 31
0.0
  0
LINE
  5
115
330
2
100
AcDbEntity
  8
0
  6
Continuous
 62
     7
 48
10.0
100
AcDbLine
 10
630.6500000926897
 20
347.5
 30
0.0
 11
630.6500000926897
 21
349.4999996572261
 31
0.0
  0
LINE
  5
116
330
2
100
AcDbEntity
  8
0
  6
Continuous
 62
     7
 48
10.0
100
AcDbLine
 10
630.6500000926897
 20
347.5
 30
0.0
 11
633.0000000926893
 21
340.5
 31
0.0
  0
LINE
  5
117
330
2
100
AcDbEntity
  8
0
  6
Continuous
 62
     7
 48
10.0
100
AcDbLine
 10
705.3500000926894
 20
349.4999996572261
 30
0.0
 11
705.3500000926894
 21
347.5
 31
0.0
  0
LINE
  5
118
330
2
100
AcDbEntity
  8
0
  6
Continuous
 62
     7
 48
10.0
100
AcDbLine
 10
703.0000000926892
 20
340.5
 30
0.0
 11
705.3500000926894
 21
347.5
 31
0.0
  0
ARC
  5
119
330
2
100
AcDbEntity
  8
0
  6
Continuous
 62
     7
100
AcDbCircle
 10
379.9999974344005
 20
228.000000342774
 30
0.0
 40
1.5
100
AcDbArc
 50
90.0
 51
180.0
  0
LINE
  5
11A
330
2
100
AcDbEntity
  8
0
  6
Continuous
 62
     7
100
AcDbLine
 10
376.7620165797039
 20
231.2379811974708
 30
0.0
 11
378.7848383156565
 21
229.2151594615182
 31
0.0
  0
ARC
  5
11B
330
2
100
AcDbEntity
  8
0
  6
Continuous
 62
     7
100
AcDbCircle
 10
377.6499974344003
 20
230.3500003427741
 30
0.0
 40
1.5
100
AcDbArc
 50
90.0
 51
180.0
  0
CIRCLE
  5
11C
330
2
100
AcDbEntity
  8
0
  6
Continuous
 62
     7
100
AcDbCircle
 10
388.4999974344005
 20
219.500000342774
 30
0.0
 40
2.5
  0
CIRCLE
  5
11D
330
2
100
AcDbEntity
  8
0
  6
Continuous
 62
     7
100
AcDbCircle
 10
388.4999974344005
 20
219.500000342774
 30
0.0
 40
2.0
  0
ARC
  5
11E
330
2
100
AcDbEntity
  8
0
  6
Continuous
 62
     7
100
AcDbCircle
 10
421.1562114596365
 20
221.5000003427742
 30
0.0
 40
3.0
100
AcDbArc
 50
90.0
 51
114.676863170338
  0
LINE
  5
11F
330
2
100
AcDbEntity
  8
0
  6
Continuous
 62
     7
100
AcDbLine
 10
425.4999974344005
 20
224.500000342774
 30
0.0
 11
421.1562114596366
 21
224.5000003427742
 31
0.0
  0
ARC
  5
120
330
2
100
AcDbEntity
  8
0
  6
Continuous
 62
     7
100
AcDbCircle
 10
445.8437834091641
 20
221.5000003427742
 30
0.0
 40
3.0
100
AcDbArc
 50
65.32313682966192
 51
90.0
  0
LINE
  5
121
330
2
100
AcDbEntity
  8
0
  6
Continuous
 62
     7
100
AcDbLine
 10
441.4999974344005
 20
224.500000342774
 30
0.0
 11
445.8437834091643
 21
224.5000003427742
 31
0.0
  0
ARC
  5
122
330
2
100
AcDbEntity
  8
0
  6
Continuous
 62
     7
100
AcDbCircle
 10
441.4999974344005
 20
221.5000003427739
 30
0.0
 40
3.0
100
AcDbArc
 50
90.0
 51
180.0
  0
ARC
  5
123
330
2
100
AcDbEntity
  8
0
  6
Continuous
 62
     7
100
AcDbCircle
 10
425.4999974344005
 20
221.5000003427739
 30
0.0
 40
3.0
100
AcDbArc
 50
0.0
 51
90.0
  0
ARC
  5
124
330
2
100
AcDbEntity
  8
0
  6
Continuous
 62
     7
100
AcDbCircle
 10
486.9999974344004
 20
228.0000003427739
 30
0.0
 40
1.5
100
AcDbArc
 50
0.0
 51
90.0
  0
LINE
  5
125
330
2
100
AcDbEntity
  8
0
  6
Continuous
 62
     7
100
AcDbLine
 10
490.2379782890973
 20
231.2379811974708
 30
0.0
 11
488.2151565531446
 21
229.2151594615182
 31
0.0
  0
ARC
  5
126
330
2
100
AcDbEntity
  8
0
  6
Continuous
 62
     7
100
AcDbCircle
 10
489.3499974344003
 20
230.350000342774
 30
0.0
 40
1.5
100
AcDbArc
 50
0.0
 51
90.0
  0
CIRCLE
  5
127
330
2
100
AcDbEntity
  8
0
  6
Continuous
 62
     7
100
AcDbCircle
 10
478.4999974344004
 20
219.5000003427739
 30
0.0
 40
2.5
  0
CIRCLE
  5
128
330
2
100
AcDbEntity
  8
0
  6
Continuous
 62
     7
100
AcDbCircle
 10
478.4999974344004
 20
219.5000003427739
 30
0.0
 40
2.0
  0
LINE
  5
129
330
2
100
AcDbEntity
  8
0
  6
Continuous
 62
     7
100
AcDbLine
 10
377.6499974344006
 20
231.8500003427741
 30
0.0
 11
489.3499974344006
 21
231.8500003427741
 31
0.0
  0
LINE
  5
12A
330
2
100
AcDbEntity
  8
0
  6
Continuous
 62
     7
100
AcDbLine
 10
379.9999974344005
 20
229.500000342774
 30
0.0
 11
486.9999974344004
 21
229.500000342774
 31
0.0
  0
ARC
  5
12B
330
2
100
AcDbEntity
  8
0
  6
Continuous
 62
     7
100
AcDbCircle
 10
377.6499974344003
 20
158.650000342774
 30
0.0
 40
1.5
100
AcDbArc
 50
180.0
 51
270.0
  0
ARC
  5
12C
330
2
100
AcDbEntity
  8
0
  6
Continuous
 62
     7
100
AcDbCircle
 10
379.9999974344005
 20
161.0000003427739
 30
0.0
 40
1.5
100
AcDbArc
 50
180.0
 51
270.0
  0
LINE
  5
12D
330
2
100
AcDbEntity
  8
0
  6
Continuous
 62
     7
100
AcDbLine
 10
376.7620165797039
 20
157.7620194880774
 30
0.0
 11
378.7848383156565
 21
159.78484122403
 31
0.0
  0
LINE
  5
12E
330
2
100
AcDbEntity
  8
0
  6
Continuous
 62
     7
100
AcDbLine
 10
383.4999974344005
 20
202.500000342774
 30
0.0
 11
383.4999974344005
 21
205.5768749798278
 31
0.0
  0
ARC
  5
12F
330
2
100
AcDbEntity
  8
0
  6
Continuous
 62
     7
100
AcDbCircle
 10
386.4999974344005
 20
205.5768749798278
 30
0.0
 40
3.0
100
AcDbArc
 50
114.676863170338
 51
180.0
  0
ARC
  5
130
330
2
100
AcDbEntity
  8
0
  6
Continuous
 62
     7
100
AcDbCircle
 10
386.4999974344005
 20
202.5000003427739
 30
0.0
 40
3.0
100
AcDbArc
 50
180.0
 51
270.0
  0
LINE
  5
131
330
2
100
AcDbEntity
  8
0
  6
Continuous
 62
     7
100
AcDbLine
 10
425.4999974344005
 20
199.500000342774
 30
0.0
 11
386.4999974344005
 21
199.500000342774
 31
0.0
  0
ARC
  5
132
330
2
100
AcDbEntity
  8
0
  6
Continuous
 62
     7
100
AcDbCircle
 10
386.4999974344005
 20
186.5000003427739
 30
0.0
 40
3.0
100
AcDbArc
 50
90.0
 51
180.0
  0
ARC
  5
133
330
2
100
AcDbEntity
  8
0
  6
Continuous
 62
     7
100
AcDbCircle
 10
386.4999974344005
 20
183.4231257057203
 30
0.0
 40
3.0
100
AcDbArc
 50
180.0
 51
245.323136829662
  0
LINE
  5
134
330
2
100
AcDbEntity
  8
0
  6
Continuous
 62
     7
100
AcDbLine
 10
383.4999974344005
 20
186.500000342774
 30
0.0
 11
383.4999974344005
 21
183.4231257057204
 31
0.0
  0
LINE
  5
135
330
2
100
AcDbEntity
  8
0
  6
Continuous
 62
     7
100
AcDbLine
 10
425.4999974344005
 20
189.500000342774
 30
0.0
 11
386.4999974344005
 21
189.500000342774
 31
0.0
  0
ARC
  5
136
330
2
100
AcDbEntity
  8
0
  6
Continuous
 62
     7
100
AcDbCircle
 10
441.4999974344005
 20
202.5000003427739
 30
0.0
 40
3.0
100
AcDbArc
 50
180.0
 51
270.0
  0
ARC
  5
137
330
2
100
AcDbEntity
  8
0
  6
Continuous
 62
     7
100
AcDbCircle
 10
441.4999974344005
 20
186.5000003427739
 30
0.0
 40
3.0
100
AcDbArc
 50
90.0
 51
180.0
  0
CIRCLE
  5
138
330
2
100
AcDbEntity
  8
0
  6
Continuous
 62
     7
100
AcDbCircle
 10
433.4999974344005
 20
194.5000003427739
 30
0.0
 40
3.149999999999999
  0
CIRCLE
  5
139
330
2
100
AcDbEntity
  8
0
  6
Continuous
 62
     7
100
AcDbCircle
 10
433.4999974344005
 20
194.5000003427739
 30
0.0
 40
2.5
  0
ARC
  5
13A
330
2
100
AcDbEntity
  8
0
  6
Continuous
 62
     7
100
AcDbCircle
 10
425.4999974344005
 20
202.5000003427739
 30
0.0
 40
3.0
100
AcDbArc
 50
270.0
 51
0.0
  0
ARC
  5
13B
330
2
100
AcDbEntity
  8
0
  6
Continuous
 62
     7
100
AcDbCircle
 10
425.4999974344005
 20
186.5000003427739
 30
0.0
 40
3.0
100
AcDbArc
 50
0.0
 51
90.0
  0
LINE
  5
13C
330
2
100
AcDbEntity
  8
0
  6
Continuous
 62
     7
 48
2.0
100
AcDbLine
 10
384.0
 20
169.500000342774
 30
0.0
 11
393.0
 21
169.500000342774
 31
0.0
  0
CIRCLE
  5
13D
330
2
100
AcDbEntity
  8
0
  6
Continuous
 62
     7
100
AcDbCircle
 10
388.4999974344005
 20
169.5000003427739
 30
0.0
 40
2.5
  0
CIRCLE
  5
13E
330
2
100
AcDbEntity
  8
0
  6
Continuous
 62
     7
100
AcDbCircle
 10
388.4999974344005
 20
169.5000003427739
 30
0.0
 40
2.0
  0
LINE
  5
13F
330
2
100
AcDbEntity
  8
0
  6
Continuous
 62
     7
 48
2.0
100
AcDbLine
 10
388.4999974344005
 20
165.0
 30
0.0
 11
388.4999974344005
 21
174.0
 31
0.0
  0
ARC
  5
140
330
2
100
AcDbEntity
  8
0
  6
Continuous
 62
     7
100
AcDbCircle
 10
421.1562114596365
 20
167.5000003427739
 30
0.0
 40
3.0
100
AcDbArc
 50
245.323136829662
 51
270.0
  0
LINE
  5
141
330
2
100
AcDbEntity
  8
0
  6
Continuous
 62
     7
100
AcDbLine
 10
425.4999974344005
 20
164.500000342774
 30
0.0
 11
421.1562114596366
 21
164.500000342774
 31
0.0
  0
ARC
  5
142
330
2
100
AcDbEntity
  8
0
  6
Continuous
 62
     7
100
AcDbCircle
 10
445.8437834091641
 20
167.5000003427738
 30
0.0
 40
3.0
100
AcDbArc
 50
270.0
 51
294.6768631703382
  0
LINE
  5
143
330
2
100
AcDbEntity
  8
0
  6
Continuous
 62
     7
100
AcDbLine
 10
441.4999974344005
 20
164.500000342774
 30
0.0
 11
445.8437834091643
 21
164.500000342774
 31
0.0
  0
ARC
  5
144
330
2
100
AcDbEntity
  8
0
  6
Continuous
 62
     7
100
AcDbCircle
 10
441.4999974344005
 20
167.5000003427738
 30
0.0
 40
3.0
100
AcDbArc
 50
180.0
 51
270.0
  0
ARC
  5
145
330
2
100
AcDbEntity
  8
0
  6
Continuous
 62
     7
100
AcDbCircle
 10
425.4999974344005
 20
167.5000003427739
 30
0.0
 40
3.0
100
AcDbArc
 50
270.0
 51
0.0
  0
LINE
  5
146
330
2
100
AcDbEntity
  8
0
  6
Continuous
 62
     7
100
AcDbLine
 10
438.4999974344005
 20
186.500000342774
 30
0.0
 11
438.4999974344005
 21
167.500000342774
 31
0.0
  0
LINE
  5
147
330
2
100
AcDbEntity
  8
0
  6
Continuous
 62
     7
100
AcDbLine
 10
385.2474969197485
 20
180.6970951738303
 30
0.0
 11
419.9037109449846
 21
164.7739698108842
 31
0.0
  0
LINE
  5
148
330
2
100
AcDbEntity
  8
0
  6
Continuous
 62
     7
100
AcDbLine
 10
428.4999974344004
 20
186.500000342774
 30
0.0
 11
428.4999974344004
 21
167.500000342774
 31
0.0
  0
LINE
  5
149
330
2
100
AcDbEntity
  8
0
  6
Continuous
 62
     7
100
AcDbLine
 10
483.4999974344005
 20
202.500000342774
 30
0.0
 11
483.4999974344005
 21
205.5768749798278
 31
0.0
  0
ARC
  5
14A
330
2
100
AcDbEntity
  8
0
  6
Continuous
 62
     7
100
AcDbCircle
 10
480.4999974344005
 20
205.5768749798278
 30
0.0
 40
3.0
100
AcDbArc
 50
0.0
 51
65.32313682966192
  0
ARC
  5
14B
330
2
100
AcDbEntity
  8
0
  6
Continuous
 62
     7
100
AcDbCircle
 10
480.4999974344005
 20
202.5000003427739
 30
0.0
 40
3.0
100
AcDbArc
 50
270.0
 51
0.0
  0
ARC
  5
14C
330
2
100
AcDbEntity
  8
0
  6
Continuous
 62
     7
100
AcDbCircle
 10
480.4999974344005
 20
186.5000003427739
 30
0.0
 40
3.0
100
AcDbArc
 50
0.0
 51
90.0
  0
ARC
  5
14D
330
2
100
AcDbEntity
  8
0
  6
Continuous
 62
     7
100
AcDbCircle
 10
480.4999974344005
 20
183.4231257057203
 30
0.0
 40
3.0
100
AcDbArc
 50
294.6768631703382
 51
0.0
  0
LINE
  5
14E
330
2
100
AcDbEntity
  8
0
  6
Continuous
 62
     7
100
AcDbLine
 10
483.4999974344005
 20
186.500000342774
 30
0.0
 11
483.4999974344005
 21
183.4231257057204
 31
0.0
  0
CIRCLE
  5
14F
330
2
100
AcDbEntity
  8
0
  6
Continuous
 62
     7
100
AcDbCircle
 10
478.4999974344004
 20
169.5000003427739
 30
0.0
 40
2.5
  0
CIRCLE
  5
150
330
2
100
AcDbEntity
  8
0
  6
Continuous
 62
     7
100
AcDbCircle
 10
478.4999974344004
 20
169.5000003427739
 30
0.0
 40
2.0
  0
ARC
  5
151
330
2
100
AcDbEntity
  8
0
  6
Continuous
 62
     7
100
AcDbCircle
 10
489.3499974344006
 20
158.650000342774
 30
0.0
 40
1.5
100
AcDbArc
 50
270.0
 51
0.0
  0
ARC
  5
152
330
2
100
AcDbEntity
  8
0
  6
Continuous
 62
     7
100
AcDbCircle
 10
486.9999974344004
 20
161.0000003427739
 30
0.0
 40
1.5
100
AcDbArc
 50
270.0
 51
0.0
  0
LINE
  5
153
330
2
100
AcDbEntity
  8
0
  6
Continuous
 62
     7
100
AcDbLine
 10
490.2379782890973
 20
157.7620194880774
 30
0.0
 11
488.2151565531446
 21
159.78484122403
 31
0.0
  0
LINE
  5
154
330
2
100
AcDbEntity
  8
0
  6
Continuous
 62
     7
100
AcDbLine
 10
377.6499974344006
 20
157.1500003427741
 30
0.0
 11
489.3499974344006
 21
157.1500003427741
 31
0.0
  0
LINE
  5
155
330
2
100
AcDbEntity
  8
0
  6
Continuous
 62
     7
100
AcDbLine
 10
379.9999974344005
 20
159.500000342774
 30
0.0
 11
486.9999974344004
 21
159.500000342774
 31
0.0
  0
LINE
  5
156
330
2
100
AcDbEntity
  8
0
  6
Continuous
 62
     7
100
AcDbLine
 10
441.4999974344005
 20
189.500000342774
 30
0.0
 11
480.4999974344005
 21
189.500000342774
 31
0.0
  0
LINE
  5
157
330
2
100
AcDbEntity
  8
0
  6
Continuous
 62
     7
100
AcDbLine
 10
481.7524979490526
 20
180.6970951738303
 30
0.0
 11
447.0962839238163
 21
164.7739698108842
 31
0.0
  0
LINE
  5
158
330
2
100
AcDbEntity
  8
0
  6
Continuous
 62
     7
100
AcDbLine
 10
441.4999974344005
 20
199.500000342774
 30
0.0
 11
480.4999974344005
 21
199.500000342774
 31
0.0
  0
LINE
  5
159
330
2
100
AcDbEntity
  8
0
  6
Continuous
 62
     7
100
AcDbLine
 10
376.1499974344006
 20
158.6500003427741
 30
0.0
 11
376.1499974344006
 21
230.3500003427741
 31
0.0
  0
LINE
  5
15A
330
2
100
AcDbEntity
  8
0
  6
Continuous
 62
     7
100
AcDbLine
 10
490.8499974344006
 20
158.6500003427741
 30
0.0
 11
490.8499974344006
 21
230.3500003427741
 31
0.0
  0
LINE
  5
15B
330
2
100
AcDbEntity
  8
0
  6
Continuous
 62
     7
100
AcDbLine
 10
378.4999974344005
 20
228.000000342774
 30
0.0
 11
378.4999974344005
 21
161.000000342774
 31
0.0
  0
LINE
  5
15C
330
2
100
AcDbEntity
  8
0
  6
Continuous
 62
     7
100
AcDbLine
 10
488.4999974344005
 20
228.000000342774
 30
0.0
 11
488.4999974344005
 21
161.000000342774
 31
0.0
  0
LINE
  5
15D
330
2
100
AcDbEntity
  8
0
  6
Continuous
 62
     7
100
AcDbLine
 10
481.7524979490526
 20
208.3029055117176
 30
0.0
 11
447.0962839238163
 21
224.2260308746641
 31
0.0
  0
LINE
  5
15E
330
2
100
AcDbEntity
  8
0
  6
Continuous
 62
     7
100
AcDbLine
 10
438.4999974344005
 20
202.500000342774
 30
0.0
 11
438.4999974344005
 21
221.500000342774
 31
0.0
  0
LINE
  5
15F
330
2
100
AcDbEntity
  8
0
  6
Continuous
 62
     7
100
AcDbLine
 10
385.2474969197485
 20
208.3029055117176
 30
0.0
 11
419.9037109449846
 21
224.2260308746641
 31
0.0
  0
LINE
  5
160
330
2
100
AcDbEntity
  8
0
  6
Continuous
 62
     7
100
AcDbLine
 10
428.4999974344004
 20
202.500000342774
 30
0.0
 11
428.4999974344004
 21
221.500000342774
 31
0.0
  0
LINE
  5
161
330
2
100
AcDbEntity
  8
0
  6
Continuous
 62
     7
 48
10.0
100
AcDbLine
 10
376.1499974344009
 20
348.499999657226
 30
0.0
 11
376.1499974344009
 21
349.4999996572261
 31
0.0
  0
ARC
  5
162
330
2
100
AcDbEntity
  8
0
  6
Continuous
 62
     7
 48
10.0
100
AcDbCircle
 10
379.2724137841468
 20
341.4999996572259
 30
0.0
 40
1.0
100
AcDbArc
 50
194.6338309715688
 51
270.0
  0
LINE
  5
163
330
2
100
AcDbEntity
  8
0
  6
Continuous
 62
     7
 48
10.0
100
AcDbLine
 10
378.3048536196877
 20
341.2473589476172
 30
0.0
 11
376.1499974344009
 21
348.499999657226
 31
0.0
  0
LINE
  5
164
330
2
100
AcDbEntity
  8
0
  6
Continuous
 62
     7
 48
10.0
100
AcDbLine
 10
490.8499974344008
 20
348.499999657226
 30
0.0
 11
490.8499974344008
 21
349.4999996572261
 31
0.0
  0
ARC
  5
165
330
2
100
AcDbEntity
  8
0
  6
Continuous
 62
     7
 48
10.0
100
AcDbCircle
 10
487.7275810846548
 20
341.4999996572259
 30
0.0
 40
1.0
100
AcDbArc
 50
270.0
 51
345.3661690284311
  0
LINE
  5
166
330
2
100
AcDbEntity
  8
0
  6
Continuous
 62
     7
 48
10.0
100
AcDbLine
 10
488.6951412491139
 20
341.2473589476172
 30
0.0
 11
490.8499974344008
 21
348.499999657226
 31
0.0
  0
LINE
  5
167
330
2
100
AcDbEntity
  8
0
  6
Continuous
 62
     7
 48
10.0
100
AcDbLine
 10
379.2724137841468
 20
340.499999657226
 30
0.0
 11
487.7275810846548
 21
340.499999657226
 31
0.0
  0
LINE
  5
168
330
2
100
AcDbEntity
  8
0
  6
Continuous
 62
     7
 48
10.0
100
AcDbLine
 10
376.1499974344009
 20
348.499999657226
 30
0.0
 11
490.8499974344008
 21
348.499999657226
 31
0.0
  0
LINE
  5
169
330
2
100
AcDbEntity
  8
0
  6
CENTER
 62
     4
 48
2.0
100
AcDbLine
 10
433.4999974344007
 20
262.0000003427634
 30
0.0
 11
433.4999974344007
 21
127.0000003427717
 31
0.0
  0
LINE
  5
16A
330
2
100
AcDbEntity
  8
0
  6
Continuous
 62
     7
 48
10.0
100
AcDbLine
 10
152.1499947761123
 20
347.5
 30
0.0
 11
154.4999947761117
 21
340.5
 31
0.0
  0
LINE
  5
16B
330
2
100
AcDbEntity
  8
0
  6
Continuous
 62
     7
 48
10.0
100
AcDbLine
 10
152.1499947761123
 20
347.5
 30
0.0
 11
152.1499947761123
 21
349.4999996572261
 31
0.0
  0
LINE
  5
16C
330
2
100
AcDbEntity
  8
0
  6
Continuous
 62
     7
 48
10.0
100
AcDbLine
 10
154.4999947761117
 20
340.5
 30
0.0
 11
224.4999947761117
 21
340.5
 31
0.0
  0
LINE
  5
16D
330
2
100
AcDbEntity
  8
0
  6
Continuous
 62
     7
 48
10.0
100
AcDbLine
 10
226.8499947761121
 20
347.5
 30
0.0
 11
152.1499947761123
 21
347.5
 31
0.0
  0
LINE
  5
16E
330
2
100
AcDbEntity
  8
0
  6
Continuous
 62
     7
 48
10.0
100
AcDbLine
 10
224.4999947761117
 20
340.5
 30
0.0
 11
226.8499947761121
 21
347.5
 31
0.0
  0
LINE
  5
16F
330
2
100
AcDbEntity
  8
0
  6
Continuous
 62
     7
 48
10.0
100
AcDbLine
 10
226.8499947761121
 20
349.4999996572261
 30
0.0
 11
226.8499947761121
 21
347.5
 31
0.0
  0
LINE
  5
170
330
2
100
AcDbEntity
  8
0
  6
CENTER
 62
     4
 48
2.0
100
AcDbLine
 10
166.4999974344009
 20
389.4999996572261
 30
0.0
 11
212.4999974344009
 21
389.4999996572261
 31
0.0
  0
LINE
  5
171
330
2
100
AcDbEntity
  8
0
  6
CENTER
 62
     4
 48
2.0
100
AcDbLine
 10
433.4999974344007
 20
335.5
 30
0.0
 11
433.4999974344007
 21
354.5
 31
0.0
  0
LINE
  5
172
330
2
100
AcDbEntity
  8
0
  6
CENTER
 62
     4
 48
2.0
100
AcDbLine
 10
388.4999974344008
 20
335.5
 30
0.0
 11
388.4999974344008
 21
354.5
 31
0.0
  0
LINE
  5
173
330
2
100
AcDbEntity
  8
0
  6
CENTER
 62
     4
 48
2.0
100
AcDbLine
 10
478.4999974344008
 20
335.5
 30
0.0
 11
478.4999974344008
 21
354.5
 31
0.0
  0
LINE
  5
174
330
2
100
AcDbEntity
  8
0
  6
Continuous
 62
     7
 48
2.0
100
AcDbLine
 10
384.0
 20
219.500000342774
 30
0.0
 11
393.0
 21
219.500000342774
 31
0.0
  0
LINE
  5
175
330
2
100
AcDbEntity
  8
0
  6
Continuous
 62
     7
 48
2.0
100
AcDbLine
 10
388.4999974344005
 20
215.0
 30
0.0
 11
388.4999974344005
 21
224.0
 31
0.0
  0
LINE
  5
176
330
2
100
AcDbEntity
  8
0
  6
Continuous
 62
     7
 48
2.0
100
AcDbLine
 10
474.0
 20
219.500000342774
 30
0.0
 11
483.0
 21
219.500000342774
 31
0.0
  0
LINE
  5
177
330
2
100
AcDbEntity
  8
0
  6
Continuous
 62
     7
 48
2.0
100
AcDbLine
 10
478.4999974344004
 20
215.0
 30
0.0
 11
478.4999974344004
 21
224.0
 31
0.0
  0
LINE
  5
178
330
2
100
AcDbEntity
  8
0
  6
Continuous
 62
     7
 48
2.0
100
AcDbLine
 10
474.0
 20
169.5000003427739
 30
0.0
 11
483.0
 21
169.5000003427739
 31
0.0
  0
LINE
  5
179
330
2
100
AcDbEntity
  8
0
  6
Continuous
 62
     7
 48
2.0
100
AcDbLine
 10
478.4999974344004
 20
164.9999999999999
 30
0.0
 11
478.4999974344004
 21
173.9999999999999
 31
0.0
  0
LINE
  5
17A
330
2
100
AcDbEntity
  8
0
  6
CENTER
 62
     4
 48
2.0
100
AcDbLine
 10
693.4999996572261
 20
335.5
 30
0.0
 11
693.4999996572261
 21
354.5
 31
0.0
  0
LINE
  5
17B
330
2
100
AcDbEntity
  8
0
  6
CENTER
 62
     4
 48
2.0
100
AcDbLine
 10
643.4999996572258
 20
335.5
 30
0.0
 11
643.4999996572258
 21
354.5
 31
0.0
  0
LINE
  5
17C
330
2
100
AcDbEntity
  8
0
  6
CENTER
 62
     4
 48
2.0
100
AcDbLine
 10
214.9999996572261
 20
335.5
 30
0.0
 11
214.9999996572261
 21
354.5000000000002
 31
0.0
  0
LINE
  5
17D
330
2
100
AcDbEntity
  8
0
  6
CENTER
 62
     4
 48
2.0
100
AcDbLine
 10
164.999999657226
 20
335.5
 30
0.0
 11
164.999999657226
 21
354.5000000000002
 31
0.0
  0
CIRCLE
  5
17E
330
2
100
AcDbEntity
  8
0
  6
Continuous
 62
     7
 48
10.0
100
AcDbCircle
 10
719.4999974344009
 20
355.4999996572261
 30
0.0
 40
2.980384757730006
  0
LWPOLYLINE
  5
17F
330
2
100
AcDbEntity
  8
0
  6
Continuous
 62
     7
 48
10.0
100
AcDbPolyline
 90
        6
 70
     1
 43
0.0
 10
717.9999974344009
 20
354.6339742534416
 10
719.4999974344009
 20
353.7679488496572
 10
720.9999974344009
 20
354.6339742534416
 10
720.9999974344009
 20
356.3660250610104
 10
719.4999974344009
 20
357.2320504647948
 10
717.9999974344009
 20
356.3660250610104
  0
CIRCLE
  5
180
330
2
100
AcDbEntity
  8
0
  6
Continuous
 62
     7
 48
10.0
100
AcDbCircle
 10
719.4999974344009
 20
355.4999996572261
 30
0.0
 40
3.5
  0
CIRCLE
  5
181
330
2
100
AcDbEntity
  8
0
  6
Continuous
 62
     7
 48
10.0
100
AcDbCircle
 10
719.4999974344009
 20
449.499999657226
 30
0.0
 40
2.980384757730006
  0
LWPOLYLINE
  5
182
330
2
100
AcDbEntity
  8
0
  6
Continuous
 62
     7
 48
10.0
100
AcDbPolyline
 90
        6
 70
     1
 43
0.0
 10
717.9999974344009
 20
448.6339742534416
 10
719.4999974344009
 20
447.7679488496571
 10
720.9999974344009
 20
448.6339742534416
 10
720.9999974344009
 20
450.3660250610103
 10
719.4999974344009
 20
451.2320504647948
 10
717.9999974344009
 20
450.3660250610103
  0
CIRCLE
  5
183
330
2
100
AcDbEntity
  8
0
  6
Continuous
 62
     7
 48
10.0
100
AcDbCircle
 10
719.4999974344009
 20
449.499999657226
 30
0.0
 40
3.5
  0
CIRCLE
  5
184
330
2
100
AcDbEntity
  8
0
  6
Continuous
 62
     7
 48
10.0
100
AcDbCircle
 10
616.5000027509777
 20
449.499999657226
 30
0.0
 40
2.980384757730006
  0
LWPOLYLINE
  5
185
330
2
100
AcDbEntity
  8
0
  6
Continuous
 62
     7
 48
10.0
100
AcDbPolyline
 90
        6
 70
     1
 43
0.0
 10
615.0000027509777
 20
448.6339742534416
 10
616.5000027509777
 20
447.7679488496571
 10
618.0000027509777
 20
448.6339742534416
 10
618.0000027509777
 20
450.3660250610103
 10
616.5000027509777
 20
451.2320504647948
 10
615.0000027509777
 20
450.3660250610103
  0
CIRCLE
  5
186
330
2
100
AcDbEntity
  8
0
  6
Continuous
 62
     7
 48
10.0
100
AcDbCircle
 10
616.5000027509777
 20
449.499999657226
 30
0.0
 40
3.5
  0
CIRCLE
  5
187
330
2
100
AcDbEntity
  8
0
  6
Continuous
 62
     7
 48
10.0
100
AcDbCircle
 10
616.5000027509782
 20
355.4999996572261
 30
0.0
 40
2.980384757730006
  0
LWPOLYLINE
  5
188
330
2
100
AcDbEntity
  8
0
  6
Continuous
 62
     7
 48
10.0
100
AcDbPolyline
 90
        6
 70
     1
 43
0.0
 10
615.0000027509783
 20
354.6339742534416
 10
616.5000027509782
 20
353.7679488496572
 10
618.000002750978
 20
354.6339742534416
 10
618.000002750978
 20
356.3660250610104
 10
616.5000027509782
 20
357.2320504647948
 10
615.0000027509783
 20
356.3660250610104
  0
CIRCLE
  5
189
330
2
100
AcDbEntity
  8
0
  6
Continuous
 62
     7
 48
10.0
100
AcDbCircle
 10
616.5000027509782
 20
355.4999996572261
 30
0.0
 40
3.5
  0
CIRCLE
  5
18A
330
2
100
AcDbEntity
  8
0
  6
Continuous
 62
     7
 48
10.0
100
AcDbCircle
 10
240.9999921178237
 20
355.4999996572261
 30
0.0
 40
2.980384757730006
  0
LWPOLYLINE
  5
18B
330
2
100
AcDbEntity
  8
0
  6
Continuous
 62
     7
 48
10.0
100
AcDbPolyline
 90
        6
 70
     1
 43
0.0
 10
239.4999921178237
 20
354.6339742534416
 10
240.9999921178237
 20
353.7679488496572
 10
242.4999921178237
 20
354.6339742534416
 10
242.4999921178237
 20
356.3660250610104
 10
240.9999921178237
 20
357.2320504647948
 10
239.4999921178237
 20
356.3660250610104
  0
CIRCLE
  5
18C
330
2
100
AcDbEntity
  8
0
  6
Continuous
 62
     7
 48
10.0
100
AcDbCircle
 10
240.9999921178237
 20
355.4999996572261
 30
0.0
 40
3.5
  0
CIRCLE
  5
18D
330
2
100
AcDbEntity
  8
0
  6
Continuous
 62
     7
 48
10.0
100
AcDbCircle
 10
240.9999921178242
 20
449.499999657226
 30
0.0
 40
2.980384757730006
  0
LWPOLYLINE
  5
18E
330
2
100
AcDbEntity
  8
0
  6
Continuous
 62
     7
 48
10.0
100
AcDbPolyline
 90
        6
 70
     1
 43
0.0
 10
239.4999921178242
 20
448.6339742534416
 10
240.9999921178242
 20
447.7679488496571
 10
242.4999921178241
 20
448.6339742534416
 10
242.4999921178241
 20
450.3660250610103
 10
240.9999921178242
 20
451.2320504647948
 10
239.4999921178242
 20
450.3660250610103
  0
CIRCLE
  5
18F
330
2
100
AcDbEntity
  8
0
  6
Continuous
 62
     7
 48
10.0
100
AcDbCircle
 10
240.9999921178242
 20
449.499999657226
 30
0.0
 40
3.5
  0
CIRCLE
  5
190
330
2
100
AcDbEntity
  8
0
  6
Continuous
 62
     7
 48
10.0
100
AcDbCircle
 10
137.9999974344009
 20
449.499999657226
 30
0.0
 40
2.980384757730006
  0
LWPOLYLINE
  5
191
330
2
100
AcDbEntity
  8
0
  6
Continuous
 62
     7
 48
10.0
100
AcDbPolyline
 90
        6
 70
     1
 43
0.0
 10
136.4999974344009
 20
448.6339742534416
 10
137.9999974344009
 20
447.7679488496571
 10
139.4999974344009
 20
448.6339742534416
 10
139.4999974344009
 20
450.3660250610103
 10
137.9999974344009
 20
451.2320504647948
 10
136.4999974344009
 20
450.3660250610103
  0
CIRCLE
  5
192
330
2
100
AcDbEntity
  8
0
  6
Continuous
 62
     7
 48
10.0
100
AcDbCircle
 10
137.9999974344009
 20
449.499999657226
 30
0.0
 40
3.5
  0
CIRCLE
  5
193
330
2
100
AcDbEntity
  8
0
  6
Continuous
 62
     7
 48
10.0
100
AcDbCircle
 10
137.9999974344009
 20
355.4999996572261
 30
0.0
 40
2.980384757730006
  0
LWPOLYLINE
  5
194
330
2
100
AcDbEntity
  8
0
  6
Continuous
 62
     7
 48
10.0
100
AcDbPolyline
 90
        6
 70
     1
 43
0.0
 10
136.4999974344009
 20
354.6339742534416
 10
137.9999974344009
 20
353.7679488496572
 10
139.4999974344009
 20
354.6339742534416
 10
139.4999974344009
 20
356.3660250610104
 10
137.9999974344009
 20
357.2320504647948
 10
136.4999974344009
 20
356.3660250610104
  0
CIRCLE
  5
195
330
2
100
AcDbEntity
  8
0
  6
Continuous
 62
     7
 48
10.0
100
AcDbCircle
 10
137.9999974344009
 20
355.4999996572261
 30
0.0
 40
3.5
  0
LINE
  5
196
330
2
100
AcDbEntity
  8
0
  6
Continuous
 62
     7
 48
10.0
100
AcDbLine
 10
667.1100028927298
 20
398.5994993451616
 30
-150.0
 11
667.4060731285667
 21
401.560198121946
 31
-150.0
  0
LINE
  5
197
330
2
100
AcDbEntity
  8
0
  6
Continuous
 62
     7
 48
10.0
100
AcDbLine
 10
672.0806257862481
 20
398.4059322133798
 30
-150.0
 11
671.6236595729432
 21
398.773472742957
 31
-150.0
  0
LINE
  5
198
330
2
100
AcDbEntity
  8
0
  6
Continuous
 62
     7
 48
10.0
100
AcDbLine
 10
672.3600028927299
 20
398.5994993451616
 30
-150.0
 11
672.6560731285667
 21
401.560198121946
 31
-150.0
  0
LINE
  5
199
330
2
100
AcDbEntity
  8
0
  6
Continuous
 62
     7
 48
10.0
100
AcDbLine
 10
668.8585109968405
 20
398.5845804043158
 30
-150.0
 11
669.1640334452525
 21
401.6398011925058
 31
-150.0
  0
LINE
  5
19A
330
2
100
AcDbEntity
  8
0
  6
Continuous
 62
     7
 48
10.0
100
AcDbLine
 10
669.6326328300564
 20
398.7883916838027
 30
-150.0
 11
669.080625786248
 21
398.4059322133798
 31
-150.0
  0
LINE
  5
19B
330
2
100
AcDbEntity
  8
0
  6
Continuous
 62
     7
 48
10.0
100
AcDbLine
 10
663.6085109968403
 20
398.5845804043158
 30
-150.0
 11
663.9140334452526
 21
401.6398011925058
 31
-150.0
  0
LINE
  5
19C
330
2
100
AcDbEntity
  8
0
  6
Continuous
 62
     7
 48
10.0
100
AcDbLine
 10
664.3826328300564
 20
398.7883916838027
 30
-150.0
 11
663.8306257862481
 21
398.4059322133798
 31
-150.0
  0
LINE
  5
19D
330
2
100
AcDbEntity
  8
0
  6
Continuous
 62
     7
 48
10.0
100
AcDbLine
 10
666.830625786248
 20
398.4059322133798
 30
-150.0
 11
666.3736595729432
 21
398.773472742957
 31
-150.0
  0
LINE
  5
19E
330
2
100
AcDbEntity
  8
0
  6
Continuous
 62
     7
 48
10.0
100
AcDbLine
 10
661.86000289273
 20
398.5994993451616
 30
-150.0
 11
662.1560731285669
 21
401.560198121946
 31
-150.0
  0
LINE
  5
19F
330
2
100
AcDbEntity
  8
0
  6
Continuous
 62
     7
 48
10.0
100
AcDbLine
 10
661.5806257862479
 20
398.4059322133798
 30
-150.0
 11
661.1236595729433
 21
398.773472742957
 31
-150.0
  0
LINE
  5
1A0
330
2
100
AcDbEntity
  8
0
  6
Continuous
 62
     7
 48
10.0
100
AcDbLine
 10
653.1085109968403
 20
398.5845804043158
 30
-150.0
 11
653.4140334452525
 21
401.6398011925058
 31
-150.0
  0
LINE
  5
1A1
330
2
100
AcDbEntity
  8
0
  6
Continuous
 62
     7
 48
10.0
100
AcDbLine
 10
658.3585109968403
 20
398.5845804043158
 30
-150.0
 11
658.6640334452526
 21
401.6398011925058
 31
-150.0
  0
LINE
  5
1A2
330
2
100
AcDbEntity
  8
0
  6
Continuous
 62
     7
 48
10.0
100
AcDbLine
 10
659.1326328300564
 20
398.7883916838027
 30
-150.0
 11
658.5806257862481
 21
398.4059322133798
 31
-150.0
  0
LINE
  5
1A3
330
2
100
AcDbEntity
  8
0
  6
Continuous
 62
     7
 48
10.0
100
AcDbLine
 10
656.61000289273
 20
398.5994993451616
 30
-150.0
 11
656.9060731285667
 21
401.560198121946
 31
-150.0
  0
LINE
  5
1A4
330
2
100
AcDbEntity
  8
0
  6
Continuous
 62
     7
 48
10.0
100
AcDbLine
 10
653.8826328300564
 20
398.7883916838027
 30
-150.0
 11
653.3306257862481
 21
398.4059322133798
 31
-150.0
  0
LINE
  5
1A5
330
2
100
AcDbEntity
  8
0
  6
Continuous
 62
     7
 48
10.0
100
AcDbLine
 10
656.3306257862481
 20
398.4059322133798
 30
-150.0
 11
655.8736595729433
 21
398.773472742957
 31
-150.0
  0
LWPOLYLINE
  5
1A6
330
2
100
AcDbEntity
  8
0
  6
Continuous
 62
     7
 48
10.0
100
AcDbPolyline
 90
        4
 70
     1
 43
0.0
 38
-150.0
 10
650.5000524280159
 20
408.9999996572259
 10
677.5000524280159
 20
408.9999996572259
 10
677.5000524280159
 20
387.999999657226
 10
650.5000524280159
 20
387.999999657226
  0
LINE
  5
1A7
330
2
100
AcDbEntity
  8
0
  6
Continuous
 62
     7
 48
10.0
100
AcDbLine
 10
649.4999853029118
 20
407.5000720863823
 30
-150.0
 11
649.4999853029118
 21
389.5000720863824
 31
-150.0
  0
LINE
  5
1A8
330
2
100
AcDbEntity
  8
0
  6
Continuous
 62
     7
 48
10.0
100
AcDbLine
 10
651.0000524280159
 20
388.4999996572261
 30
-150.0
 11
651.0000524280159
 21
408.499999657226
 31
-150.0
  0
LINE
  5
1A9
330
2
100
AcDbEntity
  8
0
  6
Continuous
 62
     7
 48
10.0
100
AcDbLine
 10
678.4999853029118
 20
407.5000720863823
 30
-150.0
 11
678.4999853029118
 21
389.5000720863823
 31
-150.0
  0
LINE
  5
1AA
330
2
100
AcDbEntity
  8
0
  6
Continuous
 62
     7
 48
10.0
100
AcDbLine
 10
677.0000524280159
 20
388.4999996572261
 30
-150.0
 11
677.0000524280159
 21
408.499999657226
 31
-150.0
  0
LINE
  5
1AB
330
2
100
AcDbEntity
  8
0
  6
Continuous
 62
     7
 48
10.0
100
AcDbLine
 10
656.0003358065459
 20
394.5343964106046
 30
-150.0
 11
655.3527238469
 21
395.2499996572261
 31
-150.0
  0
ARC
  5
1AC
330
2
100
AcDbEntity
  8
0
  6
Continuous
 62
     7
 48
10.0
100
AcDbCircle
 10
655.8380574467447
 20
394.899999657226
 30
-150.0
 40
0.4
100
AcDbArc
 50
270.0
 51
293.9347431357138
  0
LINE
  5
1AD
330
2
100
AcDbEntity
  8
0
  6
Continuous
 62
     7
 48
10.0
100
AcDbLine
 10
656.1856989499802
 20
394.702147729694
 30
-150.0
 11
655.5380869903342
 21
395.4177509763155
 31
-150.0
  0
LINE
  5
1AE
330
2
100
AcDbEntity
  8
0
  6
Continuous
 62
     7
 48
10.0
100
AcDbLine
 10
655.5643262605496
 20
397.8749996572261
 30
-150.0
 11
656.1163333043578
 21
398.2574591276489
 31
-150.0
  0
LINE
  5
1AF
330
2
100
AcDbEntity
  8
0
  6
Continuous
 62
     7
 48
10.0
100
AcDbLine
 10
656.1163333043578
 20
398.2574591276489
 30
-150.0
 11
655.659367091053
 21
398.6249996572261
 31
-150.0
  0
LINE
  5
1B0
330
2
100
AcDbEntity
  8
0
  6
Continuous
 62
     7
 48
10.0
100
AcDbLine
 10
655.7674729332576
 20
397.7116076306493
 30
-150.0
 11
656.3194799770658
 21
398.0940671010722
 31
-150.0
  0
LINE
  5
1B1
330
2
100
AcDbEntity
  8
0
  6
Continuous
 62
     7
 48
10.0
100
AcDbLine
 10
651.0000524280159
 20
388.4999996572261
 30
-150.0
 11
677.0000524280159
 21
388.4999996572261
 31
-150.0
  0
LINE
  5
1B2
330
2
100
AcDbEntity
  8
0
  6
Continuous
 62
     7
 48
10.0
100
AcDbLine
 10
651.4999853029117
 20
387.5000720863824
 30
-150.0
 11
676.4999853029117
 21
387.5000720863824
 31
-150.0
  0
ARC
  5
1B3
330
2
100
AcDbEntity
  8
0
  6
Continuous
 62
     7
 48
10.0
100
AcDbCircle
 10
651.4999853029117
 20
389.5000720863824
 30
-150.0
 40
2.0
100
AcDbArc
 50
180.0
 51
270.0
  0
LINE
  5
1B4
330
2
100
AcDbEntity
  8
0
  6
Continuous
 62
     7
 48
10.0
100
AcDbLine
 10
653.5473295361229
 20
395.43536280066
 30
-150.0
 11
653.7764461903707
 21
397.726526571495
 31
-150.0
  0
LINE
  5
1B5
330
2
100
AcDbEntity
  8
0
  6
Continuous
 62
     7
 48
10.0
100
AcDbLine
 10
652.7440326347472
 20
394.9398011925059
 30
-150.0
 11
653.0401028705843
 21
397.9004999692904
 31
-150.0
  0
LINE
  5
1B6
330
2
100
AcDbEntity
  8
0
  6
Continuous
 62
     7
 48
10.0
100
AcDbLine
 10
655.5380869903342
 20
395.4177509763155
 30
-150.0
 11
655.7674729332576
 21
397.7116076306493
 31
-150.0
  0
LINE
  5
1B7
330
2
100
AcDbEntity
  8
0
  6
Continuous
 62
     7
 48
10.0
100
AcDbLine
 10
653.1420475060638
 20
394.4999996572261
 30
-150.0
 11
655.8380574467447
 21
394.4999996572261
 31
-150.0
  0
LINE
  5
1B8
330
2
100
AcDbEntity
  8
0
  6
Continuous
 62
     7
 48
10.0
100
AcDbLine
 10
652.7764442594425
 20
394.7377212974245
 30
-150.0
 11
653.5473295361229
 21
395.43536280066
 31
-150.0
  0
LINE
  5
1B9
330
2
100
AcDbEntity
  8
0
  6
Continuous
 62
     7
 48
10.0
100
AcDbLine
 10
652.944195578532
 20
394.5523581539904
 30
-150.0
 11
653.7150808552125
 21
395.2499996572261
 31
-150.0
  0
ARC
  5
1BA
330
2
100
AcDbEntity
  8
0
  6
Continuous
 62
     7
 48
10.0
100
AcDbCircle
 10
653.1420475060638
 20
394.899999657226
 30
-150.0
 40
0.4
100
AcDbArc
 50
174.2893999999988
 51
203.9347431357174
  0
ARC
  5
1BB
330
2
100
AcDbEntity
  8
0
  6
Continuous
 62
     7
 48
10.0
100
AcDbCircle
 10
653.1420475060638
 20
394.899999657226
 30
-150.0
 40
0.4
100
AcDbArc
 50
240.3546568642865
 51
270.0
  0
LINE
  5
1BC
330
2
100
AcDbEntity
  8
0
  6
Continuous
 62
     7
 48
10.0
100
AcDbLine
 10
653.7150808552125
 20
395.2499996572261
 30
-150.0
 11
655.3527238469
 21
395.2499996572261
 31
-150.0
  0
LINE
  5
1BD
330
2
100
AcDbEntity
  8
0
  6
Continuous
 62
     7
 48
10.0
100
AcDbLine
 10
653.1085109968403
 20
398.5845804043158
 30
-150.0
 11
653.3306257862481
 21
398.4059322133798
 31
-150.0
  0
LINE
  5
1BE
330
2
100
AcDbEntity
  8
0
  6
Continuous
 62
     7
 48
10.0
100
AcDbLine
 10
653.3194799770658
 20
398.0940671010722
 30
-150.0
 11
653.0401028705843
 21
397.9004999692904
 31
-150.0
  0
LINE
  5
1BF
330
2
100
AcDbEntity
  8
0
  6
Continuous
 62
     7
 48
10.0
100
AcDbLine
 10
654.0857795027643
 20
398.6249996572261
 30
-150.0
 11
655.659367091053
 21
398.6249996572261
 31
-150.0
  0
LINE
  5
1C0
330
2
100
AcDbEntity
  8
0
  6
Continuous
 62
     7
 48
10.0
100
AcDbLine
 10
653.9907386722612
 20
397.8749996572261
 30
-150.0
 11
655.5643262605496
 21
397.8749996572261
 31
-150.0
  0
LINE
  5
1C1
330
2
100
AcDbEntity
  8
0
  6
Continuous
 62
     7
 48
10.0
100
AcDbLine
 10
653.3194799770658
 20
398.0940671010722
 30
-150.0
 11
653.7764461903707
 21
397.726526571495
 31
-150.0
  0
LINE
  5
1C2
330
2
100
AcDbEntity
  8
0
  6
Continuous
 62
     7
 48
10.0
100
AcDbLine
 10
654.0857795027643
 20
398.6249996572261
 30
-150.0
 11
653.5337724589562
 21
398.2425401868031
 31
-150.0
  0
LINE
  5
1C3
330
2
100
AcDbEntity
  8
0
  6
Continuous
 62
     7
 48
10.0
100
AcDbLine
 10
653.5337724589562
 20
398.2425401868031
 30
-150.0
 11
653.9907386722612
 21
397.8749996572261
 31
-150.0
  0
ARC
  5
1C4
330
2
100
AcDbEntity
  8
0
  6
Continuous
 62
     7
 48
10.0
100
AcDbCircle
 10
672.2348559255564
 20
393.259999657226
 30
-150.0
 40
0.24
100
AcDbArc
 50
60.35465686428649
 51
90.0
  0
LINE
  5
1C5
330
2
100
AcDbEntity
  8
0
  6
Continuous
 62
     7
 48
10.0
100
AcDbLine
 10
672.4542178735292
 20
393.357366673107
 30
-150.0
 11
671.9916867075209
 21
392.9387817711656
 31
-150.0
  0
LINE
  5
1C6
330
2
100
AcDbEntity
  8
0
  6
Continuous
 62
     7
 48
10.0
100
AcDbLine
 10
672.3535670820755
 20
393.4685845591673
 30
-150.0
 11
671.8910359160672
 21
393.049999657226
 31
-150.0
  0
LINE
  5
1C7
330
2
100
AcDbEntity
  8
0
  6
Continuous
 62
     7
 48
10.0
100
AcDbLine
 10
672.0806257862481
 20
398.4059322133798
 30
-150.0
 11
672.3600028927299
 21
398.5994993451616
 31
-150.0
  0
LINE
  5
1C8
330
2
100
AcDbEntity
  8
0
  6
Continuous
 62
     7
 48
10.0
100
AcDbLine
 10
672.2960227068442
 20
391.4596994699873
 30
-150.0
 11
672.4736648483464
 21
393.2361187360582
 31
-150.0
  0
LINE
  5
1C9
330
2
100
AcDbEntity
  8
0
  6
Continuous
 62
     7
 48
10.0
100
AcDbLine
 10
664.0473295361227
 20
395.43536280066
 30
-150.0
 11
664.2764461903707
 21
397.726526571495
 31
-150.0
  0
LINE
  5
1CA
330
2
100
AcDbEntity
  8
0
  6
Continuous
 62
     7
 48
10.0
100
AcDbLine
 10
663.444195578532
 20
394.5523581539904
 30
-150.0
 11
664.2150808552123
 21
395.2499996572261
 31
-150.0
  0
LINE
  5
1CB
330
2
100
AcDbEntity
  8
0
  6
Continuous
 62
     7
 48
10.0
100
AcDbLine
 10
663.6420475060638
 20
394.4999996572261
 30
-150.0
 11
666.3380574467447
 21
394.4999996572261
 31
-150.0
  0
LINE
  5
1CC
330
2
100
AcDbEntity
  8
0
  6
Continuous
 62
     7
 48
10.0
100
AcDbLine
 10
664.1086650592066
 20
393.3787108137451
 30
-150.0
 11
664.4972322349941
 21
392.9493488657723
 31
-150.0
  0
LINE
  5
1CD
330
2
100
AcDbEntity
  8
0
  6
Continuous
 62
     7
 48
10.0
100
AcDbLine
 10
664.5857795027644
 20
398.6249996572261
 30
-150.0
 11
664.0337724589564
 21
398.2425401868031
 31
-150.0
  0
LINE
  5
1CE
330
2
100
AcDbEntity
  8
0
  6
Continuous
 62
     7
 48
10.0
100
AcDbLine
 10
663.8194799770658
 20
398.0940671010722
 30
-150.0
 11
664.2764461903707
 21
397.726526571495
 31
-150.0
  0
LINE
  5
1CF
330
2
100
AcDbEntity
  8
0
  6
Continuous
 62
     7
 48
10.0
100
AcDbLine
 10
664.0337724589564
 20
398.2425401868031
 30
-150.0
 11
664.4907386722612
 21
397.8749996572261
 31
-150.0
  0
LINE
  5
1D0
330
2
100
AcDbEntity
  8
0
  6
Continuous
 62
     7
 48
10.0
100
AcDbLine
 10
663.6958875268717
 20
389.142632641345
 30
-150.0
 11
664.1584186928802
 21
389.5612175432864
 31
-150.0
  0
LINE
  5
1D1
330
2
100
AcDbEntity
  8
0
  6
Continuous
 62
     7
 48
10.0
100
AcDbLine
 10
663.7965383183257
 20
389.0314147552846
 30
-150.0
 11
664.2590694843338
 21
389.449999657226
 31
-150.0
  0
LINE
  5
1D2
330
2
100
AcDbEntity
  8
0
  6
Continuous
 62
     7
 48
10.0
100
AcDbLine
 10
663.9152494748445
 20
388.9999996572261
 30
-150.0
 11
665.5328554392532
 21
388.9999996572261
 31
-150.0
  0
LINE
  5
1D3
330
2
100
AcDbEntity
  8
0
  6
Continuous
 62
     7
 48
10.0
100
AcDbLine
 10
664.35960066924
 20
391.573034873172
 30
-150.0
 11
664.0283964429552
 21
391.3435591909184
 31
-150.0
  0
LINE
  5
1D4
330
2
100
AcDbEntity
  8
0
  6
Continuous
 62
     7
 48
10.0
100
AcDbLine
 10
664.0217089574457
 20
391.1564401235337
 30
-150.0
 11
664.2958886854287
 21
390.9359158057874
 31
-150.0
  0
LINE
  5
1D5
330
2
100
AcDbEntity
  8
0
  6
Continuous
 62
     7
 48
10.0
100
AcDbLine
 10
663.8951275693107
 20
391.4507481054799
 30
-150.0
 11
664.0784410383578
 21
393.2838805783939
 31
-150.0
  0
LINE
  5
1D6
330
2
100
AcDbEntity
  8
0
  6
Continuous
 62
     7
 48
10.0
100
AcDbLine
 10
663.6764405520547
 20
389.2638805783939
 30
-150.0
 11
663.8540826935568
 21
391.0402998444647
 31
-150.0
  0
ARC
  5
1D7
330
2
100
AcDbEntity
  8
0
  6
Continuous
 62
     7
 48
10.0
100
AcDbCircle
 10
663.9152494748445
 20
389.239999657226
 30
-150.0
 40
0.24
100
AcDbArc
 50
174.2893999999988
 51
203.9347431357174
  0
ARC
  5
1D8
330
2
100
AcDbEntity
  8
0
  6
Continuous
 62
     7
 48
10.0
100
AcDbCircle
 10
663.9152494748445
 20
389.239999657226
 30
-150.0
 40
0.24
100
AcDbArc
 50
240.3546568642865
 51
270.0
  0
LINE
  5
1D9
330
2
100
AcDbEntity
  8
0
  6
Continuous
 62
     7
 48
10.0
100
AcDbLine
 10
663.8951275693107
 20
391.4507481054799
 30
-150.0
 11
664.0283964429552
 21
391.3435591909184
 31
-150.0
  0
LINE
  5
1DA
330
2
100
AcDbEntity
  8
0
  6
Continuous
 62
     7
 48
10.0
100
AcDbLine
 10
664.0217089574457
 20
391.1564401235337
 30
-150.0
 11
663.8540826935568
 21
391.0402998444647
 31
-150.0
  0
LINE
  5
1DB
330
2
100
AcDbEntity
  8
0
  6
Continuous
 62
     7
 48
10.0
100
AcDbLine
 10
658.9650808552123
 20
395.2499996572261
 30
-150.0
 11
660.6027238469001
 21
395.2499996572261
 31
-150.0
  0
LINE
  5
1DC
330
2
100
AcDbEntity
  8
0
  6
Continuous
 62
     7
 48
10.0
100
AcDbLine
 10
658.3920475060637
 20
394.4999996572261
 30
-150.0
 11
661.0880574467447
 21
394.4999996572261
 31
-150.0
  0
LINE
  5
1DD
330
2
100
AcDbEntity
  8
0
  6
Continuous
 62
     7
 48
10.0
100
AcDbLine
 10
659.2407386722612
 20
397.8749996572261
 30
-150.0
 11
660.8143262605494
 21
397.8749996572261
 31
-150.0
  0
LINE
  5
1DE
330
2
100
AcDbEntity
  8
0
  6
Continuous
 62
     7
 48
10.0
100
AcDbLine
 10
659.3357795027643
 20
398.6249996572261
 30
-150.0
 11
660.909367091053
 21
398.6249996572261
 31
-150.0
  0
LINE
  5
1DF
330
2
100
AcDbEntity
  8
0
  6
Continuous
 62
     7
 48
10.0
100
AcDbLine
 10
658.7973295361229
 20
395.43536280066
 30
-150.0
 11
659.0264461903707
 21
397.726526571495
 31
-150.0
  0
LINE
  5
1E0
330
2
100
AcDbEntity
  8
0
  6
Continuous
 62
     7
 48
10.0
100
AcDbLine
 10
657.9940326347472
 20
394.9398011925059
 30
-150.0
 11
658.2901028705842
 21
397.9004999692904
 31
-150.0
  0
LINE
  5
1E1
330
2
100
AcDbEntity
  8
0
  6
Continuous
 62
     7
 48
10.0
100
AcDbLine
 10
656.2360723180614
 20
394.860198121946
 30
-150.0
 11
656.5415947664734
 21
397.9154189101362
 31
-150.0
  0
LINE
  5
1E2
330
2
100
AcDbEntity
  8
0
  6
Continuous
 62
     7
 48
10.0
100
AcDbLine
 10
657.450052428016
 20
394.4999996572261
 30
-150.0
 11
657.5250525187442
 21
395.2499996572261
 31
-150.0
  0
ARC
  5
1E3
330
2
100
AcDbEntity
  8
0
  6
Continuous
 62
     7
 48
10.0
100
AcDbCircle
 10
658.3920475060637
 20
394.899999657226
 30
-150.0
 40
0.4
100
AcDbArc
 50
174.2893999999988
 51
203.9347431357174
  0
ARC
  5
1E4
330
2
100
AcDbEntity
  8
0
  6
Continuous
 62
     7
 48
10.0
100
AcDbCircle
 10
658.3920475060637
 20
394.899999657226
 30
-150.0
 40
0.4
100
AcDbArc
 50
240.3546568642865
 51
270.0
  0
LINE
  5
1E5
330
2
100
AcDbEntity
  8
0
  6
Continuous
 62
     7
 48
10.0
100
AcDbLine
 10
658.1941955785318
 20
394.5523581539904
 30
-150.0
 11
658.9650808552123
 21
395.2499996572261
 31
-150.0
  0
LINE
  5
1E6
330
2
100
AcDbEntity
  8
0
  6
Continuous
 62
     7
 48
10.0
100
AcDbLine
 10
658.0264442594425
 20
394.7377212974245
 30
-150.0
 11
658.7973295361229
 21
395.43536280066
 31
-150.0
  0
LINE
  5
1E7
330
2
100
AcDbEntity
  8
0
  6
Continuous
 62
     7
 48
10.0
100
AcDbLine
 10
656.7000524280159
 20
394.4999996572261
 30
-150.0
 11
656.775052518744
 21
395.2499996572261
 31
-150.0
  0
ARC
  5
1E8
330
2
100
AcDbEntity
  8
0
  6
Continuous
 62
     7
 48
10.0
100
AcDbCircle
 10
655.8380574467447
 20
394.899999657226
 30
-150.0
 40
0.4
100
AcDbArc
 50
330.3546568642829
 51
354.2893999999988
  0
LINE
  5
1E9
330
2
100
AcDbEntity
  8
0
  6
Continuous
 62
     7
 48
10.0
100
AcDbLine
 10
656.775052518744
 20
395.2499996572261
 30
-150.0
 11
657.5250525187442
 21
395.2499996572261
 31
-150.0
  0
LINE
  5
1EA
330
2
100
AcDbEntity
  8
0
  6
Continuous
 62
     7
 48
10.0
100
AcDbLine
 10
656.7000524280159
 20
394.4999996572261
 30
-150.0
 11
657.450052428016
 21
394.4999996572261
 31
-150.0
  0
LINE
  5
1EB
330
2
100
AcDbEntity
  8
0
  6
Continuous
 62
     7
 48
10.0
100
AcDbLine
 10
659.3357795027643
 20
398.6249996572261
 30
-150.0
 11
658.7837724589562
 21
398.2425401868031
 31
-150.0
  0
LINE
  5
1EC
330
2
100
AcDbEntity
  8
0
  6
Continuous
 62
     7
 48
10.0
100
AcDbLine
 10
658.7837724589562
 20
398.2425401868031
 30
-150.0
 11
659.2407386722612
 21
397.8749996572261
 31
-150.0
  0
LINE
  5
1ED
330
2
100
AcDbEntity
  8
0
  6
Continuous
 62
     7
 48
10.0
100
AcDbLine
 10
658.5694799770658
 20
398.0940671010722
 30
-150.0
 11
659.0264461903707
 21
397.726526571495
 31
-150.0
  0
LINE
  5
1EE
330
2
100
AcDbEntity
  8
0
  6
Continuous
 62
     7
 48
10.0
100
AcDbLine
 10
658.3585109968403
 20
398.5845804043158
 30
-150.0
 11
658.5806257862481
 21
398.4059322133798
 31
-150.0
  0
LINE
  5
1EF
330
2
100
AcDbEntity
  8
0
  6
Continuous
 62
     7
 48
10.0
100
AcDbLine
 10
658.5694799770658
 20
398.0940671010722
 30
-150.0
 11
658.2901028705842
 21
397.9004999692904
 31
-150.0
  0
LINE
  5
1F0
330
2
100
AcDbEntity
  8
0
  6
Continuous
 62
     7
 48
10.0
100
AcDbLine
 10
656.3306257862481
 20
398.4059322133798
 30
-150.0
 11
656.61000289273
 21
398.5994993451616
 31
-150.0
  0
LINE
  5
1F1
330
2
100
AcDbEntity
  8
0
  6
Continuous
 62
     7
 48
10.0
100
AcDbLine
 10
656.5415947664734
 20
397.9154189101362
 30
-150.0
 11
656.3194799770658
 21
398.0940671010722
 31
-150.0
  0
LINE
  5
1F2
330
2
100
AcDbEntity
  8
0
  6
Continuous
 62
     7
 48
10.0
100
AcDbLine
 10
661.4860723180615
 20
394.860198121946
 30
-150.0
 11
661.7915947664734
 21
397.9154189101362
 31
-150.0
  0
LINE
  5
1F3
330
2
100
AcDbEntity
  8
0
  6
Continuous
 62
     7
 48
10.0
100
AcDbLine
 10
660.7880869903342
 20
395.4177509763155
 30
-150.0
 11
661.0174729332576
 21
397.7116076306493
 31
-150.0
  0
LINE
  5
1F4
330
2
100
AcDbEntity
  8
0
  6
Continuous
 62
     7
 48
10.0
100
AcDbLine
 10
663.2440326347472
 20
394.9398011925059
 30
-150.0
 11
663.5401028705842
 21
397.9004999692904
 31
-150.0
  0
ARC
  5
1F5
330
2
100
AcDbEntity
  8
0
  6
Continuous
 62
     7
 48
10.0
100
AcDbCircle
 10
663.6420475060638
 20
394.899999657226
 30
-150.0
 40
0.4
100
AcDbArc
 50
240.3546568642865
 51
270.0
  0
ARC
  5
1F6
330
2
100
AcDbEntity
  8
0
  6
Continuous
 62
     7
 48
10.0
100
AcDbCircle
 10
664.3172499611478
 20
393.259999657226
 30
-150.0
 40
0.24
100
AcDbArc
 50
150.3546568642828
 51
174.2893999999988
  0
ARC
  5
1F7
330
2
100
AcDbEntity
  8
0
  6
Continuous
 62
     7
 48
10.0
100
AcDbCircle
 10
661.0880574467447
 20
394.899999657226
 30
-150.0
 40
0.4
100
AcDbArc
 50
330.3546568642829
 51
354.2893999999988
  0
LINE
  5
1F8
330
2
100
AcDbEntity
  8
0
  6
Continuous
 62
     7
 48
10.0
100
AcDbLine
 10
661.2503358065461
 20
394.5343964106046
 30
-150.0
 11
660.6027238469001
 21
395.2499996572261
 31
-150.0
  0
LINE
  5
1F9
330
2
100
AcDbEntity
  8
0
  6
Continuous
 62
     7
 48
10.0
100
AcDbLine
 10
661.4356989499802
 20
394.702147729694
 30
-150.0
 11
660.7880869903342
 21
395.4177509763155
 31
-150.0
  0
ARC
  5
1FA
330
2
100
AcDbEntity
  8
0
  6
Continuous
 62
     7
 48
10.0
100
AcDbCircle
 10
661.0880574467447
 20
394.899999657226
 30
-150.0
 40
0.4
100
AcDbArc
 50
270.0
 51
293.9347431357138
  0
ARC
  5
1FB
330
2
100
AcDbEntity
  8
0
  6
Continuous
 62
     7
 48
10.0
100
AcDbCircle
 10
663.6420475060638
 20
394.899999657226
 30
-150.0
 40
0.4
100
AcDbArc
 50
174.2893999999988
 51
203.9347431357174
  0
LINE
  5
1FC
330
2
100
AcDbEntity
  8
0
  6
Continuous
 62
     7
 48
10.0
100
AcDbLine
 10
663.2764442594425
 20
394.7377212974245
 30
-150.0
 11
664.0473295361227
 21
395.43536280066
 31
-150.0
  0
LINE
  5
1FD
330
2
100
AcDbEntity
  8
0
  6
Continuous
 62
     7
 48
10.0
100
AcDbLine
 10
663.6085109968403
 20
398.5845804043158
 30
-150.0
 11
663.8306257862481
 21
398.4059322133798
 31
-150.0
  0
LINE
  5
1FE
330
2
100
AcDbEntity
  8
0
  6
Continuous
 62
     7
 48
10.0
100
AcDbLine
 10
663.8194799770658
 20
398.0940671010722
 30
-150.0
 11
663.5401028705842
 21
397.9004999692904
 31
-150.0
  0
LINE
  5
1FF
330
2
100
AcDbEntity
  8
0
  6
Continuous
 62
     7
 48
10.0
100
AcDbLine
 10
661.5806257862479
 20
398.4059322133798
 30
-150.0
 11
661.86000289273
 21
398.5994993451616
 31
-150.0
  0
LINE
  5
200
330
2
100
AcDbEntity
  8
0
  6
Continuous
 62
     7
 48
10.0
100
AcDbLine
 10
661.7915947664734
 20
397.9154189101362
 30
-150.0
 11
661.5694799770658
 21
398.0940671010722
 31
-150.0
  0
LINE
  5
201
330
2
100
AcDbEntity
  8
0
  6
Continuous
 62
     7
 48
10.0
100
AcDbLine
 10
661.0174729332576
 20
397.7116076306493
 30
-150.0
 11
661.5694799770658
 21
398.0940671010722
 31
-150.0
  0
LINE
  5
202
330
2
100
AcDbEntity
  8
0
  6
Continuous
 62
     7
 48
10.0
100
AcDbLine
 10
661.3663333043575
 20
398.2574591276489
 30
-150.0
 11
660.909367091053
 21
398.6249996572261
 31
-150.0
  0
LINE
  5
203
330
2
100
AcDbEntity
  8
0
  6
Continuous
 62
     7
 48
10.0
100
AcDbLine
 10
660.8143262605494
 20
397.8749996572261
 30
-150.0
 11
661.3663333043575
 21
398.2574591276489
 31
-150.0
  0
LINE
  5
204
330
2
100
AcDbEntity
  8
0
  6
Continuous
 62
     7
 48
10.0
100
AcDbLine
 10
664.35960066924
 20
391.573034873172
 30
-150.0
 11
664.4972322349941
 21
392.9493488657723
 31
-150.0
  0
LINE
  5
205
330
2
100
AcDbEntity
  8
0
  6
Continuous
 62
     7
 48
10.0
100
AcDbLine
 10
665.5542167149722
 20
391.5640835086646
 30
-150.0
 11
665.6916867075209
 21
392.9387817711656
 31
-150.0
  0
LINE
  5
206
330
2
100
AcDbEntity
  8
0
  6
Continuous
 62
     7
 48
10.0
100
AcDbLine
 10
665.9960227068442
 20
391.4596994699873
 30
-150.0
 11
666.1736648483464
 21
393.2361187360582
 31
-150.0
  0
LINE
  5
207
330
2
100
AcDbEntity
  8
0
  6
Continuous
 62
     7
 48
10.0
100
AcDbLine
 10
667.0451275693108
 20
391.4507481054799
 30
-150.0
 11
667.2284410383578
 21
393.2838805783939
 31
-150.0
  0
LINE
  5
208
330
2
100
AcDbEntity
  8
0
  6
Continuous
 62
     7
 48
10.0
100
AcDbLine
 10
667.5096006692402
 20
391.573034873172
 30
-150.0
 11
667.6472322349942
 21
392.9493488657723
 31
-150.0
  0
LINE
  5
209
330
2
100
AcDbEntity
  8
0
  6
Continuous
 62
     7
 48
10.0
100
AcDbLine
 10
671.8542167149722
 20
391.5640835086646
 30
-150.0
 11
671.9916867075209
 21
392.9387817711656
 31
-150.0
  0
LINE
  5
20A
330
2
100
AcDbEntity
  8
0
  6
Continuous
 62
     7
 48
10.0
100
AcDbLine
 10
670.6596006692401
 20
391.573034873172
 30
-150.0
 11
670.7972322349942
 21
392.9493488657723
 31
-150.0
  0
LINE
  5
20B
330
2
100
AcDbEntity
  8
0
  6
Continuous
 62
     7
 48
10.0
100
AcDbLine
 10
669.1460227068443
 20
391.4596994699873
 30
-150.0
 11
669.3236648483464
 21
393.2361187360582
 31
-150.0
  0
LINE
  5
20C
330
2
100
AcDbEntity
  8
0
  6
Continuous
 62
     7
 48
10.0
100
AcDbLine
 10
668.7042167149724
 20
391.5640835086646
 30
-150.0
 11
668.841686707521
 21
392.9387817711656
 31
-150.0
  0
LINE
  5
20D
330
2
100
AcDbEntity
  8
0
  6
Continuous
 62
     7
 48
10.0
100
AcDbLine
 10
670.1951275693107
 20
391.4507481054799
 30
-150.0
 11
670.3784410383579
 21
393.2838805783939
 31
-150.0
  0
LINE
  5
20E
330
2
100
AcDbEntity
  8
0
  6
Continuous
 62
     7
 48
10.0
100
AcDbLine
 10
667.0652494748448
 20
388.9999996572261
 30
-150.0
 11
668.6828554392531
 21
388.9999996572261
 31
-150.0
  0
LINE
  5
20F
330
2
100
AcDbEntity
  8
0
  6
Continuous
 62
     7
 48
10.0
100
AcDbLine
 10
667.4090694843337
 20
389.449999657226
 30
-150.0
 11
668.3916552793464
 21
389.449999657226
 31
-150.0
  0
LINE
  5
210
330
2
100
AcDbEntity
  8
0
  6
Continuous
 62
     7
 48
10.0
100
AcDbLine
 10
667.5744641745629
 20
391.0249996572261
 30
-150.0
 11
668.5186167275361
 21
391.0249996572261
 31
-150.0
  0
LINE
  5
211
330
2
100
AcDbEntity
  8
0
  6
Continuous
 62
     7
 48
10.0
100
AcDbLine
 10
667.631488672865
 20
391.474999657226
 30
-150.0
 11
668.5756412258379
 21
391.474999657226
 31
-150.0
  0
LINE
  5
212
330
2
100
AcDbEntity
  8
0
  6
Continuous
 62
     7
 48
10.0
100
AcDbLine
 10
667.3084186928799
 20
389.5612175432864
 30
-150.0
 11
667.4458886854288
 21
390.9359158057874
 31
-150.0
  0
LINE
  5
213
330
2
100
AcDbEntity
  8
0
  6
Continuous
 62
     7
 48
10.0
100
AcDbLine
 10
667.631488672865
 20
391.474999657226
 30
-150.0
 11
667.3002844465801
 21
391.2455239749722
 31
-150.0
  0
LINE
  5
214
330
2
100
AcDbEntity
  8
0
  6
Continuous
 62
     7
 48
10.0
100
AcDbLine
 10
667.5096006692402
 20
391.573034873172
 30
-150.0
 11
667.178396442955
 21
391.3435591909184
 31
-150.0
  0
LINE
  5
215
330
2
100
AcDbEntity
  8
0
  6
Continuous
 62
     7
 48
10.0
100
AcDbLine
 10
667.0451275693108
 20
391.4507481054799
 30
-150.0
 11
667.178396442955
 21
391.3435591909184
 31
-150.0
  0
LINE
  5
216
330
2
100
AcDbEntity
  8
0
  6
Continuous
 62
     7
 48
10.0
100
AcDbLine
 10
667.1717089574459
 20
391.1564401235337
 30
-150.0
 11
667.4458886854288
 21
390.9359158057874
 31
-150.0
  0
LINE
  5
217
330
2
100
AcDbEntity
  8
0
  6
Continuous
 62
     7
 48
10.0
100
AcDbLine
 10
667.3002844465801
 20
391.2455239749722
 30
-150.0
 11
667.5744641745629
 21
391.0249996572261
 31
-150.0
  0
LINE
  5
218
330
2
100
AcDbEntity
  8
0
  6
Continuous
 62
     7
 48
10.0
100
AcDbLine
 10
667.1717089574459
 20
391.1564401235337
 30
-150.0
 11
667.0040826935567
 21
391.0402998444647
 31
-150.0
  0
LINE
  5
219
330
2
100
AcDbEntity
  8
0
  6
Continuous
 62
     7
 48
10.0
100
AcDbLine
 10
664.1584186928802
 20
389.5612175432864
 30
-150.0
 11
664.2958886854287
 21
390.9359158057874
 31
-150.0
  0
LINE
  5
21A
330
2
100
AcDbEntity
  8
0
  6
Continuous
 62
     7
 48
10.0
100
AcDbLine
 10
665.352873165407
 20
389.5506504486797
 30
-150.0
 11
665.490504731161
 21
390.92696444128
 31
-150.0
  0
LINE
  5
21B
330
2
100
AcDbEntity
  8
0
  6
Continuous
 62
     7
 48
10.0
100
AcDbLine
 10
665.7716643620432
 20
389.216118736058
 30
-150.0
 11
665.9549778310902
 21
391.0492512089721
 31
-150.0
  0
LINE
  5
21C
330
2
100
AcDbEntity
  8
0
  6
Continuous
 62
     7
 48
10.0
100
AcDbLine
 10
664.2590694843338
 20
389.449999657226
 30
-150.0
 11
665.2416552793464
 21
389.449999657226
 31
-150.0
  0
LINE
  5
21D
330
2
100
AcDbEntity
  8
0
  6
Continuous
 62
     7
 48
10.0
100
AcDbLine
 10
665.630222455134
 20
389.0206377092532
 30
-150.0
 11
665.2416552793464
 21
389.449999657226
 31
-150.0
  0
ARC
  5
21E
330
2
100
AcDbEntity
  8
0
  6
Continuous
 62
     7
 48
10.0
100
AcDbCircle
 10
665.5328554392532
 20
389.239999657226
 30
-150.0
 40
0.24
100
AcDbArc
 50
330.3546568642829
 51
354.2893999999988
  0
LINE
  5
21F
330
2
100
AcDbEntity
  8
0
  6
Continuous
 62
     7
 48
10.0
100
AcDbLine
 10
665.7414403411945
 20
389.1212885007068
 30
-150.0
 11
665.352873165407
 21
389.5506504486797
 31
-150.0
  0
ARC
  5
220
330
2
100
AcDbEntity
  8
0
  6
Continuous
 62
     7
 48
10.0
100
AcDbCircle
 10
665.5328554392532
 20
389.239999657226
 30
-150.0
 40
0.24
100
AcDbArc
 50
270.0
 51
293.9347431357138
  0
LINE
  5
221
330
2
100
AcDbEntity
  8
0
  6
Continuous
 62
     7
 48
10.0
100
AcDbLine
 10
666.0500524280157
 20
388.9999996572261
 30
-150.0
 11
666.5000524280159
 21
388.9999996572261
 31
-150.0
  0
LINE
  5
222
330
2
100
AcDbEntity
  8
0
  6
Continuous
 62
     7
 48
10.0
100
AcDbLine
 10
666.0500524280157
 20
388.9999996572261
 30
-150.0
 11
666.0950524824527
 21
389.449999657226
 31
-150.0
  0
LINE
  5
223
330
2
100
AcDbEntity
  8
0
  6
Continuous
 62
     7
 48
10.0
100
AcDbLine
 10
666.5000524280159
 20
388.9999996572261
 30
-150.0
 11
666.5450524824527
 21
389.449999657226
 31
-150.0
  0
LINE
  5
224
330
2
100
AcDbEntity
  8
0
  6
Continuous
 62
     7
 48
10.0
100
AcDbLine
 10
666.0950524824527
 20
389.449999657226
 30
-150.0
 11
666.5450524824527
 21
389.449999657226
 31
-150.0
  0
ARC
  5
225
330
2
100
AcDbEntity
  8
0
  6
Continuous
 62
     7
 48
10.0
100
AcDbCircle
 10
667.0652494748448
 20
389.239999657226
 30
-150.0
 40
0.24
100
AcDbArc
 50
174.2893999999988
 51
203.9347431357174
  0
LINE
  5
226
330
2
100
AcDbEntity
  8
0
  6
Continuous
 62
     7
 48
10.0
100
AcDbLine
 10
664.4814886728651
 20
391.474999657226
 30
-150.0
 11
664.1502844465799
 21
391.2455239749722
 31
-150.0
  0
LINE
  5
227
330
2
100
AcDbEntity
  8
0
  6
Continuous
 62
     7
 48
10.0
100
AcDbLine
 10
664.1502844465799
 20
391.2455239749722
 30
-150.0
 11
664.424464174563
 21
391.0249996572261
 31
-150.0
  0
LINE
  5
228
330
2
100
AcDbEntity
  8
0
  6
Continuous
 62
     7
 48
10.0
100
AcDbLine
 10
664.424464174563
 20
391.0249996572261
 30
-150.0
 11
665.368616727536
 21
391.0249996572261
 31
-150.0
  0
LINE
  5
229
330
2
100
AcDbEntity
  8
0
  6
Continuous
 62
     7
 48
10.0
100
AcDbLine
 10
664.4814886728651
 20
391.474999657226
 30
-150.0
 11
665.425641225838
 21
391.474999657226
 31
-150.0
  0
LINE
  5
22A
330
2
100
AcDbEntity
  8
0
  6
Continuous
 62
     7
 48
10.0
100
AcDbLine
 10
665.6998209538211
 20
391.2544753394798
 30
-150.0
 11
665.425641225838
 21
391.474999657226
 31
-150.0
  0
LINE
  5
22B
330
2
100
AcDbEntity
  8
0
  6
Continuous
 62
     7
 48
10.0
100
AcDbLine
 10
665.8283964429553
 20
391.3435591909184
 30
-150.0
 11
665.5542167149722
 21
391.5640835086646
 31
-150.0
  0
LINE
  5
22C
330
2
100
AcDbEntity
  8
0
  6
Continuous
 62
     7
 48
10.0
100
AcDbLine
 10
665.8283964429553
 20
391.3435591909184
 30
-150.0
 11
665.9960227068442
 21
391.4596994699873
 31
-150.0
  0
LINE
  5
22D
330
2
100
AcDbEntity
  8
0
  6
Continuous
 62
     7
 48
10.0
100
AcDbLine
 10
665.490504731161
 20
390.92696444128
 30
-150.0
 11
665.8217089574456
 21
391.1564401235337
 31
-150.0
  0
LINE
  5
22E
330
2
100
AcDbEntity
  8
0
  6
Continuous
 62
     7
 48
10.0
100
AcDbLine
 10
665.368616727536
 20
391.0249996572261
 30
-150.0
 11
665.6998209538211
 21
391.2544753394798
 31
-150.0
  0
LINE
  5
22F
330
2
100
AcDbEntity
  8
0
  6
Continuous
 62
     7
 48
10.0
100
AcDbLine
 10
665.9549778310902
 20
391.0492512089721
 30
-150.0
 11
665.8217089574456
 21
391.1564401235337
 31
-150.0
  0
LINE
  5
230
330
2
100
AcDbEntity
  8
0
  6
Continuous
 62
     7
 48
10.0
100
AcDbLine
 10
666.8264405520544
 20
389.2638805783939
 30
-150.0
 11
667.0040826935567
 21
391.0402998444647
 31
-150.0
  0
ARC
  5
231
330
2
100
AcDbEntity
  8
0
  6
Continuous
 62
     7
 48
10.0
100
AcDbCircle
 10
667.0652494748448
 20
389.239999657226
 30
-150.0
 40
0.24
100
AcDbArc
 50
240.3546568642865
 51
270.0
  0
LINE
  5
232
330
2
100
AcDbEntity
  8
0
  6
Continuous
 62
     7
 48
10.0
100
AcDbLine
 10
666.9465383183257
 20
389.0314147552846
 30
-150.0
 11
667.4090694843337
 21
389.449999657226
 31
-150.0
  0
LINE
  5
233
330
2
100
AcDbEntity
  8
0
  6
Continuous
 62
     7
 48
10.0
100
AcDbLine
 10
666.8458875268718
 20
389.142632641345
 30
-150.0
 11
667.3084186928799
 21
389.5612175432864
 31
-150.0
  0
LINE
  5
234
330
2
100
AcDbEntity
  8
0
  6
Continuous
 62
     7
 48
10.0
100
AcDbLine
 10
671.652873165407
 20
389.5506504486797
 30
-150.0
 11
671.7905047311609
 21
390.92696444128
 31
-150.0
  0
LINE
  5
235
330
2
100
AcDbEntity
  8
0
  6
Continuous
 62
     7
 48
10.0
100
AcDbLine
 10
672.0716643620431
 20
389.216118736058
 30
-150.0
 11
672.2549778310905
 21
391.0492512089721
 31
-150.0
  0
LINE
  5
236
330
2
100
AcDbEntity
  8
0
  6
Continuous
 62
     7
 48
10.0
100
AcDbLine
 10
672.0414403411945
 20
389.1212885007068
 30
-150.0
 11
671.652873165407
 21
389.5506504486797
 31
-150.0
  0
ARC
  5
237
330
2
100
AcDbEntity
  8
0
  6
Continuous
 62
     7
 48
10.0
100
AcDbCircle
 10
671.8328554392532
 20
389.239999657226
 30
-150.0
 40
0.24
100
AcDbArc
 50
270.0
 51
293.9347431357138
  0
LINE
  5
238
330
2
100
AcDbEntity
  8
0
  6
Continuous
 62
     7
 48
10.0
100
AcDbLine
 10
671.930222455134
 20
389.0206377092532
 30
-150.0
 11
671.5416552793462
 21
389.449999657226
 31
-150.0
  0
ARC
  5
239
330
2
100
AcDbEntity
  8
0
  6
Continuous
 62
     7
 48
10.0
100
AcDbCircle
 10
671.8328554392532
 20
389.239999657226
 30
-150.0
 40
0.24
100
AcDbArc
 50
330.3546568642829
 51
354.2893999999988
  0
LINE
  5
23A
330
2
100
AcDbEntity
  8
0
  6
Continuous
 62
     7
 48
10.0
100
AcDbLine
 10
672.1283964429552
 20
391.3435591909184
 30
-150.0
 11
672.2960227068442
 21
391.4596994699873
 31
-150.0
  0
LINE
  5
23B
330
2
100
AcDbEntity
  8
0
  6
Continuous
 62
     7
 48
10.0
100
AcDbLine
 10
671.9998209538211
 20
391.2544753394798
 30
-150.0
 11
671.7256412258381
 21
391.474999657226
 31
-150.0
  0
LINE
  5
23C
330
2
100
AcDbEntity
  8
0
  6
Continuous
 62
     7
 48
10.0
100
AcDbLine
 10
672.1283964429552
 20
391.3435591909184
 30
-150.0
 11
671.8542167149722
 21
391.5640835086646
 31
-150.0
  0
LINE
  5
23D
330
2
100
AcDbEntity
  8
0
  6
Continuous
 62
     7
 48
10.0
100
AcDbLine
 10
671.7905047311609
 20
390.92696444128
 30
-150.0
 11
672.1217089574458
 21
391.1564401235337
 31
-150.0
  0
LINE
  5
23E
330
2
100
AcDbEntity
  8
0
  6
Continuous
 62
     7
 48
10.0
100
AcDbLine
 10
671.6686167275362
 20
391.0249996572261
 30
-150.0
 11
671.9998209538211
 21
391.2544753394798
 31
-150.0
  0
LINE
  5
23F
330
2
100
AcDbEntity
  8
0
  6
Continuous
 62
     7
 48
10.0
100
AcDbLine
 10
670.724464174563
 20
391.0249996572261
 30
-150.0
 11
671.6686167275362
 21
391.0249996572261
 31
-150.0
  0
LINE
  5
240
330
2
100
AcDbEntity
  8
0
  6
Continuous
 62
     7
 48
10.0
100
AcDbLine
 10
672.2549778310905
 20
391.0492512089721
 30
-150.0
 11
672.1217089574458
 21
391.1564401235337
 31
-150.0
  0
LINE
  5
241
330
2
100
AcDbEntity
  8
0
  6
Continuous
 62
     7
 48
10.0
100
AcDbLine
 10
670.7814886728649
 20
391.474999657226
 30
-150.0
 11
671.7256412258381
 21
391.474999657226
 31
-150.0
  0
LINE
  5
242
330
2
100
AcDbEntity
  8
0
  6
Continuous
 62
     7
 48
10.0
100
AcDbLine
 10
668.9216643620432
 20
389.216118736058
 30
-150.0
 11
669.1049778310904
 21
391.0492512089721
 31
-150.0
  0
LINE
  5
243
330
2
100
AcDbEntity
  8
0
  6
Continuous
 62
     7
 48
10.0
100
AcDbLine
 10
668.5028731654067
 20
389.5506504486797
 30
-150.0
 11
668.6405047311609
 21
390.92696444128
 31
-150.0
  0
ARC
  5
244
330
2
100
AcDbEntity
  8
0
  6
Continuous
 62
     7
 48
10.0
100
AcDbCircle
 10
668.6828554392531
 20
389.239999657226
 30
-150.0
 40
0.24
100
AcDbArc
 50
330.3546568642829
 51
354.2893999999988
  0
LINE
  5
245
330
2
100
AcDbEntity
  8
0
  6
Continuous
 62
     7
 48
10.0
100
AcDbLine
 10
668.8914403411944
 20
389.1212885007068
 30
-150.0
 11
668.5028731654067
 21
389.5506504486797
 31
-150.0
  0
ARC
  5
246
330
2
100
AcDbEntity
  8
0
  6
Continuous
 62
     7
 48
10.0
100
AcDbCircle
 10
668.6828554392531
 20
389.239999657226
 30
-150.0
 40
0.24
100
AcDbArc
 50
270.0
 51
293.9347431357138
  0
LINE
  5
247
330
2
100
AcDbEntity
  8
0
  6
Continuous
 62
     7
 48
10.0
100
AcDbLine
 10
668.7802224551339
 20
389.0206377092532
 30
-150.0
 11
668.3916552793464
 21
389.449999657226
 31
-150.0
  0
LINE
  5
248
330
2
100
AcDbEntity
  8
0
  6
Continuous
 62
     7
 48
10.0
100
AcDbLine
 10
668.9783964429554
 20
391.3435591909184
 30
-150.0
 11
669.1460227068443
 21
391.4596994699873
 31
-150.0
  0
LINE
  5
249
330
2
100
AcDbEntity
  8
0
  6
Continuous
 62
     7
 48
10.0
100
AcDbLine
 10
668.8498209538209
 20
391.2544753394798
 30
-150.0
 11
668.5756412258379
 21
391.474999657226
 31
-150.0
  0
LINE
  5
24A
330
2
100
AcDbEntity
  8
0
  6
Continuous
 62
     7
 48
10.0
100
AcDbLine
 10
668.9783964429554
 20
391.3435591909184
 30
-150.0
 11
668.7042167149724
 21
391.5640835086646
 31
-150.0
  0
LINE
  5
24B
330
2
100
AcDbEntity
  8
0
  6
Continuous
 62
     7
 48
10.0
100
AcDbLine
 10
669.1049778310904
 20
391.0492512089721
 30
-150.0
 11
668.9717089574457
 21
391.1564401235337
 31
-150.0
  0
LINE
  5
24C
330
2
100
AcDbEntity
  8
0
  6
Continuous
 62
     7
 48
10.0
100
AcDbLine
 10
668.5186167275361
 20
391.0249996572261
 30
-150.0
 11
668.8498209538209
 21
391.2544753394798
 31
-150.0
  0
LINE
  5
24D
330
2
100
AcDbEntity
  8
0
  6
Continuous
 62
     7
 48
10.0
100
AcDbLine
 10
668.6405047311609
 20
390.92696444128
 30
-150.0
 11
668.9717089574457
 21
391.1564401235337
 31
-150.0
  0
LINE
  5
24E
330
2
100
AcDbEntity
  8
0
  6
Continuous
 62
     7
 48
10.0
100
AcDbLine
 10
669.9764405520546
 20
389.2638805783939
 30
-150.0
 11
670.1540826935569
 21
391.0402998444647
 31
-150.0
  0
LINE
  5
24F
330
2
100
AcDbEntity
  8
0
  6
Continuous
 62
     7
 48
10.0
100
AcDbLine
 10
670.45841869288
 20
389.5612175432864
 30
-150.0
 11
670.5958886854288
 21
390.9359158057874
 31
-150.0
  0
LINE
  5
250
330
2
100
AcDbEntity
  8
0
  6
Continuous
 62
     7
 48
10.0
100
AcDbLine
 10
669.9958875268716
 20
389.142632641345
 30
-150.0
 11
670.45841869288
 21
389.5612175432864
 31
-150.0
  0
ARC
  5
251
330
2
100
AcDbEntity
  8
0
  6
Continuous
 62
     7
 48
10.0
100
AcDbCircle
 10
670.2152494748449
 20
389.239999657226
 30
-150.0
 40
0.24
100
AcDbArc
 50
174.2893999999988
 51
203.9347431357174
  0
ARC
  5
252
330
2
100
AcDbEntity
  8
0
  6
Continuous
 62
     7
 48
10.0
100
AcDbCircle
 10
670.2152494748449
 20
389.239999657226
 30
-150.0
 40
0.24
100
AcDbArc
 50
240.3546568642865
 51
270.0
  0
LINE
  5
253
330
2
100
AcDbEntity
  8
0
  6
Continuous
 62
     7
 48
10.0
100
AcDbLine
 10
670.0965383183255
 20
389.0314147552846
 30
-150.0
 11
670.5590694843339
 21
389.449999657226
 31
-150.0
  0
LINE
  5
254
330
2
100
AcDbEntity
  8
0
  6
Continuous
 62
     7
 48
10.0
100
AcDbLine
 10
670.1951275693107
 20
391.4507481054799
 30
-150.0
 11
670.3283964429552
 21
391.3435591909184
 31
-150.0
  0
LINE
  5
255
330
2
100
AcDbEntity
  8
0
  6
Continuous
 62
     7
 48
10.0
100
AcDbLine
 10
670.3217089574457
 20
391.1564401235337
 30
-150.0
 11
670.1540826935569
 21
391.0402998444647
 31
-150.0
  0
LINE
  5
256
330
2
100
AcDbEntity
  8
0
  6
Continuous
 62
     7
 48
10.0
100
AcDbLine
 10
670.3217089574457
 20
391.1564401235337
 30
-150.0
 11
670.5958886854288
 21
390.9359158057874
 31
-150.0
  0
LINE
  5
257
330
2
100
AcDbEntity
  8
0
  6
Continuous
 62
     7
 48
10.0
100
AcDbLine
 10
670.5590694843339
 20
389.449999657226
 30
-150.0
 11
671.5416552793462
 21
389.449999657226
 31
-150.0
  0
LINE
  5
258
330
2
100
AcDbEntity
  8
0
  6
Continuous
 62
     7
 48
10.0
100
AcDbLine
 10
670.2152494748449
 20
388.9999996572261
 30
-150.0
 11
671.8328554392532
 21
388.9999996572261
 31
-150.0
  0
LINE
  5
259
330
2
100
AcDbEntity
  8
0
  6
Continuous
 62
     7
 48
10.0
100
AcDbLine
 10
670.7814886728649
 20
391.474999657226
 30
-150.0
 11
670.4502844465801
 21
391.2455239749722
 31
-150.0
  0
LINE
  5
25A
330
2
100
AcDbEntity
  8
0
  6
Continuous
 62
     7
 48
10.0
100
AcDbLine
 10
670.6596006692401
 20
391.573034873172
 30
-150.0
 11
670.3283964429552
 21
391.3435591909184
 31
-150.0
  0
LINE
  5
25B
330
2
100
AcDbEntity
  8
0
  6
Continuous
 62
     7
 48
10.0
100
AcDbLine
 10
670.4502844465801
 20
391.2455239749722
 30
-150.0
 11
670.724464174563
 21
391.0249996572261
 31
-150.0
  0
LINE
  5
25C
330
2
100
AcDbEntity
  8
0
  6
Continuous
 62
     7
 48
10.0
100
AcDbLine
 10
667.467249961148
 20
393.499999657226
 30
-150.0
 11
669.0848559255564
 21
393.499999657226
 31
-150.0
  0
LINE
  5
25D
330
2
100
AcDbEntity
  8
0
  6
Continuous
 62
     7
 48
10.0
100
AcDbLine
 10
667.7584501210546
 20
393.049999657226
 30
-150.0
 11
668.7410359160672
 21
393.049999657226
 31
-150.0
  0
LINE
  5
25E
330
2
100
AcDbEntity
  8
0
  6
Continuous
 62
     7
 48
10.0
100
AcDbLine
 10
667.2750525187442
 20
395.2499996572261
 30
-150.0
 11
668.0250525187442
 21
395.2499996572261
 31
-150.0
  0
LINE
  5
25F
330
2
100
AcDbEntity
  8
0
  6
Continuous
 62
     7
 48
10.0
100
AcDbLine
 10
667.2000524280158
 20
394.4999996572261
 30
-150.0
 11
667.9500524280158
 21
394.4999996572261
 31
-150.0
  0
LINE
  5
260
330
2
100
AcDbEntity
  8
0
  6
Continuous
 62
     7
 48
10.0
100
AcDbLine
 10
667.2000524280158
 20
394.4999996572261
 30
-150.0
 11
667.2750525187442
 21
395.2499996572261
 31
-150.0
  0
ARC
  5
261
330
2
100
AcDbEntity
  8
0
  6
Continuous
 62
     7
 48
10.0
100
AcDbCircle
 10
667.467249961148
 20
393.259999657226
 30
-150.0
 40
0.24
100
AcDbArc
 50
90.0
 51
113.9347431357138
  0
LINE
  5
262
330
2
100
AcDbEntity
  8
0
  6
Continuous
 62
     7
 48
10.0
100
AcDbLine
 10
667.369882945267
 20
393.4793616051988
 30
-150.0
 11
667.7584501210546
 21
393.049999657226
 31
-150.0
  0
LINE
  5
263
330
2
100
AcDbEntity
  8
0
  6
Continuous
 62
     7
 48
10.0
100
AcDbLine
 10
667.2586650592068
 20
393.3787108137451
 30
-150.0
 11
667.6472322349942
 21
392.9493488657723
 31
-150.0
  0
ARC
  5
264
330
2
100
AcDbEntity
  8
0
  6
Continuous
 62
     7
 48
10.0
100
AcDbCircle
 10
667.467249961148
 20
393.259999657226
 30
-150.0
 40
0.24
100
AcDbArc
 50
150.3546568642828
 51
174.2893999999988
  0
LINE
  5
265
330
2
100
AcDbEntity
  8
0
  6
Continuous
 62
     7
 48
10.0
100
AcDbLine
 10
667.9500524280158
 20
394.4999996572261
 30
-150.0
 11
668.0250525187442
 21
395.2499996572261
 31
-150.0
  0
LINE
  5
266
330
2
100
AcDbEntity
  8
0
  6
Continuous
 62
     7
 48
10.0
100
AcDbLine
 10
666.0380869903342
 20
395.4177509763155
 30
-150.0
 11
666.2674729332576
 21
397.7116076306493
 31
-150.0
  0
LINE
  5
267
330
2
100
AcDbEntity
  8
0
  6
Continuous
 62
     7
 48
10.0
100
AcDbLine
 10
664.2150808552123
 20
395.2499996572261
 30
-150.0
 11
665.8527238469003
 21
395.2499996572261
 31
-150.0
  0
ARC
  5
268
330
2
100
AcDbEntity
  8
0
  6
Continuous
 62
     7
 48
10.0
100
AcDbCircle
 10
666.3380574467447
 20
394.899999657226
 30
-150.0
 40
0.4
100
AcDbArc
 50
270.0
 51
293.9347431357138
  0
ARC
  5
269
330
2
100
AcDbEntity
  8
0
  6
Continuous
 62
     7
 48
10.0
100
AcDbCircle
 10
666.3380574467447
 20
394.899999657226
 30
-150.0
 40
0.4
100
AcDbArc
 50
330.3546568642829
 51
354.2893999999988
  0
LINE
  5
26A
330
2
100
AcDbEntity
  8
0
  6
Continuous
 62
     7
 48
10.0
100
AcDbLine
 10
666.6856989499803
 20
394.702147729694
 30
-150.0
 11
666.0380869903342
 21
395.4177509763155
 31
-150.0
  0
LINE
  5
26B
330
2
100
AcDbEntity
  8
0
  6
Continuous
 62
     7
 48
10.0
100
AcDbLine
 10
666.5003358065461
 20
394.5343964106046
 30
-150.0
 11
665.8527238469003
 21
395.2499996572261
 31
-150.0
  0
ARC
  5
26C
330
2
100
AcDbEntity
  8
0
  6
Continuous
 62
     7
 48
10.0
100
AcDbCircle
 10
664.3172499611478
 20
393.259999657226
 30
-150.0
 40
0.24
100
AcDbArc
 50
90.0
 51
113.9347431357138
  0
LINE
  5
26D
330
2
100
AcDbEntity
  8
0
  6
Continuous
 62
     7
 48
10.0
100
AcDbLine
 10
664.3172499611478
 20
393.499999657226
 30
-150.0
 11
665.9348559255565
 21
393.499999657226
 31
-150.0
  0
ARC
  5
26E
330
2
100
AcDbEntity
  8
0
  6
Continuous
 62
     7
 48
10.0
100
AcDbCircle
 10
665.9348559255565
 20
393.259999657226
 30
-150.0
 40
0.24
100
AcDbArc
 50
60.35465686428649
 51
90.0
  0
LINE
  5
26F
330
2
100
AcDbEntity
  8
0
  6
Continuous
 62
     7
 48
10.0
100
AcDbLine
 10
664.6084501210546
 20
393.049999657226
 30
-150.0
 11
665.5910359160673
 21
393.049999657226
 31
-150.0
  0
ARC
  5
270
330
2
100
AcDbEntity
  8
0
  6
Continuous
 62
     7
 48
10.0
100
AcDbCircle
 10
665.9348559255565
 20
393.259999657226
 30
-150.0
 40
0.24
100
AcDbArc
 50
354.2893999999988
 51
23.93474313571744
  0
LINE
  5
271
330
2
100
AcDbEntity
  8
0
  6
Continuous
 62
     7
 48
10.0
100
AcDbLine
 10
666.1542178735293
 20
393.357366673107
 30
-150.0
 11
665.6916867075209
 21
392.9387817711656
 31
-150.0
  0
LINE
  5
272
330
2
100
AcDbEntity
  8
0
  6
Continuous
 62
     7
 48
10.0
100
AcDbLine
 10
664.2198829452671
 20
393.4793616051988
 30
-150.0
 11
664.6084501210546
 21
393.049999657226
 31
-150.0
  0
LINE
  5
273
330
2
100
AcDbEntity
  8
0
  6
Continuous
 62
     7
 48
10.0
100
AcDbLine
 10
666.0535670820754
 20
393.4685845591673
 30
-150.0
 11
665.5910359160673
 21
393.049999657226
 31
-150.0
  0
LINE
  5
274
330
2
100
AcDbEntity
  8
0
  6
Continuous
 62
     7
 48
10.0
100
AcDbLine
 10
664.4907386722612
 20
397.8749996572261
 30
-150.0
 11
666.0643262605494
 21
397.8749996572261
 31
-150.0
  0
LINE
  5
275
330
2
100
AcDbEntity
  8
0
  6
Continuous
 62
     7
 48
10.0
100
AcDbLine
 10
664.5857795027644
 20
398.6249996572261
 30
-150.0
 11
666.159367091053
 21
398.6249996572261
 31
-150.0
  0
LINE
  5
276
330
2
100
AcDbEntity
  8
0
  6
Continuous
 62
     7
 48
10.0
100
AcDbLine
 10
666.6163333043575
 20
398.2574591276489
 30
-150.0
 11
666.159367091053
 21
398.6249996572261
 31
-150.0
  0
LINE
  5
277
330
2
100
AcDbEntity
  8
0
  6
Continuous
 62
     7
 48
10.0
100
AcDbLine
 10
666.2674729332576
 20
397.7116076306493
 30
-150.0
 11
666.819479977066
 21
398.0940671010722
 31
-150.0
  0
LINE
  5
278
330
2
100
AcDbEntity
  8
0
  6
Continuous
 62
     7
 48
10.0
100
AcDbLine
 10
666.0643262605494
 20
397.8749996572261
 30
-150.0
 11
666.6163333043575
 21
398.2574591276489
 31
-150.0
  0
LINE
  5
279
330
2
100
AcDbEntity
  8
0
  6
Continuous
 62
     7
 48
10.0
100
AcDbLine
 10
666.7360723180613
 20
394.860198121946
 30
-150.0
 11
667.0415947664734
 21
397.9154189101362
 31
-150.0
  0
LINE
  5
27A
330
2
100
AcDbEntity
  8
0
  6
Continuous
 62
     7
 48
10.0
100
AcDbLine
 10
666.830625786248
 20
398.4059322133798
 30
-150.0
 11
667.1100028927298
 21
398.5994993451616
 31
-150.0
  0
LINE
  5
27B
330
2
100
AcDbEntity
  8
0
  6
Continuous
 62
     7
 48
10.0
100
AcDbLine
 10
667.0415947664734
 20
397.9154189101362
 30
-150.0
 11
666.819479977066
 21
398.0940671010722
 31
-150.0
  0
LINE
  5
27C
330
2
100
AcDbEntity
  8
0
  6
Continuous
 62
     7
 48
10.0
100
AcDbLine
 10
671.2880869903344
 20
395.4177509763155
 30
-150.0
 11
671.5174729332576
 21
397.7116076306493
 31
-150.0
  0
LINE
  5
27D
330
2
100
AcDbEntity
  8
0
  6
Continuous
 62
     7
 48
10.0
100
AcDbLine
 10
671.9860723180613
 20
394.860198121946
 30
-150.0
 11
672.2915947664732
 21
397.9154189101362
 31
-150.0
  0
LINE
  5
27E
330
2
100
AcDbEntity
  8
0
  6
Continuous
 62
     7
 48
10.0
100
AcDbLine
 10
669.2973295361229
 20
395.43536280066
 30
-150.0
 11
669.5264461903707
 21
397.726526571495
 31
-150.0
  0
LINE
  5
27F
330
2
100
AcDbEntity
  8
0
  6
Continuous
 62
     7
 48
10.0
100
AcDbLine
 10
668.4940326347472
 20
394.9398011925059
 30
-150.0
 11
668.7901028705843
 21
397.9004999692904
 31
-150.0
  0
ARC
  5
280
330
2
100
AcDbEntity
  8
0
  6
Continuous
 62
     7
 48
10.0
100
AcDbCircle
 10
671.5880574467448
 20
394.899999657226
 30
-150.0
 40
0.4
100
AcDbArc
 50
330.3546568642829
 51
354.2893999999988
  0
LINE
  5
281
330
2
100
AcDbEntity
  8
0
  6
Continuous
 62
     7
 48
10.0
100
AcDbLine
 10
671.7503358065461
 20
394.5343964106046
 30
-150.0
 11
671.1027238469
 21
395.2499996572261
 31
-150.0
  0
LINE
  5
282
330
2
100
AcDbEntity
  8
0
  6
Continuous
 62
     7
 48
10.0
100
AcDbLine
 10
671.9356989499803
 20
394.702147729694
 30
-150.0
 11
671.2880869903344
 21
395.4177509763155
 31
-150.0
  0
ARC
  5
283
330
2
100
AcDbEntity
  8
0
  6
Continuous
 62
     7
 48
10.0
100
AcDbCircle
 10
671.5880574467448
 20
394.899999657226
 30
-150.0
 40
0.4
100
AcDbArc
 50
270.0
 51
293.9347431357138
  0
LINE
  5
284
330
2
100
AcDbEntity
  8
0
  6
Continuous
 62
     7
 48
10.0
100
AcDbLine
 10
668.5264442594425
 20
394.7377212974245
 30
-150.0
 11
669.2973295361229
 21
395.43536280066
 31
-150.0
  0
LINE
  5
285
330
2
100
AcDbEntity
  8
0
  6
Continuous
 62
     7
 48
10.0
100
AcDbLine
 10
668.694195578532
 20
394.5523581539904
 30
-150.0
 11
669.4650808552125
 21
395.2499996572261
 31
-150.0
  0
ARC
  5
286
330
2
100
AcDbEntity
  8
0
  6
Continuous
 62
     7
 48
10.0
100
AcDbCircle
 10
668.8920475060638
 20
394.899999657226
 30
-150.0
 40
0.4
100
AcDbArc
 50
240.3546568642865
 51
270.0
  0
ARC
  5
287
330
2
100
AcDbEntity
  8
0
  6
Continuous
 62
     7
 48
10.0
100
AcDbCircle
 10
668.8920475060638
 20
394.899999657226
 30
-150.0
 40
0.4
100
AcDbArc
 50
174.2893999999988
 51
203.9347431357174
  0
ARC
  5
288
330
2
100
AcDbEntity
  8
0
  6
Continuous
 62
     7
 48
10.0
100
AcDbCircle
 10
669.0848559255564
 20
393.259999657226
 30
-150.0
 40
0.24
100
AcDbArc
 50
60.35465686428649
 51
90.0
  0
ARC
  5
289
330
2
100
AcDbEntity
  8
0
  6
Continuous
 62
     7
 48
10.0
100
AcDbCircle
 10
670.6172499611481
 20
393.259999657226
 30
-150.0
 40
0.24
100
AcDbArc
 50
90.0
 51
113.9347431357138
  0
LINE
  5
28A
330
2
100
AcDbEntity
  8
0
  6
Continuous
 62
     7
 48
10.0
100
AcDbLine
 10
669.4650808552125
 20
395.2499996572261
 30
-150.0
 11
671.1027238469
 21
395.2499996572261
 31
-150.0
  0
LINE
  5
28B
330
2
100
AcDbEntity
  8
0
  6
Continuous
 62
     7
 48
10.0
100
AcDbLine
 10
668.8920475060638
 20
394.4999996572261
 30
-150.0
 11
671.5880574467448
 21
394.4999996572261
 31
-150.0
  0
LINE
  5
28C
330
2
100
AcDbEntity
  8
0
  6
Continuous
 62
     7
 48
10.0
100
AcDbLine
 10
670.6172499611481
 20
393.499999657226
 30
-150.0
 11
672.2348559255564
 21
393.499999657226
 31
-150.0
  0
LINE
  5
28D
330
2
100
AcDbEntity
  8
0
  6
Continuous
 62
     7
 48
10.0
100
AcDbLine
 10
670.9084501210545
 20
393.049999657226
 30
-150.0
 11
671.8910359160672
 21
393.049999657226
 31
-150.0
  0
LINE
  5
28E
330
2
100
AcDbEntity
  8
0
  6
Continuous
 62
     7
 48
10.0
100
AcDbLine
 10
669.3042178735291
 20
393.357366673107
 30
-150.0
 11
668.841686707521
 21
392.9387817711656
 31
-150.0
  0
ARC
  5
28F
330
2
100
AcDbEntity
  8
0
  6
Continuous
 62
     7
 48
10.0
100
AcDbCircle
 10
669.0848559255564
 20
393.259999657226
 30
-150.0
 40
0.24
100
AcDbArc
 50
354.2893999999988
 51
23.93474313571744
  0
LINE
  5
290
330
2
100
AcDbEntity
  8
0
  6
Continuous
 62
     7
 48
10.0
100
AcDbLine
 10
669.2035670820756
 20
393.4685845591673
 30
-150.0
 11
668.7410359160672
 21
393.049999657226
 31
-150.0
  0
LINE
  5
291
330
2
100
AcDbEntity
  8
0
  6
Continuous
 62
     7
 48
10.0
100
AcDbLine
 10
670.5198829452671
 20
393.4793616051988
 30
-150.0
 11
670.9084501210545
 21
393.049999657226
 31
-150.0
  0
ARC
  5
292
330
2
100
AcDbEntity
  8
0
  6
Continuous
 62
     7
 48
10.0
100
AcDbCircle
 10
670.6172499611481
 20
393.259999657226
 30
-150.0
 40
0.24
100
AcDbArc
 50
150.3546568642828
 51
174.2893999999988
  0
LINE
  5
293
330
2
100
AcDbEntity
  8
0
  6
Continuous
 62
     7
 48
10.0
100
AcDbLine
 10
670.4086650592067
 20
393.3787108137451
 30
-150.0
 11
670.7972322349942
 21
392.9493488657723
 31
-150.0
  0
LINE
  5
294
330
2
100
AcDbEntity
  8
0
  6
Continuous
 62
     7
 48
10.0
100
AcDbLine
 10
671.5174729332576
 20
397.7116076306493
 30
-150.0
 11
672.0694799770658
 21
398.0940671010722
 31
-150.0
  0
LINE
  5
295
330
2
100
AcDbEntity
  8
0
  6
Continuous
 62
     7
 48
10.0
100
AcDbLine
 10
671.8663333043576
 20
398.2574591276489
 30
-150.0
 11
671.4093670910528
 21
398.6249996572261
 31
-150.0
  0
LINE
  5
296
330
2
100
AcDbEntity
  8
0
  6
Continuous
 62
     7
 48
10.0
100
AcDbLine
 10
671.3143262605496
 20
397.8749996572261
 30
-150.0
 11
671.8663333043576
 21
398.2574591276489
 31
-150.0
  0
LINE
  5
297
330
2
100
AcDbEntity
  8
0
  6
Continuous
 62
     7
 48
10.0
100
AcDbLine
 10
672.2915947664732
 20
397.9154189101362
 30
-150.0
 11
672.0694799770658
 21
398.0940671010722
 31
-150.0
  0
LINE
  5
298
330
2
100
AcDbEntity
  8
0
  6
Continuous
 62
     7
 48
10.0
100
AcDbLine
 10
669.8357795027645
 20
398.6249996572261
 30
-150.0
 11
669.2837724589564
 21
398.2425401868031
 31
-150.0
  0
LINE
  5
299
330
2
100
AcDbEntity
  8
0
  6
Continuous
 62
     7
 48
10.0
100
AcDbLine
 10
669.2837724589564
 20
398.2425401868031
 30
-150.0
 11
669.7407386722613
 21
397.8749996572261
 31
-150.0
  0
LINE
  5
29A
330
2
100
AcDbEntity
  8
0
  6
Continuous
 62
     7
 48
10.0
100
AcDbLine
 10
668.8585109968405
 20
398.5845804043158
 30
-150.0
 11
669.080625786248
 21
398.4059322133798
 31
-150.0
  0
LINE
  5
29B
330
2
100
AcDbEntity
  8
0
  6
Continuous
 62
     7
 48
10.0
100
AcDbLine
 10
669.069479977066
 20
398.0940671010722
 30
-150.0
 11
668.7901028705843
 21
397.9004999692904
 31
-150.0
  0
LINE
  5
29C
330
2
100
AcDbEntity
  8
0
  6
Continuous
 62
     7
 48
10.0
100
AcDbLine
 10
669.069479977066
 20
398.0940671010722
 30
-150.0
 11
669.5264461903707
 21
397.726526571495
 31
-150.0
  0
LINE
  5
29D
330
2
100
AcDbEntity
  8
0
  6
Continuous
 62
     7
 48
10.0
100
AcDbLine
 10
669.7407386722613
 20
397.8749996572261
 30
-150.0
 11
671.3143262605496
 21
397.8749996572261
 31
-150.0
  0
LINE
  5
29E
330
2
100
AcDbEntity
  8
0
  6
Continuous
 62
     7
 48
10.0
100
AcDbLine
 10
669.8357795027645
 20
398.6249996572261
 30
-150.0
 11
671.4093670910528
 21
398.6249996572261
 31
-150.0
  0
ARC
  5
29F
330
2
100
AcDbEntity
  8
0
  6
Continuous
 62
     7
 48
10.0
100
AcDbCircle
 10
676.4999853029117
 20
389.5000720863824
 30
-150.0
 40
2.0
100
AcDbArc
 50
270.0
 51
0.0
  0
LINE
  5
2A0
330
2
100
AcDbEntity
  8
0
  6
Continuous
 62
     7
 48
10.0
100
AcDbLine
 10
675.0042167149722
 20
391.5640835086646
 30
-150.0
 11
675.1416867075208
 21
392.9387817711656
 31
-150.0
  0
LINE
  5
2A1
330
2
100
AcDbEntity
  8
0
  6
Continuous
 62
     7
 48
10.0
100
AcDbLine
 10
675.4460227068442
 20
391.4596994699873
 30
-150.0
 11
675.6236648483465
 21
393.2361187360582
 31
-150.0
  0
LINE
  5
2A2
330
2
100
AcDbEntity
  8
0
  6
Continuous
 62
     7
 48
10.0
100
AcDbLine
 10
673.3451275693106
 20
391.4507481054799
 30
-150.0
 11
673.5284410383578
 21
393.2838805783939
 31
-150.0
  0
LINE
  5
2A3
330
2
100
AcDbEntity
  8
0
  6
Continuous
 62
     7
 48
10.0
100
AcDbLine
 10
673.8096006692402
 20
391.573034873172
 30
-150.0
 11
673.9472322349943
 21
392.9493488657723
 31
-150.0
  0
LINE
  5
2A4
330
2
100
AcDbEntity
  8
0
  6
Continuous
 62
     7
 48
10.0
100
AcDbLine
 10
675.1914403411944
 20
389.1212885007068
 30
-150.0
 11
674.8028731654066
 21
389.5506504486797
 31
-150.0
  0
LINE
  5
2A5
330
2
100
AcDbEntity
  8
0
  6
Continuous
 62
     7
 48
10.0
100
AcDbLine
 10
675.2783964429552
 20
391.3435591909184
 30
-150.0
 11
675.0042167149722
 21
391.5640835086646
 31
-150.0
  0
LINE
  5
2A6
330
2
100
AcDbEntity
  8
0
  6
Continuous
 62
     7
 48
10.0
100
AcDbLine
 10
674.940504731161
 20
390.92696444128
 30
-150.0
 11
675.2717089574457
 21
391.1564401235337
 31
-150.0
  0
LINE
  5
2A7
330
2
100
AcDbEntity
  8
0
  6
Continuous
 62
     7
 48
10.0
100
AcDbLine
 10
674.8028731654066
 20
389.5506504486797
 30
-150.0
 11
674.940504731161
 21
390.92696444128
 31
-150.0
  0
ARC
  5
2A8
330
2
100
AcDbEntity
  8
0
  6
Continuous
 62
     7
 48
10.0
100
AcDbCircle
 10
674.982855439253
 20
389.239999657226
 30
-150.0
 40
0.24
100
AcDbArc
 50
270.0
 51
293.9347431357138
  0
LINE
  5
2A9
330
2
100
AcDbEntity
  8
0
  6
Continuous
 62
     7
 48
10.0
100
AcDbLine
 10
675.0802224551339
 20
389.0206377092532
 30
-150.0
 11
674.6916552793464
 21
389.449999657226
 31
-150.0
  0
LINE
  5
2AA
330
2
100
AcDbEntity
  8
0
  6
Continuous
 62
     7
 48
10.0
100
AcDbLine
 10
675.1498209538208
 20
391.2544753394798
 30
-150.0
 11
674.8756412258382
 21
391.474999657226
 31
-150.0
  0
LINE
  5
2AB
330
2
100
AcDbEntity
  8
0
  6
Continuous
 62
     7
 48
10.0
100
AcDbLine
 10
674.8186167275361
 20
391.0249996572261
 30
-150.0
 11
675.1498209538208
 21
391.2544753394798
 31
-150.0
  0
LINE
  5
2AC
330
2
100
AcDbEntity
  8
0
  6
Continuous
 62
     7
 48
10.0
100
AcDbLine
 10
675.2216643620433
 20
389.216118736058
 30
-150.0
 11
675.4049778310906
 21
391.0492512089721
 31
-150.0
  0
ARC
  5
2AD
330
2
100
AcDbEntity
  8
0
  6
Continuous
 62
     7
 48
10.0
100
AcDbCircle
 10
674.982855439253
 20
389.239999657226
 30
-150.0
 40
0.24
100
AcDbArc
 50
330.3546568642829
 51
354.2893999999988
  0
LINE
  5
2AE
330
2
100
AcDbEntity
  8
0
  6
Continuous
 62
     7
 48
10.0
100
AcDbLine
 10
675.2783964429552
 20
391.3435591909184
 30
-150.0
 11
675.4460227068442
 21
391.4596994699873
 31
-150.0
  0
LINE
  5
2AF
330
2
100
AcDbEntity
  8
0
  6
Continuous
 62
     7
 48
10.0
100
AcDbLine
 10
675.4049778310906
 20
391.0492512089721
 30
-150.0
 11
675.2717089574457
 21
391.1564401235337
 31
-150.0
  0
LINE
  5
2B0
330
2
100
AcDbEntity
  8
0
  6
Continuous
 62
     7
 48
10.0
100
AcDbLine
 10
673.6084186928803
 20
389.5612175432864
 30
-150.0
 11
673.7458886854287
 21
390.9359158057874
 31
-150.0
  0
LINE
  5
2B1
330
2
100
AcDbEntity
  8
0
  6
Continuous
 62
     7
 48
10.0
100
AcDbLine
 10
673.1264405520548
 20
389.2638805783939
 30
-150.0
 11
673.3040826935567
 21
391.0402998444647
 31
-150.0
  0
ARC
  5
2B2
330
2
100
AcDbEntity
  8
0
  6
Continuous
 62
     7
 48
10.0
100
AcDbCircle
 10
673.3652494748447
 20
389.239999657226
 30
-150.0
 40
0.24
100
AcDbArc
 50
174.2893999999988
 51
203.9347431357174
  0
LINE
  5
2B3
330
2
100
AcDbEntity
  8
0
  6
Continuous
 62
     7
 48
10.0
100
AcDbLine
 10
672.3950524824528
 20
389.449999657226
 30
-150.0
 11
672.8450524824527
 21
389.449999657226
 31
-150.0
  0
LINE
  5
2B4
330
2
100
AcDbEntity
  8
0
  6
Continuous
 62
     7
 48
10.0
100
AcDbLine
 10
672.8000524280157
 20
388.9999996572261
 30
-150.0
 11
672.8450524824527
 21
389.449999657226
 31
-150.0
  0
LINE
  5
2B5
330
2
100
AcDbEntity
  8
0
  6
Continuous
 62
     7
 48
10.0
100
AcDbLine
 10
672.3500524280157
 20
388.9999996572261
 30
-150.0
 11
672.8000524280157
 21
388.9999996572261
 31
-150.0
  0
LINE
  5
2B6
330
2
100
AcDbEntity
  8
0
  6
Continuous
 62
     7
 48
10.0
100
AcDbLine
 10
672.3500524280157
 20
388.9999996572261
 30
-150.0
 11
672.3950524824528
 21
389.449999657226
 31
-150.0
  0
ARC
  5
2B7
330
2
100
AcDbEntity
  8
0
  6
Continuous
 62
     7
 48
10.0
100
AcDbCircle
 10
673.3652494748447
 20
389.239999657226
 30
-150.0
 40
0.24
100
AcDbArc
 50
240.3546568642865
 51
270.0
  0
LINE
  5
2B8
330
2
100
AcDbEntity
  8
0
  6
Continuous
 62
     7
 48
10.0
100
AcDbLine
 10
673.1458875268717
 20
389.142632641345
 30
-150.0
 11
673.6084186928803
 21
389.5612175432864
 31
-150.0
  0
LINE
  5
2B9
330
2
100
AcDbEntity
  8
0
  6
Continuous
 62
     7
 48
10.0
100
AcDbLine
 10
673.2465383183256
 20
389.0314147552846
 30
-150.0
 11
673.7090694843337
 21
389.449999657226
 31
-150.0
  0
LINE
  5
2BA
330
2
100
AcDbEntity
  8
0
  6
Continuous
 62
     7
 48
10.0
100
AcDbLine
 10
673.3451275693106
 20
391.4507481054799
 30
-150.0
 11
673.4783964429554
 21
391.3435591909184
 31
-150.0
  0
LINE
  5
2BB
330
2
100
AcDbEntity
  8
0
  6
Continuous
 62
     7
 48
10.0
100
AcDbLine
 10
673.9314886728648
 20
391.474999657226
 30
-150.0
 11
673.6002844465801
 21
391.2455239749722
 31
-150.0
  0
LINE
  5
2BC
330
2
100
AcDbEntity
  8
0
  6
Continuous
 62
     7
 48
10.0
100
AcDbLine
 10
673.8096006692402
 20
391.573034873172
 30
-150.0
 11
673.4783964429554
 21
391.3435591909184
 31
-150.0
  0
LINE
  5
2BD
330
2
100
AcDbEntity
  8
0
  6
Continuous
 62
     7
 48
10.0
100
AcDbLine
 10
673.4717089574459
 20
391.1564401235337
 30
-150.0
 11
673.7458886854287
 21
390.9359158057874
 31
-150.0
  0
LINE
  5
2BE
330
2
100
AcDbEntity
  8
0
  6
Continuous
 62
     7
 48
10.0
100
AcDbLine
 10
673.6002844465801
 20
391.2455239749722
 30
-150.0
 11
673.8744641745629
 21
391.0249996572261
 31
-150.0
  0
LINE
  5
2BF
330
2
100
AcDbEntity
  8
0
  6
Continuous
 62
     7
 48
10.0
100
AcDbLine
 10
673.4717089574459
 20
391.1564401235337
 30
-150.0
 11
673.3040826935567
 21
391.0402998444647
 31
-150.0
  0
LINE
  5
2C0
330
2
100
AcDbEntity
  8
0
  6
Continuous
 62
     7
 48
10.0
100
AcDbLine
 10
673.3652494748447
 20
388.9999996572261
 30
-150.0
 11
674.982855439253
 21
388.9999996572261
 31
-150.0
  0
LINE
  5
2C1
330
2
100
AcDbEntity
  8
0
  6
Continuous
 62
     7
 48
10.0
100
AcDbLine
 10
673.7090694843337
 20
389.449999657226
 30
-150.0
 11
674.6916552793464
 21
389.449999657226
 31
-150.0
  0
LINE
  5
2C2
330
2
100
AcDbEntity
  8
0
  6
Continuous
 62
     7
 48
10.0
100
AcDbLine
 10
673.8744641745629
 20
391.0249996572261
 30
-150.0
 11
674.8186167275361
 21
391.0249996572261
 31
-150.0
  0
LINE
  5
2C3
330
2
100
AcDbEntity
  8
0
  6
Continuous
 62
     7
 48
10.0
100
AcDbLine
 10
673.9314886728648
 20
391.474999657226
 30
-150.0
 11
674.8756412258382
 21
391.474999657226
 31
-150.0
  0
LINE
  5
2C4
330
2
100
AcDbEntity
  8
0
  6
Continuous
 62
     7
 48
10.0
100
AcDbLine
 10
675.6042178735294
 20
393.357366673107
 30
-150.0
 11
675.1416867075208
 21
392.9387817711656
 31
-150.0
  0
LINE
  5
2C5
330
2
100
AcDbEntity
  8
0
  6
Continuous
 62
     7
 48
10.0
100
AcDbLine
 10
675.5035670820756
 20
393.4685845591673
 30
-150.0
 11
675.0410359160675
 21
393.049999657226
 31
-150.0
  0
ARC
  5
2C6
330
2
100
AcDbEntity
  8
0
  6
Continuous
 62
     7
 48
10.0
100
AcDbCircle
 10
675.3848559255565
 20
393.259999657226
 30
-150.0
 40
0.24
100
AcDbArc
 50
60.35465686428649
 51
90.0
  0
ARC
  5
2C7
330
2
100
AcDbEntity
  8
0
  6
Continuous
 62
     7
 48
10.0
100
AcDbCircle
 10
675.3848559255565
 20
393.259999657226
 30
-150.0
 40
0.24
100
AcDbArc
 50
354.2893999999988
 51
23.93474313571744
  0
ARC
  5
2C8
330
2
100
AcDbEntity
  8
0
  6
Continuous
 62
     7
 48
10.0
100
AcDbCircle
 10
673.767249961148
 20
393.259999657226
 30
-150.0
 40
0.24
100
AcDbArc
 50
90.0
 51
113.9347431357138
  0
ARC
  5
2C9
330
2
100
AcDbEntity
  8
0
  6
Continuous
 62
     7
 48
10.0
100
AcDbCircle
 10
672.2348559255564
 20
393.259999657226
 30
-150.0
 40
0.24
100
AcDbArc
 50
354.2893999999988
 51
23.93474313571744
  0
LINE
  5
2CA
330
2
100
AcDbEntity
  8
0
  6
Continuous
 62
     7
 48
10.0
100
AcDbLine
 10
673.5586650592066
 20
393.3787108137451
 30
-150.0
 11
673.9472322349943
 21
392.9493488657723
 31
-150.0
  0
ARC
  5
2CB
330
2
100
AcDbEntity
  8
0
  6
Continuous
 62
     7
 48
10.0
100
AcDbCircle
 10
673.767249961148
 20
393.259999657226
 30
-150.0
 40
0.24
100
AcDbArc
 50
150.3546568642828
 51
174.2893999999988
  0
LINE
  5
2CC
330
2
100
AcDbEntity
  8
0
  6
Continuous
 62
     7
 48
10.0
100
AcDbLine
 10
673.6698829452672
 20
393.4793616051988
 30
-150.0
 11
674.0584501210547
 21
393.049999657226
 31
-150.0
  0
LINE
  5
2CD
330
2
100
AcDbEntity
  8
0
  6
Continuous
 62
     7
 48
10.0
100
AcDbLine
 10
673.767249961148
 20
393.499999657226
 30
-150.0
 11
675.3848559255565
 21
393.499999657226
 31
-150.0
  0
LINE
  5
2CE
330
2
100
AcDbEntity
  8
0
  6
Continuous
 62
     7
 48
10.0
100
AcDbLine
 10
674.0584501210547
 20
393.049999657226
 30
-150.0
 11
675.0410359160675
 21
393.049999657226
 31
-150.0
  0
LINE
  5
2CF
330
2
100
AcDbEntity
  8
0
  6
Continuous
 62
     7
 48
10.0
100
AcDbLine
 10
651.4999853029117
 20
409.5000720863823
 30
-150.0
 11
676.4999853029117
 21
409.5000720863823
 31
-150.0
  0
LINE
  5
2D0
330
2
100
AcDbEntity
  8
0
  6
Continuous
 62
     7
 48
10.0
100
AcDbLine
 10
651.0000524280159
 20
408.499999657226
 30
-150.0
 11
677.0000524280159
 21
408.499999657226
 31
-150.0
  0
ARC
  5
2D1
330
2
100
AcDbEntity
  8
0
  6
Continuous
 62
     7
 48
10.0
100
AcDbCircle
 10
655.5000524280159
 20
405.4999996572258
 30
-150.0
 40
0.5
100
AcDbArc
 50
270.0
 51
0.0
  0
ARC
  5
2D2
330
2
100
AcDbEntity
  8
0
  6
Continuous
 62
     7
 48
10.0
100
AcDbCircle
 10
655.5000524280159
 20
405.4999996572258
 30
-150.0
 40
0.5
100
AcDbArc
 50
0.0
 51
90.0
  0
LINE
  5
2D3
330
2
100
AcDbEntity
  8
0
  6
Continuous
 62
     7
 48
10.0
100
AcDbLine
 10
653.8120483165695
 20
401.9999996572258
 30
-150.0
 11
656.5080582572501
 21
401.9999996572258
 31
-150.0
  0
LINE
  5
2D4
330
2
100
AcDbEntity
  8
0
  6
Continuous
 62
     7
 48
10.0
100
AcDbLine
 10
655.8736595729433
 20
398.773472742957
 30
-150.0
 11
656.1027762271911
 21
401.0646365137918
 31
-150.0
  0
LINE
  5
2D5
330
2
100
AcDbEntity
  8
0
  6
Continuous
 62
     7
 48
10.0
100
AcDbLine
 10
656.705910184782
 20
401.9476411604615
 30
-150.0
 11
655.9350249081014
 21
401.249999657226
 31
-150.0
  0
LINE
  5
2D6
330
2
100
AcDbEntity
  8
0
  6
Continuous
 62
     7
 48
10.0
100
AcDbLine
 10
654.2973819164139
 20
401.249999657226
 30
-150.0
 11
655.9350249081014
 21
401.249999657226
 31
-150.0
  0
LINE
  5
2D7
330
2
100
AcDbEntity
  8
0
  6
Continuous
 62
     7
 48
10.0
100
AcDbLine
 10
653.8826328300564
 20
398.7883916838027
 30
-150.0
 11
654.1120187729799
 21
401.0822483381365
 31
-150.0
  0
LINE
  5
2D8
330
2
100
AcDbEntity
  8
0
  6
Continuous
 62
     7
 48
10.0
100
AcDbLine
 10
653.6497699567677
 20
401.9656029038473
 30
-150.0
 11
654.2973819164139
 21
401.249999657226
 31
-150.0
  0
ARC
  5
2D9
330
2
100
AcDbEntity
  8
0
  6
Continuous
 62
     7
 48
10.0
100
AcDbCircle
 10
653.8120483165695
 20
401.599999657226
 30
-150.0
 40
0.4
100
AcDbArc
 50
90.0
 51
113.9347431357138
  0
ARC
  5
2DA
330
2
100
AcDbEntity
  8
0
  6
Continuous
 62
     7
 48
10.0
100
AcDbCircle
 10
653.8120483165695
 20
401.599999657226
 30
-150.0
 40
0.4
100
AcDbArc
 50
150.3546568642828
 51
174.2893999999988
  0
LINE
  5
2DB
330
2
100
AcDbEntity
  8
0
  6
Continuous
 62
     7
 48
10.0
100
AcDbLine
 10
653.4644068133338
 20
401.7978515847578
 30
-150.0
 11
654.1120187729799
 21
401.0822483381365
 31
-150.0
  0
ARC
  5
2DC
330
2
100
AcDbEntity
  8
0
  6
Continuous
 62
     7
 48
10.0
100
AcDbCircle
 10
651.4999853029117
 20
407.5000720863823
 30
-150.0
 40
2.0
100
AcDbArc
 50
90.0
 51
180.0
  0
LINE
  5
2DD
330
2
100
AcDbEntity
  8
0
  6
Continuous
 62
     7
 48
10.0
100
AcDbLine
 10
653.0000524280159
 20
405.9999996572258
 30
-150.0
 11
655.5000524280159
 21
405.9999996572258
 31
-150.0
  0
LINE
  5
2DE
330
2
100
AcDbEntity
  8
0
  6
Continuous
 62
     7
 48
10.0
100
AcDbLine
 10
653.0000524280159
 20
404.9999996572259
 30
-150.0
 11
655.5000524280159
 21
404.9999996572259
 31
-150.0
  0
ARC
  5
2DF
330
2
100
AcDbEntity
  8
0
  6
Continuous
 62
     7
 48
10.0
100
AcDbCircle
 10
653.0000524280159
 20
405.4999996572258
 30
-150.0
 40
0.5
100
AcDbArc
 50
180.0
 51
270.0
  0
ARC
  5
2E0
330
2
100
AcDbEntity
  8
0
  6
Continuous
 62
     7
 48
10.0
100
AcDbCircle
 10
653.0000524280159
 20
405.4999996572258
 30
-150.0
 40
0.5
100
AcDbArc
 50
90.0
 51
180.0
  0
LINE
  5
2E1
330
2
100
AcDbEntity
  8
0
  6
Continuous
 62
     7
 48
10.0
100
AcDbLine
 10
652.5000524280159
 20
405.4999996572258
 30
-150.0
 11
652.5000524280159
 21
405.4999996572258
 31
-150.0
  0
LINE
  5
2E2
330
2
100
AcDbEntity
  8
0
  6
Continuous
 62
     7
 48
10.0
100
AcDbLine
 10
672.6236615038716
 20
401.7622780170275
 30
-150.0
 11
671.8527762271911
 21
401.0646365137918
 31
-150.0
  0
LINE
  5
2E3
330
2
100
AcDbEntity
  8
0
  6
Continuous
 62
     7
 48
10.0
100
AcDbLine
 10
672.4559101847821
 20
401.9476411604615
 30
-150.0
 11
671.6850249081017
 21
401.249999657226
 31
-150.0
  0
ARC
  5
2E4
330
2
100
AcDbEntity
  8
0
  6
Continuous
 62
     7
 48
10.0
100
AcDbCircle
 10
672.2580582572501
 20
401.599999657226
 30
-150.0
 40
0.4
100
AcDbArc
 50
60.35465686428649
 51
90.0
  0
LINE
  5
2E5
330
2
100
AcDbEntity
  8
0
  6
Continuous
 62
     7
 48
10.0
100
AcDbLine
 10
663.9644068133337
 20
401.7978515847578
 30
-150.0
 11
664.6120187729799
 21
401.0822483381365
 31
-150.0
  0
LINE
  5
2E6
330
2
100
AcDbEntity
  8
0
  6
Continuous
 62
     7
 48
10.0
100
AcDbLine
 10
663.0000524280159
 20
404.9999996572259
 30
-150.0
 11
665.5000524280159
 21
404.9999996572259
 31
-150.0
  0
LINE
  5
2E7
330
2
100
AcDbEntity
  8
0
  6
Continuous
 62
     7
 48
10.0
100
AcDbLine
 10
663.0000524280159
 20
405.9999996572258
 30
-150.0
 11
665.5000524280159
 21
405.9999996572258
 31
-150.0
  0
LINE
  5
2E8
330
2
100
AcDbEntity
  8
0
  6
Continuous
 62
     7
 48
10.0
100
AcDbLine
 10
659.0620483165695
 20
401.9999996572258
 30
-150.0
 11
661.7580582572501
 21
401.9999996572258
 31
-150.0
  0
LINE
  5
2E9
330
2
100
AcDbEntity
  8
0
  6
Continuous
 62
     7
 48
10.0
100
AcDbLine
 10
659.5473819164139
 20
401.249999657226
 30
-150.0
 11
661.1850249081014
 21
401.249999657226
 31
-150.0
  0
LINE
  5
2EA
330
2
100
AcDbEntity
  8
0
  6
Continuous
 62
     7
 48
10.0
100
AcDbLine
 10
659.1326328300564
 20
398.7883916838027
 30
-150.0
 11
659.3620187729799
 21
401.0822483381365
 31
-150.0
  0
LINE
  5
2EB
330
2
100
AcDbEntity
  8
0
  6
Continuous
 62
     7
 48
10.0
100
AcDbLine
 10
658.7144068133337
 20
401.7978515847578
 30
-150.0
 11
659.3620187729799
 21
401.0822483381365
 31
-150.0
  0
LINE
  5
2EC
330
2
100
AcDbEntity
  8
0
  6
Continuous
 62
     7
 48
10.0
100
AcDbLine
 10
658.8997699567677
 20
401.9656029038473
 30
-150.0
 11
659.5473819164139
 21
401.249999657226
 31
-150.0
  0
ARC
  5
2ED
330
2
100
AcDbEntity
  8
0
  6
Continuous
 62
     7
 48
10.0
100
AcDbCircle
 10
659.0620483165695
 20
401.599999657226
 30
-150.0
 40
0.4
100
AcDbArc
 50
90.0
 51
113.9347431357138
  0
ARC
  5
2EE
330
2
100
AcDbEntity
  8
0
  6
Continuous
 62
     7
 48
10.0
100
AcDbCircle
 10
659.0620483165695
 20
401.599999657226
 30
-150.0
 40
0.4
100
AcDbArc
 50
150.3546568642828
 51
174.2893999999988
  0
ARC
  5
2EF
330
2
100
AcDbEntity
  8
0
  6
Continuous
 62
     7
 48
10.0
100
AcDbCircle
 10
656.5080582572501
 20
401.599999657226
 30
-150.0
 40
0.4
100
AcDbArc
 50
60.35465686428649
 51
90.0
  0
LINE
  5
2F0
330
2
100
AcDbEntity
  8
0
  6
Continuous
 62
     7
 48
10.0
100
AcDbLine
 10
656.8736615038716
 20
401.7622780170275
 30
-150.0
 11
656.1027762271911
 21
401.0646365137918
 31
-150.0
  0
ARC
  5
2F1
330
2
100
AcDbEntity
  8
0
  6
Continuous
 62
     7
 48
10.0
100
AcDbCircle
 10
656.5080582572501
 20
401.599999657226
 30
-150.0
 40
0.4
100
AcDbArc
 50
354.2893999999988
 51
23.93474313571744
  0
ARC
  5
2F2
330
2
100
AcDbEntity
  8
0
  6
Continuous
 62
     7
 48
10.0
100
AcDbCircle
 10
664.3120483165695
 20
401.599999657226
 30
-150.0
 40
0.4
100
AcDbArc
 50
150.3546568642828
 51
174.2893999999988
  0
LINE
  5
2F3
330
2
100
AcDbEntity
  8
0
  6
Continuous
 62
     7
 48
10.0
100
AcDbLine
 10
661.1236595729433
 20
398.773472742957
 30
-150.0
 11
661.3527762271911
 21
401.0646365137918
 31
-150.0
  0
ARC
  5
2F4
330
2
100
AcDbEntity
  8
0
  6
Continuous
 62
     7
 48
10.0
100
AcDbCircle
 10
661.7580582572501
 20
401.599999657226
 30
-150.0
 40
0.4
100
AcDbArc
 50
60.35465686428649
 51
90.0
  0
ARC
  5
2F5
330
2
100
AcDbEntity
  8
0
  6
Continuous
 62
     7
 48
10.0
100
AcDbCircle
 10
661.7580582572501
 20
401.599999657226
 30
-150.0
 40
0.4
100
AcDbArc
 50
354.2893999999988
 51
23.93474313571744
  0
LINE
  5
2F6
330
2
100
AcDbEntity
  8
0
  6
Continuous
 62
     7
 48
10.0
100
AcDbLine
 10
662.1236615038716
 20
401.7622780170275
 30
-150.0
 11
661.3527762271911
 21
401.0646365137918
 31
-150.0
  0
LINE
  5
2F7
330
2
100
AcDbEntity
  8
0
  6
Continuous
 62
     7
 48
10.0
100
AcDbLine
 10
661.955910184782
 20
401.9476411604615
 30
-150.0
 11
661.1850249081014
 21
401.249999657226
 31
-150.0
  0
LINE
  5
2F8
330
2
100
AcDbEntity
  8
0
  6
Continuous
 62
     7
 48
10.0
100
AcDbLine
 10
658.0000524280157
 20
405.9999996572258
 30
-150.0
 11
660.5000524280159
 21
405.9999996572258
 31
-150.0
  0
LINE
  5
2F9
330
2
100
AcDbEntity
  8
0
  6
Continuous
 62
     7
 48
10.0
100
AcDbLine
 10
658.0000524280157
 20
404.9999996572259
 30
-150.0
 11
660.5000524280159
 21
404.9999996572259
 31
-150.0
  0
ARC
  5
2FA
330
2
100
AcDbEntity
  8
0
  6
Continuous
 62
     7
 48
10.0
100
AcDbCircle
 10
658.0000524280157
 20
405.4999996572258
 30
-150.0
 40
0.5
100
AcDbArc
 50
90.0
 51
180.0
  0
LINE
  5
2FB
330
2
100
AcDbEntity
  8
0
  6
Continuous
 62
     7
 48
10.0
100
AcDbLine
 10
657.5000524280159
 20
405.4999996572258
 30
-150.0
 11
657.5000524280159
 21
405.4999996572258
 31
-150.0
  0
ARC
  5
2FC
330
2
100
AcDbEntity
  8
0
  6
Continuous
 62
     7
 48
10.0
100
AcDbCircle
 10
658.0000524280157
 20
405.4999996572258
 30
-150.0
 40
0.5
100
AcDbArc
 50
180.0
 51
270.0
  0
LINE
  5
2FD
330
2
100
AcDbEntity
  8
0
  6
Continuous
 62
     7
 48
10.0
100
AcDbLine
 10
656.0000524280159
 20
405.4999996572258
 30
-150.0
 11
656.0000524280159
 21
405.4999996572258
 31
-150.0
  0
ARC
  5
2FE
330
2
100
AcDbEntity
  8
0
  6
Continuous
 62
     7
 48
10.0
100
AcDbCircle
 10
660.5000524280159
 20
405.4999996572258
 30
-150.0
 40
0.5
100
AcDbArc
 50
270.0
 51
0.0
  0
ARC
  5
2FF
330
2
100
AcDbEntity
  8
0
  6
Continuous
 62
     7
 48
10.0
100
AcDbCircle
 10
660.5000524280159
 20
405.4999996572258
 30
-150.0
 40
0.5
100
AcDbArc
 50
0.0
 51
90.0
  0
LINE
  5
300
330
2
100
AcDbEntity
  8
0
  6
Continuous
 62
     7
 48
10.0
100
AcDbLine
 10
661.0000524280159
 20
405.4999996572258
 30
-150.0
 11
661.0000524280159
 21
405.4999996572258
 31
-150.0
  0
ARC
  5
301
330
2
100
AcDbEntity
  8
0
  6
Continuous
 62
     7
 48
10.0
100
AcDbCircle
 10
663.0000524280159
 20
405.4999996572258
 30
-150.0
 40
0.5
100
AcDbArc
 50
180.0
 51
270.0
  0
ARC
  5
302
330
2
100
AcDbEntity
  8
0
  6
Continuous
 62
     7
 48
10.0
100
AcDbCircle
 10
663.0000524280159
 20
405.4999996572258
 30
-150.0
 40
0.5
100
AcDbArc
 50
90.0
 51
180.0
  0
LINE
  5
303
330
2
100
AcDbEntity
  8
0
  6
Continuous
 62
     7
 48
10.0
100
AcDbLine
 10
662.5000524280159
 20
405.4999996572258
 30
-150.0
 11
662.5000524280159
 21
405.4999996572258
 31
-150.0
  0
ARC
  5
304
330
2
100
AcDbEntity
  8
0
  6
Continuous
 62
     7
 48
10.0
100
AcDbCircle
 10
667.0080582572501
 20
401.599999657226
 30
-150.0
 40
0.4
100
AcDbArc
 50
60.35465686428649
 51
90.0
  0
ARC
  5
305
330
2
100
AcDbEntity
  8
0
  6
Continuous
 62
     7
 48
10.0
100
AcDbCircle
 10
667.0080582572501
 20
401.599999657226
 30
-150.0
 40
0.4
100
AcDbArc
 50
354.2893999999988
 51
23.93474313571744
  0
LINE
  5
306
330
2
100
AcDbEntity
  8
0
  6
Continuous
 62
     7
 48
10.0
100
AcDbLine
 10
664.3826328300564
 20
398.7883916838027
 30
-150.0
 11
664.6120187729799
 21
401.0822483381365
 31
-150.0
  0
ARC
  5
307
330
2
100
AcDbEntity
  8
0
  6
Continuous
 62
     7
 48
10.0
100
AcDbCircle
 10
664.3120483165695
 20
401.599999657226
 30
-150.0
 40
0.4
100
AcDbArc
 50
90.0
 51
113.9347431357138
  0
LINE
  5
308
330
2
100
AcDbEntity
  8
0
  6
Continuous
 62
     7
 48
10.0
100
AcDbLine
 10
664.1497699567677
 20
401.9656029038473
 30
-150.0
 11
664.7973819164137
 21
401.249999657226
 31
-150.0
  0
LINE
  5
309
330
2
100
AcDbEntity
  8
0
  6
Continuous
 62
     7
 48
10.0
100
AcDbLine
 10
664.7973819164137
 20
401.249999657226
 30
-150.0
 11
666.4350249081016
 21
401.249999657226
 31
-150.0
  0
LINE
  5
30A
330
2
100
AcDbEntity
  8
0
  6
Continuous
 62
     7
 48
10.0
100
AcDbLine
 10
666.3736595729432
 20
398.773472742957
 30
-150.0
 11
666.6027762271911
 21
401.0646365137918
 31
-150.0
  0
LINE
  5
30B
330
2
100
AcDbEntity
  8
0
  6
Continuous
 62
     7
 48
10.0
100
AcDbLine
 10
664.3120483165695
 20
401.9999996572258
 30
-150.0
 11
667.0080582572501
 21
401.9999996572258
 31
-150.0
  0
LINE
  5
30C
330
2
100
AcDbEntity
  8
0
  6
Continuous
 62
     7
 48
10.0
100
AcDbLine
 10
667.3736615038716
 20
401.7622780170275
 30
-150.0
 11
666.6027762271911
 21
401.0646365137918
 31
-150.0
  0
LINE
  5
30D
330
2
100
AcDbEntity
  8
0
  6
Continuous
 62
     7
 48
10.0
100
AcDbLine
 10
667.205910184782
 20
401.9476411604615
 30
-150.0
 11
666.4350249081016
 21
401.249999657226
 31
-150.0
  0
LINE
  5
30E
330
2
100
AcDbEntity
  8
0
  6
Continuous
 62
     7
 48
10.0
100
AcDbLine
 10
671.6236595729432
 20
398.773472742957
 30
-150.0
 11
671.8527762271911
 21
401.0646365137918
 31
-150.0
  0
LINE
  5
30F
330
2
100
AcDbEntity
  8
0
  6
Continuous
 62
     7
 48
10.0
100
AcDbLine
 10
669.6326328300564
 20
398.7883916838027
 30
-150.0
 11
669.8620187729799
 21
401.0822483381365
 31
-150.0
  0
LINE
  5
310
330
2
100
AcDbEntity
  8
0
  6
Continuous
 62
     7
 48
10.0
100
AcDbLine
 10
669.2144068133337
 20
401.7978515847578
 30
-150.0
 11
669.8620187729799
 21
401.0822483381365
 31
-150.0
  0
LINE
  5
311
330
2
100
AcDbEntity
  8
0
  6
Continuous
 62
     7
 48
10.0
100
AcDbLine
 10
669.3997699567678
 20
401.9656029038473
 30
-150.0
 11
670.0473819164137
 21
401.249999657226
 31
-150.0
  0
ARC
  5
312
330
2
100
AcDbEntity
  8
0
  6
Continuous
 62
     7
 48
10.0
100
AcDbCircle
 10
669.5620483165695
 20
401.599999657226
 30
-150.0
 40
0.4
100
AcDbArc
 50
90.0
 51
113.9347431357138
  0
ARC
  5
313
330
2
100
AcDbEntity
  8
0
  6
Continuous
 62
     7
 48
10.0
100
AcDbCircle
 10
669.5620483165695
 20
401.599999657226
 30
-150.0
 40
0.4
100
AcDbArc
 50
150.3546568642828
 51
174.2893999999988
  0
LINE
  5
314
330
2
100
AcDbEntity
  8
0
  6
Continuous
 62
     7
 48
10.0
100
AcDbLine
 10
669.5620483165695
 20
401.9999996572258
 30
-150.0
 11
672.2580582572501
 21
401.9999996572258
 31
-150.0
  0
LINE
  5
315
330
2
100
AcDbEntity
  8
0
  6
Continuous
 62
     7
 48
10.0
100
AcDbLine
 10
670.0473819164137
 20
401.249999657226
 30
-150.0
 11
671.6850249081017
 21
401.249999657226
 31
-150.0
  0
LINE
  5
316
330
2
100
AcDbEntity
  8
0
  6
Continuous
 62
     7
 48
10.0
100
AcDbLine
 10
668.0000524280159
 20
404.9999996572259
 30
-150.0
 11
670.5000524280157
 21
404.9999996572259
 31
-150.0
  0
LINE
  5
317
330
2
100
AcDbEntity
  8
0
  6
Continuous
 62
     7
 48
10.0
100
AcDbLine
 10
668.0000524280159
 20
405.9999996572258
 30
-150.0
 11
670.5000524280157
 21
405.9999996572258
 31
-150.0
  0
ARC
  5
318
330
2
100
AcDbEntity
  8
0
  6
Continuous
 62
     7
 48
10.0
100
AcDbCircle
 10
668.0000524280159
 20
405.4999996572258
 30
-150.0
 40
0.5
100
AcDbArc
 50
180.0
 51
270.0
  0
ARC
  5
319
330
2
100
AcDbEntity
  8
0
  6
Continuous
 62
     7
 48
10.0
100
AcDbCircle
 10
668.0000524280159
 20
405.4999996572258
 30
-150.0
 40
0.5
100
AcDbArc
 50
90.0
 51
180.0
  0
LINE
  5
31A
330
2
100
AcDbEntity
  8
0
  6
Continuous
 62
     7
 48
10.0
100
AcDbLine
 10
667.5000524280159
 20
405.4999996572258
 30
-150.0
 11
667.5000524280159
 21
405.4999996572258
 31
-150.0
  0
ARC
  5
31B
330
2
100
AcDbEntity
  8
0
  6
Continuous
 62
     7
 48
10.0
100
AcDbCircle
 10
665.5000524280159
 20
405.4999996572258
 30
-150.0
 40
0.5
100
AcDbArc
 50
270.0
 51
0.0
  0
LINE
  5
31C
330
2
100
AcDbEntity
  8
0
  6
Continuous
 62
     7
 48
10.0
100
AcDbLine
 10
666.0000524280157
 20
405.4999996572258
 30
-150.0
 11
666.0000524280157
 21
405.4999996572258
 31
-150.0
  0
ARC
  5
31D
330
2
100
AcDbEntity
  8
0
  6
Continuous
 62
     7
 48
10.0
100
AcDbCircle
 10
665.5000524280159
 20
405.4999996572258
 30
-150.0
 40
0.5
100
AcDbArc
 50
0.0
 51
90.0
  0
LINE
  5
31E
330
2
100
AcDbEntity
  8
0
  6
Continuous
 62
     7
 48
10.0
100
AcDbLine
 10
671.0000524280159
 20
405.4999996572258
 30
-150.0
 11
671.0000524280159
 21
405.4999996572258
 31
-150.0
  0
ARC
  5
31F
330
2
100
AcDbEntity
  8
0
  6
Continuous
 62
     7
 48
10.0
100
AcDbCircle
 10
670.5000524280157
 20
405.4999996572258
 30
-150.0
 40
0.5
100
AcDbArc
 50
0.0
 51
90.0
  0
ARC
  5
320
330
2
100
AcDbEntity
  8
0
  6
Continuous
 62
     7
 48
10.0
100
AcDbCircle
 10
670.5000524280157
 20
405.4999996572258
 30
-150.0
 40
0.5
100
AcDbArc
 50
270.0
 51
0.0
  0
ARC
  5
321
330
2
100
AcDbEntity
  8
0
  6
Continuous
 62
     7
 48
10.0
100
AcDbCircle
 10
672.2580582572501
 20
401.599999657226
 30
-150.0
 40
0.4
100
AcDbArc
 50
354.2893999999988
 51
23.93474313571744
  0
ARC
  5
322
330
2
100
AcDbEntity
  8
0
  6
Continuous
 62
     7
 48
10.0
100
AcDbCircle
 10
676.4999853029117
 20
407.5000720863823
 30
-150.0
 40
2.0
100
AcDbArc
 50
0.0
 51
90.0
  0
LINE
  5
323
330
2
100
AcDbEntity
  8
0
  6
Continuous
 62
     7
 48
10.0
100
AcDbLine
 10
693.8268555836314
 20
375.5004396221176
 30
-150.0
 11
696.2639767664362
 21
375.5007150555865
 31
-150.0
  0
LINE
  5
324
330
2
100
AcDbEntity
  8
0
  6
Continuous
 62
     7
 48
10.0
100
AcDbLine
 10
696.266108418294
 20
362.500739308251
 30
-150.0
 11
694.0098001091014
 21
362.500483489659
 31
-150.0
  0
LINE
  5
325
330
2
100
AcDbEntity
  8
0
  6
Continuous
 62
     7
 48
10.0
100
AcDbLine
 10
697.0000172123751
 20
374.7499996572261
 30
-150.0
 11
697.0000172123751
 21
363.249999657226
 31
-150.0
  0
ARC
  5
326
330
2
100
AcDbEntity
  8
0
  6
Continuous
 62
     7
 48
10.0
100
AcDbCircle
 10
696.2500172123752
 20
374.7499996572261
 30
-150.0
 40
0.75
100
AcDbArc
 50
0.0
 51
90.0
  0
ARC
  5
327
330
2
100
AcDbEntity
  8
0
  6
Continuous
 62
     7
 48
10.0
100
AcDbCircle
 10
696.2500172123752
 20
363.249999657226
 30
-150.0
 40
0.75
100
AcDbArc
 50
270.0
 51
0.0
  0
LINE
  5
328
330
2
100
AcDbEntity
  8
0
  6
Continuous
 62
     7
 48
10.0
100
AcDbLine
 10
642.188739716755
 20
375.4945945111198
 30
-150.0
 11
639.7640598122628
 21
375.4943201000135
 31
-150.0
  0
LINE
  5
329
330
2
100
AcDbEntity
  8
0
  6
Continuous
 62
     7
 48
10.0
100
AcDbLine
 10
639.7660945708543
 20
362.494344352678
 30
-150.0
 11
642.0097987909525
 21
362.4945982704844
 31
-150.0
  0
LINE
  5
32A
330
2
100
AcDbEntity
  8
0
  6
Continuous
 62
     7
 48
10.0
100
AcDbLine
 10
639.0000172123753
 20
374.7499996572261
 30
-150.0
 11
639.0000172123753
 21
363.249999657226
 31
-150.0
  0
ARC
  5
32B
330
2
100
AcDbEntity
  8
0
  6
Continuous
 62
     7
 48
10.0
100
AcDbCircle
 10
639.7500172123752
 20
374.7499996572261
 30
-150.0
 40
0.75
100
AcDbArc
 50
90.0
 51
180.0
  0
ARC
  5
32C
330
2
100
AcDbEntity
  8
0
  6
Continuous
 62
     7
 48
10.0
100
AcDbCircle
 10
639.7500172123752
 20
363.249999657226
 30
-150.0
 40
0.75
100
AcDbArc
 50
180.0
 51
270.0
  0
LINE
  5
32D
330
2
100
AcDbEntity
  8
0
  6
Continuous
 62
     7
 48
10.0
100
AcDbLine
 10
639.7500172123752
 20
375.499999657226
 30
-150.0
 11
696.2500172123752
 21
375.499999657226
 31
-150.0
  0
LINE
  5
32E
330
2
100
AcDbEntity
  8
0
  6
Continuous
 62
     7
 48
10.0
100
AcDbLine
 10
639.7500172123752
 20
362.4999996572261
 30
-150.0
 11
696.2500172123752
 21
362.4999996572261
 31
-150.0
  0
LINE
  5
32F
330
2
100
AcDbEntity
  8
0
  6
Continuous
 62
     7
 48
10.0
100
AcDbLine
 10
696.2214246408251
 20
362.9996342149561
 30
-150.0
 11
696.2214246408251
 21
375.0003650994959
 31
-150.0
  0
LINE
  5
330
330
2
100
AcDbEntity
  8
0
  6
Continuous
 62
     7
 48
10.0
100
AcDbLine
 10
693.3613576814227
 20
371.7503770991449
 30
-150.0
 11
693.3613576814227
 21
366.249622215307
 31
-150.0
  0
LINE
  5
331
330
2
100
AcDbEntity
  8
0
  6
Continuous
 62
     7
 48
10.0
100
AcDbLine
 10
693.8613558353229
 20
365.2496259075067
 30
-150.0
 11
693.8613558353229
 21
372.7503734069452
 31
-150.0
  0
LINE
  5
332
330
2
100
AcDbEntity
  8
0
  6
Continuous
 62
     7
 48
10.0
100
AcDbLine
 10
689.1109857778035
 20
371.7503770991449
 30
-150.0
 11
688.3609885469533
 21
371.7503770991449
 31
-150.0
  0
LINE
  5
333
330
2
100
AcDbEntity
  8
0
  6
Continuous
 62
     7
 48
10.0
100
AcDbLine
 10
688.3609885469533
 20
371.7503770991449
 30
-150.0
 11
689.1109857778035
 21
371.7503770991449
 31
-150.0
  0
LINE
  5
334
330
2
100
AcDbEntity
  8
0
  6
Continuous
 62
     7
 48
10.0
100
AcDbLine
 10
688.6109876239031
 20
373.4999830423273
 30
-150.0
 11
693.1113586044728
 21
373.4999830423273
 31
-150.0
  0
LINE
  5
335
330
2
100
AcDbEntity
  8
0
  6
Continuous
 62
     7
 48
10.0
100
AcDbLine
 10
688.3609885469533
 20
366.249622215307
 30
-150.0
 11
689.1111795755375
 21
366.249622215307
 31
-150.0
  0
LINE
  5
336
330
2
100
AcDbEntity
  8
0
  6
Continuous
 62
     7
 48
10.0
100
AcDbLine
 10
688.6109876239031
 20
364.5000162721246
 30
-150.0
 11
693.1113586044728
 21
364.5000162721246
 31
-150.0
  0
LINE
  5
337
330
2
100
AcDbEntity
  8
0
  6
Continuous
 62
     7
 48
10.0
100
AcDbLine
 10
678.6205206348697
 20
365.2496259075067
 30
-150.0
 11
678.6205206348697
 21
372.7503734069452
 31
-150.0
  0
LINE
  5
338
330
2
100
AcDbEntity
  8
0
  6
Continuous
 62
     7
 48
10.0
100
AcDbLine
 10
680.7406678455936
 20
366.249622215307
 30
-150.0
 11
680.7406678455936
 21
371.7503770991449
 31
-150.0
  0
LINE
  5
339
330
2
100
AcDbEntity
  8
0
  6
Continuous
 62
     7
 48
10.0
100
AcDbLine
 10
685.7410369800632
 20
371.7503770991449
 30
-150.0
 11
685.7408431823293
 21
366.2500098107752
 31
-150.0
  0
LINE
  5
33A
330
2
100
AcDbEntity
  8
0
  6
Continuous
 62
     7
 48
10.0
100
AcDbLine
 10
680.2404758939593
 20
372.7503734069452
 30
-150.0
 11
680.2404758939593
 21
365.2496259075067
 31
-150.0
  0
LINE
  5
33B
330
2
100
AcDbEntity
  8
0
  6
Continuous
 62
     7
 48
10.0
100
AcDbLine
 10
686.2410351339632
 20
365.2496259075067
 30
-150.0
 11
686.2410351339632
 21
372.7503734069452
 31
-150.0
  0
LINE
  5
33C
330
2
100
AcDbEntity
  8
0
  6
Continuous
 62
     7
 48
10.0
100
AcDbLine
 10
688.3609885469533
 20
366.249622215307
 30
-150.0
 11
688.3609885469533
 21
371.7503770991449
 31
-150.0
  0
LINE
  5
33D
330
2
100
AcDbEntity
  8
0
  6
Continuous
 62
     7
 48
10.0
100
AcDbLine
 10
687.8609903930529
 20
372.7503734069452
 30
-150.0
 11
687.8609903930529
 21
365.2496259075067
 31
-150.0
  0
LINE
  5
33E
330
2
100
AcDbEntity
  8
0
  6
Continuous
 62
     7
 48
10.0
100
AcDbLine
 10
681.2406659994937
 20
364.5000162721246
 30
-150.0
 11
681.2406659994937
 21
363.0000218104242
 31
-150.0
  0
LINE
  5
33F
330
2
100
AcDbEntity
  8
0
  6
Continuous
 62
     7
 48
10.0
100
AcDbLine
 10
685.240845028429
 20
364.5000162721246
 30
-150.0
 11
685.240845028429
 21
363.0000218104242
 31
-150.0
  0
LINE
  5
340
330
2
100
AcDbEntity
  8
0
  6
Continuous
 62
     7
 48
10.0
100
AcDbLine
 10
680.7406678455936
 20
366.249622215307
 30
-150.0
 11
681.490665076444
 21
366.249622215307
 31
-150.0
  0
LINE
  5
341
330
2
100
AcDbEntity
  8
0
  6
Continuous
 62
     7
 48
10.0
100
AcDbLine
 10
681.490665076444
 20
366.249622215307
 30
-150.0
 11
681.490665076444
 21
365.5000125799248
 31
-150.0
  0
LINE
  5
342
330
2
100
AcDbEntity
  8
0
  6
Continuous
 62
     7
 48
10.0
100
AcDbLine
 10
684.9908459514787
 20
365.5000125799248
 30
-150.0
 11
684.9908459514787
 21
366.249622215307
 31
-150.0
  0
LINE
  5
343
330
2
100
AcDbEntity
  8
0
  6
Continuous
 62
     7
 48
10.0
100
AcDbLine
 10
684.9908459514787
 20
366.249622215307
 30
-150.0
 11
685.7408431823293
 21
366.2500098107752
 31
-150.0
  0
LINE
  5
344
330
2
100
AcDbEntity
  8
0
  6
Continuous
 62
     7
 48
10.0
100
AcDbLine
 10
684.9908459514787
 20
365.5000125799248
 30
-150.0
 11
681.490665076444
 21
365.5000125799248
 31
-150.0
  0
ARC
  5
345
330
2
100
AcDbEntity
  8
0
  6
Continuous
 62
     7
 48
10.0
100
AcDbCircle
 10
680.9901446286887
 20
365.2496848272285
 30
-150.0
 40
0.7496687370448054
100
AcDbArc
 50
180.0045031241453
 51
270.0399179457476
  0
LINE
  5
346
330
2
100
AcDbEntity
  8
0
  6
Continuous
 62
     7
 48
10.0
100
AcDbLine
 10
680.9906669225434
 20
364.5000162721246
 30
-150.0
 11
685.4908441053792
 21
364.5000162721246
 31
-150.0
  0
ARC
  5
347
330
2
100
AcDbEntity
  8
0
  6
Continuous
 62
     7
 48
10.0
100
AcDbCircle
 10
685.491366399234
 20
365.2496848272285
 30
-150.0
 40
0.7496687370447371
100
AcDbArc
 50
269.9600820542524
 51
359.9954968758547
  0
ARC
  5
348
330
2
100
AcDbEntity
  8
0
  6
Continuous
 62
     7
 48
10.0
100
AcDbCircle
 10
688.6106589401204
 20
365.2496847494475
 30
-150.0
 40
0.7496685493766775
100
AcDbArc
 50
180.0044971806113
 51
270.0251206938909
  0
LINE
  5
349
330
2
100
AcDbEntity
  8
0
  6
Continuous
 62
     7
 48
10.0
100
AcDbLine
 10
685.240845028429
 20
363.0000218104242
 30
-150.0
 11
685.240845028429
 21
364.5000162721246
 31
-150.0
  0
ARC
  5
34A
330
2
100
AcDbEntity
  8
0
  6
Continuous
 62
     7
 48
10.0
100
AcDbCircle
 10
685.4900424735668
 20
365.2510087505135
 30
-150.0
 40
0.750992906231601
100
AcDbArc
 50
270.0611592038927
 51
359.9536401708164
  0
ARC
  5
34B
330
2
100
AcDbEntity
  8
0
  6
Continuous
 62
     7
 48
10.0
100
AcDbCircle
 10
688.6109897395989
 20
365.2504032141387
 30
-150.0
 40
0.7499993465489342
100
AcDbArc
 50
180.0001616273886
 51
269.9998383726082
  0
LINE
  5
34C
330
2
100
AcDbEntity
  8
0
  6
Continuous
 62
     7
 48
10.0
100
AcDbLine
 10
685.240845028429
 20
363.0000218104242
 30
-150.0
 11
685.240845028429
 21
364.5004038675929
 31
-150.0
  0
ARC
  5
34D
330
2
100
AcDbEntity
  8
0
  6
Continuous
 62
     7
 48
10.0
100
AcDbCircle
 10
685.4908419896831
 20
365.2504032141387
 30
-150.0
 40
0.7499993465489342
100
AcDbArc
 50
270.0001616273918
 51
359.9998383726114
  0
ARC
  5
34E
330
2
100
AcDbEntity
  8
0
  6
Continuous
 62
     7
 48
10.0
100
AcDbCircle
 10
688.6119834501239
 20
365.2510089149249
 30
-150.0
 40
0.7509933030393548
100
AcDbArc
 50
180.0463723481848
 51
269.9240250797616
  0
LINE
  5
34F
330
2
100
AcDbEntity
  8
0
  6
Continuous
 62
     7
 48
10.0
100
AcDbLine
 10
685.240845028429
 20
363.0000218104242
 30
-150.0
 11
685.240845028429
 21
364.5004038675929
 31
-150.0
  0
ARC
  5
350
330
2
100
AcDbEntity
  8
0
  6
Continuous
 62
     7
 48
10.0
100
AcDbCircle
 10
685.4908419896831
 20
365.2504032141387
 30
-150.0
 40
0.7499993465489342
100
AcDbArc
 50
270.0001616273918
 51
359.9998383726114
  0
ARC
  5
351
330
2
100
AcDbEntity
  8
0
  6
Continuous
 62
     7
 48
10.0
100
AcDbCircle
 10
688.6119834501239
 20
365.2510089149249
 30
-150.0
 40
0.7509933030393548
100
AcDbArc
 50
180.0463723481848
 51
269.9240250797616
  0
LINE
  5
352
330
2
100
AcDbEntity
  8
0
  6
Continuous
 62
     7
 48
10.0
100
AcDbLine
 10
685.240845028429
 20
363.0000218104242
 30
-150.0
 11
685.240845028429
 21
364.5004038675929
 31
-150.0
  0
ARC
  5
353
330
2
100
AcDbEntity
  8
0
  6
Continuous
 62
     7
 48
10.0
100
AcDbCircle
 10
685.4908419896831
 20
365.2504032141387
 30
-150.0
 40
0.7499993465489342
100
AcDbArc
 50
270.0001616273918
 51
359.9998383726114
  0
ARC
  5
354
330
2
100
AcDbEntity
  8
0
  6
Continuous
 62
     7
 48
10.0
100
AcDbCircle
 10
688.6119834501239
 20
365.2510089149249
 30
-150.0
 40
0.7509933030393548
100
AcDbArc
 50
180.0463723481848
 51
269.9240250797616
  0
LINE
  5
355
330
2
100
AcDbEntity
  8
0
  6
Continuous
 62
     7
 48
10.0
100
AcDbLine
 10
681.2406659994937
 20
375.0003650994959
 30
-150.0
 11
681.2406659994937
 21
373.5003706377954
 31
-150.0
  0
LINE
  5
356
330
2
100
AcDbEntity
  8
0
  6
Continuous
 62
     7
 48
10.0
100
AcDbLine
 10
685.240845028429
 20
375.0003650994959
 30
-150.0
 11
685.240845028429
 21
373.5003706377954
 31
-150.0
  0
LINE
  5
357
330
2
100
AcDbEntity
  8
0
  6
Continuous
 62
     7
 48
10.0
100
AcDbLine
 10
681.490665076444
 20
372.5003743299951
 30
-150.0
 11
681.490665076444
 21
371.7503770991449
 31
-150.0
  0
LINE
  5
358
330
2
100
AcDbEntity
  8
0
  6
Continuous
 62
     7
 48
10.0
100
AcDbLine
 10
681.490665076444
 20
371.7503770991449
 30
-150.0
 11
680.7406678455936
 21
371.7503770991449
 31
-150.0
  0
LINE
  5
359
330
2
100
AcDbEntity
  8
0
  6
Continuous
 62
     7
 48
10.0
100
AcDbLine
 10
685.7410369800632
 20
371.7503770991449
 30
-150.0
 11
684.9908459514787
 21
371.7503770991449
 31
-150.0
  0
LINE
  5
35A
330
2
100
AcDbEntity
  8
0
  6
Continuous
 62
     7
 48
10.0
100
AcDbLine
 10
684.9908459514787
 20
371.7503770991449
 30
-150.0
 11
684.9908459514787
 21
372.5003743299951
 31
-150.0
  0
LINE
  5
35B
330
2
100
AcDbEntity
  8
0
  6
Continuous
 62
     7
 48
10.0
100
AcDbLine
 10
684.9908459514787
 20
372.5003743299951
 30
-150.0
 11
681.490665076444
 21
372.5003743299951
 31
-150.0
  0
ARC
  5
35C
330
2
100
AcDbEntity
  8
0
  6
Continuous
 62
     7
 48
10.0
100
AcDbCircle
 10
680.9908061784947
 20
372.7500402922382
 30
-150.0
 40
0.7503303584798891
100
AcDbArc
 50
90.01063368718552
 51
179.974563114462
  0
ARC
  5
35D
330
2
100
AcDbEntity
  8
0
  6
Continuous
 62
     7
 48
10.0
100
AcDbCircle
 10
685.4907048494281
 20
372.7500402922382
 30
-150.0
 40
0.7503303584798891
100
AcDbArc
 50
0.0254368855379895
 51
89.98936631281448
  0
LINE
  5
35E
330
2
100
AcDbEntity
  8
0
  6
Continuous
 62
     7
 48
10.0
100
AcDbLine
 10
680.9906669225434
 20
373.5003706377954
 30
-150.0
 11
685.4908441053792
 21
373.5003706377954
 31
-150.0
  0
ARC
  5
35F
330
2
100
AcDbEntity
  8
0
  6
Continuous
 62
     7
 48
10.0
100
AcDbCircle
 10
688.6106589401204
 20
372.7503145650045
 30
-150.0
 40
0.7496685493766775
100
AcDbArc
 50
89.97487930610253
 51
179.9955028193887
  0
LINE
  5
360
330
2
100
AcDbEntity
  8
0
  6
Continuous
 62
     7
 48
10.0
100
AcDbLine
 10
685.2406512306949
 20
375.0003650994959
 30
-150.0
 11
685.240845028429
 21
373.4999830423273
 31
-150.0
  0
ARC
  5
361
330
2
100
AcDbEntity
  8
0
  6
Continuous
 62
     7
 48
10.0
100
AcDbCircle
 10
685.4915031269609
 20
372.7506450736088
 30
-150.0
 40
0.7493382585137339
100
AcDbArc
 50
359.9792278674808
 51
90.05039000702064
  0
ARC
  5
362
330
2
100
AcDbEntity
  8
0
  6
Continuous
 62
     7
 48
10.0
100
AcDbCircle
 10
688.6106589401204
 20
372.7503145650045
 30
-150.0
 40
0.7496685493766775
100
AcDbArc
 50
89.97487930610253
 51
179.9955028193887
  0
LINE
  5
363
330
2
100
AcDbEntity
  8
0
  6
Continuous
 62
     7
 48
10.0
100
AcDbLine
 10
685.2406512306949
 20
375.0003650994959
 30
-150.0
 11
685.240845028429
 21
373.4999830423273
 31
-150.0
  0
LINE
  5
364
330
2
100
AcDbEntity
  8
0
  6
Continuous
 62
     7
 48
10.0
100
AcDbLine
 10
684.9908459514787
 20
372.4999867345271
 30
-150.0
 11
684.9908459514787
 21
371.7503770991449
 31
-150.0
  0
LINE
  5
365
330
2
100
AcDbEntity
  8
0
  6
Continuous
 62
     7
 48
10.0
100
AcDbLine
 10
684.9908459514787
 20
371.7503770991449
 30
-150.0
 11
685.7408431823293
 21
371.7503770991449
 31
-150.0
  0
ARC
  5
366
330
2
100
AcDbEntity
  8
0
  6
Continuous
 62
     7
 48
10.0
100
AcDbCircle
 10
685.4915031269609
 20
372.7506450736088
 30
-150.0
 40
0.7493382585137339
100
AcDbArc
 50
359.9792278674808
 51
90.05039000702064
  0
ARC
  5
367
330
2
100
AcDbEntity
  8
0
  6
Continuous
 62
     7
 48
10.0
100
AcDbCircle
 10
688.6106589401204
 20
372.7503145650045
 30
-150.0
 40
0.7496685493766775
100
AcDbArc
 50
89.97487930610253
 51
179.9955028193887
  0
LINE
  5
368
330
2
100
AcDbEntity
  8
0
  6
Continuous
 62
     7
 48
10.0
100
AcDbLine
 10
685.2406512306949
 20
375.0003650994959
 30
-150.0
 11
685.240845028429
 21
373.4999830423273
 31
-150.0
  0
ARC
  5
369
330
2
100
AcDbEntity
  8
0
  6
Continuous
 62
     7
 48
10.0
100
AcDbCircle
 10
685.4915031269609
 20
372.7506450736088
 30
-150.0
 40
0.7493382585137339
100
AcDbArc
 50
359.9792278674808
 51
90.05039000702064
  0
ARC
  5
36A
330
2
100
AcDbEntity
  8
0
  6
Continuous
 62
     7
 48
10.0
100
AcDbCircle
 10
688.6106589401204
 20
372.7503145650045
 30
-150.0
 40
0.7496685493766775
100
AcDbArc
 50
89.97487930610253
 51
179.9955028193887
  0
LINE
  5
36B
330
2
100
AcDbEntity
  8
0
  6
Continuous
 62
     7
 48
10.0
100
AcDbLine
 10
692.8611657297884
 20
364.5000162721246
 30
-150.0
 11
692.8613595275224
 21
362.9996342149561
 31
-150.0
  0
LINE
  5
36C
330
2
100
AcDbEntity
  8
0
  6
Continuous
 62
     7
 48
10.0
100
AcDbLine
 10
692.6111666528384
 20
365.5000125799248
 30
-150.0
 11
692.6113604505726
 21
366.249622215307
 31
-150.0
  0
LINE
  5
36D
330
2
100
AcDbEntity
  8
0
  6
Continuous
 62
     7
 48
10.0
100
AcDbLine
 10
688.8611804985871
 20
364.5000162721246
 30
-150.0
 11
688.8609867008532
 21
362.9996342149561
 31
-150.0
  0
LINE
  5
36E
330
2
100
AcDbEntity
  8
0
  6
Continuous
 62
     7
 48
10.0
100
AcDbLine
 10
689.1111795755375
 20
366.249622215307
 30
-150.0
 11
689.1111795755375
 21
365.5000125799248
 31
-150.0
  0
LINE
  5
36F
330
2
100
AcDbEntity
  8
0
  6
Continuous
 62
     7
 48
10.0
100
AcDbLine
 10
688.8609867008532
 20
363.0000218104242
 30
-150.0
 11
688.8609867008532
 21
364.5004038675929
 31
-150.0
  0
LINE
  5
370
330
2
100
AcDbEntity
  8
0
  6
Continuous
 62
     7
 48
10.0
100
AcDbLine
 10
688.8609867008532
 20
363.0000218104242
 30
-150.0
 11
688.8609867008532
 21
364.5000162721246
 31
-150.0
  0
LINE
  5
371
330
2
100
AcDbEntity
  8
0
  6
Continuous
 62
     7
 48
10.0
100
AcDbLine
 10
688.8609867008532
 20
363.0000218104242
 30
-150.0
 11
688.8609867008532
 21
364.5000162721246
 31
-150.0
  0
LINE
  5
372
330
2
100
AcDbEntity
  8
0
  6
Continuous
 62
     7
 48
10.0
100
AcDbLine
 10
688.8609867008532
 20
363.0000218104242
 30
-150.0
 11
688.8609867008532
 21
364.5000162721246
 31
-150.0
  0
LINE
  5
373
330
2
100
AcDbEntity
  8
0
  6
Continuous
 62
     7
 48
10.0
100
AcDbLine
 10
692.6111666528384
 20
365.5000125799248
 30
-150.0
 11
689.1111795755375
 21
365.5000125799248
 31
-150.0
  0
LINE
  5
374
330
2
100
AcDbEntity
  8
0
  6
Continuous
 62
     7
 48
10.0
100
AcDbLine
 10
692.8613595275224
 20
375.0003650994959
 30
-150.0
 11
692.8613595275224
 21
373.4999830423273
 31
-150.0
  0
LINE
  5
375
330
2
100
AcDbEntity
  8
0
  6
Continuous
 62
     7
 48
10.0
100
AcDbLine
 10
692.6113604505726
 20
371.7503770991449
 30
-150.0
 11
692.6113604505726
 21
372.4999867345271
 31
-150.0
  0
LINE
  5
376
330
2
100
AcDbEntity
  8
0
  6
Continuous
 62
     7
 48
10.0
100
AcDbLine
 10
692.8611657297884
 20
373.5003706377954
 30
-150.0
 11
692.8613595275224
 21
375.0003650994959
 31
-150.0
  0
LINE
  5
377
330
2
100
AcDbEntity
  8
0
  6
Continuous
 62
     7
 48
10.0
100
AcDbLine
 10
688.8609867008532
 20
375.0003650994959
 30
-150.0
 11
688.8611804985871
 21
373.4999830423273
 31
-150.0
  0
LINE
  5
378
330
2
100
AcDbEntity
  8
0
  6
Continuous
 62
     7
 48
10.0
100
AcDbLine
 10
689.1111795755375
 20
372.4999867345271
 30
-150.0
 11
689.1109857778035
 21
371.7503770991449
 31
-150.0
  0
LINE
  5
379
330
2
100
AcDbEntity
  8
0
  6
Continuous
 62
     7
 48
10.0
100
AcDbLine
 10
688.8609867008532
 20
375.0003650994959
 30
-150.0
 11
688.8609867008532
 21
373.5003706377954
 31
-150.0
  0
LINE
  5
37A
330
2
100
AcDbEntity
  8
0
  6
Continuous
 62
     7
 48
10.0
100
AcDbLine
 10
688.8609867008532
 20
375.0003650994959
 30
-150.0
 11
688.8609867008532
 21
373.5003706377954
 31
-150.0
  0
LINE
  5
37B
330
2
100
AcDbEntity
  8
0
  6
Continuous
 62
     7
 48
10.0
100
AcDbLine
 10
689.1109857778035
 20
371.7503770991449
 30
-150.0
 11
689.1109857778035
 21
372.5003743299951
 31
-150.0
  0
LINE
  5
37C
330
2
100
AcDbEntity
  8
0
  6
Continuous
 62
     7
 48
10.0
100
AcDbLine
 10
688.8609867008532
 20
375.0003650994959
 30
-150.0
 11
688.8609867008532
 21
373.5003706377954
 31
-150.0
  0
LINE
  5
37D
330
2
100
AcDbEntity
  8
0
  6
Continuous
 62
     7
 48
10.0
100
AcDbLine
 10
692.6113604505726
 20
372.4999867345271
 30
-150.0
 11
689.1111795755375
 21
372.4999867345271
 31
-150.0
  0
LINE
  5
37E
330
2
100
AcDbEntity
  8
0
  6
Continuous
 62
     7
 48
10.0
100
AcDbLine
 10
678.1205224809696
 20
371.7503770991449
 30
-150.0
 11
678.1205224809696
 21
366.249622215307
 31
-150.0
  0
LINE
  5
37F
330
2
100
AcDbEntity
  8
0
  6
Continuous
 62
     7
 48
10.0
100
AcDbLine
 10
665.4998326451405
 20
366.249622215307
 30
-150.0
 11
665.4998326451405
 21
371.7503770991449
 31
-150.0
  0
LINE
  5
380
330
2
100
AcDbEntity
  8
0
  6
Continuous
 62
     7
 48
10.0
100
AcDbLine
 10
670.500007981876
 20
371.7503770991449
 30
-150.0
 11
670.500007981876
 21
366.249622215307
 31
-150.0
  0
LINE
  5
381
330
2
100
AcDbEntity
  8
0
  6
Continuous
 62
     7
 48
10.0
100
AcDbLine
 10
664.9996406935062
 20
372.7503734069452
 30
-150.0
 11
664.9996406935062
 21
365.2496259075067
 31
-150.0
  0
LINE
  5
382
330
2
100
AcDbEntity
  8
0
  6
Continuous
 62
     7
 48
10.0
100
AcDbLine
 10
671.0000061357761
 20
365.2496259075067
 30
-150.0
 11
671.0000061357761
 21
372.7503734069452
 31
-150.0
  0
LINE
  5
383
330
2
100
AcDbEntity
  8
0
  6
Continuous
 62
     7
 48
10.0
100
AcDbLine
 10
673.1201533465
 20
366.249622215307
 30
-150.0
 11
673.1201533465
 21
371.7503770991449
 31
-150.0
  0
LINE
  5
384
330
2
100
AcDbEntity
  8
0
  6
Continuous
 62
     7
 48
10.0
100
AcDbLine
 10
672.6201551925997
 20
372.7503734069452
 30
-150.0
 11
672.6201551925997
 21
365.2496259075067
 31
-150.0
  0
LINE
  5
385
330
2
100
AcDbEntity
  8
0
  6
Continuous
 62
     7
 48
10.0
100
AcDbLine
 10
673.1201533465
 20
366.249622215307
 30
-150.0
 11
673.8701505773502
 21
366.249622215307
 31
-150.0
  0
LINE
  5
386
330
2
100
AcDbEntity
  8
0
  6
Continuous
 62
     7
 48
10.0
100
AcDbLine
 10
673.37015242345
 20
364.5000162721246
 30
-150.0
 11
677.8705234040196
 21
364.5000162721246
 31
-150.0
  0
LINE
  5
387
330
2
100
AcDbEntity
  8
0
  6
Continuous
 62
     7
 48
10.0
100
AcDbLine
 10
665.9998307990406
 20
364.5000162721246
 30
-150.0
 11
665.9996370013065
 21
363.0000218104242
 31
-150.0
  0
LINE
  5
388
330
2
100
AcDbEntity
  8
0
  6
Continuous
 62
     7
 48
10.0
100
AcDbLine
 10
670.0000098279757
 20
364.5000162721246
 30
-150.0
 11
670.0000098279757
 21
363.0000218104242
 31
-150.0
  0
LINE
  5
389
330
2
100
AcDbEntity
  8
0
  6
Continuous
 62
     7
 48
10.0
100
AcDbLine
 10
665.4998326451405
 20
366.249622215307
 30
-150.0
 11
666.2498298759906
 21
366.249622215307
 31
-150.0
  0
LINE
  5
38A
330
2
100
AcDbEntity
  8
0
  6
Continuous
 62
     7
 48
10.0
100
AcDbLine
 10
666.2498298759906
 20
366.249622215307
 30
-150.0
 11
666.2496360782565
 21
365.5000125799248
 31
-150.0
  0
LINE
  5
38B
330
2
100
AcDbEntity
  8
0
  6
Continuous
 62
     7
 48
10.0
100
AcDbLine
 10
669.7500107510258
 20
365.5000125799248
 30
-150.0
 11
669.7500107510258
 21
366.249622215307
 31
-150.0
  0
LINE
  5
38C
330
2
100
AcDbEntity
  8
0
  6
Continuous
 62
     7
 48
10.0
100
AcDbLine
 10
669.7500107510258
 20
366.249622215307
 30
-150.0
 11
670.500007981876
 21
366.249622215307
 31
-150.0
  0
LINE
  5
38D
330
2
100
AcDbEntity
  8
0
  6
Continuous
 62
     7
 48
10.0
100
AcDbLine
 10
669.7500107510258
 20
365.5000125799248
 30
-150.0
 11
666.2496360782565
 21
365.5000125799248
 31
-150.0
  0
ARC
  5
38E
330
2
100
AcDbEntity
  8
0
  6
Continuous
 62
     7
 48
10.0
100
AcDbCircle
 10
665.7493092405736
 20
365.2496847494475
 30
-150.0
 40
0.7496685493766775
100
AcDbArc
 50
180.0044971806113
 51
270.0251206938909
  0
LINE
  5
38F
330
2
100
AcDbEntity
  8
0
  6
Continuous
 62
     7
 48
10.0
100
AcDbLine
 10
665.7496379243564
 20
364.5000162721246
 30
-150.0
 11
670.2500089049259
 21
364.5000162721246
 31
-150.0
  0
ARC
  5
390
330
2
100
AcDbEntity
  8
0
  6
Continuous
 62
     7
 48
10.0
100
AcDbCircle
 10
670.2506679265077
 20
365.249354240843
 30
-150.0
 40
0.7493382585138244
100
AcDbArc
 50
269.9496099929793
 51
0.0207721325175683
  0
LINE
  5
391
330
2
100
AcDbEntity
  8
0
  6
Continuous
 62
     7
 48
10.0
100
AcDbLine
 10
673.6201515004002
 20
364.5000162721246
 30
-150.0
 11
673.6201515004002
 21
363.0000218104242
 31
-150.0
  0
ARC
  5
392
330
2
100
AcDbEntity
  8
0
  6
Continuous
 62
     7
 48
10.0
100
AcDbCircle
 10
673.3698237396672
 20
365.2496847494475
 30
-150.0
 40
0.7496685493766775
100
AcDbArc
 50
180.0044971806113
 51
270.0251206938909
  0
LINE
  5
393
330
2
100
AcDbEntity
  8
0
  6
Continuous
 62
     7
 48
10.0
100
AcDbLine
 10
677.6205243270695
 20
364.5000162721246
 30
-150.0
 11
677.6205243270695
 21
363.0000218104242
 31
-150.0
  0
LINE
  5
394
330
2
100
AcDbEntity
  8
0
  6
Continuous
 62
     7
 48
10.0
100
AcDbLine
 10
677.3703314523852
 20
365.5000125799248
 30
-150.0
 11
677.3703314523852
 21
366.2500098107752
 31
-150.0
  0
LINE
  5
395
330
2
100
AcDbEntity
  8
0
  6
Continuous
 62
     7
 48
10.0
100
AcDbLine
 10
677.3703314523852
 20
366.2500098107752
 30
-150.0
 11
678.1205224809696
 21
366.249622215307
 31
-150.0
  0
LINE
  5
396
330
2
100
AcDbEntity
  8
0
  6
Continuous
 62
     7
 48
10.0
100
AcDbLine
 10
673.8701505773502
 20
366.249622215307
 30
-150.0
 11
673.8701505773502
 21
365.5000125799248
 31
-150.0
  0
LINE
  5
397
330
2
100
AcDbEntity
  8
0
  6
Continuous
 62
     7
 48
10.0
100
AcDbLine
 10
677.3703314523852
 20
365.5000125799248
 30
-150.0
 11
673.8701505773502
 21
365.5000125799248
 31
-150.0
  0
LINE
  5
398
330
2
100
AcDbEntity
  8
0
  6
Continuous
 62
     7
 48
10.0
100
AcDbLine
 10
673.8701505773502
 20
371.7503770991449
 30
-150.0
 11
673.1201533465
 21
371.7503770991449
 31
-150.0
  0
LINE
  5
399
330
2
100
AcDbEntity
  8
0
  6
Continuous
 62
     7
 48
10.0
100
AcDbLine
 10
673.37015242345
 20
373.4999830423273
 30
-150.0
 11
677.8705234040196
 21
373.5003706377954
 31
-150.0
  0
LINE
  5
39A
330
2
100
AcDbEntity
  8
0
  6
Continuous
 62
     7
 48
10.0
100
AcDbLine
 10
665.9998307990406
 20
375.0003650994959
 30
-150.0
 11
665.9998307990406
 21
373.4999830423273
 31
-150.0
  0
LINE
  5
39B
330
2
100
AcDbEntity
  8
0
  6
Continuous
 62
     7
 48
10.0
100
AcDbLine
 10
670.0000098279757
 20
375.0003650994959
 30
-150.0
 11
670.0000098279757
 21
373.5003706377954
 31
-150.0
  0
LINE
  5
39C
330
2
100
AcDbEntity
  8
0
  6
Continuous
 62
     7
 48
10.0
100
AcDbLine
 10
666.2496360782565
 20
372.5003743299951
 30
-150.0
 11
666.2496360782565
 21
371.7503770991449
 31
-150.0
  0
LINE
  5
39D
330
2
100
AcDbEntity
  8
0
  6
Continuous
 62
     7
 48
10.0
100
AcDbLine
 10
666.2496360782565
 20
371.7503770991449
 30
-150.0
 11
665.4998326451405
 21
371.7503770991449
 31
-150.0
  0
LINE
  5
39E
330
2
100
AcDbEntity
  8
0
  6
Continuous
 62
     7
 48
10.0
100
AcDbLine
 10
670.500007981876
 20
371.7503770991449
 30
-150.0
 11
669.7500107510258
 21
371.7503770991449
 31
-150.0
  0
LINE
  5
39F
330
2
100
AcDbEntity
  8
0
  6
Continuous
 62
     7
 48
10.0
100
AcDbLine
 10
669.7500107510258
 20
371.7503770991449
 30
-150.0
 11
669.7500107510258
 21
372.5003743299951
 31
-150.0
  0
LINE
  5
3A0
330
2
100
AcDbEntity
  8
0
  6
Continuous
 62
     7
 48
10.0
100
AcDbLine
 10
669.7500107510258
 20
372.5003743299951
 30
-150.0
 11
666.2496360782565
 21
372.5003743299951
 31
-150.0
  0
ARC
  5
3A1
330
2
100
AcDbEntity
  8
0
  6
Continuous
 62
     7
 48
10.0
100
AcDbCircle
 10
665.7493092405736
 20
372.7503145650045
 30
-150.0
 40
0.7496685493766775
100
AcDbArc
 50
89.97487930610253
 51
179.9955028193887
  0
ARC
  5
3A2
330
2
100
AcDbEntity
  8
0
  6
Continuous
 62
     7
 48
10.0
100
AcDbCircle
 10
670.2500067892303
 20
372.7503712912494
 30
-150.0
 40
0.7499993465489342
100
AcDbArc
 50
0.0001616273885838
 51
89.99983837260817
  0
LINE
  5
3A3
330
2
100
AcDbEntity
  8
0
  6
Continuous
 62
     7
 48
10.0
100
AcDbLine
 10
665.7496379243564
 20
373.4999830423273
 30
-150.0
 11
670.2500089049259
 21
373.5003706377954
 31
-150.0
  0
LINE
  5
3A4
330
2
100
AcDbEntity
  8
0
  6
Continuous
 62
     7
 48
10.0
100
AcDbLine
 10
673.6201515004002
 20
375.0003650994959
 30
-150.0
 11
673.6201515004002
 21
373.5003706377954
 31
-150.0
  0
ARC
  5
3A5
330
2
100
AcDbEntity
  8
0
  6
Continuous
 62
     7
 48
10.0
100
AcDbCircle
 10
673.3698237396672
 20
372.7503145650045
 30
-150.0
 40
0.7496685493766775
100
AcDbArc
 50
89.97487930610253
 51
179.9955028193887
  0
LINE
  5
3A6
330
2
100
AcDbEntity
  8
0
  6
Continuous
 62
     7
 48
10.0
100
AcDbLine
 10
677.6205243270695
 20
375.0003650994959
 30
-150.0
 11
677.6205243270695
 21
373.4999830423273
 31
-150.0
  0
LINE
  5
3A7
330
2
100
AcDbEntity
  8
0
  6
Continuous
 62
     7
 48
10.0
100
AcDbLine
 10
678.1205224809696
 20
371.7503770991449
 30
-150.0
 11
677.3703314523852
 21
371.7503770991449
 31
-150.0
  0
LINE
  5
3A8
330
2
100
AcDbEntity
  8
0
  6
Continuous
 62
     7
 48
10.0
100
AcDbLine
 10
677.3703314523852
 20
371.7503770991449
 30
-150.0
 11
677.3703314523852
 21
372.5003743299951
 31
-150.0
  0
LINE
  5
3A9
330
2
100
AcDbEntity
  8
0
  6
Continuous
 62
     7
 48
10.0
100
AcDbLine
 10
673.8701505773502
 20
372.5003743299951
 30
-150.0
 11
673.8701505773502
 21
371.7503770991449
 31
-150.0
  0
LINE
  5
3AA
330
2
100
AcDbEntity
  8
0
  6
Continuous
 62
     7
 48
10.0
100
AcDbLine
 10
677.3703314523852
 20
372.5003743299951
 30
-150.0
 11
673.8701505773502
 21
372.5003743299951
 31
-150.0
  0
ARC
  5
3AB
330
2
100
AcDbEntity
  8
0
  6
Continuous
 62
     7
 48
10.0
100
AcDbCircle
 10
677.8708520878024
 20
365.2496847494475
 30
-150.0
 40
0.7496685493767172
100
AcDbArc
 50
269.9748793061091
 51
359.9955028193869
  0
ARC
  5
3AC
330
2
100
AcDbEntity
  8
0
  6
Continuous
 62
     7
 48
10.0
100
AcDbCircle
 10
677.8701902461172
 20
372.7500402490429
 30
-150.0
 40
0.7503304627161329
100
AcDbArc
 50
0.0254401804179063
 51
89.97455981957884
  0
LINE
  5
3AD
330
2
100
AcDbEntity
  8
0
  6
Continuous
 62
     7
 48
10.0
100
AcDbLine
 10
692.6113604505726
 20
366.249622215307
 30
-150.0
 11
693.3613576814227
 21
366.249622215307
 31
-150.0
  0
ARC
  5
3AE
330
2
100
AcDbEntity
  8
0
  6
Continuous
 62
     7
 48
10.0
100
AcDbCircle
 10
693.1116872882554
 20
365.2496847494475
 30
-150.0
 40
0.7496685493767396
100
AcDbArc
 50
269.9748793061091
 51
359.9955028193869
  0
LINE
  5
3AF
330
2
100
AcDbEntity
  8
0
  6
Continuous
 62
     7
 48
10.0
100
AcDbLine
 10
693.3613576814227
 20
371.7503770991449
 30
-150.0
 11
692.6113604505726
 21
371.7503770991449
 31
-150.0
  0
ARC
  5
3B0
330
2
100
AcDbEntity
  8
0
  6
Continuous
 62
     7
 48
10.0
100
AcDbCircle
 10
693.1120176260543
 20
372.7506450736088
 30
-150.0
 40
0.7493382585137339
100
AcDbArc
 50
359.9792278674808
 51
90.05039000702064
  0
ARC
  5
3B1
330
2
100
AcDbEntity
  8
0
  6
Continuous
 62
     7
 48
10.0
100
AcDbCircle
 10
693.1113564887769
 20
372.7503712912494
 30
-150.0
 40
0.7499993465489792
100
AcDbArc
 50
0.0001616273885838
 51
89.99983837260817
  0
LINE
  5
3B2
330
2
100
AcDbEntity
  8
0
  6
Continuous
 62
     7
 48
10.0
100
AcDbLine
 10
662.129496251932
 20
372.5003743299951
 30
-150.0
 11
658.629315376897
 21
372.5003743299951
 31
-150.0
  0
LINE
  5
3B3
330
2
100
AcDbEntity
  8
0
  6
Continuous
 62
     7
 48
10.0
100
AcDbLine
 10
658.1293172229967
 20
373.4999830423273
 30
-150.0
 11
662.6296882035664
 21
373.5003706377954
 31
-150.0
  0
LINE
  5
3B4
330
2
100
AcDbEntity
  8
0
  6
Continuous
 62
     7
 48
10.0
100
AcDbLine
 10
662.129496251932
 20
365.5000125799248
 30
-150.0
 11
658.629315376897
 21
365.5000125799248
 31
-150.0
  0
LINE
  5
3B5
330
2
100
AcDbEntity
  8
0
  6
Continuous
 62
     7
 48
10.0
100
AcDbLine
 10
658.1293172229967
 20
364.5000162721246
 30
-150.0
 11
662.6296882035664
 21
364.5000162721246
 31
-150.0
  0
LINE
  5
3B6
330
2
100
AcDbEntity
  8
0
  6
Continuous
 62
     7
 48
10.0
100
AcDbLine
 10
657.8793181460468
 20
366.249622215307
 30
-150.0
 11
657.8793181460468
 21
371.7503770991449
 31
-150.0
  0
LINE
  5
3B7
330
2
100
AcDbEntity
  8
0
  6
Continuous
 62
     7
 48
10.0
100
AcDbLine
 10
657.3793199921468
 20
372.7503734069452
 30
-150.0
 11
657.3793199921468
 21
365.2496259075067
 31
-150.0
  0
LINE
  5
3B8
330
2
100
AcDbEntity
  8
0
  6
Continuous
 62
     7
 48
10.0
100
AcDbLine
 10
650.2588036469529
 20
366.249622215307
 30
-150.0
 11
650.2588036469529
 21
371.7503770991449
 31
-150.0
  0
LINE
  5
3B9
330
2
100
AcDbEntity
  8
0
  6
Continuous
 62
     7
 48
10.0
100
AcDbLine
 10
655.2591727814228
 20
371.7503770991449
 30
-150.0
 11
655.2589789836886
 21
366.249622215307
 31
-150.0
  0
LINE
  5
3BA
330
2
100
AcDbEntity
  8
0
  6
Continuous
 62
     7
 48
10.0
100
AcDbLine
 10
649.7588054930531
 20
372.7503734069452
 30
-150.0
 11
649.7588054930531
 21
365.2496259075067
 31
-150.0
  0
LINE
  5
3BB
330
2
100
AcDbEntity
  8
0
  6
Continuous
 62
     7
 48
10.0
100
AcDbLine
 10
655.759170935323
 20
365.2496259075067
 30
-150.0
 11
655.759170935323
 21
372.7503734069452
 31
-150.0
  0
LINE
  5
3BC
330
2
100
AcDbEntity
  8
0
  6
Continuous
 62
     7
 48
10.0
100
AcDbLine
 10
658.3793162999469
 20
364.5000162721246
 30
-150.0
 11
658.3793162999469
 21
363.0000218104242
 31
-150.0
  0
LINE
  5
3BD
330
2
100
AcDbEntity
  8
0
  6
Continuous
 62
     7
 48
10.0
100
AcDbLine
 10
657.8793181460468
 20
366.249622215307
 30
-150.0
 11
658.629315376897
 21
366.249622215307
 31
-150.0
  0
LINE
  5
3BE
330
2
100
AcDbEntity
  8
0
  6
Continuous
 62
     7
 48
10.0
100
AcDbLine
 10
658.629315376897
 20
366.249622215307
 30
-150.0
 11
658.629315376897
 21
365.5000125799248
 31
-150.0
  0
LINE
  5
3BF
330
2
100
AcDbEntity
  8
0
  6
Continuous
 62
     7
 48
10.0
100
AcDbLine
 10
650.7589955985873
 20
364.5000162721246
 30
-150.0
 11
650.7589955985873
 21
362.9996342149561
 31
-150.0
  0
LINE
  5
3C0
330
2
100
AcDbEntity
  8
0
  6
Continuous
 62
     7
 48
10.0
100
AcDbLine
 10
654.7591746275227
 20
364.5000162721246
 30
-150.0
 11
654.7589808297885
 21
362.9996342149561
 31
-150.0
  0
LINE
  5
3C1
330
2
100
AcDbEntity
  8
0
  6
Continuous
 62
     7
 48
10.0
100
AcDbLine
 10
650.2588036469529
 20
366.249622215307
 30
-150.0
 11
651.0088008778033
 21
366.249622215307
 31
-150.0
  0
LINE
  5
3C2
330
2
100
AcDbEntity
  8
0
  6
Continuous
 62
     7
 48
10.0
100
AcDbLine
 10
651.0088008778033
 20
366.249622215307
 30
-150.0
 11
651.0089946755373
 21
365.5000125799248
 31
-150.0
  0
LINE
  5
3C3
330
2
100
AcDbEntity
  8
0
  6
Continuous
 62
     7
 48
10.0
100
AcDbLine
 10
654.5091755505725
 20
365.5000125799248
 30
-150.0
 11
654.5089817528385
 21
366.249622215307
 31
-150.0
  0
LINE
  5
3C4
330
2
100
AcDbEntity
  8
0
  6
Continuous
 62
     7
 48
10.0
100
AcDbLine
 10
654.5089817528385
 20
366.249622215307
 30
-150.0
 11
655.2589789836886
 21
366.249622215307
 31
-150.0
  0
LINE
  5
3C5
330
2
100
AcDbEntity
  8
0
  6
Continuous
 62
     7
 48
10.0
100
AcDbLine
 10
654.5091755505725
 20
365.5000125799248
 30
-150.0
 11
651.0089946755373
 21
365.5000125799248
 31
-150.0
  0
ARC
  5
3C6
330
2
100
AcDbEntity
  8
0
  6
Continuous
 62
     7
 48
10.0
100
AcDbCircle
 10
650.5084740401205
 20
365.2496847494475
 30
-150.0
 40
0.7496685493766775
100
AcDbArc
 50
180.0044971806113
 51
270.0251206938909
  0
LINE
  5
3C7
330
2
100
AcDbEntity
  8
0
  6
Continuous
 62
     7
 48
10.0
100
AcDbLine
 10
650.5088027239033
 20
364.5000162721246
 30
-150.0
 11
655.0089799067386
 21
364.5000162721246
 31
-150.0
  0
ARC
  5
3C8
330
2
100
AcDbEntity
  8
0
  6
Continuous
 62
     7
 48
10.0
100
AcDbCircle
 10
655.0095022005937
 20
365.2496848272285
 30
-150.0
 40
0.7496687370447371
100
AcDbArc
 50
269.9600820542524
 51
359.9954968758547
  0
LINE
  5
3C9
330
2
100
AcDbEntity
  8
0
  6
Continuous
 62
     7
 48
10.0
100
AcDbLine
 10
650.7588018008533
 20
364.5000162721246
 30
-150.0
 11
650.7588018008533
 21
363.0000218104242
 31
-150.0
  0
LINE
  5
3CA
330
2
100
AcDbEntity
  8
0
  6
Continuous
 62
     7
 48
10.0
100
AcDbLine
 10
651.0088008778033
 20
365.5000125799248
 30
-150.0
 11
651.0088008778033
 21
366.249622215307
 31
-150.0
  0
LINE
  5
3CB
330
2
100
AcDbEntity
  8
0
  6
Continuous
 62
     7
 48
10.0
100
AcDbLine
 10
651.0088008778033
 20
366.249622215307
 30
-150.0
 11
650.2586098492189
 21
366.2500098107752
 31
-150.0
  0
ARC
  5
3CC
330
2
100
AcDbEntity
  8
0
  6
Continuous
 62
     7
 48
10.0
100
AcDbCircle
 10
650.5081437023216
 20
365.249354240843
 30
-150.0
 40
0.7493382585138244
100
AcDbArc
 50
179.9792278674808
 51
270.0503900070207
  0
LINE
  5
3CD
330
2
100
AcDbEntity
  8
0
  6
Continuous
 62
     7
 48
10.0
100
AcDbLine
 10
650.7588018008533
 20
363.0000218104242
 30
-150.0
 11
650.7588018008533
 21
364.5000162721246
 31
-150.0
  0
ARC
  5
3CE
330
2
100
AcDbEntity
  8
0
  6
Continuous
 62
     7
 48
10.0
100
AcDbCircle
 10
650.5094668020518
 20
365.25067733821
 30
-150.0
 40
0.7506613598262565
100
AcDbArc
 50
180.0210845715358
 51
269.9493128563872
  0
LINE
  5
3CF
330
2
100
AcDbEntity
  8
0
  6
Continuous
 62
     7
 48
10.0
100
AcDbLine
 10
650.7589955985873
 20
363.0000218104242
 30
-150.0
 11
650.7589955985873
 21
364.5004038675929
 31
-150.0
  0
ARC
  5
3D0
330
2
100
AcDbEntity
  8
0
  6
Continuous
 62
     7
 48
10.0
100
AcDbCircle
 10
650.5091358818056
 20
365.2507342563453
 30
-150.0
 40
0.7503304627161329
100
AcDbArc
 50
180.0254401804179
 51
269.9745598195789
  0
LINE
  5
3D1
330
2
100
AcDbEntity
  8
0
  6
Continuous
 62
     7
 48
10.0
100
AcDbLine
 10
650.7589955985873
 20
363.0000218104242
 30
-150.0
 11
650.7589955985873
 21
364.5004038675929
 31
-150.0
  0
ARC
  5
3D2
330
2
100
AcDbEntity
  8
0
  6
Continuous
 62
     7
 48
10.0
100
AcDbCircle
 10
650.5091358818056
 20
365.2507342563453
 30
-150.0
 40
0.7503304627161329
100
AcDbArc
 50
180.0254401804179
 51
269.9745598195789
  0
LINE
  5
3D3
330
2
100
AcDbEntity
  8
0
  6
Continuous
 62
     7
 48
10.0
100
AcDbLine
 10
650.7589955985873
 20
363.0000218104242
 30
-150.0
 11
650.7589955985873
 21
364.5004038675929
 31
-150.0
  0
ARC
  5
3D4
330
2
100
AcDbEntity
  8
0
  6
Continuous
 62
     7
 48
10.0
100
AcDbCircle
 10
650.5091358818056
 20
365.2507342563453
 30
-150.0
 40
0.7503304627161329
100
AcDbArc
 50
180.0254401804179
 51
269.9745598195789
  0
ARC
  5
3D5
330
2
100
AcDbEntity
  8
0
  6
Continuous
 62
     7
 48
10.0
100
AcDbCircle
 10
658.1286582014151
 20
365.249354240843
 30
-150.0
 40
0.7493382585137339
100
AcDbArc
 50
179.9792278674808
 51
270.0503900070207
  0
LINE
  5
3D6
330
2
100
AcDbEntity
  8
0
  6
Continuous
 62
     7
 48
10.0
100
AcDbLine
 10
658.3793162999469
 20
375.0003650994959
 30
-150.0
 11
658.3793162999469
 21
373.4999830423273
 31
-150.0
  0
LINE
  5
3D7
330
2
100
AcDbEntity
  8
0
  6
Continuous
 62
     7
 48
10.0
100
AcDbLine
 10
658.629315376897
 20
372.5003743299951
 30
-150.0
 11
658.629315376897
 21
371.7503770991449
 31
-150.0
  0
LINE
  5
3D8
330
2
100
AcDbEntity
  8
0
  6
Continuous
 62
     7
 48
10.0
100
AcDbLine
 10
658.629315376897
 20
371.7503770991449
 30
-150.0
 11
657.8793181460468
 21
371.7503770991449
 31
-150.0
  0
LINE
  5
3D9
330
2
100
AcDbEntity
  8
0
  6
Continuous
 62
     7
 48
10.0
100
AcDbLine
 10
650.7589955985873
 20
375.0003650994959
 30
-150.0
 11
650.7588018008533
 21
373.4999830423273
 31
-150.0
  0
LINE
  5
3DA
330
2
100
AcDbEntity
  8
0
  6
Continuous
 62
     7
 48
10.0
100
AcDbLine
 10
654.7589808297885
 20
375.0003650994959
 30
-150.0
 11
654.7591746275227
 21
373.4999830423273
 31
-150.0
  0
LINE
  5
3DB
330
2
100
AcDbEntity
  8
0
  6
Continuous
 62
     7
 48
10.0
100
AcDbLine
 10
651.0088008778033
 20
372.4999867345271
 30
-150.0
 11
651.0088008778033
 21
371.7503770991449
 31
-150.0
  0
LINE
  5
3DC
330
2
100
AcDbEntity
  8
0
  6
Continuous
 62
     7
 48
10.0
100
AcDbLine
 10
651.0088008778033
 20
371.7503770991449
 30
-150.0
 11
650.2588036469529
 21
371.7503770991449
 31
-150.0
  0
LINE
  5
3DD
330
2
100
AcDbEntity
  8
0
  6
Continuous
 62
     7
 48
10.0
100
AcDbLine
 10
655.2591727814228
 20
371.7503770991449
 30
-150.0
 11
654.5091755505725
 21
371.7503770991449
 31
-150.0
  0
LINE
  5
3DE
330
2
100
AcDbEntity
  8
0
  6
Continuous
 62
     7
 48
10.0
100
AcDbLine
 10
654.5091755505725
 20
371.7503770991449
 30
-150.0
 11
654.5091755505725
 21
372.4999867345271
 31
-150.0
  0
LINE
  5
3DF
330
2
100
AcDbEntity
  8
0
  6
Continuous
 62
     7
 48
10.0
100
AcDbLine
 10
654.5091755505725
 20
372.4999867345271
 30
-150.0
 11
651.0088008778033
 21
372.4999867345271
 31
-150.0
  0
ARC
  5
3E0
330
2
100
AcDbEntity
  8
0
  6
Continuous
 62
     7
 48
10.0
100
AcDbCircle
 10
650.5081437023216
 20
372.7506450736088
 30
-150.0
 40
0.7493382585137339
100
AcDbArc
 50
89.94960999297934
 51
180.0207721325192
  0
ARC
  5
3E1
330
2
100
AcDbEntity
  8
0
  6
Continuous
 62
     7
 48
10.0
100
AcDbCircle
 10
655.0095022005937
 20
372.7503144872235
 30
-150.0
 40
0.7496687370448054
100
AcDbArc
 50
0.0045031241453175
 51
90.03991794574758
  0
LINE
  5
3E2
330
2
100
AcDbEntity
  8
0
  6
Continuous
 62
     7
 48
10.0
100
AcDbLine
 10
650.5088027239033
 20
373.4999830423273
 30
-150.0
 11
655.0089799067386
 21
373.4999830423273
 31
-150.0
  0
ARC
  5
3E3
330
2
100
AcDbEntity
  8
0
  6
Continuous
 62
     7
 48
10.0
100
AcDbCircle
 10
658.1286582014151
 20
372.7506450736088
 30
-150.0
 40
0.7493382585137339
100
AcDbArc
 50
89.94960999297934
 51
180.0207721325192
  0
LINE
  5
3E4
330
2
100
AcDbEntity
  8
0
  6
Continuous
 62
     7
 48
10.0
100
AcDbLine
 10
662.8794934827823
 20
371.7503770991449
 30
-150.0
 11
662.8794934827823
 21
366.249622215307
 31
-150.0
  0
LINE
  5
3E5
330
2
100
AcDbEntity
  8
0
  6
Continuous
 62
     7
 48
10.0
100
AcDbLine
 10
663.3794916366825
 20
365.2496259075067
 30
-150.0
 11
663.3796854344166
 21
372.7503734069452
 31
-150.0
  0
LINE
  5
3E6
330
2
100
AcDbEntity
  8
0
  6
Continuous
 62
     7
 48
10.0
100
AcDbLine
 10
662.3796891266163
 20
364.5000162721246
 30
-150.0
 11
662.3794953288822
 21
363.0000218104242
 31
-150.0
  0
LINE
  5
3E7
330
2
100
AcDbEntity
  8
0
  6
Continuous
 62
     7
 48
10.0
100
AcDbLine
 10
662.129496251932
 20
365.5000125799248
 30
-150.0
 11
662.129496251932
 21
366.249622215307
 31
-150.0
  0
LINE
  5
3E8
330
2
100
AcDbEntity
  8
0
  6
Continuous
 62
     7
 48
10.0
100
AcDbLine
 10
662.129496251932
 20
366.249622215307
 30
-150.0
 11
662.8794934827823
 21
366.249622215307
 31
-150.0
  0
LINE
  5
3E9
330
2
100
AcDbEntity
  8
0
  6
Continuous
 62
     7
 48
10.0
100
AcDbLine
 10
662.3796891266163
 20
375.0003650994959
 30
-150.0
 11
662.3794953288822
 21
373.5003706377954
 31
-150.0
  0
LINE
  5
3EA
330
2
100
AcDbEntity
  8
0
  6
Continuous
 62
     7
 48
10.0
100
AcDbLine
 10
662.8794934827823
 20
371.7503770991449
 30
-150.0
 11
662.129496251932
 21
371.7503770991449
 31
-150.0
  0
LINE
  5
3EB
330
2
100
AcDbEntity
  8
0
  6
Continuous
 62
     7
 48
10.0
100
AcDbLine
 10
662.129496251932
 20
371.7503770991449
 30
-150.0
 11
662.129496251932
 21
372.5003743299951
 31
-150.0
  0
LINE
  5
3EC
330
2
100
AcDbEntity
  8
0
  6
Continuous
 62
     7
 48
10.0
100
AcDbLine
 10
642.6382891478595
 20
366.2500098107752
 30
-150.0
 11
642.6382891478595
 21
371.7503770991449
 31
-150.0
  0
LINE
  5
3ED
330
2
100
AcDbEntity
  8
0
  6
Continuous
 62
     7
 48
10.0
100
AcDbLine
 10
647.638658282329
 20
371.7503770991449
 30
-150.0
 11
647.638658282329
 21
366.249622215307
 31
-150.0
  0
LINE
  5
3EE
330
2
100
AcDbEntity
  8
0
  6
Continuous
 62
     7
 48
10.0
100
AcDbLine
 10
642.1382909939596
 20
372.7503734069452
 30
-150.0
 11
642.1382909939596
 21
365.2496259075067
 31
-150.0
  0
LINE
  5
3EF
330
2
100
AcDbEntity
  8
0
  6
Continuous
 62
     7
 48
10.0
100
AcDbLine
 10
648.1386564362294
 20
365.2496259075067
 30
-150.0
 11
648.1386564362294
 21
372.7503734069452
 31
-150.0
  0
LINE
  5
3F0
330
2
100
AcDbEntity
  8
0
  6
Continuous
 62
     7
 48
10.0
100
AcDbLine
 10
639.7782221884568
 20
375.0003650994959
 30
-150.0
 11
639.7782221884568
 21
363.0000218104242
 31
-150.0
  0
LINE
  5
3F1
330
2
100
AcDbEntity
  8
0
  6
Continuous
 62
     7
 48
10.0
100
AcDbLine
 10
646.8886610514788
 20
365.5000125799248
 30
-150.0
 11
643.3884801764437
 21
365.5000125799248
 31
-150.0
  0
LINE
  5
3F2
330
2
100
AcDbEntity
  8
0
  6
Continuous
 62
     7
 48
10.0
100
AcDbLine
 10
642.8882882248096
 20
364.5000162721246
 30
-150.0
 11
647.3886592053791
 21
364.5000162721246
 31
-150.0
  0
LINE
  5
3F3
330
2
100
AcDbEntity
  8
0
  6
Continuous
 62
     7
 48
10.0
100
AcDbLine
 10
643.1384810994939
 20
364.5000162721246
 30
-150.0
 11
643.1384810994939
 21
363.0000218104242
 31
-150.0
  0
LINE
  5
3F4
330
2
100
AcDbEntity
  8
0
  6
Continuous
 62
     7
 48
10.0
100
AcDbLine
 10
642.6382891478595
 20
366.2500098107752
 30
-150.0
 11
643.3884801764437
 21
366.249622215307
 31
-150.0
  0
LINE
  5
3F5
330
2
100
AcDbEntity
  8
0
  6
Continuous
 62
     7
 48
10.0
100
AcDbLine
 10
643.3884801764437
 20
366.249622215307
 30
-150.0
 11
643.3884801764437
 21
365.5000125799248
 31
-150.0
  0
ARC
  5
3F6
330
2
100
AcDbEntity
  8
0
  6
Continuous
 62
     7
 48
10.0
100
AcDbCircle
 10
642.8879595410267
 20
365.2496847494475
 30
-150.0
 40
0.7496685493766775
100
AcDbArc
 50
180.0044971806113
 51
270.0251206938909
  0
LINE
  5
3F7
330
2
100
AcDbEntity
  8
0
  6
Continuous
 62
     7
 48
10.0
100
AcDbLine
 10
643.1384810994939
 20
364.5000162721246
 30
-150.0
 11
643.1384810994939
 21
362.9996342149561
 31
-150.0
  0
LINE
  5
3F8
330
2
100
AcDbEntity
  8
0
  6
Continuous
 62
     7
 48
10.0
100
AcDbLine
 10
643.3882863787097
 20
365.5000125799248
 30
-150.0
 11
643.3884801764437
 21
366.249622215307
 31
-150.0
  0
LINE
  5
3F9
330
2
100
AcDbEntity
  8
0
  6
Continuous
 62
     7
 48
10.0
100
AcDbLine
 10
643.3884801764437
 20
366.249622215307
 30
-150.0
 11
642.6382891478595
 21
366.249622215307
 31
-150.0
  0
ARC
  5
3FA
330
2
100
AcDbEntity
  8
0
  6
Continuous
 62
     7
 48
10.0
100
AcDbCircle
 10
642.8879597286887
 20
365.2496848272285
 30
-150.0
 40
0.7496687370447371
100
AcDbArc
 50
180.0045031241453
 51
270.0399179457476
  0
LINE
  5
3FB
330
2
100
AcDbEntity
  8
0
  6
Continuous
 62
     7
 48
10.0
100
AcDbLine
 10
647.1386601284291
 20
364.5000162721246
 30
-150.0
 11
647.1386601284291
 21
363.0000218104242
 31
-150.0
  0
LINE
  5
3FC
330
2
100
AcDbEntity
  8
0
  6
Continuous
 62
     7
 48
10.0
100
AcDbLine
 10
646.8886610514788
 20
365.5000125799248
 30
-150.0
 11
646.8886610514788
 21
366.249622215307
 31
-150.0
  0
LINE
  5
3FD
330
2
100
AcDbEntity
  8
0
  6
Continuous
 62
     7
 48
10.0
100
AcDbLine
 10
646.8886610514788
 20
366.249622215307
 30
-150.0
 11
647.638658282329
 21
366.249622215307
 31
-150.0
  0
ARC
  5
3FE
330
2
100
AcDbEntity
  8
0
  6
Continuous
 62
     7
 48
10.0
100
AcDbCircle
 10
647.3889878891617
 20
365.2496847494475
 30
-150.0
 40
0.7496685493767172
100
AcDbArc
 50
269.9748793061091
 51
359.9955028193869
  0
LINE
  5
3FF
330
2
100
AcDbEntity
  8
0
  6
Continuous
 62
     7
 48
10.0
100
AcDbLine
 10
647.1386601284291
 20
364.5000162721246
 30
-150.0
 11
647.1386601284291
 21
362.9996342149561
 31
-150.0
  0
LINE
  5
400
330
2
100
AcDbEntity
  8
0
  6
Continuous
 62
     7
 48
10.0
100
AcDbLine
 10
647.638658282329
 20
366.249622215307
 30
-150.0
 11
646.8886610514788
 21
366.249622215307
 31
-150.0
  0
LINE
  5
401
330
2
100
AcDbEntity
  8
0
  6
Continuous
 62
     7
 48
10.0
100
AcDbLine
 10
646.8886610514788
 20
366.249622215307
 30
-150.0
 11
646.8884672537447
 21
365.5000125799248
 31
-150.0
  0
ARC
  5
402
330
2
100
AcDbEntity
  8
0
  6
Continuous
 62
     7
 48
10.0
100
AcDbCircle
 10
647.3889877015001
 20
365.2496848272285
 30
-150.0
 40
0.7496687370448054
100
AcDbArc
 50
269.9600820542524
 51
359.9954968758547
  0
LINE
  5
403
330
2
100
AcDbEntity
  8
0
  6
Continuous
 62
     7
 48
10.0
100
AcDbLine
 10
647.1386601284291
 20
363.0000218104242
 30
-150.0
 11
647.1386601284291
 21
364.5004038675929
 31
-150.0
  0
ARC
  5
404
330
2
100
AcDbEntity
  8
0
  6
Continuous
 62
     7
 48
10.0
100
AcDbCircle
 10
647.3883261516938
 20
365.2507342131503
 30
-150.0
 40
0.7503303584798891
100
AcDbArc
 50
270.0106336871855
 51
359.974563114462
  0
LINE
  5
405
330
2
100
AcDbEntity
  8
0
  6
Continuous
 62
     7
 48
10.0
100
AcDbLine
 10
647.1386601284291
 20
363.0000218104242
 30
-150.0
 11
647.1386601284291
 21
364.5000162721246
 31
-150.0
  0
ARC
  5
406
330
2
100
AcDbEntity
  8
0
  6
Continuous
 62
     7
 48
10.0
100
AcDbCircle
 10
647.3876633791582
 20
365.2510089149249
 30
-150.0
 40
0.7509933030393548
100
AcDbArc
 50
270.0759749202384
 51
359.9536276518152
  0
LINE
  5
407
330
2
100
AcDbEntity
  8
0
  6
Continuous
 62
     7
 48
10.0
100
AcDbLine
 10
647.1386601284291
 20
363.0000218104242
 30
-150.0
 11
647.1386601284291
 21
364.5000162721246
 31
-150.0
  0
ARC
  5
408
330
2
100
AcDbEntity
  8
0
  6
Continuous
 62
     7
 48
10.0
100
AcDbCircle
 10
647.3876633791582
 20
365.2510089149249
 30
-150.0
 40
0.7509933030393548
100
AcDbArc
 50
270.0759749202384
 51
359.9536276518152
  0
LINE
  5
409
330
2
100
AcDbEntity
  8
0
  6
Continuous
 62
     7
 48
10.0
100
AcDbLine
 10
647.1386601284291
 20
363.0000218104242
 30
-150.0
 11
647.1386601284291
 21
364.5000162721246
 31
-150.0
  0
ARC
  5
40A
330
2
100
AcDbEntity
  8
0
  6
Continuous
 62
     7
 48
10.0
100
AcDbCircle
 10
647.3876633791582
 20
365.2510089149249
 30
-150.0
 40
0.7509933030393548
100
AcDbArc
 50
270.0759749202384
 51
359.9536276518152
  0
LINE
  5
40B
330
2
100
AcDbEntity
  8
0
  6
Continuous
 62
     7
 48
10.0
100
AcDbLine
 10
646.8886610514788
 20
372.5003743299951
 30
-150.0
 11
643.3884801764437
 21
372.5003743299951
 31
-150.0
  0
LINE
  5
40C
330
2
100
AcDbEntity
  8
0
  6
Continuous
 62
     7
 48
10.0
100
AcDbLine
 10
642.8882882248096
 20
373.4999830423273
 30
-150.0
 11
647.3886592053791
 21
373.5003706377954
 31
-150.0
  0
LINE
  5
40D
330
2
100
AcDbEntity
  8
0
  6
Continuous
 62
     7
 48
10.0
100
AcDbLine
 10
643.1384810994939
 20
375.0003650994959
 30
-150.0
 11
643.1384810994939
 21
373.4999830423273
 31
-150.0
  0
LINE
  5
40E
330
2
100
AcDbEntity
  8
0
  6
Continuous
 62
     7
 48
10.0
100
AcDbLine
 10
643.3884801764437
 20
372.5003743299951
 30
-150.0
 11
643.3884801764437
 21
371.7503770991449
 31
-150.0
  0
LINE
  5
40F
330
2
100
AcDbEntity
  8
0
  6
Continuous
 62
     7
 48
10.0
100
AcDbLine
 10
643.3884801764437
 20
371.7503770991449
 30
-150.0
 11
642.6382891478595
 21
371.7503770991449
 31
-150.0
  0
ARC
  5
410
330
2
100
AcDbEntity
  8
0
  6
Continuous
 62
     7
 48
10.0
100
AcDbCircle
 10
642.8879595410267
 20
372.7503145650045
 30
-150.0
 40
0.7496685493766775
100
AcDbArc
 50
89.97487930610253
 51
179.9955028193887
  0
LINE
  5
411
330
2
100
AcDbEntity
  8
0
  6
Continuous
 62
     7
 48
10.0
100
AcDbLine
 10
647.1386601284291
 20
375.0003650994959
 30
-150.0
 11
647.1386601284291
 21
373.5003706377954
 31
-150.0
  0
LINE
  5
412
330
2
100
AcDbEntity
  8
0
  6
Continuous
 62
     7
 48
10.0
100
AcDbLine
 10
647.638658282329
 20
371.7503770991449
 30
-150.0
 11
646.8886610514788
 21
371.7503770991449
 31
-150.0
  0
LINE
  5
413
330
2
100
AcDbEntity
  8
0
  6
Continuous
 62
     7
 48
10.0
100
AcDbLine
 10
646.8886610514788
 20
371.7503770991449
 30
-150.0
 11
646.8886610514788
 21
372.5003743299951
 31
-150.0
  0
ARC
  5
414
330
2
100
AcDbEntity
  8
0
  6
Continuous
 62
     7
 48
10.0
100
AcDbCircle
 10
647.3883260474767
 20
372.7500402490429
 30
-150.0
 40
0.7503304627161329
100
AcDbArc
 50
0.0254401804179063
 51
89.97455981957884
  0
LINE
  5
415
330
2
100
AcDbEntity
  8
0
  6
Continuous
 62
     7
 48
10.0
100
AcDbLine
 10
696.2214246408251
 20
375.0003650994959
 30
-150.0
 11
639.7782221884568
 21
375.0003650994959
 31
-150.0
  0
LINE
  5
416
330
2
100
AcDbEntity
  8
0
  6
Continuous
 62
     7
 48
10.0
100
AcDbLine
 10
696.2214246408251
 20
362.9996342149561
 30
-150.0
 11
639.7782221884568
 21
362.9996342149561
 31
-150.0
  0
ARC
  5
417
330
2
100
AcDbEntity
  8
0
  6
Continuous
 62
     7
 48
10.0
100
AcDbCircle
 10
662.6301536753477
 20
365.2493541381716
 30
-150.0
 40
0.7493380106173115
100
AcDbArc
 50
269.9644091586267
 51
0.0207799898401639
  0
ARC
  5
418
330
2
100
AcDbEntity
  8
0
  6
Continuous
 62
     7
 48
10.0
100
AcDbCircle
 10
662.6293550456639
 20
372.7500402490429
 30
-150.0
 40
0.7503304627161329
100
AcDbArc
 50
0.0254401804179063
 51
89.97455981957884
  0
ARC
  5
419
330
2
100
AcDbEntity
  8
0
  6
Continuous
 62
     7
 48
10.0
100
AcDbCircle
 10
643.2259737150944
 20
370.9124996572261
 30
-150.0
 40
1.502601910021413
100
AcDbArc
 50
278.1301023541547
 51
351.8698976458434
  0
ARC
  5
41A
330
2
100
AcDbEntity
  8
0
  6
Continuous
 62
     7
 48
10.0
100
AcDbCircle
 10
643.2259737150944
 20
367.0874996572261
 30
-150.0
 40
1.502601910021413
100
AcDbArc
 50
8.130102354156612
 51
81.86989764584529
  0
CIRCLE
  5
41B
330
2
100
AcDbEntity
  8
0
  6
Continuous
 62
     7
 48
10.0
100
AcDbCircle
 10
645.1384737150945
 20
368.999999657226
 30
-150.0
 40
2.337499999999999
  0
ARC
  5
41C
330
2
100
AcDbEntity
  8
0
  6
Continuous
 62
     7
 48
10.0
100
AcDbCircle
 10
647.0509737150945
 20
370.912499657226
 30
-150.0
 40
1.502601910021413
100
AcDbArc
 50
188.1301023541566
 51
261.8698976458453
  0
ARC
  5
41D
330
2
100
AcDbEntity
  8
0
  6
Continuous
 62
     7
 48
10.0
100
AcDbCircle
 10
647.0509737150945
 20
367.0874996572259
 30
-150.0
 40
1.502601910021413
100
AcDbArc
 50
98.13010235415472
 51
171.8698976458433
  0
ARC
  5
41E
330
2
100
AcDbEntity
  8
0
  6
Continuous
 62
     7
 48
10.0
100
AcDbCircle
 10
650.8464882141879
 20
370.9124996572261
 30
-150.0
 40
1.502601910021413
100
AcDbArc
 50
278.1301023541547
 51
351.8698976458434
  0
ARC
  5
41F
330
2
100
AcDbEntity
  8
0
  6
Continuous
 62
     7
 48
10.0
100
AcDbCircle
 10
650.8464882141878
 20
367.0874996572261
 30
-150.0
 40
1.502601910021413
100
AcDbArc
 50
8.130102354156612
 51
81.86989764584529
  0
ARC
  5
420
330
2
100
AcDbEntity
  8
0
  6
Continuous
 62
     7
 48
10.0
100
AcDbCircle
 10
654.6714882141881
 20
370.912499657226
 30
-150.0
 40
1.502601910021413
100
AcDbArc
 50
188.1301023541566
 51
261.8698976458453
  0
ARC
  5
421
330
2
100
AcDbEntity
  8
0
  6
Continuous
 62
     7
 48
10.0
100
AcDbCircle
 10
654.6714882141881
 20
367.0874996572259
 30
-150.0
 40
1.502601910021413
100
AcDbArc
 50
98.13010235415472
 51
171.8698976458433
  0
ARC
  5
422
330
2
100
AcDbEntity
  8
0
  6
Continuous
 62
     7
 48
10.0
100
AcDbCircle
 10
658.4670027132816
 20
370.9124996572261
 30
-150.0
 40
1.502601910021413
100
AcDbArc
 50
278.1301023541547
 51
351.8698976458434
  0
ARC
  5
423
330
2
100
AcDbEntity
  8
0
  6
Continuous
 62
     7
 48
10.0
100
AcDbCircle
 10
658.4670027132816
 20
367.0874996572261
 30
-150.0
 40
1.502601910021413
100
AcDbArc
 50
8.130102354156612
 51
81.86989764584529
  0
CIRCLE
  5
424
330
2
100
AcDbEntity
  8
0
  6
Continuous
 62
     7
 48
10.0
100
AcDbCircle
 10
660.3795027132816
 20
368.999999657226
 30
-150.0
 40
2.337499999999999
  0
ARC
  5
425
330
2
100
AcDbEntity
  8
0
  6
Continuous
 62
     7
 48
10.0
100
AcDbCircle
 10
662.2920027132818
 20
370.912499657226
 30
-150.0
 40
1.502601910021413
100
AcDbArc
 50
188.1301023541566
 51
261.8698976458453
  0
ARC
  5
426
330
2
100
AcDbEntity
  8
0
  6
Continuous
 62
     7
 48
10.0
100
AcDbCircle
 10
662.2920027132818
 20
367.0874996572259
 30
-150.0
 40
1.502601910021413
100
AcDbArc
 50
98.13010235415472
 51
171.8698976458433
  0
ARC
  5
427
330
2
100
AcDbEntity
  8
0
  6
Continuous
 62
     7
 48
10.0
100
AcDbCircle
 10
666.0875172123752
 20
370.9124996572261
 30
-150.0
 40
1.502601910021413
100
AcDbArc
 50
278.1301023541547
 51
351.8698976458434
  0
ARC
  5
428
330
2
100
AcDbEntity
  8
0
  6
Continuous
 62
     7
 48
10.0
100
AcDbCircle
 10
666.0875172123751
 20
367.0874996572261
 30
-150.0
 40
1.502601910021413
100
AcDbArc
 50
8.130102354156612
 51
81.86989764584529
  0
CIRCLE
  5
429
330
2
100
AcDbEntity
  8
0
  6
Continuous
 62
     7
 48
10.0
100
AcDbCircle
 10
668.0000172123753
 20
368.999999657226
 30
-150.0
 40
2.337499999999999
  0
ARC
  5
42A
330
2
100
AcDbEntity
  8
0
  6
Continuous
 62
     7
 48
10.0
100
AcDbCircle
 10
669.9125172123753
 20
370.912499657226
 30
-150.0
 40
1.502601910021413
100
AcDbArc
 50
188.1301023541566
 51
261.8698976458453
  0
ARC
  5
42B
330
2
100
AcDbEntity
  8
0
  6
Continuous
 62
     7
 48
10.0
100
AcDbCircle
 10
669.9125172123753
 20
367.0874996572259
 30
-150.0
 40
1.502601910021413
100
AcDbArc
 50
98.13010235415472
 51
171.8698976458433
  0
ARC
  5
42C
330
2
100
AcDbEntity
  8
0
  6
Continuous
 62
     7
 48
10.0
100
AcDbCircle
 10
673.7078379137346
 20
370.9124996572261
 30
-150.0
 40
1.502601910021413
100
AcDbArc
 50
278.1301023541547
 51
351.8698976458434
  0
ARC
  5
42D
330
2
100
AcDbEntity
  8
0
  6
Continuous
 62
     7
 48
10.0
100
AcDbCircle
 10
673.7078379137345
 20
367.0874996572261
 30
-150.0
 40
1.502601910021413
100
AcDbArc
 50
8.130102354156612
 51
81.86989764584529
  0
CIRCLE
  5
42E
330
2
100
AcDbEntity
  8
0
  6
Continuous
 62
     7
 48
10.0
100
AcDbCircle
 10
675.6203379137347
 20
368.999999657226
 30
-150.0
 40
2.337499999999999
  0
ARC
  5
42F
330
2
100
AcDbEntity
  8
0
  6
Continuous
 62
     7
 48
10.0
100
AcDbCircle
 10
677.5328379137349
 20
370.912499657226
 30
-150.0
 40
1.502601910021413
100
AcDbArc
 50
188.1301023541566
 51
261.8698976458453
  0
ARC
  5
430
330
2
100
AcDbEntity
  8
0
  6
Continuous
 62
     7
 48
10.0
100
AcDbCircle
 10
677.5328379137349
 20
367.0874996572259
 30
-150.0
 40
1.502601910021413
100
AcDbArc
 50
98.13010235415472
 51
171.8698976458433
  0
ARC
  5
431
330
2
100
AcDbEntity
  8
0
  6
Continuous
 62
     7
 48
10.0
100
AcDbCircle
 10
681.3281586150942
 20
370.9124996572261
 30
-150.0
 40
1.502601910021413
100
AcDbArc
 50
278.1301023541547
 51
351.8698976458434
  0
ARC
  5
432
330
2
100
AcDbEntity
  8
0
  6
Continuous
 62
     7
 48
10.0
100
AcDbCircle
 10
681.3281586150942
 20
367.0874996572261
 30
-150.0
 40
1.502601910021413
100
AcDbArc
 50
8.130102354156612
 51
81.86989764584529
  0
CIRCLE
  5
433
330
2
100
AcDbEntity
  8
0
  6
Continuous
 62
     7
 48
10.0
100
AcDbCircle
 10
683.2406586150944
 20
368.999999657226
 30
-150.0
 40
2.337499999999999
  0
ARC
  5
434
330
2
100
AcDbEntity
  8
0
  6
Continuous
 62
     7
 48
10.0
100
AcDbCircle
 10
685.1531586150944
 20
370.912499657226
 30
-150.0
 40
1.502601910021413
100
AcDbArc
 50
188.1301023541566
 51
261.8698976458453
  0
ARC
  5
435
330
2
100
AcDbEntity
  8
0
  6
Continuous
 62
     7
 48
10.0
100
AcDbCircle
 10
685.1531586150944
 20
367.0874996572259
 30
-150.0
 40
1.502601910021413
100
AcDbArc
 50
98.13010235415472
 51
171.8698976458433
  0
ARC
  5
436
330
2
100
AcDbEntity
  8
0
  6
Continuous
 62
     7
 48
10.0
100
AcDbCircle
 10
688.9486731141879
 20
370.9124996572261
 30
-150.0
 40
1.502601910021413
100
AcDbArc
 50
278.1301023541547
 51
351.8698976458434
  0
ARC
  5
437
330
2
100
AcDbEntity
  8
0
  6
Continuous
 62
     7
 48
10.0
100
AcDbCircle
 10
688.9486731141877
 20
367.0874996572261
 30
-150.0
 40
1.502601910021413
100
AcDbArc
 50
8.130102354156612
 51
81.86989764584529
  0
CIRCLE
  5
438
330
2
100
AcDbEntity
  8
0
  6
Continuous
 62
     7
 48
10.0
100
AcDbCircle
 10
690.8611731141879
 20
368.999999657226
 30
-150.0
 40
2.337499999999999
  0
ARC
  5
439
330
2
100
AcDbEntity
  8
0
  6
Continuous
 62
     7
 48
10.0
100
AcDbCircle
 10
692.7736731141878
 20
370.912499657226
 30
-150.0
 40
1.502601910021413
100
AcDbArc
 50
188.1301023541566
 51
261.8698976458453
  0
ARC
  5
43A
330
2
100
AcDbEntity
  8
0
  6
Continuous
 62
     7
 48
10.0
100
AcDbCircle
 10
692.7736731141878
 20
367.0874996572259
 30
-150.0
 40
1.502601910021413
100
AcDbArc
 50
98.13010235415472
 51
171.8698976458433
  0
CIRCLE
  5
43B
330
2
100
AcDbEntity
  8
0
  6
Continuous
 62
     7
 48
10.0
100
AcDbCircle
 10
652.7589882141882
 20
368.999999657226
 30
-150.0
 40
2.337499999999999
  0
LINE
  5
43C
330
2
100
AcDbEntity
  8
0
  6
Continuous
 62
     7
 48
10.0
100
AcDbLine
 10
642.3000172123754
 20
381.999999657226
 30
-150.0
 11
693.7000172123751
 21
381.999999657226
 31
-150.0
  0
LINE
  5
43D
330
2
100
AcDbEntity
  8
0
  6
Continuous
 62
     7
 48
10.0
100
AcDbLine
 10
642.3000172123752
 20
376.699999657226
 30
-150.0
 11
693.7000172123751
 21
376.699999657226
 31
-150.0
  0
ARC
  5
43E
330
2
100
AcDbEntity
  8
0
  6
Continuous
 62
     7
 48
10.0
100
AcDbCircle
 10
642.3000172123752
 20
377.6999996572261
 30
-150.0
 40
1.0
100
AcDbArc
 50
180.0
 51
270.0
  0
ARC
  5
43F
330
2
100
AcDbEntity
  8
0
  6
Continuous
 62
     7
 48
10.0
100
AcDbCircle
 10
642.3000172123754
 20
380.999999657226
 30
-150.0
 40
1.0
100
AcDbArc
 50
90.0
 51
180.0
  0
LINE
  5
440
330
2
100
AcDbEntity
  8
0
  6
Continuous
 62
     7
 48
10.0
100
AcDbLine
 10
641.3000172123754
 20
380.999999657226
 30
-150.0
 11
641.3000172123751
 21
377.6999996572261
 31
-150.0
  0
ARC
  5
441
330
2
100
AcDbEntity
  8
0
  6
Continuous
 62
     7
 48
10.0
100
AcDbCircle
 10
693.7000172123751
 20
377.6999996572261
 30
-150.0
 40
1.0
100
AcDbArc
 50
270.0
 51
0.0
  0
LINE
  5
442
330
2
100
AcDbEntity
  8
0
  6
Continuous
 62
     7
 48
10.0
100
AcDbLine
 10
694.7000172123751
 20
380.999999657226
 30
-150.0
 11
694.7000172123751
 21
377.6999996572261
 31
-150.0
  0
ARC
  5
443
330
2
100
AcDbEntity
  8
0
  6
Continuous
 62
     7
 48
10.0
100
AcDbCircle
 10
693.7000172123751
 20
380.999999657226
 30
-150.0
 40
1.0
100
AcDbArc
 50
0.0
 51
90.0
  0
LINE
  5
444
330
2
100
AcDbEntity
  8
0
  6
Continuous
 62
     7
 48
10.0
100
AcDbLine
 10
565.5007198079407
 20
362.9996333640816
 30
0.0
 11
565.5007198079407
 21
375.0003642486213
 31
0.0
  0
LINE
  5
445
330
2
100
AcDbEntity
  8
0
  6
Continuous
 62
     7
 48
10.0
100
AcDbLine
 10
566.500909913475
 20
373.9999803453529
 30
0.0
 11
566.5007161157411
 21
364.0000172673499
 31
0.0
  0
LINE
  5
446
330
2
100
AcDbEntity
  8
0
  6
Continuous
 62
     7
 48
10.0
100
AcDbLine
 10
567.5009062212754
 20
375.0003642486213
 30
0.0
 11
567.5009062212754
 21
362.9996333640816
 31
0.0
  0
LINE
  5
447
330
2
100
AcDbEntity
  8
0
  6
Continuous
 62
     7
 48
10.0
100
AcDbLine
 10
566.5007161157411
 20
364.0000172673499
 30
0.0
 11
565.5007198079407
 21
364.0000172673499
 31
0.0
  0
LINE
  5
448
330
2
100
AcDbEntity
  8
0
  6
Continuous
 62
     7
 48
10.0
100
AcDbLine
 10
563.5005333946061
 20
361.9996370562812
 30
0.0
 11
563.50072719234
 21
362.9996333640816
 31
0.0
  0
ARC
  5
449
330
2
100
AcDbEntity
  8
0
  6
Continuous
 62
     7
 48
10.0
100
AcDbCircle
 10
566.5014581010345
 20
362.999085176522
 30
0.0
 40
0.9994482705784404
100
AcDbArc
 50
269.96857382613
 51
0.0314261738618733
  0
LINE
  5
44A
330
2
100
AcDbEntity
  8
0
  6
Continuous
 62
     7
 48
10.0
100
AcDbLine
 10
563.5005333946061
 20
361.9996370562812
 30
0.0
 11
566.500909913475
 21
361.9996370562812
 31
0.0
  0
LINE
  5
44B
330
2
100
AcDbEntity
  8
0
  6
Continuous
 62
     7
 48
10.0
100
AcDbLine
 10
565.5007198079407
 20
373.9999803453529
 30
0.0
 11
566.500909913475
 21
373.9999803453529
 31
0.0
  0
LINE
  5
44C
330
2
100
AcDbEntity
  8
0
  6
Continuous
 62
     7
 48
10.0
100
AcDbLine
 10
563.5005333946061
 20
375.0003642486213
 30
0.0
 11
563.50072719234
 21
376.0003605564216
 31
0.0
  0
LINE
  5
44D
330
2
100
AcDbEntity
  8
0
  6
Continuous
 62
     7
 48
10.0
100
AcDbLine
 10
563.50072719234
 20
376.0003605564216
 30
0.0
 11
566.5007161157411
 21
376.0003605564216
 31
0.0
  0
ARC
  5
44E
330
2
100
AcDbEntity
  8
0
  6
Continuous
 62
     7
 48
10.0
100
AcDbCircle
 10
566.5007967870357
 20
375.000251119037
 30
0.0
 40
1.000109440638196
100
AcDbArc
 50
0.0064811384337527
 51
90.00462161892833
  0
LINE
  5
44F
330
2
100
AcDbEntity
  8
0
  6
Continuous
 62
     7
 48
10.0
100
AcDbLine
 10
554.4999999999999
 20
362.9996333640816
 30
0.0
 11
565.5007198079407
 21
362.9996333640816
 31
0.0
  0
LINE
  5
450
330
2
100
AcDbEntity
  8
0
  6
Continuous
 62
     7
 48
10.0
100
AcDbLine
 10
565.5007198079407
 20
375.0003642486213
 30
0.0
 11
554.4999999999999
 21
375.0003642486213
 31
0.0
  0
ARC
  5
451
330
2
100
AcDbEntity
  8
0
  6
Continuous
 62
     7
 48
10.0
100
AcDbCircle
 10
553.4913215428033
 20
445.9626926958548
 30
0.0
 40
1.000381189538299
100
AcDbArc
 50
0.0254374555699819
 51
89.98566530178688
  0
LINE
  5
452
330
2
100
AcDbEntity
  8
0
  6
Continuous
 62
     7
 48
10.0
100
AcDbLine
 10
551.9916662933679
 20
446.9628800678396
 30
0.0
 11
553.491571825851
 21
446.9630738540841
 31
0.0
  0
ARC
  5
453
330
2
100
AcDbEntity
  8
0
  6
Continuous
 62
     7
 48
10.0
100
AcDbCircle
 10
551.9916944821061
 20
447.4630705536497
 30
0.0
 40
0.5001904866045285
100
AcDbArc
 50
180.003228961298
 51
269.9967710386987
  0
LINE
  5
454
330
2
100
AcDbEntity
  8
0
  6
Continuous
 62
     7
 48
10.0
100
AcDbLine
 10
551.4915039962958
 20
454.5835241330711
 30
0.0
 11
551.4915039962958
 21
447.4580039225545
 31
0.0
  0
ARC
  5
455
330
2
100
AcDbEntity
  8
0
  6
Continuous
 62
     7
 48
10.0
100
AcDbCircle
 10
550.3913794862306
 20
450.9911147324033
 30
0.0
 40
3.500167153646943
100
AcDbArc
 50
306.8730698183308
 51
53.12693018166918
  0
LINE
  5
456
330
2
100
AcDbEntity
  8
0
  6
Continuous
 62
     7
 48
10.0
100
AcDbLine
 10
551.4915039962958
 20
448.1910972855239
 30
0.0
 11
552.4916348041958
 21
448.1910972855239
 31
0.0
  0
LINE
  5
457
330
2
100
AcDbEntity
  8
0
  6
Continuous
 62
     7
 48
10.0
100
AcDbLine
 10
551.4915039962958
 20
453.7911321792826
 30
0.0
 11
552.4916348041958
 21
453.7911321792826
 31
0.0
  0
LINE
  5
458
330
2
100
AcDbEntity
  8
0
  6
Continuous
 62
     7
 48
10.0
100
AcDbLine
 10
551.4980927286091
 20
357.4856075822777
 30
0.0
 11
551.4980927286091
 21
350.4191921763359
 31
0.0
  0
ARC
  5
459
330
2
100
AcDbEntity
  8
0
  6
Continuous
 62
     7
 48
10.0
100
AcDbCircle
 10
551.9982832487149
 20
357.4853855245049
 30
0.0
 40
0.5001905693966612
100
AcDbArc
 50
90.00323288924507
 51
179.9745637475294
  0
LINE
  5
45A
330
2
100
AcDbEntity
  8
0
  6
Continuous
 62
     7
 48
10.0
100
AcDbLine
 10
553.4981605581641
 20
357.9853823068606
 30
0.0
 11
551.9982550256811
 21
357.9855760931053
 31
0.0
  0
ARC
  5
45B
330
2
100
AcDbEntity
  8
0
  6
Continuous
 62
     7
 48
10.0
100
AcDbCircle
 10
550.3981620047883
 20
354.0074351727467
 30
0.0
 40
3.499973363379155
100
AcDbArc
 50
306.8714838199094
 51
53.12851618009063
  0
LINE
  5
45C
330
2
100
AcDbEntity
  8
0
  6
Continuous
 62
     7
 48
10.0
100
AcDbLine
 10
551.4980927286091
 20
356.8075495127482
 30
0.0
 11
552.4982235365087
 21
356.8073557265037
 31
0.0
  0
ARC
  5
45D
330
2
100
AcDbEntity
  8
0
  6
Continuous
 62
     7
 48
10.0
100
AcDbCircle
 10
553.497910322721
 20
358.9857633502036
 30
0.0
 40
1.000381074639749
100
AcDbArc
 50
270.0143319733637
 51
359.985668026633
  0
LINE
  5
45E
330
2
100
AcDbEntity
  8
0
  6
Continuous
 62
     7
 48
10.0
100
AcDbLine
 10
551.4980927286091
 20
351.2075146189896
 30
0.0
 11
552.4982235365087
 21
351.2075146189896
 31
0.0
  0
ARC
  5
45F
330
2
100
AcDbEntity
  8
0
  6
Continuous
 62
     7
100
AcDbCircle
 10
550.4999974344008
 20
223.2201099917469
 30
0.0
 40
4.0
100
AcDbArc
 50
0.0
 51
88.99999999999822
  0
LINE
  5
460
330
2
100
AcDbEntity
  8
0
  6
Continuous
 62
     7
100
AcDbLine
 10
563.5005308290068
 20
222.7216015689582
 30
0.0
 11
563.5005308290068
 21
166.2783991165901
 31
0.0
  0
LINE
  5
461
330
2
100
AcDbEntity
  8
0
  6
Continuous
 62
     7
100
AcDbLine
 10
567.5009036556763
 20
222.7216015689581
 30
0.0
 11
567.5009036556763
 21
166.27839911659
 31
0.0
  0
LINE
  5
462
330
2
100
AcDbEntity
  8
0
  6
Continuous
 62
     7
100
AcDbLine
 10
567.5009036556763
 20
222.7216015689581
 30
0.0
 11
554.4999974344007
 21
222.7216015689582
 31
0.0
  0
LINE
  5
463
330
2
100
AcDbEntity
  8
0
  6
Continuous
 62
     7
100
AcDbLine
 10
557.5003591844708
 20
173.638643258828
 30
0.0
 11
557.5003591844708
 21
169.6384642298925
 31
0.0
  0
ARC
  5
464
330
2
100
AcDbEntity
  8
0
  6
Continuous
 62
     7
100
AcDbCircle
 10
558.7505483669556
 20
171.6386506432272
 30
0.0
 40
3.249988000350951
100
AcDbArc
 50
322.0157929344662
 51
37.97987244486046
  0
LINE
  5
465
330
2
100
AcDbEntity
  8
0
  6
Continuous
 62
     7
100
AcDbLine
 10
558.5003554922713
 20
173.638643258828
 30
0.0
 11
558.5003554922713
 21
169.6384642298924
 31
0.0
  0
LINE
  5
466
330
2
100
AcDbEntity
  8
0
  6
Continuous
 62
     7
100
AcDbLine
 10
557.5003591844708
 20
196.4999929583746
 30
0.0
 11
557.5003591844708
 21
192.4998139294392
 31
0.0
  0
ARC
  5
467
330
2
100
AcDbEntity
  8
0
  6
Continuous
 62
     7
100
AcDbCircle
 10
558.7505483669556
 20
194.500000342774
 30
0.0
 40
3.249988000350951
100
AcDbArc
 50
322.0157929344662
 51
37.97987244486046
  0
LINE
  5
468
330
2
100
AcDbEntity
  8
0
  6
Continuous
 62
     7
100
AcDbLine
 10
558.5003554922713
 20
196.4999929583746
 30
0.0
 11
558.5003554922713
 21
192.4998139294391
 31
0.0
  0
LINE
  5
469
330
2
100
AcDbEntity
  8
0
  6
Continuous
 62
     7
100
AcDbLine
 10
557.5003591844708
 20
211.7408281588279
 30
0.0
 11
557.5003591844708
 21
207.7406491298924
 31
0.0
  0
ARC
  5
46A
330
2
100
AcDbEntity
  8
0
  6
Continuous
 62
     7
100
AcDbCircle
 10
558.7505483669556
 20
209.7408355432271
 30
0.0
 40
3.249988000350951
100
AcDbArc
 50
322.0157929344662
 51
37.97987244486046
  0
LINE
  5
46B
330
2
100
AcDbEntity
  8
0
  6
Continuous
 62
     7
100
AcDbLine
 10
558.5003554922713
 20
211.7408281588279
 30
0.0
 11
558.5003554922713
 21
207.7406491298923
 31
0.0
  0
LINE
  5
46C
330
2
100
AcDbEntity
  8
0
  6
Continuous
 62
     7
100
AcDbLine
 10
563.5005308290068
 20
211.7408281588279
 30
0.0
 11
557.5003591844708
 21
211.7408281588279
 31
0.0
  0
LINE
  5
46D
330
2
100
AcDbEntity
  8
0
  6
Continuous
 62
     7
100
AcDbLine
 10
563.500530829007
 20
215.3611636289861
 30
0.0
 11
557.5003591844708
 21
215.361163628986
 31
0.0
  0
LINE
  5
46E
330
2
100
AcDbEntity
  8
0
  6
Continuous
 62
     7
100
AcDbLine
 10
563.5005308290068
 20
219.3613426579215
 30
0.0
 11
557.5003591844708
 21
219.3613426579215
 31
0.0
  0
LINE
  5
46F
330
2
100
AcDbEntity
  8
0
  6
Continuous
 62
     7
100
AcDbLine
 10
558.5003554922713
 20
219.3613426579215
 30
0.0
 11
558.5003554922713
 21
215.3611636289859
 31
0.0
  0
ARC
  5
470
330
2
100
AcDbEntity
  8
0
  6
Continuous
 62
     7
100
AcDbCircle
 10
558.7505483669556
 20
217.3613500423207
 30
0.0
 40
3.249988000350951
100
AcDbArc
 50
322.0157929344662
 51
37.97987244486046
  0
LINE
  5
471
330
2
100
AcDbEntity
  8
0
  6
Continuous
 62
     7
100
AcDbLine
 10
557.5003591844708
 20
219.3613426579215
 30
0.0
 11
557.5003591844708
 21
215.361163628986
 31
0.0
  0
LINE
  5
472
330
2
100
AcDbEntity
  8
0
  6
Continuous
 62
     7
100
AcDbLine
 10
563.5005308290068
 20
196.4999929583746
 30
0.0
 11
557.5003591844708
 21
196.4999929583746
 31
0.0
  0
LINE
  5
473
330
2
100
AcDbEntity
  8
0
  6
Continuous
 62
     7
100
AcDbLine
 10
563.5005308290068
 20
204.1203136597343
 30
0.0
 11
557.5003591844708
 21
204.1203136597343
 31
0.0
  0
LINE
  5
474
330
2
100
AcDbEntity
  8
0
  6
Continuous
 62
     7
100
AcDbLine
 10
563.500530829007
 20
200.1201346307989
 30
0.0
 11
557.5003591844708
 21
200.1201346307988
 31
0.0
  0
LINE
  5
475
330
2
100
AcDbEntity
  8
0
  6
Continuous
 62
     7
100
AcDbLine
 10
563.500530829007
 20
207.7406491298925
 30
0.0
 11
557.5003591844708
 21
207.7406491298924
 31
0.0
  0
LINE
  5
476
330
2
100
AcDbEntity
  8
0
  6
Continuous
 62
     7
100
AcDbLine
 10
557.5003591844708
 20
204.1203136597343
 30
0.0
 11
557.5003591844708
 21
200.1201346307988
 31
0.0
  0
ARC
  5
477
330
2
100
AcDbEntity
  8
0
  6
Continuous
 62
     7
100
AcDbCircle
 10
558.7505483669556
 20
202.1203210441336
 30
0.0
 40
3.249988000350951
100
AcDbArc
 50
322.0157929344662
 51
37.97987244486046
  0
LINE
  5
478
330
2
100
AcDbEntity
  8
0
  6
Continuous
 62
     7
100
AcDbLine
 10
558.5003554922713
 20
204.1203136597343
 30
0.0
 11
558.5003554922713
 21
200.1201346307987
 31
0.0
  0
LINE
  5
479
330
2
100
AcDbEntity
  8
0
  6
Continuous
 62
     7
100
AcDbLine
 10
563.5005308290068
 20
188.8794784592811
 30
0.0
 11
557.5003591844708
 21
188.8794784592811
 31
0.0
  0
LINE
  5
47A
330
2
100
AcDbEntity
  8
0
  6
Continuous
 62
     7
100
AcDbLine
 10
563.500530829007
 20
184.8792994303457
 30
0.0
 11
557.5003591844708
 21
184.8792994303456
 31
0.0
  0
LINE
  5
47B
330
2
100
AcDbEntity
  8
0
  6
Continuous
 62
     7
100
AcDbLine
 10
563.500530829007
 20
192.4998139294394
 30
0.0
 11
557.5003591844708
 21
192.4998139294392
 31
0.0
  0
LINE
  5
47C
330
2
100
AcDbEntity
  8
0
  6
Continuous
 62
     7
100
AcDbLine
 10
557.5003591844708
 20
188.8794784592811
 30
0.0
 11
557.5003591844708
 21
184.8792994303456
 31
0.0
  0
ARC
  5
47D
330
2
100
AcDbEntity
  8
0
  6
Continuous
 62
     7
100
AcDbCircle
 10
558.7505483669556
 20
186.8794858436804
 30
0.0
 40
3.249988000350951
100
AcDbArc
 50
322.0157929344662
 51
37.97987244486046
  0
LINE
  5
47E
330
2
100
AcDbEntity
  8
0
  6
Continuous
 62
     7
100
AcDbLine
 10
558.5003554922713
 20
188.8794784592811
 30
0.0
 11
558.5003554922713
 21
184.8792994303455
 31
0.0
  0
LINE
  5
47F
330
2
100
AcDbEntity
  8
0
  6
Continuous
 62
     7
100
AcDbLine
 10
563.5005308290068
 20
173.638643258828
 30
0.0
 11
557.5003591844708
 21
173.638643258828
 31
0.0
  0
LINE
  5
480
330
2
100
AcDbEntity
  8
0
  6
Continuous
 62
     7
100
AcDbLine
 10
563.5005308290068
 20
181.2591577579216
 30
0.0
 11
557.5003591844708
 21
181.2591577579216
 31
0.0
  0
LINE
  5
481
330
2
100
AcDbEntity
  8
0
  6
Continuous
 62
     7
100
AcDbLine
 10
563.500530829007
 20
177.2589787289862
 30
0.0
 11
557.5003591844708
 21
177.2589787289861
 31
0.0
  0
LINE
  5
482
330
2
100
AcDbEntity
  8
0
  6
Continuous
 62
     7
100
AcDbLine
 10
557.5003591844708
 20
181.2591577579216
 30
0.0
 11
557.5003591844708
 21
177.2589787289861
 31
0.0
  0
ARC
  5
483
330
2
100
AcDbEntity
  8
0
  6
Continuous
 62
     7
100
AcDbCircle
 10
558.7505483669556
 20
179.2591651423208
 30
0.0
 40
3.249988000350951
100
AcDbArc
 50
322.0157929344662
 51
37.97987244486046
  0
LINE
  5
484
330
2
100
AcDbEntity
  8
0
  6
Continuous
 62
     7
100
AcDbLine
 10
558.5003554922713
 20
181.2591577579216
 30
0.0
 11
558.5003554922713
 21
177.258978728986
 31
0.0
  0
LINE
  5
485
330
2
100
AcDbEntity
  8
0
  6
Continuous
 62
     7
100
AcDbLine
 10
567.5009036556763
 20
166.27839911659
 30
0.0
 11
554.4999974344007
 21
166.27839911659
 31
0.0
  0
LINE
  5
486
330
2
100
AcDbEntity
  8
0
  6
Continuous
 62
     7
100
AcDbLine
 10
563.500530829007
 20
169.6384642298926
 30
0.0
 11
557.5003591844708
 21
169.6384642298925
 31
0.0
  0
LINE
  5
487
330
2
100
AcDbEntity
  8
0
  6
Continuous
 62
     7
100
AcDbLine
 10
551.4931132152055
 20
227.0944057330213
 30
0.0
 11
551.4931132152055
 21
219.9688855225048
 31
0.0
  0
ARC
  5
488
330
2
100
AcDbEntity
  8
0
  6
Continuous
 62
     7
100
AcDbCircle
 10
550.3929887051403
 20
223.5019963323535
 30
0.0
 40
3.500167153646943
100
AcDbArc
 50
306.8730698183308
 51
53.12693018166918
  0
ARC
  5
489
330
2
100
AcDbEntity
  8
0
  6
Continuous
 62
     7
100
AcDbCircle
 10
551.9933037010157
 20
219.9739521536001
 30
0.0
 40
0.5001904866045285
100
AcDbArc
 50
180.003228961298
 51
269.9967710386987
  0
LINE
  5
48A
330
2
100
AcDbEntity
  8
0
  6
Continuous
 62
     7
100
AcDbLine
 10
551.9932755122777
 20
219.4737616677898
 30
0.0
 11
553.4931810447606
 21
219.4739554540344
 31
0.0
  0
ARC
  5
48B
330
2
100
AcDbEntity
  8
0
  6
Continuous
 62
     7
100
AcDbCircle
 10
553.492930761713
 20
218.473574295805
 30
0.0
 40
1.000381189538299
100
AcDbArc
 50
0.0254374555699819
 51
89.98566530178688
  0
LINE
  5
48C
330
2
100
AcDbEntity
  8
0
  6
Continuous
 62
     7
100
AcDbLine
 10
551.4931132152055
 20
220.7019788854742
 30
0.0
 11
552.4932440231054
 21
220.7019788854742
 31
0.0
  0
LINE
  5
48D
330
2
100
AcDbEntity
  8
0
  6
Continuous
 62
     7
100
AcDbLine
 10
551.4931132152055
 20
226.3020137792328
 30
0.0
 11
552.4932440231054
 21
226.3020137792328
 31
0.0
  0
LINE
  5
48E
330
2
100
AcDbEntity
  8
0
  6
Continuous
 62
     7
100
AcDbLine
 10
551.4997019475186
 20
168.9762736558478
 30
0.0
 11
551.4997019475186
 21
161.9098582499059
 31
0.0
  0
LINE
  5
48F
330
2
100
AcDbEntity
  8
0
  6
Continuous
 62
     7
100
AcDbLine
 10
551.4997019475186
 20
168.2982155863183
 30
0.0
 11
552.4998327554184
 21
168.2980218000738
 31
0.0
  0
ARC
  5
490
330
2
100
AcDbEntity
  8
0
  6
Continuous
 62
     7
100
AcDbCircle
 10
551.9998924676245
 20
168.9760515980749
 30
0.0
 40
0.5001905693966612
100
AcDbArc
 50
90.00323288924507
 51
179.9745637475294
  0
ARC
  5
491
330
2
100
AcDbEntity
  8
0
  6
Continuous
 62
     7
100
AcDbCircle
 10
553.4995195416306
 20
170.4764294237736
 30
0.0
 40
1.000381074639749
100
AcDbArc
 50
270.0143319733637
 51
359.985668026633
  0
LINE
  5
492
330
2
100
AcDbEntity
  8
0
  6
Continuous
 62
     7
100
AcDbLine
 10
553.4997697770736
 20
169.4760483804308
 30
0.0
 11
551.9998642445909
 21
169.4762421666754
 31
0.0
  0
LINE
  5
493
330
2
100
AcDbEntity
  8
0
  6
Continuous
 62
     7
100
AcDbLine
 10
551.4997019475186
 20
162.6981806925597
 30
0.0
 11
552.4998327554184
 21
162.6981806925597
 31
0.0
  0
ARC
  5
494
330
2
100
AcDbEntity
  8
0
  6
Continuous
 62
     7
100
AcDbCircle
 10
550.3997712236979
 20
165.4981012463166
 30
0.0
 40
3.499973363379155
100
AcDbArc
 50
306.8714838199094
 51
53.12851618009063
  0
ENDSEC
  0
SECTION
  2
OBJECTS
  0
DICTIONARY
  5
B
330
0
100
AcDbDictionary
281
     1
  3
ACAD_COLOR
350
3F
  3
ACAD_GROUP
350
39
  3
ACAD_LAYOUT
350
16
  3
ACAD_MATERIAL
350
D
  3
ACAD_MLEADERSTYLE
350
42
  3
ACAD_MLINESTYLE
350
3A
  3
ACAD_PLOTSETTINGS
350
3B
  3
ACAD_PLOTSTYLENAME
350
A
  3
ACAD_SCALELIST
350
40
  3
ACAD_TABLESTYLE
350
41
  3
ACAD_VISUALSTYLE
350
2B
  3
ACDB_RECOMPOSE_DATA
350
4A1
  3
AcDbVariableDictionary
350
496
  0
DICTIONARY
  5
1D
330
1C
100
AcDbDictionary
280
     1
281
     1
  3
ACAD_LAYERFILTERS
360
1E
  3
ACAD_LAYERSTATES
360
1F
  0
DICTIONARY
  5
7
330
6
100
AcDbDictionary
280
     1
281
     1
  3
ADSK_XREC_LAYER_RECONCILED
360
8
  0
DICTIONARY
  5
3
330
2
100
AcDbDictionary
280
     1
281
     1
  3
ACAD_SORTENTS
360
495
  0
DICTIONARY
  5
3F
102
{ACAD_REACTORS
330
B
102
}
330
B
100
AcDbDictionary
281
     1
  0
DICTIONARY
  5
39
102
{ACAD_REACTORS
330
B
102
}
330
B
100
AcDbDictionary
281
     1
  0
DICTIONARY
  5
16
102
{ACAD_REACTORS
330
B
102
}
330
B
100
AcDbDictionary
281
     1
  3
Model
350
15
  3
ﾚｲｱｳﾄ1
350
1B
  0
DICTIONARY
  5
D
102
{ACAD_REACTORS
330
B
102
}
330
B
100
AcDbDictionary
281
     1
  3
ByBlock
350
3C
  3
ByLayer
350
11
  3
Global
350
C
  0
DICTIONARY
  5
42
102
{ACAD_REACTORS
330
B
102
}
330
B
100
AcDbDictionary
281
     1
  0
DICTIONARY
  5
3A
102
{ACAD_REACTORS
330
B
102
}
330
B
100
AcDbDictionary
281
     1
  3
STANDARD
350
49
  0
DICTIONARY
  5
3B
102
{ACAD_REACTORS
330
B
102
}
330
B
100
AcDbDictionary
281
     1
  0
ACDBDICTIONARYWDFLT
  5
A
102
{ACAD_REACTORS
330
B
102
}
330
B
100
AcDbDictionary
281
     1
  3
Normal
350
9
100
AcDbDictionaryWithDefault
340
9
  0
DICTIONARY
  5
40
102
{ACAD_REACTORS
330
B
102
}
330
B
100
AcDbDictionary
281
     1
  3
A0
350
4E
  3
A1
350
4F
  3
A2
350
50
  3
A3
350
51
  3
A4
350
52
  3
A5
350
53
  3
A6
350
54
  3
A7
350
55
  3
A8
350
56
  3
A9
350
57
  3
B0
350
58
  3
B1
350
59
  3
B2
350
5A
  3
B3
350
5B
  3
B4
350
5C
  3
B5
350
5D
  3
B6
350
5E
  0
DICTIONARY
  5
41
102
{ACAD_REACTORS
330
B
102
}
330
B
100
AcDbDictionary
281
     1
  3
Standard
350
4A
  0
DICTIONARY
  5
2B
102
{ACAD_REACTORS
330
B
102
}
330
B
100
AcDbDictionary
281
     1
  3
2dWireframe
350
2A
  3
Realistic
350
4C
  3
Wireframe
350
4D
  0
XRECORD
  5
4A1
102
{ACAD_REACTORS
330
B
102
}
330
B
100
AcDbXrecord
280
     1
 90
        1
330
4A
  0
DICTIONARY
  5
496
102
{ACAD_REACTORS
330
B
102
}
330
B
100
AcDbDictionary
281
     1
  3
CANNOSCALE
350
499
  3
CMLEADERSTYLE
350
498
  3
CTABLESTYLE
350
497
  3
DIMASSOC
350
49D
  3
HIDETEXT
350
49C
  3
INDEXCTL
350
49B
  3
SOLIDHIST
350
49E
  3
SORTENTS
350
49A
  3
XCLIPFRAME
350
49F
  0
DICTIONARY
  5
1E
102
{ACAD_REACTORS
330
1D
102
}
330
1D
100
AcDbDictionary
280
     1
281
     1
  0
DICTIONARY
  5
1F
102
{ACAD_REACTORS
330
1D
102
}
330
1D
100
AcDbDictionary
281
     1
  0
XRECORD
  5
8
102
{ACAD_REACTORS
330
7
102
}
330
7
100
AcDbXrecord
280
     1
290
     1
  0
SORTENTSTABLE
  5
495
102
{ACAD_REACTORS
330
3
102
}
330
3
100
AcDbSortentsTable
330
2
  0
LAYOUT
  5
15
102
{ACAD_XDICTIONARY
360
4A2
102
}
102
{ACAD_REACTORS
330
16
102
}
330
16
100
AcDbPlotSettings
  1

  2
EPSON LP-7700
  4
A3
  6

 40
5.873749732971191
 41
5.873747825622557
 42
5.87371826171875
 43
5.873748779296875
 44
297.0106506347656
 45
419.9466552734373
 46
0.0
 47
0.0
 48
0.0
 49
0.0
140
0.0
141
0.0
142
1.0
143
2.0
 70
 11952
 72
     1
 73
     1
 74
     2
  7
ﾍﾟﾝ設定.ctb
 75
    17
147
0.5
148
0.0
149
0.0
100
AcDbLayout
  1
Model
 70
     1
 71
     0
 10
0.0
 20
0.0
 11
12.0
 21
9.0
 12
0.0
 22
0.0
 32
0.0
 14
0.0
 24
0.0
 34
0.0
 15
0.0
 25
0.0
 35
0.0
146
0.0
 13
0.0
 23
0.0
 33
0.0
 16
1.0
 26
0.0
 36
0.0
 17
0.0
 27
1.0
 37
0.0
 76
     0
330
2
331
29
1001
ACAD_PSEXT
1000
EPSON LP-7700
1000
EPSON ESC/Page Printers
1000
\\devsvr03
1000
EPSON LP-7700 画像事業Gr モノクロ
1070
     0
  0
LAYOUT
  5
1B
102
{ACAD_XDICTIONARY
360
4A4
102
}
102
{ACAD_REACTORS
330
16
102
}
330
16
100
AcDbPlotSettings
  1

  2
\\DEVSVR00\LP-9200
  4

  6

 40
0.0
 41
0.0
 42
0.0
 43
0.0
 44
0.0
 45
0.0
 46
0.0
 47
0.0
 48
0.0
 49
0.0
140
0.0
141
0.0
142
1.0
143
1.0
 70
   688
 72
     0
 73
     0
 74
     5
  7
ﾍﾟﾝ設定.ctb
 75
    16
147
1.0
148
0.0
149
0.0
100
AcDbLayout
  1
ﾚｲｱｳﾄ1
 70
     0
 71
     1
 10
0.0
 20
0.0
 11
12.0
 21
9.0
 12
0.0
 22
0.0
 32
0.0
 14
1.000000000000000E+20
 24
1.000000000000000E+20
 34
1.000000000000000E+20
 15
-1.000000000000000E+20
 25
-1.000000000000000E+20
 35
-1.000000000000000E+20
146
0.0
 13
0.0
 23
0.0
 33
0.0
 16
1.0
 26
0.0
 36
0.0
 17
0.0
 27
1.0
 37
0.0
 76
     0
330
18
  0
MATERIAL
  5
3C
102
{ACAD_XDICTIONARY
360
3D
102
}
102
{ACAD_REACTORS
330
D
102
}
330
D
100
AcDbMaterial
  1
ByBlock
 73
     1
 78
     1
172
     1
176
     1
270
     1
274
     1
  0
MATERIAL
  5
11
102
{ACAD_XDICTIONARY
360
12
102
}
102
{ACAD_REACTORS
330
D
102
}
330
D
100
AcDbMaterial
  1
ByLayer
 73
     1
 78
     1
172
     1
176
     1
270
     1
274
     1
  0
MATERIAL
  5
C
102
{ACAD_XDICTIONARY
360
E
102
}
102
{ACAD_REACTORS
330
D
102
}
330
D
100
AcDbMaterial
  1
Global
 73
     1
 78
     1
172
     1
176
     1
270
     1
274
     1
  0
MLINESTYLE
  5
49
102
{ACAD_REACTORS
330
3A
102
}
330
3A
100
AcDbMlineStyle
  2
STANDARD
 70
     0
  3

 62
     0
 51
90.0
 52
90.0
 71
     2
 49
0.5
 62
   256
  6
BYLAYER
 49
-0.5
 62
   256
  6
BYLAYER
  0
ACDBPLACEHOLDER
  5
9
102
{ACAD_REACTORS
330
A
102
}
330
A
  0
SCALE
  5
4E
102
{ACAD_REACTORS
330
40
102
}
330
40
100
AcDbScale
 70
     0
300
1:1
140
1.0
141
1.0
290
     1
  0
SCALE
  5
4F
102
{ACAD_REACTORS
330
40
102
}
330
40
100
AcDbScale
 70
     0
300
1/128" = 1'-0"
140
0.0078125
141
12.0
290
     0
  0
SCALE
  5
50
102
{ACAD_REACTORS
330
40
102
}
330
40
100
AcDbScale
 70
     0
300
1/64" = 1'-0"
140
0.015625
141
12.0
290
     0
  0
SCALE
  5
51
102
{ACAD_REACTORS
330
40
102
}
330
40
100
AcDbScale
 70
     0
300
1/32" = 1'-0"
140
0.03125
141
12.0
290
     0
  0
SCALE
  5
52
102
{ACAD_REACTORS
330
40
102
}
330
40
100
AcDbScale
 70
     0
300
1/16" = 1'-0"
140
0.0625
141
12.0
290
     0
  0
SCALE
  5
53
102
{ACAD_REACTORS
330
40
102
}
330
40
100
AcDbScale
 70
     0
300
3/32" = 1'-0"
140
0.09375
141
12.0
290
     0
  0
SCALE
  5
54
102
{ACAD_REACTORS
330
40
102
}
330
40
100
AcDbScale
 70
     0
300
1/8" = 1'-0"
140
0.125
141
12.0
290
     0
  0
SCALE
  5
55
102
{ACAD_REACTORS
330
40
102
}
330
40
100
AcDbScale
 70
     0
300
3/16" = 1'-0"
140
0.1875
141
12.0
290
     0
  0
SCALE
  5
56
102
{ACAD_REACTORS
330
40
102
}
330
40
100
AcDbScale
 70
     0
300
1/4" = 1'-0"
140
0.25
141
12.0
290
     0
  0
SCALE
  5
57
102
{ACAD_REACTORS
330
40
102
}
330
40
100
AcDbScale
 70
     0
300
3/8" = 1'-0"
140
0.375
141
12.0
290
     0
  0
SCALE
  5
58
102
{ACAD_REACTORS
330
40
102
}
330
40
100
AcDbScale
 70
     0
300
1/2" = 1'-0"
140
0.5
141
12.0
290
     0
  0
SCALE
  5
59
102
{ACAD_REACTORS
330
40
102
}
330
40
100
AcDbScale
 70
     0
300
3/4" = 1'-0"
140
0.75
141
12.0
290
     0
  0
SCALE
  5
5A
102
{ACAD_REACTORS
330
40
102
}
330
40
100
AcDbScale
 70
     0
300
1" = 1'-0"
140
1.0
141
12.0
290
     0
  0
SCALE
  5
5B
102
{ACAD_REACTORS
330
40
102
}
330
40
100
AcDbScale
 70
     0
300
1-1/2" = 1'-0"
140
1.5
141
12.0
290
     0
  0
SCALE
  5
5C
102
{ACAD_REACTORS
330
40
102
}
330
40
100
AcDbScale
 70
     0
300
3" = 1'-0"
140
3.0
141
12.0
290
     0
  0
SCALE
  5
5D
102
{ACAD_REACTORS
330
40
102
}
330
40
100
AcDbScale
 70
     0
300
6" = 1'-0"
140
6.0
141
12.0
290
     0
  0
SCALE
  5
5E
102
{ACAD_REACTORS
330
40
102
}
330
40
100
AcDbScale
 70
     0
300
1'-0" = 1'-0"
140
12.0
141
12.0
290
     0
  0
TABLESTYLE
  5
4A
102
{ACAD_XDICTIONARY
360
4B
102
}
102
{ACAD_REACTORS
330
41
102
}
330
41
100
AcDbTableStyle
  3
Standard
 70
     0
 71
     0
 40
0.06
 41
0.06
280
     0
281
     0
  7
STANDARD
140
0.18
170
     2
 62
     0
 63
     7
283
     0
274
    -2
284
     1
 64
     0
275
    -2
285
     1
 65
     0
276
    -2
286
     1
 66
     0
277
    -2
287
     1
 67
     0
278
    -2
288
     1
 68
     0
279
    -2
289
     1
 69
     0
  7
STANDARD
140
0.25
170
     5
 62
     0
 63
     7
283
     0
274
    -2
284
     1
 64
     0
275
    -2
285
     1
 65
     0
276
    -2
286
     1
 66
     0
277
    -2
287
     1
 67
     0
278
    -2
288
     1
 68
     0
279
    -2
289
     1
 69
     0
  7
STANDARD
140
0.18
170
     5
 62
     0
 63
     7
283
     0
274
    -2
284
     1
 64
     0
275
    -2
285
     1
 65
     0
276
    -2
286
     1
 66
     0
277
    -2
287
     1
 67
     0
278
    -2
288
     1
 68
     0
279
    -2
289
     1
 69
     0
  0
VISUALSTYLE
  5
2A
102
{ACAD_XDICTIONARY
360
4A6
102
}
102
{ACAD_REACTORS
330
2B
102
}
330
2B
100
AcDbVisualStyle
  2

 70
     4
 71
     0
 72
     2
 73
     0
 90
        0
 40
-0.6
 41
-30.0
 62
     5
 63
     7
 74
     1
 91
        4
 64
     7
 65
   257
 75
     1
175
     1
 42
1.0
 92
        0
 66
   257
 43
1.0
 76
     1
 77
     6
 78
     2
 67
     7
 79
     5
170
     0
171
     0
290
     0
174
     0
 93
        1
 44
0.0
173
     0
291
     0
 45
0.0
1001
ACAD
1000
AcDbSavedByObjectVersion
1070
     0
  0
VISUALSTYLE
  5
4C
102
{ACAD_XDICTIONARY
360
4A9
102
}
102
{ACAD_REACTORS
330
2B
102
}
330
2B
100
AcDbVisualStyle
  2

 70
     8
 71
     2
 72
     2
 73
     0
 90
        0
 40
-0.6
 41
-30.0
 62
     5
 63
     7
 74
     1
 91
        0
 64
     7
 65
   257
 75
     1
175
     1
 42
1.0
 92
        8
 66
     8
 43
1.0
 76
     1
 77
     6
 78
     2
 67
     7
 79
     5
170
     0
171
     0
290
     0
174
     0
 93
       13
 44
0.0
173
     0
291
     0
 45
0.0
1001
ACAD
1000
AcDbSavedByObjectVersion
1070
     0
  0
VISUALSTYLE
  5
4D
102
{ACAD_XDICTIONARY
360
4AB
102
}
102
{ACAD_REACTORS
330
2B
102
}
330
2B
100
AcDbVisualStyle
  2

 70
     5
 71
     0
 72
     2
 73
     0
 90
        0
 40
-0.6
 41
-30.0
 62
     5
 63
     7
 74
     1
 91
        4
 64
     7
 65
   257
 75
     1
175
     1
 42
1.0
 92
        0
 66
   257
 43
1.0
 76
     1
 77
     6
 78
     2
 67
     7
 79
     3
170
     0
171
     0
290
     0
174
     0
 93
        1
 44
0.0
173
     0
291
     0
 45
0.0
1001
ACAD
1000
AcDbSavedByObjectVersion
1070
     0
  0
DICTIONARYVAR
  5
499
102
{ACAD_REACTORS
330
496
102
}
330
496
100
DictionaryVariables
280
     0
  1
1:1
  0
DICTIONARYVAR
  5
498
102
{ACAD_REACTORS
330
496
102
}
330
496
100
DictionaryVariables
280
     0
  1
STANDARD
  0
DICTIONARYVAR
  5
497
102
{ACAD_REACTORS
330
496
102
}
330
496
100
DictionaryVariables
280
     0
  1
STANDARD
  0
DICTIONARYVAR
  5
49D
102
{ACAD_REACTORS
330
496
102
}
330
496
100
DictionaryVariables
280
     0
  1
1
  0
DICTIONARYVAR
  5
49C
102
{ACAD_REACTORS
330
496
102
}
330
496
100
DictionaryVariables
280
     0
  1
1
  0
DICTIONARYVAR
  5
49B
102
{ACAD_REACTORS
330
496
102
}
330
496
100
DictionaryVariables
280
     0
  1
0
  0
DICTIONARYVAR
  5
49E
102
{ACAD_REACTORS
330
496
102
}
330
496
100
DictionaryVariables
280
     0
  1
1
  0
DICTIONARYVAR
  5
49A
102
{ACAD_REACTORS
330
496
102
}
330
496
100
DictionaryVariables
280
     0
  1
127
  0
DICTIONARYVAR
  5
49F
102
{ACAD_REACTORS
330
496
102
}
330
496
100
DictionaryVariables
280
     0
  1
2
  0
DICTIONARY
  5
4A2
330
15
100
AcDbDictionary
280
     1
281
     1
  3
ACAD_XREC_ROUNDTRIP
360
4A3
  0
DICTIONARY
  5
4A4
330
1B
100
AcDbDictionary
280
     1
281
     1
  3
ACAD_XREC_ROUNDTRIP
360
4A5
  0
DICTIONARY
  5
3D
330
3C
100
AcDbDictionary
280
     1
281
     1
  3
ACAD_XREC_ROUNDTRIP
360
3E
  0
DICTIONARY
  5
12
330
11
100
AcDbDictionary
280
     1
281
     1
  3
ACAD_XREC_ROUNDTRIP
360
13
  0
DICTIONARY
  5
E
330
C
100
AcDbDictionary
280
     1
281
     1
  3
ACAD_XREC_ROUNDTRIP
360
F
  0
DICTIONARY
  5
4B
330
4A
100
AcDbDictionary
280
     1
281
     1
  3
ACAD_ROUNDTRIP_2008_TABLESTYLE_CELLSTYLEMAP
360
4A0
  3
ACAD_XREC_ROUNDTRIP
360
4A8
  0
DICTIONARY
  5
4A6
330
2A
100
AcDbDictionary
280
     1
281
     1
  3
ACAD_XREC_ROUNDTRIP
360
4A7
  0
DICTIONARY
  5
4A9
330
4C
100
AcDbDictionary
280
     1
281
     1
  3
ACAD_XREC_ROUNDTRIP
360
4AA
  0
DICTIONARY
  5
4AB
330
4D
100
AcDbDictionary
280
     1
281
     1
  3
ACAD_XREC_ROUNDTRIP
360
4AC
  0
XRECORD
  5
4A3
102
{ACAD_REACTORS
330
4A2
102
}
330
4A2
100
AcDbXrecord
280
     1
102
SHADEPLOT
 70
     0
102
SHADEPLOTRESLEVEL
 70
     2
102
SHADEPLOTCUSTOMDPI
 70
   300
  0
XRECORD
  5
4A5
102
{ACAD_REACTORS
330
4A4
102
}
330
4A4
100
AcDbXrecord
280
     1
102
SHADEPLOT
 70
     0
102
SHADEPLOTRESLEVEL
 70
     2
102
SHADEPLOTCUSTOMDPI
 70
   300
  0
XRECORD
  5
3E
102
{ACAD_REACTORS
330
3D
102
}
330
3D
100
AcDbXrecord
280
     1
102
MATERIAL
148
0.0
149
0.0
149
0.0
 93
        0
 94
      127
282
     0
 72
     1
 77
     1
171
     1
175
     1
179
     1
273
     0
  0
XRECORD
  5
13
102
{ACAD_REACTORS
330
12
102
}
330
12
100
AcDbXrecord
280
     1
102
MATERIAL
148
0.0
149
0.0
149
0.0
 93
        0
 94
      127
282
     0
 72
     1
 77
     1
171
     1
175
     1
179
     1
273
     0
  0
XRECORD
  5
F
102
{ACAD_REACTORS
330
E
102
}
330
E
100
AcDbXrecord
280
     1
102
MATERIAL
148
0.0
149
0.0
149
0.0
 93
        0
 94
      127
282
     0
 72
     1
 77
     1
171
     1
175
     1
179
     1
273
     0
  0
CELLSTYLEMAP
  5
4A0
102
{ACAD_REACTORS
330
4B
102
}
330
4B
100
AcDbCellStyleMap
 90
        3
300
CELLSTYLE
  1
TABLEFORMAT_BEGIN
 90
        5
170
     1
 91
        0
 92
    32768
 62
   257
 93
        1
300
CONTENTFORMAT
  1
CONTENTFORMAT_BEGIN
 90
        0
 91
        0
 92
      512
 93
        0
300

 40
0.0
140
1.0
 94
        5
 62
     0
340
21
144
0.25
309
CONTENTFORMAT_END
171
     1
301
MARGIN
  1
CELLMARGIN_BEGIN
 40
0.06
 40
0.06
 40
0.06
 40
0.06
 40
0.18
 40
0.18
309
CELLMARGIN_END
 94
        6
 95
        1
302
GRIDFORMAT
  1
GRIDFORMAT_BEGIN
 90
        0
 91
        1
 62
     0
 92
       -2
340
0
 93
        0
 40
0.045
309
GRIDFORMAT_END
 95
        2
302
GRIDFORMAT
  1
GRIDFORMAT_BEGIN
 90
        0
 91
        1
 62
     0
 92
       -2
340
0
 93
        0
 40
0.045
309
GRIDFORMAT_END
 95
        4
302
GRIDFORMAT
  1
GRIDFORMAT_BEGIN
 90
        0
 91
        1
 62
     0
 92
       -2
340
0
 93
        0
 40
0.045
309
GRIDFORMAT_END
 95
        8
302
GRIDFORMAT
  1
GRIDFORMAT_BEGIN
 90
        0
 91
        1
 62
     0
 92
       -2
340
0
 93
        0
 40
0.045
309
GRIDFORMAT_END
 95
       16
302
GRIDFORMAT
  1
GRIDFORMAT_BEGIN
 90
        0
 91
        1
 62
     0
 92
       -2
340
0
 93
        0
 40
0.045
309
GRIDFORMAT_END
 95
       32
302
GRIDFORMAT
  1
GRIDFORMAT_BEGIN
 90
        0
 91
        1
 62
     0
 92
       -2
340
0
 93
        0
 40
0.045
309
GRIDFORMAT_END
309
TABLEFORMAT_END
  1
CELLSTYLE_BEGIN
 90
        1
 91
        1
300
_TITLE
309
CELLSTYLE_END
300
CELLSTYLE
  1
TABLEFORMAT_BEGIN
 90
        5
170
     1
 91
        0
 92
        0
 62
   257
 93
        1
300
CONTENTFORMAT
  1
CONTENTFORMAT_BEGIN
 90
        0
 91
        0
 92
      512
 93
        0
300

 40
0.0
140
1.0
 94
        5
 62
     0
340
21
144
0.18
309
CONTENTFORMAT_END
171
     1
301
MARGIN
  1
CELLMARGIN_BEGIN
 40
0.06
 40
0.06
 40
0.06
 40
0.06
 40
0.18
 40
0.18
309
CELLMARGIN_END
 94
        6
 95
        1
302
GRIDFORMAT
  1
GRIDFORMAT_BEGIN
 90
        0
 91
        1
 62
     0
 92
       -2
340
0
 93
        0
 40
0.045
309
GRIDFORMAT_END
 95
        2
302
GRIDFORMAT
  1
GRIDFORMAT_BEGIN
 90
        0
 91
        1
 62
     0
 92
       -2
340
0
 93
        0
 40
0.045
309
GRIDFORMAT_END
 95
        4
302
GRIDFORMAT
  1
GRIDFORMAT_BEGIN
 90
        0
 91
        1
 62
     0
 92
       -2
340
0
 93
        0
 40
0.045
309
GRIDFORMAT_END
 95
        8
302
GRIDFORMAT
  1
GRIDFORMAT_BEGIN
 90
        0
 91
        1
 62
     0
 92
       -2
340
0
 93
        0
 40
0.045
309
GRIDFORMAT_END
 95
       16
302
GRIDFORMAT
  1
GRIDFORMAT_BEGIN
 90
        0
 91
        1
 62
     0
 92
       -2
340
0
 93
        0
 40
0.045
309
GRIDFORMAT_END
 95
       32
302
GRIDFORMAT
  1
GRIDFORMAT_BEGIN
 90
        0
 91
        1
 62
     0
 92
       -2
340
0
 93
        0
 40
0.045
309
GRIDFORMAT_END
309
TABLEFORMAT_END
  1
CELLSTYLE_BEGIN
 90
        2
 91
        1
300
_HEADER
309
CELLSTYLE_END
300
CELLSTYLE
  1
TABLEFORMAT_BEGIN
 90
        5
170
     1
 91
        0
 92
        0
 62
   257
 93
        1
300
CONTENTFORMAT
  1
CONTENTFORMAT_BEGIN
 90
        0
 91
        0
 92
      512
 93
        0
300

 40
0.0
140
1.0
 94
        2
 62
     0
340
21
144
0.18
309
CONTENTFORMAT_END
171
     1
301
MARGIN
  1
CELLMARGIN_BEGIN
 40
0.06
 40
0.06
 40
0.06
 40
0.06
 40
0.18
 40
0.18
309
CELLMARGIN_END
 94
        6
 95
        1
302
GRIDFORMAT
  1
GRIDFORMAT_BEGIN
 90
        0
 91
        1
 62
     0
 92
       -2
340
0
 93
        0
 40
0.045
309
GRIDFORMAT_END
 95
        2
302
GRIDFORMAT
  1
GRIDFORMAT_BEGIN
 90
        0
 91
        1
 62
     0
 92
       -2
340
0
 93
        0
 40
0.045
309
GRIDFORMAT_END
 95
        4
302
GRIDFORMAT
  1
GRIDFORMAT_BEGIN
 90
        0
 91
        1
 62
     0
 92
       -2
340
0
 93
        0
 40
0.045
309
GRIDFORMAT_END
 95
        8
302
GRIDFORMAT
  1
GRIDFORMAT_BEGIN
 90
        0
 91
        1
 62
     0
 92
       -2
340
0
 93
        0
 40
0.045
309
GRIDFORMAT_END
 95
       16
302
GRIDFORMAT
  1
GRIDFORMAT_BEGIN
 90
        0
 91
        1
 62
     0
 92
       -2
340
0
 93
        0
 40
0.045
309
GRIDFORMAT_END
 95
       32
302
GRIDFORMAT
  1
GRIDFORMAT_BEGIN
 90
        0
 91
        1
 62
     0
 92
       -2
340
0
 93
        0
 40
0.045
309
GRIDFORMAT_END
309
TABLEFORMAT_END
  1
CELLSTYLE_BEGIN
 90
        3
 91
        2
300
_DATA
309
CELLSTYLE_END
  0
XRECORD
  5
4A8
102
{ACAD_REACTORS
330
4B
102
}
330
4B
100
AcDbXrecord
280
     1
102
ACAD_ROUNDTRIP_PRE2007_TABLESTYLE
 90
      512
 91
        0
  1

 92
      512
 93
        0
  2

 94
      512
 95
        0
  3

  0
XRECORD
  5
4A7
102
{ACAD_REACTORS
330
4A6
102
}
330
4A6
100
AcDbXrecord
280
     1
102
RTVSPropertyOp0
 70
     1
102
RTVSPropertyOp1
 70
     1
102
RTVSPropertyOp2
 70
     1
102
RTVSPropertyOp3
 70
     1
102
RTVSPropertyOp4
 70
     1
102
RTVSPropertyOp5
 70
     1
102
RTVSPropertyOp6
 70
     1
102
RTVSPropertyOp7
 70
     1
102
RTVSPropertyOp8
 70
     1
102
RTVSPropertyOp9
 70
     1
102
RTVSPropertyOp10
 70
     1
102
RTVSPropertyOp11
 70
     1
102
RTVSPropertyOp12
 70
     1
102
RTVSPropertyOp13
 70
     1
102
RTVSPropertyOp14
 70
     1
102
RTVSPropertyOp15
 70
     1
102
RTVSPropertyOp16
 70
     1
102
RTVSPropertyOp17
 70
     1
102
RTVSPropertyOp18
 70
     1
102
RTVSPropertyOp19
 70
     1
102
RTVSPropertyOp20
 70
     1
102
RTVSPropertyOp21
 70
     1
102
RTVSPropertyOp22
 70
     1
102
RTVSPropertyOp23
 70
     1
102
RTVSPropertyOp24
 70
     1
102
RTVSPropertyOp25
 70
     1
102
RTVSPropertyOp26
 70
     1
102
RTVSPropertyOp27
 70
     1
102
RTVSPropertyOp28
 70
     1
102
RTVSPropertyOp29
 70
     1
102
RTVSPropertyOp30
 70
     1
102
RTVSPropertyOp31
 70
     1
102
RTVSPropertyOp32
 70
     1
  0
XRECORD
  5
4AA
102
{ACAD_REACTORS
330
4A9
102
}
330
4A9
100
AcDbXrecord
280
     1
102
RTVSPropertyOp0
 70
     1
102
RTVSPropertyOp1
 70
     1
102
RTVSPropertyOp2
 70
     1
102
RTVSPropertyOp3
 70
     1
102
RTVSPropertyOp4
 70
     1
102
RTVSPropertyOp5
 70
     1
102
RTVSPropertyOp6
 70
     1
102
RTVSPropertyOp7
 70
     1
102
RTVSPropertyOp8
 70
     1
102
RTVSPropertyOp9
 70
     1
102
RTVSPropertyOp10
 70
     1
102
RTVSPropertyOp11
 70
     1
102
RTVSPropertyOp12
 70
     1
102
RTVSPropertyOp13
 70
     1
102
RTVSPropertyOp14
 70
     1
102
RTVSPropertyOp15
 70
     1
102
RTVSPropertyOp16
 70
     1
102
RTVSPropertyOp17
 70
     1
102
RTVSPropertyOp18
 70
     1
102
RTVSPropertyOp19
 70
     1
102
RTVSPropertyOp20
 70
     1
102
RTVSPropertyOp21
 70
     1
102
RTVSPropertyOp22
 70
     1
102
RTVSPropertyOp23
 70
     1
102
RTVSPropertyOp24
 70
     1
102
RTVSPropertyOp25
 70
     1
102
RTVSPropertyOp26
 70
     1
102
RTVSPropertyOp27
 70
     1
102
RTVSPropertyOp28
 70
     1
102
RTVSPropertyOp29
 70
     1
102
RTVSPropertyOp30
 70
     1
102
RTVSPropertyOp31
 70
     1
102
RTVSPropertyOp32
 70
     1
  0
XRECORD
  5
4AC
102
{ACAD_REACTORS
330
4AB
102
}
330
4AB
100
AcDbXrecord
280
     1
102
RTVSPropertyOp0
 70
     1
102
RTVSPropertyOp1
 70
     1
102
RTVSPropertyOp2
 70
     1
102
RTVSPropertyOp3
 70
     1
102
RTVSPropertyOp4
 70
     1
102
RTVSPropertyOp5
 70
     1
102
RTVSPropertyOp6
 70
     1
102
RTVSPropertyOp7
 70
     1
102
RTVSPropertyOp8
 70
     1
102
RTVSPropertyOp9
 70
     1
102
RTVSPropertyOp10
 70
     1
102
RTVSPropertyOp11
 70
     1
102
RTVSPropertyOp12
 70
     1
102
RTVSPropertyOp13
 70
     1
102
RTVSPropertyOp14
 70
     1
102
RTVSPropertyOp15
 70
     1
102
RTVSPropertyOp16
 70
     1
102
RTVSPropertyOp17
 70
     1
102
RTVSPropertyOp18
 70
     1
102
RTVSPropertyOp19
 70
     1
102
RTVSPropertyOp20
 70
     1
102
RTVSPropertyOp21
 70
     1
102
RTVSPropertyOp22
 70
     1
102
RTVSPropertyOp23
 70
     1
102
RTVSPropertyOp24
 70
     1
102
RTVSPropertyOp25
 70
     1
102
RTVSPropertyOp26
 70
     1
102
RTVSPropertyOp27
 70
     1
102
RTVSPropertyOp28
 70
     1
102
RTVSPropertyOp29
 70
     1
102
RTVSPropertyOp30
 70
     1
102
RTVSPropertyOp31
 70
     1
102
RTVSPropertyOp32
 70
     1
  0
ENDSEC
  0
EOF
