  0
SECTION
  2
HEADER
  9
$ACADVER
  1
AC1015
  9
$ACADMAINTVER
 70
    18
  9
$DWGCODEPAGE
  3
ANSI_932
  9
$INSBASE
 10
0.0
 20
0.0
 30
0.0
  9
$EXTMIN
 10
87.20455317965637
 20
40.85330190107117
 30
0.0
  9
$EXTMAX
 10
288.2045531796565
 20
242.0
 30
0.0
  9
$LIMMIN
 10
0.0
 20
0.0
  9
$LIMMAX
 10
420.0
 20
297.0
  9
$ORTHOMODE
 70
     1
  9
$REGENMODE
 70
     1
  9
$FILLMODE
 70
     1
  9
$QTEXTMODE
 70
     0
  9
$MIRRTEXT
 70
     0
  9
$LTSCALE
 40
5.0
  9
$ATTMODE
 70
     1
  9
$TEXTSIZE
 40
3.0
  9
$TRACEWID
 40
0.05
  9
$TEXTSTYLE
  7
STANDARD
  9
$CLAYER
  8
0
  9
$CELTYPE
  6
CONTINUOUS
  9
$CECOLOR
 62
   256
  9
$CELTSCALE
 40
1.0
  9
$DISPSILH
 70
     0
  9
$DIMSCALE
 40
1.0
  9
$DIMASZ
 40
2.0
  9
$DIMEXO
 40
1.0
  9
$DIMDLI
 40
6.0
  9
$DIMRND
 40
0.0
  9
$DIMDLE
 40
0.0
  9
$DIMEXE
 40
2.0
  9
$DIMTP
 40
495.0
  9
$DIMTM
 40
0.0
  9
$DIMTXT
 40
3.0
  9
$DIMCEN
 40
0.0
  9
$DIMTSZ
 40
0.0
  9
$DIMTOL
 70
     0
  9
$DIMLIM
 70
     0
  9
$DIMTIH
 70
     0
  9
$DIMTOH
 70
     0
  9
$DIMSE1
 70
     0
  9
$DIMSE2
 70
     0
  9
$DIMTAD
 70
     3
  9
$DIMZIN
 70
     8
  9
$DIMBLK
  1
ARROW
  9
$DIMASO
 70
     1
  9
$DIMSHO
 70
     0
  9
$DIMPOST
  1

  9
$DIMAPOST
  1

  9
$DIMALT
 70
     0
  9
$DIMALTD
 70
     2
  9
$DIMALTF
 40
25.4
  9
$DIMLFAC
 40
1.0
  9
$DIMTOFL
 70
     1
  9
$DIMTVP
 40
0.0
  9
$DIMTIX
 70
     1
  9
$DIMSOXD
 70
     0
  9
$DIMSAH
 70
     1
  9
$DIMBLK1
  1
OPEN
  9
$DIMBLK2
  1
OPEN
  9
$DIMSTYLE
  2
IMAO
  9
$DIMCLRD
 70
     0
  9
$DIMCLRE
 70
     0
  9
$DIMCLRT
 70
     0
  9
$DIMTFAC
 40
1.0
  9
$DIMGAP
 40
1.0
  9
$DIMJUST
 70
     0
  9
$DIMSD1
 70
     0
  9
$DIMSD2
 70
     0
  9
$DIMTOLJ
 70
     1
  9
$DIMTZIN
 70
     0
  9
$DIMALTZ
 70
     0
  9
$DIMALTTZ
 70
     0
  9
$DIMUPT
 70
     1
  9
$DIMDEC
 70
     4
  9
$DIMTDEC
 70
     4
  9
$DIMALTU
 70
     2
  9
$DIMALTTD
 70
     2
  9
$DIMTXSTY
  7
STANDARD
  9
$DIMAUNIT
 70
     0
  9
$DIMADEC
 70
     0
  9
$DIMALTRND
 40
0.0
  9
$DIMAZIN
 70
     0
  9
$DIMDSEP
 70
    46
  9
$DIMATFIT
 70
     3
  9
$DIMFRAC
 70
     0
  9
$DIMLDRBLK
  1
OPEN
  9
$DIMLUNIT
 70
     2
  9
$DIMLWD
 70
    -2
  9
$DIMLWE
 70
    -2
  9
$DIMTMOVE
 70
     0
  9
$LUNITS
 70
     2
  9
$LUPREC
 70
     2
  9
$SKETCHINC
 40
0.1
  9
$FILLETRAD
 40
0.0
  9
$AUNITS
 70
     0
  9
$AUPREC
 70
     2
  9
$MENU
  1
STDR12J
  9
$ELEVATION
 40
0.0
  9
$PELEVATION
 40
0.0
  9
$THICKNESS
 40
0.0
  9
$LIMCHECK
 70
     0
  9
$CHAMFERA
 40
0.0
  9
$CHAMFERB
 40
0.0
  9
$CHAMFERC
 40
0.0
  9
$CHAMFERD
 40
0.0
  9
$SKPOLY
 70
     0
  9
$TDCREATE
 40
2450690.700083218
  9
$TDUCREATE
 40
2450690.325083218
  9
$TDUPDATE
 40
2456463.414811702
  9
$TDUUPDATE
 40
2456463.039811701
  9
$TDINDWG
 40
0.2445080208
  9
$TDUSRTIMER
 40
0.2445080208
  9
$USRTIMER
 70
     1
  9
$ANGBASE
 50
0.0
  9
$ANGDIR
 70
     0
  9
$PDMODE
 70
     3
  9
$PDSIZE
 40
0.0
  9
$PLINEWID
 40
0.0
  9
$SPLFRAME
 70
     0
  9
$SPLINETYPE
 70
     6
  9
$SPLINESEGS
 70
     8
  9
$HANDSEED
  5
3F5
  9
$SURFTAB1
 70
     6
  9
$SURFTAB2
 70
     6
  9
$SURFTYPE
 70
     6
  9
$SURFU
 70
     6
  9
$SURFV
 70
     6
  9
$UCSBASE
  2

  9
$UCSNAME
  2

  9
$UCSORG
 10
0.0
 20
0.0
 30
0.0
  9
$UCSXDIR
 10
1.0
 20
0.0
 30
0.0
  9
$UCSYDIR
 10
0.0
 20
1.0
 30
0.0
  9
$UCSORTHOREF
  2

  9
$UCSORTHOVIEW
 70
     0
  9
$UCSORGTOP
 10
0.0
 20
0.0
 30
0.0
  9
$UCSORGBOTTOM
 10
0.0
 20
0.0
 30
0.0
  9
$UCSORGLEFT
 10
0.0
 20
0.0
 30
0.0
  9
$UCSORGRIGHT
 10
0.0
 20
0.0
 30
0.0
  9
$UCSORGFRONT
 10
0.0
 20
0.0
 30
0.0
  9
$UCSORGBACK
 10
0.0
 20
0.0
 30
0.0
  9
$PUCSBASE
  2

  9
$PUCSNAME
  2

  9
$PUCSORG
 10
0.0
 20
0.0
 30
0.0
  9
$PUCSXDIR
 10
1.0
 20
0.0
 30
0.0
  9
$PUCSYDIR
 10
0.0
 20
1.0
 30
0.0
  9
$PUCSORTHOREF
  2

  9
$PUCSORTHOVIEW
 70
     0
  9
$PUCSORGTOP
 10
0.0
 20
0.0
 30
0.0
  9
$PUCSORGBOTTOM
 10
0.0
 20
0.0
 30
0.0
  9
$PUCSORGLEFT
 10
0.0
 20
0.0
 30
0.0
  9
$PUCSORGRIGHT
 10
0.0
 20
0.0
 30
0.0
  9
$PUCSORGFRONT
 10
0.0
 20
0.0
 30
0.0
  9
$PUCSORGBACK
 10
0.0
 20
0.0
 30
0.0
  9
$USERI1
 70
     3
  9
$USERI2
 70
     1
  9
$USERI3
 70
     1
  9
$USERI4
 70
     1
  9
$USERI5
 70
     1
  9
$USERR1
 40
1.0
  9
$USERR2
 40
3.0
  9
$USERR3
 40
3.0
  9
$USERR4
 40
1.5
  9
$USERR5
 40
10.0
  9
$WORLDVIEW
 70
     1
  9
$SHADEDGE
 70
     3
  9
$SHADEDIF
 70
    70
  9
$TILEMODE
 70
     1
  9
$MAXACTVP
 70
    16
  9
$PINSBASE
 10
0.0
 20
0.0
 30
0.0
  9
$PLIMCHECK
 70
     0
  9
$PEXTMIN
 10
1.000000000000000E+20
 20
1.000000000000000E+20
 30
1.000000000000000E+20
  9
$PEXTMAX
 10
-1.000000000000000E+20
 20
-1.000000000000000E+20
 30
-1.000000000000000E+20
  9
$PLIMMIN
 10
0.0
 20
0.0
  9
$PLIMMAX
 10
12.0
 20
9.0
  9
$UNITMODE
 70
     0
  9
$VISRETAIN
 70
     0
  9
$PLINEGEN
 70
     0
  9
$PSLTSCALE
 70
     0
  9
$TREEDEPTH
 70
     0
  9
$CMLSTYLE
  2
STANDARD
  9
$CMLJUST
 70
     0
  9
$CMLSCALE
 40
1.0
  9
$PROXYGRAPHICS
 70
     1
  9
$MEASUREMENT
 70
     0
  9
$CELWEIGHT
370
    -1
  9
$ENDCAPS
280
     0
  9
$JOINSTYLE
280
     0
  9
$LWDISPLAY
290
     0
  9
$INSUNITS
 70
     0
  9
$HYPERLINKBASE
  1

  9
$STYLESHEET
  1

  9
$XEDIT
290
     1
  9
$CEPSNTYPE
380
     0
  9
$PSTYLEMODE
290
     1
  9
$FINGERPRINTGUID
  2
{91808078-F5EE-4754-B78A-93BDFE83D915}
  9
$VERSIONGUID
  2
{A3871788-925D-41C9-8FAE-44DE906C5E00}
  9
$EXTNAMES
290
     1
  9
$PSVPSCALE
 40
0.0
  9
$OLESTARTUP
290
     0
  0
ENDSEC
  0
SECTION
  2
CLASSES
  0
CLASS
  1
ACDBDICTIONARYWDFLT
  2
AcDbDictionaryWithDefault
  3
ObjectDBX Classes
 90
        0
280
     0
281
     0
  0
CLASS
  1
ACDBPLACEHOLDER
  2
AcDbPlaceHolder
  3
ObjectDBX Classes
 90
        0
280
     0
281
     0
  0
CLASS
  1
LAYOUT
  2
AcDbLayout
  3
ObjectDBX Classes
 90
        0
280
     0
281
     0
  0
CLASS
  1
DIMASSOC
  2
AcDbDimAssoc
  3
"AcDbDimAssoc|Product Desc:     AcDim ARX App For Dimension|Company:          Autodesk, Inc.|WEB Address:      www.autodesk.com"
 90
    32768
280
     0
281
     0
  0
CLASS
  1
DICTIONARYVAR
  2
AcDbDictionaryVar
  3
ObjectDBX Classes
 90
        0
280
     0
281
     0
  0
CLASS
  1
MATERIAL
  2
AcDbMaterial
  3
ObjectDBX Classes
 90
     1153
280
     0
281
     0
  0
CLASS
  1
VISUALSTYLE
  2
AcDbVisualStyle
  3
ObjectDBX Classes
 90
     4095
280
     0
281
     0
  0
CLASS
  1
TABLESTYLE
  2
AcDbTableStyle
  3
ObjectDBX Classes
 90
     4095
280
     0
281
     0
  0
CLASS
  1
SCALE
  2
AcDbScale
  3
ObjectDBX Classes
 90
     1153
280
     0
281
     0
  0
CLASS
  1
MLEADERSTYLE
  2
AcDbMLeaderStyle
  3
ACDB_MLEADERSTYLE_CLASS
 90
    36863
280
     0
281
     0
  0
CLASS
  1
CELLSTYLEMAP
  2
AcDbCellStyleMap
  3
ObjectDBX Classes
 90
     1152
280
     0
281
     0
  0
ENDSEC
  0
SECTION
  2
TABLES
  0
TABLE
  2
VPORT
  5
29
330
0
100
AcDbSymbolTable
 70
     1
  0
VPORT
  5
2A
330
29
100
AcDbSymbolTableRecord
100
AcDbViewportTableRecord
  2
*Active
 70
     0
 10
0.0
 20
0.0
 11
1.0
 21
1.0
 12
220.9083847877236
 22
168.0950086720271
 13
0.0
 23
0.0
 14
1.0
 24
1.0
 15
10.0
 25
10.0
 16
0.0
 26
0.0
 36
1.0
 17
0.0
 27
0.0
 37
0.0
 40
349.9684772173796
 41
2.240398293029871
 42
50.0
 43
0.0
 44
0.0
 50
0.0
 51
0.0
 71
     0
 72
   500
 73
     1
 74
     0
 75
     0
 76
     1
 77
     0
 78
     0
281
     0
 65
     1
110
0.0
120
0.0
130
0.0
111
1.0
121
0.0
131
0.0
112
0.0
122
1.0
132
0.0
 79
     0
146
0.0
1001
ACAD_NAV_VCDISPLAY
1070
     3
  0
ENDTAB
  0
TABLE
  2
LTYPE
  5
24
330
0
100
AcDbSymbolTable
 70
     2
  0
LTYPE
  5
25
330
24
100
AcDbSymbolTableRecord
100
AcDbLinetypeTableRecord
  2
BYBLOCK
 70
     0
  3

 72
    65
 73
     0
 40
0.0
  0
LTYPE
  5
26
330
24
100
AcDbSymbolTableRecord
100
AcDbLinetypeTableRecord
  2
BYLAYER
 70
     0
  3

 72
    65
 73
     0
 40
0.0
  0
LTYPE
  5
E
330
24
100
AcDbSymbolTableRecord
100
AcDbLinetypeTableRecord
  2
CONTINUOUS
 70
     0
  3
実線
 72
    65
 73
     0
 40
0.0
  0
LTYPE
  5
111
330
24
100
AcDbSymbolTableRecord
100
AcDbLinetypeTableRecord
  2
CENTER
 70
     0
  3
____ _ ____ _ ____ _ ____ _ ____ _ ____ _ ____
 72
    65
 73
     4
 40
2.0
 49
1.25
 74
     0
 49
-0.25
 74
     0
 49
0.25
 74
     0
 49
-0.25
 74
     0
  0
ENDTAB
  0
TABLE
  2
LAYER
  5
1B
102
{ACAD_XDICTIONARY
360
1C
102
}
330
0
100
AcDbSymbolTable
 70
     1
  0
LAYER
  5
4
102
{ACAD_XDICTIONARY
360
5
102
}
330
1B
100
AcDbSymbolTableRecord
100
AcDbLayerTableRecord
  2
0
 70
     0
 62
     7
  6
CONTINUOUS
370
    -3
390
7
  0
ENDTAB
  0
TABLE
  2
STYLE
  5
21
330
0
100
AcDbSymbolTable
 70
     2
  0
STYLE
  5
22
330
21
100
AcDbSymbolTableRecord
100
AcDbTextStyleTableRecord
  2
STANDARD
 70
     0
 40
0.0
 41
1.0
 50
0.0
 71
     0
 42
3.0
  3
ROMANS.shx
  4
bigfont.shx
  0
STYLE
  5
31
330
21
100
AcDbSymbolTableRecord
100
AcDbTextStyleTableRecord
  2
K
 70
     0
 40
0.0
 41
1.0
 50
0.0
 71
     0
 42
1.0
  3
ROMANS
  4
EXTFONT
  0
ENDTAB
  0
TABLE
  2
VIEW
  5
27
330
0
100
AcDbSymbolTable
 70
     0
  0
ENDTAB
  0
TABLE
  2
UCS
  5
28
330
0
100
AcDbSymbolTable
 70
     0
  0
ENDTAB
  0
TABLE
  2
APPID
  5
2E
330
0
100
AcDbSymbolTable
 70
     2
  0
APPID
  5
20
330
2E
100
AcDbSymbolTableRecord
100
AcDbRegAppTableRecord
  2
ACAD
 70
     0
  0
APPID
  5
2D
330
2E
100
AcDbSymbolTableRecord
100
AcDbRegAppTableRecord
  2
ACAD_NAV_VCDISPLAY
 70
     0
  0
ENDTAB
  0
TABLE
  2
DIMSTYLE
  5
2F
330
0
100
AcDbSymbolTable
 70
     1
100
AcDbDimStyleTable
 71
     1
340
30
  0
DIMSTYLE
105
30
330
2F
100
AcDbSymbolTableRecord
100
AcDbDimStyleTableRecord
  2
IMAO
 70
     0
 41
1.5
 42
1.0
 43
6.0
 44
1.0
 47
495.0
 73
     0
 74
     0
 77
     1
 78
     8
140
3.0
141
0.0
172
     1
174
     1
271
     2
272
     2
279
     2
284
     8
285
     8
286
     8
340
31
341
32
342
32
  0
ENDTAB
  0
TABLE
  2
BLOCK_RECORD
  5
1
330
0
100
AcDbSymbolTable
 70
     2
  0
BLOCK_RECORD
  5
2
330
1
100
AcDbSymbolTableRecord
100
AcDbBlockTableRecord
  2
*MODEL_SPACE
340
13
  0
BLOCK_RECORD
  5
17
330
1
100
AcDbSymbolTableRecord
100
AcDbBlockTableRecord
  2
*PAPER_SPACE
340
1A
  0
BLOCK_RECORD
  5
32
330
1
100
AcDbSymbolTableRecord
100
AcDbBlockTableRecord
  2
ARROW
340
0
  0
BLOCK_RECORD
  5
43
330
1
100
AcDbSymbolTableRecord
100
AcDbBlockTableRecord
  2
_OPEN
340
0
  0
ENDTAB
  0
ENDSEC
  0
SECTION
  2
BLOCKS
  0
BLOCK
  5
3
330
2
100
AcDbEntity
  8
0
100
AcDbBlockBegin
  2
*MODEL_SPACE
 70
     0
 10
0.0
 20
0.0
 30
0.0
  3
*MODEL_SPACE
  1

  0
ENDBLK
  5
12
330
2
100
AcDbEntity
  8
0
100
AcDbBlockEnd
  0
BLOCK
  5
18
330
17
100
AcDbEntity
 67
     1
  8
0
100
AcDbBlockBegin
  2
*PAPER_SPACE
 70
     0
 10
0.0
 20
0.0
 30
0.0
  3
*PAPER_SPACE
  1

  0
ENDBLK
  5
19
330
17
100
AcDbEntity
 67
     1
  8
0
100
AcDbBlockEnd
  0
BLOCK
  5
33
330
32
100
AcDbEntity
  8
0
100
AcDbBlockBegin
  2
ARROW
 70
     0
 10
1.0
 20
0.5
 30
0.0
  3
ARROW
  1

  0
LINE
  5
34
330
32
100
AcDbEntity
  8
0
100
AcDbLine
 10
1.0
 20
0.5
 30
0.0
 11
-0.5000000000000214
 21
0.0980762113533018
 31
0.0
  0
LINE
  5
35
330
32
100
AcDbEntity
  8
0
100
AcDbLine
 10
0.0
 20
0.5
 30
0.0
 11
1.0
 21
0.5
 31
0.0
  0
LINE
  5
36
330
32
100
AcDbEntity
  8
0
100
AcDbLine
 10
1.0
 20
0.5
 30
0.0
 11
-0.4999999999999575
 21
0.9019237886467408
 31
0.0
  0
ENDBLK
  5
37
330
32
100
AcDbEntity
  8
0
100
AcDbBlockEnd
  0
BLOCK
  5
44
330
43
100
AcDbEntity
  8
0
100
AcDbBlockBegin
  2
_OPEN
 70
     0
 10
0.0
 20
0.0
 30
0.0
  3
_OPEN
  1

  0
LINE
  5
45
330
43
100
AcDbEntity
  8
0
  6
ByBlock
 62
     0
100
AcDbLine
 10
-1.0
 20
0.1666666666666666
 30
0.0
 11
0.0
 21
0.0
 31
0.0
  0
LINE
  5
46
330
43
100
AcDbEntity
  8
0
  6
ByBlock
 62
     0
100
AcDbLine
 10
0.0
 20
0.0
 30
0.0
 11
-1.0
 21
-0.1666666666666666
 31
0.0
  0
LINE
  5
47
330
43
100
AcDbEntity
  8
0
  6
ByBlock
 62
     0
100
AcDbLine
 10
0.0
 20
0.0
 30
0.0
 11
-1.0
 21
0.0
 31
0.0
  0
ENDBLK
  5
48
330
43
100
AcDbEntity
  8
0
100
AcDbBlockEnd
  0
ENDSEC
  0
SECTION
  2
ENTITIES
  0
LINE
  5
5F
330
2
100
AcDbEntity
  8
0
  6
Continuous
 62
     7
100
AcDbLine
 10
175.7045531796564
 20
170.3474033307407
 30
0.0
 11
175.2045531796564
 21
170.3474033307407
 31
0.0
  0
LINE
  5
60
330
2
100
AcDbEntity
  8
0
  6
Continuous
 62
     7
100
AcDbLine
 10
87.20455317965642
 20
238.8474033307407
 30
0.0
 11
87.20455317965637
 21
151.8474033307407
 31
0.0
  0
LINE
  5
61
330
2
100
AcDbEntity
  8
0
  6
Continuous
 62
     7
100
AcDbLine
 10
177.2045531796563
 20
238.8474033307407
 30
0.0
 11
177.2045531796564
 21
151.8474033307407
 31
0.0
  0
LINE
  5
62
330
2
100
AcDbEntity
  8
0
  6
Continuous
 62
     7
100
AcDbLine
 10
87.20455317965637
 20
96.3474033307407
 30
0.0
 11
87.20455317965637
 21
51.34740333074069
 31
0.0
  0
LINE
  5
63
330
2
100
AcDbEntity
  8
0
  6
Continuous
 62
     7
100
AcDbLine
 10
177.2045531796564
 20
96.3474033307407
 30
0.0
 11
177.2045531796564
 21
51.34740333074069
 31
0.0
  0
LINE
  5
64
330
2
100
AcDbEntity
  8
0
  6
Continuous
 62
     7
100
AcDbLine
 10
177.2045531796564
 20
63.34740333074069
 30
0.0
 11
177.2045531796564
 21
51.34740333074069
 31
0.0
  0
LINE
  5
65
330
2
100
AcDbEntity
  8
0
  6
Continuous
 62
     7
100
AcDbLine
 10
87.20455317965637
 20
63.34740333074069
 30
0.0
 11
87.20455317965637
 21
51.34740333074069
 31
0.0
  0
LINE
  5
66
330
2
100
AcDbEntity
  8
0
  6
Continuous
 62
     7
100
AcDbLine
 10
277.2045531796564
 20
150.3474033307407
 30
0.0
 11
276.2045531796564
 21
150.3474033307407
 31
0.0
  0
LINE
  5
67
330
2
100
AcDbEntity
  8
0
  6
Continuous
 62
     7
100
AcDbLine
 10
243.2045531796564
 20
240.3474033307407
 30
0.0
 11
229.2045531796564
 21
240.3474033307407
 31
0.0
  0
LINE
  5
68
330
2
100
AcDbEntity
  8
0
  6
Continuous
 62
     7
100
AcDbLine
 10
269.4452995442899
 20
163.7608816637621
 30
0.0
 11
267.8403176951817
 21
165.265552147301
 31
0.0
  0
LINE
  5
69
330
2
100
AcDbEntity
  8
0
  6
Continuous
 62
     7
100
AcDbLine
 10
275.0627360161685
 20
158.4945349713759
 30
0.0
 11
271.7798185975382
 21
161.5722700513418
 31
0.0
  0
LINE
  5
6A
330
2
100
AcDbEntity
  8
0
  6
Continuous
 62
     7
100
AcDbLine
 10
91.60455317965643
 20
72.84740333074068
 30
0.0
 11
95.20455317965641
 21
72.84740333074068
 31
0.0
  0
LINE
  5
6B
330
2
100
AcDbEntity
  8
0
  6
Continuous
 62
     7
100
AcDbLine
 10
95.20455317965641
 20
72.84740333074068
 30
0.0
 11
95.20455317965641
 21
74.44740333074069
 31
0.0
  0
LINE
  5
6C
330
2
100
AcDbEntity
  8
0
  6
Continuous
 62
     7
100
AcDbLine
 10
91.60455317965643
 20
72.84740333074068
 30
0.0
 11
91.60455317965634
 21
74.44740333074069
 31
0.0
  0
LINE
  5
6D
330
2
100
AcDbEntity
  8
0
  6
Continuous
 62
     7
100
AcDbLine
 10
91.60455317965634
 20
67.22740333074068
 30
0.0
 11
95.20455317965632
 21
67.22740333074068
 31
0.0
  0
LINE
  5
6E
330
2
100
AcDbEntity
  8
0
  6
Continuous
 62
     7
100
AcDbLine
 10
91.60455317965643
 20
70.50740333074068
 30
0.0
 11
95.20455317965641
 21
70.50740333074068
 31
0.0
  0
LINE
  5
6F
330
2
100
AcDbEntity
  8
0
  6
Continuous
 62
     7
100
AcDbLine
 10
91.60455317965643
 20
70.50740333074068
 30
0.0
 11
91.60455317965634
 21
67.22740333074068
 31
0.0
  0
LINE
  5
70
330
2
100
AcDbEntity
  8
0
  6
Continuous
 62
     7
100
AcDbLine
 10
95.20455317965641
 20
70.50740333074068
 30
0.0
 11
95.20455317965632
 21
67.22740333074068
 31
0.0
  0
LINE
  5
71
330
2
100
AcDbEntity
  8
0
  6
Continuous
 62
     7
100
AcDbLine
 10
96.60455317965643
 20
72.84740333074068
 30
0.0
 11
100.2045531796564
 21
72.84740333074068
 31
0.0
  0
LINE
  5
72
330
2
100
AcDbEntity
  8
0
  6
Continuous
 62
     7
100
AcDbLine
 10
100.2045531796564
 20
72.84740333074068
 30
0.0
 11
100.2045531796564
 21
74.44740333074069
 31
0.0
  0
LINE
  5
73
330
2
100
AcDbEntity
  8
0
  6
Continuous
 62
     7
100
AcDbLine
 10
96.60455317965643
 20
72.84740333074068
 30
0.0
 11
96.60455317965634
 21
74.44740333074069
 31
0.0
  0
LINE
  5
74
330
2
100
AcDbEntity
  8
0
  6
Continuous
 62
     7
100
AcDbLine
 10
96.60455317965634
 20
67.22740333074068
 30
0.0
 11
100.2045531796563
 21
67.22740333074068
 31
0.0
  0
LINE
  5
75
330
2
100
AcDbEntity
  8
0
  6
Continuous
 62
     7
100
AcDbLine
 10
96.60455317965643
 20
70.50740333074068
 30
0.0
 11
100.2045531796564
 21
70.50740333074068
 31
0.0
  0
LINE
  5
76
330
2
100
AcDbEntity
  8
0
  6
Continuous
 62
     7
100
AcDbLine
 10
96.60455317965643
 20
70.50740333074068
 30
0.0
 11
96.60455317965634
 21
67.22740333074068
 31
0.0
  0
LINE
  5
77
330
2
100
AcDbEntity
  8
0
  6
Continuous
 62
     7
100
AcDbLine
 10
100.2045531796564
 20
70.50740333074068
 30
0.0
 11
100.2045531796563
 21
67.22740333074068
 31
0.0
  0
LINE
  5
78
330
2
100
AcDbEntity
  8
0
  6
Continuous
 62
     7
100
AcDbLine
 10
101.6045531796564
 20
72.84740333074068
 30
0.0
 11
105.2045531796564
 21
72.84740333074068
 31
0.0
  0
LINE
  5
79
330
2
100
AcDbEntity
  8
0
  6
Continuous
 62
     7
100
AcDbLine
 10
105.2045531796564
 20
72.84740333074068
 30
0.0
 11
105.2045531796564
 21
74.44740333074069
 31
0.0
  0
LINE
  5
7A
330
2
100
AcDbEntity
  8
0
  6
Continuous
 62
     7
100
AcDbLine
 10
101.6045531796564
 20
72.84740333074068
 30
0.0
 11
101.6045531796563
 21
74.44740333074069
 31
0.0
  0
LINE
  5
7B
330
2
100
AcDbEntity
  8
0
  6
Continuous
 62
     7
100
AcDbLine
 10
101.6045531796563
 20
67.22740333074068
 30
0.0
 11
105.2045531796563
 21
67.22740333074068
 31
0.0
  0
LINE
  5
7C
330
2
100
AcDbEntity
  8
0
  6
Continuous
 62
     7
100
AcDbLine
 10
101.6045531796564
 20
70.50740333074068
 30
0.0
 11
105.2045531796564
 21
70.50740333074068
 31
0.0
  0
LINE
  5
7D
330
2
100
AcDbEntity
  8
0
  6
Continuous
 62
     7
100
AcDbLine
 10
101.6045531796564
 20
70.50740333074068
 30
0.0
 11
101.6045531796563
 21
67.22740333074068
 31
0.0
  0
LINE
  5
7E
330
2
100
AcDbEntity
  8
0
  6
Continuous
 62
     7
100
AcDbLine
 10
105.2045531796564
 20
70.50740333074068
 30
0.0
 11
105.2045531796563
 21
67.22740333074068
 31
0.0
  0
LINE
  5
7F
330
2
100
AcDbEntity
  8
0
  6
Continuous
 62
     7
100
AcDbLine
 10
106.6045531796564
 20
72.84740333074068
 30
0.0
 11
110.2045531796564
 21
72.84740333074068
 31
0.0
  0
LINE
  5
80
330
2
100
AcDbEntity
  8
0
  6
Continuous
 62
     7
100
AcDbLine
 10
110.2045531796564
 20
72.84740333074068
 30
0.0
 11
110.2045531796564
 21
74.44740333074069
 31
0.0
  0
LINE
  5
81
330
2
100
AcDbEntity
  8
0
  6
Continuous
 62
     7
100
AcDbLine
 10
106.6045531796564
 20
72.84740333074068
 30
0.0
 11
106.6045531796563
 21
74.44740333074069
 31
0.0
  0
LINE
  5
82
330
2
100
AcDbEntity
  8
0
  6
Continuous
 62
     7
100
AcDbLine
 10
106.6045531796563
 20
67.22740333074068
 30
0.0
 11
110.2045531796563
 21
67.22740333074068
 31
0.0
  0
LINE
  5
83
330
2
100
AcDbEntity
  8
0
  6
Continuous
 62
     7
100
AcDbLine
 10
106.6045531796564
 20
70.50740333074068
 30
0.0
 11
110.2045531796564
 21
70.50740333074068
 31
0.0
  0
LINE
  5
84
330
2
100
AcDbEntity
  8
0
  6
Continuous
 62
     7
100
AcDbLine
 10
106.6045531796564
 20
70.50740333074068
 30
0.0
 11
106.6045531796563
 21
67.22740333074068
 31
0.0
  0
LINE
  5
85
330
2
100
AcDbEntity
  8
0
  6
Continuous
 62
     7
100
AcDbLine
 10
110.2045531796564
 20
70.50740333074068
 30
0.0
 11
110.2045531796563
 21
67.22740333074068
 31
0.0
  0
LINE
  5
86
330
2
100
AcDbEntity
  8
0
  6
Continuous
 62
     7
100
AcDbLine
 10
111.6045531796564
 20
72.84740333074068
 30
0.0
 11
115.2045531796564
 21
72.84740333074068
 31
0.0
  0
LINE
  5
87
330
2
100
AcDbEntity
  8
0
  6
Continuous
 62
     7
100
AcDbLine
 10
115.2045531796564
 20
72.84740333074068
 30
0.0
 11
115.2045531796564
 21
74.44740333074069
 31
0.0
  0
LINE
  5
88
330
2
100
AcDbEntity
  8
0
  6
Continuous
 62
     7
100
AcDbLine
 10
111.6045531796564
 20
72.84740333074068
 30
0.0
 11
111.6045531796563
 21
74.44740333074069
 31
0.0
  0
LINE
  5
89
330
2
100
AcDbEntity
  8
0
  6
Continuous
 62
     7
100
AcDbLine
 10
111.6045531796563
 20
67.22740333074068
 30
0.0
 11
115.2045531796563
 21
67.22740333074068
 31
0.0
  0
LINE
  5
8A
330
2
100
AcDbEntity
  8
0
  6
Continuous
 62
     7
100
AcDbLine
 10
111.6045531796564
 20
70.50740333074068
 30
0.0
 11
115.2045531796564
 21
70.50740333074068
 31
0.0
  0
LINE
  5
8B
330
2
100
AcDbEntity
  8
0
  6
Continuous
 62
     7
100
AcDbLine
 10
111.6045531796564
 20
70.50740333074068
 30
0.0
 11
111.6045531796563
 21
67.22740333074068
 31
0.0
  0
LINE
  5
8C
330
2
100
AcDbEntity
  8
0
  6
Continuous
 62
     7
100
AcDbLine
 10
115.2045531796564
 20
70.50740333074068
 30
0.0
 11
115.2045531796563
 21
67.22740333074068
 31
0.0
  0
LINE
  5
8D
330
2
100
AcDbEntity
  8
0
  6
Continuous
 62
     7
100
AcDbLine
 10
116.6045531796564
 20
72.84740333074068
 30
0.0
 11
120.2045531796564
 21
72.84740333074068
 31
0.0
  0
LINE
  5
8E
330
2
100
AcDbEntity
  8
0
  6
Continuous
 62
     7
100
AcDbLine
 10
120.2045531796564
 20
72.84740333074068
 30
0.0
 11
120.2045531796564
 21
74.44740333074069
 31
0.0
  0
LINE
  5
8F
330
2
100
AcDbEntity
  8
0
  6
Continuous
 62
     7
100
AcDbLine
 10
116.6045531796564
 20
72.84740333074068
 30
0.0
 11
116.6045531796563
 21
74.44740333074069
 31
0.0
  0
LINE
  5
90
330
2
100
AcDbEntity
  8
0
  6
Continuous
 62
     7
100
AcDbLine
 10
116.6045531796563
 20
67.22740333074068
 30
0.0
 11
120.2045531796563
 21
67.22740333074068
 31
0.0
  0
LINE
  5
91
330
2
100
AcDbEntity
  8
0
  6
Continuous
 62
     7
100
AcDbLine
 10
116.6045531796564
 20
70.50740333074068
 30
0.0
 11
120.2045531796564
 21
70.50740333074068
 31
0.0
  0
LINE
  5
92
330
2
100
AcDbEntity
  8
0
  6
Continuous
 62
     7
100
AcDbLine
 10
116.6045531796564
 20
70.50740333074068
 30
0.0
 11
116.6045531796563
 21
67.22740333074068
 31
0.0
  0
LINE
  5
93
330
2
100
AcDbEntity
  8
0
  6
Continuous
 62
     7
100
AcDbLine
 10
120.2045531796564
 20
70.50740333074068
 30
0.0
 11
120.2045531796563
 21
67.22740333074068
 31
0.0
  0
LINE
  5
94
330
2
100
AcDbEntity
  8
0
  6
Continuous
 62
     7
100
AcDbLine
 10
121.6045531796564
 20
72.84740333074068
 30
0.0
 11
125.2045531796564
 21
72.84740333074068
 31
0.0
  0
LINE
  5
95
330
2
100
AcDbEntity
  8
0
  6
Continuous
 62
     7
100
AcDbLine
 10
125.2045531796564
 20
72.84740333074068
 30
0.0
 11
125.2045531796564
 21
74.44740333074069
 31
0.0
  0
LINE
  5
96
330
2
100
AcDbEntity
  8
0
  6
Continuous
 62
     7
100
AcDbLine
 10
121.6045531796564
 20
72.84740333074068
 30
0.0
 11
121.6045531796563
 21
74.44740333074069
 31
0.0
  0
LINE
  5
97
330
2
100
AcDbEntity
  8
0
  6
Continuous
 62
     7
100
AcDbLine
 10
121.6045531796563
 20
67.22740333074068
 30
0.0
 11
125.2045531796563
 21
67.22740333074068
 31
0.0
  0
LINE
  5
98
330
2
100
AcDbEntity
  8
0
  6
Continuous
 62
     7
100
AcDbLine
 10
121.6045531796564
 20
70.50740333074068
 30
0.0
 11
125.2045531796564
 21
70.50740333074068
 31
0.0
  0
LINE
  5
99
330
2
100
AcDbEntity
  8
0
  6
Continuous
 62
     7
100
AcDbLine
 10
121.6045531796564
 20
70.50740333074068
 30
0.0
 11
121.6045531796563
 21
67.22740333074068
 31
0.0
  0
LINE
  5
9A
330
2
100
AcDbEntity
  8
0
  6
Continuous
 62
     7
100
AcDbLine
 10
125.2045531796564
 20
70.50740333074068
 30
0.0
 11
125.2045531796563
 21
67.22740333074068
 31
0.0
  0
LINE
  5
9B
330
2
100
AcDbEntity
  8
0
  6
Continuous
 62
     7
100
AcDbLine
 10
126.6045531796564
 20
72.84740333074068
 30
0.0
 11
130.2045531796564
 21
72.84740333074068
 31
0.0
  0
LINE
  5
9C
330
2
100
AcDbEntity
  8
0
  6
Continuous
 62
     7
100
AcDbLine
 10
130.2045531796564
 20
72.84740333074068
 30
0.0
 11
130.2045531796564
 21
74.44740333074069
 31
0.0
  0
LINE
  5
9D
330
2
100
AcDbEntity
  8
0
  6
Continuous
 62
     7
100
AcDbLine
 10
126.6045531796564
 20
72.84740333074068
 30
0.0
 11
126.6045531796563
 21
74.44740333074069
 31
0.0
  0
LINE
  5
9E
330
2
100
AcDbEntity
  8
0
  6
Continuous
 62
     7
100
AcDbLine
 10
126.6045531796563
 20
67.22740333074068
 30
0.0
 11
130.2045531796563
 21
67.22740333074068
 31
0.0
  0
LINE
  5
9F
330
2
100
AcDbEntity
  8
0
  6
Continuous
 62
     7
100
AcDbLine
 10
126.6045531796564
 20
70.50740333074068
 30
0.0
 11
130.2045531796564
 21
70.50740333074068
 31
0.0
  0
LINE
  5
A0
330
2
100
AcDbEntity
  8
0
  6
Continuous
 62
     7
100
AcDbLine
 10
126.6045531796564
 20
70.50740333074068
 30
0.0
 11
126.6045531796563
 21
67.22740333074068
 31
0.0
  0
LINE
  5
A1
330
2
100
AcDbEntity
  8
0
  6
Continuous
 62
     7
100
AcDbLine
 10
130.2045531796564
 20
70.50740333074068
 30
0.0
 11
130.2045531796563
 21
67.22740333074068
 31
0.0
  0
LINE
  5
A2
330
2
100
AcDbEntity
  8
0
  6
Continuous
 62
     7
100
AcDbLine
 10
131.6045531796564
 20
72.84740333074068
 30
0.0
 11
135.2045531796564
 21
72.84740333074068
 31
0.0
  0
LINE
  5
A3
330
2
100
AcDbEntity
  8
0
  6
Continuous
 62
     7
100
AcDbLine
 10
135.2045531796564
 20
72.84740333074068
 30
0.0
 11
135.2045531796564
 21
74.44740333074069
 31
0.0
  0
LINE
  5
A4
330
2
100
AcDbEntity
  8
0
  6
Continuous
 62
     7
100
AcDbLine
 10
131.6045531796564
 20
72.84740333074068
 30
0.0
 11
131.6045531796563
 21
74.44740333074069
 31
0.0
  0
LINE
  5
A5
330
2
100
AcDbEntity
  8
0
  6
Continuous
 62
     7
100
AcDbLine
 10
131.6045531796563
 20
67.22740333074068
 30
0.0
 11
135.2045531796563
 21
67.22740333074068
 31
0.0
  0
LINE
  5
A6
330
2
100
AcDbEntity
  8
0
  6
Continuous
 62
     7
100
AcDbLine
 10
131.6045531796564
 20
70.50740333074068
 30
0.0
 11
135.2045531796564
 21
70.50740333074068
 31
0.0
  0
LINE
  5
A7
330
2
100
AcDbEntity
  8
0
  6
Continuous
 62
     7
100
AcDbLine
 10
131.6045531796564
 20
70.50740333074068
 30
0.0
 11
131.6045531796563
 21
67.22740333074068
 31
0.0
  0
LINE
  5
A8
330
2
100
AcDbEntity
  8
0
  6
Continuous
 62
     7
100
AcDbLine
 10
135.2045531796564
 20
70.50740333074068
 30
0.0
 11
135.2045531796563
 21
67.22740333074068
 31
0.0
  0
LINE
  5
A9
330
2
100
AcDbEntity
  8
0
  6
Continuous
 62
     7
100
AcDbLine
 10
140.2045531796564
 20
70.50740333074068
 30
0.0
 11
140.2045531796563
 21
67.22740333074068
 31
0.0
  0
LINE
  5
AA
330
2
100
AcDbEntity
  8
0
  6
Continuous
 62
     7
100
AcDbLine
 10
136.6045531796564
 20
70.50740333074068
 30
0.0
 11
136.6045531796563
 21
67.22740333074068
 31
0.0
  0
LINE
  5
AB
330
2
100
AcDbEntity
  8
0
  6
Continuous
 62
     7
100
AcDbLine
 10
136.6045531796564
 20
70.50740333074068
 30
0.0
 11
140.2045531796564
 21
70.50740333074068
 31
0.0
  0
LINE
  5
AC
330
2
100
AcDbEntity
  8
0
  6
Continuous
 62
     7
100
AcDbLine
 10
136.6045531796563
 20
67.22740333074068
 30
0.0
 11
140.2045531796563
 21
67.22740333074068
 31
0.0
  0
LINE
  5
AD
330
2
100
AcDbEntity
  8
0
  6
Continuous
 62
     7
100
AcDbLine
 10
136.6045531796564
 20
72.84740333074068
 30
0.0
 11
136.6045531796563
 21
74.44740333074069
 31
0.0
  0
LINE
  5
AE
330
2
100
AcDbEntity
  8
0
  6
Continuous
 62
     7
100
AcDbLine
 10
140.2045531796564
 20
72.84740333074068
 30
0.0
 11
140.2045531796564
 21
74.44740333074069
 31
0.0
  0
LINE
  5
AF
330
2
100
AcDbEntity
  8
0
  6
Continuous
 62
     7
100
AcDbLine
 10
136.6045531796564
 20
72.84740333074068
 30
0.0
 11
140.2045531796564
 21
72.84740333074068
 31
0.0
  0
LINE
  5
B0
330
2
100
AcDbEntity
  8
0
  6
Continuous
 62
     7
100
AcDbLine
 10
95.20455317965636
 20
158.6541212347815
 30
0.0
 11
91.60455317965634
 21
158.6541212347815
 31
0.0
  0
LINE
  5
B1
330
2
100
AcDbEntity
  8
0
  6
Continuous
 62
     7
100
AcDbLine
 10
95.20455317965636
 20
155.5763861548155
 30
0.0
 11
91.6045531796564
 21
155.5763861548155
 31
0.0
  0
LINE
  5
B2
330
2
100
AcDbEntity
  8
0
  6
Continuous
 62
     7
100
AcDbLine
 10
95.20455317965636
 20
158.6541212347815
 30
0.0
 11
95.20455317965636
 21
155.5763861548155
 31
0.0
  0
LINE
  5
B3
330
2
100
AcDbEntity
  8
0
  6
Continuous
 62
     7
100
AcDbLine
 10
91.60455317965627
 20
158.6541212347815
 30
0.0
 11
91.60455317965634
 21
155.5763861548155
 31
0.0
  0
LINE
  5
B4
330
2
100
AcDbEntity
  8
0
  6
Continuous
 62
     7
100
AcDbLine
 10
94.51726477078628
 20
160.8474033307407
 30
0.0
 11
95.20455317965643
 21
160.8474033307407
 31
0.0
  0
LINE
  5
B5
330
2
100
AcDbEntity
  8
0
  6
Continuous
 62
     7
100
AcDbLine
 10
95.20455317965636
 20
160.8427328472017
 30
0.0
 11
91.60455317965627
 21
160.8427328472017
 31
0.0
  0
LINE
  5
B6
330
2
100
AcDbEntity
  8
0
  6
Continuous
 62
     7
100
AcDbLine
 10
95.20455317965641
 20
161.8474033307405
 30
0.0
 11
95.20455317965643
 21
160.8427328472017
 31
0.0
  0
LINE
  5
B7
330
2
100
AcDbEntity
  8
0
  6
Continuous
 62
     7
100
AcDbLine
 10
91.60455317965627
 20
161.8474033307405
 30
0.0
 11
91.60455317965627
 21
160.8427328472017
 31
0.0
  0
LINE
  5
B8
330
2
100
AcDbEntity
  8
0
  6
Continuous
 62
     7
100
AcDbLine
 10
100.2045531796563
 20
158.6541212347815
 30
0.0
 11
96.60455317965634
 21
158.6541212347815
 31
0.0
  0
LINE
  5
B9
330
2
100
AcDbEntity
  8
0
  6
Continuous
 62
     7
100
AcDbLine
 10
100.2045531796563
 20
155.5763861548155
 30
0.0
 11
96.60455317965643
 21
155.5763861548155
 31
0.0
  0
LINE
  5
BA
330
2
100
AcDbEntity
  8
0
  6
Continuous
 62
     7
100
AcDbLine
 10
100.2045531796563
 20
158.6541212347815
 30
0.0
 11
100.2045531796563
 21
155.5763861548155
 31
0.0
  0
LINE
  5
BB
330
2
100
AcDbEntity
  8
0
  6
Continuous
 62
     7
100
AcDbLine
 10
96.60455317965627
 20
158.6541212347815
 30
0.0
 11
96.60455317965634
 21
155.5763861548155
 31
0.0
  0
LINE
  5
BC
330
2
100
AcDbEntity
  8
0
  6
Continuous
 62
     7
100
AcDbLine
 10
99.51726477078629
 20
160.8474033307407
 30
0.0
 11
100.2045531796564
 21
160.8474033307407
 31
0.0
  0
LINE
  5
BD
330
2
100
AcDbEntity
  8
0
  6
Continuous
 62
     7
100
AcDbLine
 10
100.2045531796563
 20
160.8427328472017
 30
0.0
 11
96.60455317965627
 21
160.8427328472017
 31
0.0
  0
LINE
  5
BE
330
2
100
AcDbEntity
  8
0
  6
Continuous
 62
     7
100
AcDbLine
 10
100.2045531796564
 20
161.8474033307405
 30
0.0
 11
100.2045531796564
 21
160.8427328472017
 31
0.0
  0
LINE
  5
BF
330
2
100
AcDbEntity
  8
0
  6
Continuous
 62
     7
100
AcDbLine
 10
96.60455317965627
 20
161.8474033307405
 30
0.0
 11
96.60455317965627
 21
160.8427328472017
 31
0.0
  0
LINE
  5
C0
330
2
100
AcDbEntity
  8
0
  6
Continuous
 62
     7
100
AcDbLine
 10
105.2045531796564
 20
158.6541212347815
 30
0.0
 11
101.6045531796563
 21
158.6541212347815
 31
0.0
  0
LINE
  5
C1
330
2
100
AcDbEntity
  8
0
  6
Continuous
 62
     7
100
AcDbLine
 10
105.2045531796564
 20
155.5763861548155
 30
0.0
 11
101.6045531796564
 21
155.5763861548155
 31
0.0
  0
LINE
  5
C2
330
2
100
AcDbEntity
  8
0
  6
Continuous
 62
     7
100
AcDbLine
 10
105.2045531796564
 20
158.6541212347815
 30
0.0
 11
105.2045531796564
 21
155.5763861548155
 31
0.0
  0
LINE
  5
C3
330
2
100
AcDbEntity
  8
0
  6
Continuous
 62
     7
100
AcDbLine
 10
101.6045531796563
 20
158.6541212347815
 30
0.0
 11
101.6045531796563
 21
155.5763861548155
 31
0.0
  0
LINE
  5
C4
330
2
100
AcDbEntity
  8
0
  6
Continuous
 62
     7
100
AcDbLine
 10
104.5172647707863
 20
160.8474033307407
 30
0.0
 11
105.2045531796564
 21
160.8474033307407
 31
0.0
  0
LINE
  5
C5
330
2
100
AcDbEntity
  8
0
  6
Continuous
 62
     7
100
AcDbLine
 10
105.2045531796564
 20
160.8427328472017
 30
0.0
 11
101.6045531796563
 21
160.8427328472017
 31
0.0
  0
LINE
  5
C6
330
2
100
AcDbEntity
  8
0
  6
Continuous
 62
     7
100
AcDbLine
 10
105.2045531796564
 20
161.8474033307405
 30
0.0
 11
105.2045531796564
 21
160.8427328472017
 31
0.0
  0
LINE
  5
C7
330
2
100
AcDbEntity
  8
0
  6
Continuous
 62
     7
100
AcDbLine
 10
101.6045531796562
 20
161.8474033307405
 30
0.0
 11
101.6045531796563
 21
160.8427328472017
 31
0.0
  0
LINE
  5
C8
330
2
100
AcDbEntity
  8
0
  6
Continuous
 62
     7
100
AcDbLine
 10
110.2045531796564
 20
158.6541212347815
 30
0.0
 11
106.6045531796563
 21
158.6541212347815
 31
0.0
  0
LINE
  5
C9
330
2
100
AcDbEntity
  8
0
  6
Continuous
 62
     7
100
AcDbLine
 10
110.2045531796564
 20
155.5763861548155
 30
0.0
 11
106.6045531796564
 21
155.5763861548155
 31
0.0
  0
LINE
  5
CA
330
2
100
AcDbEntity
  8
0
  6
Continuous
 62
     7
100
AcDbLine
 10
110.2045531796564
 20
158.6541212347815
 30
0.0
 11
110.2045531796564
 21
155.5763861548155
 31
0.0
  0
LINE
  5
CB
330
2
100
AcDbEntity
  8
0
  6
Continuous
 62
     7
100
AcDbLine
 10
106.6045531796563
 20
158.6541212347815
 30
0.0
 11
106.6045531796563
 21
155.5763861548155
 31
0.0
  0
LINE
  5
CC
330
2
100
AcDbEntity
  8
0
  6
Continuous
 62
     7
100
AcDbLine
 10
109.5172647707862
 20
160.8474033307407
 30
0.0
 11
110.2045531796564
 21
160.8474033307407
 31
0.0
  0
LINE
  5
CD
330
2
100
AcDbEntity
  8
0
  6
Continuous
 62
     7
100
AcDbLine
 10
110.2045531796564
 20
160.8427328472017
 30
0.0
 11
106.6045531796563
 21
160.8427328472017
 31
0.0
  0
LINE
  5
CE
330
2
100
AcDbEntity
  8
0
  6
Continuous
 62
     7
100
AcDbLine
 10
110.2045531796564
 20
161.8474033307405
 30
0.0
 11
110.2045531796564
 21
160.8427328472017
 31
0.0
  0
LINE
  5
CF
330
2
100
AcDbEntity
  8
0
  6
Continuous
 62
     7
100
AcDbLine
 10
106.6045531796562
 20
161.8474033307405
 30
0.0
 11
106.6045531796563
 21
160.8427328472017
 31
0.0
  0
LINE
  5
D0
330
2
100
AcDbEntity
  8
0
  6
Continuous
 62
     7
100
AcDbLine
 10
115.2045531796564
 20
158.6541212347815
 30
0.0
 11
111.6045531796563
 21
158.6541212347815
 31
0.0
  0
LINE
  5
D1
330
2
100
AcDbEntity
  8
0
  6
Continuous
 62
     7
100
AcDbLine
 10
115.2045531796564
 20
155.5763861548155
 30
0.0
 11
111.6045531796563
 21
155.5763861548155
 31
0.0
  0
LINE
  5
D2
330
2
100
AcDbEntity
  8
0
  6
Continuous
 62
     7
100
AcDbLine
 10
115.2045531796564
 20
158.6541212347815
 30
0.0
 11
115.2045531796564
 21
155.5763861548155
 31
0.0
  0
LINE
  5
D3
330
2
100
AcDbEntity
  8
0
  6
Continuous
 62
     7
100
AcDbLine
 10
111.6045531796563
 20
158.6541212347815
 30
0.0
 11
111.6045531796563
 21
155.5763861548155
 31
0.0
  0
LINE
  5
D4
330
2
100
AcDbEntity
  8
0
  6
Continuous
 62
     7
100
AcDbLine
 10
114.5172647707862
 20
160.8474033307407
 30
0.0
 11
115.2045531796564
 21
160.8474033307407
 31
0.0
  0
LINE
  5
D5
330
2
100
AcDbEntity
  8
0
  6
Continuous
 62
     7
100
AcDbLine
 10
115.2045531796564
 20
160.8427328472017
 30
0.0
 11
111.6045531796563
 21
160.8427328472017
 31
0.0
  0
LINE
  5
D6
330
2
100
AcDbEntity
  8
0
  6
Continuous
 62
     7
100
AcDbLine
 10
115.2045531796564
 20
161.8474033307405
 30
0.0
 11
115.2045531796564
 21
160.8427328472017
 31
0.0
  0
LINE
  5
D7
330
2
100
AcDbEntity
  8
0
  6
Continuous
 62
     7
100
AcDbLine
 10
111.6045531796563
 20
161.8474033307405
 30
0.0
 11
111.6045531796563
 21
160.8427328472017
 31
0.0
  0
LINE
  5
D8
330
2
100
AcDbEntity
  8
0
  6
Continuous
 62
     7
100
AcDbLine
 10
120.2045531796564
 20
158.6541212347815
 30
0.0
 11
116.6045531796563
 21
158.6541212347815
 31
0.0
  0
LINE
  5
D9
330
2
100
AcDbEntity
  8
0
  6
Continuous
 62
     7
100
AcDbLine
 10
120.2045531796564
 20
155.5763861548155
 30
0.0
 11
116.6045531796563
 21
155.5763861548155
 31
0.0
  0
LINE
  5
DA
330
2
100
AcDbEntity
  8
0
  6
Continuous
 62
     7
100
AcDbLine
 10
120.2045531796564
 20
158.6541212347815
 30
0.0
 11
120.2045531796564
 21
155.5763861548155
 31
0.0
  0
LINE
  5
DB
330
2
100
AcDbEntity
  8
0
  6
Continuous
 62
     7
100
AcDbLine
 10
116.6045531796563
 20
158.6541212347815
 30
0.0
 11
116.6045531796563
 21
155.5763861548155
 31
0.0
  0
LINE
  5
DC
330
2
100
AcDbEntity
  8
0
  6
Continuous
 62
     7
100
AcDbLine
 10
119.5172647707862
 20
160.8474033307407
 30
0.0
 11
120.2045531796564
 21
160.8474033307407
 31
0.0
  0
LINE
  5
DD
330
2
100
AcDbEntity
  8
0
  6
Continuous
 62
     7
100
AcDbLine
 10
120.2045531796564
 20
160.8427328472017
 30
0.0
 11
116.6045531796563
 21
160.8427328472017
 31
0.0
  0
LINE
  5
DE
330
2
100
AcDbEntity
  8
0
  6
Continuous
 62
     7
100
AcDbLine
 10
120.2045531796564
 20
161.8474033307405
 30
0.0
 11
120.2045531796564
 21
160.8427328472017
 31
0.0
  0
LINE
  5
DF
330
2
100
AcDbEntity
  8
0
  6
Continuous
 62
     7
100
AcDbLine
 10
116.6045531796563
 20
161.8474033307405
 30
0.0
 11
116.6045531796563
 21
160.8427328472017
 31
0.0
  0
LINE
  5
E0
330
2
100
AcDbEntity
  8
0
  6
Continuous
 62
     7
100
AcDbLine
 10
125.2045531796564
 20
158.6541212347815
 30
0.0
 11
121.6045531796563
 21
158.6541212347815
 31
0.0
  0
LINE
  5
E1
330
2
100
AcDbEntity
  8
0
  6
Continuous
 62
     7
100
AcDbLine
 10
125.2045531796564
 20
155.5763861548155
 30
0.0
 11
121.6045531796563
 21
155.5763861548155
 31
0.0
  0
LINE
  5
E2
330
2
100
AcDbEntity
  8
0
  6
Continuous
 62
     7
100
AcDbLine
 10
125.2045531796564
 20
158.6541212347815
 30
0.0
 11
125.2045531796564
 21
155.5763861548155
 31
0.0
  0
LINE
  5
E3
330
2
100
AcDbEntity
  8
0
  6
Continuous
 62
     7
100
AcDbLine
 10
121.6045531796563
 20
158.6541212347815
 30
0.0
 11
121.6045531796563
 21
155.5763861548155
 31
0.0
  0
LINE
  5
E4
330
2
100
AcDbEntity
  8
0
  6
Continuous
 62
     7
100
AcDbLine
 10
124.5172647707862
 20
160.8474033307407
 30
0.0
 11
125.2045531796564
 21
160.8474033307407
 31
0.0
  0
LINE
  5
E5
330
2
100
AcDbEntity
  8
0
  6
Continuous
 62
     7
100
AcDbLine
 10
125.2045531796564
 20
160.8427328472017
 30
0.0
 11
121.6045531796563
 21
160.8427328472017
 31
0.0
  0
LINE
  5
E6
330
2
100
AcDbEntity
  8
0
  6
Continuous
 62
     7
100
AcDbLine
 10
125.2045531796564
 20
161.8474033307405
 30
0.0
 11
125.2045531796564
 21
160.8427328472017
 31
0.0
  0
LINE
  5
E7
330
2
100
AcDbEntity
  8
0
  6
Continuous
 62
     7
100
AcDbLine
 10
121.6045531796563
 20
161.8474033307405
 30
0.0
 11
121.6045531796563
 21
160.8427328472017
 31
0.0
  0
LINE
  5
E8
330
2
100
AcDbEntity
  8
0
  6
Continuous
 62
     7
100
AcDbLine
 10
130.2045531796564
 20
158.6541212347815
 30
0.0
 11
126.6045531796563
 21
158.6541212347815
 31
0.0
  0
LINE
  5
E9
330
2
100
AcDbEntity
  8
0
  6
Continuous
 62
     7
100
AcDbLine
 10
130.2045531796564
 20
155.5763861548155
 30
0.0
 11
126.6045531796563
 21
155.5763861548155
 31
0.0
  0
LINE
  5
EA
330
2
100
AcDbEntity
  8
0
  6
Continuous
 62
     7
100
AcDbLine
 10
130.2045531796564
 20
158.6541212347815
 30
0.0
 11
130.2045531796564
 21
155.5763861548155
 31
0.0
  0
LINE
  5
EB
330
2
100
AcDbEntity
  8
0
  6
Continuous
 62
     7
100
AcDbLine
 10
126.6045531796563
 20
158.6541212347815
 30
0.0
 11
126.6045531796563
 21
155.5763861548155
 31
0.0
  0
LINE
  5
EC
330
2
100
AcDbEntity
  8
0
  6
Continuous
 62
     7
100
AcDbLine
 10
129.5172647707862
 20
160.8474033307407
 30
0.0
 11
130.2045531796564
 21
160.8474033307407
 31
0.0
  0
LINE
  5
ED
330
2
100
AcDbEntity
  8
0
  6
Continuous
 62
     7
100
AcDbLine
 10
130.2045531796564
 20
160.8427328472017
 30
0.0
 11
126.6045531796563
 21
160.8427328472017
 31
0.0
  0
LINE
  5
EE
330
2
100
AcDbEntity
  8
0
  6
Continuous
 62
     7
100
AcDbLine
 10
130.2045531796564
 20
161.8474033307405
 30
0.0
 11
130.2045531796564
 21
160.8427328472017
 31
0.0
  0
LINE
  5
EF
330
2
100
AcDbEntity
  8
0
  6
Continuous
 62
     7
100
AcDbLine
 10
126.6045531796563
 20
161.8474033307405
 30
0.0
 11
126.6045531796563
 21
160.8427328472017
 31
0.0
  0
LINE
  5
F0
330
2
100
AcDbEntity
  8
0
  6
Continuous
 62
     7
100
AcDbLine
 10
135.2045531796564
 20
158.6541212347815
 30
0.0
 11
131.6045531796563
 21
158.6541212347815
 31
0.0
  0
LINE
  5
F1
330
2
100
AcDbEntity
  8
0
  6
Continuous
 62
     7
100
AcDbLine
 10
135.2045531796564
 20
155.5763861548155
 30
0.0
 11
131.6045531796563
 21
155.5763861548155
 31
0.0
  0
LINE
  5
F2
330
2
100
AcDbEntity
  8
0
  6
Continuous
 62
     7
100
AcDbLine
 10
135.2045531796564
 20
158.6541212347815
 30
0.0
 11
135.2045531796564
 21
155.5763861548155
 31
0.0
  0
LINE
  5
F3
330
2
100
AcDbEntity
  8
0
  6
Continuous
 62
     7
100
AcDbLine
 10
131.6045531796563
 20
158.6541212347815
 30
0.0
 11
131.6045531796563
 21
155.5763861548155
 31
0.0
  0
LINE
  5
F4
330
2
100
AcDbEntity
  8
0
  6
Continuous
 62
     7
100
AcDbLine
 10
134.5172647707862
 20
160.8474033307407
 30
0.0
 11
135.2045531796564
 21
160.8474033307407
 31
0.0
  0
LINE
  5
F5
330
2
100
AcDbEntity
  8
0
  6
Continuous
 62
     7
100
AcDbLine
 10
135.2045531796564
 20
160.8427328472017
 30
0.0
 11
131.6045531796563
 21
160.8427328472017
 31
0.0
  0
LINE
  5
F6
330
2
100
AcDbEntity
  8
0
  6
Continuous
 62
     7
100
AcDbLine
 10
135.2045531796564
 20
161.8474033307405
 30
0.0
 11
135.2045531796564
 21
160.8427328472017
 31
0.0
  0
LINE
  5
F7
330
2
100
AcDbEntity
  8
0
  6
Continuous
 62
     7
100
AcDbLine
 10
131.6045531796563
 20
161.8474033307405
 30
0.0
 11
131.6045531796563
 21
160.8427328472017
 31
0.0
  0
LINE
  5
F8
330
2
100
AcDbEntity
  8
0
  6
Continuous
 62
     7
100
AcDbLine
 10
136.6045531796563
 20
158.6541212347815
 30
0.0
 11
136.6045531796563
 21
155.5763861548155
 31
0.0
  0
LINE
  5
F9
330
2
100
AcDbEntity
  8
0
  6
Continuous
 62
     7
100
AcDbLine
 10
140.2045531796564
 20
158.6541212347815
 30
0.0
 11
140.2045531796564
 21
155.5763861548155
 31
0.0
  0
LINE
  5
FA
330
2
100
AcDbEntity
  8
0
  6
Continuous
 62
     7
100
AcDbLine
 10
136.6045531796563
 20
161.8474033307405
 30
0.0
 11
136.6045531796563
 21
160.8427328472017
 31
0.0
  0
LINE
  5
FB
330
2
100
AcDbEntity
  8
0
  6
Continuous
 62
     7
100
AcDbLine
 10
140.2045531796564
 20
161.8474033307405
 30
0.0
 11
140.2045531796564
 21
160.8427328472017
 31
0.0
  0
LINE
  5
FC
330
2
100
AcDbEntity
  8
0
  6
Continuous
 62
     7
100
AcDbLine
 10
140.2045531796564
 20
155.5763861548155
 30
0.0
 11
136.6045531796563
 21
155.5763861548155
 31
0.0
  0
LINE
  5
FD
330
2
100
AcDbEntity
  8
0
  6
Continuous
 62
     7
100
AcDbLine
 10
140.2045531796564
 20
158.6541212347815
 30
0.0
 11
136.6045531796563
 21
158.6541212347815
 31
0.0
  0
LINE
  5
FE
330
2
100
AcDbEntity
  8
0
  6
Continuous
 62
     7
100
AcDbLine
 10
140.2045531796564
 20
160.8427328472017
 30
0.0
 11
136.6045531796563
 21
160.8427328472017
 31
0.0
  0
LINE
  5
FF
330
2
100
AcDbEntity
  8
0
  6
Continuous
 62
     7
100
AcDbLine
 10
275.0627360161685
 20
158.4945349713759
 30
0.0
 11
272.3269715006432
 21
155.5763861548155
 31
0.0
  0
LINE
  5
100
330
2
100
AcDbEntity
  8
0
  6
Continuous
 62
     7
100
AcDbLine
 10
271.7798185975382
 20
161.5722700513418
 30
0.0
 11
269.0440540820128
 21
158.6541212347815
 31
0.0
  0
LINE
  5
101
330
2
100
AcDbEntity
  8
0
  6
Continuous
 62
     7
100
AcDbLine
 10
269.44529954429
 20
163.7608816637621
 30
0.0
 11
266.7095350287646
 21
160.8427328472018
 31
0.0
  0
LINE
  5
102
330
2
100
AcDbEntity
  8
0
  6
Continuous
 62
     7
100
AcDbLine
 10
267.8403176951817
 20
165.265552147301
 30
0.0
 11
265.1045531796564
 21
162.3474033307407
 31
0.0
  0
LINE
  5
103
330
2
100
AcDbEntity
  8
0
  6
Continuous
 62
     7
100
AcDbLine
 10
254.6045531796564
 20
165.3474033307406
 30
0.0
 11
261.4045531796564
 21
165.3474033307406
 31
0.0
  0
LINE
  5
104
330
2
100
AcDbEntity
  8
0
  6
Continuous
 62
     7
100
AcDbLine
 10
254.6045531796564
 20
165.3474033307406
 30
0.0
 11
254.6045531796564
 21
169.8474033307405
 31
0.0
  0
LINE
  5
105
330
2
100
AcDbEntity
  8
0
  6
Continuous
 62
     7
100
AcDbLine
 10
254.2045531796564
 20
168.8474033307405
 30
0.0
 11
254.6045531796564
 21
168.8474033307405
 31
0.0
  0
LINE
  5
106
330
2
100
AcDbEntity
  8
0
  6
Continuous
 62
     7
100
AcDbLine
 10
254.2045531796564
 20
165.7474033307406
 30
0.0
 11
254.6045531796564
 21
165.3474033307406
 31
0.0
  0
LINE
  5
107
330
2
100
AcDbEntity
  8
0
  6
Continuous
 62
     7
100
AcDbLine
 10
254.2045531796564
 20
165.7474033307406
 30
0.0
 11
254.2045531796564
 21
168.8474033307405
 31
0.0
  0
LINE
  5
108
330
2
100
AcDbEntity
  8
0
  6
Continuous
 62
     7
100
AcDbLine
 10
254.2045531796564
 20
169.8474033307405
 30
0.0
 11
254.2045531796564
 21
170.3474033307407
 31
0.0
  0
LINE
  5
109
330
2
100
AcDbEntity
  8
0
  6
Continuous
 62
     7
100
AcDbLine
 10
254.2045531796564
 20
169.8474033307405
 30
0.0
 11
254.6045531796564
 21
169.8474033307405
 31
0.0
  0
LINE
  5
10A
330
2
100
AcDbEntity
  8
0
  6
Continuous
 62
     7
100
AcDbLine
 10
261.8045531796564
 20
165.3474033307406
 30
0.0
 11
261.8045531796564
 21
169.8474033307405
 31
0.0
  0
LINE
  5
10B
330
2
100
AcDbEntity
  8
0
  6
Continuous
 62
     7
100
AcDbLine
 10
261.8045531796564
 20
168.8474033307405
 30
0.0
 11
262.2045531796564
 21
168.8474033307405
 31
0.0
  0
LINE
  5
10C
330
2
100
AcDbEntity
  8
0
  6
Continuous
 62
     7
100
AcDbLine
 10
261.8045531796564
 20
165.3474033307406
 30
0.0
 11
262.2045531796564
 21
165.7474033307406
 31
0.0
  0
LINE
  5
10D
330
2
100
AcDbEntity
  8
0
  6
Continuous
 62
     7
100
AcDbLine
 10
262.2045531796564
 20
165.7474033307406
 30
0.0
 11
262.2045531796564
 21
168.8474033307405
 31
0.0
  0
LINE
  5
10E
330
2
100
AcDbEntity
  8
0
  6
Continuous
 62
     7
100
AcDbLine
 10
261.8045531796564
 20
169.8474033307405
 30
0.0
 11
262.2045531796564
 21
169.8474033307405
 31
0.0
  0
LINE
  5
10F
330
2
100
AcDbEntity
  8
0
  6
Continuous
 62
     7
100
AcDbLine
 10
262.2045531796564
 20
169.8474033307405
 30
0.0
 11
262.2045531796564
 21
170.3474033307407
 31
0.0
  0
LINE
  5
110
330
2
100
AcDbEntity
  8
0
  6
CENTER
 62
     4
100
AcDbLine
 10
258.2045531796563
 20
173.7885086311476
 30
0.0
 11
258.2045531796564
 21
161.7885086311477
 31
0.0
  0
LINE
  5
112
330
2
100
AcDbEntity
  8
0
  6
CENTER
 62
     4
100
AcDbLine
 10
158.7045531796564
 20
173.7885086311477
 30
0.0
 11
158.7045531796564
 21
161.7885086311477
 31
0.0
  0
LINE
  5
113
330
2
100
AcDbEntity
  8
0
  6
Continuous
 62
     7
100
AcDbLine
 10
162.7045531796564
 20
169.8474033307407
 30
0.0
 11
162.7045531796564
 21
170.3474033307406
 31
0.0
  0
LINE
  5
114
330
2
100
AcDbEntity
  8
0
  6
Continuous
 62
     7
100
AcDbLine
 10
162.3045531796564
 20
169.8474033307407
 30
0.0
 11
162.7045531796564
 21
169.8474033307407
 31
0.0
  0
LINE
  5
115
330
2
100
AcDbEntity
  8
0
  6
Continuous
 62
     7
100
AcDbLine
 10
162.7045531796564
 20
165.7474033307408
 30
0.0
 11
162.7045531796564
 21
168.8474033307407
 31
0.0
  0
LINE
  5
116
330
2
100
AcDbEntity
  8
0
  6
Continuous
 62
     7
100
AcDbLine
 10
162.3045531796564
 20
165.3474033307407
 30
0.0
 11
162.7045531796564
 21
165.7474033307408
 31
0.0
  0
LINE
  5
117
330
2
100
AcDbEntity
  8
0
  6
Continuous
 62
     7
100
AcDbLine
 10
162.3045531796564
 20
168.8474033307407
 30
0.0
 11
162.7045531796564
 21
168.8474033307407
 31
0.0
  0
LINE
  5
118
330
2
100
AcDbEntity
  8
0
  6
Continuous
 62
     7
100
AcDbLine
 10
162.3045531796564
 20
165.3474033307407
 30
0.0
 11
162.3045531796564
 21
168.8474033307407
 31
0.0
  0
LINE
  5
119
330
2
100
AcDbEntity
  8
0
  6
Continuous
 62
     7
100
AcDbLine
 10
154.7045531796564
 20
169.8474033307407
 30
0.0
 11
162.7045531796564
 21
169.8474033307407
 31
0.0
  0
LINE
  5
11A
330
2
100
AcDbEntity
  8
0
  6
Continuous
 62
     7
100
AcDbLine
 10
154.7045531796564
 20
169.8474033307407
 30
0.0
 11
154.7045531796564
 21
170.3474033307406
 31
0.0
  0
LINE
  5
11B
330
2
100
AcDbEntity
  8
0
  6
Continuous
 62
     7
100
AcDbLine
 10
154.7045531796564
 20
165.7474033307408
 30
0.0
 11
154.7045531796564
 21
168.8474033307407
 31
0.0
  0
LINE
  5
11C
330
2
100
AcDbEntity
  8
0
  6
Continuous
 62
     7
100
AcDbLine
 10
154.7045531796564
 20
165.7474033307408
 30
0.0
 11
155.1045531796563
 21
165.3474033307407
 31
0.0
  0
LINE
  5
11D
330
2
100
AcDbEntity
  8
0
  6
Continuous
 62
     7
100
AcDbLine
 10
154.7045531796564
 20
168.8474033307407
 30
0.0
 11
162.7045531796564
 21
168.8474033307407
 31
0.0
  0
LINE
  5
11E
330
2
100
AcDbEntity
  8
0
  6
Continuous
 62
     7
100
AcDbLine
 10
155.1045531796563
 20
165.3474033307407
 30
0.0
 11
155.1045531796563
 21
168.8474033307407
 31
0.0
  0
LINE
  5
11F
330
2
100
AcDbEntity
  8
0
  6
Continuous
 62
     7
100
AcDbLine
 10
155.1045531796563
 20
165.3474033307407
 30
0.0
 11
162.3045531796564
 21
165.3474033307407
 31
0.0
  0
LINE
  5
120
330
2
100
AcDbEntity
  8
0
  6
Continuous
 62
     7
100
AcDbLine
 10
88.20455317965636
 20
64.34740333074069
 30
0.0
 11
176.2045531796564
 21
64.34740333074069
 31
0.0
  0
LINE
  5
121
330
2
100
AcDbEntity
  8
0
  6
Continuous
 62
     7
100
AcDbLine
 10
175.7045531796564
 20
170.3474033307407
 30
0.0
 11
88.70455317965639
 21
170.3474033307407
 31
0.0
  0
LINE
  5
122
330
2
100
AcDbEntity
  8
0
  6
Continuous
 62
     7
100
AcDbLine
 10
275.2045531796564
 20
170.3474033307407
 30
0.0
 11
275.2045531796564
 21
151.3474033307407
 31
0.0
  0
LINE
  5
123
330
2
100
AcDbEntity
  8
0
  6
CENTER
 62
     4
100
AcDbLine
 10
147.4306815069385
 20
81.34740333074068
 30
0.0
 11
169.4306815069385
 21
81.34740333074068
 31
0.0
  0
LINE
  5
124
330
2
100
AcDbEntity
  8
0
  6
CENTER
 62
     4
100
AcDbLine
 10
158.7045531796564
 20
92.34895923981941
 30
0.0
 11
158.7045531796564
 21
70.1885086311477
 31
0.0
  0
CIRCLE
  5
125
330
2
100
AcDbEntity
  8
0
  6
Continuous
 62
     7
100
AcDbCircle
 10
158.7045531796564
 20
81.34740333074068
 30
0.0
 40
4.0
  0
CIRCLE
  5
126
330
2
100
AcDbEntity
  8
0
  6
Continuous
 62
     7
100
AcDbCircle
 10
158.7045531796564
 20
81.34740333074068
 30
0.0
 40
3.625
  0
LINE
  5
127
330
2
100
AcDbEntity
  8
0
  6
Continuous
 62
     7
100
AcDbLine
 10
273.1045531796564
 20
154.8474033307407
 30
0.0
 11
275.2045531796564
 21
155.4774033307407
 31
0.0
  0
LINE
  5
128
330
2
100
AcDbEntity
  8
0
  6
Continuous
 62
     7
100
AcDbLine
 10
273.1045531796564
 20
154.8474033307407
 30
0.0
 11
265.1045531796564
 21
162.3474033307407
 31
0.0
  0
LINE
  5
129
330
2
100
AcDbEntity
  8
0
  6
Continuous
 62
     7
100
AcDbLine
 10
265.1045531796564
 20
163.8474033307407
 30
0.0
 11
265.1045531796564
 21
162.3474033307407
 31
0.0
  0
LINE
  5
12A
330
2
100
AcDbEntity
  8
0
  6
Continuous
 62
     7
100
AcDbLine
 10
270.1045531796564
 20
168.8474033307407
 30
0.0
 11
265.1045531796564
 21
163.8474033307407
 31
0.0
  0
LINE
  5
12B
330
2
100
AcDbEntity
  8
0
  6
Continuous
 62
     7
100
AcDbLine
 10
270.1045531796564
 20
168.8474033307407
 30
0.0
 11
275.2045531796564
 21
168.8474033307407
 31
0.0
  0
LINE
  5
12C
330
2
100
AcDbEntity
  8
0
  6
Continuous
 62
     7
100
AcDbLine
 10
140.9045531796563
 20
65.8474033307407
 30
0.0
 11
141.5045531796564
 21
65.8474033307407
 31
0.0
  0
LINE
  5
12D
330
2
100
AcDbEntity
  8
0
  6
Continuous
 62
     7
100
AcDbLine
 10
141.5045531796564
 20
65.84740333074072
 30
0.0
 11
141.5045531796564
 21
64.34740333074069
 31
0.0
  0
LINE
  5
12E
330
2
100
AcDbEntity
  8
0
  6
Continuous
 62
     7
100
AcDbLine
 10
89.20455317965638
 20
69.14740333074068
 30
0.0
 11
89.90455317965638
 21
69.14740333074068
 31
0.0
  0
LINE
  5
12F
330
2
100
AcDbEntity
  8
0
  6
Continuous
 62
     7
100
AcDbLine
 10
89.20455317965638
 20
70.74740333074069
 30
0.0
 11
89.90455317965638
 21
70.74740333074069
 31
0.0
  0
LINE
  5
130
330
2
100
AcDbEntity
  8
0
  6
Continuous
 62
     7
100
AcDbLine
 10
89.20455317965631
 20
65.04740333074066
 30
0.0
 11
89.90455317965638
 21
65.04740333074066
 31
0.0
  0
LINE
  5
131
330
2
100
AcDbEntity
  8
0
  6
Continuous
 62
     7
100
AcDbLine
 10
135.9045531796564
 20
64.34740333074069
 30
0.0
 11
135.9045531796563
 21
74.44740333074069
 31
0.0
  0
LINE
  5
132
330
2
100
AcDbEntity
  8
0
  6
Continuous
 62
     7
100
AcDbLine
 10
140.9045531796564
 20
64.34740333074069
 30
0.0
 11
140.9045531796563
 21
74.44740333074069
 31
0.0
  0
LINE
  5
133
330
2
100
AcDbEntity
  8
0
  6
Continuous
 62
     7
100
AcDbLine
 10
135.9045531796563
 20
74.44740333074069
 30
0.0
 11
140.9045531796563
 21
74.44740333074069
 31
0.0
  0
LINE
  5
134
330
2
100
AcDbEntity
  8
0
  6
Continuous
 62
     7
100
AcDbLine
 10
135.9045531796563
 20
66.44740333074068
 30
0.0
 11
140.9045531796563
 21
66.44740333074068
 31
0.0
  0
LINE
  5
135
330
2
100
AcDbEntity
  8
0
  6
Continuous
 62
     7
100
AcDbLine
 10
130.9045531796564
 20
64.34740333074069
 30
0.0
 11
130.9045531796563
 21
74.44740333074069
 31
0.0
  0
LINE
  5
136
330
2
100
AcDbEntity
  8
0
  6
Continuous
 62
     7
100
AcDbLine
 10
135.9045531796564
 20
64.34740333074069
 30
0.0
 11
135.9045531796563
 21
74.44740333074069
 31
0.0
  0
LINE
  5
137
330
2
100
AcDbEntity
  8
0
  6
Continuous
 62
     7
100
AcDbLine
 10
130.9045531796563
 20
74.44740333074069
 30
0.0
 11
135.9045531796563
 21
74.44740333074069
 31
0.0
  0
LINE
  5
138
330
2
100
AcDbEntity
  8
0
  6
Continuous
 62
     7
100
AcDbLine
 10
130.9045531796563
 20
66.44740333074068
 30
0.0
 11
135.9045531796563
 21
66.44740333074068
 31
0.0
  0
LINE
  5
139
330
2
100
AcDbEntity
  8
0
  6
Continuous
 62
     7
100
AcDbLine
 10
125.9045531796564
 20
64.34740333074069
 30
0.0
 11
125.9045531796564
 21
74.44740333074069
 31
0.0
  0
LINE
  5
13A
330
2
100
AcDbEntity
  8
0
  6
Continuous
 62
     7
100
AcDbLine
 10
130.9045531796564
 20
64.34740333074069
 30
0.0
 11
130.9045531796563
 21
74.44740333074069
 31
0.0
  0
LINE
  5
13B
330
2
100
AcDbEntity
  8
0
  6
Continuous
 62
     7
100
AcDbLine
 10
125.9045531796564
 20
74.44740333074069
 30
0.0
 11
130.9045531796563
 21
74.44740333074069
 31
0.0
  0
LINE
  5
13C
330
2
100
AcDbEntity
  8
0
  6
Continuous
 62
     7
100
AcDbLine
 10
125.9045531796564
 20
66.44740333074068
 30
0.0
 11
130.9045531796563
 21
66.44740333074068
 31
0.0
  0
LINE
  5
13D
330
2
100
AcDbEntity
  8
0
  6
Continuous
 62
     7
100
AcDbLine
 10
120.9045531796564
 20
64.34740333074069
 30
0.0
 11
120.9045531796564
 21
74.44740333074069
 31
0.0
  0
LINE
  5
13E
330
2
100
AcDbEntity
  8
0
  6
Continuous
 62
     7
100
AcDbLine
 10
125.9045531796564
 20
64.34740333074069
 30
0.0
 11
125.9045531796564
 21
74.44740333074069
 31
0.0
  0
LINE
  5
13F
330
2
100
AcDbEntity
  8
0
  6
Continuous
 62
     7
100
AcDbLine
 10
120.9045531796564
 20
74.44740333074069
 30
0.0
 11
125.9045531796564
 21
74.44740333074069
 31
0.0
  0
LINE
  5
140
330
2
100
AcDbEntity
  8
0
  6
Continuous
 62
     7
100
AcDbLine
 10
120.9045531796564
 20
66.44740333074068
 30
0.0
 11
125.9045531796564
 21
66.44740333074068
 31
0.0
  0
LINE
  5
141
330
2
100
AcDbEntity
  8
0
  6
Continuous
 62
     7
100
AcDbLine
 10
115.9045531796564
 20
64.34740333074069
 30
0.0
 11
115.9045531796563
 21
74.44740333074069
 31
0.0
  0
LINE
  5
142
330
2
100
AcDbEntity
  8
0
  6
Continuous
 62
     7
100
AcDbLine
 10
120.9045531796564
 20
64.34740333074069
 30
0.0
 11
120.9045531796564
 21
74.44740333074069
 31
0.0
  0
LINE
  5
143
330
2
100
AcDbEntity
  8
0
  6
Continuous
 62
     7
100
AcDbLine
 10
115.9045531796563
 20
74.44740333074069
 30
0.0
 11
120.9045531796564
 21
74.44740333074069
 31
0.0
  0
LINE
  5
144
330
2
100
AcDbEntity
  8
0
  6
Continuous
 62
     7
100
AcDbLine
 10
115.9045531796563
 20
66.44740333074068
 30
0.0
 11
120.9045531796564
 21
66.44740333074068
 31
0.0
  0
LINE
  5
145
330
2
100
AcDbEntity
  8
0
  6
Continuous
 62
     7
100
AcDbLine
 10
110.9045531796564
 20
64.34740333074069
 30
0.0
 11
110.9045531796563
 21
74.44740333074069
 31
0.0
  0
LINE
  5
146
330
2
100
AcDbEntity
  8
0
  6
Continuous
 62
     7
100
AcDbLine
 10
115.9045531796564
 20
64.34740333074069
 30
0.0
 11
115.9045531796563
 21
74.44740333074069
 31
0.0
  0
LINE
  5
147
330
2
100
AcDbEntity
  8
0
  6
Continuous
 62
     7
100
AcDbLine
 10
110.9045531796563
 20
74.44740333074069
 30
0.0
 11
115.9045531796563
 21
74.44740333074069
 31
0.0
  0
LINE
  5
148
330
2
100
AcDbEntity
  8
0
  6
Continuous
 62
     7
100
AcDbLine
 10
110.9045531796563
 20
66.44740333074068
 30
0.0
 11
115.9045531796563
 21
66.44740333074068
 31
0.0
  0
LINE
  5
149
330
2
100
AcDbEntity
  8
0
  6
Continuous
 62
     7
100
AcDbLine
 10
105.9045531796563
 20
64.34740333074069
 30
0.0
 11
105.9045531796563
 21
74.44740333074069
 31
0.0
  0
LINE
  5
14A
330
2
100
AcDbEntity
  8
0
  6
Continuous
 62
     7
100
AcDbLine
 10
110.9045531796564
 20
64.34740333074069
 30
0.0
 11
110.9045531796563
 21
74.44740333074069
 31
0.0
  0
LINE
  5
14B
330
2
100
AcDbEntity
  8
0
  6
Continuous
 62
     7
100
AcDbLine
 10
105.9045531796563
 20
74.44740333074069
 30
0.0
 11
110.9045531796563
 21
74.44740333074069
 31
0.0
  0
LINE
  5
14C
330
2
100
AcDbEntity
  8
0
  6
Continuous
 62
     7
100
AcDbLine
 10
105.9045531796563
 20
66.44740333074068
 30
0.0
 11
110.9045531796563
 21
66.44740333074068
 31
0.0
  0
LINE
  5
14D
330
2
100
AcDbEntity
  8
0
  6
Continuous
 62
     7
100
AcDbLine
 10
100.9045531796564
 20
64.34740333074069
 30
0.0
 11
100.9045531796564
 21
74.44740333074069
 31
0.0
  0
LINE
  5
14E
330
2
100
AcDbEntity
  8
0
  6
Continuous
 62
     7
100
AcDbLine
 10
105.9045531796563
 20
64.34740333074069
 30
0.0
 11
105.9045531796563
 21
74.44740333074069
 31
0.0
  0
LINE
  5
14F
330
2
100
AcDbEntity
  8
0
  6
Continuous
 62
     7
100
AcDbLine
 10
100.9045531796564
 20
74.44740333074069
 30
0.0
 11
105.9045531796563
 21
74.44740333074069
 31
0.0
  0
LINE
  5
150
330
2
100
AcDbEntity
  8
0
  6
Continuous
 62
     7
100
AcDbLine
 10
100.9045531796564
 20
66.44740333074068
 30
0.0
 11
105.9045531796563
 21
66.44740333074068
 31
0.0
  0
LINE
  5
151
330
2
100
AcDbEntity
  8
0
  6
Continuous
 62
     7
100
AcDbLine
 10
95.90455317965638
 20
64.34740333074069
 30
0.0
 11
95.90455317965638
 21
74.44740333074069
 31
0.0
  0
LINE
  5
152
330
2
100
AcDbEntity
  8
0
  6
Continuous
 62
     7
100
AcDbLine
 10
100.9045531796564
 20
64.34740333074069
 30
0.0
 11
100.9045531796564
 21
74.44740333074069
 31
0.0
  0
LINE
  5
153
330
2
100
AcDbEntity
  8
0
  6
Continuous
 62
     7
100
AcDbLine
 10
95.90455317965638
 20
74.44740333074069
 30
0.0
 11
100.9045531796564
 21
74.44740333074069
 31
0.0
  0
LINE
  5
154
330
2
100
AcDbEntity
  8
0
  6
Continuous
 62
     7
100
AcDbLine
 10
95.90455317965638
 20
66.44740333074068
 30
0.0
 11
100.9045531796564
 21
66.44740333074068
 31
0.0
  0
LINE
  5
155
330
2
100
AcDbEntity
  8
0
  6
Continuous
 62
     7
100
AcDbLine
 10
89.90455317965638
 20
74.44740333074069
 30
0.0
 11
90.90455317965638
 21
74.44740333074069
 31
0.0
  0
LINE
  5
156
330
2
100
AcDbEntity
  8
0
  6
Continuous
 62
     7
100
AcDbLine
 10
90.90455317965638
 20
66.44740333074068
 30
0.0
 11
95.90455317965638
 21
66.44740333074068
 31
0.0
  0
LINE
  5
157
330
2
100
AcDbEntity
  8
0
  6
Continuous
 62
     7
100
AcDbLine
 10
90.90455317965638
 20
66.44740333074068
 30
0.0
 11
89.90455317965638
 21
66.44740333074068
 31
0.0
  0
LINE
  5
158
330
2
100
AcDbEntity
  8
0
  6
Continuous
 62
     7
100
AcDbLine
 10
90.90455317965638
 20
74.44740333074069
 30
0.0
 11
95.90455317965638
 21
74.44740333074069
 31
0.0
  0
LINE
  5
159
330
2
100
AcDbEntity
  8
0
  6
Continuous
 62
     7
100
AcDbLine
 10
95.90455317965638
 20
64.34740333074069
 30
0.0
 11
95.90455317965638
 21
74.44740333074069
 31
0.0
  0
LINE
  5
15A
330
2
100
AcDbEntity
  8
0
  6
Continuous
 62
     7
100
AcDbLine
 10
90.90455317965638
 20
64.34740333074069
 30
0.0
 11
90.90455317965638
 21
74.44740333074069
 31
0.0
  0
LINE
  5
15B
330
2
100
AcDbEntity
  8
0
  6
Continuous
 62
     7
100
AcDbLine
 10
89.90455317965638
 20
64.34740333074069
 30
0.0
 11
89.90455317965638
 21
74.44740333074069
 31
0.0
  0
LINE
  5
15C
330
2
100
AcDbEntity
  8
0
  6
Continuous
 62
     7
100
AcDbLine
 10
140.9045531796563
 20
159.3474033307406
 30
0.0
 11
141.5045531796563
 21
159.3474033307407
 31
0.0
  0
LINE
  5
15D
330
2
100
AcDbEntity
  8
0
  6
Continuous
 62
     7
100
AcDbLine
 10
139.5172647707862
 20
160.8474033307407
 30
0.0
 11
140.2045531796564
 21
160.8474033307407
 31
0.0
  0
LINE
  5
15E
330
2
100
AcDbEntity
  8
0
  6
Continuous
 62
     7
100
AcDbLine
 10
89.20455317965638
 20
155.7474033307406
 30
0.0
 11
89.90455317965635
 21
155.7474033307405
 31
0.0
  0
LINE
  5
15F
330
2
100
AcDbEntity
  8
0
  6
Continuous
 62
     7
100
AcDbLine
 10
89.20455317965638
 20
156.9474033307407
 30
0.0
 11
89.90455317965635
 21
156.9474033307406
 31
0.0
  0
LINE
  5
160
330
2
100
AcDbEntity
  8
0
  6
Continuous
 62
     7
100
AcDbLine
 10
89.20455317965638
 20
156.9474033307407
 30
0.0
 11
89.20455317965638
 21
155.7474033307405
 31
0.0
  0
LINE
  5
161
330
2
100
AcDbEntity
  8
0
  6
Continuous
 62
     7
100
AcDbLine
 10
89.20455317965638
 20
161.1474033307406
 30
0.0
 11
89.20455317965638
 21
159.5474033307407
 31
0.0
  0
LINE
  5
162
330
2
100
AcDbEntity
  8
0
  6
Continuous
 62
     7
100
AcDbLine
 10
89.20455317965638
 20
159.5474033307407
 30
0.0
 11
89.90455317965635
 21
159.5474033307407
 31
0.0
  0
LINE
  5
163
330
2
100
AcDbEntity
  8
0
  6
Continuous
 62
     7
100
AcDbLine
 10
89.20455317965638
 20
161.1474033307406
 30
0.0
 11
89.90455317965635
 21
161.1474033307406
 31
0.0
  0
LINE
  5
164
330
2
100
AcDbEntity
  8
0
  6
Continuous
 62
     7
100
AcDbLine
 10
141.5045531796563
 20
161.8474033307407
 30
0.0
 11
141.5045531796563
 21
159.3474033307407
 31
0.0
  0
LINE
  5
165
330
2
100
AcDbEntity
  8
0
  6
Continuous
 62
     7
100
AcDbLine
 10
135.9045531796563
 20
154.8474033307407
 30
0.0
 11
140.9045531796563
 21
154.8474033307407
 31
0.0
  0
LINE
  5
166
330
2
100
AcDbEntity
  8
0
  6
Continuous
 62
     7
100
AcDbLine
 10
130.9045531796563
 20
154.8474033307407
 30
0.0
 11
135.9045531796563
 21
154.8474033307407
 31
0.0
  0
LINE
  5
167
330
2
100
AcDbEntity
  8
0
  6
Continuous
 62
     7
100
AcDbLine
 10
125.9045531796564
 20
154.8474033307407
 30
0.0
 11
130.9045531796563
 21
154.8474033307407
 31
0.0
  0
LINE
  5
168
330
2
100
AcDbEntity
  8
0
  6
Continuous
 62
     7
100
AcDbLine
 10
120.9045531796564
 20
154.8474033307407
 30
0.0
 11
125.9045531796564
 21
154.8474033307407
 31
0.0
  0
LINE
  5
169
330
2
100
AcDbEntity
  8
0
  6
Continuous
 62
     7
100
AcDbLine
 10
115.9045531796563
 20
154.8474033307407
 30
0.0
 11
120.9045531796564
 21
154.8474033307407
 31
0.0
  0
LINE
  5
16A
330
2
100
AcDbEntity
  8
0
  6
Continuous
 62
     7
100
AcDbLine
 10
110.9045531796563
 20
154.8474033307407
 30
0.0
 11
115.9045531796563
 21
154.8474033307407
 31
0.0
  0
LINE
  5
16B
330
2
100
AcDbEntity
  8
0
  6
Continuous
 62
     7
100
AcDbLine
 10
105.9045531796563
 20
154.8474033307407
 30
0.0
 11
110.9045531796563
 21
154.8474033307407
 31
0.0
  0
LINE
  5
16C
330
2
100
AcDbEntity
  8
0
  6
Continuous
 62
     7
100
AcDbLine
 10
100.9045531796563
 20
154.8474033307407
 30
0.0
 11
105.9045531796563
 21
154.8474033307407
 31
0.0
  0
LINE
  5
16D
330
2
100
AcDbEntity
  8
0
  6
Continuous
 62
     7
100
AcDbLine
 10
95.90455317965634
 20
154.8474033307407
 30
0.0
 11
100.9045531796563
 21
154.8474033307407
 31
0.0
  0
LINE
  5
16E
330
2
100
AcDbEntity
  8
0
  6
Continuous
 62
     7
100
AcDbLine
 10
140.9045531796563
 20
161.8474033307407
 30
0.0
 11
140.9045531796563
 21
154.8474033307407
 31
0.0
  0
LINE
  5
16F
330
2
100
AcDbEntity
  8
0
  6
Continuous
 62
     7
100
AcDbLine
 10
90.90455317965634
 20
154.8474033307407
 30
0.0
 11
89.90455317965635
 21
154.8474033307407
 31
0.0
  0
LINE
  5
170
330
2
100
AcDbEntity
  8
0
  6
Continuous
 62
     7
100
AcDbLine
 10
90.90455317965634
 20
154.8474033307407
 30
0.0
 11
95.90455317965634
 21
154.8474033307407
 31
0.0
  0
LINE
  5
171
330
2
100
AcDbEntity
  8
0
  6
Continuous
 62
     7
100
AcDbLine
 10
135.9045531796563
 20
161.8474033307407
 30
0.0
 11
135.9045531796563
 21
154.8474033307407
 31
0.0
  0
LINE
  5
172
330
2
100
AcDbEntity
  8
0
  6
Continuous
 62
     7
100
AcDbLine
 10
130.9045531796563
 20
161.8474033307407
 30
0.0
 11
130.9045531796563
 21
154.8474033307407
 31
0.0
  0
LINE
  5
173
330
2
100
AcDbEntity
  8
0
  6
Continuous
 62
     7
100
AcDbLine
 10
125.9045531796564
 20
161.8474033307407
 30
0.0
 11
125.9045531796564
 21
154.8474033307407
 31
0.0
  0
LINE
  5
174
330
2
100
AcDbEntity
  8
0
  6
Continuous
 62
     7
100
AcDbLine
 10
120.9045531796564
 20
161.8474033307407
 30
0.0
 11
120.9045531796564
 21
154.8474033307407
 31
0.0
  0
LINE
  5
175
330
2
100
AcDbEntity
  8
0
  6
Continuous
 62
     7
100
AcDbLine
 10
115.9045531796563
 20
161.8474033307407
 30
0.0
 11
115.9045531796563
 21
154.8474033307407
 31
0.0
  0
LINE
  5
176
330
2
100
AcDbEntity
  8
0
  6
Continuous
 62
     7
100
AcDbLine
 10
110.9045531796563
 20
161.8474033307407
 30
0.0
 11
110.9045531796563
 21
154.8474033307407
 31
0.0
  0
LINE
  5
177
330
2
100
AcDbEntity
  8
0
  6
Continuous
 62
     7
100
AcDbLine
 10
105.9045531796563
 20
161.8474033307407
 30
0.0
 11
105.9045531796563
 21
154.8474033307407
 31
0.0
  0
LINE
  5
178
330
2
100
AcDbEntity
  8
0
  6
Continuous
 62
     7
100
AcDbLine
 10
100.9045531796563
 20
161.8474033307407
 30
0.0
 11
100.9045531796563
 21
154.8474033307407
 31
0.0
  0
LINE
  5
179
330
2
100
AcDbEntity
  8
0
  6
Continuous
 62
     7
100
AcDbLine
 10
95.90455317965634
 20
161.8474033307407
 30
0.0
 11
95.90455317965634
 21
154.8474033307407
 31
0.0
  0
LINE
  5
17A
330
2
100
AcDbEntity
  8
0
  6
Continuous
 62
     7
100
AcDbLine
 10
90.90455317965634
 20
161.8474033307407
 30
0.0
 11
90.90455317965634
 21
154.8474033307407
 31
0.0
  0
LINE
  5
17B
330
2
100
AcDbEntity
  8
0
  6
Continuous
 62
     7
100
AcDbLine
 10
89.90455317965635
 20
161.8474033307407
 30
0.0
 11
89.90455317965635
 21
154.8474033307407
 31
0.0
  0
LINE
  5
17C
330
2
100
AcDbEntity
  8
0
  6
Continuous
 62
     7
100
AcDbLine
 10
87.20455317965637
 20
110.3474033307406
 30
0.0
 11
87.20455317965637
 21
62.34740333074069
 31
0.0
  0
LINE
  5
17D
330
2
100
AcDbEntity
  8
0
  6
Continuous
 62
     7
100
AcDbLine
 10
177.2045531796564
 20
110.3474033307406
 30
0.0
 11
177.2045531796564
 21
62.34740333074069
 31
0.0
  0
LINE
  5
17E
330
2
100
AcDbEntity
  8
0
  6
CENTER
 62
     4
100
AcDbLine
 10
132.2045531796531
 20
120.4769213346447
 30
0.0
 11
132.2045531796531
 21
40.85330190107117
 31
0.0
  0
LINE
  5
17F
330
2
100
AcDbEntity
  8
0
  6
Continuous
 62
     7
100
AcDbLine
 10
87.20455317965637
 20
51.34740333074069
 30
0.0
 11
122.0045531796531
 21
51.34740333074069
 31
0.0
  0
LINE
  5
180
330
2
100
AcDbEntity
  8
0
  6
Continuous
 62
     7
100
AcDbLine
 10
88.20455317965636
 20
111.3474033307406
 30
0.0
 11
176.2045531796564
 21
111.3474033307406
 31
0.0
  0
LINE
  5
181
330
2
100
AcDbEntity
  8
0
  6
Continuous
 62
     7
100
AcDbLine
 10
288.2045531796565
 20
176.6474033307405
 30
0.0
 11
288.2045531796563
 21
150.3474033307407
 31
0.0
  0
LINE
  5
182
330
2
100
AcDbEntity
  8
0
  6
Continuous
 62
     7
100
AcDbLine
 10
284.2045531796566
 20
213.0474033307409
 30
0.0
 11
284.2045531796566
 21
177.6474033307409
 31
0.0
  0
LINE
  5
183
330
2
100
AcDbEntity
  8
0
  6
Continuous
 62
     7
100
AcDbLine
 10
230.9728314927403
 20
170.3474033307406
 30
0.0
 11
275.2045531796564
 21
170.3474033307407
 31
0.0
  0
LINE
  5
184
330
2
100
AcDbEntity
  8
0
  6
Continuous
 62
     7
100
AcDbLine
 10
88.70455317965637
 20
150.3474033307407
 30
0.0
 11
175.7045531796564
 21
150.3474033307407
 31
0.0
  0
LINE
  5
185
330
2
100
AcDbEntity
  8
0
  6
Continuous
 62
     7
100
AcDbLine
 10
276.2045531796564
 20
150.3474033307407
 30
0.0
 11
279.7045531796563
 21
150.3474033307407
 31
0.0
  0
LINE
  5
186
330
2
100
AcDbEntity
  8
0
  6
Continuous
 62
     7
100
AcDbLine
 10
243.2045531796564
 20
240.3474033307407
 30
0.0
 11
250.7045531796564
 21
240.3474033307407
 31
0.0
  0
LINE
  5
187
330
2
100
AcDbEntity
  8
0
  6
Continuous
 62
     7
100
AcDbLine
 10
288.2045531796564
 20
240.3474033307407
 30
0.0
 11
288.2045531796565
 21
213.0474033307408
 31
0.0
  0
LINE
  5
188
330
2
100
AcDbEntity
  8
0
  6
Continuous
 62
     7
100
AcDbLine
 10
228.2045531796564
 20
239.3474033307407
 30
0.0
 11
228.2045531796564
 21
177.9784470048058
 31
0.0
  0
LINE
  5
189
330
2
100
AcDbEntity
  8
0
  6
Continuous
 62
     7
100
AcDbLine
 10
88.70455317965641
 20
240.3474033307407
 30
0.0
 11
175.7045531796563
 21
240.3474033307407
 31
0.0
  0
LINE
  5
18A
330
2
100
AcDbEntity
  8
0
  6
Continuous
 62
     7
100
AcDbLine
 10
254.6045531796564
 20
169.8474033307405
 30
0.0
 11
254.6045531796564
 21
168.8474033307405
 31
0.0
  0
LINE
  5
18B
330
2
100
AcDbEntity
  8
0
  6
Continuous
 62
     7
100
AcDbLine
 10
261.8045531796564
 20
169.8474033307405
 30
0.0
 11
261.8045531796564
 21
168.8474033307405
 31
0.0
  0
LINE
  5
18C
330
2
100
AcDbEntity
  8
0
  6
Continuous
 62
     7
100
AcDbLine
 10
155.1045531796563
 20
169.8474033307407
 30
0.0
 11
155.1045531796563
 21
168.8474033307407
 31
0.0
  0
LINE
  5
18D
330
2
100
AcDbEntity
  8
0
  6
Continuous
 62
     7
100
AcDbLine
 10
162.3045531796564
 20
169.8474033307407
 30
0.0
 11
162.3045531796564
 21
168.8474033307407
 31
0.0
  0
CIRCLE
  5
18E
330
2
100
AcDbEntity
  8
0
  6
Continuous
 62
     7
100
AcDbCircle
 10
158.7045531796564
 20
81.34740333074068
 30
0.0
 40
3.0
  0
LINE
  5
18F
330
2
100
AcDbEntity
  8
0
  6
Continuous
 62
     7
 48
2.0
100
AcDbLine
 10
112.2045531796575
 20
222.8474033307358
 30
0.0
 11
112.2045531796575
 21
203.8474033307358
 31
0.0
  0
LINE
  5
190
330
2
100
AcDbEntity
  8
0
  6
Continuous
 62
     7
 48
2.0
100
AcDbLine
 10
113.2045531796575
 20
223.8474033307358
 30
0.0
 11
138.2045531796574
 21
223.8474033307359
 31
0.0
  0
LINE
  5
191
330
2
100
AcDbEntity
  8
0
  6
Continuous
 62
     7
 48
2.0
100
AcDbLine
 10
113.2045531796575
 20
202.8474033307358
 30
0.0
 11
138.2045531796575
 21
202.8474033307358
 31
0.0
  0
LINE
  5
192
330
2
100
AcDbEntity
  8
0
  6
Continuous
 62
     7
 48
2.0
100
AcDbLine
 10
139.2045531796574
 20
222.8474033307359
 30
0.0
 11
139.2045531796575
 21
203.8474033307358
 31
0.0
  0
ARC
  5
193
330
2
100
AcDbEntity
  8
0
  6
Continuous
 62
     7
 48
2.0
100
AcDbCircle
 10
138.2045531796574
 20
222.8474033307359
 30
0.0
 40
1.0
100
AcDbArc
 50
0.0
 51
90.0
  0
ARC
  5
194
330
2
100
AcDbEntity
  8
0
  6
Continuous
 62
     7
 48
2.0
100
AcDbCircle
 10
113.2045531796575
 20
222.8474033307358
 30
0.0
 40
1.0
100
AcDbArc
 50
90.0
 51
180.0
  0
ARC
  5
195
330
2
100
AcDbEntity
  8
0
  6
Continuous
 62
     7
 48
2.0
100
AcDbCircle
 10
113.2045531796575
 20
203.8474033307358
 30
0.0
 40
1.0
100
AcDbArc
 50
180.0
 51
270.0
  0
ARC
  5
196
330
2
100
AcDbEntity
  8
0
  6
Continuous
 62
     7
 48
2.0
100
AcDbCircle
 10
138.2045531796575
 20
203.8474033307358
 30
0.0
 40
1.0
100
AcDbArc
 50
270.0
 51
0.0
  0
LINE
  5
197
330
2
100
AcDbEntity
  8
0
  6
Continuous
 62
     7
100
AcDbLine
 10
130.5965482577037
 20
209.3474033307407
 30
0.0
 11
133.2925581983845
 21
209.3474033307407
 31
0.0
  0
LINE
  5
198
330
2
100
AcDbEntity
  8
0
  6
Continuous
 62
     7
100
AcDbLine
 10
131.5402802544042
 20
213.4724033307407
 30
0.0
 11
130.988273210596
 21
213.0899438603178
 31
0.0
  0
LINE
  5
199
330
2
100
AcDbEntity
  8
0
  6
Continuous
 62
     7
100
AcDbLine
 10
130.988273210596
 20
213.0899438603178
 30
0.0
 11
131.445239423901
 21
212.7224033307407
 31
0.0
  0
LINE
  5
19A
330
2
100
AcDbEntity
  8
0
  6
Continuous
 62
     7
100
AcDbLine
 10
131.1042707084077
 20
216.8130065773621
 30
0.0
 11
131.7518826680535
 21
216.0974033307407
 31
0.0
  0
LINE
  5
19B
330
2
100
AcDbEntity
  8
0
  6
Continuous
 62
     7
100
AcDbLine
 10
130.9189075649735
 20
216.6452552582726
 30
0.0
 11
131.5665195246197
 21
215.9296520116512
 31
0.0
  0
LINE
  5
19C
330
2
100
AcDbEntity
  8
0
  6
Continuous
 62
     7
100
AcDbLine
 10
131.1695816068522
 20
210.0974033307407
 30
0.0
 11
132.8072245985399
 21
210.0974033307407
 31
0.0
  0
LINE
  5
19D
330
2
100
AcDbEntity
  8
0
  6
Continuous
 62
     7
100
AcDbLine
 10
131.3371335816962
 20
213.6357953573174
 30
0.0
 11
131.5665195246197
 21
215.9296520116512
 31
0.0
  0
LINE
  5
19E
330
2
100
AcDbEntity
  8
0
  6
Continuous
 62
     7
100
AcDbLine
 10
131.2665490682093
 20
216.8474033307407
 30
0.0
 11
133.9625590088899
 21
216.8474033307407
 31
0.0
  0
LINE
  5
19F
330
2
100
AcDbEntity
  8
0
  6
Continuous
 62
     7
100
AcDbLine
 10
129.7045531796557
 20
219.8474033307407
 30
0.0
 11
132.2045531796556
 21
219.8474033307407
 31
0.0
  0
LINE
  5
1A0
330
2
100
AcDbEntity
  8
0
  6
Continuous
 62
     7
100
AcDbLine
 10
129.7045531796557
 20
220.8474033307407
 30
0.0
 11
132.2045531796556
 21
220.8474033307407
 31
0.0
  0
LINE
  5
1A1
330
2
100
AcDbEntity
  8
0
  6
Continuous
 62
     7
100
AcDbLine
 10
127.7545531796556
 20
203.8474033307407
 30
0.0
 11
127.7995532340926
 21
204.2974033307408
 31
0.0
  0
LINE
  5
1A2
330
2
100
AcDbEntity
  8
0
  6
Continuous
 62
     7
100
AcDbLine
 10
128.2045531796557
 20
203.8474033307407
 30
0.0
 11
128.2495532340926
 21
204.2974033307408
 31
0.0
  0
ARC
  5
1A3
330
2
100
AcDbEntity
  8
0
  6
Continuous
 62
     7
100
AcDbCircle
 10
128.7697502264845
 20
204.0874033307407
 30
0.0
 40
0.24
100
AcDbArc
 50
174.2893999999998
 51
203.9347431357171
  0
LINE
  5
1A4
330
2
100
AcDbEntity
  8
0
  6
Continuous
 62
     7
100
AcDbLine
 10
128.6510390699654
 20
203.8788184287994
 30
0.0
 11
129.1135702359736
 21
204.2974033307408
 31
0.0
  0
LINE
  5
1A5
330
2
100
AcDbEntity
  8
0
  6
Continuous
 62
     7
100
AcDbLine
 10
128.5503882785117
 20
203.9900363148597
 30
0.0
 11
129.0129194445198
 21
204.4086212168011
 31
0.0
  0
LINE
  5
1A6
330
2
100
AcDbEntity
  8
0
  6
Continuous
 62
     7
100
AcDbLine
 10
130.5959410928342
 20
203.9686921742215
 30
0.0
 11
130.2073739170466
 21
204.3980541221944
 31
0.0
  0
LINE
  5
1A7
330
2
100
AcDbEntity
  8
0
  6
Continuous
 62
     7
100
AcDbLine
 10
130.4847232067738
 20
203.8680413827679
 30
0.0
 11
130.0961560309863
 21
204.2974033307408
 31
0.0
  0
ARC
  5
1A8
330
2
100
AcDbEntity
  8
0
  6
Continuous
 62
     7
100
AcDbCircle
 10
130.3873561908928
 20
204.0874033307407
 30
0.0
 40
0.24
100
AcDbArc
 50
330.3546568642828
 51
354.2893999999998
  0
ARC
  5
1A9
330
2
100
AcDbEntity
  8
0
  6
Continuous
 62
     7
100
AcDbCircle
 10
127.237356190893
 20
204.0874033307407
 30
0.0
 40
0.24
100
AcDbArc
 50
330.3546568642828
 51
354.2893999999998
  0
LINE
  5
1AA
330
2
100
AcDbEntity
  8
0
  6
Continuous
 62
     7
100
AcDbLine
 10
125.4003882785116
 20
203.9900363148597
 30
0.0
 11
125.8629194445199
 21
204.4086212168011
 31
0.0
  0
LINE
  5
1AB
330
2
100
AcDbEntity
  8
0
  6
Continuous
 62
     7
100
AcDbLine
 10
125.5010390699653
 20
203.8788184287994
 30
0.0
 11
125.9635702359737
 21
204.2974033307408
 31
0.0
  0
ARC
  5
1AC
330
2
100
AcDbEntity
  8
0
  6
Continuous
 62
     7
100
AcDbCircle
 10
125.6197502264844
 20
204.0874033307407
 30
0.0
 40
0.24
100
AcDbArc
 50
174.2893999999998
 51
203.9347431357171
  0
LINE
  5
1AD
330
2
100
AcDbEntity
  8
0
  6
Continuous
 62
     7
100
AcDbLine
 10
127.3347232067737
 20
203.8680413827679
 30
0.0
 11
126.9461560309862
 21
204.2974033307408
 31
0.0
  0
LINE
  5
1AE
330
2
100
AcDbEntity
  8
0
  6
Continuous
 62
     7
100
AcDbLine
 10
127.4459410928343
 20
203.9686921742215
 30
0.0
 11
127.0573739170467
 21
204.3980541221944
 31
0.0
  0
LINE
  5
1AF
330
2
100
AcDbEntity
  8
0
  6
Continuous
 62
     7
100
AcDbLine
 10
128.7697502264845
 20
203.8474033307407
 30
0.0
 11
130.3873561908928
 21
203.8474033307407
 31
0.0
  0
LINE
  5
1B0
330
2
100
AcDbEntity
  8
0
  6
Continuous
 62
     7
100
AcDbLine
 10
127.7545531796556
 20
203.8474033307407
 30
0.0
 11
128.2045531796557
 21
203.8474033307407
 31
0.0
  0
ARC
  5
1B1
330
2
100
AcDbEntity
  8
0
  6
Continuous
 62
     7
100
AcDbCircle
 10
128.7697502264845
 20
204.0874033307407
 30
0.0
 40
0.24
100
AcDbArc
 50
240.3546568642834
 51
270.0
  0
ARC
  5
1B2
330
2
100
AcDbEntity
  8
0
  6
Continuous
 62
     7
100
AcDbCircle
 10
130.3873561908928
 20
204.0874033307407
 30
0.0
 40
0.24
100
AcDbArc
 50
270.0
 51
293.9347431357165
  0
ARC
  5
1B3
330
2
100
AcDbEntity
  8
0
  6
Continuous
 62
     7
100
AcDbCircle
 10
125.6197502264844
 20
204.0874033307407
 30
0.0
 40
0.24
100
AcDbArc
 50
240.3546568642834
 51
270.0
  0
LINE
  5
1B4
330
2
100
AcDbEntity
  8
0
  6
Continuous
 62
     7
100
AcDbLine
 10
125.6197502264844
 20
203.8474033307407
 30
0.0
 11
127.237356190893
 21
203.8474033307407
 31
0.0
  0
ARC
  5
1B5
330
2
100
AcDbEntity
  8
0
  6
Continuous
 62
     7
100
AcDbCircle
 10
127.237356190893
 20
204.0874033307407
 30
0.0
 40
0.24
100
AcDbArc
 50
270.0
 51
293.9347431357165
  0
LINE
  5
1B6
330
2
100
AcDbEntity
  8
0
  6
Continuous
 62
     7
100
AcDbLine
 10
129.1717507127877
 20
208.3474033307407
 30
0.0
 11
130.7893566771963
 21
208.3474033307407
 31
0.0
  0
LINE
  5
1B7
330
2
100
AcDbEntity
  8
0
  6
Continuous
 62
     7
100
AcDbLine
 10
129.4629508726943
 20
207.8974033307406
 30
0.0
 11
130.445536667707
 21
207.8974033307406
 31
0.0
  0
LINE
  5
1B8
330
2
100
AcDbEntity
  8
0
  6
Continuous
 62
     7
100
AcDbLine
 10
129.1135702359736
 20
204.2974033307408
 30
0.0
 11
130.0961560309863
 21
204.2974033307408
 31
0.0
  0
LINE
  5
1B9
330
2
100
AcDbEntity
  8
0
  6
Continuous
 62
     7
100
AcDbLine
 10
129.2789649262028
 20
205.8724033307407
 30
0.0
 11
130.2231174791759
 21
205.8724033307407
 31
0.0
  0
LINE
  5
1BA
330
2
100
AcDbEntity
  8
0
  6
Continuous
 62
     7
100
AcDbLine
 10
129.3359894245047
 20
206.3224033307407
 30
0.0
 11
130.2801419774777
 21
206.3224033307407
 31
0.0
  0
LINE
  5
1BB
330
2
100
AcDbEntity
  8
0
  6
Continuous
 62
     7
100
AcDbLine
 10
127.7995532340926
 20
204.2974033307408
 30
0.0
 11
128.2495532340926
 21
204.2974033307408
 31
0.0
  0
LINE
  5
1BC
330
2
100
AcDbEntity
  8
0
  6
Continuous
 62
     7
100
AcDbLine
 10
127.7005234584839
 20
206.307103143502
 30
0.0
 11
127.8781655999862
 21
208.0835224095728
 31
0.0
  0
ARC
  5
1BD
330
2
100
AcDbEntity
  8
0
  6
Continuous
 62
     7
100
AcDbCircle
 10
127.6393566771962
 20
208.1074033307407
 30
0.0
 40
0.24
100
AcDbArc
 50
60.35465686428244
 51
90.0
  0
ARC
  5
1BE
330
2
100
AcDbEntity
  8
0
  6
Continuous
 62
     7
100
AcDbCircle
 10
127.6393566771962
 20
208.1074033307407
 30
0.0
 40
0.24
100
AcDbArc
 50
354.2893999999998
 51
23.93474313571708
  0
LINE
  5
1BF
330
2
100
AcDbEntity
  8
0
  6
Continuous
 62
     7
100
AcDbLine
 10
129.0743836969068
 20
208.3267652787135
 30
0.0
 11
129.4629508726943
 21
207.8974033307406
 31
0.0
  0
LINE
  5
1C0
330
2
100
AcDbEntity
  8
0
  6
Continuous
 62
     7
100
AcDbLine
 10
128.9631658108464
 20
208.2261144872598
 30
0.0
 11
129.351732986634
 21
207.796752539287
 31
0.0
  0
ARC
  5
1C1
330
2
100
AcDbEntity
  8
0
  6
Continuous
 62
     7
100
AcDbCircle
 10
129.1717507127877
 20
208.1074033307407
 30
0.0
 40
0.24
100
AcDbArc
 50
90.0
 51
113.9347431357165
  0
LINE
  5
1C2
330
2
100
AcDbEntity
  8
0
  6
Continuous
 62
     7
100
AcDbLine
 10
129.0129194445198
 20
204.4086212168011
 30
0.0
 11
129.1503894370684
 21
205.7833194793021
 31
0.0
  0
LINE
  5
1C3
330
2
100
AcDbEntity
  8
0
  6
Continuous
 62
     7
100
AcDbLine
 10
129.3359894245047
 20
206.3224033307407
 30
0.0
 11
129.0047851982198
 21
206.0929276484869
 31
0.0
  0
LINE
  5
1C4
330
2
100
AcDbEntity
  8
0
  6
Continuous
 62
     7
100
AcDbLine
 10
129.21410142088
 20
206.4204385466867
 30
0.0
 11
128.8828971945949
 21
206.190962864433
 31
0.0
  0
LINE
  5
1C5
330
2
100
AcDbEntity
  8
0
  6
Continuous
 62
     7
100
AcDbLine
 10
128.8762097090857
 20
206.0038437970484
 30
0.0
 11
129.1503894370684
 21
205.7833194793021
 31
0.0
  0
LINE
  5
1C6
330
2
100
AcDbEntity
  8
0
  6
Continuous
 62
     7
100
AcDbLine
 10
129.0047851982198
 20
206.0929276484869
 30
0.0
 11
129.2789649262028
 21
205.8724033307407
 31
0.0
  0
ARC
  5
1C7
330
2
100
AcDbEntity
  8
0
  6
Continuous
 62
     7
100
AcDbCircle
 10
129.1717507127877
 20
208.1074033307407
 30
0.0
 40
0.24
100
AcDbArc
 50
150.3546568642828
 51
174.2893999999998
  0
LINE
  5
1C8
330
2
100
AcDbEntity
  8
0
  6
Continuous
 62
     7
100
AcDbLine
 10
128.7496283209504
 20
206.2981517789946
 30
0.0
 11
128.8828971945949
 21
206.190962864433
 31
0.0
  0
LINE
  5
1C9
330
2
100
AcDbEntity
  8
0
  6
Continuous
 62
     7
100
AcDbLine
 10
128.7496283209504
 20
206.2981517789946
 30
0.0
 11
128.9329417899975
 21
208.1312842519086
 31
0.0
  0
LINE
  5
1CA
330
2
100
AcDbEntity
  8
0
  6
Continuous
 62
     7
100
AcDbLine
 10
129.21410142088
 20
206.4204385466867
 30
0.0
 11
129.351732986634
 21
207.796752539287
 31
0.0
  0
LINE
  5
1CB
330
2
100
AcDbEntity
  8
0
  6
Continuous
 62
     7
100
AcDbLine
 10
128.5309413036943
 20
204.1112842519086
 30
0.0
 11
128.7085834451966
 21
205.8877035179794
 31
0.0
  0
LINE
  5
1CC
330
2
100
AcDbEntity
  8
0
  6
Continuous
 62
     7
100
AcDbLine
 10
128.8762097090857
 20
206.0038437970484
 30
0.0
 11
128.7085834451966
 21
205.8877035179794
 31
0.0
  0
LINE
  5
1CD
330
2
100
AcDbEntity
  8
0
  6
Continuous
 62
     7
100
AcDbLine
 10
130.9080678337154
 20
208.315988232682
 30
0.0
 11
130.445536667707
 21
207.8974033307406
 31
0.0
  0
LINE
  5
1CE
330
2
100
AcDbEntity
  8
0
  6
Continuous
 62
     7
100
AcDbLine
 10
131.0087186251689
 20
208.2047703466217
 30
0.0
 11
130.5461874591608
 21
207.7861854446803
 31
0.0
  0
ARC
  5
1CF
330
2
100
AcDbEntity
  8
0
  6
Continuous
 62
     7
100
AcDbCircle
 10
130.7893566771963
 20
208.1074033307407
 30
0.0
 40
0.24
100
AcDbArc
 50
354.2893999999998
 51
23.93474313571708
  0
ARC
  5
1D0
330
2
100
AcDbEntity
  8
0
  6
Continuous
 62
     7
100
AcDbCircle
 10
130.7893566771963
 20
208.1074033307407
 30
0.0
 40
0.24
100
AcDbArc
 50
60.35465686428244
 51
90.0
  0
LINE
  5
1D1
330
2
100
AcDbEntity
  8
0
  6
Continuous
 62
     7
100
AcDbLine
 10
130.6261651136831
 20
204.0635224095727
 30
0.0
 11
130.8094785827301
 21
205.8966548824868
 31
0.0
  0
LINE
  5
1D2
330
2
100
AcDbEntity
  8
0
  6
Continuous
 62
     7
100
AcDbLine
 10
130.2073739170466
 20
204.3980541221944
 30
0.0
 11
130.3450054828008
 21
205.7743681147947
 31
0.0
  0
LINE
  5
1D3
330
2
100
AcDbEntity
  8
0
  6
Continuous
 62
     7
100
AcDbLine
 10
130.5543217054607
 20
206.1018790129945
 30
0.0
 11
130.2801419774777
 21
206.3224033307407
 31
0.0
  0
LINE
  5
1D4
330
2
100
AcDbEntity
  8
0
  6
Continuous
 62
     7
100
AcDbLine
 10
130.6828971945951
 20
206.190962864433
 30
0.0
 11
130.4087174666121
 21
206.4114871821792
 31
0.0
  0
LINE
  5
1D5
330
2
100
AcDbEntity
  8
0
  6
Continuous
 62
     7
100
AcDbLine
 10
130.6828971945951
 20
206.190962864433
 30
0.0
 11
130.850523458484
 21
206.307103143502
 31
0.0
  0
LINE
  5
1D6
330
2
100
AcDbEntity
  8
0
  6
Continuous
 62
     7
100
AcDbLine
 10
130.2231174791759
 20
205.8724033307407
 30
0.0
 11
130.5543217054607
 21
206.1018790129945
 31
0.0
  0
LINE
  5
1D7
330
2
100
AcDbEntity
  8
0
  6
Continuous
 62
     7
100
AcDbLine
 10
130.3450054828008
 20
205.7743681147947
 30
0.0
 11
130.6762097090856
 21
206.0038437970484
 31
0.0
  0
LINE
  5
1D8
330
2
100
AcDbEntity
  8
0
  6
Continuous
 62
     7
100
AcDbLine
 10
130.8094785827301
 20
205.8966548824868
 30
0.0
 11
130.6762097090856
 21
206.0038437970484
 31
0.0
  0
LINE
  5
1D9
330
2
100
AcDbEntity
  8
0
  6
Continuous
 62
     7
100
AcDbLine
 10
130.4087174666121
 20
206.4114871821792
 30
0.0
 11
130.5461874591608
 21
207.7861854446803
 31
0.0
  0
LINE
  5
1DA
330
2
100
AcDbEntity
  8
0
  6
Continuous
 62
     7
100
AcDbLine
 10
130.850523458484
 20
206.307103143502
 30
0.0
 11
131.0281655999863
 21
208.0835224095728
 31
0.0
  0
LINE
  5
1DB
330
2
100
AcDbEntity
  8
0
  6
Continuous
 62
     7
100
AcDbLine
 10
127.6594785827301
 20
205.8966548824868
 30
0.0
 11
127.5262097090855
 21
206.0038437970484
 31
0.0
  0
LINE
  5
1DC
330
2
100
AcDbEntity
  8
0
  6
Continuous
 62
     7
100
AcDbLine
 10
127.532897194595
 20
206.190962864433
 30
0.0
 11
127.7005234584839
 21
206.307103143502
 31
0.0
  0
LINE
  5
1DD
330
2
100
AcDbEntity
  8
0
  6
Continuous
 62
     7
100
AcDbLine
 10
127.476165113683
 20
204.0635224095727
 30
0.0
 11
127.6594785827301
 21
205.8966548824868
 31
0.0
  0
LINE
  5
1DE
330
2
100
AcDbEntity
  8
0
  6
Continuous
 62
     7
100
AcDbLine
 10
127.8587186251691
 20
208.2047703466217
 30
0.0
 11
127.3961874591607
 21
207.7861854446803
 31
0.0
  0
LINE
  5
1DF
330
2
100
AcDbEntity
  8
0
  6
Continuous
 62
     7
100
AcDbLine
 10
127.7580678337153
 20
208.315988232682
 30
0.0
 11
127.2955366677069
 21
207.8974033307406
 31
0.0
  0
LINE
  5
1E0
330
2
100
AcDbEntity
  8
0
  6
Continuous
 62
     7
100
AcDbLine
 10
125.7262097090856
 20
206.0038437970484
 30
0.0
 11
125.5585834451967
 21
205.8877035179794
 31
0.0
  0
LINE
  5
1E1
330
2
100
AcDbEntity
  8
0
  6
Continuous
 62
     7
100
AcDbLine
 10
125.3809413036945
 20
204.1112842519086
 30
0.0
 11
125.5585834451967
 21
205.8877035179794
 31
0.0
  0
LINE
  5
1E2
330
2
100
AcDbEntity
  8
0
  6
Continuous
 62
     7
100
AcDbLine
 10
126.0641014208799
 20
206.4204385466867
 30
0.0
 11
126.2017329866339
 21
207.796752539287
 31
0.0
  0
LINE
  5
1E3
330
2
100
AcDbEntity
  8
0
  6
Continuous
 62
     7
100
AcDbLine
 10
126.1859894245048
 20
206.3224033307407
 30
0.0
 11
127.1301419774779
 21
206.3224033307407
 31
0.0
  0
LINE
  5
1E4
330
2
100
AcDbEntity
  8
0
  6
Continuous
 62
     7
100
AcDbLine
 10
126.1289649262028
 20
205.8724033307407
 30
0.0
 11
127.0731174791758
 21
205.8724033307407
 31
0.0
  0
LINE
  5
1E5
330
2
100
AcDbEntity
  8
0
  6
Continuous
 62
     7
100
AcDbLine
 10
125.9635702359737
 20
204.2974033307408
 30
0.0
 11
126.9461560309862
 21
204.2974033307408
 31
0.0
  0
LINE
  5
1E6
330
2
100
AcDbEntity
  8
0
  6
Continuous
 62
     7
100
AcDbLine
 10
127.0573739170467
 20
204.3980541221944
 30
0.0
 11
127.1950054828007
 21
205.7743681147947
 31
0.0
  0
LINE
  5
1E7
330
2
100
AcDbEntity
  8
0
  6
Continuous
 62
     7
100
AcDbLine
 10
125.5996283209506
 20
206.2981517789946
 30
0.0
 11
125.7829417899977
 21
208.1312842519086
 31
0.0
  0
LINE
  5
1E8
330
2
100
AcDbEntity
  8
0
  6
Continuous
 62
     7
100
AcDbLine
 10
125.5996283209506
 20
206.2981517789946
 30
0.0
 11
125.7328971945951
 21
206.190962864433
 31
0.0
  0
ARC
  5
1E9
330
2
100
AcDbEntity
  8
0
  6
Continuous
 62
     7
100
AcDbCircle
 10
126.0217507127876
 20
208.1074033307407
 30
0.0
 40
0.24
100
AcDbArc
 50
150.3546568642828
 51
174.2893999999998
  0
LINE
  5
1EA
330
2
100
AcDbEntity
  8
0
  6
Continuous
 62
     7
100
AcDbLine
 10
125.8547851982198
 20
206.0929276484869
 30
0.0
 11
126.1289649262028
 21
205.8724033307407
 31
0.0
  0
LINE
  5
1EB
330
2
100
AcDbEntity
  8
0
  6
Continuous
 62
     7
100
AcDbLine
 10
125.7262097090856
 20
206.0038437970484
 30
0.0
 11
126.0003894370686
 21
205.7833194793021
 31
0.0
  0
LINE
  5
1EC
330
2
100
AcDbEntity
  8
0
  6
Continuous
 62
     7
100
AcDbLine
 10
126.0641014208799
 20
206.4204385466867
 30
0.0
 11
125.7328971945951
 21
206.190962864433
 31
0.0
  0
LINE
  5
1ED
330
2
100
AcDbEntity
  8
0
  6
Continuous
 62
     7
100
AcDbLine
 10
126.1859894245048
 20
206.3224033307407
 30
0.0
 11
125.8547851982198
 21
206.0929276484869
 31
0.0
  0
LINE
  5
1EE
330
2
100
AcDbEntity
  8
0
  6
Continuous
 62
     7
100
AcDbLine
 10
125.8629194445199
 20
204.4086212168011
 30
0.0
 11
126.0003894370686
 21
205.7833194793021
 31
0.0
  0
ARC
  5
1EF
330
2
100
AcDbEntity
  8
0
  6
Continuous
 62
     7
100
AcDbCircle
 10
126.0217507127876
 20
208.1074033307407
 30
0.0
 40
0.24
100
AcDbArc
 50
90.0
 51
113.9347431357165
  0
LINE
  5
1F0
330
2
100
AcDbEntity
  8
0
  6
Continuous
 62
     7
100
AcDbLine
 10
125.8131658108463
 20
208.2261144872598
 30
0.0
 11
126.2017329866339
 21
207.796752539287
 31
0.0
  0
LINE
  5
1F1
330
2
100
AcDbEntity
  8
0
  6
Continuous
 62
     7
100
AcDbLine
 10
125.9243836969069
 20
208.3267652787135
 30
0.0
 11
126.3129508726944
 21
207.8974033307406
 31
0.0
  0
LINE
  5
1F2
330
2
100
AcDbEntity
  8
0
  6
Continuous
 62
     7
100
AcDbLine
 10
127.2587174666121
 20
206.4114871821792
 30
0.0
 11
127.3961874591607
 21
207.7861854446803
 31
0.0
  0
LINE
  5
1F3
330
2
100
AcDbEntity
  8
0
  6
Continuous
 62
     7
100
AcDbLine
 10
127.1950054828007
 20
205.7743681147947
 30
0.0
 11
127.5262097090855
 21
206.0038437970484
 31
0.0
  0
LINE
  5
1F4
330
2
100
AcDbEntity
  8
0
  6
Continuous
 62
     7
100
AcDbLine
 10
127.0731174791758
 20
205.8724033307407
 30
0.0
 11
127.4043217054609
 21
206.1018790129945
 31
0.0
  0
LINE
  5
1F5
330
2
100
AcDbEntity
  8
0
  6
Continuous
 62
     7
100
AcDbLine
 10
127.532897194595
 20
206.190962864433
 30
0.0
 11
127.2587174666121
 21
206.4114871821792
 31
0.0
  0
LINE
  5
1F6
330
2
100
AcDbEntity
  8
0
  6
Continuous
 62
     7
100
AcDbLine
 10
127.4043217054609
 20
206.1018790129945
 30
0.0
 11
127.1301419774779
 21
206.3224033307407
 31
0.0
  0
LINE
  5
1F7
330
2
100
AcDbEntity
  8
0
  6
Continuous
 62
     7
100
AcDbLine
 10
126.3129508726944
 20
207.8974033307406
 30
0.0
 11
127.2955366677069
 21
207.8974033307406
 31
0.0
  0
LINE
  5
1F8
330
2
100
AcDbEntity
  8
0
  6
Continuous
 62
     7
100
AcDbLine
 10
126.0217507127876
 20
208.3474033307407
 30
0.0
 11
127.6393566771962
 21
208.3474033307407
 31
0.0
  0
LINE
  5
1F9
330
2
100
AcDbEntity
  8
0
  6
Continuous
 62
     7
100
AcDbLine
 10
122.7045531796556
 20
220.3474033307407
 30
0.0
 11
122.7045531796556
 21
220.3474033307407
 31
0.0
  0
LINE
  5
1FA
330
2
100
AcDbEntity
  8
0
  6
Continuous
 62
     7
100
AcDbLine
 10
127.7045531796556
 20
220.3474033307407
 30
0.0
 11
127.7045531796556
 21
220.3474033307407
 31
0.0
  0
ARC
  5
1FB
330
2
100
AcDbEntity
  8
0
  6
Continuous
 62
     7
100
AcDbCircle
 10
129.7045531796557
 20
220.3474033307407
 30
0.0
 40
0.5
100
AcDbArc
 50
180.0
 51
270.0
  0
LINE
  5
1FC
330
2
100
AcDbEntity
  8
0
  6
Continuous
 62
     7
100
AcDbLine
 10
129.2045531796556
 20
220.3474033307407
 30
0.0
 11
129.2045531796556
 21
220.3474033307407
 31
0.0
  0
ARC
  5
1FD
330
2
100
AcDbEntity
  8
0
  6
Continuous
 62
     7
100
AcDbCircle
 10
129.7045531796557
 20
220.3474033307407
 30
0.0
 40
0.5
100
AcDbArc
 50
90.0
 51
180.0
  0
ARC
  5
1FE
330
2
100
AcDbEntity
  8
0
  6
Continuous
 62
     7
100
AcDbCircle
 10
124.7045531796556
 20
220.3474033307407
 30
0.0
 40
0.5
100
AcDbArc
 50
180.0
 51
270.0
  0
LINE
  5
1FF
330
2
100
AcDbEntity
  8
0
  6
Continuous
 62
     7
100
AcDbLine
 10
124.2045531796557
 20
220.3474033307407
 30
0.0
 11
124.2045531796557
 21
220.3474033307407
 31
0.0
  0
ARC
  5
200
330
2
100
AcDbEntity
  8
0
  6
Continuous
 62
     7
100
AcDbCircle
 10
124.7045531796556
 20
220.3474033307407
 30
0.0
 40
0.5
100
AcDbArc
 50
90.0
 51
180.0
  0
LINE
  5
201
330
2
100
AcDbEntity
  8
0
  6
Continuous
 62
     7
100
AcDbLine
 10
124.7045531796556
 20
219.8474033307407
 30
0.0
 11
127.2045531796557
 21
219.8474033307407
 31
0.0
  0
LINE
  5
202
330
2
100
AcDbEntity
  8
0
  6
Continuous
 62
     7
100
AcDbLine
 10
124.7045531796556
 20
220.8474033307407
 30
0.0
 11
127.2045531796557
 21
220.8474033307407
 31
0.0
  0
ARC
  5
203
330
2
100
AcDbEntity
  8
0
  6
Continuous
 62
     7
100
AcDbCircle
 10
127.2045531796557
 20
220.3474033307407
 30
0.0
 40
0.5
100
AcDbArc
 50
270.0
 51
0.0
  0
ARC
  5
204
330
2
100
AcDbEntity
  8
0
  6
Continuous
 62
     7
100
AcDbCircle
 10
127.2045531796557
 20
220.3474033307407
 30
0.0
 40
0.5
100
AcDbArc
 50
0.0
 51
90.0
  0
LINE
  5
205
330
2
100
AcDbEntity
  8
0
  6
Continuous
 62
     7
100
AcDbLine
 10
123.1905730697012
 20
209.7076017954607
 30
0.0
 11
123.4960955181131
 21
212.7628225836509
 31
0.0
  0
LINE
  5
206
330
2
100
AcDbEntity
  8
0
  6
Continuous
 62
     7
100
AcDbLine
 10
123.4960955181131
 20
212.7628225836509
 30
0.0
 11
123.2739807287057
 21
212.9414707745868
 31
0.0
  0
LINE
  5
207
330
2
100
AcDbEntity
  8
0
  6
Continuous
 62
     7
100
AcDbLine
 10
123.2851265378878
 20
213.2533358868946
 30
0.0
 11
123.5645036443697
 21
213.4469030186763
 31
0.0
  0
LINE
  5
208
330
2
100
AcDbEntity
  8
0
  6
Continuous
 62
     7
100
AcDbLine
 10
123.8281622555114
 20
216.6096816905422
 30
0.0
 11
123.0572769788309
 21
215.9120401873066
 31
0.0
  0
LINE
  5
209
330
2
100
AcDbEntity
  8
0
  6
Continuous
 62
     7
100
AcDbLine
 10
123.6604109364218
 20
216.7950448339762
 30
0.0
 11
122.8895256597413
 21
216.0974033307407
 31
0.0
  0
LINE
  5
20A
330
2
100
AcDbEntity
  8
0
  6
Continuous
 62
     7
100
AcDbLine
 10
123.14019970162
 20
209.5495514032087
 30
0.0
 11
122.4925877419741
 21
210.2651546498301
 31
0.0
  0
ARC
  5
20B
330
2
100
AcDbEntity
  8
0
  6
Continuous
 62
     7
100
AcDbCircle
 10
122.7925581983845
 20
209.7474033307407
 30
0.0
 40
0.4
100
AcDbArc
 50
330.3546568642828
 51
354.2893999999998
  0
ARC
  5
20C
330
2
100
AcDbEntity
  8
0
  6
Continuous
 62
     7
100
AcDbCircle
 10
122.7925581983845
 20
209.7474033307407
 30
0.0
 40
0.4
100
AcDbArc
 50
270.0
 51
293.9347431357165
  0
LINE
  5
20D
330
2
100
AcDbEntity
  8
0
  6
Continuous
 62
     7
100
AcDbLine
 10
123.2851265378878
 20
213.2533358868946
 30
0.0
 11
122.8281603245832
 21
213.6208764164717
 31
0.0
  0
LINE
  5
20E
330
2
100
AcDbEntity
  8
0
  6
Continuous
 62
     7
100
AcDbLine
 10
123.0708340559974
 20
213.1048628011636
 30
0.0
 11
122.6138678426927
 21
213.4724033307407
 31
0.0
  0
LINE
  5
20F
330
2
100
AcDbEntity
  8
0
  6
Continuous
 62
     7
100
AcDbLine
 10
122.7219736848974
 20
212.5590113041639
 30
0.0
 11
123.2739807287057
 21
212.9414707745868
 31
0.0
  0
LINE
  5
210
330
2
100
AcDbEntity
  8
0
  6
Continuous
 62
     7
100
AcDbLine
 10
122.5188270121893
 20
212.7224033307407
 30
0.0
 11
123.0708340559974
 21
213.1048628011636
 31
0.0
  0
LINE
  5
211
330
2
100
AcDbEntity
  8
0
  6
Continuous
 62
     7
100
AcDbLine
 10
122.4925877419741
 20
210.2651546498301
 30
0.0
 11
122.7219736848974
 21
212.5590113041639
 31
0.0
  0
LINE
  5
212
330
2
100
AcDbEntity
  8
0
  6
Continuous
 62
     7
100
AcDbLine
 10
122.8281603245832
 20
213.6208764164717
 30
0.0
 11
123.0572769788309
 21
215.9120401873066
 31
0.0
  0
LINE
  5
213
330
2
100
AcDbEntity
  8
0
  6
Continuous
 62
     7
100
AcDbLine
 10
130.2309450110824
 20
209.5851249709392
 30
0.0
 11
131.0018302877625
 21
210.2827664741746
 31
0.0
  0
LINE
  5
214
330
2
100
AcDbEntity
  8
0
  6
Continuous
 62
     7
100
AcDbLine
 10
130.3986963301717
 20
209.3997618275051
 30
0.0
 11
131.1695816068522
 21
210.0974033307407
 31
0.0
  0
LINE
  5
215
330
2
100
AcDbEntity
  8
0
  6
Continuous
 62
     7
100
AcDbLine
 10
130.198533386387
 20
209.7872048660206
 30
0.0
 11
130.494603622224
 21
212.7479036428051
 31
0.0
  0
LINE
  5
216
330
2
100
AcDbEntity
  8
0
  6
Continuous
 62
     7
100
AcDbLine
 10
129.6545531796557
 20
209.3474033307407
 30
0.0
 11
129.729553270384
 21
210.0974033307407
 31
0.0
  0
LINE
  5
217
330
2
100
AcDbEntity
  8
0
  6
Continuous
 62
     7
100
AcDbLine
 10
128.9045531796557
 20
209.3474033307407
 30
0.0
 11
128.979553270384
 21
210.0974033307407
 31
0.0
  0
LINE
  5
218
330
2
100
AcDbEntity
  8
0
  6
Continuous
 62
     7
100
AcDbLine
 10
128.2048365581858
 20
209.3818000841193
 30
0.0
 11
127.5572245985399
 21
210.0974033307407
 31
0.0
  0
LINE
  5
219
330
2
100
AcDbEntity
  8
0
  6
Continuous
 62
     7
100
AcDbLine
 10
128.39019970162
 20
209.5495514032087
 30
0.0
 11
127.7425877419741
 21
210.2651546498301
 31
0.0
  0
LINE
  5
21A
330
2
100
AcDbEntity
  8
0
  6
Continuous
 62
     7
100
AcDbLine
 10
128.4405730697012
 20
209.7076017954607
 30
0.0
 11
128.7460955181131
 21
212.7628225836509
 31
0.0
  0
LINE
  5
21B
330
2
100
AcDbEntity
  8
0
  6
Continuous
 62
     7
100
AcDbLine
 10
125.1486963301717
 20
209.3997618275051
 30
0.0
 11
125.9195816068522
 21
210.0974033307407
 31
0.0
  0
LINE
  5
21C
330
2
100
AcDbEntity
  8
0
  6
Continuous
 62
     7
100
AcDbLine
 10
124.9809450110824
 20
209.5851249709392
 30
0.0
 11
125.7518302877626
 21
210.2827664741746
 31
0.0
  0
LINE
  5
21D
330
2
100
AcDbEntity
  8
0
  6
Continuous
 62
     7
100
AcDbLine
 10
124.9485333863869
 20
209.7872048660206
 30
0.0
 11
125.244603622224
 21
212.7479036428051
 31
0.0
  0
ARC
  5
21E
330
2
100
AcDbEntity
  8
0
  6
Continuous
 62
     7
100
AcDbCircle
 10
130.5965482577037
 20
209.7474033307407
 30
0.0
 40
0.4
100
AcDbArc
 50
240.3546568642834
 51
270.0
  0
ARC
  5
21F
330
2
100
AcDbEntity
  8
0
  6
Continuous
 62
     7
100
AcDbCircle
 10
130.5965482577037
 20
209.7474033307407
 30
0.0
 40
0.4
100
AcDbArc
 50
174.2893999999998
 51
203.9347431357171
  0
LINE
  5
220
330
2
100
AcDbEntity
  8
0
  6
Continuous
 62
     7
100
AcDbLine
 10
128.9045531796557
 20
209.3474033307407
 30
0.0
 11
129.6545531796557
 21
209.3474033307407
 31
0.0
  0
ARC
  5
221
330
2
100
AcDbEntity
  8
0
  6
Continuous
 62
     7
100
AcDbCircle
 10
128.0425581983845
 20
209.7474033307407
 30
0.0
 40
0.4
100
AcDbArc
 50
330.3546568642828
 51
354.2893999999998
  0
ARC
  5
222
330
2
100
AcDbEntity
  8
0
  6
Continuous
 62
     7
100
AcDbCircle
 10
128.0425581983845
 20
209.7474033307407
 30
0.0
 40
0.4
100
AcDbArc
 50
270.0
 51
293.9347431357165
  0
ARC
  5
223
330
2
100
AcDbEntity
  8
0
  6
Continuous
 62
     7
100
AcDbCircle
 10
125.3465482577037
 20
209.7474033307407
 30
0.0
 40
0.4
100
AcDbArc
 50
240.3546568642834
 51
270.0
  0
ARC
  5
224
330
2
100
AcDbEntity
  8
0
  6
Continuous
 62
     7
100
AcDbCircle
 10
125.3465482577037
 20
209.7474033307407
 30
0.0
 40
0.4
100
AcDbArc
 50
174.2893999999998
 51
203.9347431357171
  0
LINE
  5
225
330
2
100
AcDbEntity
  8
0
  6
Continuous
 62
     7
100
AcDbLine
 10
125.3465482577037
 20
209.3474033307407
 30
0.0
 11
128.0425581983845
 21
209.3474033307407
 31
0.0
  0
LINE
  5
226
330
2
100
AcDbEntity
  8
0
  6
Continuous
 62
     7
100
AcDbLine
 10
131.3371335816962
 20
213.6357953573174
 30
0.0
 11
130.7851265378878
 21
213.2533358868946
 31
0.0
  0
LINE
  5
227
330
2
100
AcDbEntity
  8
0
  6
Continuous
 62
     7
100
AcDbLine
 10
130.7739807287057
 20
212.9414707745868
 30
0.0
 11
131.2309469420106
 21
212.5739302450097
 31
0.0
  0
LINE
  5
228
330
2
100
AcDbEntity
  8
0
  6
Continuous
 62
     7
100
AcDbLine
 10
131.0018302877625
 20
210.2827664741746
 30
0.0
 11
131.2309469420106
 21
212.5739302450097
 31
0.0
  0
ARC
  5
229
330
2
100
AcDbEntity
  8
0
  6
Continuous
 62
     7
100
AcDbCircle
 10
131.2665490682093
 20
216.4474033307407
 30
0.0
 40
0.4
100
AcDbArc
 50
90.0
 51
113.9347431357165
  0
LINE
  5
22A
330
2
100
AcDbEntity
  8
0
  6
Continuous
 62
     7
100
AcDbLine
 10
128.5351265378878
 20
213.2533358868946
 30
0.0
 11
128.0781603245832
 21
213.6208764164717
 31
0.0
  0
LINE
  5
22B
330
2
100
AcDbEntity
  8
0
  6
Continuous
 62
     7
100
AcDbLine
 10
128.3208340559974
 20
213.1048628011636
 30
0.0
 11
127.8638678426927
 21
213.4724033307407
 31
0.0
  0
LINE
  5
22C
330
2
100
AcDbEntity
  8
0
  6
Continuous
 62
     7
100
AcDbLine
 10
128.8145036443697
 20
213.4469030186763
 30
0.0
 11
129.1105738802065
 21
216.4076017954608
 31
0.0
  0
LINE
  5
22D
330
2
100
AcDbEntity
  8
0
  6
Continuous
 62
     7
100
AcDbLine
 10
130.5630117484804
 20
213.4319840778305
 30
0.0
 11
130.8685341968923
 21
216.4872048660206
 31
0.0
  0
LINE
  5
22E
330
2
100
AcDbEntity
  8
0
  6
Continuous
 62
     7
100
AcDbLine
 10
130.7739807287057
 20
212.9414707745868
 30
0.0
 11
130.494603622224
 21
212.7479036428051
 31
0.0
  0
LINE
  5
22F
330
2
100
AcDbEntity
  8
0
  6
Continuous
 62
     7
100
AcDbLine
 10
128.7460955181131
 20
212.7628225836509
 30
0.0
 11
128.5239807287057
 21
212.9414707745868
 31
0.0
  0
LINE
  5
230
330
2
100
AcDbEntity
  8
0
  6
Continuous
 62
     7
100
AcDbLine
 10
127.9719736848974
 20
212.5590113041639
 30
0.0
 11
128.5239807287057
 21
212.9414707745868
 31
0.0
  0
LINE
  5
231
330
2
100
AcDbEntity
  8
0
  6
Continuous
 62
     7
100
AcDbLine
 10
127.7688270121893
 20
212.7224033307407
 30
0.0
 11
128.3208340559974
 21
213.1048628011636
 31
0.0
  0
LINE
  5
232
330
2
100
AcDbEntity
  8
0
  6
Continuous
 62
     7
100
AcDbLine
 10
128.979553270384
 20
210.0974033307407
 30
0.0
 11
129.729553270384
 21
210.0974033307407
 31
0.0
  0
LINE
  5
233
330
2
100
AcDbEntity
  8
0
  6
Continuous
 62
     7
100
AcDbLine
 10
127.7425877419741
 20
210.2651546498301
 30
0.0
 11
127.9719736848974
 21
212.5590113041639
 31
0.0
  0
LINE
  5
234
330
2
100
AcDbEntity
  8
0
  6
Continuous
 62
     7
100
AcDbLine
 10
128.5351265378878
 20
213.2533358868946
 30
0.0
 11
128.8145036443697
 21
213.4469030186763
 31
0.0
  0
LINE
  5
235
330
2
100
AcDbEntity
  8
0
  6
Continuous
 62
     7
100
AcDbLine
 10
130.5630117484804
 20
213.4319840778305
 30
0.0
 11
130.7851265378878
 21
213.2533358868946
 31
0.0
  0
ARC
  5
236
330
2
100
AcDbEntity
  8
0
  6
Continuous
 62
     7
100
AcDbCircle
 10
128.7125590088899
 20
216.4474033307407
 30
0.0
 40
0.4
100
AcDbArc
 50
60.35465686428244
 51
90.0
  0
ARC
  5
237
330
2
100
AcDbEntity
  8
0
  6
Continuous
 62
     7
100
AcDbCircle
 10
128.7125590088899
 20
216.4474033307407
 30
0.0
 40
0.4
100
AcDbArc
 50
354.2893999999998
 51
23.93474313571708
  0
LINE
  5
238
330
2
100
AcDbEntity
  8
0
  6
Continuous
 62
     7
100
AcDbLine
 10
129.0781622555114
 20
216.6096816905422
 30
0.0
 11
128.3072769788309
 21
215.9120401873066
 31
0.0
  0
LINE
  5
239
330
2
100
AcDbEntity
  8
0
  6
Continuous
 62
     7
100
AcDbLine
 10
128.9104109364218
 20
216.7950448339762
 30
0.0
 11
128.1395256597413
 21
216.0974033307407
 31
0.0
  0
ARC
  5
23A
330
2
100
AcDbEntity
  8
0
  6
Continuous
 62
     7
100
AcDbCircle
 10
131.2665490682093
 20
216.4474033307407
 30
0.0
 40
0.4
100
AcDbArc
 50
150.3546568642828
 51
174.2893999999998
  0
LINE
  5
23B
330
2
100
AcDbEntity
  8
0
  6
Continuous
 62
     7
100
AcDbLine
 10
128.0781603245832
 20
213.6208764164717
 30
0.0
 11
128.3072769788309
 21
215.9120401873066
 31
0.0
  0
LINE
  5
23C
330
2
100
AcDbEntity
  8
0
  6
Continuous
 62
     7
100
AcDbLine
 10
126.0871335816962
 20
213.6357953573174
 30
0.0
 11
125.5351265378878
 21
213.2533358868946
 31
0.0
  0
LINE
  5
23D
330
2
100
AcDbEntity
  8
0
  6
Continuous
 62
     7
100
AcDbLine
 10
126.2902802544042
 20
213.4724033307407
 30
0.0
 11
125.7382732105961
 21
213.0899438603178
 31
0.0
  0
LINE
  5
23E
330
2
100
AcDbEntity
  8
0
  6
Continuous
 62
     7
100
AcDbLine
 10
123.5645036443697
 20
213.4469030186763
 30
0.0
 11
123.8605738802066
 21
216.4076017954608
 31
0.0
  0
LINE
  5
23F
330
2
100
AcDbEntity
  8
0
  6
Continuous
 62
     7
100
AcDbLine
 10
125.3130117484802
 20
213.4319840778305
 30
0.0
 11
125.6185341968923
 21
216.4872048660206
 31
0.0
  0
LINE
  5
240
330
2
100
AcDbEntity
  8
0
  6
Continuous
 62
     7
100
AcDbLine
 10
125.5239807287057
 20
212.9414707745868
 30
0.0
 11
125.9809469420106
 21
212.5739302450097
 31
0.0
  0
LINE
  5
241
330
2
100
AcDbEntity
  8
0
  6
Continuous
 62
     7
100
AcDbLine
 10
125.5239807287057
 20
212.9414707745868
 30
0.0
 11
125.244603622224
 21
212.7479036428051
 31
0.0
  0
LINE
  5
242
330
2
100
AcDbEntity
  8
0
  6
Continuous
 62
     7
100
AcDbLine
 10
125.7518302877626
 20
210.2827664741746
 30
0.0
 11
125.9809469420106
 21
212.5739302450097
 31
0.0
  0
LINE
  5
243
330
2
100
AcDbEntity
  8
0
  6
Continuous
 62
     7
100
AcDbLine
 10
125.3130117484802
 20
213.4319840778305
 30
0.0
 11
125.5351265378878
 21
213.2533358868946
 31
0.0
  0
LINE
  5
244
330
2
100
AcDbEntity
  8
0
  6
Continuous
 62
     7
100
AcDbLine
 10
125.7382732105961
 20
213.0899438603178
 30
0.0
 11
126.195239423901
 21
212.7224033307407
 31
0.0
  0
ARC
  5
245
330
2
100
AcDbEntity
  8
0
  6
Continuous
 62
     7
100
AcDbCircle
 10
123.4625590088899
 20
216.4474033307407
 30
0.0
 40
0.4
100
AcDbArc
 50
60.35465686428244
 51
90.0
  0
ARC
  5
246
330
2
100
AcDbEntity
  8
0
  6
Continuous
 62
     7
100
AcDbCircle
 10
123.4625590088899
 20
216.4474033307407
 30
0.0
 40
0.4
100
AcDbArc
 50
354.2893999999998
 51
23.93474313571708
  0
ARC
  5
247
330
2
100
AcDbEntity
  8
0
  6
Continuous
 62
     7
100
AcDbCircle
 10
126.0165490682093
 20
216.4474033307407
 30
0.0
 40
0.4
100
AcDbArc
 50
150.3546568642828
 51
174.2893999999998
  0
ARC
  5
248
330
2
100
AcDbEntity
  8
0
  6
Continuous
 62
     7
100
AcDbCircle
 10
126.0165490682093
 20
216.4474033307407
 30
0.0
 40
0.4
100
AcDbArc
 50
90.0
 51
113.9347431357165
  0
LINE
  5
249
330
2
100
AcDbEntity
  8
0
  6
Continuous
 62
     7
100
AcDbLine
 10
125.6689075649735
 20
216.6452552582726
 30
0.0
 11
126.3165195246197
 21
215.9296520116512
 31
0.0
  0
LINE
  5
24A
330
2
100
AcDbEntity
  8
0
  6
Continuous
 62
     7
100
AcDbLine
 10
125.8542707084075
 20
216.8130065773621
 30
0.0
 11
126.5018826680536
 21
216.0974033307407
 31
0.0
  0
LINE
  5
24B
330
2
100
AcDbEntity
  8
0
  6
Continuous
 62
     7
100
AcDbLine
 10
126.0871335816962
 20
213.6357953573174
 30
0.0
 11
126.3165195246197
 21
215.9296520116512
 31
0.0
  0
LINE
  5
24C
330
2
100
AcDbEntity
  8
0
  6
Continuous
 62
     7
100
AcDbLine
 10
126.195239423901
 20
212.7224033307407
 30
0.0
 11
127.7688270121893
 21
212.7224033307407
 31
0.0
  0
LINE
  5
24D
330
2
100
AcDbEntity
  8
0
  6
Continuous
 62
     7
100
AcDbLine
 10
125.9195816068522
 20
210.0974033307407
 30
0.0
 11
127.5572245985399
 21
210.0974033307407
 31
0.0
  0
LINE
  5
24E
330
2
100
AcDbEntity
  8
0
  6
Continuous
 62
     7
100
AcDbLine
 10
126.5018826680536
 20
216.0974033307407
 30
0.0
 11
128.1395256597413
 21
216.0974033307407
 31
0.0
  0
LINE
  5
24F
330
2
100
AcDbEntity
  8
0
  6
Continuous
 62
     7
100
AcDbLine
 10
126.0165490682093
 20
216.8474033307407
 30
0.0
 11
128.7125590088899
 21
216.8474033307407
 31
0.0
  0
LINE
  5
250
330
2
100
AcDbEntity
  8
0
  6
Continuous
 62
     7
100
AcDbLine
 10
126.2902802544042
 20
213.4724033307407
 30
0.0
 11
127.8638678426927
 21
213.4724033307407
 31
0.0
  0
LINE
  5
251
330
2
100
AcDbEntity
  8
0
  6
Continuous
 62
     7
100
AcDbLine
 10
136.895941092834
 20
203.9686921742215
 30
0.0
 11
136.5073739170465
 21
204.3980541221944
 31
0.0
  0
LINE
  5
252
330
2
100
AcDbEntity
  8
0
  6
Continuous
 62
     7
100
AcDbLine
 10
136.7847232067738
 20
203.8680413827679
 30
0.0
 11
136.3961560309862
 21
204.2974033307408
 31
0.0
  0
LINE
  5
253
330
2
100
AcDbEntity
  8
0
  6
Continuous
 62
     7
100
AcDbLine
 10
134.0545531796556
 20
203.8474033307407
 30
0.0
 11
134.0995532340925
 21
204.2974033307408
 31
0.0
  0
LINE
  5
254
330
2
100
AcDbEntity
  8
0
  6
Continuous
 62
     7
100
AcDbLine
 10
134.5045531796556
 20
203.8474033307407
 30
0.0
 11
134.5495532340926
 21
204.2974033307408
 31
0.0
  0
ARC
  5
255
330
2
100
AcDbEntity
  8
0
  6
Continuous
 62
     7
100
AcDbCircle
 10
135.0697502264845
 20
204.0874033307407
 30
0.0
 40
0.24
100
AcDbArc
 50
174.2893999999998
 51
203.9347431357171
  0
LINE
  5
256
330
2
100
AcDbEntity
  8
0
  6
Continuous
 62
     7
100
AcDbLine
 10
134.9510390699654
 20
203.8788184287994
 30
0.0
 11
135.4135702359735
 21
204.2974033307408
 31
0.0
  0
LINE
  5
257
330
2
100
AcDbEntity
  8
0
  6
Continuous
 62
     7
100
AcDbLine
 10
134.8503882785116
 20
203.9900363148597
 30
0.0
 11
135.31291944452
 21
204.4086212168011
 31
0.0
  0
ARC
  5
258
330
2
100
AcDbEntity
  8
0
  6
Continuous
 62
     7
100
AcDbCircle
 10
133.5373561908929
 20
204.0874033307407
 30
0.0
 40
0.24
100
AcDbArc
 50
330.3546568642828
 51
354.2893999999998
  0
ARC
  5
259
330
2
100
AcDbEntity
  8
0
  6
Continuous
 62
     7
100
AcDbCircle
 10
131.9197502264846
 20
204.0874033307407
 30
0.0
 40
0.24
100
AcDbArc
 50
174.2893999999998
 51
203.9347431357171
  0
LINE
  5
25A
330
2
100
AcDbEntity
  8
0
  6
Continuous
 62
     7
100
AcDbLine
 10
131.8010390699653
 20
203.8788184287994
 30
0.0
 11
132.2635702359737
 21
204.2974033307408
 31
0.0
  0
LINE
  5
25B
330
2
100
AcDbEntity
  8
0
  6
Continuous
 62
     7
100
AcDbLine
 10
131.7003882785115
 20
203.9900363148597
 30
0.0
 11
132.1629194445199
 21
204.4086212168011
 31
0.0
  0
LINE
  5
25C
330
2
100
AcDbEntity
  8
0
  6
Continuous
 62
     7
100
AcDbLine
 10
133.7459410928342
 20
203.9686921742215
 30
0.0
 11
133.3573739170467
 21
204.3980541221944
 31
0.0
  0
LINE
  5
25D
330
2
100
AcDbEntity
  8
0
  6
Continuous
 62
     7
100
AcDbLine
 10
133.6347232067737
 20
203.8680413827679
 30
0.0
 11
133.2461560309861
 21
204.2974033307408
 31
0.0
  0
ARC
  5
25E
330
2
100
AcDbEntity
  8
0
  6
Continuous
 62
     7
100
AcDbCircle
 10
136.6873561908928
 20
204.0874033307407
 30
0.0
 40
0.24
100
AcDbArc
 50
330.3546568642828
 51
354.2893999999998
  0
LINE
  5
25F
330
2
100
AcDbEntity
  8
0
  6
Continuous
 62
     7
100
AcDbLine
 10
135.0697502264845
 20
203.8474033307407
 30
0.0
 11
136.6873561908928
 21
203.8474033307407
 31
0.0
  0
LINE
  5
260
330
2
100
AcDbEntity
  8
0
  6
Continuous
 62
     7
100
AcDbLine
 10
134.0545531796556
 20
203.8474033307407
 30
0.0
 11
134.5045531796556
 21
203.8474033307407
 31
0.0
  0
ARC
  5
261
330
2
100
AcDbEntity
  8
0
  6
Continuous
 62
     7
100
AcDbCircle
 10
135.0697502264845
 20
204.0874033307407
 30
0.0
 40
0.24
100
AcDbArc
 50
240.3546568642834
 51
270.0
  0
ARC
  5
262
330
2
100
AcDbEntity
  8
0
  6
Continuous
 62
     7
100
AcDbCircle
 10
133.5373561908929
 20
204.0874033307407
 30
0.0
 40
0.24
100
AcDbArc
 50
270.0
 51
293.9347431357165
  0
ARC
  5
263
330
2
100
AcDbEntity
  8
0
  6
Continuous
 62
     7
100
AcDbCircle
 10
131.9197502264846
 20
204.0874033307407
 30
0.0
 40
0.24
100
AcDbArc
 50
240.3546568642834
 51
270.0
  0
LINE
  5
264
330
2
100
AcDbEntity
  8
0
  6
Continuous
 62
     7
100
AcDbLine
 10
131.9197502264846
 20
203.8474033307407
 30
0.0
 11
133.5373561908929
 21
203.8474033307407
 31
0.0
  0
ARC
  5
265
330
2
100
AcDbEntity
  8
0
  6
Continuous
 62
     7
100
AcDbCircle
 10
136.6873561908928
 20
204.0874033307407
 30
0.0
 40
0.24
100
AcDbArc
 50
270.0
 51
293.9347431357165
  0
LINE
  5
266
330
2
100
AcDbEntity
  8
0
  6
Continuous
 62
     7
100
AcDbLine
 10
135.7629508726945
 20
207.8974033307406
 30
0.0
 11
136.7455366677072
 21
207.8974033307406
 31
0.0
  0
LINE
  5
267
330
2
100
AcDbEntity
  8
0
  6
Continuous
 62
     7
100
AcDbLine
 10
135.4717507127877
 20
208.3474033307407
 30
0.0
 11
137.0893566771962
 21
208.3474033307407
 31
0.0
  0
LINE
  5
268
330
2
100
AcDbEntity
  8
0
  6
Continuous
 62
     7
100
AcDbLine
 10
136.8543217054607
 20
206.1018790129945
 30
0.0
 11
136.5801419774779
 21
206.3224033307407
 31
0.0
  0
LINE
  5
269
330
2
100
AcDbEntity
  8
0
  6
Continuous
 62
     7
100
AcDbLine
 10
136.6450054828007
 20
205.7743681147947
 30
0.0
 11
136.9762097090856
 21
206.0038437970484
 31
0.0
  0
LINE
  5
26A
330
2
100
AcDbEntity
  8
0
  6
Continuous
 62
     7
100
AcDbLine
 10
136.5231174791758
 20
205.8724033307407
 30
0.0
 11
136.8543217054607
 21
206.1018790129945
 31
0.0
  0
LINE
  5
26B
330
2
100
AcDbEntity
  8
0
  6
Continuous
 62
     7
100
AcDbLine
 10
135.4135702359735
 20
204.2974033307408
 30
0.0
 11
136.3961560309862
 21
204.2974033307408
 31
0.0
  0
LINE
  5
26C
330
2
100
AcDbEntity
  8
0
  6
Continuous
 62
     7
100
AcDbLine
 10
135.6359894245047
 20
206.3224033307407
 30
0.0
 11
136.5801419774779
 21
206.3224033307407
 31
0.0
  0
LINE
  5
26D
330
2
100
AcDbEntity
  8
0
  6
Continuous
 62
     7
100
AcDbLine
 10
135.5789649262028
 20
205.8724033307407
 30
0.0
 11
136.5231174791758
 21
205.8724033307407
 31
0.0
  0
LINE
  5
26E
330
2
100
AcDbEntity
  8
0
  6
Continuous
 62
     7
100
AcDbLine
 10
134.0995532340925
 20
204.2974033307408
 30
0.0
 11
134.5495532340926
 21
204.2974033307408
 31
0.0
  0
ARC
  5
26F
330
2
100
AcDbEntity
  8
0
  6
Continuous
 62
     7
100
AcDbCircle
 10
135.4717507127877
 20
208.1074033307407
 30
0.0
 40
0.24
100
AcDbArc
 50
150.3546568642828
 51
174.2893999999998
  0
ARC
  5
270
330
2
100
AcDbEntity
  8
0
  6
Continuous
 62
     7
100
AcDbCircle
 10
135.4717507127877
 20
208.1074033307407
 30
0.0
 40
0.24
100
AcDbArc
 50
90.0
 51
113.9347431357165
  0
LINE
  5
271
330
2
100
AcDbEntity
  8
0
  6
Continuous
 62
     7
100
AcDbLine
 10
135.2631658108464
 20
208.2261144872598
 30
0.0
 11
135.6517329866339
 21
207.796752539287
 31
0.0
  0
ARC
  5
272
330
2
100
AcDbEntity
  8
0
  6
Continuous
 62
     7
100
AcDbCircle
 10
133.9393566771962
 20
208.1074033307407
 30
0.0
 40
0.24
100
AcDbArc
 50
354.2893999999998
 51
23.93474313571708
  0
ARC
  5
273
330
2
100
AcDbEntity
  8
0
  6
Continuous
 62
     7
100
AcDbCircle
 10
133.9393566771962
 20
208.1074033307407
 30
0.0
 40
0.24
100
AcDbArc
 50
60.35465686428244
 51
90.0
  0
LINE
  5
274
330
2
100
AcDbEntity
  8
0
  6
Continuous
 62
     7
100
AcDbLine
 10
135.31291944452
 20
204.4086212168011
 30
0.0
 11
135.4503894370686
 21
205.7833194793021
 31
0.0
  0
LINE
  5
275
330
2
100
AcDbEntity
  8
0
  6
Continuous
 62
     7
100
AcDbLine
 10
133.7761651136829
 20
204.0635224095727
 30
0.0
 11
133.9594785827302
 21
205.8966548824868
 31
0.0
  0
LINE
  5
276
330
2
100
AcDbEntity
  8
0
  6
Continuous
 62
     7
100
AcDbLine
 10
134.8309413036945
 20
204.1112842519086
 30
0.0
 11
135.0085834451965
 21
205.8877035179794
 31
0.0
  0
LINE
  5
277
330
2
100
AcDbEntity
  8
0
  6
Continuous
 62
     7
100
AcDbLine
 10
135.51410142088
 20
206.4204385466867
 30
0.0
 11
135.1828971945951
 21
206.190962864433
 31
0.0
  0
LINE
  5
278
330
2
100
AcDbEntity
  8
0
  6
Continuous
 62
     7
100
AcDbLine
 10
135.0496283209504
 20
206.2981517789946
 30
0.0
 11
135.1828971945951
 21
206.190962864433
 31
0.0
  0
LINE
  5
279
330
2
100
AcDbEntity
  8
0
  6
Continuous
 62
     7
100
AcDbLine
 10
135.6359894245047
 20
206.3224033307407
 30
0.0
 11
135.3047851982198
 21
206.0929276484869
 31
0.0
  0
LINE
  5
27A
330
2
100
AcDbEntity
  8
0
  6
Continuous
 62
     7
100
AcDbLine
 10
133.832897194595
 20
206.190962864433
 30
0.0
 11
134.0005234584841
 21
206.307103143502
 31
0.0
  0
LINE
  5
27B
330
2
100
AcDbEntity
  8
0
  6
Continuous
 62
     7
100
AcDbLine
 10
135.3047851982198
 20
206.0929276484869
 30
0.0
 11
135.5789649262028
 21
205.8724033307407
 31
0.0
  0
LINE
  5
27C
330
2
100
AcDbEntity
  8
0
  6
Continuous
 62
     7
100
AcDbLine
 10
135.1762097090857
 20
206.0038437970484
 30
0.0
 11
135.4503894370686
 21
205.7833194793021
 31
0.0
  0
LINE
  5
27D
330
2
100
AcDbEntity
  8
0
  6
Continuous
 62
     7
100
AcDbLine
 10
133.9594785827302
 20
205.8966548824868
 30
0.0
 11
133.8262097090855
 21
206.0038437970484
 31
0.0
  0
LINE
  5
27E
330
2
100
AcDbEntity
  8
0
  6
Continuous
 62
     7
100
AcDbLine
 10
135.1762097090857
 20
206.0038437970484
 30
0.0
 11
135.0085834451965
 21
205.8877035179794
 31
0.0
  0
LINE
  5
27F
330
2
100
AcDbEntity
  8
0
  6
Continuous
 62
     7
100
AcDbLine
 10
135.0496283209504
 20
206.2981517789946
 30
0.0
 11
135.2329417899977
 21
208.1312842519086
 31
0.0
  0
LINE
  5
280
330
2
100
AcDbEntity
  8
0
  6
Continuous
 62
     7
100
AcDbLine
 10
135.51410142088
 20
206.4204385466867
 30
0.0
 11
135.6517329866339
 21
207.796752539287
 31
0.0
  0
LINE
  5
281
330
2
100
AcDbEntity
  8
0
  6
Continuous
 62
     7
100
AcDbLine
 10
134.0005234584841
 20
206.307103143502
 30
0.0
 11
134.1781655999861
 21
208.0835224095728
 31
0.0
  0
LINE
  5
282
330
2
100
AcDbEntity
  8
0
  6
Continuous
 62
     7
100
AcDbLine
 10
135.3743836969069
 20
208.3267652787135
 30
0.0
 11
135.7629508726945
 21
207.8974033307406
 31
0.0
  0
LINE
  5
283
330
2
100
AcDbEntity
  8
0
  6
Continuous
 62
     7
100
AcDbLine
 10
136.5073739170465
 20
204.3980541221944
 30
0.0
 11
136.6450054828007
 21
205.7743681147947
 31
0.0
  0
LINE
  5
284
330
2
100
AcDbEntity
  8
0
  6
Continuous
 62
     7
100
AcDbLine
 10
133.558717466612
 20
206.4114871821792
 30
0.0
 11
133.6961874591606
 21
207.7861854446803
 31
0.0
  0
LINE
  5
285
330
2
100
AcDbEntity
  8
0
  6
Continuous
 62
     7
100
AcDbLine
 10
134.0580678337152
 20
208.315988232682
 30
0.0
 11
133.5955366677071
 21
207.8974033307406
 31
0.0
  0
LINE
  5
286
330
2
100
AcDbEntity
  8
0
  6
Continuous
 62
     7
100
AcDbLine
 10
134.158718625169
 20
208.2047703466217
 30
0.0
 11
133.6961874591606
 21
207.7861854446803
 31
0.0
  0
LINE
  5
287
330
2
100
AcDbEntity
  8
0
  6
Continuous
 62
     7
100
AcDbLine
 10
133.832897194595
 20
206.190962864433
 30
0.0
 11
133.558717466612
 21
206.4114871821792
 31
0.0
  0
LINE
  5
288
330
2
100
AcDbEntity
  8
0
  6
Continuous
 62
     7
100
AcDbLine
 10
133.4950054828007
 20
205.7743681147947
 30
0.0
 11
133.8262097090855
 21
206.0038437970484
 31
0.0
  0
LINE
  5
289
330
2
100
AcDbEntity
  8
0
  6
Continuous
 62
     7
100
AcDbLine
 10
132.2243836969068
 20
208.3267652787135
 30
0.0
 11
132.6129508726944
 21
207.8974033307406
 31
0.0
  0
LINE
  5
28A
330
2
100
AcDbEntity
  8
0
  6
Continuous
 62
     7
100
AcDbLine
 10
132.1131658108465
 20
208.2261144872598
 30
0.0
 11
132.5017329866341
 21
207.796752539287
 31
0.0
  0
ARC
  5
28B
330
2
100
AcDbEntity
  8
0
  6
Continuous
 62
     7
100
AcDbCircle
 10
132.3217507127878
 20
208.1074033307407
 30
0.0
 40
0.24
100
AcDbArc
 50
90.0
 51
113.9347431357165
  0
LINE
  5
28C
330
2
100
AcDbEntity
  8
0
  6
Continuous
 62
     7
100
AcDbLine
 10
132.1629194445199
 20
204.4086212168011
 30
0.0
 11
132.3003894370685
 21
205.7833194793021
 31
0.0
  0
LINE
  5
28D
330
2
100
AcDbEntity
  8
0
  6
Continuous
 62
     7
100
AcDbLine
 10
132.4859894245048
 20
206.3224033307407
 30
0.0
 11
132.1547851982199
 21
206.0929276484869
 31
0.0
  0
LINE
  5
28E
330
2
100
AcDbEntity
  8
0
  6
Continuous
 62
     7
100
AcDbLine
 10
132.3641014208799
 20
206.4204385466867
 30
0.0
 11
132.032897194595
 21
206.190962864433
 31
0.0
  0
LINE
  5
28F
330
2
100
AcDbEntity
  8
0
  6
Continuous
 62
     7
100
AcDbLine
 10
132.0262097090856
 20
206.0038437970484
 30
0.0
 11
132.3003894370685
 21
205.7833194793021
 31
0.0
  0
LINE
  5
290
330
2
100
AcDbEntity
  8
0
  6
Continuous
 62
     7
100
AcDbLine
 10
132.1547851982199
 20
206.0929276484869
 30
0.0
 11
132.4289649262027
 21
205.8724033307407
 31
0.0
  0
ARC
  5
291
330
2
100
AcDbEntity
  8
0
  6
Continuous
 62
     7
100
AcDbCircle
 10
132.3217507127878
 20
208.1074033307407
 30
0.0
 40
0.24
100
AcDbArc
 50
150.3546568642828
 51
174.2893999999998
  0
LINE
  5
292
330
2
100
AcDbEntity
  8
0
  6
Continuous
 62
     7
100
AcDbLine
 10
131.8996283209505
 20
206.2981517789946
 30
0.0
 11
132.032897194595
 21
206.190962864433
 31
0.0
  0
LINE
  5
293
330
2
100
AcDbEntity
  8
0
  6
Continuous
 62
     7
100
AcDbLine
 10
131.8996283209505
 20
206.2981517789946
 30
0.0
 11
132.0829417899976
 21
208.1312842519086
 31
0.0
  0
LINE
  5
294
330
2
100
AcDbEntity
  8
0
  6
Continuous
 62
     7
100
AcDbLine
 10
132.2635702359737
 20
204.2974033307408
 30
0.0
 11
133.2461560309861
 21
204.2974033307408
 31
0.0
  0
LINE
  5
295
330
2
100
AcDbEntity
  8
0
  6
Continuous
 62
     7
100
AcDbLine
 10
132.4289649262027
 20
205.8724033307407
 30
0.0
 11
133.373117479176
 21
205.8724033307407
 31
0.0
  0
LINE
  5
296
330
2
100
AcDbEntity
  8
0
  6
Continuous
 62
     7
100
AcDbLine
 10
132.4859894245048
 20
206.3224033307407
 30
0.0
 11
133.4301419774778
 21
206.3224033307407
 31
0.0
  0
LINE
  5
297
330
2
100
AcDbEntity
  8
0
  6
Continuous
 62
     7
100
AcDbLine
 10
132.3641014208799
 20
206.4204385466867
 30
0.0
 11
132.5017329866341
 21
207.796752539287
 31
0.0
  0
LINE
  5
298
330
2
100
AcDbEntity
  8
0
  6
Continuous
 62
     7
100
AcDbLine
 10
131.6809413036944
 20
204.1112842519086
 30
0.0
 11
131.8585834451966
 21
205.8877035179794
 31
0.0
  0
LINE
  5
299
330
2
100
AcDbEntity
  8
0
  6
Continuous
 62
     7
100
AcDbLine
 10
132.0262097090856
 20
206.0038437970484
 30
0.0
 11
131.8585834451966
 21
205.8877035179794
 31
0.0
  0
LINE
  5
29A
330
2
100
AcDbEntity
  8
0
  6
Continuous
 62
     7
100
AcDbLine
 10
132.6129508726944
 20
207.8974033307406
 30
0.0
 11
133.5955366677071
 21
207.8974033307406
 31
0.0
  0
LINE
  5
29B
330
2
100
AcDbEntity
  8
0
  6
Continuous
 62
     7
100
AcDbLine
 10
133.3573739170467
 20
204.3980541221944
 30
0.0
 11
133.4950054828007
 21
205.7743681147947
 31
0.0
  0
LINE
  5
29C
330
2
100
AcDbEntity
  8
0
  6
Continuous
 62
     7
100
AcDbLine
 10
133.7043217054608
 20
206.1018790129945
 30
0.0
 11
133.4301419774778
 21
206.3224033307407
 31
0.0
  0
LINE
  5
29D
330
2
100
AcDbEntity
  8
0
  6
Continuous
 62
     7
100
AcDbLine
 10
133.373117479176
 20
205.8724033307407
 30
0.0
 11
133.7043217054608
 21
206.1018790129945
 31
0.0
  0
LINE
  5
29E
330
2
100
AcDbEntity
  8
0
  6
Continuous
 62
     7
100
AcDbLine
 10
132.3217507127878
 20
208.3474033307407
 30
0.0
 11
133.9393566771962
 21
208.3474033307407
 31
0.0
  0
ARC
  5
29F
330
2
100
AcDbEntity
  8
0
  6
Continuous
 62
     7
100
AcDbCircle
 10
137.0893566771962
 20
208.1074033307407
 30
0.0
 40
0.24
100
AcDbArc
 50
60.35465686428244
 51
90.0
  0
LINE
  5
2A0
330
2
100
AcDbEntity
  8
0
  6
Continuous
 62
     7
100
AcDbLine
 10
137.3087186251691
 20
208.2047703466217
 30
0.0
 11
136.8461874591607
 21
207.7861854446803
 31
0.0
  0
LINE
  5
2A1
330
2
100
AcDbEntity
  8
0
  6
Continuous
 62
     7
100
AcDbLine
 10
137.2080678337153
 20
208.315988232682
 30
0.0
 11
136.7455366677072
 21
207.8974033307406
 31
0.0
  0
LINE
  5
2A2
330
2
100
AcDbEntity
  8
0
  6
Continuous
 62
     7
100
AcDbLine
 10
136.9828971945951
 20
206.190962864433
 30
0.0
 11
137.150523458484
 21
206.307103143502
 31
0.0
  0
LINE
  5
2A3
330
2
100
AcDbEntity
  8
0
  6
Continuous
 62
     7
100
AcDbLine
 10
136.926165113683
 20
204.0635224095727
 30
0.0
 11
137.1094785827303
 21
205.8966548824868
 31
0.0
  0
LINE
  5
2A4
330
2
100
AcDbEntity
  8
0
  6
Continuous
 62
     7
100
AcDbLine
 10
136.9828971945951
 20
206.190962864433
 30
0.0
 11
136.7087174666121
 21
206.4114871821792
 31
0.0
  0
LINE
  5
2A5
330
2
100
AcDbEntity
  8
0
  6
Continuous
 62
     7
100
AcDbLine
 10
137.1094785827303
 20
205.8966548824868
 30
0.0
 11
136.9762097090856
 21
206.0038437970484
 31
0.0
  0
LINE
  5
2A6
330
2
100
AcDbEntity
  8
0
  6
Continuous
 62
     7
100
AcDbLine
 10
136.7087174666121
 20
206.4114871821792
 30
0.0
 11
136.8461874591607
 21
207.7861854446803
 31
0.0
  0
ARC
  5
2A7
330
2
100
AcDbEntity
  8
0
  6
Continuous
 62
     7
100
AcDbCircle
 10
137.0893566771962
 20
208.1074033307407
 30
0.0
 40
0.24
100
AcDbArc
 50
354.2893999999998
 51
23.93474313571708
  0
LINE
  5
2A8
330
2
100
AcDbEntity
  8
0
  6
Continuous
 62
     7
100
AcDbLine
 10
137.150523458484
 20
206.307103143502
 30
0.0
 11
137.3281655999862
 21
208.0835224095728
 31
0.0
  0
ARC
  5
2A9
330
2
100
AcDbEntity
  8
0
  6
Continuous
 62
     7
100
AcDbCircle
 10
132.2045531796556
 20
220.3474033307407
 30
0.0
 40
0.5
100
AcDbArc
 50
270.0
 51
0.0
  0
LINE
  5
2AA
330
2
100
AcDbEntity
  8
0
  6
Continuous
 62
     7
100
AcDbLine
 10
132.7045531796557
 20
220.3474033307407
 30
0.0
 11
132.7045531796557
 21
220.3474033307407
 31
0.0
  0
ARC
  5
2AB
330
2
100
AcDbEntity
  8
0
  6
Continuous
 62
     7
100
AcDbCircle
 10
132.2045531796556
 20
220.3474033307407
 30
0.0
 40
0.5
100
AcDbArc
 50
0.0
 51
90.0
  0
LINE
  5
2AC
330
2
100
AcDbEntity
  8
0
  6
Continuous
 62
     7
100
AcDbLine
 10
133.6905730697012
 20
209.7076017954607
 30
0.0
 11
133.9960955181131
 21
212.7628225836509
 31
0.0
  0
LINE
  5
2AD
330
2
100
AcDbEntity
  8
0
  6
Continuous
 62
     7
100
AcDbLine
 10
133.64019970162
 20
209.5495514032087
 30
0.0
 11
132.9925877419741
 21
210.2651546498301
 31
0.0
  0
LINE
  5
2AE
330
2
100
AcDbEntity
  8
0
  6
Continuous
 62
     7
100
AcDbLine
 10
133.4548365581858
 20
209.3818000841193
 30
0.0
 11
132.8072245985399
 21
210.0974033307407
 31
0.0
  0
ARC
  5
2AF
330
2
100
AcDbEntity
  8
0
  6
Continuous
 62
     7
100
AcDbCircle
 10
133.2925581983845
 20
209.7474033307407
 30
0.0
 40
0.4
100
AcDbArc
 50
330.3546568642828
 51
354.2893999999998
  0
ARC
  5
2B0
330
2
100
AcDbEntity
  8
0
  6
Continuous
 62
     7
100
AcDbCircle
 10
133.2925581983845
 20
209.7474033307407
 30
0.0
 40
0.4
100
AcDbArc
 50
270.0
 51
293.9347431357165
  0
LINE
  5
2B1
330
2
100
AcDbEntity
  8
0
  6
Continuous
 62
     7
100
AcDbLine
 10
134.0645036443697
 20
213.4469030186763
 30
0.0
 11
134.3605738802065
 21
216.4076017954608
 31
0.0
  0
LINE
  5
2B2
330
2
100
AcDbEntity
  8
0
  6
Continuous
 62
     7
100
AcDbLine
 10
133.9960955181131
 20
212.7628225836509
 30
0.0
 11
133.7739807287057
 21
212.9414707745868
 31
0.0
  0
LINE
  5
2B3
330
2
100
AcDbEntity
  8
0
  6
Continuous
 62
     7
100
AcDbLine
 10
133.7851265378878
 20
213.2533358868946
 30
0.0
 11
134.0645036443697
 21
213.4469030186763
 31
0.0
  0
LINE
  5
2B4
330
2
100
AcDbEntity
  8
0
  6
Continuous
 62
     7
100
AcDbLine
 10
134.3281622555114
 20
216.6096816905422
 30
0.0
 11
133.5572769788309
 21
215.9120401873066
 31
0.0
  0
ARC
  5
2B5
330
2
100
AcDbEntity
  8
0
  6
Continuous
 62
     7
100
AcDbCircle
 10
133.9625590088899
 20
216.4474033307407
 30
0.0
 40
0.4
100
AcDbArc
 50
354.2893999999998
 51
23.93474313571708
  0
ARC
  5
2B6
330
2
100
AcDbEntity
  8
0
  6
Continuous
 62
     7
100
AcDbCircle
 10
133.9625590088899
 20
216.4474033307407
 30
0.0
 40
0.4
100
AcDbArc
 50
60.35465686428244
 51
90.0
  0
LINE
  5
2B7
330
2
100
AcDbEntity
  8
0
  6
Continuous
 62
     7
100
AcDbLine
 10
132.9925877419741
 20
210.2651546498301
 30
0.0
 11
133.2219736848974
 21
212.5590113041639
 31
0.0
  0
LINE
  5
2B8
330
2
100
AcDbEntity
  8
0
  6
Continuous
 62
     7
100
AcDbLine
 10
131.445239423901
 20
212.7224033307407
 30
0.0
 11
133.0188270121893
 21
212.7224033307407
 31
0.0
  0
LINE
  5
2B9
330
2
100
AcDbEntity
  8
0
  6
Continuous
 62
     7
100
AcDbLine
 10
131.7518826680535
 20
216.0974033307407
 30
0.0
 11
133.3895256597413
 21
216.0974033307407
 31
0.0
  0
LINE
  5
2BA
330
2
100
AcDbEntity
  8
0
  6
Continuous
 62
     7
100
AcDbLine
 10
131.5402802544042
 20
213.4724033307407
 30
0.0
 11
133.1138678426927
 21
213.4724033307407
 31
0.0
  0
LINE
  5
2BB
330
2
100
AcDbEntity
  8
0
  6
Continuous
 62
     7
100
AcDbLine
 10
133.5708340559974
 20
213.1048628011636
 30
0.0
 11
133.1138678426927
 21
213.4724033307407
 31
0.0
  0
LINE
  5
2BC
330
2
100
AcDbEntity
  8
0
  6
Continuous
 62
     7
100
AcDbLine
 10
133.7851265378878
 20
213.2533358868946
 30
0.0
 11
133.3281603245829
 21
213.6208764164717
 31
0.0
  0
LINE
  5
2BD
330
2
100
AcDbEntity
  8
0
  6
Continuous
 62
     7
100
AcDbLine
 10
133.0188270121893
 20
212.7224033307407
 30
0.0
 11
133.5708340559974
 21
213.1048628011636
 31
0.0
  0
LINE
  5
2BE
330
2
100
AcDbEntity
  8
0
  6
Continuous
 62
     7
100
AcDbLine
 10
133.2219736848974
 20
212.5590113041639
 30
0.0
 11
133.7739807287057
 21
212.9414707745868
 31
0.0
  0
LINE
  5
2BF
330
2
100
AcDbEntity
  8
0
  6
Continuous
 62
     7
100
AcDbLine
 10
134.1604109364218
 20
216.7950448339762
 30
0.0
 11
133.3895256597413
 21
216.0974033307407
 31
0.0
  0
LINE
  5
2C0
330
2
100
AcDbEntity
  8
0
  6
Continuous
 62
     7
100
AcDbLine
 10
133.3281603245829
 20
213.6208764164717
 30
0.0
 11
133.5572769788309
 21
215.9120401873066
 31
0.0
  0
ARC
  5
2C1
330
2
100
AcDbEntity
  8
0
  6
Continuous
 62
     7
 48
2.0
100
AcDbCircle
 10
113.2045531796577
 20
203.8474033307359
 30
0.0
 40
1.0
100
AcDbArc
 50
180.0
 51
270.0
  0
ARC
  5
2C2
330
2
100
AcDbEntity
  8
0
  6
Continuous
 62
     7
100
AcDbCircle
 10
117.2045531796557
 20
220.3474033307407
 30
0.0
 40
0.5
100
AcDbArc
 50
0.0
 51
90.0
  0
LINE
  5
2C3
330
2
100
AcDbEntity
  8
0
  6
Continuous
 62
     7
100
AcDbLine
 10
117.7045531796556
 20
220.3474033307407
 30
0.0
 11
117.7045531796556
 21
220.3474033307407
 31
0.0
  0
ARC
  5
2C4
330
2
100
AcDbEntity
  8
0
  6
Continuous
 62
     7
100
AcDbCircle
 10
117.2045531796557
 20
220.3474033307407
 30
0.0
 40
0.5
100
AcDbArc
 50
270.0
 51
0.0
  0
ARC
  5
2C5
330
2
100
AcDbEntity
  8
0
  6
Continuous
 62
     7
100
AcDbCircle
 10
119.7045531796556
 20
220.3474033307407
 30
0.0
 40
0.5
100
AcDbArc
 50
180.0
 51
270.0
  0
LINE
  5
2C6
330
2
100
AcDbEntity
  8
0
  6
Continuous
 62
     7
100
AcDbLine
 10
119.2045531796557
 20
220.3474033307407
 30
0.0
 11
119.2045531796557
 21
220.3474033307407
 31
0.0
  0
ARC
  5
2C7
330
2
100
AcDbEntity
  8
0
  6
Continuous
 62
     7
100
AcDbCircle
 10
119.7045531796556
 20
220.3474033307407
 30
0.0
 40
0.5
100
AcDbArc
 50
90.0
 51
180.0
  0
LINE
  5
2C8
330
2
100
AcDbEntity
  8
0
  6
Continuous
 62
     7
100
AcDbLine
 10
114.7045531796557
 20
220.8474033307407
 30
0.0
 11
117.2045531796557
 21
220.8474033307407
 31
0.0
  0
LINE
  5
2C9
330
2
100
AcDbEntity
  8
0
  6
Continuous
 62
     7
100
AcDbLine
 10
114.7045531796557
 20
219.8474033307407
 30
0.0
 11
117.2045531796557
 21
219.8474033307407
 31
0.0
  0
LINE
  5
2CA
330
2
100
AcDbEntity
  8
0
  6
Continuous
 62
     7
100
AcDbLine
 10
119.7045531796556
 20
219.8474033307407
 30
0.0
 11
122.2045531796557
 21
219.8474033307407
 31
0.0
  0
LINE
  5
2CB
330
2
100
AcDbEntity
  8
0
  6
Continuous
 62
     7
100
AcDbLine
 10
119.7045531796556
 20
220.8474033307407
 30
0.0
 11
122.2045531796557
 21
220.8474033307407
 31
0.0
  0
LINE
  5
2CC
330
2
100
AcDbEntity
  8
0
  6
Continuous
 62
     7
100
AcDbLine
 10
114.2045531796556
 20
220.3474033307407
 30
0.0
 11
114.2045531796556
 21
220.3474033307407
 31
0.0
  0
ARC
  5
2CD
330
2
100
AcDbEntity
  8
0
  6
Continuous
 62
     7
100
AcDbCircle
 10
114.7045531796557
 20
220.3474033307407
 30
0.0
 40
0.5
100
AcDbArc
 50
90.0
 51
180.0
  0
ARC
  5
2CE
330
2
100
AcDbEntity
  8
0
  6
Continuous
 62
     7
100
AcDbCircle
 10
114.7045531796557
 20
220.3474033307407
 30
0.0
 40
0.5
100
AcDbArc
 50
180.0
 51
270.0
  0
LINE
  5
2CF
330
2
100
AcDbEntity
  8
0
  6
Continuous
 62
     7
100
AcDbLine
 10
117.9405730697012
 20
209.7076017954607
 30
0.0
 11
118.2460955181131
 21
212.7628225836509
 31
0.0
  0
LINE
  5
2D0
330
2
100
AcDbEntity
  8
0
  6
Continuous
 62
     7
100
AcDbLine
 10
117.89019970162
 20
209.5495514032087
 30
0.0
 11
117.2425877419741
 21
210.2651546498301
 31
0.0
  0
LINE
  5
2D1
330
2
100
AcDbEntity
  8
0
  6
Continuous
 62
     7
100
AcDbLine
 10
117.7048365581858
 20
209.3818000841193
 30
0.0
 11
117.0572245985399
 21
210.0974033307407
 31
0.0
  0
LINE
  5
2D2
330
2
100
AcDbEntity
  8
0
  6
Continuous
 62
     7
100
AcDbLine
 10
118.4045531796557
 20
209.3474033307407
 30
0.0
 11
118.4795532703837
 21
210.0974033307407
 31
0.0
  0
LINE
  5
2D3
330
2
100
AcDbEntity
  8
0
  6
Continuous
 62
     7
100
AcDbLine
 10
119.1545531796557
 20
209.3474033307407
 30
0.0
 11
119.229553270384
 21
210.0974033307407
 31
0.0
  0
LINE
  5
2D4
330
2
100
AcDbEntity
  8
0
  6
Continuous
 62
     7
100
AcDbLine
 10
119.6985333863869
 20
209.7872048660206
 30
0.0
 11
119.994603622224
 21
212.7479036428051
 31
0.0
  0
LINE
  5
2D5
330
2
100
AcDbEntity
  8
0
  6
Continuous
 62
     7
100
AcDbLine
 10
119.8986963301717
 20
209.3997618275051
 30
0.0
 11
120.6695816068522
 21
210.0974033307407
 31
0.0
  0
LINE
  5
2D6
330
2
100
AcDbEntity
  8
0
  6
Continuous
 62
     7
100
AcDbLine
 10
119.7309450110824
 20
209.5851249709392
 30
0.0
 11
120.5018302877626
 21
210.2827664741746
 31
0.0
  0
LINE
  5
2D7
330
2
100
AcDbEntity
  8
0
  6
Continuous
 62
     7
100
AcDbLine
 10
114.4485333863869
 20
209.7872048660206
 30
0.0
 11
114.744603622224
 21
212.7479036428051
 31
0.0
  0
LINE
  5
2D8
330
2
100
AcDbEntity
  8
0
  6
Continuous
 62
     7
100
AcDbLine
 10
114.4809450110824
 20
209.5851249709392
 30
0.0
 11
115.2518302877626
 21
210.2827664741746
 31
0.0
  0
LINE
  5
2D9
330
2
100
AcDbEntity
  8
0
  6
Continuous
 62
     7
100
AcDbLine
 10
114.6486963301717
 20
209.3997618275051
 30
0.0
 11
115.4195816068522
 21
210.0974033307407
 31
0.0
  0
ARC
  5
2DA
330
2
100
AcDbEntity
  8
0
  6
Continuous
 62
     7
100
AcDbCircle
 10
117.5425581983845
 20
209.7474033307407
 30
0.0
 40
0.4
100
AcDbArc
 50
270.0
 51
293.9347431357165
  0
ARC
  5
2DB
330
2
100
AcDbEntity
  8
0
  6
Continuous
 62
     7
100
AcDbCircle
 10
117.5425581983845
 20
209.7474033307407
 30
0.0
 40
0.4
100
AcDbArc
 50
330.3546568642828
 51
354.2893999999998
  0
LINE
  5
2DC
330
2
100
AcDbEntity
  8
0
  6
Continuous
 62
     7
100
AcDbLine
 10
118.4045531796557
 20
209.3474033307407
 30
0.0
 11
119.1545531796557
 21
209.3474033307407
 31
0.0
  0
ARC
  5
2DD
330
2
100
AcDbEntity
  8
0
  6
Continuous
 62
     7
100
AcDbCircle
 10
120.0965482577037
 20
209.7474033307407
 30
0.0
 40
0.4
100
AcDbArc
 50
174.2893999999998
 51
203.9347431357171
  0
ARC
  5
2DE
330
2
100
AcDbEntity
  8
0
  6
Continuous
 62
     7
100
AcDbCircle
 10
120.0965482577037
 20
209.7474033307407
 30
0.0
 40
0.4
100
AcDbArc
 50
240.3546568642834
 51
270.0
  0
ARC
  5
2DF
330
2
100
AcDbEntity
  8
0
  6
Continuous
 62
     7
100
AcDbCircle
 10
114.8465482577037
 20
209.7474033307407
 30
0.0
 40
0.4
100
AcDbArc
 50
174.2893999999998
 51
203.9347431357171
  0
ARC
  5
2E0
330
2
100
AcDbEntity
  8
0
  6
Continuous
 62
     7
100
AcDbCircle
 10
114.8465482577037
 20
209.7474033307407
 30
0.0
 40
0.4
100
AcDbArc
 50
240.3546568642834
 51
270.0
  0
LINE
  5
2E1
330
2
100
AcDbEntity
  8
0
  6
Continuous
 62
     7
100
AcDbLine
 10
114.8465482577037
 20
209.3474033307407
 30
0.0
 11
117.5425581983845
 21
209.3474033307407
 31
0.0
  0
LINE
  5
2E2
330
2
100
AcDbEntity
  8
0
  6
Continuous
 62
     7
100
AcDbLine
 10
120.8371335816962
 20
213.6357953573174
 30
0.0
 11
120.2851265378878
 21
213.2533358868946
 31
0.0
  0
LINE
  5
2E3
330
2
100
AcDbEntity
  8
0
  6
Continuous
 62
     7
100
AcDbLine
 10
121.0402802544042
 20
213.4724033307407
 30
0.0
 11
120.4882732105961
 21
213.0899438603178
 31
0.0
  0
LINE
  5
2E4
330
2
100
AcDbEntity
  8
0
  6
Continuous
 62
     7
100
AcDbLine
 10
120.0630117484802
 20
213.4319840778305
 30
0.0
 11
120.3685341968923
 21
216.4872048660206
 31
0.0
  0
LINE
  5
2E5
330
2
100
AcDbEntity
  8
0
  6
Continuous
 62
     7
100
AcDbLine
 10
115.7902802544042
 20
213.4724033307407
 30
0.0
 11
115.2382732105961
 21
213.0899438603178
 31
0.0
  0
LINE
  5
2E6
330
2
100
AcDbEntity
  8
0
  6
Continuous
 62
     7
100
AcDbLine
 10
117.8208340559974
 20
213.1048628011636
 30
0.0
 11
117.3638678426927
 21
213.4724033307407
 31
0.0
  0
LINE
  5
2E7
330
2
100
AcDbEntity
  8
0
  6
Continuous
 62
     7
100
AcDbLine
 10
115.5871335816962
 20
213.6357953573174
 30
0.0
 11
115.0351265378878
 21
213.2533358868946
 31
0.0
  0
LINE
  5
2E8
330
2
100
AcDbEntity
  8
0
  6
Continuous
 62
     7
100
AcDbLine
 10
118.0351265378878
 20
213.2533358868946
 30
0.0
 11
117.5781603245832
 21
213.6208764164717
 31
0.0
  0
LINE
  5
2E9
330
2
100
AcDbEntity
  8
0
  6
Continuous
 62
     7
100
AcDbLine
 10
118.3145036443697
 20
213.4469030186763
 30
0.0
 11
118.6105738802066
 21
216.4076017954608
 31
0.0
  0
LINE
  5
2EA
330
2
100
AcDbEntity
  8
0
  6
Continuous
 62
     7
100
AcDbLine
 10
120.4882732105961
 20
213.0899438603178
 30
0.0
 11
120.945239423901
 21
212.7224033307407
 31
0.0
  0
LINE
  5
2EB
330
2
100
AcDbEntity
  8
0
  6
Continuous
 62
     7
100
AcDbLine
 10
120.2739807287057
 20
212.9414707745868
 30
0.0
 11
120.7309469420106
 21
212.5739302450097
 31
0.0
  0
LINE
  5
2EC
330
2
100
AcDbEntity
  8
0
  6
Continuous
 62
     7
100
AcDbLine
 10
120.5018302877626
 20
210.2827664741746
 30
0.0
 11
120.7309469420106
 21
212.5739302450097
 31
0.0
  0
LINE
  5
2ED
330
2
100
AcDbEntity
  8
0
  6
Continuous
 62
     7
100
AcDbLine
 10
120.0630117484802
 20
213.4319840778305
 30
0.0
 11
120.2851265378878
 21
213.2533358868946
 31
0.0
  0
LINE
  5
2EE
330
2
100
AcDbEntity
  8
0
  6
Continuous
 62
     7
100
AcDbLine
 10
115.0239807287057
 20
212.9414707745868
 30
0.0
 11
115.4809469420106
 21
212.5739302450097
 31
0.0
  0
LINE
  5
2EF
330
2
100
AcDbEntity
  8
0
  6
Continuous
 62
     7
100
AcDbLine
 10
115.2382732105961
 20
213.0899438603178
 30
0.0
 11
115.695239423901
 21
212.7224033307407
 31
0.0
  0
LINE
  5
2F0
330
2
100
AcDbEntity
  8
0
  6
Continuous
 62
     7
100
AcDbLine
 10
117.2688270121893
 20
212.7224033307407
 30
0.0
 11
117.8208340559974
 21
213.1048628011636
 31
0.0
  0
LINE
  5
2F1
330
2
100
AcDbEntity
  8
0
  6
Continuous
 62
     7
100
AcDbLine
 10
117.4719736848974
 20
212.5590113041639
 30
0.0
 11
118.0239807287057
 21
212.9414707745868
 31
0.0
  0
LINE
  5
2F2
330
2
100
AcDbEntity
  8
0
  6
Continuous
 62
     7
100
AcDbLine
 10
118.2460955181131
 20
212.7628225836509
 30
0.0
 11
118.0239807287057
 21
212.9414707745868
 31
0.0
  0
LINE
  5
2F3
330
2
100
AcDbEntity
  8
0
  6
Continuous
 62
     7
100
AcDbLine
 10
115.695239423901
 20
212.7224033307407
 30
0.0
 11
117.2688270121893
 21
212.7224033307407
 31
0.0
  0
LINE
  5
2F4
330
2
100
AcDbEntity
  8
0
  6
Continuous
 62
     7
100
AcDbLine
 10
117.2425877419741
 20
210.2651546498301
 30
0.0
 11
117.4719736848974
 21
212.5590113041639
 31
0.0
  0
LINE
  5
2F5
330
2
100
AcDbEntity
  8
0
  6
Continuous
 62
     7
100
AcDbLine
 10
115.4195816068522
 20
210.0974033307407
 30
0.0
 11
117.0572245985399
 21
210.0974033307407
 31
0.0
  0
LINE
  5
2F6
330
2
100
AcDbEntity
  8
0
  6
Continuous
 62
     7
100
AcDbLine
 10
115.2518302877626
 20
210.2827664741746
 30
0.0
 11
115.4809469420106
 21
212.5739302450097
 31
0.0
  0
LINE
  5
2F7
330
2
100
AcDbEntity
  8
0
  6
Continuous
 62
     7
100
AcDbLine
 10
118.4795532703837
 20
210.0974033307407
 30
0.0
 11
119.229553270384
 21
210.0974033307407
 31
0.0
  0
LINE
  5
2F8
330
2
100
AcDbEntity
  8
0
  6
Continuous
 62
     7
100
AcDbLine
 10
118.0351265378878
 20
213.2533358868946
 30
0.0
 11
118.3145036443697
 21
213.4469030186763
 31
0.0
  0
LINE
  5
2F9
330
2
100
AcDbEntity
  8
0
  6
Continuous
 62
     7
100
AcDbLine
 10
120.2739807287057
 20
212.9414707745868
 30
0.0
 11
119.994603622224
 21
212.7479036428051
 31
0.0
  0
ARC
  5
2FA
330
2
100
AcDbEntity
  8
0
  6
Continuous
 62
     7
100
AcDbCircle
 10
120.7665490682093
 20
216.4474033307407
 30
0.0
 40
0.4
100
AcDbArc
 50
150.3546568642828
 51
174.2893999999998
  0
ARC
  5
2FB
330
2
100
AcDbEntity
  8
0
  6
Continuous
 62
     7
100
AcDbCircle
 10
120.7665490682093
 20
216.4474033307407
 30
0.0
 40
0.4
100
AcDbArc
 50
90.0
 51
113.9347431357165
  0
LINE
  5
2FC
330
2
100
AcDbEntity
  8
0
  6
Continuous
 62
     7
100
AcDbLine
 10
120.4189075649735
 20
216.6452552582726
 30
0.0
 11
121.0665195246197
 21
215.9296520116512
 31
0.0
  0
LINE
  5
2FD
330
2
100
AcDbEntity
  8
0
  6
Continuous
 62
     7
100
AcDbLine
 10
120.8371335816962
 20
213.6357953573174
 30
0.0
 11
121.0665195246197
 21
215.9296520116512
 31
0.0
  0
LINE
  5
2FE
330
2
100
AcDbEntity
  8
0
  6
Continuous
 62
     7
100
AcDbLine
 10
115.5165490682093
 20
216.8474033307407
 30
0.0
 11
118.2125590088899
 21
216.8474033307407
 31
0.0
  0
LINE
  5
2FF
330
2
100
AcDbEntity
  8
0
  6
Continuous
 62
     7
100
AcDbLine
 10
116.0018826680536
 20
216.0974033307407
 30
0.0
 11
117.6395256597413
 21
216.0974033307407
 31
0.0
  0
LINE
  5
300
330
2
100
AcDbEntity
  8
0
  6
Continuous
 62
     7
100
AcDbLine
 10
115.3542707084075
 20
216.8130065773621
 30
0.0
 11
116.0018826680536
 21
216.0974033307407
 31
0.0
  0
LINE
  5
301
330
2
100
AcDbEntity
  8
0
  6
Continuous
 62
     7
100
AcDbLine
 10
115.1689075649735
 20
216.6452552582726
 30
0.0
 11
115.8165195246197
 21
215.9296520116512
 31
0.0
  0
ARC
  5
302
330
2
100
AcDbEntity
  8
0
  6
Continuous
 62
     7
100
AcDbCircle
 10
115.5165490682093
 20
216.4474033307407
 30
0.0
 40
0.4
100
AcDbArc
 50
90.0
 51
113.9347431357165
  0
ARC
  5
303
330
2
100
AcDbEntity
  8
0
  6
Continuous
 62
     7
100
AcDbCircle
 10
115.5165490682093
 20
216.4474033307407
 30
0.0
 40
0.4
100
AcDbArc
 50
150.3546568642828
 51
174.2893999999998
  0
LINE
  5
304
330
2
100
AcDbEntity
  8
0
  6
Continuous
 62
     7
100
AcDbLine
 10
118.4104109364218
 20
216.7950448339762
 30
0.0
 11
117.6395256597413
 21
216.0974033307407
 31
0.0
  0
LINE
  5
305
330
2
100
AcDbEntity
  8
0
  6
Continuous
 62
     7
100
AcDbLine
 10
118.5781622555114
 20
216.6096816905422
 30
0.0
 11
117.8072769788309
 21
215.9120401873066
 31
0.0
  0
ARC
  5
306
330
2
100
AcDbEntity
  8
0
  6
Continuous
 62
     7
100
AcDbCircle
 10
118.2125590088899
 20
216.4474033307407
 30
0.0
 40
0.4
100
AcDbArc
 50
354.2893999999998
 51
23.93474313571708
  0
ARC
  5
307
330
2
100
AcDbEntity
  8
0
  6
Continuous
 62
     7
100
AcDbCircle
 10
118.2125590088899
 20
216.4474033307407
 30
0.0
 40
0.4
100
AcDbArc
 50
60.35465686428244
 51
90.0
  0
LINE
  5
308
330
2
100
AcDbEntity
  8
0
  6
Continuous
 62
     7
100
AcDbLine
 10
115.7902802544042
 20
213.4724033307407
 30
0.0
 11
117.3638678426927
 21
213.4724033307407
 31
0.0
  0
LINE
  5
309
330
2
100
AcDbEntity
  8
0
  6
Continuous
 62
     7
100
AcDbLine
 10
115.5871335816962
 20
213.6357953573174
 30
0.0
 11
115.8165195246197
 21
215.9296520116512
 31
0.0
  0
LINE
  5
30A
330
2
100
AcDbEntity
  8
0
  6
Continuous
 62
     7
100
AcDbLine
 10
117.5781603245832
 20
213.6208764164717
 30
0.0
 11
117.8072769788309
 21
215.9120401873066
 31
0.0
  0
LINE
  5
30B
330
2
100
AcDbEntity
  8
0
  6
Continuous
 62
     7
100
AcDbLine
 10
114.8130117484802
 20
213.4319840778305
 30
0.0
 11
115.1185341968923
 21
216.4872048660206
 31
0.0
  0
LINE
  5
30C
330
2
100
AcDbEntity
  8
0
  6
Continuous
 62
     7
100
AcDbLine
 10
115.0239807287057
 20
212.9414707745868
 30
0.0
 11
114.744603622224
 21
212.7479036428051
 31
0.0
  0
LINE
  5
30D
330
2
100
AcDbEntity
  8
0
  6
Continuous
 62
     7
100
AcDbLine
 10
114.8130117484802
 20
213.4319840778305
 30
0.0
 11
115.0351265378878
 21
213.2533358868946
 31
0.0
  0
LINE
  5
30E
330
2
100
AcDbEntity
  8
0
  6
Continuous
 62
     7
100
AcDbLine
 10
120.6042707084075
 20
216.8130065773621
 30
0.0
 11
121.2518826680536
 21
216.0974033307407
 31
0.0
  0
LINE
  5
30F
330
2
100
AcDbEntity
  8
0
  6
Continuous
 62
     7
100
AcDbLine
 10
120.6695816068522
 20
210.0974033307407
 30
0.0
 11
122.3072245985399
 21
210.0974033307407
 31
0.0
  0
ARC
  5
310
330
2
100
AcDbEntity
  8
0
  6
Continuous
 62
     7
100
AcDbCircle
 10
122.2045531796557
 20
220.3474033307407
 30
0.0
 40
0.5
100
AcDbArc
 50
270.0
 51
0.0
  0
ARC
  5
311
330
2
100
AcDbEntity
  8
0
  6
Continuous
 62
     7
100
AcDbCircle
 10
122.2045531796557
 20
220.3474033307407
 30
0.0
 40
0.5
100
AcDbArc
 50
0.0
 51
90.0
  0
LINE
  5
312
330
2
100
AcDbEntity
  8
0
  6
Continuous
 62
     7
100
AcDbLine
 10
120.7665490682093
 20
216.8474033307407
 30
0.0
 11
123.4625590088899
 21
216.8474033307407
 31
0.0
  0
LINE
  5
313
330
2
100
AcDbEntity
  8
0
  6
Continuous
 62
     7
100
AcDbLine
 10
122.9548365581858
 20
209.3818000841193
 30
0.0
 11
122.3072245985399
 21
210.0974033307407
 31
0.0
  0
LINE
  5
314
330
2
100
AcDbEntity
  8
0
  6
Continuous
 62
     7
100
AcDbLine
 10
120.0965482577037
 20
209.3474033307407
 30
0.0
 11
122.7925581983845
 21
209.3474033307407
 31
0.0
  0
LINE
  5
315
330
2
100
AcDbEntity
  8
0
  6
Continuous
 62
     7
100
AcDbLine
 10
121.2518826680536
 20
216.0974033307407
 30
0.0
 11
122.8895256597413
 21
216.0974033307407
 31
0.0
  0
LINE
  5
316
330
2
100
AcDbEntity
  8
0
  6
Continuous
 62
     7
100
AcDbLine
 10
120.945239423901
 20
212.7224033307407
 30
0.0
 11
122.5188270121893
 21
212.7224033307407
 31
0.0
  0
LINE
  5
317
330
2
100
AcDbEntity
  8
0
  6
Continuous
 62
     7
100
AcDbLine
 10
121.0402802544042
 20
213.4724033307407
 30
0.0
 11
122.6138678426927
 21
213.4724033307407
 31
0.0
  0
LINE
  5
318
330
2
100
AcDbEntity
  8
0
  6
Continuous
 62
     7
 48
5.0
100
AcDbLine
 10
138.7045531796573
 20
186.3474033307356
 30
0.0
 11
137.2045531796575
 21
189.3474033307356
 31
0.0
  0
LINE
  5
319
330
2
100
AcDbEntity
  8
0
  6
Continuous
 62
     7
 48
5.0
100
AcDbLine
 10
140.2045531796575
 20
189.3474033307356
 30
0.0
 11
138.7045531796573
 21
186.3474033307356
 31
0.0
  0
LINE
  5
31A
330
2
100
AcDbEntity
  8
0
  6
Continuous
 62
     7
 48
5.0
100
AcDbLine
 10
137.2045531796575
 20
189.3474033307356
 30
0.0
 11
140.2045531796575
 21
189.3474033307356
 31
0.0
  0
LINE
  5
31B
330
2
100
AcDbEntity
  8
0
  6
Continuous
 62
     7
 48
5.0
100
AcDbLine
 10
128.7045531796573
 20
189.3474033307356
 30
0.0
 11
127.2045531796575
 21
186.3474033307356
 31
0.0
  0
LINE
  5
31C
330
2
100
AcDbEntity
  8
0
  6
Continuous
 62
     7
 48
5.0
100
AcDbLine
 10
130.2045531796573
 20
186.3474033307356
 30
0.0
 11
128.7045531796573
 21
189.3474033307356
 31
0.0
  0
LINE
  5
31D
330
2
100
AcDbEntity
  8
0
  6
Continuous
 62
     7
 48
5.0
100
AcDbLine
 10
127.2045531796575
 20
186.3474033307356
 30
0.0
 11
130.2045531796573
 21
186.3474033307356
 31
0.0
  0
LINE
  5
31E
330
2
100
AcDbEntity
  8
0
  6
Continuous
 62
     7
 48
5.0
100
AcDbLine
 10
117.2045531796573
 20
186.3474033307358
 30
0.0
 11
120.2045531796573
 21
187.8474033307358
 31
0.0
  0
LINE
  5
31F
330
2
100
AcDbEntity
  8
0
  6
Continuous
 62
     7
 48
5.0
100
AcDbLine
 10
120.2045531796573
 20
187.8474033307358
 30
0.0
 11
117.2045531796573
 21
189.3474033307356
 31
0.0
  0
LINE
  5
320
330
2
100
AcDbEntity
  8
0
  6
Continuous
 62
     7
 48
5.0
100
AcDbLine
 10
117.2045531796573
 20
189.3474033307356
 30
0.0
 11
117.2045531796573
 21
186.3474033307358
 31
0.0
  0
LINE
  5
321
330
2
100
AcDbEntity
  8
0
  6
Continuous
 62
     7
100
AcDbLine
 10
251.2045531796565
 20
240.3474033307407
 30
0.0
 11
251.2045531796564
 21
178.3474033307405
 31
0.0
  0
ARC
  5
322
330
2
100
AcDbEntity
  8
0
  6
Continuous
 62
     7
100
AcDbCircle
 10
88.70455317965641
 20
238.8474033307407
 30
0.0
 40
1.5
100
AcDbArc
 50
90.0
 51
180.0
  0
ARC
  5
323
330
2
100
AcDbEntity
  8
0
  6
Continuous
 62
     7
100
AcDbCircle
 10
175.7045531796563
 20
238.8474033307407
 30
0.0
 40
1.5
100
AcDbArc
 50
0.0
 51
90.0
  0
ARC
  5
324
330
2
100
AcDbEntity
  8
0
  6
Continuous
 62
     7
100
AcDbCircle
 10
175.7045531796564
 20
151.8474033307407
 30
0.0
 40
1.5
100
AcDbArc
 50
270.0
 51
0.0
  0
ARC
  5
325
330
2
100
AcDbEntity
  8
0
  6
Continuous
 62
     7
100
AcDbCircle
 10
88.70455317965637
 20
151.8474033307407
 30
0.0
 40
1.5
100
AcDbArc
 50
180.0
 51
270.0
  0
ARC
  5
326
330
2
100
AcDbEntity
  8
0
  6
Continuous
 62
     7
100
AcDbCircle
 10
175.7045531796564
 20
171.8474033307407
 30
0.0
 40
1.5
100
AcDbArc
 50
270.0
 51
0.0
  0
ARC
  5
327
330
2
100
AcDbEntity
  8
0
  6
Continuous
 62
     7
100
AcDbCircle
 10
88.70455317965639
 20
171.8474033307407
 30
0.0
 40
1.5
100
AcDbArc
 50
180.0
 51
270.0
  0
ARC
  5
328
330
2
100
AcDbEntity
  8
0
  6
Continuous
 62
     7
100
AcDbCircle
 10
229.2045531796564
 20
239.3474033307407
 30
0.0
 40
1.0
100
AcDbArc
 50
90.0
 51
180.0
  0
LINE
  5
329
330
2
100
AcDbEntity
  8
0
  6
Continuous
 62
     7
100
AcDbLine
 10
143.7045531796564
 20
161.8474033307407
 30
0.0
 11
87.70455317965639
 21
161.8474033307407
 31
0.0
  0
LINE
  5
32A
330
2
100
AcDbEntity
  8
0
  6
Continuous
 62
     7
100
AcDbLine
 10
89.20455317965638
 20
161.8474033307407
 30
0.0
 11
89.20455317965638
 21
153.8474033307407
 31
0.0
  0
LINE
  5
32B
330
2
100
AcDbEntity
  8
0
  6
Continuous
 62
     7
100
AcDbLine
 10
142.2045531796564
 20
161.8474033307407
 30
0.0
 11
142.2045531796564
 21
153.8474033307407
 31
0.0
  0
LINE
  5
32C
330
2
100
AcDbEntity
  8
0
  6
Continuous
 62
     7
100
AcDbLine
 10
143.7045531796564
 20
170.3474033307407
 30
0.0
 11
143.7045531796564
 21
153.8474033307407
 31
0.0
  0
LINE
  5
32D
330
2
100
AcDbEntity
  8
0
  6
Continuous
 62
     7
100
AcDbLine
 10
143.7045531796564
 20
153.8474033307407
 30
0.0
 11
87.70455317965637
 21
153.8474033307407
 31
0.0
  0
LINE
  5
32E
330
2
100
AcDbEntity
  8
0
  6
Continuous
 62
     7
100
AcDbLine
 10
87.70455317965639
 20
170.7293693419908
 30
0.0
 11
87.70455317965637
 21
153.8474033307407
 31
0.0
  0
LINE
  5
32F
330
2
100
AcDbEntity
  8
0
  6
Continuous
 62
     7
100
AcDbLine
 10
88.70455317965641
 20
170.3474033307407
 30
0.0
 11
88.70455317965637
 21
162.8474033307407
 31
0.0
  0
LINE
  5
330
330
2
100
AcDbEntity
  8
0
  6
Continuous
 62
     7
100
AcDbLine
 10
142.7045531796563
 20
170.3474033307407
 30
0.0
 11
142.7045531796563
 21
162.8474033307407
 31
0.0
  0
LINE
  5
331
330
2
100
AcDbEntity
  8
0
  6
Continuous
 62
     7
100
AcDbLine
 10
142.7045531796563
 20
162.8474033307407
 30
0.0
 11
88.70455317965639
 21
162.8474033307407
 31
0.0
  0
LINE
  5
332
330
2
100
AcDbEntity
  8
0
  6
Continuous
 62
     7
100
AcDbLine
 10
261.4045531796564
 20
170.3474033307407
 30
0.0
 11
261.4045531796564
 21
161.8474033307407
 31
0.0
  0
LINE
  5
333
330
2
100
AcDbEntity
  8
0
  6
Continuous
 62
     7
100
AcDbLine
 10
272.0329803044026
 20
153.8474033307407
 30
0.0
 11
275.2045531796564
 21
153.8474033307407
 31
0.0
  0
LINE
  5
334
330
2
100
AcDbEntity
  8
0
  6
Continuous
 62
     7
100
AcDbLine
 10
261.4045531796564
 20
161.8474033307407
 30
0.0
 11
263.2045531796564
 21
161.8474033307407
 31
0.0
  0
LINE
  5
335
330
2
100
AcDbEntity
  8
0
  6
Continuous
 62
     7
100
AcDbLine
 10
263.2045531796564
 20
161.8474033307407
 30
0.0
 11
270.6187667420295
 21
154.4331897683676
 31
0.0
  0
ARC
  5
336
330
2
100
AcDbEntity
  8
0
  6
Continuous
 62
     7
100
AcDbCircle
 10
272.0329803044026
 20
155.8474033307407
 30
0.0
 40
2.0
100
AcDbArc
 50
224.9999999999997
 51
270.0
  0
LINE
  5
337
330
2
100
AcDbEntity
  8
0
  6
Continuous
 62
     7
100
AcDbLine
 10
261.8045531796564
 20
165.3474033307406
 30
0.0
 11
261.4045531796564
 21
165.3474033307406
 31
0.0
  0
ARC
  5
338
330
2
100
AcDbEntity
  8
0
  6
Continuous
 62
     7
100
AcDbCircle
 10
276.2045531796564
 20
151.3474033307407
 30
0.0
 40
1.0
100
AcDbArc
 50
180.0
 51
270.0
  0
LINE
  5
339
330
2
100
AcDbEntity
  8
0
  6
Continuous
 62
     7
100
AcDbLine
 10
87.70455317965639
 20
78.14740333074069
 30
0.0
 11
87.70455317965639
 21
64.34740333074069
 31
0.0
  0
LINE
  5
33A
330
2
100
AcDbEntity
  8
0
  6
Continuous
 62
     7
100
AcDbLine
 10
87.70455317965637
 20
78.14740333074067
 30
0.0
 11
87.70455317965639
 21
64.34740333074069
 31
0.0
  0
LINE
  5
33B
330
2
100
AcDbEntity
  8
0
  6
Continuous
 62
     7
100
AcDbLine
 10
89.20455317965638
 20
76.34740333074069
 30
0.0
 11
89.20455317965638
 21
64.34740333074069
 31
0.0
  0
LINE
  5
33C
330
2
100
AcDbEntity
  8
0
  6
Continuous
 62
     7
100
AcDbLine
 10
89.20455317965638
 20
76.34740333074069
 30
0.0
 11
89.20455317965641
 21
64.34740333074069
 31
0.0
  0
LINE
  5
33D
330
2
100
AcDbEntity
  8
0
  6
Continuous
 62
     7
100
AcDbLine
 10
142.2045531796563
 20
76.34740333074069
 30
0.0
 11
142.2045531796564
 21
64.34740333074069
 31
0.0
  0
LINE
  5
33E
330
2
100
AcDbEntity
  8
0
  6
Continuous
 62
     7
100
AcDbLine
 10
143.7045531796564
 20
78.14740333074067
 30
0.0
 11
143.7045531796564
 21
64.34740333074069
 31
0.0
  0
LINE
  5
33F
330
2
100
AcDbEntity
  8
0
  6
Continuous
 62
     7
100
AcDbLine
 10
87.70455317965636
 20
78.1474033307407
 30
0.0
 11
143.7045531796564
 21
78.14740333074069
 31
0.0
  0
LINE
  5
340
330
2
100
AcDbEntity
  8
0
  6
Continuous
 62
     7
100
AcDbLine
 10
87.70455317965639
 20
76.34740333074069
 30
0.0
 11
143.7045531796564
 21
76.34740333074069
 31
0.0
  0
ARC
  5
341
330
2
100
AcDbEntity
  8
0
  6
Continuous
 62
     7
100
AcDbCircle
 10
88.20455317965636
 20
110.3474033307406
 30
0.0
 40
1.0
100
AcDbArc
 50
90.0
 51
180.0
  0
ARC
  5
342
330
2
100
AcDbEntity
  8
0
  6
Continuous
 62
     7
100
AcDbCircle
 10
176.2045531796564
 20
110.3474033307406
 30
0.0
 40
1.0
100
AcDbArc
 50
0.0
 51
90.0
  0
ARC
  5
343
330
2
100
AcDbEntity
  8
0
  6
Continuous
 62
     7
100
AcDbCircle
 10
176.2045531796564
 20
63.34740333074069
 30
0.0
 40
1.0
100
AcDbArc
 50
0.0
 51
90.0
  0
ARC
  5
344
330
2
100
AcDbEntity
  8
0
  6
Continuous
 62
     7
100
AcDbCircle
 10
88.20455317965636
 20
63.34740333074069
 30
0.0
 40
1.0
100
AcDbArc
 50
90.0
 51
180.0
  0
LINE
  5
345
330
2
100
AcDbEntity
  8
0
  6
Continuous
 62
     7
100
AcDbLine
 10
279.7045531796564
 20
177.8474033307407
 30
0.0
 11
279.7045531796563
 21
150.3474033307407
 31
0.0
  0
LINE
  5
346
330
2
100
AcDbEntity
  8
0
  6
Continuous
 62
     7
100
AcDbLine
 10
250.7045531796564
 20
177.8474033307407
 30
0.0
 11
279.7045531796564
 21
177.8474033307407
 31
0.0
  0
LINE
  5
347
330
2
100
AcDbEntity
  8
0
  6
Continuous
 62
     7
100
AcDbLine
 10
87.20455317965637
 20
59.84740333074069
 30
0.0
 11
177.2045531796564
 21
59.8474033307407
 31
0.0
  0
CIRCLE
  5
348
330
2
100
AcDbEntity
  8
0
  6
Continuous
 62
     7
100
AcDbCircle
 10
158.7045531796564
 20
81.34740333074068
 30
0.0
 40
6.0
  0
CIRCLE
  5
349
330
2
100
AcDbEntity
  8
0
  6
Continuous
 62
     7
100
AcDbCircle
 10
158.7045531796564
 20
81.34740333074068
 30
0.0
 40
5.0
  0
LINE
  5
34A
330
2
100
AcDbEntity
  8
0
  6
Continuous
 62
     7
100
AcDbLine
 10
91.20455317965641
 20
237.3474033307407
 30
0.0
 11
173.2045531796564
 21
237.3474033307407
 31
0.0
  0
LINE
  5
34B
330
2
100
AcDbEntity
  8
0
  6
Continuous
 62
     7
100
AcDbLine
 10
174.2045531796564
 20
178.8474033307407
 30
0.0
 11
174.2045531796564
 21
236.3474033307407
 31
0.0
  0
LINE
  5
34C
330
2
100
AcDbEntity
  8
0
  6
Continuous
 62
     7
100
AcDbLine
 10
173.2045531796564
 20
177.8474033307407
 30
0.0
 11
91.20455317965641
 21
177.8474033307407
 31
0.0
  0
LINE
  5
34D
330
2
100
AcDbEntity
  8
0
  6
Continuous
 62
     7
100
AcDbLine
 10
90.20455317965641
 20
178.8474033307407
 30
0.0
 11
90.20455317965641
 21
236.3474033307407
 31
0.0
  0
ARC
  5
34E
330
2
100
AcDbEntity
  8
0
  6
Continuous
 62
     7
100
AcDbCircle
 10
173.2045531796564
 20
236.3474033307407
 30
0.0
 40
1.0
100
AcDbArc
 50
0.0
 51
90.0
  0
ARC
  5
34F
330
2
100
AcDbEntity
  8
0
  6
Continuous
 62
     7
100
AcDbCircle
 10
173.2045531796564
 20
178.8474033307407
 30
0.0
 40
1.0
100
AcDbArc
 50
270.0
 51
0.0
  0
ARC
  5
350
330
2
100
AcDbEntity
  8
0
  6
Continuous
 62
     7
100
AcDbCircle
 10
91.20455317965641
 20
178.8474033307407
 30
0.0
 40
1.0
100
AcDbArc
 50
180.0
 51
270.0
  0
ARC
  5
351
330
2
100
AcDbEntity
  8
0
  6
Continuous
 62
     7
100
AcDbCircle
 10
91.20455317965641
 20
236.3474033307407
 30
0.0
 40
1.0
100
AcDbArc
 50
90.0
 51
180.0
  0
LINE
  5
352
330
2
100
AcDbEntity
  8
0
  6
Continuous
 62
     7
100
AcDbLine
 10
230.006596553139
 20
171.0897406801803
 30
0.0
 11
228.2383182400551
 21
177.7207843542455
 31
0.0
  0
ARC
  5
353
330
2
100
AcDbEntity
  8
0
  6
Continuous
 62
     7
100
AcDbCircle
 10
229.2045531796564
 20
177.9784470048058
 30
0.0
 40
1.0
100
AcDbArc
 50
180.0
 51
194.9314171781376
  0
ARC
  5
354
330
2
100
AcDbEntity
  8
0
  6
Continuous
 62
     7
100
AcDbCircle
 10
230.9728314927403
 20
171.3474033307406
 30
0.0
 40
1.0
100
AcDbArc
 50
194.9314171781372
 51
270.0
  0
LINE
  5
355
330
2
100
AcDbEntity
  8
0
  6
Continuous
 62
     7
100
AcDbLine
 10
142.404553179653
 20
55.34740333074068
 30
0.0
 11
142.404553179653
 21
51.3474033307407
 31
0.0
  0
LINE
  5
356
330
2
100
AcDbEntity
  8
0
  6
Continuous
 62
     7
100
AcDbLine
 10
122.0045531796531
 20
55.34740333074068
 30
0.0
 11
122.0045531796531
 21
51.3474033307407
 31
0.0
  0
LINE
  5
357
330
2
100
AcDbEntity
  8
0
  6
Continuous
 62
     7
100
AcDbLine
 10
120.0045531796531
 20
55.34740333074068
 30
0.0
 11
144.4045531796531
 21
55.34740333074068
 31
0.0
  0
LINE
  5
358
330
2
100
AcDbEntity
  8
0
  6
Continuous
 62
     7
100
AcDbLine
 10
142.404553179653
 20
51.34740333074069
 30
0.0
 11
177.2045531796564
 21
51.34740333074069
 31
0.0
  0
LINE
  5
359
330
2
100
AcDbEntity
  8
0
  6
Continuous
 62
     7
100
AcDbLine
 10
284.2045531796564
 20
213.0474033307407
 30
0.0
 11
284.2045531796564
 21
178.8474033307406
 31
0.0
  0
LINE
  5
35A
330
2
100
AcDbEntity
  8
0
  6
Continuous
 62
     7
100
AcDbLine
 10
284.2045531796564
 20
213.0474033307407
 30
0.0
 11
284.2045531796564
 21
177.6474033307406
 31
0.0
  0
LINE
  5
35B
330
2
100
AcDbEntity
  8
0
  6
Continuous
 62
     7
100
AcDbLine
 10
284.2045531796564
 20
177.6474033307406
 30
0.0
 11
287.2045531796564
 21
177.6474033307406
 31
0.0
  0
LINE
  5
35C
330
2
100
AcDbEntity
  8
0
  6
Continuous
 62
     7
100
AcDbLine
 10
284.2045531796564
 20
181.7474033307407
 30
0.0
 11
284.4045531796565
 21
180.9474033307408
 31
0.0
  0
LINE
  5
35D
330
2
100
AcDbEntity
  8
0
  6
Continuous
 62
     7
100
AcDbLine
 10
284.4045531796565
 20
180.9474033307408
 30
0.0
 11
284.2045531796564
 21
180.1474033307406
 31
0.0
  0
LINE
  5
35E
330
2
100
AcDbEntity
  8
0
  6
Continuous
 62
     7
100
AcDbLine
 10
287.2045531796564
 20
177.6474033307406
 30
0.0
 11
288.2045531796564
 21
176.6474033307406
 31
0.0
  0
LINE
  5
35F
330
2
100
AcDbEntity
  8
0
  6
Continuous
 62
     7
100
AcDbLine
 10
284.2045531796564
 20
210.3474033307406
 30
0.0
 11
284.4045531796563
 21
209.5474033307407
 31
0.0
  0
LINE
  5
360
330
2
100
AcDbEntity
  8
0
  6
Continuous
 62
     7
100
AcDbLine
 10
284.4045531796563
 20
209.5474033307407
 30
0.0
 11
284.2045531796564
 21
208.7474033307407
 31
0.0
  0
LINE
  5
361
330
2
100
AcDbEntity
  8
0
  6
Continuous
 62
     7
100
AcDbLine
 10
285.7045531796564
 20
211.0474033307405
 30
0.0
 11
286.7045531796565
 21
211.0474033307405
 31
0.0
  0
LINE
  5
362
330
2
100
AcDbEntity
  8
0
  6
Continuous
 62
     7
100
AcDbLine
 10
284.2045531796564
 20
213.0474033307407
 30
0.0
 11
288.2045531796564
 21
213.0474033307407
 31
0.0
  0
LINE
  5
363
330
2
100
AcDbEntity
  8
0
  6
Continuous
 62
     7
100
AcDbLine
 10
285.2045531796564
 20
213.0474033307407
 30
0.0
 11
285.7045531796564
 21
211.0474033307405
 31
0.0
  0
LINE
  5
364
330
2
100
AcDbEntity
  8
0
  6
Continuous
 62
     7
100
AcDbLine
 10
288.2045531796564
 20
213.0474033307407
 30
0.0
 11
288.2045531796564
 21
215.0474033307407
 31
0.0
  0
LINE
  5
365
330
2
100
AcDbEntity
  8
0
  6
Continuous
 62
     7
100
AcDbLine
 10
286.7045531796565
 20
211.0474033307405
 30
0.0
 11
288.2045531796564
 21
213.0474033307407
 31
0.0
  0
LINE
  5
366
330
2
100
AcDbEntity
  8
0
  6
Continuous
 62
     7
100
AcDbLine
 10
144.4045531796531
 20
55.34740333074068
 30
0.0
 11
144.4045531796531
 21
51.34740333074068
 31
0.0
  0
LINE
  5
367
330
2
100
AcDbEntity
  8
0
  6
Continuous
 62
     7
100
AcDbLine
 10
120.0045531796531
 20
55.34740333074069
 30
0.0
 11
120.0045531796531
 21
51.3474033307407
 31
0.0
  0
ARC
  5
368
330
2
100
AcDbEntity
  8
0
  6
Continuous
 62
     7
 48
5.0
100
AcDbCircle
 10
166.4545531796563
 20
184.0974033307351
 30
0.0
 40
1.0
100
AcDbArc
 50
269.9999999999976
 51
0.0000000000004071
  0
ARC
  5
369
330
2
100
AcDbEntity
  8
0
  6
Continuous
 62
     7
 48
5.0
100
AcDbCircle
 10
97.95455317965641
 20
184.0974033307378
 30
0.0
 40
1.0
100
AcDbArc
 50
180.0
 51
269.9999999999976
  0
ARC
  5
36A
330
2
100
AcDbEntity
  8
0
  6
Continuous
 62
     7
100
AcDbCircle
 10
97.95455317965641
 20
191.5974033307352
 30
0.0
 40
1.0
100
AcDbArc
 50
90.0
 51
180.0
  0
ARC
  5
36B
330
2
100
AcDbEntity
  8
0
  6
Continuous
 62
     7
 48
5.0
100
AcDbCircle
 10
97.95455317965641
 20
191.5974033307352
 30
0.0
 40
1.5
100
AcDbArc
 50
90.0
 51
180.0
  0
ARC
  5
36C
330
2
100
AcDbEntity
  8
0
  6
Continuous
 62
     7
100
AcDbCircle
 10
97.95455317965641
 20
184.0974033307378
 30
0.0
 40
1.5
100
AcDbArc
 50
180.0
 51
269.9999999999976
  0
ARC
  5
36D
330
2
100
AcDbEntity
  8
0
  6
Continuous
 62
     7
 48
5.0
100
AcDbCircle
 10
166.4545531796563
 20
184.0974033307351
 30
0.0
 40
1.5
100
AcDbArc
 50
269.9999999999976
 51
0.0000000000004071
  0
ARC
  5
36E
330
2
100
AcDbEntity
  8
0
  6
Continuous
 62
     7
100
AcDbCircle
 10
166.4545531796563
 20
191.5974033307352
 30
0.0
 40
1.5
100
AcDbArc
 50
0.0
 51
90.0
  0
ARC
  5
36F
330
2
100
AcDbEntity
  8
0
  6
Continuous
 62
     7
100
AcDbCircle
 10
166.4545531796563
 20
191.5974033307353
 30
0.0
 40
1.0
100
AcDbArc
 50
0.0
 51
90.0
  0
LINE
  5
370
330
2
100
AcDbEntity
  8
0
  6
Continuous
 62
     7
100
AcDbLine
 10
96.45455317965641
 20
184.0974033307378
 30
0.0
 11
96.45455317965641
 21
191.5974033307352
 31
0.0
  0
LINE
  5
371
330
2
100
AcDbEntity
  8
0
  6
Continuous
 62
     7
100
AcDbLine
 10
96.95455317965638
 20
184.0974033307378
 30
0.0
 11
96.95455317965638
 21
191.5974033307352
 31
0.0
  0
LINE
  5
372
330
2
100
AcDbEntity
  8
0
  6
Continuous
 62
     7
100
AcDbLine
 10
167.4545531796563
 20
184.0974033307351
 30
0.0
 11
167.4545531796563
 21
191.5974033307353
 31
0.0
  0
LINE
  5
373
330
2
100
AcDbEntity
  8
0
  6
Continuous
 62
     7
100
AcDbLine
 10
167.9545531796563
 20
184.0974033307351
 30
0.0
 11
167.9545531796563
 21
191.5974033307352
 31
0.0
  0
LINE
  5
374
330
2
100
AcDbEntity
  8
0
  6
Continuous
 62
     7
 48
5.0
100
AcDbLine
 10
97.95455317965632
 20
183.0974033307377
 30
0.0
 11
166.4545531796562
 21
183.0974033307351
 31
0.0
  0
LINE
  5
375
330
2
100
AcDbEntity
  8
0
  6
Continuous
 62
     7
 48
5.0
100
AcDbLine
 10
97.95455317965641
 20
192.5974033307351
 30
0.0
 11
166.4545531796563
 21
192.5974033307353
 31
0.0
  0
LINE
  5
376
330
2
100
AcDbEntity
  8
0
  6
Continuous
 62
     7
 48
5.0
100
AcDbLine
 10
97.95455317965641
 20
193.0974033307352
 30
0.0
 11
166.4545531796563
 21
193.0974033307352
 31
0.0
  0
ARC
  5
377
330
2
100
AcDbEntity
  8
0
  6
Continuous
 62
     7
 48
5.0
100
AcDbCircle
 10
111.1545531796575
 20
190.7974033307355
 30
0.0
 40
1.0
100
AcDbArc
 50
0.0000000000004071
 51
89.9999999999992
  0
ARC
  5
378
330
2
100
AcDbEntity
  8
0
  6
Continuous
 62
     7
 48
5.0
100
AcDbCircle
 10
106.2545531796575
 20
190.7974033307355
 30
0.0
 40
1.0
100
AcDbArc
 50
89.9999999999992
 51
179.9999999999992
  0
LINE
  5
379
330
2
100
AcDbEntity
  8
0
  6
Continuous
 62
     7
 48
5.0
100
AcDbLine
 10
106.2545531796575
 20
191.7974033307355
 30
0.0
 11
111.1545531796575
 21
191.7974033307355
 31
0.0
  0
ARC
  5
37A
330
2
100
AcDbEntity
  8
0
  6
Continuous
 62
     7
 48
5.0
100
AcDbCircle
 10
111.1545531796573
 20
184.8974033307358
 30
0.0
 40
1.0
100
AcDbArc
 50
269.9999999999992
 51
359.9999999999996
  0
ARC
  5
37B
330
2
100
AcDbEntity
  8
0
  6
Continuous
 62
     7
 48
5.0
100
AcDbCircle
 10
106.2545531796549
 20
184.8974033307358
 30
0.0
 40
1.0
100
AcDbArc
 50
180.0000000000004
 51
270.0000000000008
  0
LINE
  5
37C
330
2
100
AcDbEntity
  8
0
  6
Continuous
 62
     7
 48
5.0
100
AcDbLine
 10
106.2545531796575
 20
183.8974033307361
 30
0.0
 11
111.1545531796573
 21
183.8974033307358
 31
0.0
  0
LINE
  5
37D
330
2
100
AcDbEntity
  8
0
  6
Continuous
 62
     7
 48
5.0
100
AcDbLine
 10
105.2545531796572
 20
190.7974033307355
 30
0.0
 11
105.2545531796575
 21
184.8974033307361
 31
0.0
  0
LINE
  5
37E
330
2
100
AcDbEntity
  8
0
  6
Continuous
 62
     7
 48
5.0
100
AcDbLine
 10
112.1545531796575
 20
190.7974033307355
 30
0.0
 11
112.1545531796573
 21
184.8974033307358
 31
0.0
  0
LINE
  5
37F
330
2
100
AcDbEntity
  8
0
  6
Continuous
 62
     7
100
AcDbLine
 10
172.7045531796564
 20
180.3474033307407
 30
0.0
 11
172.7045531796564
 21
234.8474033307407
 31
0.0
  0
LINE
  5
380
330
2
100
AcDbEntity
  8
0
  6
Continuous
 62
     7
100
AcDbLine
 10
91.70455317965638
 20
180.3474033307407
 30
0.0
 11
91.70455317965638
 21
234.8474033307407
 31
0.0
  0
LINE
  5
381
330
2
100
AcDbEntity
  8
0
  6
Continuous
 62
     7
100
AcDbLine
 10
171.7045531796564
 20
179.3474033307407
 30
0.0
 11
92.70455317965641
 21
179.3474033307407
 31
0.0
  0
LINE
  5
382
330
2
100
AcDbEntity
  8
0
  6
Continuous
 62
     7
 48
5.0
100
AcDbLine
 10
136.2545531796575
 20
183.8974033307358
 30
0.0
 11
141.1545531796575
 21
183.8974033307356
 31
0.0
  0
LINE
  5
383
330
2
100
AcDbEntity
  8
0
  6
Continuous
 62
     7
 48
5.0
100
AcDbLine
 10
136.2545531796575
 20
191.7974033307351
 30
0.0
 11
141.1545531796575
 21
191.7974033307351
 31
0.0
  0
ARC
  5
384
330
2
100
AcDbEntity
  8
0
  6
Continuous
 62
     7
100
AcDbCircle
 10
92.70455317965641
 20
180.3474033307407
 30
0.0
 40
1.0
100
AcDbArc
 50
180.0
 51
270.0
  0
LINE
  5
385
330
2
100
AcDbEntity
  8
0
  6
Continuous
 62
     7
 48
5.0
100
AcDbLine
 10
132.1545531796575
 20
190.7974033307355
 30
0.0
 11
132.1545531796573
 21
184.8974033307358
 31
0.0
  0
LINE
  5
386
330
2
100
AcDbEntity
  8
0
  6
Continuous
 62
     7
 48
5.0
100
AcDbLine
 10
122.1545531796575
 20
190.7974033307355
 30
0.0
 11
122.1545531796573
 21
184.8974033307358
 31
0.0
  0
LINE
  5
387
330
2
100
AcDbEntity
  8
0
  6
Continuous
 62
     7
 48
5.0
100
AcDbLine
 10
125.2545531796575
 20
190.7974033307355
 30
0.0
 11
125.2545531796572
 21
184.8974033307358
 31
0.0
  0
LINE
  5
388
330
2
100
AcDbEntity
  8
0
  6
Continuous
 62
     7
 48
5.0
100
AcDbLine
 10
135.2545531796575
 20
190.7974033307351
 30
0.0
 11
135.2545531796572
 21
184.8974033307358
 31
0.0
  0
LINE
  5
389
330
2
100
AcDbEntity
  8
0
  6
Continuous
 62
     7
 48
5.0
100
AcDbLine
 10
115.2545531796572
 20
190.7974033307355
 30
0.0
 11
115.2545531796574
 21
184.8974033307361
 31
0.0
  0
LINE
  5
38A
330
2
100
AcDbEntity
  8
0
  6
Continuous
 62
     7
 48
5.0
100
AcDbLine
 10
116.2545531796574
 20
183.8974033307361
 30
0.0
 11
121.1545531796573
 21
183.8974033307358
 31
0.0
  0
ARC
  5
38B
330
2
100
AcDbEntity
  8
0
  6
Continuous
 62
     7
 48
5.0
100
AcDbCircle
 10
116.254553179655
 20
184.8974033307358
 30
0.0
 40
1.0
100
AcDbArc
 50
180.0000000000004
 51
270.0000000000008
  0
LINE
  5
38C
330
2
100
AcDbEntity
  8
0
  6
Continuous
 62
     7
 48
5.0
100
AcDbLine
 10
126.2545531796575
 20
183.8974033307358
 30
0.0
 11
131.1545531796573
 21
183.8974033307358
 31
0.0
  0
ARC
  5
38D
330
2
100
AcDbEntity
  8
0
  6
Continuous
 62
     7
 48
5.0
100
AcDbCircle
 10
121.1545531796573
 20
184.8974033307358
 30
0.0
 40
1.0
100
AcDbArc
 50
269.9999999999992
 51
359.9999999999996
  0
ARC
  5
38E
330
2
100
AcDbEntity
  8
0
  6
Continuous
 62
     7
 48
5.0
100
AcDbCircle
 10
126.2545531796575
 20
184.8974033307358
 30
0.0
 40
1.0
100
AcDbArc
 50
179.9999999999992
 51
269.9999999999992
  0
ARC
  5
38F
330
2
100
AcDbEntity
  8
0
  6
Continuous
 62
     7
 48
5.0
100
AcDbCircle
 10
131.1545531796573
 20
184.8974033307358
 30
0.0
 40
1.0
100
AcDbArc
 50
269.9999999999992
 51
359.9999999999996
  0
ARC
  5
390
330
2
100
AcDbEntity
  8
0
  6
Continuous
 62
     7
 48
5.0
100
AcDbCircle
 10
136.2545531796575
 20
184.8974033307358
 30
0.0
 40
1.0
100
AcDbArc
 50
179.9999999999992
 51
269.9999999999992
  0
LINE
  5
391
330
2
100
AcDbEntity
  8
0
  6
Continuous
 62
     7
 48
5.0
100
AcDbLine
 10
116.2545531796574
 20
191.7974033307355
 30
0.0
 11
121.1545531796575
 21
191.7974033307355
 31
0.0
  0
ARC
  5
392
330
2
100
AcDbEntity
  8
0
  6
Continuous
 62
     7
 48
5.0
100
AcDbCircle
 10
116.2545531796574
 20
190.7974033307355
 30
0.0
 40
1.0
100
AcDbArc
 50
89.9999999999992
 51
179.9999999999992
  0
LINE
  5
393
330
2
100
AcDbEntity
  8
0
  6
Continuous
 62
     7
 48
5.0
100
AcDbLine
 10
126.2545531796575
 20
191.7974033307355
 30
0.0
 11
131.1545531796575
 21
191.7974033307355
 31
0.0
  0
ARC
  5
394
330
2
100
AcDbEntity
  8
0
  6
Continuous
 62
     7
 48
5.0
100
AcDbCircle
 10
121.1545531796575
 20
190.7974033307355
 30
0.0
 40
1.0
100
AcDbArc
 50
0.0000000000004071
 51
89.9999999999992
  0
ARC
  5
395
330
2
100
AcDbEntity
  8
0
  6
Continuous
 62
     7
 48
5.0
100
AcDbCircle
 10
126.2545531796575
 20
190.7974033307355
 30
0.0
 40
1.0
100
AcDbArc
 50
89.9999999999992
 51
179.9999999999992
  0
ARC
  5
396
330
2
100
AcDbEntity
  8
0
  6
Continuous
 62
     7
 48
5.0
100
AcDbCircle
 10
131.1545531796575
 20
190.7974033307355
 30
0.0
 40
1.0
100
AcDbArc
 50
0.0000000000004071
 51
89.9999999999992
  0
ARC
  5
397
330
2
100
AcDbEntity
  8
0
  6
Continuous
 62
     7
 48
5.0
100
AcDbCircle
 10
136.2545531796575
 20
190.7974033307351
 30
0.0
 40
1.0
100
AcDbArc
 50
89.9999999999992
 51
179.9999999999992
  0
LINE
  5
398
330
2
100
AcDbEntity
  8
0
  6
Continuous
 62
     7
 48
5.0
100
AcDbLine
 10
145.2545531796574
 20
190.7974033307351
 30
0.0
 11
145.2545531796572
 21
184.8974033307358
 31
0.0
  0
LINE
  5
399
330
2
100
AcDbEntity
  8
0
  6
Continuous
 62
     7
 48
5.0
100
AcDbLine
 10
142.1545531796573
 20
190.797403330735
 30
0.0
 11
142.1545531796573
 21
184.8974033307358
 31
0.0
  0
LINE
  5
39A
330
2
100
AcDbEntity
  8
0
  6
Continuous
 62
     7
 48
5.0
100
AcDbLine
 10
152.1545531796573
 20
190.797403330735
 30
0.0
 11
152.1545531796573
 21
184.8974033307358
 31
0.0
  0
ARC
  5
39B
330
2
100
AcDbEntity
  8
0
  6
Continuous
 62
     7
 48
5.0
100
AcDbCircle
 10
151.1545531796573
 20
184.8974033307358
 30
0.0
 40
1.0
100
AcDbArc
 50
269.9999999999992
 51
359.9999999999996
  0
ARC
  5
39C
330
2
100
AcDbEntity
  8
0
  6
Continuous
 62
     7
 48
5.0
100
AcDbCircle
 10
146.2545531796575
 20
184.8974033307358
 30
0.0
 40
1.0
100
AcDbArc
 50
179.9999999999992
 51
269.9999999999992
  0
ARC
  5
39D
330
2
100
AcDbEntity
  8
0
  6
Continuous
 62
     7
 48
5.0
100
AcDbCircle
 10
141.1545531796573
 20
184.8974033307358
 30
0.0
 40
1.0
100
AcDbArc
 50
269.9999999999992
 51
359.9999999999996
  0
LINE
  5
39E
330
2
100
AcDbEntity
  8
0
  6
Continuous
 62
     7
 48
5.0
100
AcDbLine
 10
146.2545531796575
 20
183.8974033307358
 30
0.0
 11
151.1545531796576
 21
183.8974033307356
 31
0.0
  0
ARC
  5
39F
330
2
100
AcDbEntity
  8
0
  6
Continuous
 62
     7
100
AcDbCircle
 10
171.7045531796564
 20
180.3474033307407
 30
0.0
 40
1.0
100
AcDbArc
 50
270.0
 51
0.0
  0
ARC
  5
3A0
330
2
100
AcDbEntity
  8
0
  6
Continuous
 62
     7
 48
5.0
100
AcDbCircle
 10
151.1545531796576
 20
190.797403330735
 30
0.0
 40
1.0
100
AcDbArc
 50
0.0000000000004071
 51
89.9999999999992
  0
ARC
  5
3A1
330
2
100
AcDbEntity
  8
0
  6
Continuous
 62
     7
 48
5.0
100
AcDbCircle
 10
146.2545531796575
 20
190.7974033307351
 30
0.0
 40
1.0
100
AcDbArc
 50
89.9999999999992
 51
179.9999999999992
  0
ARC
  5
3A2
330
2
100
AcDbEntity
  8
0
  6
Continuous
 62
     7
 48
5.0
100
AcDbCircle
 10
141.1545531796575
 20
190.797403330735
 30
0.0
 40
1.0
100
AcDbArc
 50
0.0000000000004071
 51
89.9999999999992
  0
LINE
  5
3A3
330
2
100
AcDbEntity
  8
0
  6
Continuous
 62
     7
 48
5.0
100
AcDbLine
 10
146.2545531796575
 20
191.7974033307351
 30
0.0
 11
151.1545531796576
 21
191.7974033307351
 31
0.0
  0
LINE
  5
3A4
330
2
100
AcDbEntity
  8
0
  6
Continuous
 62
     7
100
AcDbLine
 10
92.70455317965641
 20
235.8474033307407
 30
0.0
 11
171.7045531796564
 21
235.8474033307407
 31
0.0
  0
ARC
  5
3A5
330
2
100
AcDbEntity
  8
0
  6
Continuous
 62
     7
100
AcDbCircle
 10
92.70455317965641
 20
234.8474033307407
 30
0.0
 40
1.0
100
AcDbArc
 50
90.0
 51
180.0
  0
ARC
  5
3A6
330
2
100
AcDbEntity
  8
0
  6
Continuous
 62
     7
100
AcDbCircle
 10
171.7045531796564
 20
234.8474033307407
 30
0.0
 40
1.0
100
AcDbArc
 50
0.0
 51
90.0
  0
LINE
  5
3A7
330
2
100
AcDbEntity
  8
0
  6
Continuous
 62
     7
 48
2.0
100
AcDbLine
 10
112.2045531796575
 20
222.8474033307358
 30
0.0
 11
112.2045531796575
 21
203.8474033307358
 31
0.0
  0
LINE
  5
3A8
330
2
100
AcDbEntity
  8
0
  6
Continuous
 62
     7
 48
2.0
100
AcDbLine
 10
113.2045531796575
 20
223.8474033307358
 30
0.0
 11
138.2045531796574
 21
223.8474033307359
 31
0.0
  0
LINE
  5
3A9
330
2
100
AcDbEntity
  8
0
  6
Continuous
 62
     7
 48
2.0
100
AcDbLine
 10
113.2045531796575
 20
202.8474033307358
 30
0.0
 11
138.2045531796575
 21
202.8474033307358
 31
0.0
  0
LINE
  5
3AA
330
2
100
AcDbEntity
  8
0
  6
Continuous
 62
     7
 48
2.0
100
AcDbLine
 10
139.2045531796574
 20
222.8474033307359
 30
0.0
 11
139.2045531796575
 21
203.8474033307358
 31
0.0
  0
ARC
  5
3AB
330
2
100
AcDbEntity
  8
0
  6
Continuous
 62
     7
 48
2.0
100
AcDbCircle
 10
138.2045531796574
 20
222.8474033307359
 30
0.0
 40
1.0
100
AcDbArc
 50
0.0
 51
90.0
  0
ARC
  5
3AC
330
2
100
AcDbEntity
  8
0
  6
Continuous
 62
     7
 48
2.0
100
AcDbCircle
 10
113.2045531796575
 20
222.8474033307358
 30
0.0
 40
1.0
100
AcDbArc
 50
90.0
 51
180.0
  0
ARC
  5
3AD
330
2
100
AcDbEntity
  8
0
  6
Continuous
 62
     7
 48
2.0
100
AcDbCircle
 10
113.2045531796575
 20
203.8474033307358
 30
0.0
 40
1.0
100
AcDbArc
 50
180.0
 51
270.0
  0
ARC
  5
3AE
330
2
100
AcDbEntity
  8
0
  6
Continuous
 62
     7
 48
2.0
100
AcDbCircle
 10
138.2045531796575
 20
203.8474033307358
 30
0.0
 40
1.0
100
AcDbArc
 50
270.0
 51
0.0
  0
LINE
  5
3AF
330
2
100
AcDbEntity
  8
0
  6
Continuous
 62
     7
100
AcDbLine
 10
172.7045531796564
 20
196.3474033307407
 30
0.0
 11
91.70455317965638
 21
196.3474033307407
 31
0.0
  0
ARC
  5
3B0
330
2
100
AcDbEntity
  8
0
  6
Continuous
 62
     7
 48
5.0
100
AcDbCircle
 10
113.2045531796577
 20
203.8474033307359
 30
0.0
 40
1.0
100
AcDbArc
 50
180.0
 51
270.0
  0
LINE
  5
3B1
330
2
100
AcDbEntity
  8
0
  6
Continuous
 62
     7
100
AcDbLine
 10
128.2045531796564
 20
146.2874033307407
 30
0.0
 11
136.2045531796564
 21
146.2874033307407
 31
0.0
  0
LINE
  5
3B2
330
2
100
AcDbEntity
  8
0
  6
Continuous
 62
     7
100
AcDbLine
 10
128.2045531796564
 20
149.7874033307407
 30
0.0
 11
130.2045531796564
 21
149.7874033307407
 31
0.0
  0
LINE
  5
3B3
330
2
100
AcDbEntity
  8
0
  6
Continuous
 62
     7
100
AcDbLine
 10
136.2045531796564
 20
150.3474033307407
 30
0.0
 11
136.2045531796564
 21
149.7874033307407
 31
0.0
  0
LINE
  5
3B4
330
2
100
AcDbEntity
  8
0
  6
Continuous
 62
     7
100
AcDbLine
 10
128.2045531796564
 20
150.3474033307407
 30
0.0
 11
128.2045531796564
 21
149.7874033307407
 31
0.0
  0
LINE
  5
3B5
330
2
100
AcDbEntity
  8
0
  6
Continuous
 62
     7
100
AcDbLine
 10
138.2045531796564
 20
150.3474033307407
 30
0.0
 11
138.2045531796564
 21
148.2874033307407
 31
0.0
  0
LINE
  5
3B6
330
2
100
AcDbEntity
  8
0
  6
Continuous
 62
     7
100
AcDbLine
 10
126.2045531796564
 20
150.3474033307407
 30
0.0
 11
126.2045531796564
 21
148.2874033307407
 31
0.0
  0
ARC
  5
3B7
330
2
100
AcDbEntity
  8
0
  6
Continuous
 62
     7
100
AcDbCircle
 10
132.2045531796564
 20
149.2874033307407
 30
0.0
 40
2.0
100
AcDbArc
 50
180.0
 51
0.0
  0
LINE
  5
3B8
330
2
100
AcDbEntity
  8
0
  6
Continuous
 62
     7
100
AcDbLine
 10
134.2045531796564
 20
149.2874033307407
 30
0.0
 11
134.2045531796564
 21
149.7874033307407
 31
0.0
  0
LINE
  5
3B9
330
2
100
AcDbEntity
  8
0
  6
Continuous
 62
     7
100
AcDbLine
 10
130.2045531796564
 20
149.2874033307407
 30
0.0
 11
130.2045531796564
 21
149.7874033307407
 31
0.0
  0
LINE
  5
3BA
330
2
100
AcDbEntity
  8
0
  6
Continuous
 62
     7
100
AcDbLine
 10
136.2045531796564
 20
146.2874033307407
 30
0.0
 11
138.2045531796564
 21
148.2874033307407
 31
0.0
  0
LINE
  5
3BB
330
2
100
AcDbEntity
  8
0
  6
Continuous
 62
     7
100
AcDbLine
 10
128.2045531796564
 20
146.2874033307407
 30
0.0
 11
126.2045531796564
 21
148.2874033307407
 31
0.0
  0
LINE
  5
3BC
330
2
100
AcDbEntity
  8
0
  6
Continuous
 62
     7
100
AcDbLine
 10
134.2045531796564
 20
149.7874033307407
 30
0.0
 11
136.2045531796564
 21
149.7874033307407
 31
0.0
  0
LINE
  5
3BD
330
2
100
AcDbEntity
  8
0
  6
Continuous
 62
     7
100
AcDbLine
 10
142.2045531796531
 20
55.34740333074072
 30
0.0
 11
142.2045531796531
 21
51.34740333074069
 31
0.0
  0
LINE
  5
3BE
330
2
100
AcDbEntity
  8
0
  6
Continuous
 62
     7
100
AcDbLine
 10
122.2045531796531
 20
55.34740333074072
 30
0.0
 11
122.2045531796531
 21
51.34740333074069
 31
0.0
  0
LINE
  5
3BF
330
2
100
AcDbEntity
  8
0
  6
Continuous
 62
     7
100
AcDbLine
 10
122.2045531796531
 20
51.34740333074069
 30
0.0
 11
142.2045531796531
 21
51.34740333074069
 31
0.0
  0
LINE
  5
3C0
330
2
100
AcDbEntity
  8
0
  6
Continuous
 62
     7
100
AcDbLine
 10
120.2045531796531
 20
55.34740333074068
 30
0.0
 11
144.2045531796531
 21
55.34740333074068
 31
0.0
  0
LINE
  5
3C1
330
2
100
AcDbEntity
  8
0
  6
Continuous
 62
     7
100
AcDbLine
 10
122.0045531796531
 20
53.54740333074068
 30
0.0
 11
122.2045531796531
 21
53.54740333074068
 31
0.0
  0
LINE
  5
3C2
330
2
100
AcDbEntity
  8
0
  6
Continuous
 62
     7
100
AcDbLine
 10
128.2045531796531
 20
55.34740333074065
 30
0.0
 11
128.2045531796531
 21
51.34740333074069
 31
0.0
  0
LINE
  5
3C3
330
2
100
AcDbEntity
  8
0
  6
Continuous
 62
     7
100
AcDbLine
 10
136.2045531796531
 20
55.34740333074065
 30
0.0
 11
136.2045531796531
 21
51.34740333074069
 31
0.0
  0
LINE
  5
3C4
330
2
100
AcDbEntity
  8
0
  6
Continuous
 62
     7
100
AcDbLine
 10
126.2045531796531
 20
55.34740333074068
 30
0.0
 11
126.2045531796531
 21
51.34740333074069
 31
0.0
  0
LINE
  5
3C5
330
2
100
AcDbEntity
  8
0
  6
Continuous
 62
     7
100
AcDbLine
 10
138.2045531796531
 20
55.34740333074068
 30
0.0
 11
138.2045531796531
 21
51.34740333074069
 31
0.0
  0
LINE
  5
3C6
330
2
100
AcDbEntity
  8
0
  6
Continuous
 62
     7
100
AcDbLine
 10
142.2045531796531
 20
53.54740333074068
 30
0.0
 11
142.404553179653
 21
53.54740333074068
 31
0.0
  0
LINE
  5
3C7
330
2
100
AcDbEntity
  8
0
  6
Continuous
 62
     7
100
AcDbLine
 10
288.2045531796563
 20
146.2874033307407
 30
0.0
 11
284.2045531796563
 21
146.2874033307407
 31
0.0
  0
LINE
  5
3C8
330
2
100
AcDbEntity
  8
0
  6
Continuous
 62
     7
100
AcDbLine
 10
288.2045531796564
 20
177.2774033307408
 30
0.0
 11
288.2045531796563
 21
146.2874033307407
 31
0.0
  0
LINE
  5
3C9
330
2
100
AcDbEntity
  8
0
  6
Continuous
 62
     7
100
AcDbLine
 10
284.2045531796563
 20
150.3474033307407
 30
0.0
 11
284.2045531796563
 21
146.2874033307407
 31
0.0
  0
LINE
  5
3CA
330
2
100
AcDbEntity
  8
0
  6
Continuous
 62
     7
100
AcDbLine
 10
288.2045531796563
 20
148.2874033307407
 30
0.0
 11
284.2045531796563
 21
148.2874033307407
 31
0.0
  0
LINE
  5
3CB
330
2
100
AcDbEntity
  8
0
  6
Continuous
 62
     7
100
AcDbLine
 10
286.2045531796564
 20
180.2774033307408
 30
0.0
 11
285.2045531796564
 21
180.2774033307408
 31
0.0
  0
LINE
  5
3CC
330
2
100
AcDbEntity
  8
0
  6
Continuous
 62
     7
100
AcDbLine
 10
286.0045531796565
 20
178.2774033307408
 30
0.0
 11
284.2045531796564
 21
178.2774033307408
 31
0.0
  0
LINE
  5
3CD
330
2
100
AcDbEntity
  8
0
  6
Continuous
 62
     7
100
AcDbLine
 10
286.0045531796565
 20
178.2774033307408
 30
0.0
 11
286.0045531796565
 21
177.6474033307406
 31
0.0
  0
LINE
  5
3CE
330
2
100
AcDbEntity
  8
0
  6
Continuous
 62
     7
100
AcDbLine
 10
285.2045531796564
 20
180.2774033307408
 30
0.0
 11
285.2045531796564
 21
178.2774033307408
 31
0.0
  0
LINE
  5
3CF
330
2
100
AcDbEntity
  8
0
  6
Continuous
 62
     7
100
AcDbLine
 10
288.2045531796564
 20
177.2774033307408
 30
0.0
 11
286.2045531796564
 21
180.2774033307408
 31
0.0
  0
LINE
  5
3D0
330
2
100
AcDbEntity
  8
0
  6
Continuous
 62
     7
100
AcDbLine
 10
88.70455317965639
 20
162.8474033307407
 30
0.0
 11
142.7045531796563
 21
162.8474033307407
 31
0.0
  0
LINE
  5
3D1
330
2
100
AcDbEntity
  8
0
  6
Continuous
 62
     7
100
AcDbLine
 10
142.7045531796563
 20
170.3474033307407
 30
0.0
 11
142.7045531796563
 21
162.8474033307407
 31
0.0
  0
LINE
  5
3D2
330
2
100
AcDbEntity
  8
0
  6
Continuous
 62
     7
100
AcDbLine
 10
88.70455317965639
 20
170.3474033307407
 30
0.0
 11
88.70455317965639
 21
162.8474033307407
 31
0.0
  0
LINE
  5
3D3
330
2
100
AcDbEntity
  8
0
  6
CENTER
 62
     4
100
AcDbLine
 10
280.7499472254619
 20
195.3474033307407
 30
0.0
 11
288.2045531796564
 21
195.3474033307407
 31
0.0
  0
LINE
  5
3D4
330
2
100
AcDbEntity
  8
0
  6
Continuous
 62
     7
100
AcDbLine
 10
250.7045531796564
 20
240.3474033307407
 30
0.0
 11
250.7045531796564
 21
177.8474033307407
 31
0.0
  0
LINE
  5
3D5
330
2
100
AcDbEntity
  8
0
  6
Continuous
 62
     7
100
AcDbLine
 10
251.2045531796565
 20
178.3474033307407
 30
0.0
 11
280.2045531796565
 21
178.3474033307407
 31
0.0
  0
LINE
  5
3D6
330
2
100
AcDbEntity
  8
0
  6
Continuous
 62
     7
100
AcDbLine
 10
280.2045531796565
 20
178.3474033307407
 30
0.0
 11
280.2045531796563
 21
150.3474033307407
 31
0.0
  0
LINE
  5
3D7
330
2
100
AcDbEntity
  8
0
  6
Continuous
 62
     7
100
AcDbLine
 10
250.7045531796564
 20
239.2474033307407
 30
0.0
 11
251.2045531796564
 21
239.2474033307407
 31
0.0
  0
LINE
  5
3D8
330
2
100
AcDbEntity
  8
0
  6
Continuous
 62
     7
100
AcDbLine
 10
251.2045531796565
 20
240.3474033307407
 30
0.0
 11
288.2045531796564
 21
240.3474033307407
 31
0.0
  0
LINE
  5
3D9
330
2
100
AcDbEntity
  8
0
  6
Continuous
 62
     7
100
AcDbLine
 10
252.7045531796564
 20
178.3474033307405
 30
0.0
 11
252.7045531796564
 21
177.8474033307407
 31
0.0
  0
LINE
  5
3DA
330
2
100
AcDbEntity
  8
0
  6
Continuous
 62
     7
100
AcDbLine
 10
279.7045531796564
 20
176.5474033307408
 30
0.0
 11
280.2045531796564
 21
176.5474033307407
 31
0.0
  0
LINE
  5
3DB
330
2
100
AcDbEntity
  8
0
  6
Continuous
 62
     7
100
AcDbLine
 10
279.7045531796564
 20
151.4474033307407
 30
0.0
 11
280.2045531796563
 21
151.4474033307407
 31
0.0
  0
LINE
  5
3DC
330
2
100
AcDbEntity
  8
0
  6
Continuous
 62
     7
100
AcDbLine
 10
280.2045531796563
 20
150.3474033307407
 30
0.0
 11
288.2045531796563
 21
150.3474033307407
 31
0.0
  0
LINE
  5
3DD
330
2
100
AcDbEntity
  8
0
  6
CENTER
 62
     4
100
AcDbLine
 10
132.2045531796531
 20
242.0
 30
0.0
 11
132.2045531796531
 21
141.5565320818205
 31
0.0
  0
LINE
  5
3DE
330
2
100
AcDbEntity
  8
0
  6
Continuous
 62
     7
 48
5.0
100
AcDbLine
 10
97.95455317965632
 20
182.5974033307378
 30
0.0
 11
166.4545531796562
 21
182.5974033307378
 31
0.0
  0
ENDSEC
  0
SECTION
  2
OBJECTS
  0
DICTIONARY
  5
9
330
0
100
AcDbDictionary
281
     1
  3
ACAD_COLOR
350
3F
  3
ACAD_GROUP
350
39
  3
ACAD_LAYOUT
350
14
  3
ACAD_MATERIAL
350
B
  3
ACAD_MLEADERSTYLE
350
42
  3
ACAD_MLINESTYLE
350
3A
  3
ACAD_PLOTSETTINGS
350
3B
  3
ACAD_PLOTSTYLENAME
350
8
  3
ACAD_SCALELIST
350
40
  3
ACAD_TABLESTYLE
350
41
  3
ACAD_VISUALSTYLE
350
2C
  3
ACDB_RECOMPOSE_DATA
350
3EA
  3
AcDbVariableDictionary
350
3DF
  0
DICTIONARY
  5
1C
330
1B
100
AcDbDictionary
280
     1
281
     1
  3
ACAD_LAYERFILTERS
360
1D
  3
ACAD_LAYERSTATES
360
1E
  3
ACLYDICTIONARY
360
1F
  0
DICTIONARY
  5
5
330
4
100
AcDbDictionary
280
     1
281
     1
  3
ADSK_XREC_LAYER_RECONCILED
360
6
  0
DICTIONARY
  5
3F
102
{ACAD_REACTORS
330
9
102
}
330
9
100
AcDbDictionary
281
     1
  0
DICTIONARY
  5
39
102
{ACAD_REACTORS
330
9
102
}
330
9
100
AcDbDictionary
281
     1
  0
DICTIONARY
  5
14
102
{ACAD_REACTORS
330
9
102
}
330
9
100
AcDbDictionary
281
     1
  3
Model
350
13
  3
ﾚｲｱｳﾄ1
350
1A
  0
DICTIONARY
  5
B
102
{ACAD_REACTORS
330
9
102
}
330
9
100
AcDbDictionary
281
     1
  3
ByBlock
350
3C
  3
ByLayer
350
F
  3
Global
350
A
  0
DICTIONARY
  5
42
102
{ACAD_REACTORS
330
9
102
}
330
9
100
AcDbDictionary
281
     1
  0
DICTIONARY
  5
3A
102
{ACAD_REACTORS
330
9
102
}
330
9
100
AcDbDictionary
281
     1
  3
STANDARD
350
49
  0
DICTIONARY
  5
3B
102
{ACAD_REACTORS
330
9
102
}
330
9
100
AcDbDictionary
281
     1
  0
ACDBDICTIONARYWDFLT
  5
8
102
{ACAD_REACTORS
330
9
102
}
330
9
100
AcDbDictionary
281
     1
  3
Normal
350
7
100
AcDbDictionaryWithDefault
340
7
  0
DICTIONARY
  5
40
102
{ACAD_REACTORS
330
9
102
}
330
9
100
AcDbDictionary
281
     1
  3
A0
350
4E
  3
A1
350
4F
  3
A2
350
50
  3
A3
350
51
  3
A4
350
52
  3
A5
350
53
  3
A6
350
54
  3
A7
350
55
  3
A8
350
56
  3
A9
350
57
  3
B0
350
58
  3
B1
350
59
  3
B2
350
5A
  3
B3
350
5B
  3
B4
350
5C
  3
B5
350
5D
  3
B6
350
5E
  0
DICTIONARY
  5
41
102
{ACAD_REACTORS
330
9
102
}
330
9
100
AcDbDictionary
281
     1
  3
Standard
350
4A
  0
DICTIONARY
  5
2C
102
{ACAD_REACTORS
330
9
102
}
330
9
100
AcDbDictionary
281
     1
  3
2dWireframe
350
2B
  3
Realistic
350
4C
  3
Wireframe
350
4D
  0
XRECORD
  5
3EA
102
{ACAD_REACTORS
330
9
102
}
330
9
100
AcDbXrecord
280
     1
 90
        1
330
4A
  0
DICTIONARY
  5
3DF
102
{ACAD_REACTORS
330
9
102
}
330
9
100
AcDbDictionary
281
     1
  3
CANNOSCALE
350
3E2
  3
CMLEADERSTYLE
350
3E1
  3
CTABLESTYLE
350
3E0
  3
DIMASSOC
350
3E6
  3
HIDETEXT
350
3E5
  3
INDEXCTL
350
3E4
  3
SOLIDHIST
350
3E7
  3
SORTENTS
350
3E3
  3
XCLIPFRAME
350
3E8
  0
DICTIONARY
  5
1D
102
{ACAD_REACTORS
330
1C
102
}
330
1C
100
AcDbDictionary
281
     1
  0
DICTIONARY
  5
1E
102
{ACAD_REACTORS
330
1C
102
}
330
1C
100
AcDbDictionary
281
     1
  0
DICTIONARY
  5
1F
102
{ACAD_REACTORS
330
1C
102
}
330
1C
100
AcDbDictionary
281
     1
1001
ACAD
1000
<All
  0
XRECORD
  5
6
102
{ACAD_REACTORS
330
5
102
}
330
5
100
AcDbXrecord
280
     1
290
     1
  0
LAYOUT
  5
13
102
{ACAD_XDICTIONARY
360
15
102
}
102
{ACAD_REACTORS
330
14
102
}
330
14
100
AcDbPlotSettings
  1

  2
\\DEVSVR02\LP-8700
  4
A3
  6

 40
5.873749732971191
 41
5.873747825622557
 42
5.873748779296875
 43
5.873748779296875
 44
297.0106506347656
 45
419.9466552734373
 46
0.0
 47
0.0
 48
0.0
 49
0.0
140
0.0
141
0.0
142
1.0
143
1.0
 70
 11952
 72
     1
 73
     1
 74
     2
  7
ﾍﾟﾝ設定.ctb
 75
    16
147
1.0
148
0.0
149
0.0
100
AcDbLayout
  1
Model
 70
     1
 71
     0
 10
0.0
 20
0.0
 11
12.0
 21
9.0
 12
0.0
 22
0.0
 32
0.0
 14
0.0
 24
0.0
 34
0.0
 15
0.0
 25
0.0
 35
0.0
146
0.0
 13
0.0
 23
0.0
 33
0.0
 16
1.0
 26
0.0
 36
0.0
 17
0.0
 27
1.0
 37
0.0
 76
     0
330
2
331
2A
  0
LAYOUT
  5
1A
102
{ACAD_XDICTIONARY
360
3EC
102
}
102
{ACAD_REACTORS
330
14
102
}
330
14
100
AcDbPlotSettings
  1

  2
なし
  4

  6

 40
0.0
 41
0.0
 42
0.0
 43
0.0
 44
0.0
 45
0.0
 46
0.0
 47
0.0
 48
0.0
 49
0.0
140
0.0
141
0.0
142
1.0
143
1.0
 70
   688
 72
     0
 73
     0
 74
     5
  7
ﾍﾟﾝ設定.ctb
 75
    16
147
1.0
148
0.0
149
0.0
100
AcDbLayout
  1
ﾚｲｱｳﾄ1
 70
     0
 71
     1
 10
0.0
 20
0.0
 11
12.0
 21
9.0
 12
0.0
 22
0.0
 32
0.0
 14
1.000000000000000E+20
 24
1.000000000000000E+20
 34
1.000000000000000E+20
 15
-1.000000000000000E+20
 25
-1.000000000000000E+20
 35
-1.000000000000000E+20
146
0.0
 13
0.0
 23
0.0
 33
0.0
 16
1.0
 26
0.0
 36
0.0
 17
0.0
 27
1.0
 37
0.0
 76
     0
330
17
  0
MATERIAL
  5
3C
102
{ACAD_XDICTIONARY
360
3D
102
}
102
{ACAD_REACTORS
330
B
102
}
330
B
100
AcDbMaterial
  1
ByBlock
 73
     1
 78
     1
172
     1
176
     1
270
     1
274
     1
  0
MATERIAL
  5
F
102
{ACAD_XDICTIONARY
360
10
102
}
102
{ACAD_REACTORS
330
B
102
}
330
B
100
AcDbMaterial
  1
ByLayer
 73
     1
 78
     1
172
     1
176
     1
270
     1
274
     1
  0
MATERIAL
  5
A
102
{ACAD_XDICTIONARY
360
C
102
}
102
{ACAD_REACTORS
330
B
102
}
330
B
100
AcDbMaterial
  1
Global
 73
     1
 78
     1
172
     1
176
     1
270
     1
274
     1
  0
MLINESTYLE
  5
49
102
{ACAD_REACTORS
330
3A
102
}
330
3A
100
AcDbMlineStyle
  2
STANDARD
 70
     0
  3

 62
     0
 51
90.0
 52
90.0
 71
     2
 49
0.5
 62
   256
  6
BYLAYER
 49
-0.5
 62
   256
  6
BYLAYER
  0
ACDBPLACEHOLDER
  5
7
102
{ACAD_REACTORS
330
8
102
}
330
8
  0
SCALE
  5
4E
102
{ACAD_REACTORS
330
40
102
}
330
40
100
AcDbScale
 70
     0
300
1:1
140
1.0
141
1.0
290
     1
  0
SCALE
  5
4F
102
{ACAD_REACTORS
330
40
102
}
330
40
100
AcDbScale
 70
     0
300
1/128" = 1'-0"
140
0.0078125
141
12.0
290
     0
  0
SCALE
  5
50
102
{ACAD_REACTORS
330
40
102
}
330
40
100
AcDbScale
 70
     0
300
1/64" = 1'-0"
140
0.015625
141
12.0
290
     0
  0
SCALE
  5
51
102
{ACAD_REACTORS
330
40
102
}
330
40
100
AcDbScale
 70
     0
300
1/32" = 1'-0"
140
0.03125
141
12.0
290
     0
  0
SCALE
  5
52
102
{ACAD_REACTORS
330
40
102
}
330
40
100
AcDbScale
 70
     0
300
1/16" = 1'-0"
140
0.0625
141
12.0
290
     0
  0
SCALE
  5
53
102
{ACAD_REACTORS
330
40
102
}
330
40
100
AcDbScale
 70
     0
300
3/32" = 1'-0"
140
0.09375
141
12.0
290
     0
  0
SCALE
  5
54
102
{ACAD_REACTORS
330
40
102
}
330
40
100
AcDbScale
 70
     0
300
1/8" = 1'-0"
140
0.125
141
12.0
290
     0
  0
SCALE
  5
55
102
{ACAD_REACTORS
330
40
102
}
330
40
100
AcDbScale
 70
     0
300
3/16" = 1'-0"
140
0.1875
141
12.0
290
     0
  0
SCALE
  5
56
102
{ACAD_REACTORS
330
40
102
}
330
40
100
AcDbScale
 70
     0
300
1/4" = 1'-0"
140
0.25
141
12.0
290
     0
  0
SCALE
  5
57
102
{ACAD_REACTORS
330
40
102
}
330
40
100
AcDbScale
 70
     0
300
3/8" = 1'-0"
140
0.375
141
12.0
290
     0
  0
SCALE
  5
58
102
{ACAD_REACTORS
330
40
102
}
330
40
100
AcDbScale
 70
     0
300
1/2" = 1'-0"
140
0.5
141
12.0
290
     0
  0
SCALE
  5
59
102
{ACAD_REACTORS
330
40
102
}
330
40
100
AcDbScale
 70
     0
300
3/4" = 1'-0"
140
0.75
141
12.0
290
     0
  0
SCALE
  5
5A
102
{ACAD_REACTORS
330
40
102
}
330
40
100
AcDbScale
 70
     0
300
1" = 1'-0"
140
1.0
141
12.0
290
     0
  0
SCALE
  5
5B
102
{ACAD_REACTORS
330
40
102
}
330
40
100
AcDbScale
 70
     0
300
1-1/2" = 1'-0"
140
1.5
141
12.0
290
     0
  0
SCALE
  5
5C
102
{ACAD_REACTORS
330
40
102
}
330
40
100
AcDbScale
 70
     0
300
3" = 1'-0"
140
3.0
141
12.0
290
     0
  0
SCALE
  5
5D
102
{ACAD_REACTORS
330
40
102
}
330
40
100
AcDbScale
 70
     0
300
6" = 1'-0"
140
6.0
141
12.0
290
     0
  0
SCALE
  5
5E
102
{ACAD_REACTORS
330
40
102
}
330
40
100
AcDbScale
 70
     0
300
1'-0" = 1'-0"
140
12.0
141
12.0
290
     0
  0
TABLESTYLE
  5
4A
102
{ACAD_XDICTIONARY
360
4B
102
}
102
{ACAD_REACTORS
330
41
102
}
330
41
100
AcDbTableStyle
  3
Standard
 70
     0
 71
     0
 40
0.06
 41
0.06
280
     0
281
     0
  7
STANDARD
140
0.18
170
     2
 62
     0
 63
     7
283
     0
274
    -2
284
     1
 64
     0
275
    -2
285
     1
 65
     0
276
    -2
286
     1
 66
     0
277
    -2
287
     1
 67
     0
278
    -2
288
     1
 68
     0
279
    -2
289
     1
 69
     0
  7
STANDARD
140
0.25
170
     5
 62
     0
 63
     7
283
     0
274
    -2
284
     1
 64
     0
275
    -2
285
     1
 65
     0
276
    -2
286
     1
 66
     0
277
    -2
287
     1
 67
     0
278
    -2
288
     1
 68
     0
279
    -2
289
     1
 69
     0
  7
STANDARD
140
0.18
170
     5
 62
     0
 63
     7
283
     0
274
    -2
284
     1
 64
     0
275
    -2
285
     1
 65
     0
276
    -2
286
     1
 66
     0
277
    -2
287
     1
 67
     0
278
    -2
288
     1
 68
     0
279
    -2
289
     1
 69
     0
  0
VISUALSTYLE
  5
2B
102
{ACAD_XDICTIONARY
360
3EE
102
}
102
{ACAD_REACTORS
330
2C
102
}
330
2C
100
AcDbVisualStyle
  2

 70
     4
 71
     0
 72
     2
 73
     0
 90
        0
 40
-0.6
 41
-30.0
 62
     5
 63
     7
 74
     1
 91
        4
 64
     7
 65
   257
 75
     1
175
     1
 42
1.0
 92
        0
 66
   257
 43
1.0
 76
     1
 77
     6
 78
     2
 67
     7
 79
     5
170
     0
171
     0
290
     0
174
     0
 93
        1
 44
0.0
173
     0
291
     0
 45
0.0
1001
ACAD
1000
AcDbSavedByObjectVersion
1070
     0
  0
VISUALSTYLE
  5
4C
102
{ACAD_XDICTIONARY
360
3F1
102
}
102
{ACAD_REACTORS
330
2C
102
}
330
2C
100
AcDbVisualStyle
  2

 70
     8
 71
     2
 72
     2
 73
     0
 90
        0
 40
-0.6
 41
-30.0
 62
     5
 63
     7
 74
     1
 91
        0
 64
     7
 65
   257
 75
     1
175
     1
 42
1.0
 92
        8
 66
     8
 43
1.0
 76
     1
 77
     6
 78
     2
 67
     7
 79
     5
170
     0
171
     0
290
     0
174
     0
 93
       13
 44
0.0
173
     0
291
     0
 45
0.0
1001
ACAD
1000
AcDbSavedByObjectVersion
1070
     0
  0
VISUALSTYLE
  5
4D
102
{ACAD_XDICTIONARY
360
3F3
102
}
102
{ACAD_REACTORS
330
2C
102
}
330
2C
100
AcDbVisualStyle
  2

 70
     5
 71
     0
 72
     2
 73
     0
 90
        0
 40
-0.6
 41
-30.0
 62
     5
 63
     7
 74
     1
 91
        4
 64
     7
 65
   257
 75
     1
175
     1
 42
1.0
 92
        0
 66
   257
 43
1.0
 76
     1
 77
     6
 78
     2
 67
     7
 79
     3
170
     0
171
     0
290
     0
174
     0
 93
        1
 44
0.0
173
     0
291
     0
 45
0.0
1001
ACAD
1000
AcDbSavedByObjectVersion
1070
     0
  0
DICTIONARYVAR
  5
3E2
102
{ACAD_REACTORS
330
3DF
102
}
330
3DF
100
DictionaryVariables
280
     0
  1
1:1
  0
DICTIONARYVAR
  5
3E1
102
{ACAD_REACTORS
330
3DF
102
}
330
3DF
100
DictionaryVariables
280
     0
  1
STANDARD
  0
DICTIONARYVAR
  5
3E0
102
{ACAD_REACTORS
330
3DF
102
}
330
3DF
100
DictionaryVariables
280
     0
  1
STANDARD
  0
DICTIONARYVAR
  5
3E6
102
{ACAD_REACTORS
330
3DF
102
}
330
3DF
100
DictionaryVariables
280
     0
  1
1
  0
DICTIONARYVAR
  5
3E5
102
{ACAD_REACTORS
330
3DF
102
}
330
3DF
100
DictionaryVariables
280
     0
  1
1
  0
DICTIONARYVAR
  5
3E4
102
{ACAD_REACTORS
330
3DF
102
}
330
3DF
100
DictionaryVariables
280
     0
  1
0
  0
DICTIONARYVAR
  5
3E7
102
{ACAD_REACTORS
330
3DF
102
}
330
3DF
100
DictionaryVariables
280
     0
  1
1
  0
DICTIONARYVAR
  5
3E3
102
{ACAD_REACTORS
330
3DF
102
}
330
3DF
100
DictionaryVariables
280
     0
  1
127
  0
DICTIONARYVAR
  5
3E8
102
{ACAD_REACTORS
330
3DF
102
}
330
3DF
100
DictionaryVariables
280
     0
  1
2
  0
DICTIONARY
  5
15
330
13
100
AcDbDictionary
280
     1
281
     1
  3
ACAD_XREC_ROUNDTRIP
360
3EB
  3
ADSK_XREC_LAYOUTTHUMBNAIL
360
16
  0
DICTIONARY
  5
3EC
330
1A
100
AcDbDictionary
280
     1
281
     1
  3
ACAD_XREC_ROUNDTRIP
360
3ED
  0
DICTIONARY
  5
3D
330
3C
100
AcDbDictionary
280
     1
281
     1
  3
ACAD_XREC_ROUNDTRIP
360
3E
  0
DICTIONARY
  5
10
330
F
100
AcDbDictionary
280
     1
281
     1
  3
ACAD_XREC_ROUNDTRIP
360
11
  0
DICTIONARY
  5
C
330
A
100
AcDbDictionary
280
     1
281
     1
  3
ACAD_XREC_ROUNDTRIP
360
D
  0
DICTIONARY
  5
4B
330
4A
100
AcDbDictionary
280
     1
281
     1
  3
ACAD_ROUNDTRIP_2008_TABLESTYLE_CELLSTYLEMAP
360
3E9
  3
ACAD_XREC_ROUNDTRIP
360
3F0
  0
DICTIONARY
  5
3EE
330
2B
100
AcDbDictionary
280
     1
281
     1
  3
ACAD_XREC_ROUNDTRIP
360
3EF
  0
DICTIONARY
  5
3F1
330
4C
100
AcDbDictionary
280
     1
281
     1
  3
ACAD_XREC_ROUNDTRIP
360
3F2
  0
DICTIONARY
  5
3F3
330
4D
100
AcDbDictionary
280
     1
281
     1
  3
ACAD_XREC_ROUNDTRIP
360
3F4
  0
XRECORD
  5
3EB
102
{ACAD_REACTORS
330
15
102
}
330
15
100
AcDbXrecord
280
     1
102
SHADEPLOT
 70
     0
102
SHADEPLOTRESLEVEL
 70
     2
102
SHADEPLOTCUSTOMDPI
 70
   300
  0
XRECORD
  5
16
102
{ACAD_REACTORS
330
15
102
}
330
15
100
AcDbXrecord
280
     1
310
280000000001000072000000010008000000000000720000000000000000000000010000000000000000000000000000C8C8C8000000000000000000000000000000000000000000000000000000000000000000330000006600000099000000CC000000FF00000000330000333300006633000099330000CC330000FF3300
310
0000660000336600006666000099660000CC660000FF66000000990000339900006699000099990000CC990000FF99000000CC000033CC000066CC000099CC0000CCCC0000FFCC000000FF000033FF000066FF000099FF0000CCFF0000FFFF000000003300330033006600330099003300CC003300FF003300003333003333
310
33006633330099333300CC333300FF33330000663300336633006666330099663300CC663300FF66330000993300339933006699330099993300CC993300FF99330000CC330033CC330066CC330099CC3300CCCC3300FFCC330000FF330033FF330066FF330099FF3300CCFF3300FFFF330000006600330066006600660099
310
006600CC006600FF00660000336600333366006633660099336600CC336600FF33660000666600336666006666660099666600CC666600FF66660000996600339966006699660099996600CC996600FF99660000CC660033CC660066CC660099CC6600CCCC6600FFCC660000FF660033FF660066FF660099FF6600CCFF6600
310
FFFF660000009900330099006600990099009900CC009900FF00990000339900333399006633990099339900CC339900FF33990000669900336699006666990099669900CC669900FF66990000999900339999006699990099999900CC999900FF99990000CC990033CC990066CC990099CC9900CCCC9900FFCC990000FF99
310
0033FF990066FF990099FF9900CCFF9900FFFF99000000CC003300CC006600CC009900CC00CC00CC00FF00CC000033CC003333CC006633CC009933CC00CC33CC00FF33CC000066CC003366CC006666CC009966CC00CC66CC00FF66CC000099CC003399CC006699CC009999CC00CC99CC00FF99CC0000CCCC0033CCCC0066CC
310
CC0099CCCC00CCCCCC00FFCCCC0000FFCC0033FFCC0066FFCC0099FFCC00CCFFCC00FFFFCC000000FF003300FF006600FF009900FF00CC00FF00FF00FF000033FF003333FF006633FF009933FF00CC33FF00FF33FF000066FF003366FF006666FF009966FF00CC66FF00FF66FF000099FF003399FF006699FF009999FF00CC
310
99FF00FF99FF0000CCFF0033CCFF0066CCFF0099CCFF00CCCCFF00FFCCFF0000FFFF0033FFFF0066FFFF0099FFFF00CCFFFF00FFFFFF00000000000D0D0D001A1A1A00282828003535350043434300505050005D5D5D006B6B6B00787878008686860093939300A1A1A100AEAEAE00BBBBBB00C9C9C900D6D6D600E4E4E400
310
F1F1F100FFFFFF000000000000000000000000000000000000000000000000000000000000000000000000000000000000000000000000000000000000000000000000000000000000000000000000000000000000000000000000000000000000000000000000000000000000000000000000000000000000000000000000
310
00000000000000000000000000000000000000000000000000000000000000000000000000000000000000000000000000000000000000000000000000000000000000000000000000000000000000000000000000000000000000000000000000000000000000000000000000000000000000000000000000000000000000
310
00000000000000000000000000000000000000000000000000000000000000000000000000000000000000000000000000000000000000000000000000000000000000000000000000000000000000000000000000000000000000000000000000000000000000000000000000000000000000000000000000000000000000
310
00000000000000000000000000000000000000000000000000000000000000000000000000000000000000000000000000000000000000000000000000000000000000000000000000000000000000000000000000000000000000000000000000000000000000000000000000000000000000000000000000000000000000
310
00000000000000000000000000000000000000000000000000000000000000000000000000000000000000000000000000000000000000000000000000000000000000000000000000000000000000000000000000000000000000000000000000000000000000000000000000000000000000000000000000000000000000
310
00000000000000000000000000000000000000000000000000000000000000000000000000000000000000000000000000000000000000000000000000000000000000000000000000000000000000000000000000000000000000000000000000000000000000000000000000000000000000000000000000000000000000
310
00000000000000000000000000000000000000000000000000000000000000000000000000000000000000000000000000000000000000000000000000000000000000000000000000000000000000000000000000000000000000000000000000000000000000000000000000000000000000000000000000000000000000
310
00000000000000000000000000000000000000000000000000000000000000000000000000000000000000000000000000000000000000000000000000000000000000000000000000000000000000000000000000000000000000000000000000000000000000000000000000000000000000000000000000000000000000
310
00000000000000000000000000000000000000000000000000000000000000000000000000000000000000000000000000000000000000000000000000000000000000000000000000000000000000000000000000000000000000000000000000000000000000000000000000000000000000000000000000000000000000
310
0000000000000000000000000000000000000000002D000000000000000000000000000000000000000000000000000000000000000000000000000000000000000000000000000000000000000000000000000000000000000000000000000000000000000000000000000000000000000000000000000000000000000000
310
00000000000000000000000000000000000000000000000000000000000000000000000000000000000000000000000000000000000000000000000000000000000000000000000000000000000000000000000000000000000000000000000000000000000000000000000000000000000000000000000000000000000000
310
00000000000000000000000000000000000000000000002D00000000000000000000000000000000000000000000000000000000000000000000000000000000000000000000000000000000000000000000000000000000000000000000000000000000000000000000000000000000000000000000000000000000000000
310
00000000000000000000000000000000000000000000000000000000000000000000000000000000000000000000000000000000000000000000000000000000000000000000000000000000000000000000000000000000000000000000000000000000000000000000000000000000000000000000000000000000000000
310
000000000000000000000000000000000000000000000000002D0000000000000000000000000000000000000000000000000000000000000000000000000000000000000000000000000000000000000000000000000000000000000000000000000000000000000000000000000000000000000000000000000000000000
310
00000000000000000000000000000000000000000000000000000000000000000000000000000000000000000000000000000000000000000000000000000000000000000000000000000000000000000000000000000000000000000000000000000000000000000000000000000000000000000000000000000000000000
310
0000000000000000000000000000000000000000000000000000002D000000000000000000000000000000000000000000000000000000000000000000000000000000000000000000000000000000000000000000000000000000000000000000000000000000000000000000000000000000000000000000000000000000
310
00000000000000000000000000000000000000000000000000000000000000000000000000000000000000000000000000000000000000000000000000000000000000000000000000000000000000000000000000000000000000000000000000000000000000000000000000000000000000000000000000000000000000
310
00000000000000000000000000000000000000000000000000000000002D00000000000000000000000000000000000000000000000000000000000000000000000000000000000000000000000000000000000000000000000000000000000000000000000000000000000000000000000000000000000000000000000000
310
00000000000000000000000000000000000000000000000000000000000000000000000000000000000000000000000000000000000000000000000000000000000000000000000000000000000000000000000000000000000000000000000000000000000000000000000000000000000000000000000000000000000000
310
000000000000000000000000000000000000000000000000000000F5F5F5F52DF5F5F5F5F5000000000000000000000000000000000000000000000000000000000000000000000000000000000000000000000000000000000000000000000000000000000000000000000000000000000000000000000000000000000000
310
00000000000000000000000000000000000000000000000000000000000000000000000000000000000000000000000000000000000000000000000000000000000000000000000000000000000000000000000000000000000000000000000000000000000000000000000000000000000000000000000000000000000000
310
000000000000000000000000000000000000000000000000000000F5F5000000002DF500000000F5000000000000000000000000000000000000000000000000000000000000000000000000000000000000000000000000000000000000000000000000000000000000000000000000000000000000000000000000000000
310
00000000000000000000000000000000000000000000000000000000000000000000000000000000000000000000000000000000000000000000000000000000000000000000000000000000000000000000000000000000000000000000000000000000000000000000000000000000000000000000000000000000000000
310
00000000000000000000000000000000000000000000000000000000F500000000F5F500F5F500000000F5000000000000000000000000000000000000000000000000000000000000000000000000000000000000000000000000000000000000000000000000000000000000000000000000000000000000000000000000
310
00000000000000000000000000000000000000000000000000000000000000000000000000000000000000000000000000000000000000000000000000000000000000000000000000000000000000000000000000000000000000000000000000000000000000000000000000000000000000000000000000000000000000
310
000000000000000000000000000000000000000000000000000000000000F500000000F5002D00F500000000F500000000000000000000000000000000000000000000000000000000000000000000000000000000000000000000000000000000000000000000000000000000000000000000000000000000000000000000
310
00000000000000000000000000000000000000000000000000000000000000000000000000000000000000000000000000000000000000000000000000000000000000000000000000000000000000000000000000000000000000000000000000000000000000000000000000000000000000000000000000000000000000
310
0000000000000000000000000000000000000000000000000000000000000000F50000F5F5F5002D00F5F5F5F500F50000000000000000000000000000000000000000000000000000000000000000000000000000000000000000000000000000000000000000000000000000000000000000000000000000000000000000
310
00000000000000000000000000000000000000000000000000000000000000000000000000000000000000000000000000000000000000000000000000000000000000000000000000000000000000000000000000000000000000000000000000000000000000000000000000000000000000000000F5F5F5F5F5F5F5F5F5
310
F5F5F5F5F5F5F5F5F5F5F5F5F5F5F5F5F5F5F5F5F5F5F5F5F5F5F5F5F5F5F5F5F5F5F5F5F5F5F5F5F52DF5F5F5F5F5F5F5F5F5F5F5F5F5F5F5F5F5F5F5F5F5F5F5F5F5F5F5F5F5F5F5F5F5F5F5F5F5F5F5F5F5F5F5F5F5F5F5F5F5F50000000000000000000000000000000000000000000000000000000000000000000000
310
000000000000000000000000000000000000000000000000000000000000000000000000000000000000000000000000000000000000000000000000000000000000000000000000000000F5F5F50000000000000000000000000000000000000000000000000000000000000000000000000000000000F5F5000000000000
310
000000000000000000000000000000000000000000000000000000000000000000000000000000000000002D0000000000000000000000000000000000000000000000000000000000000000000000000000000000000000000000000000F50000000000000000000000000000000000000000000000000000000000000000
310
0000000000000000000000000000000000000000000000000000000000000000000000000000000000000000000000000000000000000000000000000000000000000000000000000000000000F500000000000000000000000000000000000000000000000000000000000000000000000000000000000000F50000000000
310
0000000000000000000000000000000000000000000000000000000000000000000000000000000000000000002D0000000000000000000000000000000000000000000000000000000000000000000000000000000000000000000000000000F5000000000000000000000000000000000000000000000000000000000000
310
00000000000000000000000000000000000000000000000000000000000000000000000000000000000000000000000000000000000000000000000000000000000000000000000000000000000000F500000000000000000000000000000000000000000000000000000000000000000000000000000000000000F5000000
310
00000000000000000000000000000000000000000000000000000000000000000000000000000000000000000000002D0000000000000000000000000000000000000000000000000000000000000000000000000000000000000000000000000000F500000000000000000000000000000000000000000000000000000000
310
000000000000000000000000000000000000000000000000000000000000000000000000000000000000000000000000000000000000000000000000000000000000000000000000000000000000000000F500000000000000000000000000000000000000000000000000000000000000000000000000000000000000F5F5
310
F5F5F5F5F5F5F5F5F5F5F5F5F5F5F5F5F5F5F5F5F5F5F5F5F5F5F5F5F5F5F5F5F5F5F5F5F5F5F5F5F5F5F5F5F5F5F5F5F52DF5F5F5F5F5F5F5F5F5F5F5F5F500000000000000000000000000000000000000000000000000000000000000000000000000F50000000000000000000000000000000000000000000000000000
310
000000000000000000000000000000000000000000000000000000000000000000000000000000000000000000000000000000000000000000000000000000000000000000000000000000000000F5F5F5F5F5F500000000000000000000000000000000000000000000000000000000000000000000000000000000000000
310
F5F500F5F5F5F5F5F5F5F5F5F5F5F5F5F5F5F5F5F5F5F5F5F5F5F5F5F5F5F5F5F5F5F5F5F5F5F5F5F5F5F5F5F5F5F5F5F5F5F52DF5F5F5F5F5F5F5F5F5F5F500F500000000000000000000000000000000000000000000000000000000000000000000000000F5000000000000000000000000000000000000000000000000
310
00000000000000000000000000000000000000000000000000000000000000000000000000000000000000000000000000000000000000000000000000000000000000000000000000000000000000F5000000F5F5F50000000000000000000000000000000000000000000000000000000000000000000000000000000000
310
0000F5F500F5F5F5F5F5F5F5F5F5F5F5F5F5F5F5F5F5F5F5F5F5F5F5F5F5F5F5F5F5F5F5F5F5F5F5F5F5F5F5F5F5F5F5F5F5F5F5F52DF5F5F5F5F5F5F5F5F5F5F500F500000000000000000000000000000000000000000000000000000000000000000000000000F500000000000000000000000000000000000000000000
310
0000000000000000000000000000000000000000000000000000000000000000000000000000000000000000000000000000000000000000000000000000000000000000000000000000000000000000F5000000F50000F5000000000000000000000000000000000000000000000000000000000000000000000000000000
310
00000000F5F500F5F5F5000000F5F5F5000000F5F5F5000000F5F5000000F5F5F5000000F5F5F5000000F5F5000000F5F5F5000000F5F52D000000F5F5000000F5F5F500F500000000000000000000000000000000000000000000000000000000000000000000000000F50000000000000000000000000000000000000000
310
000000000000000000000000000000000000000000000000000000000000000000000000000000000000000000000000000000000000000000000000000000000000000000000000000000000000000000F5000000F500F500F500000000000000000000000000000000000000000000000000000000000000000000000000
310
000000000000F5F500F5F5F5000000F5F5F5000000F5F5F5000000F5F5000000F5F5F5000000F5F5F5000000F5F5000000F5F5F5000000F5F52D000000F5F5000000F5F5F500F500000000000000000000000000000000000000000000000000000000000000000000000000F5000000000000000000000000000000000000
310
00000000000000000000000000000000000000000000000000000000000000000000000000000000000000000000000000000000000000000000000000000000000000000000000000000000000000000000F5000000F5000000F5F50000000000000000000000000000000000000000000000000000000000000000000000
310
0000000000000000F5F500F5F5F5F5F5F5F5F5F5F5F5F5F5F5F5F5F5F5F5F5F5F5F5F5F5F5F5F5F5F5F5F5F5F5F5F5F5F5F5F5F5F5F5F5F5F5F5F52DF5F5F5F5F5F5F5F5F5F5F500F500000000000000000000000000000000000000000000000000000000000000000000000000F500000000000000000000000000000000
310
000000000000000000000000000000000000000000000000000000000000000000000000000000000000000000000000000000000000000000000000000000000000000000000000000000000000000000000000F500F5F50000000000F5000000000000000000000000000000000000000000000000000000000000000000
310
00000000000000000000F5F500F5F5F500000000F50000000000F50000000000F500000000F50000000000F500000000F50000000000F50000000000F52D000000F50000000000F5F500F500000000000000000000000000000000000000000000000000000000000000000000000000F50000000000000000000000000000
310
00000000000000000000000000000000000000000000000000000000000000000000000000000000000000000000000000000000000000000000000000000000000000000000000000000000000000000000000000F500F500F500000000F5F500000000000000000000000000000000000000000000000000000000000000
310
000000000000000000000000F5F500F5F5F5F5F5F5F5F5F5F5F5F5F5F5F5F5F5F5F5F5F5F5F5F5F5F5F5F5F5F5F5F5F5F5F5F5F5F5F5F5F5F5F5F5F5F5F5F52DF5F5F5F5F5F5F5F5F5F5F500F500000000000000000000000000000000000000000000000000000000000000000000000000F5000000000000000000000000
310
0000000000000000000000000000000000000000000000000000000000000000000000000000000000000000000000000000000000000000000000000000000000000000000000000000000000000000000000000000F5F5F5000000F500F5F500F50000000000000000000000000000000000000000000000000000000000
310
0000000000000000000000000000F5F500F5F5F5000000F5F5F5000000F5F5F5000000F5F5000000F5F5F5000000F5F5F5000000F5F5000000F5F5F5000000F5F52D000000F5F5000000F5F5F500F5000000000000000000000000000000002D0000000000000000000000000000000000000000F500000000000000000000
310
00000000000000000000000000000000000000000000000000000000000000000000000000000000000000000000000000000000000000000000000000000000000000000000000000000000000000002D000000000000F500F5F500000000F5000000F5000000000000000000000000000000000000000000000000000000
310
00000000000000000000000000000000F5F5F5F5F5F5F5F5F5F5F5F5F5F5F5F5F5F5F5F5F5F5F5F5F5F5F5F5F5F5F5F5F5F5F5F5F5F5F5F5F5F5F5F5F5F5F5F5F5F5F52DF5F5F5F5F5F5F5F5F5F5F5F5F5000000000000000000000000000000002D0000000000000000000000000000000000000000F50000000000000000
310
000000000000000000000000000000000000000000000000000000000000000000000000000000000000000000000000000000000000000000000000000000000000000000000000000000000000000000002D000000F5F5F500F50000F500000000000000F500000000000000000000000000000000000000000000000000
310
000000000000000000000000000000000000F5F5F5F5F5F5F5F5F5F5F5F5F5F5F5F5F5F5F5F5F5F5F5F5F5F5F5F5F5F5F5F5F5F5F5F5F5F5F5F5F5F5F5F5F5F5F5F5F5F5F52DF5F5F5F5F5F5F5F5F5F5F5F5F5000000000000000000000000000000002D0000000000000000000000000000000000000000F5000000000000
310
0000000000000000000000000000000000000000000000000000000000000000000000000000000000000000000000000000000000000000000000000000000000000000000000000000000000000000000000002D000000F5000000F5F50000F5000000000000F50000000000000000000000000000000000000000000000
310
0000000000000000000000000000000000000000F5F5F50000000000000000000000000000000000000000000000000000000000000000000000000000000000000000000000002D0000000000000000000000F5F5000000000000000000000000000000002D0000000000000000000000000000000000000000F500000000
310
00000000000000000000000000000000000000000000000000000000000000000000000000000000000000000000000000000000000000000000000000000000000000000000000000000000000000000000000000002D000000F5000000F500F50000F50000000000F5000000000000000000000000000000000000000000
310
00000000000000000000000000000000000000000000F5F5F50000000000000000000000000000000000000000000000000000000000000000000000000000000000000000000000002D0000000000000000000000F5F5000000000000000000000000F5F5F5F5F5F5F5F5F500000000000000000000000000000000F50000
310
000000000000000000000000000000000000000000000000000000000000000000000000000000000000000000000000000000000000000000000000000000000000000000000000000000000000000000000000F5F5F5F52DF5F5F5F500000000F500F5F5000000000000F500000000000000000000000000000000000000
310
000000000000000000000000000000000000000000000000F5F5F50000000000000000000000000000000000000000000000000000000000000000000000000000000000000000000000002D0000000000000000000000F5F50000000000000000000000F5F50000002D000000F500000000000000000000000000000000F5
310
00000000000000000000000000000000000000000000000000000000000000000000000000000000000000000000000000000000000000000000000000000000000000000000000000000000000000000000000000F5F50000002D000000F50000000000F50000000000000000F50000000000000000000000000000000000
310
0000000000000000000000000000000000000000000000000000F5F5F50000000000000000000000000000000000000000000000000000000000000000000000000000000000000000000000002D0000000000000000000000F5F50000000000000000000000F5F50000002D000000F5000000000000000000000000000000
310
00F500000000000000000000000000000000000000000000000000000000000000000000000000000000000000000000000000000000000000000000000000000000000000000000000000000000000000000000000000F5F50000002D000000F5000000000000F500000000000000F5000000000000000000000000000000
310
00000000000000000000000000000000000000000000000000000000F5F5F50000000000000000000000000000000000000000000000000000000000000000000000000000000000000000000000002D0000000000000000000000F5F50000000000000000000000F5F50000002D000000F500000000000000000000000000
310
000000F500000000000000000000000000000000000000000000000000000000000000000000000000000000000000000000000000000000000000000000000000000000000000000000000000000000000000000000000000F5F50000002D000000F500000000000000F5000000000000F500000000000000000000000000
310
000000000000000000000000000000000000000000000000000000000000F5F5F50000000000000000000000000000000000000000000000000000000000000000000000000000000000000000000000002D0000000000000000000000F5F50000000000000000000000F5F5F5F5F5F5F5F5F5F50000000000000000000000
310
0000000000F500000000000000000000000000000000000000000000000000000000000000000000000000000000000000000000000000000000000000000000000000000000000000000000000000000000000000000000000000F5F50000002D000000F50000000000000000F5F5F5F5F5F5F50000000000000000000000
310
0000000000000000000000000000000000000000000000000000000000000000F5F5F50000000000000000000000000000000000000000000000000000000000000000000000000000000000000000000000002D0000000000000000000000F5F50000000000000000000000F5F5F5F5F5F5F5F5F5F5000000000000000000
310
00000000000000F500000000000000000000000000000000000000000000000000000000000000000000000000000000000000000000000000000000000000000000000000000000000000000000000000000000000000000000000000F5F50000002D000000F50000000000000000000000000000F5000000000000000000
310
00000000000000000000000000000000000000000000000000000000000000000000F5F5F5F5F5F5F5F5F5F5F5F5F5F5F5F5F5F5F5F5F5F5F5F5F5F5F5F5F5F5F5F5F5F5F5F5F5F5F5F5F5F5F5F5F5F5F5F5F5F5F52DF5F5F5F5F5F5F5F5F5F5F5F5F5F5F5F5F5F5F5F5F5F5F5F5F5F5F5F5F5F5F5F5F5F5F5F5F5F5F5F5F5
310
F5F5F5F5F5F5F5F5F5F500000000000000000000000000000000000000000000000000000000000000000000000000000000000000000000000000000000000000000000F5F5F5F5F5F5F5F5F5F5F5F5F5F5F5F5F5F5F5F5F5F5F5F5F5F5F5F5F5F5F5F5F5F5F5F5F5F5F5F5F5F5F5F5F5F5F5F5F5F5F5F500000000000000
310
000000000000000000000000000000000000000000000000000000000000000000000000F5F5000000000000000000000000000000000000000000000000000000000000000000000000000000000000000000000000002D00000000000000000000000000000000000000000000000000000000002D000000000000000000
310
00000000000000000000F5F500000000000000000000000000000000000000000000000000000000000000000000000000000000000000000000000000000000000000000000F5000000000000000000000000000000000000000000000000000000000000002D000000000000000000000000000000000000000000000000
310
0000000000000000000000000000000000000000000000000000000000000000000000000000F500000000000000000000000000000000000000000000000000000000000000000000000000000000000000000000000000002D00000000000000000000000000000000000000000000000000000000002D00000000000000
310
00000000000000000000000000F500000000000000000000000000000000000000000000000000000000000000000000000000000000000000000000000000000000000000000000F5000000000000000000000000000000000000000000000000000000000000002D00000000000000000000000000000000000000000000
310
00000000000000000000000000000000000000000000000000000000000000000000000000000000F500000000000000000000000000000000000000000000000000000000000000000000000000000000000000000000000000002D00000000000000000000000000000000000000000000000000000000002D0000000000
310
000000000000000000000000000000F5000000000000000000000000000000000000000000000000000000000000000000000000000000000000000000000000000000000000000000F500000000000000000000000000000000000000000000000000000000000000002D0000000000000000000000000000000000000000
310
000000000000000000000000000000000000000000000000000000000000000000000000000000000000F500000000000000000000000000000000000000000000000000000000000000000000000000000000000000000000000000002D00000000000000000000000000000000000000000000000000000000002D000000
310
0000000000000000000000000000000000F5000000000000000000000000000000000000000000000000000000000000000000000000000000000000000000000000000000000000000000F500000000000000000000000000000000000000000000000000000000000000002D000000000000000000000000000000000000
310
0000000000000000000000000000000000000000000000000000000000000000000000000000000000000000F500000000000000000000000000000000000000000000000000000000000000000000000000000000000000000000000000002D00000000000000000000000000000000000000000000000000000000000000
310
00000000000000000000000000000000000000F5000000000000000000000000000000000000000000000000000000000000000000000000000000000000000000000000000000000000000000F500000000000000000000000000000000000000000000000000000000000000000000000000000000000000000000000000
310
00000000000000000000000000000000000000000000000000000000000000000000000000000000000000000000F50000000000000000000000000000000000000000000000000000000000000000000000000000000000000000000000000000000000000000000000000000000000000000000000000000000000000000
310
000000000000000000000000000000000000000000F5000000000000000000000000000000000000000000000000000000000000000000000000000000000000000000000000000000000000000000F50000000000000000000000000000000000000000000000000000000000000000000000000000000000000000000000
310
000000000000000000000000000000000000000000000000000000000000000000000000000000000000000000000000F500000000000000000000000000000000000000000000000000000000000000000000000000000000000000000000000000002D000000000000000000000000000000000000000000000000000000
310
0000000000000000000000000000000000000000000000F50000000000000000000000000000000000000000000000000000000000000000000000000000000000000000000000000000000000000000F500000000000000000000000000000000000000000000000000000000000000000000000000000000000000000000
310
0000000000000000000000000000000000000000000000000000000000000000000000000000000000000000000000000000F500000000F5F5F5F5F5F5F5F5F5F5F5F5F5F5F5F5F5F5F5F5F5F5F5F5F5F5F5F5F5F5F5F5F5F5F5F5F5F5F5F5F5F5F5F5F5F52DF5F5F5F5F5F5F5F5F5F5F5F5F5F5F5F5F5F5F5F5F5F5F5F5F5
310
F5F5F5F5F5F5F5F5F5F5F5F5F5F5F5F5F5F5F5F5F5F5000000F50000000000000000000000000000000000000000000000000000000000000000000000000000000000000000000000000000000000000000F5000000000000000000000000000000000000000000000000F5F5F5F5F5F5F5F5F5F5F5F5F5F5F5F5F5F5F5F5
310
F5F5F5F5F5F5F5F5F5F5F50000000000000000000000000000000000000000000000000000000000000000000000000000000000F5000000F5000000000000000000000000000000000000000000000000000000000000000000000000000000000000000000002D0000000000000000000000000000000000000000000000
310
0000000000000000000000000000000000000000000000F5000000F50000000000000000000000000000000000000000000000000000000000000000000000000000000000000000000000000000000000000000F5000000000000000000000000000000000000000000000000F5F5F5F5F5F5F5F5F5F5F5F5F5F5F5F5F5F5
310
F5F5F5F5F5F5F5F5F5F5F5F5F50000000000000000000000000000000000000000000000000000000000000000000000000000000000F5000000F500F5F5F5F5F5F5F5F5F5F5F5F5F5F5F5F5F5F5F5F5F5F5F5F5F5F5F5F5F5F5F5F5F5F5F5F5F5F5F5F5F5F5F5F5F52DF5F5F5F5F5F5F5F5F5F5F5F5F5F5F5F5F5F5F5F5F5
310
F5F5F5F5F5F5F5F5F5F5F5F5F5F5F5F5F5F5F5F5F5F5F5F500F5000000F50000000000000000000000000000000000000000000000000000000000000000000000000000000000000000000000000000000000000000F5000000000000000000000000000000000000000000000000F5F50000000000000000000000000000
310
0000000000000000000000000000000000000000000000000000000000000000000000000000000000000000000000000000000000000000F5000000F500F500000000000000000000000000000000000000000000000000000000000000000000000000000000000000002D00000000000000000000000000000000000000
310
0000000000000000000000000000000000000000000000000000F5F5000000F50000000000000000000000000000000000000000000000000000000000000000000000000000000000000000000000000000000000000000F5000000000000000000000000000000000000000000000000F5F5000000000000000000000000
310
00000000000000000000000000000000000000000000000000000000000000000000000000000000000000000000000000000000000000000000F5000000F500F500000000000000000000000000000000000000000000000000000000000000000000000000000000000000002D0000000000000000000000000000000000
310
00000000000000000000000000000000000000000000000000000000F5F5000000F50000000000000000000000000000000000000000000000000000000000000000000000000000000000000000000000000000000000000000F5000000000000000000000000000000000000000000000000F5F500000000000000000000
310
000000000000000000000000000000000000000000000000000000000000000000000000000000000000000000000000000000000000000000000000F5000000F500F500000000000000000000000000000000000000000000000000000000000000000000000000000000000000002D000000000000000000000000000000
310
000000000000000000000000000000000000000000000000000000000000F5F5000000F50000000000000000000000000000000000000000000000000000000000000000000000000000000000000000000000000000000000000000F5000000000000000000000000000000000000000000000000F5F50000000000000000
310
0000000000000000000000000000000000000000000000000000000000000000000000000000000000000000000000000000000000000000000000000000F5000000F500F500000000F5F5F5F5F5F5F5F5F5F5F5F5F5F5F5F5F5F5F5F5F5F5F5F5F5F5F5F5F5F5F5F5F5F5F5F5F5F5F5F5F5F5F5F5F5F5F5F5F5F5F5F5F5F5
310
F5F5F5F5F5F5F5F5F5F5F5F5F5F5F5F5F5F5F5F5F5F5F5F5F5F5F50000000000F5F5000000F50000000000000000000000000000000000000000000000000000000000000000000000000000000000000000000000000000000000000000F5000000000000000000000000000000000000000000000000F5F5000000000000
310
00000000000000000000000000000000000000000000000000000000000000000000000000000000000000000000000000000000000000000000000000000000F5000000F500F500000000F5F50000000000000000F5F5F5F5F5F5F5F5000000F5F5F5F5F5F5F5F500000000F5F5F5F5F5F5F52D000000F5F5F5F5F5F5F5F5
310
000000F5F5F5F5F5F5F5F500000000000000000000000000000000F5F50000000000F5F5000000F50000000000000000000000000000000000000000000000000000000000000000000000000000000000000000000000000000000000000000F5000000000000000000000000000000000000000000000000F5F500000000
310
000000000000000000000000000000000000000000000000000000000000000000000000000000000000000000000000000000000000000000000000000000000000F5000000F500F500000000F5000000000000000000F5000000000000F5F50000F500000000000000F50000F5000000000000002D000000F50000000000
310
00F5000000F500000000000000F500000000000000000000000000000000F50000000000F5F5000000F50000000000000000000000000000000000000000000000000000000000000000000000000000000000000000000000000000000000000000F5000000000000000000000000000000000000000000000000F5F50000
310
0000000000000000000000000000000000000000000000000000000000000000000000000000000000000000000000000000000000000000000000000000000000000000F5000000F500F500000000F5000000000000000000F500000000000000F50000F500000000000000F50000F500000000000000F5000000F5000000
310
000000F5000000F500000000000000F500000000000000000000000000000000F50000000000F5F5000000F50000000000000000000000000000000000000000000000000000000000000000000000000000000000000000000000000000000000000000F5000000000000000000000000000000000000000000000000F5F5
310
00000000000000000000000000000000000000000000000000000000000000000000000000000000000000000000000000000000000000000000000000000000000000000000F5000000F500F500000000F5000000000000000000F500000000000000F50000F500F50000000000F50000F50000F5F5F5F5002D000000F500
310
00F5000000F5000000F500000000000000F500000000000000000000000000000000F50000000000F5F5000000F50000000000000000000000000000000000000000000000000000000000000000000000000000000000000000000000000000000000000000F5000000000000000000000000000000000000000000000000
310
F5F500000000000000000000000000000000000000000000000000000000000000000000000000000000000000000000000000000000000000000000000000000000000000000000F5000000F500F500000000F5000000000000000000F500000000000000F50000F500F5F5F5000000F50000F50000F500F500002D000000
310
F50000F5F50000F5000000F500000000000000F500000000000000000000000000000000F50000000000F5F5000000F50000000000000000000000000000000000000000000000000000000000000000000000000000000000000000000000000000000000000000F500000000000000000000000000000000000000000000
310
0000F5F500000000000000000000000000000000000000000000000000000000000000000000000000000000000000000000000000000000000000000000000000000000000000000000F5000000F500F500000000F5000000000000000000F500000000000000F50000F500F50000F5F500F50000F5000000F5F500002D00
310
0000F500F500F50000F5000000F500000000000000F500000000000000000000000000000000F50000000000F5F5000000F50000000000000000000000000000000000000000000000000000000000000000000000000000000000000000000000000000000000000000F50000000000000000000000000000000000000000
310
00000000F5F500000000000000000000000000000000000000000000000000000000000000000000000000000000000000000000000000000000000000000000000000000000000000000000F5000000F500F500000000F5000000000000000000F500000000000000F50000F500F5F5F5000000F50000F5000000F5000000
310
2D000000F500F5F5F5F500F5000000F500000000000000F500000000000000000000000000000000F50000000000F5F5000000F50000000000000000000000000000000000000000000000000000000000000000000000000000000000000000000000000000000000000000F5000000000000000000000000000000000000
310
000000000000F5F500000000000000000000000000000000000000000000000000000000000000000000000000000000000000000000000000000000000000000000000000000000000000000000F5000000F500F500000000F5000000000000000000F500000000000000F50000F500000000000000F50000F50000000000
310
00002D000000F5000000000000F5000000F500000000000000F500000000000000000000000000000000F50000000000F5F5000000F50000000000000000000000000000000000000000000000000000000000000000000000000000000000000000000000000000000000000000F500000000000000000000000000000000
310
0000000000000000F5F500000000000000000000000000000000000000000000000000000000000000000000000000000000000000000000000000000000000000000000000000000000000000000000F5000000F500F500000000F5000000000000000000F5000000000000F5F50000F500000000000000F50000F5000000
310
000000002D000000F5000000000000F5000000F500000000000000F500000000000000000000000000000000F50000000000F5F5000000F50000000000000000000000000000000000000000000000000000000000000000000000000000000000000000000000000000000000000000F50000000000000000000000000000
310
00000000000000000000F5F500000000000000000000000000000000000000000000000000000000000000000000000000000000000000000000000000000000000000000000000000000000000000000000F5000000F500F500000000F5F50000000000000000F5F5F5F5F5F5F5F5000000F5F5F5F5F5F5F5F500000000F5
310
F5F5F5F5F5F52D000000F5F5F5F5F5F5F5F5000000F5F5F5F5F5F5F5F50000000000000000000000000000000000F50000000000F5F5000000F50000000000000000000000000000000000000000000000000000000000000000000000000000000000000000000000000000000000000000F5000000000000000000000000
310
000000000000000000000000F5F500000000000000000000000000000000000000000000000000000000000000000000000000000000000000000000000000000000000000000000000000000000000000000000F5000000F500F500000000F5F5F5F5F5F5F5F5F5F5F5F5F5F5F5F5F5F5F5F5F5F5F5F5F5F5F5F5F5F5F5F5
310
F5F5F5F5F5F5F5F52DF5F5F5F5F5F5F5F5F5F5F5F5F5F5F5F5F5F5F5F5F5F5F5F5F5F5F5F5F5F5F5F5F5F5F5F5F5F5F5F50000000000F5F5000000F50000000000000000000000000000000000000000000000000000000000000000000000000000000000000000000000000000000000000000F500000000000000000000
310
0000000000000000000000000000F5F500000000000000000000000000000000000000000000000000000000000000000000000000000000000000000000000000000000000000000000000000000000000000000000F5000000F500F500000000000000000000000000000000000000000000000000000000000000000000
310
000000000000000000002D000000000000000000000000000000000000000000000000000000000000000000000000000000000000000000F5F5000000F50000000000000000000000000000000000000000000000000000000000000000000000000000000000000000000000000000000000000000F50000000000000000
310
00000000000000000000000000000000F5F500000000000000000000000000000000000000000000000000000000000000000000000000000000000000000000000000000000000000000000000000000000000000000000F5000000F500F50000000000000000000000000000000000000000000000000000000000000000
310
0000000000000000000000002D000000000000000000000000000000000000000000000000000000000000000000000000000000000000000000F5F5000000F50000000000000000000000000000000000000000000000000000000000000000000000000000000000000000000000000000000000000000F5000000000000
310
000000000000000000000000000000000000F5F500000000000000000000000000000000000000000000000000000000000000000000000000000000000000000000000000000000000000000000000000000000000000000000F5000000F500F5000000000000000000000000000000000000000000000000000000000000
310
000000000000000000000000000000000000000000000000000000000000000000000000000000000000000000000000000000000000000000000000F5F5000000F50000000000000000000000000000000000000000000000000000000000000000000000000000000000000000000000000000000000000000F500000000
310
0000000000000000000000000000000000000000F5F500000000000000000000000000000000000000000000000000000000000000000000000000000000000000000000000000000000000000000000000000000000000000000000F5000000F500F5F5F5F5F5F5F5F5F5F5F5F5F5F5F5F5F5F5F5F5F5F5F5F5F5F5F5F5F5
310
F5F5F5F5F5F5F5F5F5F5F5F5F5F5F5F52DF5F5F5F5F5F5F5F5F5F5F5F5F5F5F5F5F5F5F5F5F5F5F5F5F5F5F5F5F5F5F5F5F5F5F5F5F5F5F5F5F5F5F5F5F5F5F5000000F50000000000000000000000000000000000000000000000000000000000000000000000000000000000000000000000000000000000000000F50000
310
00000000000000000000000000000000000000000000F5F500000000000000000000000000000000000000000000000000000000000000000000000000000000000000000000000000000000000000000000000000000000000000000000F5000000F500F50000000000000000000000000000000000000000000000000000
310
0000000000000000000000000000000000002D000000000000000000000000000000000000000000000000000000000000000000000000000000000000000000F5F5000000F50000000000000000000000000000000000000000000000000000000000000000000000000000000000000000000000000000000000000000F5
310
000000000000000000000000000000000000000000000000F5F500000000000000000000000000000000000000000000000000000000000000000000000000000000000000000000000000000000000000000000000000000000000000000000F5000000F500F5000000000000000000000000000000000000000000000000
310
000000000000000000000000000000000000000000000000000000000000000000000000000000000000000000000000000000000000000000000000000000000000F5F5000000F500000000000000000000000000000000000000000000000000000000000000000000000000000000000000000000000000000000000000
310
00F5000000000000000000000000000000000000000000000000F5F500000000000000000000000000000000000000000000000000000000000000000000000000000000000000000000000000000000000000000000000000000000000000000000F5000000F500F500000000000000000000000000000000000000000000
310
000000000000000000000000000000000000000000002D000000000000000000000000000000000000000000000000000000000000000000000000000000000000000000F5F5000000F50000000000000000000000000000000000000000000000000000000000000000000000000000000000000000000000000000000000
310
000000F5000000000000000000000000000000000000000000000000F5F500000000000000000000000000000000000000000000000000000000000000000000000000000000000000000000000000000000000000000000000000000000000000000000F5000000F500F50000000000000000000000000000000000000000
310
0000000000000000000000000000000000000000000000002D000000000000000000000000000000000000000000000000000000000000000000000000000000000000000000F5F5000000F5000000000000000000000000000000000000000000000000000000000000000000000000000000000000000000000000000000
310
0000000000F5000000000000000000000000000000000000000000000000F5F500000000000000000000000000000000000000000000000000000000000000000000000000000000000000000000000000000000000000000000000000000000000000000000F5000000F500F5000000000000000000000000000000000000
310
00000000000000000000000000000000000000000000000000002D000000000000000000000000000000000000000000000000000000000000000000000000000000000000000000F5F5000000F500000000000000000000000000000000000000000000000000000000000000000000000000000000000000000000000000
310
00000000000000F5000000000000000000000000000000000000000000000000F5F500000000000000000000000000000000000000000000000000000000000000000000000000000000000000000000000000000000000000000000000000000000000000000000F5000000F500F500000000000000000000000000000000
310
000000000000000000000000000000000000000000000000000000002D000000000000000000000000000000000000000000000000000000000000000000000000000000000000000000F5F5000000F50000000000000000000000000000000000000000000000000000000000000000000000000000000000000000000000
310
000000000000000000F5000000000000000000000000000000000000000000000000F5F500000000000000000000000000000000000000000000000000000000000000000000000000000000000000000000000000000000000000000000000000000000000000000000F5000000F500F50000000000000000000000000000
310
0000000000000000F5F5F5F5F5F5F5F5F5F5F5F5F5F5F5F5F5F5F5F5F5F52DF5F5F5F5F5F5F50000000000000000000000000000000000000000000000000000000000000000000000000000F5F5000000F5000000000000000000000000000000000000000000000000000000000000000000000000000000000000000000
310
0000000000000000000000F5000000000000000000000000000000000000000000000000F5F500000000000000000000000000000000000000000000000000000000000000000000000000000000000000000000000000000000000000000000000000000000000000000000F5000000F500F5000000000000000000000000
310
00000000000000000000F50000000000000000000000000000F5F5F5F5F5F5002DF5F5F5F5F50000F500000000000000000000000000000000000000000000000000000000000000000000000000F5F5000000F500000000000000000000000000000000000000000000000000000000000000000000000000000000000000
310
00000000000000000000000000F5000000000000000000000000000000000000000000000000F5F500000000000000000000000000000000000000000000000000000000000000000000000000000000000000000000000000000000000000000000000000000000000000000000F5000000F500F500000000000000000000
310
000000000000000000000000F500000000000000000000000000F5F5F5F5F5F5F5002DF5F5F5F5F50000F500000000000000000000000000000000000000000000000000000000000000000000000000F5F5000000F50000000000000000000000000000000000000000000000000000000000000000000000000000000000
310
000000000000000000000000000000F5000000000000000000000000000000000000000000000000F5F500000000000000000000000000000000000000000000000000000000000000000000000000000000000000000000000000000000000000000000000000000000000000000000F5000000F500F50000000000000000
310
0000000000000000000000000000F50000000000000000000000000000F5F5F5F5F5F5F52D00F5F5F5F5F500F500000000000000000000000000000000000000000000000000000000000000000000000000F5F5000000F5000000000000000000000000000000000000000000000000000000000000000000000000000000
310
0000000000000000000000000000000000F5000000000000000000000000000000000000000000000000F5F500000000000000000000000000000000000000000000000000000000000000000000000000000000000000000000000000000000000000000000000000000000000000000000F5000000F500F5000000000000
310
00000000000000000000000000000000F50000000000000000000000000000F5F5F5F5F5F5F52DF5F5F5F5F5F500F500000000000000000000000000000000000000000000000000000000000000000000000000F5F5000000F500000000000000000000000000000000000000000000000000000000000000000000000000
310
00000000000000000000000000000000000000F5000000000000000000000000000000000000000000000000F5F500000000000000000000000000000000000000000000000000000000000000000000000000000000000000000000000000000000000000000000000000000000000000000000F5000000F500F500000000
310
000000000000000000000000000000000000F50000000000000000000000000000F500F5F5F5F5F52D00F500F5F5F500F500000000000000000000000000000000000000000000000000000000000000000000000000F5F5000000F50000000000000000000000000000000000000000000000000000000000000000000000
310
000000000000000000000000000000000000000000F5000000000000000000000000000000000000000000000000F5F500000000000000000000000000000000000000000000000000000000000000000000000000000000000000000000000000000000000000000000000000000000000000000000F5000000F500F50000
310
0000000000000000000000000000000000000000F50000000000000000000000000000F5F5F5F5F5F5F5F5F5F500F5F5F500F500000000000000000000000000000000000000000000000000000000000000000000000000F5F5000000F5000000000000000000000000000000000000000000000000000000000000000000
310
0000000000000000000000000000000000000000000000F5000000000000000000000000000000000000000000000000F5F500000000000000000000000000000000000000000000000000000000000000000000000000000000000000000000000000000000000000000000000000000000000000000000F5000000F500F5
310
00000000000000000000000000000000000000000000F50000000000000000000000000000000000000000002D00000000000000F500000000000000000000000000000000000000000000000000000000000000000000000000F5F5000000F500000000000000000000000000000000000000000000000000000000000000
310
00000000000000000000000000000000000000000000000000F5000000000000000000000000000000000000000000000000F5F500000000000000000000000000000000000000000000000000000000000000000000000000000000000000000000000000000000000000000000000000000000000000000000F5000000F5
310
00F500000000000000000000000000000000000000000000F500F5F5F5F5F5F5F5F5F5F5F500F5F5F5F5F5F5F5F52DF5F50000000000F500000000000000000000000000000000000000000000000000000000000000000000000000F5F5000000F50000000000000000000000000000000000000000000000000000000000
310
000000000000000000000000000000000000000000000000000000F5000000000000000000000000000000000000000000000000F5F500000000000000000000000000000000000000000000000000000000000000000000000000000000000000000000000000000000000000000000000000000000000000000000F50000
310
00F500F500000000000000000000000000000000000000000000F500F5F500F5F500F5F500F5F500F5F500F5F500F5F52DF5F50000000000F500000000000000000000000000000000000000000000000000000000000000000000000000F5F5000000F5000000000000000000000000000000000000000000000000000000
310
0000000000000000000000000000000000000000000000000000000000F5000000000000000000000000000000000000000000000000F5F500000000000000000000000000000000000000000000000000000000000000000000000000000000000000000000000000000000000000000000000000000000000000000000F5
310
000000F500F500000000000000000000000000000000000000000000F500F5F50000F500F5F500F5F500F5F500F5F500F5F52DF5F50000000000F500000000000000000000000000000000000000000000000000000000000000000000000000F5F5000000F500000000000000000000000000000000000000000000000000
310
00000000000000000000000000000000000000000000000000000000000000F5000000000000000000000000000000000000000000000000F5F5000000000000000000000000000000000000000000000000000000000000000000000000000000000000000000000000000000000000000000000000000000000000000000
310
00F5000000F500F500000000000000000000000000000000000000000000F500F5F5F5F5F500F5F5F5F5F500F5F5F5F5F500F5F52DF5F50000000000F500000000000000000000000000000000000000000000000000000000000000000000000000F5F5000000F50000000000000000000000000000000000000000000000
310
000000000000000000000000000000000000000000000000000000000000000000F5000000000000000000000000000000000000000000000000F5F500000000000000000000000000000000000000000000000000000000000000000000000000000000000000000000000000000000000000000000000000000000000000
310
000000F5000000F500F500000000000000000000000000000000000000000000F50000F5F5F5F5F5F5F5F5F5F500F5F5F5F5F500F5F52DF5F50000000000F500000000000000000000000000000000000000000000000000000000000000000000000000F5F5000000F5000000000000000000000000000000000000000000
310
0000000000000000000000000000000000000000000000000000000000000000000000F5000000000000000000000000000000000000000000000000F5F50000000000000000000000000000000000000000000000000000000000000000000000000000000000000000000000000000000000000000000000000000000000
310
0000000000F5000000F500F500000000000000000000000000000000000000000000F50000F50000F5F5F5F50000F500F5F500F5F500F5F52DF5F50000000000F500000000000000000000000000000000000000000000000000000000000000000000000000F5F5000000F500000000000000000000000000000000000000
310
00000000000000000000000000000000000000000000000000000000000000000000000000F5000000000000000000000000000000000000000000000000F5F5000000000000000000000000000000000000000000000000000000000000000000000000000000000000000000000000000000000000000000000000000000
310
00000000000000F5000000F500F500000000000000000000000000000000000000000000F50000F5F500F5F500F5F500F5F500F5F500F5F500F52D00F5F500000000F500000000000000000000000000000000000000000000000000000000000000000000000000F5F5000000F50000000000000000000000000000000000
310
000000000000000000000000000000000000000000000000000000000000000000000000000000F5000000000000000000000000000000000000000000000000F5F500000000000000000000000000000000000000000000000000000000000000000000000000000000000000000000000000000000000000000000000000
310
000000000000000000F5000000F500F500000000000000000000000000000000000000000000F50000F5F5F5F5F500F5F5F5F5F500F5F5F5F5F500F52DF5F5F500000000F500000000000000000000000000000000000000000000000000000000000000000000000000F5F5000000F5000000000000000000000000000000
310
0000000000000000000000000000000000000000000000000000000000000000000000000000000000F5000000000000000000000000000000000000000000000000F5F50000000000000000000000000000000000000000000000000000000000000000000000000000000000000000000000000000000000000000000000
310
0000000000000000000000F5000000F500F500000000000000000000000000000000000000000000F50000F5F5F5F5F500F5F5F5F5F500F5F5F5F5F500F52DF5F5F500000000F500000000000000000000000000000000000000000000000000000000000000000000000000F5F5000000F500000000000000000000000000
310
00000000000000000000000000000000000000000000000000000000000000000000000000000000000000F5000000000000000000000000000000000000000000000000F5F5000000000000000000000000000000000000000000000000000000000000000000000000000000000000000000000000000000000000000000
310
00000000000000000000000000F5000000F500F500000000000000000000000000000000000000000000F50000000000000000000000000000000000000000002D00000000000000F500000000000000000000000000000000000000000000000000000000000000000000000000F5F5000000F50000000000000000000000
310
000000000000000000000000000000000000000000000000000000000000000000000000000000000000000000F5000000000000000000000000000000000000000000000000F5F500000000000000000000000000000000000000000000000000000000000000000000000000000000000000000000000000000000000000
310
000000000000000000000000000000F5000000F500F500000000000000000000000000000000000000000000F50000000000000000000000000000000000000000002D00000000000000F500000000000000000000000000000000000000000000000000000000000000000000000000F5F5000000F5000000000000000000
310
0000000000000000000000000000000000000000000000000000000000000000000000000000000000000000000000F5000000000000000000000000000000000000000000000000F5F50000000000000000000000000000000000000000000000000000000000000000000000000000000000000000000000000000000000
310
0000000000000000000000000000000000F5000000F500F500000000000000000000000000000000000000000000F500F5F5F5F5F500F5F5F5F500F5F5F5F5F500F5F5F52D00000000000000F500000000000000000000000000000000000000000000000000000000000000000000000000F5F5000000F500000000000000
310
00000000000000000000000000000000000000000000000000000000000000000000000000000000000000000000000000F5000000000000000000000000000000000000000000000000F5F5000000000000000000000000000000000000000000000000000000000000000000000000000000000000000000000000000000
310
00000000000000000000000000000000000000F5000000F500F500000000000000000000000000000000000000000000F500F5F5F5F5F500F5F5F5F500F5F5F5F5F500F5F5F52DF5000000000000F500000000000000000000000000000000000000000000000000000000000000000000000000F5F5000000F50000000000
310
000000000000000000000000000000000000000000000000000000000000000000000000000000000000000000000000000000F5000000000000000000000000000000000000000000000000F5F500000000000000000000000000000000000000000000000000000000000000000000000000000000000000000000000000
310
000000000000000000000000000000000000000000F5000000F500F500000000000000000000000000000000000000000000F50000000000000000000000000000000000000000002D00000000000000F500000000000000000000000000000000000000000000000000000000000000000000000000F5F5000000F5000000
310
0000000000000000000000000000000000000000000000000000000000000000000000000000000000000000000000000000000000F5000000000000000000000000000000000000000000000000F5F50000000000000000000000000000000000000000000000000000000000000000000000000000000000000000000000
310
0000000000000000000000000000000000000000000000F5000000F500F500000000000000000000000000000000000000000000F50000000000000000000000000000000000000000002D00000000000000F500000000000000000000000000000000000000000000000000000000000000000000000000F5F5000000F500
310
00000000000000000000000000000000000000000000000000000000000000000000000000000000000000000000000000000000000000F5000000000000000000000000000000000000000000000000F5F5000000000000000000000000000000000000000000000000000000000000000000000000000000000000000000
310
00000000000000000000000000000000000000000000000000F5000000F500F500000000000000000000000000000000000000000000F50000000000000000000000000000000000000000002D00000000000000F500000000000000000000000000000000000000000000000000000000000000000000000000F5F5000000
310
F50000000000000000000000000000000000000000000000000000000000000000000000000000000000000000000000000000000000000000F5000000000000000000000000000000000000000000000000F5F500000000000000000000000000000000000000000000000000000000000000000000000000000000000000
310
000000000000000000000000000000000000000000000000000000F5000000F500F500000000000000000000000000000000000000000000F5F5F5F5F5F5F5F5F5F5F5F5F5F5F5F5F5F5F5F5F5F52DF5F5F5F5F5F5F50000000000000000000000000000000000000000000000000000000000000000000000000000F5F500
310
0000F50000000000000000000000000000000000000000000000000000000000000000000000000000000000000000000000000000000000000000F5000000000000000000000000000000000000000000000000F5F50000000000000000000000000000000000000000000000000000000000000000000000000000000000
310
0000000000000000000000000000000000000000000000000000000000F5000000F500F500000000000000000000000000000000000000000000000000000000000000000000000000000000000000002D000000000000000000000000000000000000000000000000000000000000000000000000000000000000000000F5
310
F5000000F50000000000000000000000000000000000000000000000000000000000000000000000000000000000000000000000000000000000000000F5000000000000000000000000000000000000000000000000F5F5000000000000000000000000000000000000000000000000000000000000000000000000000000
310
00000000000000000000000000000000000000000000000000000000000000F5000000F500F500000000000000000000000000000000000000000000000000000000000000000000000000000000000000002D0000000000000000000000000000000000000000000000000000000000000000000000000000000000000000
310
00F5F5000000F50000000000000000000000000000000000000000000000000000000000000000000000000000000000000000000000000000000000000000F5000000000000000000000000000000000000000000000000F5F500000000000000000000000000000000000000000000000000000000000000000000000000
310
000000000000000000000000000000000000000000000000000000000000000000F5000000F500F500000000000000000000000000000000000000000000000000000000000000000000000000000000000000002D000000000000000000000000000000000000000000000000000000000000000000000000000000000000
310
000000F5F5000000F50000000000000000000000000000000000000000000000000000000000000000000000000000000000000000000000000000000000000000F5000000000000000000000000000000000000000000000000F5F50000000000000000000000000000000000000000000000000000000000000000000000
310
0000000000000000000000000000000000000000000000000000000000000000000000F5000000F500F500000000000000000000000000000000000000000000000000000000000000000000000000000000000000002D00000000000000000000000000000000000000000000000000000000000000000000000000000000
310
0000000000F5F5000000F50000000000000000000000000000000000000000000000000000000000000000000000000000000000000000000000000000000000000000F5000000000000000000000000000000000000000000000000F5F5000000000000000000000000000000000000000000000000000000000000000000
310
00000000000000000000000000000000000000000000000000000000000000000000000000F5000000F500F500000000000000000000000000000000000000000000000000000000000000000000000000000000000000002D0000000000000000000000000000000000000000000000000000000000000000000000000000
310
00000000000000F5F5000000F50000000000000000000000000000000000000000000000000000000000000000000000000000000000000000000000000000000000000000F5000000000000000000000000000000000000000000000000F5F500000000000000000000000000000000000000000000000000000000000000
310
000000000000000000000000000000000000000000000000000000000000000000000000000000F5000000F500F500000000000000000000000000000000000000000000000000000000000000000000000000000000000000002D000000000000000000000000000000000000000000000000000000000000000000000000
310
000000000000000000F5F5000000F50000000000000000000000000000000000000000000000000000000000000000000000000000000000000000000000000000000000000000F5000000000000000000000000000000000000000000000000F5F50000000000000000000000000000000000000000000000000000000000
310
0000000000000000000000000000000000000000000000000000000000000000000000000000000000F5000000F500F500000000000000000000000000000000000000000000000000000000000000000000000000000000000000002D00000000000000000000000000000000000000000000000000000000000000000000
310
0000000000000000000000F5F5000000F50000000000000000000000000000000000000000000000000000000000000000000000000000000000000000000000000000000000000000F5000000000000000000000000000000000000000000000000F5F5000000000000000000000000000000000000000000000000000000
310
00000000000000000000000000000000000000000000000000000000000000000000000000000000000000F5000000F500F500000000000000000000000000000000000000000000000000000000000000000000000000000000000000002D0000000000000000000000000000000000000000000000000000000000000000
310
00000000000000000000000000F5F5000000F50000000000000000000000000000000000000000000000000000000000000000000000000000000000000000000000000000000000000000F5000000000000000000000000000000000000000000000000F5F500000000000000000000000000000000000000000000000000
310
000000000000000000000000000000000000000000000000000000000000000000000000000000000000000000F5000000F500F500000000000000000000000000000000000000000000000000000000000000000000000000000000000000002D000000000000000000000000000000000000000000000000000000000000
310
000000000000000000000000000000F5F5000000F50000000000000000000000000000000000000000000000000000000000000000000000000000000000000000000000000000000000000000F5000000000000000000000000000000000000000000000000F5F50000000000000000000000000000000000000000000000
310
0000000000000000000000000000000000000000000000000000000000000000000000000000000000000000000000F5000000F500F500000000000000000000000000000000000000000000000000000000000000000000000000000000000000002D00000000000000000000000000000000000000000000000000000000
310
0000000000000000000000000000000000F5F5000000F50000000000000000000000000000000000000000000000000000000000000000000000000000000000000000000000000000000000000000F5000000000000000000000000000000000000000000000000F5F5000000000000000000000000000000000000000000
310
00000000000000000000000000000000000000000000000000000000000000000000000000000000000000000000000000F5000000F500F500000000000000000000000000000000000000000000000000000000000000000000000000000000000000002D0000000000000000000000000000000000000000000000000000
310
00000000000000000000000000000000000000F5F5000000F50000000000000000000000000000000000000000000000000000000000000000000000000000000000000000000000000000000000000000F5000000000000000000000000000000000000000000000000F5F500000000000000000000000000000000000000
310
000000000000000000000000000000000000000000000000000000000000000000000000000000000000000000000000000000F5000000F500F500000000000000000000000000000000000000000000000000000000000000000000000000000000000000002D000000000000000000000000000000000000000000000000
310
000000000000000000000000000000000000000000F5F5000000F50000000000000000000000000000000000000000000000000000000000000000000000000000000000000000000000000000000000000000F5000000000000000000000000000000000000000000000000F5F50000000000000000000000000000000000
310
0000000000000000000000000000000000000000000000000000000000000000000000000000000000000000000000000000000000F5000000F500F5F5F5F5F5F5F5F5F5F5F5F5F5F5F5F5F5F5F5F5F5F5F5F5F5F5F5F5F5F5F5F5F5F5F5F5F5F5F5F5F5F5F5F5F5F5F5F5F5F5F5F5F5F5F5F5F5F5F5F5F5F5F5F5F5F5F5F5
310
F5F5F5F5F5F5F5F5F5F5F5F5F5F5F5F5F5F5F5F5F5F5F5F5F5000000F50000000000000000000000000000000000000000000000000000000000000000000000000000000000000000000000000000000000000000F5000000000000000000000000000000000000000000000000F5F5000000000000000000000000000000
310
00000000000000000000000000000000000000000000000000000000000000000000000000000000000000000000000000000000000000F5000000F5000000000000000000000000000000000000000000000000000000000000000000000000000000000000000000002D0000000000000000000000000000000000000000
310
0000000000000000000000000000000000000000000000000000F5000000F50000000000000000000000000000000000000000000000000000000000000000000000000000000000000000000000000000000000000000F5000000000000000000000000000000000000000000000000F5F500000000000000000000000000
310
000000000000000000000000000000000000000000000000000000000000000000000000000000000000000000000000000000000000000000F5000000F5F5F5F5F5F5F5F5F5F5F5F5F5F5F5F5F5F5F5F5F5F5F5F5F5F5F5F5F5F5F5F5F5F5F5F5F5F5F5F5F5F5F5F5F5F5F52DF5F5F5F5F5F5F5F5F5F5F5F5F5F5F5F5F5F5
310
F5F5F5F5F5F5F5F5F5F5F5F5F5F5F5F5F5F5F5F5F5F5F5F5F5F5F5F5F5000000F50000000000000000000000000000000000000000000000000000000000000000000000000000000000000000000000000000000000000000F5000000000000000000000000000000000000000000000000F5F50000000000000000000000
310
0000000000000000000000000000000000000000000000000000000000000000000000000000000000000000000000000000000000000000000000F500000000000000000000000000000000000000000000000000000000000000000000000000000000000000000000000000002D00000000000000000000000000000000
310
00000000000000000000000000000000000000000000000000000000000000000000F50000000000000000000000000000000000000000000000000000000000000000000000000000000000000000000000000000000000000000F5000000000000000000000000000000000000000000000000F5F5000000000000000000
310
00000000000000000000000000000000000000000000000000000000000000000000000000000000000000000000000000000000000000000000000000F5F5000000000000000000000000000000000000000000000000000000000000000000000000000000000000000000000000002D0000000000000000000000000000
310
000000000000000000000000000000000000000000000000000000000000000000000000F50000000000000000000000000000000000000000000000000000000000000000000000000000000000000000000000000000000000000000F5000000000000000000000000000000000000000000000000F5F500000000000000
310
00000000000000000000000000000000000000000000
  0
XRECORD
  5
3ED
102
{ACAD_REACTORS
330
3EC
102
}
330
3EC
100
AcDbXrecord
280
     1
102
SHADEPLOT
 70
     0
102
SHADEPLOTRESLEVEL
 70
     2
102
SHADEPLOTCUSTOMDPI
 70
   300
  0
XRECORD
  5
3E
102
{ACAD_REACTORS
330
3D
102
}
330
3D
100
AcDbXrecord
280
     1
102
MATERIAL
148
0.0
149
0.0
149
0.0
 93
        0
 94
      127
282
     0
 72
     1
 77
     1
171
     1
175
     1
179
     1
273
     0
  0
XRECORD
  5
11
102
{ACAD_REACTORS
330
10
102
}
330
10
100
AcDbXrecord
280
     1
102
MATERIAL
148
0.0
149
0.0
149
0.0
 93
        0
 94
      127
282
     0
 72
     1
 77
     1
171
     1
175
     1
179
     1
273
     0
  0
XRECORD
  5
D
102
{ACAD_REACTORS
330
C
102
}
330
C
100
AcDbXrecord
280
     1
102
MATERIAL
148
0.0
149
0.0
149
0.0
 93
        0
 94
      127
282
     0
 72
     1
 77
     1
171
     1
175
     1
179
     1
273
     0
  0
CELLSTYLEMAP
  5
3E9
102
{ACAD_REACTORS
330
4B
102
}
330
4B
100
AcDbCellStyleMap
 90
        3
300
CELLSTYLE
  1
TABLEFORMAT_BEGIN
 90
        5
170
     1
 91
        0
 92
    32768
 62
   257
 93
        1
300
CONTENTFORMAT
  1
CONTENTFORMAT_BEGIN
 90
        0
 91
        0
 92
      512
 93
        0
300

 40
0.0
140
1.0
 94
        5
 62
     0
340
22
144
0.25
309
CONTENTFORMAT_END
171
     1
301
MARGIN
  1
CELLMARGIN_BEGIN
 40
0.06
 40
0.06
 40
0.06
 40
0.06
 40
0.18
 40
0.18
309
CELLMARGIN_END
 94
        6
 95
        1
302
GRIDFORMAT
  1
GRIDFORMAT_BEGIN
 90
        0
 91
        1
 62
     0
 92
       -2
340
0
 93
        0
 40
0.045
309
GRIDFORMAT_END
 95
        2
302
GRIDFORMAT
  1
GRIDFORMAT_BEGIN
 90
        0
 91
        1
 62
     0
 92
       -2
340
0
 93
        0
 40
0.045
309
GRIDFORMAT_END
 95
        4
302
GRIDFORMAT
  1
GRIDFORMAT_BEGIN
 90
        0
 91
        1
 62
     0
 92
       -2
340
0
 93
        0
 40
0.045
309
GRIDFORMAT_END
 95
        8
302
GRIDFORMAT
  1
GRIDFORMAT_BEGIN
 90
        0
 91
        1
 62
     0
 92
       -2
340
0
 93
        0
 40
0.045
309
GRIDFORMAT_END
 95
       16
302
GRIDFORMAT
  1
GRIDFORMAT_BEGIN
 90
        0
 91
        1
 62
     0
 92
       -2
340
0
 93
        0
 40
0.045
309
GRIDFORMAT_END
 95
       32
302
GRIDFORMAT
  1
GRIDFORMAT_BEGIN
 90
        0
 91
        1
 62
     0
 92
       -2
340
0
 93
        0
 40
0.045
309
GRIDFORMAT_END
309
TABLEFORMAT_END
  1
CELLSTYLE_BEGIN
 90
        1
 91
        1
300
_TITLE
309
CELLSTYLE_END
300
CELLSTYLE
  1
TABLEFORMAT_BEGIN
 90
        5
170
     1
 91
        0
 92
        0
 62
   257
 93
        1
300
CONTENTFORMAT
  1
CONTENTFORMAT_BEGIN
 90
        0
 91
        0
 92
      512
 93
        0
300

 40
0.0
140
1.0
 94
        5
 62
     0
340
22
144
0.18
309
CONTENTFORMAT_END
171
     1
301
MARGIN
  1
CELLMARGIN_BEGIN
 40
0.06
 40
0.06
 40
0.06
 40
0.06
 40
0.18
 40
0.18
309
CELLMARGIN_END
 94
        6
 95
        1
302
GRIDFORMAT
  1
GRIDFORMAT_BEGIN
 90
        0
 91
        1
 62
     0
 92
       -2
340
0
 93
        0
 40
0.045
309
GRIDFORMAT_END
 95
        2
302
GRIDFORMAT
  1
GRIDFORMAT_BEGIN
 90
        0
 91
        1
 62
     0
 92
       -2
340
0
 93
        0
 40
0.045
309
GRIDFORMAT_END
 95
        4
302
GRIDFORMAT
  1
GRIDFORMAT_BEGIN
 90
        0
 91
        1
 62
     0
 92
       -2
340
0
 93
        0
 40
0.045
309
GRIDFORMAT_END
 95
        8
302
GRIDFORMAT
  1
GRIDFORMAT_BEGIN
 90
        0
 91
        1
 62
     0
 92
       -2
340
0
 93
        0
 40
0.045
309
GRIDFORMAT_END
 95
       16
302
GRIDFORMAT
  1
GRIDFORMAT_BEGIN
 90
        0
 91
        1
 62
     0
 92
       -2
340
0
 93
        0
 40
0.045
309
GRIDFORMAT_END
 95
       32
302
GRIDFORMAT
  1
GRIDFORMAT_BEGIN
 90
        0
 91
        1
 62
     0
 92
       -2
340
0
 93
        0
 40
0.045
309
GRIDFORMAT_END
309
TABLEFORMAT_END
  1
CELLSTYLE_BEGIN
 90
        2
 91
        1
300
_HEADER
309
CELLSTYLE_END
300
CELLSTYLE
  1
TABLEFORMAT_BEGIN
 90
        5
170
     1
 91
        0
 92
        0
 62
   257
 93
        1
300
CONTENTFORMAT
  1
CONTENTFORMAT_BEGIN
 90
        0
 91
        0
 92
      512
 93
        0
300

 40
0.0
140
1.0
 94
        2
 62
     0
340
22
144
0.18
309
CONTENTFORMAT_END
171
     1
301
MARGIN
  1
CELLMARGIN_BEGIN
 40
0.06
 40
0.06
 40
0.06
 40
0.06
 40
0.18
 40
0.18
309
CELLMARGIN_END
 94
        6
 95
        1
302
GRIDFORMAT
  1
GRIDFORMAT_BEGIN
 90
        0
 91
        1
 62
     0
 92
       -2
340
0
 93
        0
 40
0.045
309
GRIDFORMAT_END
 95
        2
302
GRIDFORMAT
  1
GRIDFORMAT_BEGIN
 90
        0
 91
        1
 62
     0
 92
       -2
340
0
 93
        0
 40
0.045
309
GRIDFORMAT_END
 95
        4
302
GRIDFORMAT
  1
GRIDFORMAT_BEGIN
 90
        0
 91
        1
 62
     0
 92
       -2
340
0
 93
        0
 40
0.045
309
GRIDFORMAT_END
 95
        8
302
GRIDFORMAT
  1
GRIDFORMAT_BEGIN
 90
        0
 91
        1
 62
     0
 92
       -2
340
0
 93
        0
 40
0.045
309
GRIDFORMAT_END
 95
       16
302
GRIDFORMAT
  1
GRIDFORMAT_BEGIN
 90
        0
 91
        1
 62
     0
 92
       -2
340
0
 93
        0
 40
0.045
309
GRIDFORMAT_END
 95
       32
302
GRIDFORMAT
  1
GRIDFORMAT_BEGIN
 90
        0
 91
        1
 62
     0
 92
       -2
340
0
 93
        0
 40
0.045
309
GRIDFORMAT_END
309
TABLEFORMAT_END
  1
CELLSTYLE_BEGIN
 90
        3
 91
        2
300
_DATA
309
CELLSTYLE_END
  0
XRECORD
  5
3F0
102
{ACAD_REACTORS
330
4B
102
}
330
4B
100
AcDbXrecord
280
     1
102
ACAD_ROUNDTRIP_PRE2007_TABLESTYLE
 90
      512
 91
        0
  1

 92
      512
 93
        0
  2

 94
      512
 95
        0
  3

  0
XRECORD
  5
3EF
102
{ACAD_REACTORS
330
3EE
102
}
330
3EE
100
AcDbXrecord
280
     1
102
RTVSPropertyOp0
 70
     1
102
RTVSPropertyOp1
 70
     1
102
RTVSPropertyOp2
 70
     1
102
RTVSPropertyOp3
 70
     1
102
RTVSPropertyOp4
 70
     1
102
RTVSPropertyOp5
 70
     1
102
RTVSPropertyOp6
 70
     1
102
RTVSPropertyOp7
 70
     1
102
RTVSPropertyOp8
 70
     1
102
RTVSPropertyOp9
 70
     1
102
RTVSPropertyOp10
 70
     1
102
RTVSPropertyOp11
 70
     1
102
RTVSPropertyOp12
 70
     1
102
RTVSPropertyOp13
 70
     1
102
RTVSPropertyOp14
 70
     1
102
RTVSPropertyOp15
 70
     1
102
RTVSPropertyOp16
 70
     1
102
RTVSPropertyOp17
 70
     1
102
RTVSPropertyOp18
 70
     1
102
RTVSPropertyOp19
 70
     1
102
RTVSPropertyOp20
 70
     1
102
RTVSPropertyOp21
 70
     1
102
RTVSPropertyOp22
 70
     1
102
RTVSPropertyOp23
 70
     1
102
RTVSPropertyOp24
 70
     1
102
RTVSPropertyOp25
 70
     1
102
RTVSPropertyOp26
 70
     1
102
RTVSPropertyOp27
 70
     1
102
RTVSPropertyOp28
 70
     1
102
RTVSPropertyOp29
 70
     1
102
RTVSPropertyOp30
 70
     1
102
RTVSPropertyOp31
 70
     1
102
RTVSPropertyOp32
 70
     1
  0
XRECORD
  5
3F2
102
{ACAD_REACTORS
330
3F1
102
}
330
3F1
100
AcDbXrecord
280
     1
102
RTVSPropertyOp0
 70
     1
102
RTVSPropertyOp1
 70
     1
102
RTVSPropertyOp2
 70
     1
102
RTVSPropertyOp3
 70
     1
102
RTVSPropertyOp4
 70
     1
102
RTVSPropertyOp5
 70
     1
102
RTVSPropertyOp6
 70
     1
102
RTVSPropertyOp7
 70
     1
102
RTVSPropertyOp8
 70
     1
102
RTVSPropertyOp9
 70
     1
102
RTVSPropertyOp10
 70
     1
102
RTVSPropertyOp11
 70
     1
102
RTVSPropertyOp12
 70
     1
102
RTVSPropertyOp13
 70
     1
102
RTVSPropertyOp14
 70
     1
102
RTVSPropertyOp15
 70
     1
102
RTVSPropertyOp16
 70
     1
102
RTVSPropertyOp17
 70
     1
102
RTVSPropertyOp18
 70
     1
102
RTVSPropertyOp19
 70
     1
102
RTVSPropertyOp20
 70
     1
102
RTVSPropertyOp21
 70
     1
102
RTVSPropertyOp22
 70
     1
102
RTVSPropertyOp23
 70
     1
102
RTVSPropertyOp24
 70
     1
102
RTVSPropertyOp25
 70
     1
102
RTVSPropertyOp26
 70
     1
102
RTVSPropertyOp27
 70
     1
102
RTVSPropertyOp28
 70
     1
102
RTVSPropertyOp29
 70
     1
102
RTVSPropertyOp30
 70
     1
102
RTVSPropertyOp31
 70
     1
102
RTVSPropertyOp32
 70
     1
  0
XRECORD
  5
3F4
102
{ACAD_REACTORS
330
3F3
102
}
330
3F3
100
AcDbXrecord
280
     1
102
RTVSPropertyOp0
 70
     1
102
RTVSPropertyOp1
 70
     1
102
RTVSPropertyOp2
 70
     1
102
RTVSPropertyOp3
 70
     1
102
RTVSPropertyOp4
 70
     1
102
RTVSPropertyOp5
 70
     1
102
RTVSPropertyOp6
 70
     1
102
RTVSPropertyOp7
 70
     1
102
RTVSPropertyOp8
 70
     1
102
RTVSPropertyOp9
 70
     1
102
RTVSPropertyOp10
 70
     1
102
RTVSPropertyOp11
 70
     1
102
RTVSPropertyOp12
 70
     1
102
RTVSPropertyOp13
 70
     1
102
RTVSPropertyOp14
 70
     1
102
RTVSPropertyOp15
 70
     1
102
RTVSPropertyOp16
 70
     1
102
RTVSPropertyOp17
 70
     1
102
RTVSPropertyOp18
 70
     1
102
RTVSPropertyOp19
 70
     1
102
RTVSPropertyOp20
 70
     1
102
RTVSPropertyOp21
 70
     1
102
RTVSPropertyOp22
 70
     1
102
RTVSPropertyOp23
 70
     1
102
RTVSPropertyOp24
 70
     1
102
RTVSPropertyOp25
 70
     1
102
RTVSPropertyOp26
 70
     1
102
RTVSPropertyOp27
 70
     1
102
RTVSPropertyOp28
 70
     1
102
RTVSPropertyOp29
 70
     1
102
RTVSPropertyOp30
 70
     1
102
RTVSPropertyOp31
 70
     1
102
RTVSPropertyOp32
 70
     1
  0
ENDSEC
  0
EOF
