  0
SECTION
  2
HEADER
  9
$ACADVER
  1
AC1015
  9
$ACADMAINTVER
 70
    18
  9
$DWGCODEPAGE
  3
ANSI_932
  9
$INSBASE
 10
0.0
 20
0.0
 30
0.0
  9
$EXTMIN
 10
177.1465722484911
 20
231.5202303694957
 30
0.0
  9
$EXTMAX
 10
1028.473739542771
 20
865.0
 30
0.0
  9
$LIMMIN
 10
0.0
 20
0.0
  9
$LIMMAX
 10
1188.0
 20
840.0
  9
$ORTHOMODE
 70
     0
  9
$REGENMODE
 70
     1
  9
$FILLMODE
 70
     1
  9
$QTEXTMODE
 70
     0
  9
$MIRRTEXT
 70
     1
  9
$LTSCALE
 40
0.5
  9
$ATTMODE
 70
     1
  9
$TEXTSIZE
 40
4.0
  9
$TRACEWID
 40
1.0
  9
$TEXTSTYLE
  7
STANDARD
  9
$CLAYER
  8
0
  9
$CELTYPE
  6
BYLAYER
  9
$CECOLOR
 62
   256
  9
$CELTSCALE
 40
1.0
  9
$DISPSILH
 70
     0
  9
$DIMSCALE
 40
1.0
  9
$DIMASZ
 40
2.5
  9
$DIMEXO
 40
1.0
  9
$DIMDLI
 40
8.0
  9
$DIMRND
 40
0.0
  9
$DIMDLE
 40
0.0
  9
$DIMEXE
 40
1.25
  9
$DIMTP
 40
0.0
  9
$DIMTM
 40
0.0
  9
$DIMTXT
 40
3.0
  9
$DIMCEN
 40
0.0
  9
$DIMTSZ
 40
0.0
  9
$DIMTOL
 70
     0
  9
$DIMLIM
 70
     0
  9
$DIMTIH
 70
     0
  9
$DIMTOH
 70
     0
  9
$DIMSE1
 70
     0
  9
$DIMSE2
 70
     0
  9
$DIMTAD
 70
     3
  9
$DIMZIN
 70
     8
  9
$DIMBLK
  1
Open
  9
$DIMASO
 70
     1
  9
$DIMSHO
 70
     1
  9
$DIMPOST
  1

  9
$DIMAPOST
  1

  9
$DIMALT
 70
     0
  9
$DIMALTD
 70
     4
  9
$DIMALTF
 40
0.0394
  9
$DIMLFAC
 40
1.0
  9
$DIMTOFL
 70
     1
  9
$DIMTVP
 40
0.0
  9
$DIMTIX
 70
     0
  9
$DIMSOXD
 70
     0
  9
$DIMSAH
 70
     0
  9
$DIMBLK1
  1
Open
  9
$DIMBLK2
  1
OPEN30
  9
$DIMSTYLE
  2
STANDARD
  9
$DIMCLRD
 70
   256
  9
$DIMCLRE
 70
   256
  9
$DIMCLRT
 70
   256
  9
$DIMTFAC
 40
1.0
  9
$DIMGAP
 40
1.0
  9
$DIMJUST
 70
     0
  9
$DIMSD1
 70
     0
  9
$DIMSD2
 70
     0
  9
$DIMTOLJ
 70
     1
  9
$DIMTZIN
 70
     8
  9
$DIMALTZ
 70
     0
  9
$DIMALTTZ
 70
     0
  9
$DIMUPT
 70
     0
  9
$DIMDEC
 70
     4
  9
$DIMTDEC
 70
     4
  9
$DIMALTU
 70
     8
  9
$DIMALTTD
 70
     4
  9
$DIMTXSTY
  7
STANDARD
  9
$DIMAUNIT
 70
     0
  9
$DIMADEC
 70
     0
  9
$DIMALTRND
 40
0.0
  9
$DIMAZIN
 70
     0
  9
$DIMDSEP
 70
    46
  9
$DIMATFIT
 70
     0
  9
$DIMFRAC
 70
     0
  9
$DIMLDRBLK
  1
Open
  9
$DIMLUNIT
 70
     2
  9
$DIMLWD
 70
    -1
  9
$DIMLWE
 70
    -1
  9
$DIMTMOVE
 70
     0
  9
$LUNITS
 70
     2
  9
$LUPREC
 70
     4
  9
$SKETCHINC
 40
1.0
  9
$FILLETRAD
 40
2.0
  9
$AUNITS
 70
     0
  9
$AUPREC
 70
     0
  9
$MENU
  1
acad
  9
$ELEVATION
 40
0.0
  9
$PELEVATION
 40
0.0
  9
$THICKNESS
 40
0.0
  9
$LIMCHECK
 70
     0
  9
$CHAMFERA
 40
0.0
  9
$CHAMFERB
 40
0.0
  9
$CHAMFERC
 40
20.0
  9
$CHAMFERD
 40
0.0
  9
$SKPOLY
 70
     0
  9
$TDCREATE
 40
2451570.536335903
  9
$TDUCREATE
 40
2451570.161335903
  9
$TDUPDATE
 40
2456471.494052998
  9
$TDUUPDATE
 40
2456471.119052998
  9
$TDINDWG
 40
0.2932935532
  9
$TDUSRTIMER
 40
0.2932932523
  9
$USRTIMER
 70
     1
  9
$ANGBASE
 50
0.0
  9
$ANGDIR
 70
     0
  9
$PDMODE
 70
     3
  9
$PDSIZE
 40
0.0
  9
$PLINEWID
 40
0.0
  9
$SPLFRAME
 70
     0
  9
$SPLINETYPE
 70
     6
  9
$SPLINESEGS
 70
     8
  9
$HANDSEED
  5
EF
  9
$SURFTAB1
 70
     6
  9
$SURFTAB2
 70
     6
  9
$SURFTYPE
 70
     6
  9
$SURFU
 70
     6
  9
$SURFV
 70
     6
  9
$UCSBASE
  2

  9
$UCSNAME
  2

  9
$UCSORG
 10
0.0
 20
0.0
 30
0.0
  9
$UCSXDIR
 10
1.0
 20
0.0
 30
0.0
  9
$UCSYDIR
 10
0.0
 20
1.0
 30
0.0
  9
$UCSORTHOREF
  2

  9
$UCSORTHOVIEW
 70
     0
  9
$UCSORGTOP
 10
0.0
 20
0.0
 30
0.0
  9
$UCSORGBOTTOM
 10
0.0
 20
0.0
 30
0.0
  9
$UCSORGLEFT
 10
0.0
 20
0.0
 30
0.0
  9
$UCSORGRIGHT
 10
0.0
 20
0.0
 30
0.0
  9
$UCSORGFRONT
 10
0.0
 20
0.0
 30
0.0
  9
$UCSORGBACK
 10
0.0
 20
0.0
 30
0.0
  9
$PUCSBASE
  2

  9
$PUCSNAME
  2

  9
$PUCSORG
 10
0.0
 20
0.0
 30
0.0
  9
$PUCSXDIR
 10
1.0
 20
0.0
 30
0.0
  9
$PUCSYDIR
 10
0.0
 20
1.0
 30
0.0
  9
$PUCSORTHOREF
  2

  9
$PUCSORTHOVIEW
 70
     0
  9
$PUCSORGTOP
 10
0.0
 20
0.0
 30
0.0
  9
$PUCSORGBOTTOM
 10
0.0
 20
0.0
 30
0.0
  9
$PUCSORGLEFT
 10
0.0
 20
0.0
 30
0.0
  9
$PUCSORGRIGHT
 10
0.0
 20
0.0
 30
0.0
  9
$PUCSORGFRONT
 10
0.0
 20
0.0
 30
0.0
  9
$PUCSORGBACK
 10
0.0
 20
0.0
 30
0.0
  9
$USERI1
 70
     0
  9
$USERI2
 70
     0
  9
$USERI3
 70
     0
  9
$USERI4
 70
     0
  9
$USERI5
 70
     0
  9
$USERR1
 40
0.0
  9
$USERR2
 40
0.0
  9
$USERR3
 40
0.0
  9
$USERR4
 40
0.0
  9
$USERR5
 40
0.0
  9
$WORLDVIEW
 70
     1
  9
$SHADEDGE
 70
     3
  9
$SHADEDIF
 70
    70
  9
$TILEMODE
 70
     1
  9
$MAXACTVP
 70
    48
  9
$PINSBASE
 10
0.0
 20
0.0
 30
0.0
  9
$PLIMCHECK
 70
     0
  9
$PEXTMIN
 10
1.000000000000000E+20
 20
1.000000000000000E+20
 30
1.000000000000000E+20
  9
$PEXTMAX
 10
-1.000000000000000E+20
 20
-1.000000000000000E+20
 30
-1.000000000000000E+20
  9
$PLIMMIN
 10
0.0
 20
0.0
  9
$PLIMMAX
 10
420.0
 20
297.0
  9
$UNITMODE
 70
     0
  9
$VISRETAIN
 70
     0
  9
$PLINEGEN
 70
     0
  9
$PSLTSCALE
 70
     0
  9
$TREEDEPTH
 70
  3020
  9
$CMLSTYLE
  2
STANDARD
  9
$CMLJUST
 70
     0
  9
$CMLSCALE
 40
20.0
  9
$PROXYGRAPHICS
 70
     1
  9
$MEASUREMENT
 70
     1
  9
$CELWEIGHT
370
    -1
  9
$ENDCAPS
280
     0
  9
$JOINSTYLE
280
     0
  9
$LWDISPLAY
290
     0
  9
$INSUNITS
 70
     0
  9
$HYPERLINKBASE
  1

  9
$STYLESHEET
  1

  9
$XEDIT
290
     1
  9
$CEPSNTYPE
380
     0
  9
$PSTYLEMODE
290
     1
  9
$FINGERPRINTGUID
  2
{8331C891-A1DE-413B-B835-27E978A1B3CA}
  9
$VERSIONGUID
  2
{B525979D-2649-4F3C-8DCE-244B77F2ED38}
  9
$EXTNAMES
290
     1
  9
$PSVPSCALE
 40
0.0
  9
$OLESTARTUP
290
     0
  0
ENDSEC
  0
SECTION
  2
CLASSES
  0
CLASS
  1
ACDBDICTIONARYWDFLT
  2
AcDbDictionaryWithDefault
  3
ObjectDBX Classes
 90
        0
280
     0
281
     0
  0
CLASS
  1
ACDBPLACEHOLDER
  2
AcDbPlaceHolder
  3
ObjectDBX Classes
 90
        0
280
     0
281
     0
  0
CLASS
  1
LAYOUT
  2
AcDbLayout
  3
ObjectDBX Classes
 90
        0
280
     0
281
     0
  0
CLASS
  1
MATERIAL
  2
AcDbMaterial
  3
ObjectDBX Classes
 90
     1024
280
     0
281
     0
  0
CLASS
  1
VISUALSTYLE
  2
AcDbVisualStyle
  3
ObjectDBX Classes
 90
     4095
280
     0
281
     0
  0
CLASS
  1
TABLESTYLE
  2
AcDbTableStyle
  3
ObjectDBX Classes
 90
     4095
280
     0
281
     0
  0
CLASS
  1
SCALE
  2
AcDbScale
  3
ObjectDBX Classes
 90
    33921
280
     1
281
     0
  0
CLASS
  1
MLEADERSTYLE
  2
AcDbMLeaderStyle
  3
ACDB_MLEADERSTYLE_CLASS
 90
    36863
280
     1
281
     0
  0
CLASS
  1
DICTIONARYVAR
  2
AcDbDictionaryVar
  3
ObjectDBX Classes
 90
        0
280
     0
281
     0
  0
CLASS
  1
CELLSTYLEMAP
  2
AcDbCellStyleMap
  3
ObjectDBX Classes
 90
     1152
280
     1
281
     0
  0
CLASS
  1
SOLID_BACKGROUND
  2
AcDbSolidBackground
  3
SCENEOE
 90
    36863
280
     0
281
     0
  0
CLASS
  1
NPOCOLLECTION
  2
AcDbImpNonPersistentObjectsCollection
  3
ObjectDBX Classes
 90
    33921
280
     0
281
     0
  0
ENDSEC
  0
SECTION
  2
TABLES
  0
TABLE
  2
VPORT
  5
25
330
0
100
AcDbSymbolTable
 70
     1
  0
VPORT
  5
26
330
25
100
AcDbSymbolTableRecord
100
AcDbViewportTableRecord
  2
*Active
 70
     0
 10
0.0
 20
0.0
 11
1.0
 21
1.0
 12
586.5390846119902
 22
510.3108444550756
 13
0.0
 23
0.0
 14
0.5
 24
0.5
 15
20.0
 25
20.0
 16
0.0
 26
0.0
 36
1.0
 17
0.0
 27
0.0
 37
0.0
 40
589.750994332259
 41
1.712451861360718
 42
50.0
 43
0.0
 44
0.0
 50
0.0
 51
0.0
 71
     0
 72
   100
 73
     1
 74
     0
 75
     1
 76
     1
 77
     0
 78
     0
281
     0
 65
     1
110
0.0
120
0.0
130
0.0
111
1.0
121
0.0
131
0.0
112
0.0
122
1.0
132
0.0
 79
     0
146
0.0
1001
ACAD_NAV_VCDISPLAY
1070
     3
  0
ENDTAB
  0
TABLE
  2
LTYPE
  5
20
330
0
100
AcDbSymbolTable
 70
     2
  0
LTYPE
  5
21
330
20
100
AcDbSymbolTableRecord
100
AcDbLinetypeTableRecord
  2
BYBLOCK
 70
     0
  3

 72
    65
 73
     0
 40
0.0
  0
LTYPE
  5
22
330
20
100
AcDbSymbolTableRecord
100
AcDbLinetypeTableRecord
  2
BYLAYER
 70
     0
  3

 72
    65
 73
     0
 40
0.0
  0
LTYPE
  5
14
330
20
100
AcDbSymbolTableRecord
100
AcDbLinetypeTableRecord
  2
CONTINUOUS
 70
     0
  3
Solid line
 72
    65
 73
     0
 40
0.0
  0
LTYPE
  5
5F
330
20
100
AcDbSymbolTableRecord
100
AcDbLinetypeTableRecord
  2
CENTER
 70
     0
  3
____ _ ____ _ ____ _ ____ _ ____ _ ____ _ ____
 72
    65
 73
     4
 40
2.0
 49
1.25
 74
     0
 49
-0.25
 74
     0
 49
0.25
 74
     0
 49
-0.25
 74
     0
  0
ENDTAB
  0
TABLE
  2
LAYER
  5
1C
330
0
100
AcDbSymbolTable
 70
     1
  0
LAYER
  5
4
102
{ACAD_XDICTIONARY
360
5
102
}
330
1C
100
AcDbSymbolTableRecord
100
AcDbLayerTableRecord
  2
0
 70
     0
 62
     7
  6
CONTINUOUS
370
    -3
390
7
  0
ENDTAB
  0
TABLE
  2
STYLE
  5
1D
330
0
100
AcDbSymbolTable
 70
     1
  0
STYLE
  5
1E
330
1D
100
AcDbSymbolTableRecord
100
AcDbTextStyleTableRecord
  2
STANDARD
 70
     0
 40
0.0
 41
1.0
 50
0.0
 71
     0
 42
4.0
  3
simplex.shx
  4
bigfont.shx
  0
ENDTAB
  0
TABLE
  2
VIEW
  5
23
330
0
100
AcDbSymbolTable
 70
     0
  0
ENDTAB
  0
TABLE
  2
UCS
  5
24
330
0
100
AcDbSymbolTable
 70
     0
  0
ENDTAB
  0
TABLE
  2
APPID
  5
2D
330
0
100
AcDbSymbolTable
 70
     7
  0
APPID
  5
2B
330
2D
100
AcDbSymbolTableRecord
100
AcDbRegAppTableRecord
  2
ACAD
 70
     0
  0
APPID
  5
2C
330
2D
100
AcDbSymbolTableRecord
100
AcDbRegAppTableRecord
  2
ACAD_NAV_VCDISPLAY
 70
     0
  0
APPID
  5
3C
330
2D
100
AcDbSymbolTableRecord
100
AcDbRegAppTableRecord
  2
ACAD_DSTYLE_DIMJAG
 70
     0
  0
APPID
  5
3D
330
2D
100
AcDbSymbolTableRecord
100
AcDbRegAppTableRecord
  2
ACAD_DSTYLE_DIMTALN
 70
     0
  0
APPID
  5
EB
330
2D
100
AcDbSymbolTableRecord
100
AcDbRegAppTableRecord
  2
ACAD_DSTYLE_DIM_LINETYPE
 70
     0
  0
APPID
  5
EC
330
2D
100
AcDbSymbolTableRecord
100
AcDbRegAppTableRecord
  2
ACAD_DSTYLE_DIM_EXT1_LINETYPE
 70
     0
  0
APPID
  5
ED
330
2D
100
AcDbSymbolTableRecord
100
AcDbRegAppTableRecord
  2
ACAD_DSTYLE_DIM_EXT2_LINETYPE
 70
     0
  0
ENDTAB
  0
TABLE
  2
DIMSTYLE
  5
2E
330
0
100
AcDbSymbolTable
 70
     1
100
AcDbDimStyleTable
 71
     1
340
2F
  0
DIMSTYLE
105
2F
330
2E
100
AcDbSymbolTableRecord
100
AcDbDimStyleTableRecord
  2
STANDARD
 70
     0
 41
2.5
 42
1.0
 43
8.0
 44
1.25
 73
     0
 74
     0
 77
     3
 78
     8
140
3.0
141
0.0
143
0.0394
147
1.0
171
     4
172
     1
176
   256
177
   256
178
   256
273
     8
274
     4
284
     8
289
     0
340
1E
341
30
342
30
343
30
344
36
371
    -1
372
    -1
1001
ACAD_DSTYLE_DIMJAG
1070
   388
1040
1.5
1001
ACAD_DSTYLE_DIMTALN
1070
   392
1070
     0
1001
ACAD_DSTYLE_DIM_LINETYPE
1070
   380
1005
22
1001
ACAD_DSTYLE_DIM_EXT1_LINETYPE
1070
   381
1005
22
1001
ACAD_DSTYLE_DIM_EXT2_LINETYPE
1070
   382
1005
22
  0
ENDTAB
  0
TABLE
  2
BLOCK_RECORD
  5
1
330
0
100
AcDbSymbolTable
 70
     2
  0
BLOCK_RECORD
  5
2
330
1
100
AcDbSymbolTableRecord
100
AcDbBlockTableRecord
  2
*MODEL_SPACE
340
16
  0
BLOCK_RECORD
  5
18
330
1
100
AcDbSymbolTableRecord
100
AcDbBlockTableRecord
  2
*PAPER_SPACE
340
1B
  0
BLOCK_RECORD
  5
36
330
1
100
AcDbSymbolTableRecord
100
AcDbBlockTableRecord
  2
_OPEN30
340
0
  0
BLOCK_RECORD
  5
30
330
1
100
AcDbSymbolTableRecord
100
AcDbBlockTableRecord
  2
_Open
340
0
  0
ENDTAB
  0
ENDSEC
  0
SECTION
  2
BLOCKS
  0
BLOCK
  5
3
330
2
100
AcDbEntity
  8
0
100
AcDbBlockBegin
  2
*MODEL_SPACE
 70
     0
 10
0.0
 20
0.0
 30
0.0
  3
*MODEL_SPACE
  1

  0
ENDBLK
  5
15
330
2
100
AcDbEntity
  8
0
100
AcDbBlockEnd
  0
BLOCK
  5
19
330
18
100
AcDbEntity
 67
     1
  8
0
100
AcDbBlockBegin
  2
*PAPER_SPACE
 70
     0
 10
0.0
 20
0.0
 30
0.0
  3
*PAPER_SPACE
  1

  0
ENDBLK
  5
1A
330
18
100
AcDbEntity
 67
     1
  8
0
100
AcDbBlockEnd
  0
BLOCK
  5
37
330
36
100
AcDbEntity
  8
0
100
AcDbBlockBegin
  2
_OPEN30
 70
     0
 10
0.0
 20
0.0
 30
0.0
  3
_OPEN30
  1

  0
LINE
  5
38
330
36
100
AcDbEntity
  8
0
  6
ByBlock
 62
     0
100
AcDbLine
 10
-1.0
 20
0.26794919
 30
0.0
 11
0.0
 21
0.0
 31
0.0
  0
LINE
  5
39
330
36
100
AcDbEntity
  8
0
  6
ByBlock
 62
     0
100
AcDbLine
 10
0.0
 20
0.0
 30
0.0
 11
-1.0
 21
-0.26794919
 31
0.0
  0
LINE
  5
3A
330
36
100
AcDbEntity
  8
0
  6
ByBlock
 62
     0
100
AcDbLine
 10
0.0
 20
0.0
 30
0.0
 11
-1.0
 21
0.0
 31
0.0
  0
ENDBLK
  5
3B
330
36
100
AcDbEntity
  8
0
100
AcDbBlockEnd
  0
BLOCK
  5
31
330
30
100
AcDbEntity
  8
0
100
AcDbBlockBegin
  2
_Open
 70
     0
 10
0.0
 20
0.0
 30
0.0
  3
_Open
  1

  0
LINE
  5
32
330
30
100
AcDbEntity
  8
0
  6
ByBlock
 62
     0
370
    -2
100
AcDbLine
 10
-1.0
 20
0.1666666666666666
 30
0.0
 11
0.0
 21
0.0
 31
0.0
  0
LINE
  5
33
330
30
100
AcDbEntity
  8
0
  6
ByBlock
 62
     0
370
    -2
100
AcDbLine
 10
-1.0
 20
-0.1666666666666666
 30
0.0
 11
0.0
 21
0.0
 31
0.0
  0
LINE
  5
34
330
30
100
AcDbEntity
  8
0
  6
ByBlock
 62
     0
370
    -2
100
AcDbLine
 10
0.0
 20
0.0
 30
0.0
 11
-1.0
 21
0.0
 31
0.0
  0
ENDBLK
  5
35
330
30
100
AcDbEntity
  8
0
100
AcDbBlockEnd
  0
ENDSEC
  0
SECTION
  2
ENTITIES
  0
LINE
  5
5E
330
2
100
AcDbEntity
  8
0
  6
CENTER
 62
     4
 48
10.0
100
AcDbLine
 10
269.1975304567204
 20
628.0
 30
0.0
 11
356.9949587593637
 21
628.0
 31
0.0
  0
LINE
  5
60
330
2
100
AcDbEntity
  8
0
  6
Continuous
 62
     7
100
AcDbLine
 10
448.0
 20
657.5000000000001
 30
0.0
 11
448.0
 21
598.5
 31
0.0
  0
LINE
  5
61
330
2
100
AcDbEntity
  8
0
  6
CENTER
 62
     4
 48
10.0
100
AcDbLine
 10
438.641564321319
 20
628.0
 30
0.0
 11
690.8724823663844
 21
628.0
 31
0.0
  0
LINE
  5
62
330
2
100
AcDbEntity
  8
0
  6
Continuous
 62
     7
100
AcDbLine
 10
447.9999999999998
 20
598.5
 30
0.0
 11
491.1430249258771
 21
598.5
 31
0.0
  0
LINE
  5
63
330
2
100
AcDbEntity
  8
0
  6
Continuous
 62
     7
100
AcDbLine
 10
447.9999999999998
 20
657.5
 30
0.0
 11
491.143024925877
 21
657.5000000000001
 31
0.0
  0
ARC
  5
64
330
2
100
AcDbEntity
  8
0
  6
Continuous
 62
     7
100
AcDbCircle
 10
871.2500000000092
 20
628.0000000000001
 30
0.0
 40
381.2500000000092
100
AcDbArc
 50
174.1286531071576
 51
185.8713468928423
  0
ARC
  5
65
330
2
100
AcDbEntity
  8
0
  6
Continuous
 62
     7
100
AcDbCircle
 10
1583.774684497648
 20
631.3557500366679
 30
0.0
 40
1082.832692908539
100
AcDbArc
 50
178.0077334649904
 51
182.3476466382287
  0
LINE
  5
66
330
2
100
AcDbEntity
  8
0
  6
Continuous
 62
     7
100
AcDbLine
 10
492.0
 20
666.999999999999
 30
0.0
 11
501.5510110961266
 21
667.6677530229414
 31
0.0
  0
LINE
  5
67
330
2
100
AcDbEntity
  8
0
  6
Continuous
 62
     7
100
AcDbLine
 10
501.5965331398155
 20
669.0
 30
0.0
 11
653.3507042134824
 21
668.9999999999998
 31
0.0
  0
LINE
  5
68
330
2
100
AcDbEntity
  8
0
  6
Continuous
 62
     7
100
AcDbLine
 10
501.8508386238996
 20
587.0
 30
0.0
 11
653.096398729398
 21
587.0
 31
0.0
  0
LINE
  5
69
330
2
100
AcDbEntity
  8
0
  6
Continuous
 62
     7
100
AcDbLine
 10
519.3506657418509
 20
580.0
 30
0.0
 11
629.3506657418508
 21
580.0
 31
0.0
  0
LINE
  5
6A
330
2
100
AcDbEntity
  8
0
  6
Continuous
 62
     7
100
AcDbLine
 10
491.9778825897087
 20
588.9994056239803
 30
0.0
 11
501.5285134614132
 21
588.3262362467646
 31
0.0
  0
LINE
  5
6B
330
2
100
AcDbEntity
  8
0
  6
Continuous
 62
     7
100
AcDbLine
 10
458.0
 20
657.5000000000001
 30
0.0
 11
458.0
 21
598.5
 31
0.0
  0
ARC
  5
6C
330
2
100
AcDbEntity
  8
0
  6
Continuous
 62
     7
100
AcDbCircle
 10
268.2055947725824
 20
627.6910601760449
 30
0.0
 40
108.8239494855587
100
AcDbArc
 50
338.5228378730277
 51
21.82923566286981
  0
LINE
  5
6D
330
2
100
AcDbEntity
  8
0
  6
CENTER
 62
     4
 48
10.0
100
AcDbLine
 10
312.0
 20
660.8575271691051
 30
0.0
 11
312.0
 21
595.6873083697159
 31
0.0
  0
CIRCLE
  5
6E
330
2
100
AcDbEntity
  8
0
  6
Continuous
 62
     7
100
AcDbCircle
 10
312.0
 20
628.0
 30
0.0
 40
27.80348750054145
  0
CIRCLE
  5
6F
330
2
100
AcDbEntity
  8
0
  6
Continuous
 62
     7
100
AcDbCircle
 10
312.0
 20
628.0
 30
0.0
 40
23.80348750054145
  0
CIRCLE
  5
70
330
2
100
AcDbEntity
  8
0
  6
Continuous
 62
     7
100
AcDbCircle
 10
312.0
 20
628.0
 30
0.0
 40
17.80348750054145
  0
ARC
  5
71
330
2
100
AcDbEntity
  8
0
  6
Continuous
 62
     7
100
AcDbCircle
 10
268.2055947725824
 20
627.6910601760449
 30
0.0
 40
105.3239494855587
100
AcDbArc
 50
339.7936455173897
 51
20.56691498186895
  0
ARC
  5
72
330
2
100
AcDbEntity
  8
0
  6
Continuous
 62
     7
100
AcDbCircle
 10
355.7944052274175
 20
627.6910601760449
 30
0.0
 40
105.3239494855587
100
AcDbArc
 50
159.433085018131
 51
200.2063544826103
  0
ARC
  5
73
330
2
100
AcDbEntity
  8
0
  6
Continuous
 62
     7
100
AcDbCircle
 10
355.7944052274175
 20
627.6910601760449
 30
0.0
 40
108.8239494855587
100
AcDbArc
 50
158.1707643371302
 51
201.4771621269722
  0
LINE
  5
74
330
2
100
AcDbEntity
  8
0
  6
Continuous
 62
     7
100
AcDbLine
 10
346.0
 20
580.0
 30
0.0
 11
278.0
 21
580.0
 31
0.0
  0
LINE
  5
75
330
2
100
AcDbEntity
  8
0
  6
Continuous
 62
     7
100
AcDbLine
 10
278.0
 20
580.0
 30
0.0
 11
276.63083440426
 21
587.0
 31
0.0
  0
LINE
  5
76
330
2
100
AcDbEntity
  8
0
  6
Continuous
 62
     7
100
AcDbLine
 10
346.0
 20
580.0
 30
0.0
 11
347.36916559574
 21
587.0
 31
0.0
  0
LINE
  5
77
330
2
100
AcDbEntity
  8
0
  6
CENTER
 62
     4
 48
10.0
100
AcDbLine
 10
281.5790785868067
 20
587.0
 30
0.0
 11
281.5790785868067
 21
575.3891650030385
 31
0.0
  0
LINE
  5
78
330
2
100
AcDbEntity
  8
0
  6
CENTER
 62
     4
 48
10.0
100
AcDbLine
 10
342.4209214131934
 20
587.0
 30
0.0
 11
342.4209214131934
 21
575.3891650030385
 31
0.0
  0
LINE
  5
79
330
2
100
AcDbEntity
  8
0
  6
Continuous
 62
     7
100
AcDbLine
 10
672.0
 20
641.0000000000001
 30
0.0
 11
672.0
 21
615.0000000000001
 31
0.0
  0
LINE
  5
7A
330
2
100
AcDbEntity
  8
0
  6
Continuous
 62
     7
100
AcDbLine
 10
672.0
 20
470.434577200509
 30
0.0
 11
672.0
 21
445.3725873079689
 31
0.0
  0
LINE
  5
7B
330
2
100
AcDbEntity
  8
0
  6
CENTER
 62
     4
 48
10.0
100
AcDbLine
 10
438.641564321319
 20
423.9999999999999
 30
0.0
 11
696.0760061864025
 21
423.9999999999999
 31
0.0
  0
CIRCLE
  5
7C
330
2
100
AcDbEntity
  8
0
  6
Continuous
 62
     7
100
AcDbCircle
 10
619.3506657418509
 20
448.9999999999999
 30
0.0
 40
2.5
  0
CIRCLE
  5
7D
330
2
100
AcDbEntity
  8
0
  6
Continuous
 62
     7
100
AcDbCircle
 10
619.350665741851
 20
398.9999999999999
 30
0.0
 40
2.5
  0
CIRCLE
  5
7E
330
2
100
AcDbEntity
  8
0
  6
Continuous
 62
     7
100
AcDbCircle
 10
529.3506657418508
 20
448.9999999999999
 30
0.0
 40
2.5
  0
CIRCLE
  5
7F
330
2
100
AcDbEntity
  8
0
  6
Continuous
 62
     7
100
AcDbCircle
 10
529.3506657418508
 20
398.9999999999999
 30
0.0
 40
2.5
  0
LINE
  5
80
330
2
100
AcDbEntity
  8
0
  6
Continuous
 62
     7
100
AcDbLine
 10
629.3506657418508
 20
457.9298315334884
 30
0.0
 11
629.3506657418511
 21
390.0701684665114
 31
0.0
  0
LINE
  5
81
330
2
100
AcDbEntity
  8
0
  6
Continuous
 62
     7
100
AcDbLine
 10
519.3506657418509
 20
457.9298315334884
 30
0.0
 11
519.3506657418509
 21
390.0701684665114
 31
0.0
  0
LINE
  5
82
330
2
100
AcDbEntity
  8
0
  6
Continuous
 62
     7
100
AcDbLine
 10
500.9471988816661
 20
358.9999999999999
 30
0.0
 11
500.9471988816663
 21
488.9999999999998
 31
0.0
  0
LINE
  5
83
330
2
100
AcDbEntity
  8
0
  6
Continuous
 62
     7
100
AcDbLine
 10
519.3506657418509
 20
457.9298315334884
 30
0.0
 11
629.3506657418508
 21
457.9298315334884
 31
0.0
  0
LINE
  5
84
330
2
100
AcDbEntity
  8
0
  6
Continuous
 62
     7
100
AcDbLine
 10
519.3506657418509
 20
390.0701684665114
 30
0.0
 11
629.3506657418511
 21
390.0701684665114
 31
0.0
  0
LINE
  5
85
330
2
100
AcDbEntity
  8
0
  6
Continuous
 62
     7
100
AcDbLine
 10
500.9471988816663
 20
488.9999999999998
 30
0.0
 11
654.0000000000002
 21
488.9999999999998
 31
0.0
  0
LINE
  5
86
330
2
100
AcDbEntity
  8
0
  6
Continuous
 62
     7
100
AcDbLine
 10
500.9471988816661
 20
358.9999999999999
 30
0.0
 11
654.0000000000002
 21
358.9999999999999
 31
0.0
  0
LINE
  5
87
330
2
100
AcDbEntity
  8
0
  6
Continuous
 62
     7
100
AcDbLine
 10
662.0
 20
487.1116206252508
 30
0.0
 11
662.0
 21
360.8673916592459
 31
0.0
  0
LINE
  5
88
330
2
100
AcDbEntity
  8
0
  6
Continuous
 62
     7
100
AcDbLine
 10
654.0000000000002
 20
488.9999999999998
 30
0.0
 11
654.0000000000002
 21
358.9999999999999
 31
0.0
  0
ARC
  5
89
330
2
100
AcDbEntity
  8
0
  6
Continuous
 62
     7
100
AcDbCircle
 10
280.7499999999911
 20
627.9727817196143
 30
0.0
 40
381.2500000000092
100
AcDbArc
 50
355.9397084975025
 51
4.067994187426334
  0
ARC
  5
8A
330
2
100
AcDbEntity
  8
0
  6
Continuous
 62
     7
100
AcDbCircle
 10
-428.8274471443504
 20
631.3557500366679
 30
0.0
 40
1082.832692908539
100
AcDbArc
 50
357.6523533617709
 51
1.992266535009605
  0
LINE
  5
8B
330
2
100
AcDbEntity
  8
0
  6
Continuous
 62
     7
100
AcDbLine
 10
661.0394658891496
 20
655.0187543171258
 30
0.0
 11
653.396226257171
 21
655.8231174609187
 31
0.0
  0
LINE
  5
8C
330
2
100
AcDbEntity
  8
0
  6
Continuous
 62
     7
100
AcDbLine
 10
661.046695640568
 20
600.9783139598215
 30
0.0
 11
653.4036715041765
 21
600.171905757061
 31
0.0
  0
LINE
  5
8D
330
2
100
AcDbEntity
  8
0
  6
Continuous
 62
     7
100
AcDbLine
 10
661.7773665812933
 20
641.0000000000001
 30
0.0
 11
672.0
 21
641.0000000000001
 31
0.0
  0
LINE
  5
8E
330
2
100
AcDbEntity
  8
0
  6
Continuous
 62
     7
100
AcDbLine
 10
661.7792238588206
 20
615.0000000000002
 30
0.0
 11
672.0
 21
615.0000000000001
 31
0.0
  0
LINE
  5
8F
330
2
100
AcDbEntity
  8
0
  6
Continuous
 62
     7
100
AcDbLine
 10
662.0
 20
470.4345772005091
 30
0.0
 11
672.0
 21
470.434577200509
 31
0.0
  0
LINE
  5
90
330
2
100
AcDbEntity
  8
0
  6
CENTER
 62
     4
 48
10.0
100
AcDbLine
 10
650.6434016321819
 20
457.903582254239
 30
0.0
 11
683.2868032643634
 21
457.903582254239
 31
0.0
  0
LINE
  5
91
330
2
100
AcDbEntity
  8
0
  6
Continuous
 62
     7
100
AcDbLine
 10
491.3506657418509
 20
486.9999999999988
 30
0.0
 11
500.9016768379774
 21
487.6677530229414
 31
0.0
  0
LINE
  5
92
330
2
100
AcDbEntity
  8
0
  6
Continuous
 62
     7
100
AcDbLine
 10
491.074242847475
 20
360.9994056239802
 30
0.0
 11
500.6248737191796
 21
360.3262362467646
 31
0.0
  0
LINE
  5
93
330
2
100
AcDbEntity
  8
0
  6
Continuous
 62
     7
100
AcDbLine
 10
662.0000000000002
 20
487.1116206252508
 30
0.0
 11
654.045522043689
 21
487.6677530229414
 31
0.0
  0
LINE
  5
94
330
2
100
AcDbEntity
  8
0
  6
Continuous
 62
     7
100
AcDbLine
 10
662.0000000000002
 20
360.8673916592459
 30
0.0
 11
654.0000000000002
 21
360.303517388523
 31
0.0
  0
LINE
  5
95
330
2
100
AcDbEntity
  8
0
  6
Continuous
 62
     7
100
AcDbLine
 10
491.3506657418509
 20
486.9999999999988
 30
0.0
 11
491.3506657418509
 21
360.9799221542331
 31
0.0
  0
LINE
  5
96
330
2
100
AcDbEntity
  8
0
  6
Continuous
 62
     7
100
AcDbLine
 10
662.0
 20
445.3725873079689
 30
0.0
 11
672.0
 21
445.3725873079689
 31
0.0
  0
LINE
  5
97
330
2
100
AcDbEntity
  8
0
  6
Continuous
 62
     7
100
AcDbLine
 10
662.0
 20
377.5654227994906
 30
0.0
 11
672.0
 21
377.5654227994908
 31
0.0
  0
LINE
  5
98
330
2
100
AcDbEntity
  8
0
  6
Continuous
 62
     7
100
AcDbLine
 10
672.0
 20
433.7851954437084
 30
0.0
 11
672.0
 21
377.5654227994908
 31
0.0
  0
CIRCLE
  5
99
330
2
100
AcDbEntity
  8
0
  6
Continuous
 62
     7
100
AcDbCircle
 10
574.3506657418508
 20
423.9999999999999
 30
0.0
 40
5.844661437988065
  0
LINE
  5
9A
330
2
100
AcDbEntity
  8
0
  6
Continuous
 62
     7
100
AcDbLine
 10
672.0
 20
433.7851954437084
 30
0.0
 11
662.0
 21
433.7851954437084
 31
0.0
  0
LINE
  5
9B
330
2
100
AcDbEntity
  8
0
  6
CENTER
 62
     4
 48
10.0
100
AcDbLine
 10
619.3506657418509
 20
444.8861204194293
 30
0.0
 11
619.3506657418509
 21
453.3654869839536
 31
0.0
  0
LINE
  5
9C
330
2
100
AcDbEntity
  8
0
  6
CENTER
 62
     4
 48
10.0
100
AcDbLine
 10
529.3506657418508
 20
444.3922062415475
 30
0.0
 11
529.3506657418508
 21
453.3654869839536
 31
0.0
  0
LINE
  5
9D
330
2
100
AcDbEntity
  8
0
  6
CENTER
 62
     4
 48
10.0
100
AcDbLine
 10
619.3506657418509
 20
575.8350208957811
 30
0.0
 11
619.3506657418509
 21
590.6523479450974
 31
0.0
  0
LINE
  5
9E
330
2
100
AcDbEntity
  8
0
  6
CENTER
 62
     4
 48
10.0
100
AcDbLine
 10
529.3506657418508
 20
575.8350208957811
 30
0.0
 11
529.3506657418508
 21
590.6523479450974
 31
0.0
  0
LINE
  5
9F
330
2
100
AcDbEntity
  8
0
  6
Continuous
 62
     7
100
AcDbLine
 10
519.3506657418509
 20
580.0
 30
0.0
 11
517.9815001461109
 21
587.0
 31
0.0
  0
LINE
  5
A0
330
2
100
AcDbEntity
  8
0
  6
Continuous
 62
     7
100
AcDbLine
 10
629.3506657418511
 20
580.0
 30
0.0
 11
630.7198313375908
 21
587.0
 31
0.0
  0
LINE
  5
A1
330
2
100
AcDbEntity
  8
0
  6
CENTER
 62
     4
 48
10.0
100
AcDbLine
 10
525.151164058406
 20
448.8788466127506
 30
0.0
 11
533.5501674252957
 21
448.8788466127506
 31
0.0
  0
LINE
  5
A2
330
2
100
AcDbEntity
  8
0
  6
CENTER
 62
     4
 48
10.0
100
AcDbLine
 10
615.151164058406
 20
448.9999999999999
 30
0.0
 11
623.5501674252957
 21
448.9999999999999
 31
0.0
  0
LINE
  5
A3
330
2
100
AcDbEntity
  8
0
  6
CENTER
 62
     4
 48
10.0
100
AcDbLine
 10
529.3506657418508
 20
394.5133596287968
 30
0.0
 11
529.3506657418508
 21
403.4866403712029
 31
0.0
  0
LINE
  5
A4
330
2
100
AcDbEntity
  8
0
  6
CENTER
 62
     4
 48
10.0
100
AcDbLine
 10
525.151164058406
 20
398.9999999999999
 30
0.0
 11
533.5501674252957
 21
398.9999999999999
 31
0.0
  0
LINE
  5
A5
330
2
100
AcDbEntity
  8
0
  6
CENTER
 62
     4
 48
10.0
100
AcDbLine
 10
619.350665741851
 20
395.0072738066787
 30
0.0
 11
619.350665741851
 21
403.4866403712029
 31
0.0
  0
LINE
  5
A6
330
2
100
AcDbEntity
  8
0
  6
CENTER
 62
     4
 48
10.0
100
AcDbLine
 10
615.151164058406
 20
398.9999999999999
 30
0.0
 11
623.5501674252959
 21
398.9999999999999
 31
0.0
  0
CIRCLE
  5
A7
330
2
100
AcDbEntity
  8
0
  6
Continuous
 62
     7
100
AcDbCircle
 10
619.350665741851
 20
448.9999999999999
 30
0.0
 40
2.066999999999999
  0
CIRCLE
  5
A8
330
2
100
AcDbEntity
  8
0
  6
Continuous
 62
     7
100
AcDbCircle
 10
529.3506657418508
 20
448.8788466127506
 30
0.0
 40
2.066999999999999
  0
CIRCLE
  5
A9
330
2
100
AcDbEntity
  8
0
  6
Continuous
 62
     7
100
AcDbCircle
 10
529.3506657418508
 20
398.9999999999999
 30
0.0
 40
2.066999999999999
  0
CIRCLE
  5
AA
330
2
100
AcDbEntity
  8
0
  6
Continuous
 62
     7
100
AcDbCircle
 10
619.3506657418509
 20
398.9999999999999
 30
0.0
 40
2.066999999999999
  0
LINE
  5
AB
330
2
100
AcDbEntity
  8
0
  6
CENTER
 62
     4
 48
2.0
100
AcDbLine
 10
574.3506657418508
 20
416.4860972336203
 30
0.0
 11
574.3506657418508
 21
431.5504576368089
 31
0.0
  0
CIRCLE
  5
AC
330
2
100
AcDbEntity
  8
0
  6
Continuous
 62
     7
100
AcDbCircle
 10
574.3506657418508
 20
423.9999999999999
 30
0.0
 40
4.075988158968356
  0
LINE
  5
AD
330
2
100
AcDbEntity
  8
0
  6
Continuous
 62
     7
100
AcDbLine
 10
312.0
 20
669.0
 30
0.0
 11
369.226454897795
 21
668.1563267783758
 31
0.0
  0
LINE
  5
AE
330
2
100
AcDbEntity
  8
0
  6
Continuous
 62
     7
100
AcDbLine
 10
312.0
 20
669.0
 30
0.0
 11
254.773545102205
 21
668.1563267783754
 31
0.0
  0
LINE
  5
AF
330
2
100
AcDbEntity
  8
0
  6
Continuous
 62
     7
100
AcDbLine
 10
312.0515938901885
 20
665.5003802963043
 30
0.0
 11
257.183535917826
 21
664.6914762445596
 31
0.0
  0
LINE
  5
B0
330
2
100
AcDbEntity
  8
0
  6
Continuous
 62
     7
100
AcDbLine
 10
311.9484061098115
 20
665.5003802963043
 30
0.0
 11
366.8164640821738
 21
664.6914762445597
 31
0.0
  0
LINE
  5
B1
330
2
100
AcDbEntity
  8
0
  6
Continuous
 62
     7
100
AcDbLine
 10
311.9484061098115
 20
590.4996197036957
 30
0.0
 11
367.047352414668
 21
591.311927675946
 31
0.0
  0
LINE
  5
B2
330
2
100
AcDbEntity
  8
0
  6
Continuous
 62
     7
100
AcDbLine
 10
312.0
 20
587.0
 30
0.0
 11
369.4731987975685
 21
587.8473108962139
 31
0.0
  0
LINE
  5
B3
330
2
100
AcDbEntity
  8
0
  6
Continuous
 62
     7
100
AcDbLine
 10
312.0
 20
587.0
 30
0.0
 11
254.5268012024314
 21
587.8473108962139
 31
0.0
  0
LINE
  5
B4
330
2
100
AcDbEntity
  8
0
  6
Continuous
 62
     7
100
AcDbLine
 10
312.0515938901885
 20
590.4996197036957
 30
0.0
 11
256.952647585332
 21
591.3119276759464
 31
0.0
  0
LINE
  5
B5
330
2
100
AcDbEntity
  8
0
  6
Continuous
 62
     7
100
AcDbLine
 10
829.0777134361098
 20
590.4996197036957
 30
0.0
 11
773.9787671312531
 21
591.3119276759463
 31
0.0
  0
LINE
  5
B6
330
2
100
AcDbEntity
  8
0
  6
Continuous
 62
     7
100
AcDbLine
 10
829.0261195459214
 20
587.0
 30
0.0
 11
771.5529207483525
 21
587.8473108962139
 31
0.0
  0
LINE
  5
B7
330
2
100
AcDbEntity
  8
0
  6
Continuous
 62
     7
100
AcDbLine
 10
829.0777134361098
 20
665.5003802963043
 30
0.0
 11
774.2096554637471
 21
664.6914762445597
 31
0.0
  0
LINE
  5
B8
330
2
100
AcDbEntity
  8
0
  6
Continuous
 62
     7
100
AcDbLine
 10
829.0261195459214
 20
669.0
 30
0.0
 11
771.7996646481262
 21
668.1563267783757
 31
0.0
  0
LINE
  5
B9
330
2
100
AcDbEntity
  8
0
  6
Continuous
 62
     7
100
AcDbLine
 10
863.0261195459214
 20
580.0000000000002
 30
0.0
 11
795.0261195459209
 21
580.0000000000002
 31
0.0
  0
ARC
  5
BA
330
2
100
AcDbEntity
  8
0
  6
Continuous
 62
     7
100
AcDbCircle
 10
872.8205247733384
 20
627.6910601760451
 30
0.0
 40
105.3239494855587
100
AcDbArc
 50
159.4330850181314
 51
200.2063544826103
  0
ARC
  5
BB
330
2
100
AcDbEntity
  8
0
  6
Continuous
 62
     7
100
AcDbCircle
 10
872.8205247733384
 20
627.6910601760451
 30
0.0
 40
108.8239494855587
100
AcDbArc
 50
158.1707643371297
 51
201.4771621269714
  0
LINE
  5
BC
330
2
100
AcDbEntity
  8
0
  6
CENTER
 62
     4
 48
10.0
100
AcDbLine
 10
798.6051981327279
 20
587.0
 30
0.0
 11
798.6051981327279
 21
575.3891650030387
 31
0.0
  0
LINE
  5
BD
330
2
100
AcDbEntity
  8
0
  6
Continuous
 62
     7
100
AcDbLine
 10
795.0261195459209
 20
580.0000000000002
 30
0.0
 11
793.6569539501811
 21
587.0
 31
0.0
  0
ARC
  5
BE
330
2
100
AcDbEntity
  8
0
  6
Continuous
 62
     7
100
AcDbCircle
 10
785.2317143185037
 20
627.6910601760451
 30
0.0
 40
105.3239494855587
100
AcDbArc
 50
339.7936455173897
 51
20.5669149818686
  0
ARC
  5
BF
330
2
100
AcDbEntity
  8
0
  6
Continuous
 62
     7
100
AcDbCircle
 10
785.2317143185037
 20
627.6910601760451
 30
0.0
 40
108.8239494855587
100
AcDbArc
 50
338.5228378730271
 51
21.82923566287026
  0
LINE
  5
C0
330
2
100
AcDbEntity
  8
0
  6
Continuous
 62
     7
100
AcDbLine
 10
828.9745256557326
 20
590.4996197036957
 30
0.0
 11
884.0734719605896
 21
591.3119276759462
 31
0.0
  0
LINE
  5
C1
330
2
100
AcDbEntity
  8
0
  6
Continuous
 62
     7
100
AcDbLine
 10
829.0261195459214
 20
587.0
 30
0.0
 11
886.4993183434899
 21
587.8473108962139
 31
0.0
  0
LINE
  5
C2
330
2
100
AcDbEntity
  8
0
  6
CENTER
 62
     4
 48
10.0
100
AcDbLine
 10
859.4470409591147
 20
587.0
 30
0.0
 11
859.4470409591147
 21
575.3891650030387
 31
0.0
  0
LINE
  5
C3
330
2
100
AcDbEntity
  8
0
  6
Continuous
 62
     7
100
AcDbLine
 10
863.0261195459214
 20
580.0000000000002
 30
0.0
 11
864.3952851416614
 21
587.0
 31
0.0
  0
LINE
  5
C4
330
2
100
AcDbEntity
  8
0
  6
Continuous
 62
     7
100
AcDbLine
 10
829.0261195459214
 20
669.0
 30
0.0
 11
886.2525744437162
 21
668.1563267783758
 31
0.0
  0
LINE
  5
C5
330
2
100
AcDbEntity
  8
0
  6
Continuous
 62
     7
100
AcDbLine
 10
828.9745256557326
 20
665.5003802963043
 30
0.0
 11
883.8425836280951
 21
664.6914762445597
 31
0.0
  0
LINE
  5
C6
330
2
100
AcDbEntity
  8
0
  6
Continuous
 62
     7
100
AcDbLine
 10
782.0808941067798
 20
641.7607838983827
 30
0.0
 11
875.9713449850625
 21
641.7607838983827
 31
0.0
  0
LINE
  5
C7
330
2
100
AcDbEntity
  8
0
  6
Continuous
 62
     7
100
AcDbLine
 10
781.9797277960301
 20
614.2900414217186
 30
0.0
 11
876.0725112958125
 21
614.2900414217186
 31
0.0
  0
LINE
  5
C8
330
2
100
AcDbEntity
  8
0
  6
CENTER
 62
     4
 48
10.0
100
AcDbLine
 10
783.7426839010593
 20
628.0
 30
0.0
 11
817.6102937215798
 21
628.0
 31
0.0
  0
CIRCLE
  5
C9
330
2
100
AcDbEntity
  8
0
  6
Continuous
 62
     7
100
AcDbCircle
 10
800.0
 20
628.0
 30
0.0
 40
8.922495518779667
  0
CIRCLE
  5
CA
330
2
100
AcDbEntity
  8
0
  6
Continuous
 62
     7
100
AcDbCircle
 10
800.0
 20
628.0
 30
0.0
 40
13.76078389838267
  0
LINE
  5
CB
330
2
100
AcDbEntity
  8
0
  6
Continuous
 62
     7
100
AcDbLine
 10
784.0531663097737
 20
604.1965124994585
 30
0.0
 11
873.9990727820686
 21
604.1965124994585
 31
0.0
  0
LINE
  5
CC
330
2
100
AcDbEntity
  8
0
  6
Continuous
 62
     7
100
AcDbLine
 10
781.5478279051886
 20
600.1965124994585
 30
0.0
 11
876.5044111866538
 21
600.1965124994585
 31
0.0
  0
LINE
  5
CD
330
2
100
AcDbEntity
  8
0
  6
Continuous
 62
     7
100
AcDbLine
 10
784.2190092803896
 20
651.8034875005412
 30
0.0
 11
873.8332298114533
 21
651.8034875005412
 31
0.0
  0
LINE
  5
CE
330
2
100
AcDbEntity
  8
0
  6
Continuous
 62
     7
100
AcDbLine
 10
781.736240863049
 20
655.8034875005412
 30
0.0
 11
876.3159982287934
 21
655.8034875005412
 31
0.0
  0
LINE
  5
CF
330
2
100
AcDbEntity
  8
0
  6
CENTER
 62
     4
 48
10.0
100
AcDbLine
 10
799.918257803742
 20
645.8604145942608
 30
0.0
 11
799.918257803742
 21
609.9814238788867
 31
0.0
  0
ARC
  5
D0
330
2
100
AcDbEntity
  8
0
  6
Continuous
 62
     7
100
AcDbCircle
 10
872.8205247733384
 20
627.6910601760451
 30
0.0
 40
91.82394948555874
100
AcDbArc
 50
164.6488404681118
 51
194.824854789153
  0
ARC
  5
D1
330
2
100
AcDbEntity
  8
0
  6
Continuous
 62
     7
100
AcDbCircle
 10
872.8205247733384
 20
627.6910601760451
 30
0.0
 40
95.32394948555872
100
AcDbArc
 50
162.8475816949462
 51
196.7641495319671
  0
ARC
  5
D2
330
2
100
AcDbEntity
  8
0
  6
Continuous
 62
     7
100
AcDbCircle
 10
785.2317143185037
 20
627.6910601760451
 30
0.0
 40
91.82394948555874
100
AcDbArc
 50
345.175145210847
 51
15.35115953188819
  0
ARC
  5
D3
330
2
100
AcDbEntity
  8
0
  6
Continuous
 62
     7
100
AcDbCircle
 10
785.2317143185037
 20
627.6910601760451
 30
0.0
 40
95.32394948555872
100
AcDbArc
 50
343.2358504680329
 51
17.15241830505372
  0
CIRCLE
  5
D4
330
2
100
AcDbEntity
  8
0
  6
Continuous
 62
     7
100
AcDbCircle
 10
858.1309680588415
 20
628.0
 30
0.0
 40
13.76078389838267
  0
CIRCLE
  5
D5
330
2
100
AcDbEntity
  8
0
  6
Continuous
 62
     7
100
AcDbCircle
 10
858.1309680588415
 20
628.0
 30
0.0
 40
10.22246905634154
  0
LINE
  5
D6
330
2
100
AcDbEntity
  8
0
  6
CENTER
 62
     4
 48
10.0
100
AcDbLine
 10
841.8736519599006
 20
628.0
 30
0.0
 11
875.7412617804211
 21
628.0
 31
0.0
  0
LINE
  5
D7
330
2
100
AcDbEntity
  8
0
  6
CENTER
 62
     4
 48
10.0
100
AcDbLine
 10
857.9742074830422
 20
645.939495357687
 30
0.0
 11
857.9742074830422
 21
610.0605046423129
 31
0.0
  0
CIRCLE
  5
D8
330
2
100
AcDbEntity
  8
0
  6
Continuous
 62
     7
100
AcDbCircle
 10
858.1309680588415
 20
628.0
 30
0.0
 40
6.216450968947357
  0
LINE
  5
D9
330
2
100
AcDbEntity
  8
0
  6
Continuous
 62
     7
100
AcDbLine
 10
448.0
 20
453.5
 30
0.0
 11
448.0
 21
394.4999999999999
 31
0.0
  0
LINE
  5
DA
330
2
100
AcDbEntity
  8
0
  6
Continuous
 62
     7
100
AcDbLine
 10
447.9999999999998
 20
394.4999999999999
 30
0.0
 11
491.3506657418509
 21
394.4999999999998
 31
0.0
  0
LINE
  5
DB
330
2
100
AcDbEntity
  8
0
  6
Continuous
 62
     7
100
AcDbLine
 10
447.9999999999998
 20
453.4999999999999
 30
0.0
 11
491.3506657418509
 21
453.4999999999999
 31
0.0
  0
LINE
  5
DC
330
2
100
AcDbEntity
  8
0
  6
Continuous
 62
     7
100
AcDbLine
 10
458.0
 20
453.5
 30
0.0
 11
458.0
 21
394.4999999999999
 31
0.0
  0
ENDSEC
  0
SECTION
  2
OBJECTS
  0
DICTIONARY
  5
9
330
0
100
AcDbDictionary
281
     1
  3
ACAD_2007HEADERVARS_RT
350
E3
  3
ACAD_COLOR
350
54
  3
ACAD_GROUP
350
3F
  3
ACAD_LAYOUT
350
17
  3
ACAD_MATERIAL
350
B
  3
ACAD_MLINESTYLE
350
40
  3
ACAD_PLOTSETTINGS
350
41
  3
ACAD_PLOTSTYLENAME
350
8
  3
ACAD_TABLESTYLE
350
55
  3
ACAD_VISUALSTYLE
350
28
  3
AcDbVariableDictionary
350
DD
  0
DICTIONARY
  5
5
330
4
100
AcDbDictionary
280
     1
281
     1
  3
ADSK_XREC_LAYER_RECONCILED
360
6
  0
DICTIONARY
  5
E3
102
{ACAD_REACTORS
330
9
102
}
330
9
100
AcDbDictionary
281
     1
  3
DIMLTEX1
350
E5
  3
DIMLTEX2
350
E6
  3
DIMLTYPE
350
E4
  0
DICTIONARY
  5
54
102
{ACAD_REACTORS
330
9
102
}
330
9
100
AcDbDictionary
281
     1
  0
DICTIONARY
  5
3F
102
{ACAD_REACTORS
330
9
102
}
330
9
100
AcDbDictionary
281
     1
  0
DICTIONARY
  5
17
102
{ACAD_REACTORS
330
9
102
}
330
9
100
AcDbDictionary
281
     1
  3
Model
350
16
  3
ﾚｲｱｳﾄ1
350
1B
  0
DICTIONARY
  5
B
102
{ACAD_REACTORS
330
9
102
}
330
9
100
AcDbDictionary
281
     1
  3
ByBlock
350
4B
  3
ByLayer
350
42
  3
Global
350
A
  0
DICTIONARY
  5
40
102
{ACAD_REACTORS
330
9
102
}
330
9
100
AcDbDictionary
281
     1
  3
STANDARD
350
56
  0
DICTIONARY
  5
41
102
{ACAD_REACTORS
330
9
102
}
330
9
100
AcDbDictionary
281
     1
  0
ACDBDICTIONARYWDFLT
  5
8
102
{ACAD_REACTORS
330
9
102
}
330
9
100
AcDbDictionary
281
     1
  3
Normal
350
7
100
AcDbDictionaryWithDefault
340
7
  0
DICTIONARY
  5
55
102
{ACAD_REACTORS
330
9
102
}
330
9
100
AcDbDictionary
281
     1
  3
Standard
350
57
  0
DICTIONARY
  5
28
102
{ACAD_REACTORS
330
9
102
}
330
9
100
AcDbDictionary
281
     1
  3
2dWireframe
350
27
  3
3dWireframe
350
5D
  3
Realistic
350
5A
  0
DICTIONARY
  5
DD
102
{ACAD_REACTORS
330
9
102
}
330
9
100
AcDbDictionary
281
     1
  3
CTABLESTYLE
350
DE
  3
DIMASSOC
350
E2
  3
HIDETEXT
350
E1
  3
INDEXCTL
350
E0
  3
SORTENTS
350
DF
  0
XRECORD
  5
6
102
{ACAD_REACTORS
330
5
102
}
330
5
100
AcDbXrecord
280
     1
290
     1
  0
XRECORD
  5
E5
102
{ACAD_REACTORS
330
E3
102
}
330
E3
100
AcDbXrecord
280
     1
340
22
  0
XRECORD
  5
E6
102
{ACAD_REACTORS
330
E3
102
}
330
E3
100
AcDbXrecord
280
     1
340
22
  0
XRECORD
  5
E4
102
{ACAD_REACTORS
330
E3
102
}
330
E3
100
AcDbXrecord
280
     1
340
22
  0
LAYOUT
  5
16
102
{ACAD_XDICTIONARY
360
E7
102
}
102
{ACAD_REACTORS
330
17
102
}
330
17
100
AcDbPlotSettings
  1

  2
Dell Laser Printer 1710n
  4
A4
  6

 40
6.805083274841307
 41
5.535083293914794
 42
6.974411010742187
 43
7.14373779296875
 44
209.9733276367186
 45
296.9259948730469
 46
0.0
 47
0.0
 48
0.0
 49
0.0
140
0.0
141
0.0
142
1.0
143
4.0
 70
 11952
 72
     1
 73
     1
 74
     2
  7
ﾍﾟﾝ設定.ctb
 75
    18
147
0.25
148
0.0
149
0.0
100
AcDbLayout
  1
Model
 70
     1
 71
     0
 10
0.0
 20
0.0
 11
12.0
 21
9.0
 12
0.0
 22
0.0
 32
0.0
 14
0.0
 24
0.0
 34
0.0
 15
0.0
 25
0.0
 35
0.0
146
0.0
 13
0.0
 23
0.0
 33
0.0
 16
1.0
 26
0.0
 36
0.0
 17
0.0
 27
1.0
 37
0.0
 76
     0
330
2
331
26
  0
LAYOUT
  5
1B
102
{ACAD_XDICTIONARY
360
E9
102
}
102
{ACAD_REACTORS
330
17
102
}
330
17
100
AcDbPlotSettings
  1

  2
Canon LASER SHOT LBP-1610
  4

  6

 40
0.0
 41
0.0
 42
0.0
 43
0.0
 44
0.0
 45
0.0
 46
0.0
 47
0.0
 48
0.0
 49
0.0
140
0.0
141
0.0
142
1.0
143
1.0
 70
   688
 72
     0
 73
     0
 74
     5
  7
ﾍﾟﾝ設定.ctb
 75
    16
147
1.0
148
0.0
149
0.0
100
AcDbLayout
  1
ﾚｲｱｳﾄ1
 70
     0
 71
     1
 10
0.0
 20
0.0
 11
420.0
 21
297.0
 12
0.0
 22
0.0
 32
0.0
 14
1.000000000000000E+20
 24
1.000000000000000E+20
 34
1.000000000000000E+20
 15
-1.000000000000000E+20
 25
-1.000000000000000E+20
 35
-1.000000000000000E+20
146
0.0
 13
0.0
 23
0.0
 33
0.0
 16
1.0
 26
0.0
 36
0.0
 17
0.0
 27
1.0
 37
0.0
 76
     0
330
18
  0
MATERIAL
  5
4B
102
{ACAD_XDICTIONARY
360
4C
102
}
102
{ACAD_REACTORS
330
B
102
}
330
B
100
AcDbMaterial
  1
ByBlock
 72
     0
 43
0.0208333333333333
 43
0.0
 43
0.0
 43
0.0
 43
0.0
 43
0.0208333333333333
 43
0.0
 43
0.0
 43
0.0
 43
0.0
 43
1.0
 43
0.0
 43
0.0
 43
0.0
 43
0.0
 43
1.0
 77
     0
 47
0.0208333333333333
 47
0.0
 47
0.0
 47
0.0
 47
0.0
 47
0.0208333333333333
 47
0.0
 47
0.0
 47
0.0
 47
0.0
 47
1.0
 47
0.0
 47
0.0
 47
0.0
 47
0.0
 47
1.0
171
     0
 49
0.0208333333333333
 49
0.0
 49
0.0
 49
0.0
 49
0.0
 49
0.0208333333333333
 49
0.0
 49
0.0
 49
0.0
 49
0.0
 49
1.0
 49
0.0
 49
0.0
 49
0.0
 49
0.0
 49
1.0
175
     0
142
0.0208333333333333
142
0.0
142
0.0
142
0.0
142
0.0
142
0.0208333333333333
142
0.0
142
0.0
142
0.0
142
0.0
142
1.0
142
0.0
142
0.0
142
0.0
142
0.0
142
1.0
179
     0
144
0.0208333333333333
144
0.0
144
0.0
144
0.0
144
0.0
144
0.0208333333333333
144
0.0
144
0.0
144
0.0
144
0.0
144
1.0
144
0.0
144
0.0
144
0.0
144
0.0
144
1.0
147
0.0208333333333333
147
0.0
147
0.0
147
0.0
147
0.0
147
0.0208333333333333
147
0.0
147
0.0
147
0.0
147
0.0
147
1.0
147
0.0
147
0.0
147
0.0
147
0.0
147
1.0
  0
MATERIAL
  5
42
102
{ACAD_XDICTIONARY
360
43
102
}
102
{ACAD_REACTORS
330
B
102
}
330
B
100
AcDbMaterial
  1
ByLayer
 72
     0
 43
0.0208333333333333
 43
0.0
 43
0.0
 43
0.0
 43
0.0
 43
0.0208333333333333
 43
0.0
 43
0.0
 43
0.0
 43
0.0
 43
1.0
 43
0.0
 43
0.0
 43
0.0
 43
0.0
 43
1.0
 77
     0
 47
0.0208333333333333
 47
0.0
 47
0.0
 47
0.0
 47
0.0
 47
0.0208333333333333
 47
0.0
 47
0.0
 47
0.0
 47
0.0
 47
1.0
 47
0.0
 47
0.0
 47
0.0
 47
0.0
 47
1.0
171
     0
 49
0.0208333333333333
 49
0.0
 49
0.0
 49
0.0
 49
0.0
 49
0.0208333333333333
 49
0.0
 49
0.0
 49
0.0
 49
0.0
 49
1.0
 49
0.0
 49
0.0
 49
0.0
 49
0.0
 49
1.0
175
     0
142
0.0208333333333333
142
0.0
142
0.0
142
0.0
142
0.0
142
0.0208333333333333
142
0.0
142
0.0
142
0.0
142
0.0
142
1.0
142
0.0
142
0.0
142
0.0
142
0.0
142
1.0
179
     0
144
0.0208333333333333
144
0.0
144
0.0
144
0.0
144
0.0
144
0.0208333333333333
144
0.0
144
0.0
144
0.0
144
0.0
144
1.0
144
0.0
144
0.0
144
0.0
144
0.0
144
1.0
147
0.0208333333333333
147
0.0
147
0.0
147
0.0
147
0.0
147
0.0208333333333333
147
0.0
147
0.0
147
0.0
147
0.0
147
1.0
147
0.0
147
0.0
147
0.0
147
0.0
147
1.0
  0
MATERIAL
  5
A
102
{ACAD_XDICTIONARY
360
C
102
}
102
{ACAD_REACTORS
330
B
102
}
330
B
100
AcDbMaterial
  1
Global
 72
     0
 43
0.0208333333333333
 43
0.0
 43
0.0
 43
0.0
 43
0.0
 43
0.0208333333333333
 43
0.0
 43
0.0
 43
0.0
 43
0.0
 43
1.0
 43
0.0
 43
0.0
 43
0.0
 43
0.0
 43
1.0
 77
     0
 47
0.0208333333333333
 47
0.0
 47
0.0
 47
0.0
 47
0.0
 47
0.0208333333333333
 47
0.0
 47
0.0
 47
0.0
 47
0.0
 47
1.0
 47
0.0
 47
0.0
 47
0.0
 47
0.0
 47
1.0
171
     0
 49
0.0208333333333333
 49
0.0
 49
0.0
 49
0.0
 49
0.0
 49
0.0208333333333333
 49
0.0
 49
0.0
 49
0.0
 49
0.0
 49
1.0
 49
0.0
 49
0.0
 49
0.0
 49
0.0
 49
1.0
175
     0
142
0.0208333333333333
142
0.0
142
0.0
142
0.0
142
0.0
142
0.0208333333333333
142
0.0
142
0.0
142
0.0
142
0.0
142
1.0
142
0.0
142
0.0
142
0.0
142
0.0
142
1.0
179
     0
144
0.0208333333333333
144
0.0
144
0.0
144
0.0
144
0.0
144
0.0208333333333333
144
0.0
144
0.0
144
0.0
144
0.0
144
1.0
144
0.0
144
0.0
144
0.0
144
0.0
144
1.0
147
0.0208333333333333
147
0.0
147
0.0
147
0.0
147
0.0
147
0.0208333333333333
147
0.0
147
0.0
147
0.0
147
0.0
147
1.0
147
0.0
147
0.0
147
0.0
147
0.0
147
1.0
  0
MLINESTYLE
  5
56
102
{ACAD_REACTORS
330
40
102
}
330
40
100
AcDbMlineStyle
  2
STANDARD
 70
     0
  3

 62
   256
 51
90.0
 52
90.0
 71
     2
 49
0.5
 62
   256
  6
BYLAYER
 49
-0.5
 62
   256
  6
BYLAYER
  0
ACDBPLACEHOLDER
  5
7
102
{ACAD_REACTORS
330
8
102
}
330
8
  0
TABLESTYLE
  5
57
102
{ACAD_XDICTIONARY
360
58
102
}
102
{ACAD_REACTORS
330
55
102
}
330
55
100
AcDbTableStyle
  3
Standard
 70
     0
 71
     0
 40
1.5
 41
1.5
280
     0
281
     0
  7
STANDARD
140
4.5
170
     2
 62
     0
 63
     7
283
     0
274
    -2
284
     1
 64
     0
275
    -2
285
     1
 65
     0
276
    -2
286
     1
 66
     0
277
    -2
287
     1
 67
     0
278
    -2
288
     1
 68
     0
279
    -2
289
     1
 69
     0
  7
STANDARD
140
6.0
170
     5
 62
     0
 63
     7
283
     0
274
    -2
284
     1
 64
     0
275
    -2
285
     1
 65
     0
276
    -2
286
     1
 66
     0
277
    -2
287
     1
 67
     0
278
    -2
288
     1
 68
     0
279
    -2
289
     1
 69
     0
  7
STANDARD
140
4.5
170
     5
 62
     0
 63
     7
283
     0
274
    -2
284
     1
 64
     0
275
    -2
285
     1
 65
     0
276
    -2
286
     1
 66
     0
277
    -2
287
     1
 67
     0
278
    -2
288
     1
 68
     0
279
    -2
289
     1
 69
     0
  0
VISUALSTYLE
  5
27
102
{ACAD_XDICTIONARY
360
29
102
}
102
{ACAD_REACTORS
330
28
102
}
330
28
100
AcDbVisualStyle
  2

 70
     4
 71
     0
 72
     2
 73
     0
 90
        0
 40
-0.6
 41
-30.0
 62
     5
 63
     7
 74
     1
 91
        4
 64
     7
 65
   257
 75
     1
175
     1
 42
1.0
 92
        0
 66
   257
 43
1.0
 76
     1
 77
     6
 78
     2
 67
     7
 79
     5
170
     0
171
     0
290
     0
174
     0
 93
        1
 44
0.0
173
     0
291
     0
 45
0.0
1001
ACAD
1000
AcDbSavedByObjectVersion
1070
     0
1000
AcDbSavedByObjectVersion
1070
     0
  0
VISUALSTYLE
  5
5D
102
{ACAD_REACTORS
330
28
102
}
330
28
100
AcDbVisualStyle
  2
3dWireframe
 70
     5
 71
     0
 72
     2
 73
     0
 90
        0
 40
-0.6
 41
-30.0
 62
     5
 63
     7
 74
     1
 91
        4
 64
     7
 65
   257
 75
     1
175
     1
 42
1.0
 92
        0
 66
   257
 43
1.0
 76
     1
 77
     6
 78
     2
 67
     7
 79
     5
170
     0
171
     0
290
     0
174
     0
 93
        1
 44
0.0
173
     0
291
     0
 45
0.0
1001
ACAD
1000
AcDbSavedByObjectVersion
1070
     0
  0
VISUALSTYLE
  5
5A
102
{ACAD_XDICTIONARY
360
5B
102
}
102
{ACAD_REACTORS
330
28
102
}
330
28
100
AcDbVisualStyle
  2

 70
     8
 71
     2
 72
     3
 73
     0
 90
        2
 40
-0.6
 41
30.0
 62
     5
 63
     7
 74
     0
 91
        0
 64
     7
 65
   257
 75
     1
175
     1
 42
1.0
 92
        8
 66
   257
 43
1.0
 76
     1
 77
     6
 78
     2
 67
     7
 79
     3
170
     0
171
     0
290
     0
174
     0
 93
       13
 44
0.0
173
     0
291
     0
 45
0.0
1001
ACAD
1000
AcDbSavedByObjectVersion
1070
     0
  0
DICTIONARYVAR
  5
DE
102
{ACAD_REACTORS
330
DD
102
}
330
DD
100
DictionaryVariables
280
     0
  1
STANDARD
  0
DICTIONARYVAR
  5
E2
102
{ACAD_REACTORS
330
DD
102
}
330
DD
100
DictionaryVariables
280
     0
  1
1
  0
DICTIONARYVAR
  5
E1
102
{ACAD_REACTORS
330
DD
102
}
330
DD
100
DictionaryVariables
280
     0
  1
1
  0
DICTIONARYVAR
  5
E0
102
{ACAD_REACTORS
330
DD
102
}
330
DD
100
DictionaryVariables
280
     0
  1
0
  0
DICTIONARYVAR
  5
DF
102
{ACAD_REACTORS
330
DD
102
}
330
DD
100
DictionaryVariables
280
     0
  1
127
  0
DICTIONARY
  5
E7
330
16
100
AcDbDictionary
280
     1
281
     1
  3
ACAD_XREC_ROUNDTRIP
360
E8
  0
DICTIONARY
  5
E9
330
1B
100
AcDbDictionary
280
     1
281
     1
  3
ACAD_XREC_ROUNDTRIP
360
EA
  0
DICTIONARY
  5
4C
330
4B
100
AcDbDictionary
280
     1
281
     1
  3
ACAD_XREC_ROUNDTRIP
360
4D
  3
BUMPTILE
360
4E
  3
DIFFUSETILE
360
4F
  3
OPACITYTILE
360
50
  3
REFLECTIONTILE
360
51
  3
REFRACTIONTILE
360
52
  3
SPECULARTILE
360
53
  0
DICTIONARY
  5
43
330
42
100
AcDbDictionary
280
     1
281
     1
  3
ACAD_XREC_ROUNDTRIP
360
44
  3
BUMPTILE
360
45
  3
DIFFUSETILE
360
46
  3
OPACITYTILE
360
47
  3
REFLECTIONTILE
360
48
  3
REFRACTIONTILE
360
49
  3
SPECULARTILE
360
4A
  0
DICTIONARY
  5
C
330
A
100
AcDbDictionary
280
     1
281
     1
  3
ACAD_XREC_ROUNDTRIP
360
D
  3
BUMPTILE
360
E
  3
DIFFUSETILE
360
F
  3
OPACITYTILE
360
10
  3
REFLECTIONTILE
360
11
  3
REFRACTIONTILE
360
12
  3
SPECULARTILE
360
13
  0
DICTIONARY
  5
58
330
57
100
AcDbDictionary
280
     1
281
     1
  3
ACAD_ROUNDTRIP_2008_TABLESTYLE_CELLSTYLEMAP
360
59
  3
ACAD_XREC_ROUNDTRIP
360
EE
  0
DICTIONARY
  5
29
330
27
100
AcDbDictionary
280
     1
281
     1
  3
ACAD_XREC_ROUNDTRIP
360
2A
  0
DICTIONARY
  5
5B
330
5A
100
AcDbDictionary
280
     1
281
     1
  3
ACAD_XREC_ROUNDTRIP
360
5C
  0
XRECORD
  5
E8
102
{ACAD_REACTORS
330
E7
102
}
330
E7
100
AcDbXrecord
280
     1
102
SHADEPLOT
 70
     0
102
SHADEPLOTRESLEVEL
 70
     2
102
SHADEPLOTCUSTOMDPI
 70
   300
  0
XRECORD
  5
EA
102
{ACAD_REACTORS
330
E9
102
}
330
E9
100
AcDbXrecord
280
     1
102
SHADEPLOT
 70
     0
102
SHADEPLOTRESLEVEL
 70
     2
102
SHADEPLOTCUSTOMDPI
 70
   300
  0
XRECORD
  5
4D
102
{ACAD_REACTORS
330
4C
102
}
330
4C
100
AcDbXrecord
280
     1
102
MATERIAL
148
0.0
149
0.0
149
0.0
 93
        0
 94
       63
282
     0
 72
     0
 77
     0
171
     0
175
     0
179
     0
273
     0
  0
XRECORD
  5
4E
102
{ACAD_REACTORS
330
4C
102
}
330
4C
100
AcDbXrecord
280
     1
270
     1
271
     1
  0
XRECORD
  5
4F
102
{ACAD_REACTORS
330
4C
102
}
330
4C
100
AcDbXrecord
280
     1
270
     1
271
     1
  0
XRECORD
  5
50
102
{ACAD_REACTORS
330
4C
102
}
330
4C
100
AcDbXrecord
280
     1
270
     1
271
     1
  0
XRECORD
  5
51
102
{ACAD_REACTORS
330
4C
102
}
330
4C
100
AcDbXrecord
280
     1
270
     1
271
     1
  0
XRECORD
  5
52
102
{ACAD_REACTORS
330
4C
102
}
330
4C
100
AcDbXrecord
280
     1
270
     1
271
     1
  0
XRECORD
  5
53
102
{ACAD_REACTORS
330
4C
102
}
330
4C
100
AcDbXrecord
280
     1
270
     1
271
     1
  0
XRECORD
  5
44
102
{ACAD_REACTORS
330
43
102
}
330
43
100
AcDbXrecord
280
     1
102
MATERIAL
148
0.0
149
0.0
149
0.0
 93
        0
 94
       63
282
     0
 72
     0
 77
     0
171
     0
175
     0
179
     0
273
     0
  0
XRECORD
  5
45
102
{ACAD_REACTORS
330
43
102
}
330
43
100
AcDbXrecord
280
     1
270
     1
271
     1
  0
XRECORD
  5
46
102
{ACAD_REACTORS
330
43
102
}
330
43
100
AcDbXrecord
280
     1
270
     1
271
     1
  0
XRECORD
  5
47
102
{ACAD_REACTORS
330
43
102
}
330
43
100
AcDbXrecord
280
     1
270
     1
271
     1
  0
XRECORD
  5
48
102
{ACAD_REACTORS
330
43
102
}
330
43
100
AcDbXrecord
280
     1
270
     1
271
     1
  0
XRECORD
  5
49
102
{ACAD_REACTORS
330
43
102
}
330
43
100
AcDbXrecord
280
     1
270
     1
271
     1
  0
XRECORD
  5
4A
102
{ACAD_REACTORS
330
43
102
}
330
43
100
AcDbXrecord
280
     1
270
     1
271
     1
  0
XRECORD
  5
D
102
{ACAD_REACTORS
330
C
102
}
330
C
100
AcDbXrecord
280
     1
102
MATERIAL
148
0.0
149
0.0
149
0.0
 93
        0
 94
       63
282
     0
 72
     0
 77
     0
171
     0
175
     0
179
     0
273
     0
  0
XRECORD
  5
E
102
{ACAD_REACTORS
330
C
102
}
330
C
100
AcDbXrecord
280
     1
270
     1
271
     1
  0
XRECORD
  5
F
102
{ACAD_REACTORS
330
C
102
}
330
C
100
AcDbXrecord
280
     1
270
     1
271
     1
  0
XRECORD
  5
10
102
{ACAD_REACTORS
330
C
102
}
330
C
100
AcDbXrecord
280
     1
270
     1
271
     1
  0
XRECORD
  5
11
102
{ACAD_REACTORS
330
C
102
}
330
C
100
AcDbXrecord
280
     1
270
     1
271
     1
  0
XRECORD
  5
12
102
{ACAD_REACTORS
330
C
102
}
330
C
100
AcDbXrecord
280
     1
270
     1
271
     1
  0
XRECORD
  5
13
102
{ACAD_REACTORS
330
C
102
}
330
C
100
AcDbXrecord
280
     1
270
     1
271
     1
  0
CELLSTYLEMAP
  5
59
102
{ACAD_REACTORS
330
58
102
}
330
58
100
AcDbCellStyleMap
 90
        3
300
CELLSTYLE
  1
TABLEFORMAT_BEGIN
 90
        5
170
     1
 91
        0
 92
    32768
 62
   257
 93
        1
300
CONTENTFORMAT
  1
CONTENTFORMAT_BEGIN
 90
        0
 91
        0
 92
      512
 93
        0
300

 40
0.0
140
1.0
 94
        5
 62
     0
340
1E
144
6.0
309
CONTENTFORMAT_END
171
     1
301
MARGIN
  1
CELLMARGIN_BEGIN
 40
1.5
 40
1.5
 40
1.5
 40
1.5
 40
0.18
 40
0.18
309
CELLMARGIN_END
 94
        6
 95
        1
302
GRIDFORMAT
  1
GRIDFORMAT_BEGIN
 90
        0
 91
        1
 62
     0
 92
       -2
340
0
 93
        0
 40
1.125
309
GRIDFORMAT_END
 95
        2
302
GRIDFORMAT
  1
GRIDFORMAT_BEGIN
 90
        0
 91
        1
 62
     0
 92
       -2
340
0
 93
        0
 40
1.125
309
GRIDFORMAT_END
 95
        4
302
GRIDFORMAT
  1
GRIDFORMAT_BEGIN
 90
        0
 91
        1
 62
     0
 92
       -2
340
0
 93
        0
 40
1.125
309
GRIDFORMAT_END
 95
        8
302
GRIDFORMAT
  1
GRIDFORMAT_BEGIN
 90
        0
 91
        1
 62
     0
 92
       -2
340
0
 93
        0
 40
1.125
309
GRIDFORMAT_END
 95
       16
302
GRIDFORMAT
  1
GRIDFORMAT_BEGIN
 90
        0
 91
        1
 62
     0
 92
       -2
340
0
 93
        0
 40
1.125
309
GRIDFORMAT_END
 95
       32
302
GRIDFORMAT
  1
GRIDFORMAT_BEGIN
 90
        0
 91
        1
 62
     0
 92
       -2
340
0
 93
        0
 40
1.125
309
GRIDFORMAT_END
309
TABLEFORMAT_END
  1
CELLSTYLE_BEGIN
 90
        1
 91
        1
300
_TITLE
309
CELLSTYLE_END
300
CELLSTYLE
  1
TABLEFORMAT_BEGIN
 90
        5
170
     1
 91
        0
 92
        0
 62
   257
 93
        1
300
CONTENTFORMAT
  1
CONTENTFORMAT_BEGIN
 90
        0
 91
        0
 92
      512
 93
        0
300

 40
0.0
140
1.0
 94
        5
 62
     0
340
1E
144
4.5
309
CONTENTFORMAT_END
171
     1
301
MARGIN
  1
CELLMARGIN_BEGIN
 40
1.5
 40
1.5
 40
1.5
 40
1.5
 40
0.18
 40
0.18
309
CELLMARGIN_END
 94
        6
 95
        1
302
GRIDFORMAT
  1
GRIDFORMAT_BEGIN
 90
        0
 91
        1
 62
     0
 92
       -2
340
0
 93
        0
 40
1.125
309
GRIDFORMAT_END
 95
        2
302
GRIDFORMAT
  1
GRIDFORMAT_BEGIN
 90
        0
 91
        1
 62
     0
 92
       -2
340
0
 93
        0
 40
1.125
309
GRIDFORMAT_END
 95
        4
302
GRIDFORMAT
  1
GRIDFORMAT_BEGIN
 90
        0
 91
        1
 62
     0
 92
       -2
340
0
 93
        0
 40
1.125
309
GRIDFORMAT_END
 95
        8
302
GRIDFORMAT
  1
GRIDFORMAT_BEGIN
 90
        0
 91
        1
 62
     0
 92
       -2
340
0
 93
        0
 40
1.125
309
GRIDFORMAT_END
 95
       16
302
GRIDFORMAT
  1
GRIDFORMAT_BEGIN
 90
        0
 91
        1
 62
     0
 92
       -2
340
0
 93
        0
 40
1.125
309
GRIDFORMAT_END
 95
       32
302
GRIDFORMAT
  1
GRIDFORMAT_BEGIN
 90
        0
 91
        1
 62
     0
 92
       -2
340
0
 93
        0
 40
1.125
309
GRIDFORMAT_END
309
TABLEFORMAT_END
  1
CELLSTYLE_BEGIN
 90
        2
 91
        1
300
_HEADER
309
CELLSTYLE_END
300
CELLSTYLE
  1
TABLEFORMAT_BEGIN
 90
        5
170
     1
 91
        0
 92
        0
 62
   257
 93
        1
300
CONTENTFORMAT
  1
CONTENTFORMAT_BEGIN
 90
        0
 91
        0
 92
      512
 93
        0
300

 40
0.0
140
1.0
 94
        2
 62
     0
340
1E
144
4.5
309
CONTENTFORMAT_END
171
     1
301
MARGIN
  1
CELLMARGIN_BEGIN
 40
1.5
 40
1.5
 40
1.5
 40
1.5
 40
0.18
 40
0.18
309
CELLMARGIN_END
 94
        6
 95
        1
302
GRIDFORMAT
  1
GRIDFORMAT_BEGIN
 90
        0
 91
        1
 62
     0
 92
       -2
340
0
 93
        0
 40
1.125
309
GRIDFORMAT_END
 95
        2
302
GRIDFORMAT
  1
GRIDFORMAT_BEGIN
 90
        0
 91
        1
 62
     0
 92
       -2
340
0
 93
        0
 40
1.125
309
GRIDFORMAT_END
 95
        4
302
GRIDFORMAT
  1
GRIDFORMAT_BEGIN
 90
        0
 91
        1
 62
     0
 92
       -2
340
0
 93
        0
 40
1.125
309
GRIDFORMAT_END
 95
        8
302
GRIDFORMAT
  1
GRIDFORMAT_BEGIN
 90
        0
 91
        1
 62
     0
 92
       -2
340
0
 93
        0
 40
1.125
309
GRIDFORMAT_END
 95
       16
302
GRIDFORMAT
  1
GRIDFORMAT_BEGIN
 90
        0
 91
        1
 62
     0
 92
       -2
340
0
 93
        0
 40
1.125
309
GRIDFORMAT_END
 95
       32
302
GRIDFORMAT
  1
GRIDFORMAT_BEGIN
 90
        0
 91
        1
 62
     0
 92
       -2
340
0
 93
        0
 40
1.125
309
GRIDFORMAT_END
309
TABLEFORMAT_END
  1
CELLSTYLE_BEGIN
 90
        3
 91
        2
300
_DATA
309
CELLSTYLE_END
1001
ACAD
1000
AcRTDxfName
1000
CELLSTYLEMAP
  0
XRECORD
  5
EE
102
{ACAD_REACTORS
330
58
102
}
330
58
100
AcDbXrecord
280
     1
102
ACAD_ROUNDTRIP_PRE2007_TABLESTYLE
 90
      512
 91
        0
  1

 92
      512
 93
        0
  2

 94
      512
 95
        0
  3

  0
XRECORD
  5
2A
102
{ACAD_REACTORS
330
29
102
}
330
29
100
AcDbXrecord
280
     1
102
RTVSPropertyOp0
 70
     1
102
RTVSPropertyOp1
 70
     1
102
RTVSPropertyOp2
 70
     1
102
RTVSPropertyOp3
 70
     1
102
RTVSPropertyOp4
 70
     1
102
RTVSPropertyOp5
 70
     1
102
RTVSPropertyOp6
 70
     1
102
RTVSPropertyOp7
 70
     1
102
RTVSPropertyOp8
 70
     1
102
RTVSPropertyOp9
 70
     1
102
RTVSPropertyOp10
 70
     1
102
RTVSPropertyOp11
 70
     1
102
RTVSPropertyOp12
 70
     1
102
RTVSPropertyOp13
 70
     1
102
RTVSPropertyOp14
 70
     1
102
RTVSPropertyOp15
 70
     1
102
RTVSPropertyOp16
 70
     1
102
RTVSPropertyOp17
 70
     1
102
RTVSPropertyOp18
 70
     1
102
RTVSPropertyOp19
 70
     1
102
RTVSPropertyOp20
 70
     1
102
RTVSPropertyOp21
 70
     1
102
RTVSPropertyOp22
 70
     1
102
RTVSPropertyOp23
 70
     1
102
RTVSPropertyOp24
 70
     1
102
RTVSPropertyOp25
 70
     1
102
RTVSPropertyOp26
 70
     1
102
RTVSPropertyOp27
 70
     1
102
RTVSPropertyOp28
 70
     1
102
RTVSPropertyOp29
 70
     1
102
RTVSPropertyOp30
 70
     1
102
RTVSPropertyOp31
 70
     1
102
RTVSPropertyOp32
 70
     1
  0
XRECORD
  5
5C
102
{ACAD_REACTORS
330
5B
102
}
330
5B
100
AcDbXrecord
280
     1
102
RTVSPropertyOp0
 70
     1
102
RTVSPropertyOp1
 70
     1
102
RTVSPropertyOp2
 70
     1
102
RTVSPropertyOp3
 70
     1
102
RTVSPropertyOp4
 70
     1
102
RTVSPropertyOp5
 70
     1
102
RTVSPropertyOp6
 70
     1
102
RTVSPropertyOp7
 70
     1
102
RTVSPropertyOp8
 70
     1
102
RTVSPropertyOp9
 70
     1
102
RTVSPropertyOp10
 70
     1
102
RTVSPropertyOp11
 70
     1
102
RTVSPropertyOp12
 70
     1
102
RTVSPropertyOp13
 70
     1
102
RTVSPropertyOp14
 70
     1
102
RTVSPropertyOp15
 70
     1
102
RTVSPropertyOp16
 70
     1
102
RTVSPropertyOp17
 70
     1
102
RTVSPropertyOp18
 70
     1
102
RTVSPropertyOp19
 70
     1
102
RTVSPropertyOp20
 70
     1
102
RTVSPropertyOp21
 70
     1
102
RTVSPropertyOp22
 70
     1
102
RTVSPropertyOp23
 70
     1
102
RTVSPropertyOp24
 70
     1
102
RTVSPropertyOp25
 70
     1
102
RTVSPropertyOp26
 70
     1
102
RTVSPropertyOp27
 70
     1
102
RTVSPropertyOp28
 70
     1
102
RTVSPropertyOp29
 70
     1
102
RTVSPropertyOp30
 70
     1
102
RTVSPropertyOp31
 70
     1
102
RTVSPropertyOp32
 70
     1
  0
ENDSEC
  0
EOF
