  0
SECTION
  2
HEADER
  9
$ACADVER
  1
AC1015
  9
$ACADMAINTVER
 70
    18
  9
$DWGCODEPAGE
  3
ANSI_932
  9
$INSBASE
 10
0.0
 20
0.0
 30
0.0
  9
$EXTMIN
 10
-116.9999999319091
 20
-123.5000010317264
 30
0.0
  9
$EXTMAX
 10
528.9999999319091
 20
339.5000003439088
 30
0.0
  9
$LIMMIN
 10
0.0
 20
0.0
  9
$LIMMAX
 10
420.0
 20
297.0
  9
$ORTHOMODE
 70
     0
  9
$REGENMODE
 70
     1
  9
$FILLMODE
 70
     1
  9
$QTEXTMODE
 70
     0
  9
$MIRRTEXT
 70
     1
  9
$LTSCALE
 40
10.0
  9
$ATTMODE
 70
     1
  9
$TEXTSIZE
 40
3.0
  9
$TRACEWID
 40
1.0
  9
$TEXTSTYLE
  7
STANDARD
  9
$CLAYER
  8
0
  9
$CELTYPE
  6
BYLAYER
  9
$CECOLOR
 62
   256
  9
$CELTSCALE
 40
1.0
  9
$DISPSILH
 70
     0
  9
$DIMSCALE
 40
1.0
  9
$DIMASZ
 40
2.5
  9
$DIMEXO
 40
1.0
  9
$DIMDLI
 40
3.799999999999998
  9
$DIMRND
 40
0.0
  9
$DIMDLE
 40
0.0
  9
$DIMEXE
 40
1.0
  9
$DIMTP
 40
0.0
  9
$DIMTM
 40
0.0
  9
$DIMTXT
 40
3.0
  9
$DIMCEN
 40
2.5
  9
$DIMTSZ
 40
0.0
  9
$DIMTOL
 70
     0
  9
$DIMLIM
 70
     0
  9
$DIMTIH
 70
     0
  9
$DIMTOH
 70
     0
  9
$DIMSE1
 70
     0
  9
$DIMSE2
 70
     0
  9
$DIMTAD
 70
     1
  9
$DIMZIN
 70
     8
  9
$DIMBLK
  1

  9
$DIMASO
 70
     1
  9
$DIMSHO
 70
     1
  9
$DIMPOST
  1

  9
$DIMAPOST
  1

  9
$DIMALT
 70
     0
  9
$DIMALTD
 70
     2
  9
$DIMALTF
 40
0.04
  9
$DIMLFAC
 40
1.0
  9
$DIMTOFL
 70
     1
  9
$DIMTVP
 40
0.0
  9
$DIMTIX
 70
     0
  9
$DIMSOXD
 70
     0
  9
$DIMSAH
 70
     1
  9
$DIMBLK1
  1
OPEN
  9
$DIMBLK2
  1
OPEN
  9
$DIMSTYLE
  2
M02
  9
$DIMCLRD
 70
   256
  9
$DIMCLRE
 70
   256
  9
$DIMCLRT
 70
   256
  9
$DIMTFAC
 40
0.6
  9
$DIMGAP
 40
0.5
  9
$DIMJUST
 70
     0
  9
$DIMSD1
 70
     0
  9
$DIMSD2
 70
     0
  9
$DIMTOLJ
 70
     1
  9
$DIMTZIN
 70
     8
  9
$DIMALTZ
 70
     8
  9
$DIMALTTZ
 70
     8
  9
$DIMUPT
 70
     0
  9
$DIMDEC
 70
     2
  9
$DIMTDEC
 70
     2
  9
$DIMALTU
 70
     2
  9
$DIMALTTD
 70
     2
  9
$DIMTXSTY
  7
STANDARD
  9
$DIMAUNIT
 70
     0
  9
$DIMADEC
 70
     0
  9
$DIMALTRND
 40
0.0
  9
$DIMAZIN
 70
     0
  9
$DIMDSEP
 70
    46
  9
$DIMATFIT
 70
     3
  9
$DIMFRAC
 70
     0
  9
$DIMLDRBLK
  1

  9
$DIMLUNIT
 70
     2
  9
$DIMLWD
 70
    -2
  9
$DIMLWE
 70
    -2
  9
$DIMTMOVE
 70
     0
  9
$LUNITS
 70
     2
  9
$LUPREC
 70
     2
  9
$SKETCHINC
 40
1.0
  9
$FILLETRAD
 40
2.0
  9
$AUNITS
 70
     0
  9
$AUPREC
 70
     0
  9
$MENU
  1
acad
  9
$ELEVATION
 40
0.0
  9
$PELEVATION
 40
0.0
  9
$THICKNESS
 40
0.0
  9
$LIMCHECK
 70
     0
  9
$CHAMFERA
 40
10.0
  9
$CHAMFERB
 40
10.0
  9
$CHAMFERC
 40
0.0
  9
$CHAMFERD
 40
0.0
  9
$SKPOLY
 70
     0
  9
$TDCREATE
 40
2450016.526165857
  9
$TDUCREATE
 40
2450016.151165857
  9
$TDUPDATE
 40
2453318.824649687
  9
$TDUUPDATE
 40
2453318.449649688
  9
$TDINDWG
 40
1.9286618634
  9
$TDUSRTIMER
 40
1.9286614005
  9
$USRTIMER
 70
     1
  9
$ANGBASE
 50
0.0
  9
$ANGDIR
 70
     0
  9
$PDMODE
 70
     0
  9
$PDSIZE
 40
0.0
  9
$PLINEWID
 40
0.0
  9
$SPLFRAME
 70
     0
  9
$SPLINETYPE
 70
     6
  9
$SPLINESEGS
 70
     8
  9
$HANDSEED
  5
260
  9
$SURFTAB1
 70
     6
  9
$SURFTAB2
 70
     6
  9
$SURFTYPE
 70
     6
  9
$SURFU
 70
     6
  9
$SURFV
 70
     6
  9
$UCSBASE
  2

  9
$UCSNAME
  2

  9
$UCSORG
 10
0.0
 20
0.0
 30
0.0
  9
$UCSXDIR
 10
1.0
 20
0.0
 30
0.0
  9
$UCSYDIR
 10
0.0
 20
1.0
 30
0.0
  9
$UCSORTHOREF
  2

  9
$UCSORTHOVIEW
 70
     0
  9
$UCSORGTOP
 10
0.0
 20
0.0
 30
0.0
  9
$UCSORGBOTTOM
 10
0.0
 20
0.0
 30
0.0
  9
$UCSORGLEFT
 10
0.0
 20
0.0
 30
0.0
  9
$UCSORGRIGHT
 10
0.0
 20
0.0
 30
0.0
  9
$UCSORGFRONT
 10
0.0
 20
0.0
 30
0.0
  9
$UCSORGBACK
 10
0.0
 20
0.0
 30
0.0
  9
$PUCSBASE
  2

  9
$PUCSNAME
  2

  9
$PUCSORG
 10
0.0
 20
0.0
 30
0.0
  9
$PUCSXDIR
 10
1.0
 20
0.0
 30
0.0
  9
$PUCSYDIR
 10
0.0
 20
1.0
 30
0.0
  9
$PUCSORTHOREF
  2

  9
$PUCSORTHOVIEW
 70
     0
  9
$PUCSORGTOP
 10
0.0
 20
0.0
 30
0.0
  9
$PUCSORGBOTTOM
 10
0.0
 20
0.0
 30
0.0
  9
$PUCSORGLEFT
 10
0.0
 20
0.0
 30
0.0
  9
$PUCSORGRIGHT
 10
0.0
 20
0.0
 30
0.0
  9
$PUCSORGFRONT
 10
0.0
 20
0.0
 30
0.0
  9
$PUCSORGBACK
 10
0.0
 20
0.0
 30
0.0
  9
$USERI1
 70
     0
  9
$USERI2
 70
     0
  9
$USERI3
 70
     0
  9
$USERI4
 70
     0
  9
$USERI5
 70
     0
  9
$USERR1
 40
0.0
  9
$USERR2
 40
0.0
  9
$USERR3
 40
0.0
  9
$USERR4
 40
0.0
  9
$USERR5
 40
0.0
  9
$WORLDVIEW
 70
     1
  9
$SHADEDGE
 70
     3
  9
$SHADEDIF
 70
    70
  9
$TILEMODE
 70
     1
  9
$MAXACTVP
 70
    16
  9
$PINSBASE
 10
0.0
 20
0.0
 30
0.0
  9
$PLIMCHECK
 70
     0
  9
$PEXTMIN
 10
10.0
 20
6.0
 30
0.0
  9
$PEXTMAX
 10
282.0
 20
183.0
 30
0.0
  9
$PLIMMIN
 10
4.38207936789674
 20
0.3929882013905175
  9
$PLIMMAX
 10
287.6043106893494
 20
200.6756020449121
  9
$UNITMODE
 70
     0
  9
$VISRETAIN
 70
     0
  9
$PLINEGEN
 70
     1
  9
$PSLTSCALE
 70
     0
  9
$TREEDEPTH
 70
  3020
  9
$CMLSTYLE
  2
STANDARD
  9
$CMLJUST
 70
     0
  9
$CMLSCALE
 40
1.0
  9
$PROXYGRAPHICS
 70
     1
  9
$MEASUREMENT
 70
     0
  9
$CELWEIGHT
370
    -1
  9
$ENDCAPS
280
     0
  9
$JOINSTYLE
280
     0
  9
$LWDISPLAY
290
     0
  9
$INSUNITS
 70
     0
  9
$HYPERLINKBASE
  1

  9
$STYLESHEET
  1

  9
$XEDIT
290
     1
  9
$CEPSNTYPE
380
     0
  9
$PSTYLEMODE
290
     1
  9
$FINGERPRINTGUID
  2
{229A65AE-A030-4C51-81E5-8FD41ACA5CE1}
  9
$VERSIONGUID
  2
{521E6B7F-1973-497D-876A-A8A2425031DA}
  9
$EXTNAMES
290
     1
  9
$PSVPSCALE
 40
0.0
  9
$OLESTARTUP
290
     0
  0
ENDSEC
  0
SECTION
  2
CLASSES
  0
CLASS
  1
ACDBDICTIONARYWDFLT
  2
AcDbDictionaryWithDefault
  3
ObjectDBX Classes
 90
        0
280
     0
281
     0
  0
CLASS
  1
MATERIAL
  2
AcDbMaterial
  3
ObjectDBX Classes
 90
     1024
280
     0
281
     0
  0
CLASS
  1
VISUALSTYLE
  2
AcDbVisualStyle
  3
ObjectDBX Classes
 90
     4095
280
     0
281
     0
  0
CLASS
  1
TABLESTYLE
  2
AcDbTableStyle
  3
ObjectDBX Classes
 90
     4095
280
     0
281
     0
  0
CLASS
  1
SORTENTSTABLE
  2
AcDbSortentsTable
  3
ObjectDBX Classes
 90
        0
280
     0
281
     0
  0
CLASS
  1
DICTIONARYVAR
  2
AcDbDictionaryVar
  3
ObjectDBX Classes
 90
        0
280
     0
281
     0
  0
CLASS
  1
ACDBPLACEHOLDER
  2
AcDbPlaceHolder
  3
ObjectDBX Classes
 90
        0
280
     0
281
     0
  0
CLASS
  1
LAYOUT
  2
AcDbLayout
  3
ObjectDBX Classes
 90
        0
280
     0
281
     0
  0
ENDSEC
  0
SECTION
  2
TABLES
  0
TABLE
  2
VPORT
  5
2A
330
0
100
AcDbSymbolTable
 70
     1
  0
VPORT
  5
2B
330
2A
100
AcDbSymbolTableRecord
100
AcDbViewportTableRecord
  2
*ACTIVE
 70
     0
 10
0.0
 20
0.0
 11
1.0
 21
1.0
 12
285.727565759458
 22
121.2677784612727
 13
0.0
 23
0.0
 14
0.5
 24
0.5
 15
0.5
 25
0.5
 16
0.0
 26
0.0
 36
1.0
 17
0.0
 27
0.0
 37
0.0
 40
538.748468033704
 41
1.712451861360718
 42
50.0
 43
0.0
 44
0.0
 50
0.0
 51
0.0
 71
     0
 72
   100
 73
     1
 74
     0
 75
     1
 76
     0
 77
     0
 78
     0
281
     0
 65
     1
110
0.0
120
0.0
130
0.0
111
1.0
121
0.0
131
0.0
112
0.0
122
1.0
132
0.0
 79
     0
146
0.0
  0
ENDTAB
  0
TABLE
  2
LTYPE
  5
25
330
0
100
AcDbSymbolTable
 70
     3
  0
LTYPE
  5
26
330
25
100
AcDbSymbolTableRecord
100
AcDbLinetypeTableRecord
  2
BYBLOCK
 70
     0
  3

 72
    65
 73
     0
 40
0.0
  0
LTYPE
  5
27
330
25
100
AcDbSymbolTableRecord
100
AcDbLinetypeTableRecord
  2
BYLAYER
 70
     0
  3

 72
    65
 73
     0
 40
0.0
  0
LTYPE
  5
E
330
25
100
AcDbSymbolTableRecord
100
AcDbLinetypeTableRecord
  2
CONTINUOUS
 70
     0
  3
Solid line
 72
    65
 73
     0
 40
0.0
  0
LTYPE
  5
194
330
25
100
AcDbSymbolTableRecord
100
AcDbLinetypeTableRecord
  2
HIDDEN2
 70
     0
  3
Hidden (.5x) _ _ _ _ _ _ _ _ _ _ _ _ _ _ _ _ _
 72
    65
 73
     2
 40
0.1875
 49
0.125
 74
     0
 49
-0.0625
 74
     0
  0
LTYPE
  5
A2
330
25
100
AcDbSymbolTableRecord
100
AcDbLinetypeTableRecord
  2
HIDDEN
 70
     0
  3
Hidden __ __ __ __ __ __ __ __ __ __ __ __ __ _
 72
    65
 73
     2
 40
0.375
 49
0.25
 74
     0
 49
-0.125
 74
     0
  0
ENDTAB
  0
TABLE
  2
LAYER
  5
1C
102
{ACAD_XDICTIONARY
360
1D
102
}
330
0
100
AcDbSymbolTable
 70
     1
  0
LAYER
  5
6
330
1C
100
AcDbSymbolTableRecord
100
AcDbLayerTableRecord
  2
0
 70
     0
 62
     7
  6
CONTINUOUS
370
    -3
390
7
  0
ENDTAB
  0
TABLE
  2
STYLE
  5
22
330
0
100
AcDbSymbolTable
 70
     1
  0
STYLE
  5
23
330
22
100
AcDbSymbolTableRecord
100
AcDbTextStyleTableRecord
  2
STANDARD
 70
     0
 40
0.0
 41
1.0
 50
0.0
 71
     0
 42
3.0
  3
C:\AUTOCAD\Simplex.shx
  4
bigfont
  0
ENDTAB
  0
TABLE
  2
VIEW
  5
28
330
0
100
AcDbSymbolTable
 70
     0
  0
ENDTAB
  0
TABLE
  2
UCS
  5
29
330
0
100
AcDbSymbolTable
 70
     0
  0
ENDTAB
  0
TABLE
  2
APPID
  5
2E
330
0
100
AcDbSymbolTable
 70
     2
  0
APPID
  5
21
330
2E
100
AcDbSymbolTableRecord
100
AcDbRegAppTableRecord
  2
ACAD
 70
     0
  0
APPID
  5
1B
330
2E
100
AcDbSymbolTableRecord
100
AcDbRegAppTableRecord
  2
ACAD_PSEXT
 70
     0
  0
ENDTAB
  0
TABLE
  2
DIMSTYLE
  5
2F
330
0
100
AcDbSymbolTable
 70
     1
100
AcDbDimStyleTable
 71
     1
340
30
  0
DIMSTYLE
105
30
330
2F
100
AcDbSymbolTableRecord
100
AcDbDimStyleTableRecord
  2
M02
 70
     0
 41
2.5
 42
1.0
 43
3.799999999999998
 44
1.0
 71
     1
 73
     0
 74
     0
 77
     1
 78
     8
140
3.0
141
2.5
143
0.04
146
0.6
147
0.5
172
     1
173
     1
176
   256
177
   256
178
   256
271
     2
272
     2
284
     8
285
     8
286
     8
340
23
341
31
343
31
344
31
  0
ENDTAB
  0
TABLE
  2
BLOCK_RECORD
  5
1
330
0
100
AcDbSymbolTable
 70
     1
  0
BLOCK_RECORD
  5
2
102
{ACAD_XDICTIONARY
360
3
102
}
330
1
100
AcDbSymbolTableRecord
100
AcDbBlockTableRecord
  2
*MODEL_SPACE
340
13
  0
BLOCK_RECORD
  5
15
330
1
100
AcDbSymbolTableRecord
100
AcDbBlockTableRecord
  2
*PAPER_SPACE
340
18
  0
BLOCK_RECORD
  5
31
330
1
100
AcDbSymbolTableRecord
100
AcDbBlockTableRecord
  2
_OPEN
340
0
  0
ENDTAB
  0
ENDSEC
  0
SECTION
  2
BLOCKS
  0
BLOCK
  5
5
330
2
100
AcDbEntity
  8
0
100
AcDbBlockBegin
  2
*MODEL_SPACE
 70
     0
 10
0.0
 20
0.0
 30
0.0
  3
*MODEL_SPACE
  1

  0
ENDBLK
  5
12
330
2
100
AcDbEntity
  8
0
100
AcDbBlockEnd
  0
BLOCK
  5
16
330
15
100
AcDbEntity
 67
     1
  8
0
100
AcDbBlockBegin
  2
*PAPER_SPACE
 70
     0
 10
0.0
 20
0.0
 30
0.0
  3
*PAPER_SPACE
  1

  0
ENDBLK
  5
17
330
15
100
AcDbEntity
 67
     1
  8
0
100
AcDbBlockEnd
  0
BLOCK
  5
32
330
31
100
AcDbEntity
  8
0
100
AcDbBlockBegin
  2
_OPEN
 70
     0
 10
0.0
 20
0.0
 30
0.0
  3
_OPEN
  1

  0
LINE
  5
33
330
31
100
AcDbEntity
  8
0
  6
ByBlock
 62
     0
100
AcDbLine
 10
-1.0
 20
0.1666666666666666
 30
0.0
 11
0.0
 21
0.0
 31
0.0
  0
LINE
  5
34
330
31
100
AcDbEntity
  8
0
  6
ByBlock
 62
     0
100
AcDbLine
 10
0.0
 20
0.0
 30
0.0
 11
-1.0
 21
-0.1666666666666666
 31
0.0
  0
LINE
  5
35
330
31
100
AcDbEntity
  8
0
  6
ByBlock
 62
     0
100
AcDbLine
 10
0.0
 20
0.0
 30
0.0
 11
-1.0
 21
0.0
 31
0.0
  0
ENDBLK
  5
36
330
31
100
AcDbEntity
  8
0
100
AcDbBlockEnd
  0
ENDSEC
  0
SECTION
  2
ENTITIES
  0
LINE
  5
44
330
2
100
AcDbEntity
  8
0
100
AcDbLine
 10
315.9999999319091
 20
69.00000034390882
 30
0.0
 11
313.4999999319092
 21
65.50000034390882
 31
0.0
  0
LINE
  5
45
330
2
100
AcDbEntity
  8
0
100
AcDbLine
 10
313.4999999319092
 20
84.5000003439088
 30
0.0
 11
315.9999999319091
 21
81.0000003439088
 31
0.0
  0
LINE
  5
46
330
2
100
AcDbEntity
  8
0
100
AcDbLine
 10
313.4999999319092
 20
253.5000003439088
 30
0.0
 11
315.9999999319091
 21
250.0000003439088
 31
0.0
  0
LINE
  5
47
330
2
100
AcDbEntity
  8
0
100
AcDbLine
 10
315.9999999319091
 20
238.0000003439088
 30
0.0
 11
313.4999999319092
 21
234.5000003439088
 31
0.0
  0
LINE
  5
48
330
2
100
AcDbEntity
  8
0
100
AcDbLine
 10
310.4999999319091
 20
330.0000003439088
 30
0.0
 11
318.4999999319091
 21
330.0000003439088
 31
0.0
  0
LINE
  5
49
330
2
100
AcDbEntity
  8
0
100
AcDbLine
 10
318.4999999319091
 20
318.0000003439088
 30
0.0
 11
310.4999999319091
 21
318.0000003439088
 31
0.0
  0
LINE
  5
4A
330
2
100
AcDbEntity
  8
0
100
AcDbLine
 10
313.4999999319092
 20
150.0000003439088
 30
0.0
 11
317.4999999319092
 21
150.0000003439088
 31
0.0
  0
LINE
  5
4B
330
2
100
AcDbEntity
  8
0
100
AcDbLine
 10
313.4999999319092
 20
130.0000003439088
 30
0.0
 11
317.4999999319092
 21
130.0000003439088
 31
0.0
  0
LINE
  5
4C
330
2
100
AcDbEntity
  8
0
100
AcDbLine
 10
318.4999999319091
 20
90.00000034390883
 30
0.0
 11
310.4999999319091
 21
90.00000034390883
 31
0.0
  0
LINE
  5
4D
330
2
100
AcDbEntity
  8
0
100
AcDbLine
 10
310.4999999319091
 20
102.0000003439088
 30
0.0
 11
318.4999999319091
 21
102.0000003439088
 31
0.0
  0
LINE
  5
4E
330
2
100
AcDbEntity
  8
0
100
AcDbLine
 10
313.4999999319092
 20
272.0000003439088
 30
0.0
 11
317.4999999319092
 21
272.0000003439088
 31
0.0
  0
LINE
  5
4F
330
2
100
AcDbEntity
  8
0
100
AcDbLine
 10
313.4999999319092
 20
292.0000003439088
 30
0.0
 11
317.4999999319092
 21
292.0000003439088
 31
0.0
  0
LINE
  5
50
330
2
100
AcDbEntity
  8
0
100
AcDbLine
 10
302.4999999319092
 20
339.5000003439088
 30
0.0
 11
302.4999999319092
 21
224.5000003439088
 31
0.0
  0
LINE
  5
51
330
2
100
AcDbEntity
  8
0
100
AcDbLine
 10
118.4999999319091
 20
339.5000003439088
 30
0.0
 11
118.4999999319091
 21
224.5000003439088
 31
0.0
  0
LINE
  5
52
330
2
100
AcDbEntity
  8
0
100
AcDbLine
 10
114.4999999319091
 20
224.5000003439088
 30
0.0
 11
306.4999999319092
 21
224.5000003439088
 31
0.0
  0
ARC
  5
53
330
2
100
AcDbEntity
  8
0
100
AcDbCircle
 10
306.4999999319092
 20
228.5000003439088
 30
0.0
 40
4.0
100
AcDbArc
 50
270.0
 51
0.0
  0
LINE
  5
54
330
2
100
AcDbEntity
  8
0
100
AcDbLine
 10
310.4999999319091
 20
228.5000003439088
 30
0.0
 11
310.4999999319091
 21
335.5000003439088
 31
0.0
  0
ARC
  5
55
330
2
100
AcDbEntity
  8
0
100
AcDbCircle
 10
306.4999999319092
 20
335.5000003439088
 30
0.0
 40
4.0
100
AcDbArc
 50
0.0
 51
90.0
  0
LINE
  5
56
330
2
100
AcDbEntity
  8
0
100
AcDbLine
 10
306.4999999319092
 20
339.5000003439088
 30
0.0
 11
114.4999999319091
 21
339.5000003439088
 31
0.0
  0
ARC
  5
57
330
2
100
AcDbEntity
  8
0
100
AcDbCircle
 10
114.4999999319091
 20
335.5000003439088
 30
0.0
 40
4.0
100
AcDbArc
 50
90.0
 51
180.0
  0
LINE
  5
58
330
2
100
AcDbEntity
  8
0
100
AcDbLine
 10
110.4999999319091
 20
335.5000003439088
 30
0.0
 11
110.4999999319091
 21
228.5000003439088
 31
0.0
  0
ARC
  5
59
330
2
100
AcDbEntity
  8
0
100
AcDbCircle
 10
114.4999999319091
 20
228.5000003439088
 30
0.0
 40
4.0
100
AcDbArc
 50
180.0
 51
270.0
  0
LINE
  5
5A
330
2
100
AcDbEntity
  8
0
100
AcDbLine
 10
313.4999999319092
 20
253.5000003439088
 30
0.0
 11
313.4999999319092
 21
234.5000003439088
 31
0.0
  0
LINE
  5
5B
330
2
100
AcDbEntity
  8
0
100
AcDbLine
 10
114.4999999319091
 20
55.00000034390883
 30
0.0
 11
306.4999999319092
 21
55.00000034390883
 31
0.0
  0
ARC
  5
5C
330
2
100
AcDbEntity
  8
0
100
AcDbCircle
 10
306.4999999319092
 20
59.00000034390882
 30
0.0
 40
4.0
100
AcDbArc
 50
270.0
 51
0.0
  0
LINE
  5
5D
330
2
100
AcDbEntity
  8
0
100
AcDbLine
 10
310.4999999319091
 20
59.00000034390882
 30
0.0
 11
310.4999999319091
 21
157.0000003439088
 31
0.0
  0
ARC
  5
5E
330
2
100
AcDbEntity
  8
0
100
AcDbCircle
 10
306.4999999319092
 20
157.0000003439088
 30
0.0
 40
4.0
100
AcDbArc
 50
0.0
 51
90.0
  0
LINE
  5
5F
330
2
100
AcDbEntity
  8
0
100
AcDbLine
 10
306.4999999319092
 20
161.0000003439088
 30
0.0
 11
114.4999999319091
 21
161.0000003439088
 31
0.0
  0
ARC
  5
60
330
2
100
AcDbEntity
  8
0
100
AcDbCircle
 10
114.4999999319091
 20
157.0000003439088
 30
0.0
 40
4.0
100
AcDbArc
 50
90.0
 51
180.0
  0
LINE
  5
61
330
2
100
AcDbEntity
  8
0
100
AcDbLine
 10
110.4999999319091
 20
157.0000003439088
 30
0.0
 11
110.4999999319091
 21
59.00000034390882
 31
0.0
  0
ARC
  5
62
330
2
100
AcDbEntity
  8
0
100
AcDbCircle
 10
114.4999999319091
 20
59.00000034390882
 30
0.0
 40
4.0
100
AcDbArc
 50
180.0
 51
270.0
  0
LINE
  5
63
330
2
100
AcDbEntity
  8
0
  6
Continuous
100
AcDbLine
 10
164.0084739984148
 20
161.2148883637611
 30
0.0
 11
131.0084739984148
 21
161.2148883637611
 31
0.0
  0
LINE
  5
64
330
2
100
AcDbEntity
  8
0
  6
Continuous
100
AcDbLine
 10
140.1751429984148
 20
167.4541363637611
 30
0.0
 11
149.1682469984148
 21
169.5217143637611
 31
0.0
  0
LINE
  5
65
330
2
100
AcDbEntity
  8
0
100
AcDbLine
 10
302.4999999319092
 20
149.0000003439088
 30
0.0
 11
118.4999999319091
 21
149.0000003439088
 31
0.0
  0
LINE
  5
66
330
2
100
AcDbEntity
  8
0
100
AcDbLine
 10
302.4999999319092
 20
148.0000003439088
 30
0.0
 11
118.4999999319091
 21
148.0000003439088
 31
0.0
  0
LINE
  5
67
330
2
100
AcDbEntity
  8
0
100
AcDbLine
 10
302.4999999319092
 20
146.0000003439088
 30
0.0
 11
118.4999999319091
 21
146.0000003439088
 31
0.0
  0
LINE
  5
68
330
2
100
AcDbEntity
  8
0
100
AcDbLine
 10
302.4999999319092
 20
145.0000003439088
 30
0.0
 11
118.4999999319091
 21
145.0000003439088
 31
0.0
  0
LINE
  5
69
330
2
100
AcDbEntity
  8
0
100
AcDbLine
 10
302.4999999319092
 20
141.0000003439088
 30
0.0
 11
118.4999999319091
 21
141.0000003439088
 31
0.0
  0
LINE
  5
6A
330
2
100
AcDbEntity
  8
0
100
AcDbLine
 10
302.4999999319092
 20
140.0000003439088
 30
0.0
 11
118.4999999319091
 21
140.0000003439088
 31
0.0
  0
LINE
  5
6B
330
2
100
AcDbEntity
  8
0
100
AcDbLine
 10
302.4999999319092
 20
138.0000003439088
 30
0.0
 11
118.4999999319091
 21
138.0000003439088
 31
0.0
  0
LINE
  5
6C
330
2
100
AcDbEntity
  8
0
100
AcDbLine
 10
302.4999999319092
 20
137.0000003439088
 30
0.0
 11
118.4999999319091
 21
137.0000003439088
 31
0.0
  0
LINE
  5
6D
330
2
100
AcDbEntity
  8
0
100
AcDbLine
 10
302.4999999319092
 20
130.0000003439088
 30
0.0
 11
118.4999999319091
 21
130.0000003439088
 31
0.0
  0
LINE
  5
6E
330
2
100
AcDbEntity
  8
0
100
AcDbLine
 10
302.4999999319092
 20
132.0000003439088
 30
0.0
 11
118.4999999319091
 21
132.0000003439088
 31
0.0
  0
LINE
  5
6F
330
2
100
AcDbEntity
  8
0
100
AcDbLine
 10
302.4999999319092
 20
133.0000003439088
 30
0.0
 11
118.4999999319091
 21
133.0000003439088
 31
0.0
  0
LINE
  5
70
330
2
100
AcDbEntity
  8
0
100
AcDbLine
 10
302.4999999319092
 20
129.0000003439088
 30
0.0
 11
118.4999999319091
 21
129.0000003439088
 31
0.0
  0
LINE
  5
71
330
2
100
AcDbEntity
  8
0
100
AcDbLine
 10
302.4999999319092
 20
116.0000003439088
 30
0.0
 11
118.4999999319091
 21
116.0000003439088
 31
0.0
  0
LINE
  5
72
330
2
100
AcDbEntity
  8
0
100
AcDbLine
 10
302.4999999319092
 20
100.0000003439088
 30
0.0
 11
118.4999999319091
 21
100.0000003439088
 31
0.0
  0
LINE
  5
73
330
2
100
AcDbEntity
  8
0
100
AcDbLine
 10
102.4999999319091
 20
139.0000003439088
 30
0.0
 11
102.4999999319091
 21
77.00000034390881
 31
0.0
  0
LINE
  5
74
330
2
100
AcDbEntity
  8
0
100
AcDbLine
 10
62.49999993190908
 20
137.0000003439088
 30
0.0
 11
62.49999993190908
 21
79.00000034390881
 31
0.0
  0
LINE
  5
75
330
2
100
AcDbEntity
  8
0
100
AcDbLine
 10
51.4999999319091
 20
136.0000003439088
 30
0.0
 11
51.4999999319091
 21
80.00000034390883
 31
0.0
  0
LINE
  5
76
330
2
100
AcDbEntity
  8
0
100
AcDbLine
 10
52.49999993190908
 20
137.0000003439088
 30
0.0
 11
52.49999993190908
 21
79.00000034390881
 31
0.0
  0
LINE
  5
77
330
2
100
AcDbEntity
  8
0
100
AcDbLine
 10
118.4999999319091
 20
161.0000003439088
 30
0.0
 11
118.4999999319091
 21
55.00000034390883
 31
0.0
  0
LINE
  5
78
330
2
100
AcDbEntity
  8
0
100
AcDbLine
 10
52.49999993190908
 20
79.00000034390881
 30
0.0
 11
63.9999999319091
 21
79.00000034390881
 31
0.0
  0
LINE
  5
79
330
2
100
AcDbEntity
  8
0
100
AcDbLine
 10
51.4999999319091
 20
80.00000034390883
 30
0.0
 11
52.49999993190908
 21
79.00000034390881
 31
0.0
  0
LINE
  5
7A
330
2
100
AcDbEntity
  8
0
100
AcDbLine
 10
63.9999999319091
 20
79.00000034390881
 30
0.0
 11
100.9999999319091
 21
79.00000034390881
 31
0.0
  0
LINE
  5
7B
330
2
100
AcDbEntity
  8
0
100
AcDbLine
 10
102.4999999319091
 20
86.25000034390883
 30
0.0
 11
62.49999993190908
 21
86.25000034390883
 31
0.0
  0
LINE
  5
7C
330
2
100
AcDbEntity
  8
0
100
AcDbLine
 10
102.4999999319091
 20
88.75000034390883
 30
0.0
 11
62.49999993190908
 21
88.75000034390883
 31
0.0
  0
LINE
  5
7D
330
2
100
AcDbEntity
  8
0
100
AcDbLine
 10
102.4999999319091
 20
80.7500003439088
 30
0.0
 11
62.49999993190908
 21
80.7500003439088
 31
0.0
  0
LINE
  5
7E
330
2
100
AcDbEntity
  8
0
100
AcDbLine
 10
102.4999999319091
 20
82.0000003439088
 30
0.0
 11
62.49999993190908
 21
82.0000003439088
 31
0.0
  0
LINE
  5
7F
330
2
100
AcDbEntity
  8
0
100
AcDbLine
 10
102.4999999319091
 20
77.00000034390881
 30
0.0
 11
110.4999999319091
 21
77.00000034390881
 31
0.0
  0
LINE
  5
80
330
2
100
AcDbEntity
  8
0
100
AcDbLine
 10
102.4999999319091
 20
79.00000034390881
 30
0.0
 11
100.9999999319091
 21
79.00000034390881
 31
0.0
  0
LINE
  5
81
330
2
100
AcDbEntity
  8
0
100
AcDbLine
 10
63.9999999319091
 20
137.0000003439088
 30
0.0
 11
52.49999993190908
 21
137.0000003439088
 31
0.0
  0
LINE
  5
82
330
2
100
AcDbEntity
  8
0
100
AcDbLine
 10
52.49999993190908
 20
137.0000003439088
 30
0.0
 11
51.4999999319091
 21
136.0000003439088
 31
0.0
  0
LINE
  5
83
330
2
100
AcDbEntity
  8
0
100
AcDbLine
 10
100.9999999319091
 20
137.0000003439088
 30
0.0
 11
63.9999999319091
 21
137.0000003439088
 31
0.0
  0
LINE
  5
84
330
2
100
AcDbEntity
  8
0
100
AcDbLine
 10
102.4999999319091
 20
117.5000003439088
 30
0.0
 11
62.49999993190908
 21
117.5000003439088
 31
0.0
  0
LINE
  5
85
330
2
100
AcDbEntity
  8
0
100
AcDbLine
 10
102.4999999319091
 20
120.7500003439088
 30
0.0
 11
62.49999993190908
 21
120.7500003439088
 31
0.0
  0
LINE
  5
86
330
2
100
AcDbEntity
  8
0
100
AcDbLine
 10
102.4999999319091
 20
127.2500003439088
 30
0.0
 11
62.49999993190908
 21
127.2500003439088
 31
0.0
  0
LINE
  5
87
330
2
100
AcDbEntity
  8
0
100
AcDbLine
 10
102.4999999319091
 20
129.7500003439088
 30
0.0
 11
62.49999993190908
 21
129.7500003439088
 31
0.0
  0
LINE
  5
88
330
2
100
AcDbEntity
  8
0
100
AcDbLine
 10
102.4999999319091
 20
134.0000003439088
 30
0.0
 11
62.49999993190908
 21
134.0000003439088
 31
0.0
  0
LINE
  5
89
330
2
100
AcDbEntity
  8
0
100
AcDbLine
 10
102.4999999319091
 20
135.2500003439088
 30
0.0
 11
62.49999993190908
 21
135.2500003439088
 31
0.0
  0
LINE
  5
8A
330
2
100
AcDbEntity
  8
0
100
AcDbLine
 10
102.4999999319091
 20
110.0000003439088
 30
0.0
 11
62.49999993190908
 21
110.0000003439088
 31
0.0
  0
LINE
  5
8B
330
2
100
AcDbEntity
  8
0
100
AcDbLine
 10
102.4999999319091
 20
95.25000034390883
 30
0.0
 11
62.49999993190908
 21
95.25000034390883
 31
0.0
  0
LINE
  5
8C
330
2
100
AcDbEntity
  8
0
100
AcDbLine
 10
102.4999999319091
 20
98.5000003439088
 30
0.0
 11
62.49999993190908
 21
98.5000003439088
 31
0.0
  0
LINE
  5
8D
330
2
100
AcDbEntity
  8
0
100
AcDbLine
 10
102.4999999319091
 20
106.0000003439088
 30
0.0
 11
62.49999993190908
 21
106.0000003439088
 31
0.0
  0
LINE
  5
8E
330
2
100
AcDbEntity
  8
0
100
AcDbLine
 10
110.4999999319091
 20
139.0000003439088
 30
0.0
 11
102.4999999319091
 21
139.0000003439088
 31
0.0
  0
LINE
  5
8F
330
2
100
AcDbEntity
  8
0
100
AcDbLine
 10
102.4999999319091
 20
137.0000003439088
 30
0.0
 11
100.9999999319091
 21
137.0000003439088
 31
0.0
  0
ARC
  5
90
330
2
100
AcDbEntity
  8
0
  6
Continuous
100
AcDbCircle
 10
144.6563769984148
 20
147.9626363637611
 30
0.0
 40
20.0
100
AcDbArc
 50
102.9477059999997
 51
128.7811380000002
  0
ARC
  5
91
330
2
100
AcDbEntity
  8
0
  6
Continuous
100
AcDbCircle
 10
134.0084739984148
 20
161.2148883637611
 30
0.0
 40
3.0
100
AcDbArc
 50
128.7811380000002
 51
180.0
  0
LINE
  5
92
330
2
100
AcDbEntity
  8
0
100
AcDbLine
 10
302.4999999319092
 20
161.0000003439088
 30
0.0
 11
302.4999999319092
 21
55.00000034390883
 31
0.0
  0
LINE
  5
93
330
2
100
AcDbEntity
  8
0
100
AcDbLine
 10
155.4999999319091
 20
46.50000034390882
 30
0.0
 11
265.4999999319091
 21
46.50000034390882
 31
0.0
  0
LINE
  5
94
330
2
100
AcDbEntity
  8
0
100
AcDbLine
 10
152.9999999319091
 20
53.50000034390882
 30
0.0
 11
155.4999999319091
 21
46.50000034390882
 31
0.0
  0
LINE
  5
95
330
2
100
AcDbEntity
  8
0
100
AcDbLine
 10
152.9999999319091
 20
55.00000034390883
 30
0.0
 11
152.9999999319091
 21
53.50000034390882
 31
0.0
  0
LINE
  5
96
330
2
100
AcDbEntity
  8
0
100
AcDbLine
 10
265.4999999319091
 20
46.50000034390882
 30
0.0
 11
267.9999999319091
 21
53.50000034390882
 31
0.0
  0
LINE
  5
97
330
2
100
AcDbEntity
  8
0
100
AcDbLine
 10
267.9999999319091
 20
53.50000034390882
 30
0.0
 11
267.9999999319091
 21
55.00000034390883
 31
0.0
  0
LINE
  5
98
330
2
100
AcDbEntity
  8
0
100
AcDbLine
 10
313.4999999319092
 20
84.5000003439088
 30
0.0
 11
313.4999999319092
 21
65.50000034390882
 31
0.0
  0
LINE
  5
99
330
2
100
AcDbEntity
  8
0
100
AcDbLine
 10
313.4999999319092
 20
65.50000034390882
 30
0.0
 11
310.4999999319091
 21
65.50000034390882
 31
0.0
  0
LINE
  5
9A
330
2
100
AcDbEntity
  8
0
100
AcDbLine
 10
310.4999999319091
 20
84.5000003439088
 30
0.0
 11
313.4999999319092
 21
84.5000003439088
 31
0.0
  0
ARC
  5
9B
330
2
100
AcDbEntity
  8
0
  6
Continuous
100
AcDbCircle
 10
225.1589359984148
 20
125.7148883637611
 30
0.0
 40
41.5
100
AcDbArc
 50
70.98850199999984
 51
90.0
  0
ARC
  5
9C
330
2
100
AcDbEntity
  8
0
  6
Continuous
100
AcDbCircle
 10
225.1589359984148
 20
125.7148883637611
 30
0.0
 40
40.0
100
AcDbArc
 50
70.98850199999984
 51
90.0
  0
ARC
  5
9D
330
2
100
AcDbEntity
  8
0
  6
Continuous
100
AcDbCircle
 10
210.5084739984148
 20
-276.2851116362389
 30
0.0
 40
450.0
100
AcDbArc
 50
82.59461000000015
 51
97.40538999999984
  0
ARC
  5
9E
330
2
100
AcDbEntity
  8
0
  6
Continuous
100
AcDbCircle
 10
195.8580119984148
 20
125.7148883637611
 30
0.0
 40
41.5
100
AcDbArc
 50
90.0
 51
109.0114980000001
  0
ARC
  5
9F
330
2
100
AcDbEntity
  8
0
  6
Continuous
100
AcDbCircle
 10
195.8580119984148
 20
125.7148883637611
 30
0.0
 40
40.0
100
AcDbArc
 50
90.0
 51
109.0114980000001
  0
ARC
  5
A0
330
2
100
AcDbEntity
  8
0
  6
Continuous
100
AcDbCircle
 10
165.5084739984148
 20
166.7151903637611
 30
0.0
 40
1.75
100
AcDbArc
 50
95.00000000000021
 51
143.2318989999998
  0
ARC
  5
A1
330
2
100
AcDbEntity
  8
0
  6
HIDDEN
100
AcDbCircle
 10
165.5084739984148
 20
166.7151903637611
 30
0.0
 40
1.75
100
AcDbArc
 50
143.2318989999998
 51
274.9999999999998
  0
ARC
  5
A3
330
2
100
AcDbEntity
  8
0
  6
Continuous
100
AcDbCircle
 10
166.1378789984148
 20
164.4872223637611
 30
0.0
 40
3.0
100
AcDbArc
 50
219.5189489999998
 51
275.7483469999997
  0
LINE
  5
A4
330
2
100
AcDbEntity
  8
0
  6
Continuous
100
AcDbLine
 10
148.1966629984148
 20
162.7267403637611
 30
0.0
 11
175.4793789984148
 21
166.1768713637611
 31
0.0
  0
LINE
  5
A5
330
2
100
AcDbEntity
  8
0
  6
Continuous
100
AcDbLine
 10
175.1030009984148
 20
169.1531673637611
 30
0.0
 11
147.8202849984148
 21
165.7030363637611
 31
0.0
  0
ARC
  5
A6
330
2
100
AcDbEntity
  8
0
  6
Continuous
100
AcDbCircle
 10
210.5084739984148
 20
-276.2851126362388
 30
0.0
 40
441.5
100
AcDbArc
 50
94.26324300000016
 51
96.08615600000014
  0
ARC
  5
A7
330
2
100
AcDbEntity
  8
0
  6
Continuous
100
AcDbCircle
 10
156.1094939984148
 20
170.7148883637611
 30
0.0
 40
4.5
100
AcDbArc
 50
213.2929429999998
 51
248.1156220000001
  0
ARC
  5
A8
330
2
100
AcDbEntity
  8
0
  6
Continuous
100
AcDbCircle
 10
156.0699669984148
 20
169.7148303637611
 30
0.0
 40
3.5
100
AcDbArc
 50
187.4053899999998
 51
244.5014839999998
  0
ARC
  5
A9
330
2
100
AcDbEntity
  8
0
  6
Continuous
100
AcDbCircle
 10
148.0084739984148
 20
164.2148883637611
 30
0.0
 40
1.5
100
AcDbArc
 50
97.20728100000009
 51
277.2072810000001
  0
ARC
  5
AA
330
2
100
AcDbEntity
  8
0
  6
Continuous
100
AcDbCircle
 10
149.8404319984148
 20
166.5979893637611
 30
0.0
 40
3.0
100
AcDbArc
 50
33.29294299999975
 51
102.9477059999997
  0
LINE
  5
AB
330
2
100
AcDbEntity
  8
0
  6
Continuous
100
AcDbLine
 10
152.5084739984148
 20
169.9614563637611
 30
0.0
 11
152.5991609984148
 21
169.2637193637611
 31
0.0
  0
ARC
  5
AC
330
2
100
AcDbEntity
  8
0
  6
Continuous
100
AcDbCircle
 10
161.0084739984148
 20
161.2148883637611
 30
0.0
 40
3.0
100
AcDbArc
 50
0.0
 51
45.5846910000002
  0
ARC
  5
AD
330
2
100
AcDbEntity
  8
0
  6
Continuous
100
AcDbCircle
 10
163.9033169984148
 20
163.2509613637611
 30
0.0
 40
0.5
100
AcDbArc
 50
222.0749520000001
 51
276.052606
  0
ARC
  5
AE
330
2
100
AcDbEntity
  8
0
  6
Continuous
100
AcDbCircle
 10
156.1094939984148
 20
156.2148883637611
 30
0.0
 40
10.0
100
AcDbArc
 50
39.5189489999998
 51
55.39334499999998
  0
ARC
  5
AF
330
2
100
AcDbEntity
  8
0
  6
Continuous
100
AcDbCircle
 10
175.2911899984148
 20
167.6650193637611
 30
0.0
 40
1.5
100
AcDbArc
 50
277.2072810000001
 51
97.20728100000009
  0
ARC
  5
B0
330
2
100
AcDbEntity
  8
0
  6
Continuous
100
AcDbCircle
 10
210.5084739984148
 20
-276.2851126362388
 30
0.0
 40
440.000001
100
AcDbArc
 50
94.26324300000016
 51
95.7483469999997
  0
ARC
  5
B1
330
2
100
AcDbEntity
  8
0
  6
Continuous
100
AcDbCircle
 10
175.4704209984148
 20
167.5867473637611
 30
0.0
 40
1.75
100
AcDbArc
 50
274.9999999999998
 51
95.00000000000021
  0
LINE
  5
B2
330
2
100
AcDbEntity
  8
0
  6
HIDDEN
100
AcDbLine
 10
165.6609959984148
 20
164.9718493637611
 30
0.0
 11
166.6000829984148
 21
165.0540083637611
 31
0.0
  0
LINE
  5
B3
330
2
100
AcDbEntity
  8
0
  6
Continuous
100
AcDbLine
 10
166.6000829984148
 20
165.0540083637611
 30
0.0
 11
175.6229429984148
 21
165.8434063637611
 31
0.0
  0
LINE
  5
B4
330
2
100
AcDbEntity
  8
0
  6
Continuous
100
AcDbLine
 10
175.3178709984148
 20
169.3301813637611
 30
0.0
 11
165.3559509984148
 21
168.4585303637611
 31
0.0
  0
ARC
  5
B5
330
2
100
AcDbEntity
  8
0
  6
Continuous
100
AcDbCircle
 10
176.3125389984148
 20
182.442081363761
 30
0.0
 40
18.5
100
AcDbArc
 50
274.2632429999998
 51
289.0114980000002
  0
ARC
  5
B6
330
2
100
AcDbEntity
  8
0
  6
Continuous
100
AcDbCircle
 10
180.5084739984148
 20
167.7706353637611
 30
0.0
 40
1.251041999999998
100
AcDbArc
 50
182.3382789999995
 51
357.6617209999995
  0
LINE
  5
B7
330
2
100
AcDbEntity
  8
0
  6
Continuous
100
AcDbLine
 10
179.2584739984148
 20
167.7195933637611
 30
0.0
 11
181.7584739984148
 21
167.7195933637611
 31
0.0
  0
ARC
  5
B8
330
2
100
AcDbEntity
  8
0
  6
Continuous
100
AcDbCircle
 10
176.3125389984148
 20
182.442081363761
 30
0.0
 40
20.0
100
AcDbArc
 50
274.2632429999998
 51
289.0114980000002
  0
LINE
  5
B9
330
2
100
AcDbEntity
  8
0
  6
Continuous
100
AcDbLine
 10
225.1589359984148
 20
165.7148883637611
 30
0.0
 11
195.8580119984148
 21
165.7148883637611
 31
0.0
  0
LINE
  5
BA
330
2
100
AcDbEntity
  8
0
  6
Continuous
100
AcDbLine
 10
225.1589359984148
 20
167.2148883637611
 30
0.0
 11
195.8580119984148
 21
167.2148883637611
 31
0.0
  0
LINE
  5
BB
330
2
100
AcDbEntity
  8
0
100
AcDbLine
 10
313.4999999319092
 20
153.0000003439088
 30
0.0
 11
313.4999999319092
 21
127.0000003439088
 31
0.0
  0
LINE
  5
BC
330
2
100
AcDbEntity
  8
0
100
AcDbLine
 10
310.4999999319091
 20
127.0000003439088
 30
0.0
 11
313.4999999319092
 21
127.0000003439088
 31
0.0
  0
LINE
  5
BD
330
2
100
AcDbEntity
  8
0
  6
Continuous
100
AcDbLine
 10
272.8202849984149
 20
162.7267403637611
 30
0.0
 11
245.5375689984148
 21
166.1768713637611
 31
0.0
  0
LINE
  5
BE
330
2
100
AcDbEntity
  8
0
  6
Continuous
100
AcDbLine
 10
245.9139469984149
 20
169.1531673637611
 30
0.0
 11
273.1966629984148
 21
165.7030363637611
 31
0.0
  0
LINE
  5
BF
330
2
100
AcDbEntity
  8
0
  6
Continuous
100
AcDbLine
 10
257.0084739984149
 20
161.2148883637611
 30
0.0
 11
290.0084739984148
 21
161.2148883637611
 31
0.0
  0
LINE
  5
C0
330
2
100
AcDbEntity
  8
0
  6
Continuous
100
AcDbLine
 10
280.8418039984148
 20
167.4541363637611
 30
0.0
 11
271.8487009984149
 21
169.5217143637611
 31
0.0
  0
ARC
  5
C1
330
2
100
AcDbEntity
  8
0
  6
Continuous
100
AcDbCircle
 10
210.5084739984148
 20
-276.2851116362389
 30
0.0
 40
441.5
100
AcDbArc
 50
83.91384399999983
 51
85.73675700000022
  0
ARC
  5
C2
330
2
100
AcDbEntity
  8
0
  6
Continuous
100
AcDbCircle
 10
210.5084739984148
 20
-276.2851136362389
 30
0.0
 40
440.0000019999998
100
AcDbArc
 50
84.25165299999985
 51
85.73675700000022
  0
LINE
  5
C3
330
2
100
AcDbEntity
  8
0
  6
Continuous
100
AcDbLine
 10
245.3940229984148
 20
165.8434053637611
 30
0.0
 11
254.4168639984148
 21
165.0540083637611
 31
0.0
  0
LINE
  5
C4
330
2
100
AcDbEntity
  8
0
  6
Continuous
100
AcDbLine
 10
255.6609959984148
 20
168.4585303637611
 30
0.0
 11
245.6990679984149
 21
169.3300863637611
 31
0.0
  0
ARC
  5
C5
330
2
100
AcDbEntity
  8
0
  6
Continuous
100
AcDbCircle
 10
240.5084739984149
 20
167.7706353637611
 30
0.0
 40
1.251041999999998
100
AcDbArc
 50
182.3382789999995
 51
357.6617209999995
  0
LINE
  5
C6
330
2
100
AcDbEntity
  8
0
  6
Continuous
100
AcDbLine
 10
239.2584739984148
 20
167.7195933637611
 30
0.0
 11
241.7584739984148
 21
167.7195933637611
 31
0.0
  0
ARC
  5
C7
330
2
100
AcDbEntity
  8
0
  6
Continuous
100
AcDbCircle
 10
244.7044089984148
 20
182.442081363761
 30
0.0
 40
20.0
100
AcDbArc
 50
250.9885019999998
 51
265.7367569999999
  0
ARC
  5
C8
330
2
100
AcDbEntity
  8
0
  6
Continuous
100
AcDbCircle
 10
244.7044089984148
 20
182.442081363761
 30
0.0
 40
18.5
100
AcDbArc
 50
250.9885019999998
 51
265.7367569999999
  0
ARC
  5
C9
330
2
100
AcDbEntity
  8
0
  6
Continuous
100
AcDbCircle
 10
245.7257579984148
 20
167.6650193637611
 30
0.0
 40
1.5
100
AcDbArc
 50
82.79271899999994
 51
262.7927189999998
  0
ARC
  5
CA
330
2
100
AcDbEntity
  8
0
  6
Continuous
100
AcDbCircle
 10
245.5465459984148
 20
167.5867453637611
 30
0.0
 40
1.75
100
AcDbArc
 50
85.00000000000024
 51
264.9999999999998
  0
ARC
  5
CB
330
2
100
AcDbEntity
  8
0
  6
HIDDEN
100
AcDbCircle
 10
255.5084739984148
 20
166.7151903637611
 30
0.0
 40
1.75
100
AcDbArc
 50
264.9999999999998
 51
36.76810100000018
  0
ARC
  5
CC
330
2
100
AcDbEntity
  8
0
  6
Continuous
100
AcDbCircle
 10
255.5084739984148
 20
166.7151903637611
 30
0.0
 40
1.75
100
AcDbArc
 50
36.76810100000018
 51
85.00000000000024
  0
LINE
  5
CD
330
2
100
AcDbEntity
  8
0
  6
HIDDEN
100
AcDbLine
 10
254.4168639984148
 20
165.0540083637611
 30
0.0
 11
255.3559509984149
 21
164.9718493637611
 31
0.0
  0
ARC
  5
CE
330
2
100
AcDbEntity
  8
0
  6
Continuous
100
AcDbCircle
 10
260.0084739984148
 20
161.2148883637611
 30
0.0
 40
3.0
100
AcDbArc
 50
134.4153089999998
 51
180.0
  0
ARC
  5
CF
330
2
100
AcDbEntity
  8
0
  6
Continuous
100
AcDbCircle
 10
257.1136299984148
 20
163.2509613637611
 30
0.0
 40
0.5
100
AcDbArc
 50
263.947394
 51
317.9250479999999
  0
ARC
  5
D0
330
2
100
AcDbEntity
  8
0
  6
Continuous
100
AcDbCircle
 10
254.8790689984148
 20
164.4872223637611
 30
0.0
 40
3.0
100
AcDbArc
 50
264.2516529999999
 51
320.4810510000002
  0
ARC
  5
D1
330
2
100
AcDbEntity
  8
0
  6
Continuous
100
AcDbCircle
 10
264.9074529984149
 20
156.2148883637611
 30
0.0
 40
10.0
100
AcDbArc
 50
124.606655
 51
140.4810510000002
  0
ARC
  5
D2
330
2
100
AcDbEntity
  8
0
  6
Continuous
100
AcDbCircle
 10
264.9074529984149
 20
170.7148883637611
 30
0.0
 40
4.5
100
AcDbArc
 50
291.8843779999999
 51
326.7070570000003
  0
ARC
  5
D3
330
2
100
AcDbEntity
  8
0
  6
Continuous
100
AcDbCircle
 10
264.9469799984148
 20
169.7148303637611
 30
0.0
 40
3.5
100
AcDbArc
 50
295.4985160000001
 51
352.5946100000002
  0
ARC
  5
D4
330
2
100
AcDbEntity
  8
0
  6
Continuous
100
AcDbCircle
 10
271.1765159984149
 20
166.5979893637611
 30
0.0
 40
3.0
100
AcDbArc
 50
77.0522940000003
 51
146.7070570000002
  0
LINE
  5
D5
330
2
100
AcDbEntity
  8
0
  6
Continuous
100
AcDbLine
 10
268.4177869984148
 20
169.2637193637611
 30
0.0
 11
268.5084739984148
 21
169.9614563637611
 31
0.0
  0
ARC
  5
D6
330
2
100
AcDbEntity
  8
0
  6
Continuous
100
AcDbCircle
 10
276.3605709984148
 20
147.9626363637611
 30
0.0
 40
20.0
100
AcDbArc
 50
51.21886199999974
 51
77.0522940000003
  0
ARC
  5
D7
330
2
100
AcDbEntity
  8
0
  6
Continuous
100
AcDbCircle
 10
273.0084739984148
 20
164.2148883637611
 30
0.0
 40
1.5
100
AcDbArc
 50
262.7927189999998
 51
82.79271899999994
  0
ARC
  5
D8
330
2
100
AcDbEntity
  8
0
  6
Continuous
100
AcDbCircle
 10
287.0084739984148
 20
161.2148883637611
 30
0.0
 40
3.0
100
AcDbArc
 50
0.0
 51
51.21886199999974
  0
LINE
  5
D9
330
2
100
AcDbEntity
  8
0
100
AcDbLine
 10
310.4999999319091
 20
153.0000003439088
 30
0.0
 11
313.4999999319092
 21
153.0000003439088
 31
0.0
  0
LINE
  5
DA
330
2
100
AcDbEntity
  8
0
100
AcDbLine
 10
313.4999999319092
 20
234.5000003439088
 30
0.0
 11
310.4999999319091
 21
234.5000003439088
 31
0.0
  0
LINE
  5
DB
330
2
100
AcDbEntity
  8
0
  6
Continuous
100
AcDbLine
 10
287.0084739984148
 20
290.0076163637611
 30
0.0
 11
134.0084739984148
 21
290.0076163637611
 31
0.0
  0
LINE
  5
DC
330
2
100
AcDbEntity
  8
0
  6
Continuous
100
AcDbLine
 10
287.0084739984148
 20
274.0076163637612
 30
0.0
 11
134.0084739984148
 21
274.0076163637612
 31
0.0
  0
LINE
  5
DD
330
2
100
AcDbEntity
  8
0
100
AcDbLine
 10
302.4999999319092
 20
236.5000003439088
 30
0.0
 11
118.4999999319091
 21
236.5000003439088
 31
0.0
  0
LINE
  5
DE
330
2
100
AcDbEntity
  8
0
100
AcDbLine
 10
302.4999999319092
 20
237.5000003439088
 30
0.0
 11
118.4999999319091
 21
237.5000003439088
 31
0.0
  0
LINE
  5
DF
330
2
100
AcDbEntity
  8
0
100
AcDbLine
 10
302.4999999319092
 20
239.5000003439088
 30
0.0
 11
118.4999999319091
 21
239.5000003439088
 31
0.0
  0
LINE
  5
E0
330
2
100
AcDbEntity
  8
0
100
AcDbLine
 10
302.4999999319092
 20
240.5000003439088
 30
0.0
 11
118.4999999319091
 21
240.5000003439088
 31
0.0
  0
LINE
  5
E1
330
2
100
AcDbEntity
  8
0
100
AcDbLine
 10
302.4999999319092
 20
244.5000003439088
 30
0.0
 11
118.4999999319091
 21
244.5000003439088
 31
0.0
  0
LINE
  5
E2
330
2
100
AcDbEntity
  8
0
100
AcDbLine
 10
302.4999999319092
 20
245.5000003439088
 30
0.0
 11
118.4999999319091
 21
245.5000003439088
 31
0.0
  0
LINE
  5
E3
330
2
100
AcDbEntity
  8
0
100
AcDbLine
 10
302.4999999319092
 20
247.5000003439088
 30
0.0
 11
118.4999999319091
 21
247.5000003439088
 31
0.0
  0
LINE
  5
E4
330
2
100
AcDbEntity
  8
0
100
AcDbLine
 10
302.4999999319092
 20
248.5000003439088
 30
0.0
 11
118.4999999319091
 21
248.5000003439088
 31
0.0
  0
LINE
  5
E5
330
2
100
AcDbEntity
  8
0
100
AcDbLine
 10
302.4999999319092
 20
256.5000003439088
 30
0.0
 11
118.4999999319091
 21
256.5000003439088
 31
0.0
  0
LINE
  5
E6
330
2
100
AcDbEntity
  8
0
100
AcDbLine
 10
302.4999999319092
 20
255.5000003439088
 30
0.0
 11
118.4999999319091
 21
255.5000003439088
 31
0.0
  0
LINE
  5
E7
330
2
100
AcDbEntity
  8
0
100
AcDbLine
 10
302.4999999319092
 20
253.5000003439088
 30
0.0
 11
118.4999999319091
 21
253.5000003439088
 31
0.0
  0
LINE
  5
E8
330
2
100
AcDbEntity
  8
0
100
AcDbLine
 10
302.4999999319092
 20
252.5000003439088
 30
0.0
 11
118.4999999319091
 21
252.5000003439088
 31
0.0
  0
LINE
  5
E9
330
2
100
AcDbEntity
  8
0
100
AcDbLine
 10
302.4999999319092
 20
311.5000003439088
 30
0.0
 11
118.4999999319091
 21
311.5000003439088
 31
0.0
  0
LINE
  5
EA
330
2
100
AcDbEntity
  8
0
100
AcDbLine
 10
302.4999999319092
 20
310.5000003439088
 30
0.0
 11
118.4999999319091
 21
310.5000003439088
 31
0.0
  0
LINE
  5
EB
330
2
100
AcDbEntity
  8
0
100
AcDbLine
 10
302.4999999319092
 20
308.5000003439088
 30
0.0
 11
118.4999999319091
 21
308.5000003439088
 31
0.0
  0
LINE
  5
EC
330
2
100
AcDbEntity
  8
0
100
AcDbLine
 10
302.4999999319092
 20
307.5000003439088
 30
0.0
 11
118.4999999319091
 21
307.5000003439088
 31
0.0
  0
LINE
  5
ED
330
2
100
AcDbEntity
  8
0
100
AcDbLine
 10
302.4999999319092
 20
315.5000003439088
 30
0.0
 11
118.4999999319091
 21
315.5000003439088
 31
0.0
  0
LINE
  5
EE
330
2
100
AcDbEntity
  8
0
100
AcDbLine
 10
302.4999999319092
 20
316.5000003439088
 30
0.0
 11
118.4999999319091
 21
316.5000003439088
 31
0.0
  0
LINE
  5
EF
330
2
100
AcDbEntity
  8
0
100
AcDbLine
 10
302.4999999319092
 20
318.5000003439088
 30
0.0
 11
118.4999999319091
 21
318.5000003439088
 31
0.0
  0
LINE
  5
F0
330
2
100
AcDbEntity
  8
0
100
AcDbLine
 10
302.4999999319092
 20
319.5000003439088
 30
0.0
 11
118.4999999319091
 21
319.5000003439088
 31
0.0
  0
LINE
  5
F1
330
2
100
AcDbEntity
  8
0
100
AcDbLine
 10
302.4999999319092
 20
323.5000003439088
 30
0.0
 11
118.4999999319091
 21
323.5000003439088
 31
0.0
  0
LINE
  5
F2
330
2
100
AcDbEntity
  8
0
100
AcDbLine
 10
302.4999999319092
 20
324.5000003439088
 30
0.0
 11
118.4999999319091
 21
324.5000003439088
 31
0.0
  0
LINE
  5
F3
330
2
100
AcDbEntity
  8
0
100
AcDbLine
 10
302.4999999319092
 20
326.5000003439088
 30
0.0
 11
118.4999999319091
 21
326.5000003439088
 31
0.0
  0
LINE
  5
F4
330
2
100
AcDbEntity
  8
0
100
AcDbLine
 10
302.4999999319092
 20
327.5000003439088
 30
0.0
 11
118.4999999319091
 21
327.5000003439088
 31
0.0
  0
LINE
  5
F5
330
2
100
AcDbEntity
  8
0
100
AcDbLine
 10
63.9999999319091
 20
311.0000003439088
 30
0.0
 11
52.49999993190908
 21
311.0000003439088
 31
0.0
  0
LINE
  5
F6
330
2
100
AcDbEntity
  8
0
100
AcDbLine
 10
52.49999993190908
 20
253.0000003439088
 30
0.0
 11
63.9999999319091
 21
253.0000003439088
 31
0.0
  0
LINE
  5
F7
330
2
100
AcDbEntity
  8
0
100
AcDbLine
 10
52.49999993190908
 20
311.0000003439088
 30
0.0
 11
52.49999993190908
 21
253.0000003439088
 31
0.0
  0
LINE
  5
F8
330
2
100
AcDbEntity
  8
0
100
AcDbLine
 10
51.4999999319091
 20
310.0000003439088
 30
0.0
 11
51.4999999319091
 21
254.0000003439088
 31
0.0
  0
LINE
  5
F9
330
2
100
AcDbEntity
  8
0
100
AcDbLine
 10
51.4999999319091
 20
254.0000003439088
 30
0.0
 11
52.49999993190908
 21
253.0000003439088
 31
0.0
  0
LINE
  5
FA
330
2
100
AcDbEntity
  8
0
100
AcDbLine
 10
52.49999993190908
 20
311.0000003439088
 30
0.0
 11
51.4999999319091
 21
310.0000003439088
 31
0.0
  0
ARC
  5
FB
330
2
100
AcDbEntity
  8
0
  6
Continuous
100
AcDbCircle
 10
134.0084739984148
 20
287.0076163637611
 30
0.0
 40
3.0
100
AcDbArc
 50
90.0
 51
180.0
  0
LINE
  5
FC
330
2
100
AcDbEntity
  8
0
100
AcDbLine
 10
62.49999993190908
 20
311.0000003439088
 30
0.0
 11
62.49999993190908
 21
253.0000003439088
 31
0.0
  0
LINE
  5
FD
330
2
100
AcDbEntity
  8
0
100
AcDbLine
 10
102.4999999319091
 20
313.0000003439088
 30
0.0
 11
102.4999999319091
 21
251.0000003439088
 31
0.0
  0
LINE
  5
FE
330
2
100
AcDbEntity
  8
0
100
AcDbLine
 10
102.4999999319091
 20
256.0000003439088
 30
0.0
 11
62.49999993190908
 21
256.0000003439088
 31
0.0
  0
LINE
  5
FF
330
2
100
AcDbEntity
  8
0
100
AcDbLine
 10
102.4999999319091
 20
254.7500003439088
 30
0.0
 11
62.49999993190908
 21
254.7500003439088
 31
0.0
  0
LINE
  5
100
330
2
100
AcDbEntity
  8
0
100
AcDbLine
 10
102.4999999319091
 20
280.0000003439088
 30
0.0
 11
62.49999993190908
 21
280.0000003439088
 31
0.0
  0
LINE
  5
101
330
2
100
AcDbEntity
  8
0
100
AcDbLine
 10
102.4999999319091
 20
272.5000003439088
 30
0.0
 11
62.49999993190908
 21
272.5000003439088
 31
0.0
  0
LINE
  5
102
330
2
100
AcDbEntity
  8
0
100
AcDbLine
 10
102.4999999319091
 20
269.2500003439088
 30
0.0
 11
62.49999993190908
 21
269.2500003439088
 31
0.0
  0
LINE
  5
103
330
2
100
AcDbEntity
  8
0
100
AcDbLine
 10
102.4999999319091
 20
262.7500003439088
 30
0.0
 11
62.49999993190908
 21
262.7500003439088
 31
0.0
  0
LINE
  5
104
330
2
100
AcDbEntity
  8
0
100
AcDbLine
 10
102.4999999319091
 20
260.2500003439088
 30
0.0
 11
62.49999993190908
 21
260.2500003439088
 31
0.0
  0
LINE
  5
105
330
2
100
AcDbEntity
  8
0
100
AcDbLine
 10
102.4999999319091
 20
284.0000003439088
 30
0.0
 11
62.49999993190908
 21
284.0000003439088
 31
0.0
  0
LINE
  5
106
330
2
100
AcDbEntity
  8
0
100
AcDbLine
 10
63.9999999319091
 20
253.0000003439088
 30
0.0
 11
100.9999999319091
 21
253.0000003439088
 31
0.0
  0
LINE
  5
107
330
2
100
AcDbEntity
  8
0
100
AcDbLine
 10
102.4999999319091
 20
253.0000003439088
 30
0.0
 11
100.9999999319091
 21
253.0000003439088
 31
0.0
  0
LINE
  5
108
330
2
100
AcDbEntity
  8
0
100
AcDbLine
 10
102.4999999319091
 20
251.0000003439088
 30
0.0
 11
110.4999999319091
 21
251.0000003439088
 31
0.0
  0
ARC
  5
109
330
2
100
AcDbEntity
  8
0
  6
Continuous
100
AcDbCircle
 10
134.0084739984148
 20
277.0076163637611
 30
0.0
 40
3.0
100
AcDbArc
 50
180.0
 51
270.0
  0
LINE
  5
10A
330
2
100
AcDbEntity
  8
0
  6
Continuous
100
AcDbLine
 10
131.0084739984148
 20
277.0076163637611
 30
0.0
 11
131.0084739984148
 21
287.0076163637611
 31
0.0
  0
CIRCLE
  5
10B
330
2
100
AcDbEntity
  8
0
  6
Continuous
100
AcDbCircle
 10
138.0084739984148
 20
282.0076163637612
 30
0.0
 40
1.6
  0
CIRCLE
  5
10C
330
2
100
AcDbEntity
  8
0
  6
Continuous
100
AcDbCircle
 10
138.0084739984148
 20
282.0076163637612
 30
0.0
 40
3.1
  0
LINE
  5
10D
330
2
100
AcDbEntity
  8
0
100
AcDbLine
 10
102.4999999319091
 20
309.2500003439088
 30
0.0
 11
62.49999993190908
 21
309.2500003439088
 31
0.0
  0
LINE
  5
10E
330
2
100
AcDbEntity
  8
0
100
AcDbLine
 10
102.4999999319091
 20
308.0000003439088
 30
0.0
 11
62.49999993190908
 21
308.0000003439088
 31
0.0
  0
LINE
  5
10F
330
2
100
AcDbEntity
  8
0
100
AcDbLine
 10
102.4999999319091
 20
303.7500003439088
 30
0.0
 11
62.49999993190908
 21
303.7500003439088
 31
0.0
  0
LINE
  5
110
330
2
100
AcDbEntity
  8
0
100
AcDbLine
 10
102.4999999319091
 20
301.2500003439088
 30
0.0
 11
62.49999993190908
 21
301.2500003439088
 31
0.0
  0
LINE
  5
111
330
2
100
AcDbEntity
  8
0
100
AcDbLine
 10
102.4999999319091
 20
294.7500003439088
 30
0.0
 11
62.49999993190908
 21
294.7500003439088
 31
0.0
  0
LINE
  5
112
330
2
100
AcDbEntity
  8
0
100
AcDbLine
 10
102.4999999319091
 20
291.5000003439088
 30
0.0
 11
62.49999993190908
 21
291.5000003439088
 31
0.0
  0
LINE
  5
113
330
2
100
AcDbEntity
  8
0
100
AcDbLine
 10
100.9999999319091
 20
311.0000003439088
 30
0.0
 11
63.9999999319091
 21
311.0000003439088
 31
0.0
  0
LINE
  5
114
330
2
100
AcDbEntity
  8
0
100
AcDbLine
 10
102.4999999319091
 20
311.0000003439088
 30
0.0
 11
100.9999999319091
 21
311.0000003439088
 31
0.0
  0
LINE
  5
115
330
2
100
AcDbEntity
  8
0
100
AcDbLine
 10
110.4999999319091
 20
313.0000003439088
 30
0.0
 11
102.4999999319091
 21
313.0000003439088
 31
0.0
  0
ARC
  5
116
330
2
100
AcDbEntity
  8
0
  6
Continuous
100
AcDbCircle
 10
149.6526859984148
 20
288.0076163637611
 30
0.0
 40
2.0
100
AcDbArc
 50
0.0
 51
90.0
  0
LINE
  5
117
330
2
100
AcDbEntity
  8
0
  6
Continuous
100
AcDbLine
 10
152.5084739984148
 20
274.0076163637612
 30
0.0
 11
152.5084739984148
 21
290.0076163637611
 31
0.0
  0
LINE
  5
118
330
2
100
AcDbEntity
  8
0
  6
Continuous
100
AcDbLine
 10
149.6310099984148
 20
269.5101203637611
 30
0.0
 11
174.0931569984148
 21
270.5101203637611
 31
0.0
  0
LINE
  5
119
330
2
100
AcDbEntity
  8
0
  6
Continuous
100
AcDbLine
 10
149.5084739984148
 20
272.5076163637611
 30
0.0
 11
173.9706199984148
 21
273.5076163637611
 31
0.0
  0
LINE
  5
11A
330
2
100
AcDbEntity
  8
0
  6
Continuous
100
AcDbLine
 10
151.6526859984148
 20
288.0076163637611
 30
0.0
 11
151.6526859984148
 21
276.0076163637612
 31
0.0
  0
ARC
  5
11B
330
2
100
AcDbEntity
  8
0
  6
Continuous
100
AcDbCircle
 10
149.5084739984148
 20
272.5076163637611
 30
0.0
 40
3.0
100
AcDbArc
 50
270.0
 51
272.340919
  0
LINE
  5
11C
330
2
100
AcDbEntity
  8
0
  6
Continuous
100
AcDbLine
 10
149.5084739984148
 20
272.5076163637611
 30
0.0
 11
149.5084739984148
 21
274.0076163637612
 31
0.0
  0
LINE
  5
11D
330
2
100
AcDbEntity
  8
0
  6
Continuous
100
AcDbLine
 10
146.5084739984148
 20
272.5076163637611
 30
0.0
 11
146.5084739984148
 21
274.0076163637612
 31
0.0
  0
ARC
  5
11E
330
2
100
AcDbEntity
  8
0
  6
Continuous
100
AcDbCircle
 10
149.5084739984148
 20
272.5076163637611
 30
0.0
 40
3.0
100
AcDbArc
 50
180.0
 51
272.340919
  0
ARC
  5
11F
330
2
100
AcDbEntity
  8
0
  6
Continuous
100
AcDbCircle
 10
149.6526859984148
 20
276.0076163637612
 30
0.0
 40
2.0
100
AcDbArc
 50
270.0
 51
0.0
  0
ARC
  5
120
330
2
100
AcDbEntity
  8
0
  6
Continuous
100
AcDbCircle
 10
173.9706199984148
 20
273.5076163637611
 30
0.0
 40
3.0
100
AcDbArc
 50
272.340919
 51
0.0
  0
LINE
  5
121
330
2
100
AcDbEntity
  8
0
  6
Continuous
100
AcDbLine
 10
173.9706199984148
 20
274.0076163637612
 30
0.0
 11
173.9706199984148
 21
273.5076163637611
 31
0.0
  0
LINE
  5
122
330
2
100
AcDbEntity
  8
0
  6
Continuous
100
AcDbLine
 10
176.9706199984148
 20
274.0076163637612
 30
0.0
 11
176.9706199984148
 21
273.5076163637611
 31
0.0
  0
LINE
  5
123
330
2
100
AcDbEntity
  8
0
  6
Continuous
100
AcDbLine
 10
174.0931569984148
 20
293.5051133637612
 30
0.0
 11
149.6310099984148
 21
294.5051133637612
 31
0.0
  0
LINE
  5
124
330
2
100
AcDbEntity
  8
0
  6
Continuous
100
AcDbLine
 10
173.9706199984148
 20
290.5076163637612
 30
0.0
 11
149.5084739984148
 21
291.5076163637611
 31
0.0
  0
ARC
  5
125
330
2
100
AcDbEntity
  8
0
  6
Continuous
100
AcDbCircle
 10
149.5084739984148
 20
291.5076163637611
 30
0.0
 40
3.0
100
AcDbArc
 50
87.65908099999995
 51
90.0
  0
LINE
  5
126
330
2
100
AcDbEntity
  8
0
  6
Continuous
100
AcDbLine
 10
149.5084739984148
 20
290.0076163637611
 30
0.0
 11
149.5084739984148
 21
291.5076163637611
 31
0.0
  0
LINE
  5
127
330
2
100
AcDbEntity
  8
0
  6
Continuous
100
AcDbLine
 10
146.5084739984148
 20
290.0076163637611
 30
0.0
 11
146.5084739984148
 21
291.5076163637611
 31
0.0
  0
ARC
  5
128
330
2
100
AcDbEntity
  8
0
  6
Continuous
100
AcDbCircle
 10
149.5084739984148
 20
291.5076163637611
 30
0.0
 40
3.0
100
AcDbArc
 50
87.65908099999995
 51
180.0
  0
ARC
  5
129
330
2
100
AcDbEntity
  8
0
  6
Continuous
100
AcDbCircle
 10
173.9706199984148
 20
290.5076163637612
 30
0.0
 40
3.0
100
AcDbArc
 50
0.0
 51
87.65908099999995
  0
LINE
  5
12A
330
2
100
AcDbEntity
  8
0
  6
Continuous
100
AcDbLine
 10
173.9706199984148
 20
290.5076163637612
 30
0.0
 11
173.9706199984148
 21
290.0076163637611
 31
0.0
  0
LINE
  5
12B
330
2
100
AcDbEntity
  8
0
  6
Continuous
100
AcDbLine
 10
176.9706199984148
 20
290.5076163637612
 30
0.0
 11
176.9706199984148
 21
290.0076163637611
 31
0.0
  0
ARC
  5
12C
330
2
100
AcDbEntity
  8
0
  6
Continuous
100
AcDbCircle
 10
287.0084739984148
 20
287.0076163637611
 30
0.0
 40
3.0
100
AcDbArc
 50
0.0
 51
90.0
  0
ARC
  5
12D
330
2
100
AcDbEntity
  8
0
  6
Continuous
100
AcDbCircle
 10
271.3642609984148
 20
288.0076163637611
 30
0.0
 40
2.0
100
AcDbArc
 50
90.0
 51
180.0
  0
LINE
  5
12E
330
2
100
AcDbEntity
  8
0
  6
Continuous
100
AcDbLine
 10
268.5084739984148
 20
290.0076163637611
 30
0.0
 11
268.5084739984148
 21
274.0076163637612
 31
0.0
  0
LINE
  5
12F
330
2
100
AcDbEntity
  8
0
100
AcDbLine
 10
313.4999999319092
 20
295.0000003439088
 30
0.0
 11
313.4999999319092
 21
269.0000003439088
 31
0.0
  0
ARC
  5
130
330
2
100
AcDbEntity
  8
0
  6
Continuous
100
AcDbCircle
 10
271.5084739984149
 20
272.5076163637611
 30
0.0
 40
3.0
100
AcDbArc
 50
267.6590809999999
 51
0.0
  0
LINE
  5
131
330
2
100
AcDbEntity
  8
0
  6
Continuous
100
AcDbLine
 10
246.9237909984148
 20
270.5101203637611
 30
0.0
 11
271.3859379984148
 21
269.5101203637611
 31
0.0
  0
LINE
  5
132
330
2
100
AcDbEntity
  8
0
  6
Continuous
100
AcDbLine
 10
247.0463269984148
 20
273.5076163637611
 30
0.0
 11
271.5084739984149
 21
272.5076163637611
 31
0.0
  0
LINE
  5
133
330
2
100
AcDbEntity
  8
0
  6
Continuous
100
AcDbLine
 10
247.0463269984148
 20
273.5076163637611
 30
0.0
 11
247.0463269984148
 21
274.0076163637612
 31
0.0
  0
LINE
  5
134
330
2
100
AcDbEntity
  8
0
  6
Continuous
100
AcDbLine
 10
244.0463269984148
 20
273.5076163637611
 30
0.0
 11
244.0463269984148
 21
274.0076163637612
 31
0.0
  0
ARC
  5
135
330
2
100
AcDbEntity
  8
0
  6
Continuous
100
AcDbCircle
 10
247.0463269984148
 20
273.5076163637611
 30
0.0
 40
3.0
100
AcDbArc
 50
180.0
 51
267.6590809999999
  0
LINE
  5
136
330
2
100
AcDbEntity
  8
0
  6
Continuous
100
AcDbLine
 10
269.3642609984148
 20
288.0076163637611
 30
0.0
 11
269.3642609984148
 21
276.0076163637612
 31
0.0
  0
ARC
  5
137
330
2
100
AcDbEntity
  8
0
  6
Continuous
100
AcDbCircle
 10
271.5084739984149
 20
272.5076163637611
 30
0.0
 40
3.0
100
AcDbArc
 50
267.6590809999999
 51
270.0
  0
LINE
  5
138
330
2
100
AcDbEntity
  8
0
  6
Continuous
100
AcDbLine
 10
271.5084739984149
 20
274.0076163637612
 30
0.0
 11
271.5084739984149
 21
272.5076163637611
 31
0.0
  0
ARC
  5
139
330
2
100
AcDbEntity
  8
0
  6
Continuous
100
AcDbCircle
 10
271.3642609984148
 20
276.0076163637612
 30
0.0
 40
2.0
100
AcDbArc
 50
180.0
 51
270.0
  0
LINE
  5
13A
330
2
100
AcDbEntity
  8
0
100
AcDbLine
 10
310.4999999319091
 20
253.5000003439088
 30
0.0
 11
313.4999999319092
 21
253.5000003439088
 31
0.0
  0
ARC
  5
13B
330
2
100
AcDbEntity
  8
0
  6
Continuous
100
AcDbCircle
 10
287.0084739984148
 20
277.0076163637611
 30
0.0
 40
3.0
100
AcDbArc
 50
270.0
 51
0.0
  0
LINE
  5
13C
330
2
100
AcDbEntity
  8
0
  6
Continuous
100
AcDbLine
 10
274.5084739984148
 20
274.0076163637612
 30
0.0
 11
274.5084739984148
 21
272.5076163637611
 31
0.0
  0
CIRCLE
  5
13D
330
2
100
AcDbEntity
  8
0
  6
Continuous
100
AcDbCircle
 10
283.0084739984148
 20
282.0076163637612
 30
0.0
 40
1.6
  0
CIRCLE
  5
13E
330
2
100
AcDbEntity
  8
0
  6
Continuous
100
AcDbCircle
 10
283.0084739984148
 20
282.0076163637612
 30
0.0
 40
3.1
  0
LINE
  5
13F
330
2
100
AcDbEntity
  8
0
  6
Continuous
100
AcDbLine
 10
290.0084739984148
 20
277.0076163637611
 30
0.0
 11
290.0084739984148
 21
287.0076163637611
 31
0.0
  0
LINE
  5
140
330
2
100
AcDbEntity
  8
0
100
AcDbLine
 10
310.4999999319091
 20
269.0000003439088
 30
0.0
 11
313.4999999319092
 21
269.0000003439088
 31
0.0
  0
ARC
  5
141
330
2
100
AcDbEntity
  8
0
  6
Continuous
100
AcDbCircle
 10
271.5084739984149
 20
291.5076163637611
 30
0.0
 40
3.0
100
AcDbArc
 50
0.0
 51
92.34091900000004
  0
LINE
  5
142
330
2
100
AcDbEntity
  8
0
  6
Continuous
100
AcDbLine
 10
271.3859379984148
 20
294.5051133637612
 30
0.0
 11
246.9237909984148
 21
293.5051133637612
 31
0.0
  0
LINE
  5
143
330
2
100
AcDbEntity
  8
0
  6
Continuous
100
AcDbLine
 10
271.5084739984149
 20
291.5076163637611
 30
0.0
 11
247.0463269984148
 21
290.5076163637612
 31
0.0
  0
LINE
  5
144
330
2
100
AcDbEntity
  8
0
  6
Continuous
100
AcDbLine
 10
247.0463269984148
 20
290.0076163637611
 30
0.0
 11
247.0463269984148
 21
290.5076163637612
 31
0.0
  0
LINE
  5
145
330
2
100
AcDbEntity
  8
0
  6
Continuous
100
AcDbLine
 10
244.0463269984148
 20
290.0076163637611
 30
0.0
 11
244.0463269984148
 21
290.5076163637612
 31
0.0
  0
ARC
  5
146
330
2
100
AcDbEntity
  8
0
  6
Continuous
100
AcDbCircle
 10
247.0463269984148
 20
290.5076163637612
 30
0.0
 40
3.0
100
AcDbArc
 50
92.34091900000004
 51
180.0
  0
ARC
  5
147
330
2
100
AcDbEntity
  8
0
  6
Continuous
100
AcDbCircle
 10
271.5084739984149
 20
291.5076163637611
 30
0.0
 40
3.0
100
AcDbArc
 50
90.0
 51
92.34091900000004
  0
LINE
  5
148
330
2
100
AcDbEntity
  8
0
  6
Continuous
100
AcDbLine
 10
271.5084739984149
 20
291.5076163637611
 30
0.0
 11
271.5084739984149
 21
290.0076163637611
 31
0.0
  0
LINE
  5
149
330
2
100
AcDbEntity
  8
0
  6
Continuous
100
AcDbLine
 10
274.5084739984148
 20
291.5076163637611
 30
0.0
 11
274.5084739984148
 21
290.0076163637611
 31
0.0
  0
LINE
  5
14A
330
2
100
AcDbEntity
  8
0
100
AcDbLine
 10
310.4999999319091
 20
295.0000003439088
 30
0.0
 11
313.4999999319092
 21
295.0000003439088
 31
0.0
  0
LINE
  5
14B
330
2
100
AcDbEntity
  8
0
100
AcDbLine
 10
-108.9999999319091
 20
54.99999965609117
 30
0.0
 11
-9.999999931909087
 21
54.99999965609117
 31
0.0
  0
ARC
  5
14C
330
2
100
AcDbEntity
  8
0
100
AcDbCircle
 10
-9.999999931909087
 20
62.99999965609117
 30
0.0
 40
8.0
100
AcDbArc
 50
270.0
 51
0.0
  0
LINE
  5
14D
330
2
100
AcDbEntity
  8
0
100
AcDbLine
 10
-1.999999931909087
 20
62.99999965609117
 30
0.0
 11
-1.999999931909087
 21
152.9999996560912
 31
0.0
  0
ARC
  5
14E
330
2
100
AcDbEntity
  8
0
100
AcDbCircle
 10
-9.999999931909087
 20
152.9999996560912
 30
0.0
 40
8.0
100
AcDbArc
 50
0.0
 51
90.0
  0
LINE
  5
14F
330
2
100
AcDbEntity
  8
0
100
AcDbLine
 10
-9.999999931909087
 20
160.9999996560912
 30
0.0
 11
-108.9999999319091
 21
160.9999996560912
 31
0.0
  0
ARC
  5
150
330
2
100
AcDbEntity
  8
0
100
AcDbCircle
 10
-108.9999999319091
 20
152.9999996560912
 30
0.0
 40
8.0
100
AcDbArc
 50
90.0
 51
180.0
  0
LINE
  5
151
330
2
100
AcDbEntity
  8
0
100
AcDbLine
 10
-116.9999999319091
 20
152.9999996560912
 30
0.0
 11
-116.9999999319091
 21
62.99999965609117
 31
0.0
  0
ARC
  5
152
330
2
100
AcDbEntity
  8
0
100
AcDbCircle
 10
-108.9999999319091
 20
62.99999965609117
 30
0.0
 40
8.0
100
AcDbArc
 50
180.0
 51
270.0
  0
CIRCLE
  5
153
330
2
100
AcDbEntity
  8
0
 48
10.0
100
AcDbCircle
 10
-7.99999956330805
 20
61.00345231274342
 30
0.0
 40
4.003452656652301
  0
CIRCLE
  5
154
330
2
100
AcDbEntity
  8
0
 48
10.0
370
    15
100
AcDbCircle
 10
-110.9999942467308
 20
61.00345231274342
 30
0.0
 40
3.496547127301767
  0
CIRCLE
  5
155
330
2
100
AcDbEntity
  8
0
 48
10.0
100
AcDbCircle
 10
-110.9999942467308
 20
61.00345231274342
 30
0.0
 40
4.003452656656321
  0
LINE
  5
156
330
2
100
AcDbEntity
  8
0
100
AcDbLine
 10
421.9999999319091
 20
55.00000034390883
 30
0.0
 11
520.9999999319091
 21
55.00000034390883
 31
0.0
  0
ARC
  5
157
330
2
100
AcDbEntity
  8
0
100
AcDbCircle
 10
520.9999999319091
 20
63.00000034390882
 30
0.0
 40
8.0
100
AcDbArc
 50
270.0
 51
0.0
  0
LINE
  5
158
330
2
100
AcDbEntity
  8
0
100
AcDbLine
 10
528.9999999319091
 20
63.00000034390882
 30
0.0
 11
528.9999999319091
 21
153.0000003439088
 31
0.0
  0
ARC
  5
159
330
2
100
AcDbEntity
  8
0
100
AcDbCircle
 10
520.9999999319091
 20
153.0000003439088
 30
0.0
 40
8.0
100
AcDbArc
 50
0.0
 51
90.0
  0
LINE
  5
15A
330
2
100
AcDbEntity
  8
0
100
AcDbLine
 10
520.9999999319091
 20
161.0000003439088
 30
0.0
 11
421.9999999319091
 21
161.0000003439088
 31
0.0
  0
ARC
  5
15B
330
2
100
AcDbEntity
  8
0
100
AcDbCircle
 10
421.9999999319091
 20
153.0000003439088
 30
0.0
 40
8.0
100
AcDbArc
 50
90.0
 51
180.0
  0
LINE
  5
15C
330
2
100
AcDbEntity
  8
0
100
AcDbLine
 10
413.9999999319091
 20
153.0000003439088
 30
0.0
 11
413.9999999319091
 21
63.00000034390882
 31
0.0
  0
ARC
  5
15D
330
2
100
AcDbEntity
  8
0
100
AcDbCircle
 10
421.9999999319091
 20
63.00000034390882
 30
0.0
 40
8.0
100
AcDbArc
 50
180.0
 51
270.0
  0
CIRCLE
  5
15E
330
2
100
AcDbEntity
  8
0
100
AcDbCircle
 10
433.5000000905875
 20
75.00000035526261
 30
0.0
 40
5.999999704407173
  0
CIRCLE
  5
15F
330
2
100
AcDbEntity
  8
0
100
AcDbCircle
 10
433.5000001927237
 20
75.00000005966978
 30
0.0
 40
9.5
  0
LINE
  5
160
330
2
100
AcDbEntity
  8
0
 48
10.0
100
AcDbLine
 10
433.5000032196136
 20
55.00345271632206
 30
0.0
 11
422.0000005613261
 21
55.00345271632206
 31
0.0
  0
LINE
  5
161
330
2
100
AcDbEntity
  8
0
100
AcDbLine
 10
318.4999999319091
 20
90.00000034390883
 30
0.0
 11
318.4999999319091
 21
102.0000003439088
 31
0.0
  0
LINE
  5
162
330
2
100
AcDbEntity
  8
0
100
AcDbLine
 10
330.4999999319091
 20
80.00000034390883
 30
0.0
 11
330.4999999319091
 21
70.00000034390883
 31
0.0
  0
LINE
  5
163
330
2
100
AcDbEntity
  8
0
100
AcDbLine
 10
315.9999999319091
 20
81.0000003439088
 30
0.0
 11
315.9999999319091
 21
69.00000034390882
 31
0.0
  0
LINE
  5
164
330
2
100
AcDbEntity
  8
0
100
AcDbLine
 10
330.4999999319091
 20
70.00000034390883
 30
0.0
 11
315.9999999319091
 21
69.00000034390882
 31
0.0
  0
LINE
  5
165
330
2
100
AcDbEntity
  8
0
100
AcDbLine
 10
330.4999999319091
 20
80.00000034390883
 30
0.0
 11
315.9999999319091
 21
81.0000003439088
 31
0.0
  0
LINE
  5
166
330
2
100
AcDbEntity
  8
0
100
AcDbLine
 10
464.499999931909
 20
161.0000003439088
 30
0.0
 11
478.499999931909
 21
161.0000003439088
 31
0.0
  0
ARC
  5
167
330
2
100
AcDbEntity
  8
0
100
AcDbCircle
 10
478.499999931909
 20
162.0000003439088
 30
0.0
 40
1.0
100
AcDbArc
 50
270.0
 51
0.0
  0
LINE
  5
168
330
2
100
AcDbEntity
  8
0
100
AcDbLine
 10
479.4999999319091
 20
162.0000003439088
 30
0.0
 11
479.4999999319091
 21
173.0000003439088
 31
0.0
  0
ARC
  5
169
330
2
100
AcDbEntity
  8
0
100
AcDbCircle
 10
478.499999931909
 20
173.0000003439088
 30
0.0
 40
1.0
100
AcDbArc
 50
0.0
 51
90.0
  0
LINE
  5
16A
330
2
100
AcDbEntity
  8
0
100
AcDbLine
 10
478.499999931909
 20
174.0000003439088
 30
0.0
 11
464.499999931909
 21
174.0000003439088
 31
0.0
  0
ARC
  5
16B
330
2
100
AcDbEntity
  8
0
100
AcDbCircle
 10
464.499999931909
 20
173.0000003439088
 30
0.0
 40
1.0
100
AcDbArc
 50
90.0
 51
180.0
  0
LINE
  5
16C
330
2
100
AcDbEntity
  8
0
100
AcDbLine
 10
463.4999999319091
 20
173.0000003439088
 30
0.0
 11
463.4999999319091
 21
162.0000003439088
 31
0.0
  0
ARC
  5
16D
330
2
100
AcDbEntity
  8
0
100
AcDbCircle
 10
464.499999931909
 20
162.0000003439088
 30
0.0
 40
1.0
100
AcDbArc
 50
180.0
 51
270.0
  0
LINE
  5
16E
330
2
100
AcDbEntity
  8
0
100
AcDbLine
 10
463.4999999319091
 20
169.5000003439088
 30
0.0
 11
479.4999999319091
 21
169.5000003439088
 31
0.0
  0
LINE
  5
16F
330
2
100
AcDbEntity
  8
0
100
AcDbLine
 10
-94.49999993190909
 20
46.49999965609118
 30
0.0
 11
-24.49999993190909
 21
46.49999965609118
 31
0.0
  0
LINE
  5
170
330
2
100
AcDbEntity
  8
0
100
AcDbLine
 10
338.5000003888956
 20
151.0000003381622
 30
0.0
 11
338.5000003888956
 21
129.0000003381622
 31
0.0
  0
LINE
  5
171
330
2
100
AcDbEntity
  8
0
100
AcDbLine
 10
337.5000003888956
 20
152.0000003381622
 30
0.0
 11
337.5000003888956
 21
128.0000003381622
 31
0.0
  0
LINE
  5
172
330
2
100
AcDbEntity
  8
0
100
AcDbLine
 10
317.4999999319092
 20
152.0000003439088
 30
0.0
 11
317.4999999319092
 21
128.0000003439088
 31
0.0
  0
LINE
  5
173
330
2
100
AcDbEntity
  8
0
100
AcDbLine
 10
317.4999999319092
 20
128.0000003439088
 30
0.0
 11
337.4999999319091
 21
128.0000003439088
 31
0.0
  0
LINE
  5
174
330
2
100
AcDbEntity
  8
0
100
AcDbLine
 10
338.5000003888956
 20
129.0000003381622
 30
0.0
 11
337.5000003888956
 21
128.0000003381622
 31
0.0
  0
LINE
  5
175
330
2
100
AcDbEntity
  8
0
100
AcDbLine
 10
317.4999999319092
 20
152.0000003439088
 30
0.0
 11
337.4999999319091
 21
152.0000003439088
 31
0.0
  0
LINE
  5
176
330
2
100
AcDbEntity
  8
0
100
AcDbLine
 10
337.5000003888956
 20
152.0000003381622
 30
0.0
 11
338.5000003888956
 21
151.0000003381622
 31
0.0
  0
LINE
  5
177
330
2
100
AcDbEntity
  8
0
100
AcDbLine
 10
-96.99999993190909
 20
53.49999965609118
 30
0.0
 11
-94.49999993190909
 21
46.49999965609118
 31
0.0
  0
LINE
  5
178
330
2
100
AcDbEntity
  8
0
100
AcDbLine
 10
-96.99999993190909
 20
53.49999965609118
 30
0.0
 11
-96.99999993190909
 21
54.99999965609117
 31
0.0
  0
LINE
  5
179
330
2
100
AcDbEntity
  8
0
100
AcDbLine
 10
-24.49999993190909
 20
46.49999965609118
 30
0.0
 11
-21.99999993190909
 21
53.49999965609118
 31
0.0
  0
LINE
  5
17A
330
2
100
AcDbEntity
  8
0
100
AcDbLine
 10
-21.99999993190909
 20
53.49999965609118
 30
0.0
 11
-21.99999993190909
 21
54.99999965609117
 31
0.0
  0
CIRCLE
  5
17B
330
2
100
AcDbEntity
  8
0
100
AcDbCircle
 10
513.5000002948599
 20
96.00000035526264
 30
0.0
 40
3.999999772595645
  0
CIRCLE
  5
17C
330
2
100
AcDbEntity
  8
0
100
AcDbCircle
 10
513.5000002948599
 20
96.00000035526264
 30
0.0
 40
4.999999704407174
  0
CIRCLE
  5
17D
330
2
100
AcDbEntity
  8
0
100
AcDbCircle
 10
513.5000001927237
 20
96.00000005966981
 30
0.0
 40
6.324555320336759
  0
CIRCLE
  5
17E
330
2
100
AcDbEntity
  8
0
100
AcDbCircle
 10
513.5000002948599
 20
96.00000035526264
 30
0.0
 40
6.999999704407173
  0
LINE
  5
17F
330
2
100
AcDbEntity
  8
0
100
AcDbLine
 10
452.5000001927237
 20
92.0000000596698
 30
0.0
 11
490.5000001927237
 21
92.0000000596698
 31
0.0
  0
ARC
  5
180
330
2
100
AcDbEntity
  8
0
100
AcDbCircle
 10
490.5000001927237
 20
93.00000005966978
 30
0.0
 40
1.0
100
AcDbArc
 50
270.0
 51
0.0
  0
LINE
  5
181
330
2
100
AcDbEntity
  8
0
100
AcDbLine
 10
491.5000001927237
 20
93.00000005966978
 30
0.0
 11
491.5000001927237
 21
115.0000000596698
 31
0.0
  0
ARC
  5
182
330
2
100
AcDbEntity
  8
0
100
AcDbCircle
 10
490.5000001927237
 20
115.0000000596698
 30
0.0
 40
1.0
100
AcDbArc
 50
0.0
 51
90.0
  0
LINE
  5
183
330
2
100
AcDbEntity
  8
0
100
AcDbLine
 10
490.5000001927237
 20
116.0000000596698
 30
0.0
 11
452.5000001927237
 21
116.0000000596698
 31
0.0
  0
ARC
  5
184
330
2
100
AcDbEntity
  8
0
100
AcDbCircle
 10
452.5000001927237
 20
115.0000000596698
 30
0.0
 40
1.0
100
AcDbArc
 50
90.0
 51
180.0
  0
LINE
  5
185
330
2
100
AcDbEntity
  8
0
100
AcDbLine
 10
451.5000001927236
 20
115.0000000596698
 30
0.0
 11
451.5000001927236
 21
93.00000005966978
 31
0.0
  0
ARC
  5
186
330
2
100
AcDbEntity
  8
0
100
AcDbCircle
 10
452.5000001927237
 20
93.00000005966978
 30
0.0
 40
1.0
100
AcDbArc
 50
180.0
 51
270.0
  0
CIRCLE
  5
187
330
2
100
AcDbEntity
  8
0
100
AcDbCircle
 10
513.5000000905875
 20
71.00000035526261
 30
0.0
 40
4.999999704407174
  0
CIRCLE
  5
188
330
2
100
AcDbEntity
  8
0
100
AcDbCircle
 10
513.5000000905875
 20
71.00000035526261
 30
0.0
 40
3.999999772595632
  0
CIRCLE
  5
189
330
2
100
AcDbEntity
  8
0
100
AcDbCircle
 10
513.5000001927237
 20
71.0000000596698
 30
0.0
 40
6.324555320336759
  0
CIRCLE
  5
18A
330
2
100
AcDbEntity
  8
0
100
AcDbCircle
 10
513.5000000905875
 20
71.00000035526261
 30
0.0
 40
6.999999704407173
  0
LINE
  5
18B
330
2
100
AcDbEntity
  8
0
 48
10.0
100
AcDbLine
 10
521.000000561295
 20
55.00345271632206
 30
0.0
 11
509.5000032196131
 21
55.00345271632206
 31
0.0
  0
LINE
  5
18C
330
2
100
AcDbEntity
  8
0
100
AcDbLine
 10
436.5000001927237
 20
46.50000005966979
 30
0.0
 11
506.5000001927237
 21
46.50000005966979
 31
0.0
  0
LINE
  5
18D
330
2
100
AcDbEntity
  8
0
100
AcDbLine
 10
434.0000001927236
 20
53.50000005966979
 30
0.0
 11
436.5000001927237
 21
46.50000005966979
 31
0.0
  0
LINE
  5
18E
330
2
100
AcDbEntity
  8
0
100
AcDbLine
 10
433.9999999319091
 20
53.50000034390882
 30
0.0
 11
433.9999999319091
 21
55.00000034390883
 31
0.0
  0
CIRCLE
  5
18F
330
2
100
AcDbEntity
  8
0
100
AcDbCircle
 10
456.5000001927237
 20
62.00000005966979
 30
0.0
 40
3.0
  0
CIRCLE
  5
190
330
2
100
AcDbEntity
  8
0
100
AcDbCircle
 10
456.5000001927237
 20
62.00000005966979
 30
0.0
 40
2.500000068188469
  0
CIRCLE
  5
191
330
2
100
AcDbEntity
  8
0
100
AcDbCircle
 10
433.5000000905875
 20
75.00000035526261
 30
0.0
 40
4.999999704407174
  0
CIRCLE
  5
192
330
2
100
AcDbEntity
  8
0
100
AcDbCircle
 10
463.5000002948599
 20
75.00000035526261
 30
0.0
 40
6.999999704407173
  0
CIRCLE
  5
193
330
2
100
AcDbEntity
  8
0
  6
HIDDEN2
100
AcDbCircle
 10
463.5000002948599
 20
75.00000035526261
 30
0.0
 40
2.999999704407174
  0
CIRCLE
  5
195
330
2
100
AcDbEntity
  8
0
100
AcDbCircle
 10
486.5000001927237
 20
62.00000005966979
 30
0.0
 40
3.0
  0
CIRCLE
  5
196
330
2
100
AcDbEntity
  8
0
100
AcDbCircle
 10
486.5000001927237
 20
62.00000005966979
 30
0.0
 40
2.500000068188469
  0
LINE
  5
197
330
2
100
AcDbEntity
  8
0
100
AcDbLine
 10
506.5000001927237
 20
46.50000005966979
 30
0.0
 11
509.0000001927236
 21
53.50000005966979
 31
0.0
  0
LINE
  5
198
330
2
100
AcDbEntity
  8
0
100
AcDbLine
 10
508.9999999319091
 20
53.50000034390882
 30
0.0
 11
508.9999999319091
 21
55.00000034390883
 31
0.0
  0
CIRCLE
  5
199
330
2
100
AcDbEntity
  8
0
100
AcDbCircle
 10
501.5000001927236
 20
75.00000005966978
 30
0.0
 40
2.0
  0
LINE
  5
19A
330
2
100
AcDbEntity
  8
0
100
AcDbLine
 10
460.0000001927236
 20
127.0000000596698
 30
0.0
 11
483.0000001927237
 21
127.0000000596698
 31
0.0
  0
LINE
  5
19B
330
2
100
AcDbEntity
  8
0
100
AcDbLine
 10
483.0000001927237
 20
127.0000000596698
 30
0.0
 11
484.5000001927236
 21
128.5000000596698
 31
0.0
  0
LINE
  5
19C
330
2
100
AcDbEntity
  8
0
100
AcDbLine
 10
484.5000001927236
 20
128.5000000596698
 30
0.0
 11
484.5000001927236
 21
151.5000000596698
 31
0.0
  0
LINE
  5
19D
330
2
100
AcDbEntity
  8
0
100
AcDbLine
 10
484.5000001927236
 20
151.5000000596698
 30
0.0
 11
483.0000001927237
 21
153.0000000596698
 31
0.0
  0
LINE
  5
19E
330
2
100
AcDbEntity
  8
0
100
AcDbLine
 10
483.0000001927237
 20
153.0000000596698
 30
0.0
 11
460.0000001927236
 21
153.0000000596698
 31
0.0
  0
LINE
  5
19F
330
2
100
AcDbEntity
  8
0
100
AcDbLine
 10
460.0000001927236
 20
153.0000000596698
 30
0.0
 11
458.5000001927237
 21
151.5000000596698
 31
0.0
  0
LINE
  5
1A0
330
2
100
AcDbEntity
  8
0
100
AcDbLine
 10
458.5000001927237
 20
151.5000000596698
 30
0.0
 11
458.5000001927237
 21
128.5000000596698
 31
0.0
  0
LINE
  5
1A1
330
2
100
AcDbEntity
  8
0
100
AcDbLine
 10
458.5000001927237
 20
128.5000000596698
 30
0.0
 11
460.0000001927236
 21
127.0000000596698
 31
0.0
  0
CIRCLE
  5
1A2
330
2
100
AcDbEntity
  8
0
100
AcDbCircle
 10
471.5000000905875
 20
140.0000003552626
 30
0.0
 40
11.49999970440717
  0
CIRCLE
  5
1A3
330
2
100
AcDbEntity
  8
0
100
AcDbCircle
 10
471.5000000905875
 20
140.0000003552626
 30
0.0
 40
12.49999970440717
  0
CIRCLE
  5
1A4
330
2
100
AcDbEntity
  8
0
100
AcDbCircle
 10
471.5000000905875
 20
140.0000003552626
 30
0.0
 40
4.499999772595631
  0
CIRCLE
  5
1A5
330
2
100
AcDbEntity
  8
0
100
AcDbCircle
 10
471.5000000905875
 20
140.0000003552626
 30
0.0
 40
3.999999772595632
  0
CIRCLE
  5
1A6
330
2
100
AcDbEntity
  8
0
100
AcDbCircle
 10
461.0000001927237
 20
129.5000000596698
 30
0.0
 40
2.0
  0
CIRCLE
  5
1A7
330
2
100
AcDbEntity
  8
0
100
AcDbCircle
 10
482.0000001927237
 20
129.5000000596698
 30
0.0
 40
2.0
  0
CIRCLE
  5
1A8
330
2
100
AcDbEntity
  8
0
100
AcDbCircle
 10
461.0000001927237
 20
150.5000000596698
 30
0.0
 40
2.0
  0
CIRCLE
  5
1A9
330
2
100
AcDbEntity
  8
0
100
AcDbCircle
 10
482.0000001927237
 20
150.5000000596698
 30
0.0
 40
2.0
  0
CIRCLE
  5
1AA
330
2
100
AcDbEntity
  8
0
100
AcDbCircle
 10
-59.49999993190909
 20
107.9999996560911
 30
0.0
 40
30.5
  0
CIRCLE
  5
1AB
330
2
100
AcDbEntity
  8
0
100
AcDbCircle
 10
-59.49999993190909
 20
107.9999996560911
 30
0.0
 40
31.0
  0
CIRCLE
  5
1AC
330
2
100
AcDbEntity
  8
0
100
AcDbCircle
 10
-59.49999993190909
 20
107.9999996560911
 30
0.0
 40
21.0
  0
CIRCLE
  5
1AD
330
2
100
AcDbEntity
  8
0
100
AcDbCircle
 10
-59.49999993190909
 20
107.9999996560911
 30
0.0
 40
23.0
  0
CIRCLE
  5
1AE
330
2
100
AcDbEntity
  8
0
100
AcDbCircle
 10
-59.49999993190909
 20
107.9999996560911
 30
0.0
 40
29.0
  0
CIRCLE
  5
1AF
330
2
100
AcDbEntity
  8
0
100
AcDbCircle
 10
-59.49999993190909
 20
107.9999996560911
 30
0.0
 40
30.0
  0
LINE
  5
1B0
330
2
100
AcDbEntity
  8
0
100
AcDbLine
 10
317.4999999319092
 20
294.0000003439088
 30
0.0
 11
317.4999999319092
 21
270.0000003439088
 31
0.0
  0
LINE
  5
1B1
330
2
100
AcDbEntity
  8
0
100
AcDbLine
 10
338.5000003888956
 20
293.0000003381622
 30
0.0
 11
338.5000003888956
 21
271.0000003381622
 31
0.0
  0
LINE
  5
1B2
330
2
100
AcDbEntity
  8
0
100
AcDbLine
 10
337.5000003888956
 20
294.0000003381622
 30
0.0
 11
337.5000003888956
 21
270.0000003381622
 31
0.0
  0
LINE
  5
1B3
330
2
100
AcDbEntity
  8
0
100
AcDbLine
 10
315.9999999319091
 20
250.0000003439088
 30
0.0
 11
315.9999999319091
 21
238.0000003439088
 31
0.0
  0
LINE
  5
1B4
330
2
100
AcDbEntity
  8
0
100
AcDbLine
 10
330.4999999319091
 20
249.0000003439088
 30
0.0
 11
315.9999999319091
 21
250.0000003439088
 31
0.0
  0
LINE
  5
1B5
330
2
100
AcDbEntity
  8
0
100
AcDbLine
 10
330.4999999319091
 20
239.0000003439088
 30
0.0
 11
315.9999999319091
 21
238.0000003439088
 31
0.0
  0
LINE
  5
1B6
330
2
100
AcDbEntity
  8
0
100
AcDbLine
 10
330.4999999319091
 20
249.0000003439088
 30
0.0
 11
330.4999999319091
 21
239.0000003439088
 31
0.0
  0
LINE
  5
1B7
330
2
100
AcDbEntity
  8
0
100
AcDbLine
 10
317.4999999319092
 20
270.0000003439088
 30
0.0
 11
337.4999999319091
 21
270.0000003439088
 31
0.0
  0
LINE
  5
1B8
330
2
100
AcDbEntity
  8
0
100
AcDbLine
 10
338.5000003888956
 20
271.0000003381622
 30
0.0
 11
337.5000003888956
 21
270.0000003381622
 31
0.0
  0
LINE
  5
1B9
330
2
100
AcDbEntity
  8
0
100
AcDbLine
 10
317.4999999319092
 20
294.0000003439088
 30
0.0
 11
337.4999999319091
 21
294.0000003439088
 31
0.0
  0
LINE
  5
1BA
330
2
100
AcDbEntity
  8
0
100
AcDbLine
 10
337.5000003888956
 20
294.0000003381622
 30
0.0
 11
338.5000003888956
 21
293.0000003381622
 31
0.0
  0
LINE
  5
1BB
330
2
100
AcDbEntity
  8
0
100
AcDbLine
 10
318.4999999319091
 20
318.0000003439088
 30
0.0
 11
318.4999999319091
 21
330.0000003439088
 31
0.0
  0
CIRCLE
  5
1BC
330
2
100
AcDbEntity
  8
0
 48
10.0
100
AcDbCircle
 10
-110.9999942467312
 20
155.0034523127434
 30
0.0
 40
3.996547343351786
  0
CIRCLE
  5
1BD
330
2
100
AcDbEntity
  8
0
 48
10.0
100
AcDbCircle
 10
-7.99999956330805
 20
155.0034523127434
 30
0.0
 40
3.996547343347758
  0
CIRCLE
  5
1BE
330
2
100
AcDbEntity
  8
0
100
AcDbCircle
 10
505.4999999245315
 20
140.0000001278582
 30
0.0
 40
9.0
  0
CIRCLE
  5
1BF
330
2
100
AcDbEntity
  8
0
100
AcDbCircle
 10
505.4999999245315
 20
140.0000001278582
 30
0.0
 40
4.0
  0
LINE
  5
1C0
330
2
100
AcDbEntity
  8
0
100
AcDbLine
 10
-67.49999993190908
 20
169.4999996560911
 30
0.0
 11
-51.4999999319091
 21
169.4999996560911
 31
0.0
  0
LINE
  5
1C1
330
2
100
AcDbEntity
  8
0
100
AcDbLine
 10
-66.49999993190909
 20
160.9999996560912
 30
0.0
 11
-52.49999993190908
 21
160.9999996560912
 31
0.0
  0
ARC
  5
1C2
330
2
100
AcDbEntity
  8
0
100
AcDbCircle
 10
-52.49999993190908
 20
161.9999996560911
 30
0.0
 40
1.0
100
AcDbArc
 50
270.0
 51
0.0
  0
LINE
  5
1C3
330
2
100
AcDbEntity
  8
0
100
AcDbLine
 10
-51.4999999319091
 20
161.9999996560911
 30
0.0
 11
-51.4999999319091
 21
172.9999996560912
 31
0.0
  0
ARC
  5
1C4
330
2
100
AcDbEntity
  8
0
100
AcDbCircle
 10
-52.49999993190908
 20
172.9999996560912
 30
0.0
 40
1.0
100
AcDbArc
 50
0.0
 51
90.0
  0
LINE
  5
1C5
330
2
100
AcDbEntity
  8
0
100
AcDbLine
 10
-52.49999993190908
 20
173.9999996560912
 30
0.0
 11
-66.49999993190909
 21
173.9999996560912
 31
0.0
  0
ARC
  5
1C6
330
2
100
AcDbEntity
  8
0
100
AcDbCircle
 10
-66.49999993190909
 20
172.9999996560912
 30
0.0
 40
1.0
100
AcDbArc
 50
90.0
 51
180.0
  0
LINE
  5
1C7
330
2
100
AcDbEntity
  8
0
100
AcDbLine
 10
-67.49999993190908
 20
172.9999996560912
 30
0.0
 11
-67.49999993190908
 21
161.9999996560911
 31
0.0
  0
ARC
  5
1C8
330
2
100
AcDbEntity
  8
0
100
AcDbCircle
 10
-66.49999993190909
 20
161.9999996560911
 30
0.0
 40
1.0
100
AcDbArc
 50
180.0
 51
270.0
  0
LINE
  5
1C9
330
2
100
AcDbEntity
  8
0
100
AcDbLine
 10
-112.1547004776659
 20
62.9999994400406
 30
0.0
 11
-113.3094010160451
 21
60.9999994400406
 31
0.0
  0
LINE
  5
1CA
330
2
100
AcDbEntity
  8
0
100
AcDbLine
 10
-113.3094010160451
 20
60.9999994400406
 30
0.0
 11
-112.1547004776659
 21
58.9999994400406
 31
0.0
  0
LINE
  5
1CB
330
2
100
AcDbEntity
  8
0
100
AcDbLine
 10
-112.1547004776659
 20
58.9999994400406
 30
0.0
 11
-109.8452994009074
 21
58.9999994400406
 31
0.0
  0
LINE
  5
1CC
330
2
100
AcDbEntity
  8
0
100
AcDbLine
 10
-109.8452994009074
 20
58.9999994400406
 30
0.0
 11
-108.6905988625282
 21
60.9999994400406
 31
0.0
  0
LINE
  5
1CD
330
2
100
AcDbEntity
  8
0
100
AcDbLine
 10
-108.6905988625282
 20
60.9999994400406
 30
0.0
 11
-109.8452994009074
 21
62.9999994400406
 31
0.0
  0
LINE
  5
1CE
330
2
100
AcDbEntity
  8
0
100
AcDbLine
 10
-109.8452994009074
 20
62.9999994400406
 30
0.0
 11
-112.1547004776659
 21
62.9999994400406
 31
0.0
  0
LINE
  5
1CF
330
2
100
AcDbEntity
  8
0
100
AcDbLine
 10
-9.154700477665985
 20
62.9999994400406
 30
0.0
 11
-10.30940101604517
 21
60.9999994400406
 31
0.0
  0
LINE
  5
1D0
330
2
100
AcDbEntity
  8
0
100
AcDbLine
 10
-10.30940101604517
 20
60.9999994400406
 30
0.0
 11
-9.154700477665985
 21
58.9999994400406
 31
0.0
  0
LINE
  5
1D1
330
2
100
AcDbEntity
  8
0
100
AcDbLine
 10
-9.154700477665985
 20
58.9999994400406
 30
0.0
 11
-6.845299400907379
 21
58.9999994400406
 31
0.0
  0
LINE
  5
1D2
330
2
100
AcDbEntity
  8
0
100
AcDbLine
 10
-6.845299400907379
 20
58.9999994400406
 30
0.0
 11
-5.69059886252819
 21
60.9999994400406
 31
0.0
  0
LINE
  5
1D3
330
2
100
AcDbEntity
  8
0
100
AcDbLine
 10
-5.69059886252819
 20
60.9999994400406
 30
0.0
 11
-6.845299400907379
 21
62.9999994400406
 31
0.0
  0
LINE
  5
1D4
330
2
100
AcDbEntity
  8
0
100
AcDbLine
 10
-6.845299400907379
 20
62.9999994400406
 30
0.0
 11
-9.154700477665985
 21
62.9999994400406
 31
0.0
  0
CIRCLE
  5
1D5
330
2
100
AcDbEntity
  8
0
 48
10.0
370
    15
100
AcDbCircle
 10
-7.999994246730808
 20
61.00345231274342
 30
0.0
 40
3.496547127301767
  0
LINE
  5
1D6
330
2
100
AcDbEntity
  8
0
100
AcDbLine
 10
-9.154700477665985
 20
156.9999994400406
 30
0.0
 11
-10.30940101604517
 21
154.9999994400406
 31
0.0
  0
LINE
  5
1D7
330
2
100
AcDbEntity
  8
0
100
AcDbLine
 10
-10.30940101604517
 20
154.9999994400406
 30
0.0
 11
-9.154700477665985
 21
152.9999994400406
 31
0.0
  0
LINE
  5
1D8
330
2
100
AcDbEntity
  8
0
100
AcDbLine
 10
-9.154700477665985
 20
152.9999994400406
 30
0.0
 11
-6.845299400907379
 21
152.9999994400406
 31
0.0
  0
LINE
  5
1D9
330
2
100
AcDbEntity
  8
0
100
AcDbLine
 10
-6.845299400907379
 20
152.9999994400406
 30
0.0
 11
-5.69059886252819
 21
154.9999994400406
 31
0.0
  0
LINE
  5
1DA
330
2
100
AcDbEntity
  8
0
100
AcDbLine
 10
-5.69059886252819
 20
154.9999994400406
 30
0.0
 11
-6.845299400907379
 21
156.9999994400406
 31
0.0
  0
LINE
  5
1DB
330
2
100
AcDbEntity
  8
0
100
AcDbLine
 10
-6.845299400907379
 20
156.9999994400406
 30
0.0
 11
-9.154700477665985
 21
156.9999994400406
 31
0.0
  0
CIRCLE
  5
1DC
330
2
100
AcDbEntity
  8
0
 48
10.0
370
    15
100
AcDbCircle
 10
-7.999994246730808
 20
155.0034523127434
 30
0.0
 40
3.496547127301767
  0
LINE
  5
1DD
330
2
100
AcDbEntity
  8
0
100
AcDbLine
 10
-112.1547004776659
 20
156.9999994400406
 30
0.0
 11
-113.3094010160451
 21
154.9999994400406
 31
0.0
  0
LINE
  5
1DE
330
2
100
AcDbEntity
  8
0
100
AcDbLine
 10
-113.3094010160451
 20
154.9999994400406
 30
0.0
 11
-112.1547004776659
 21
152.9999994400406
 31
0.0
  0
LINE
  5
1DF
330
2
100
AcDbEntity
  8
0
100
AcDbLine
 10
-112.1547004776659
 20
152.9999994400406
 30
0.0
 11
-109.8452994009074
 21
152.9999994400406
 31
0.0
  0
LINE
  5
1E0
330
2
100
AcDbEntity
  8
0
100
AcDbLine
 10
-109.8452994009074
 20
152.9999994400406
 30
0.0
 11
-108.6905988625282
 21
154.9999994400406
 31
0.0
  0
LINE
  5
1E1
330
2
100
AcDbEntity
  8
0
100
AcDbLine
 10
-108.6905988625282
 20
154.9999994400406
 30
0.0
 11
-109.8452994009074
 21
156.9999994400406
 31
0.0
  0
LINE
  5
1E2
330
2
100
AcDbEntity
  8
0
100
AcDbLine
 10
-109.8452994009074
 20
156.9999994400406
 30
0.0
 11
-112.1547004776659
 21
156.9999994400406
 31
0.0
  0
CIRCLE
  5
1E3
330
2
100
AcDbEntity
  8
0
 48
10.0
370
    15
100
AcDbCircle
 10
-110.9999942467308
 20
155.0034523127434
 30
0.0
 40
3.496547127301767
  0
CIRCLE
  5
1E4
330
2
100
AcDbEntity
  8
0
 48
10.0
370
    15
100
AcDbCircle
 10
420.0000056170873
 20
155.0034530005611
 30
0.0
 40
3.496547127301767
  0
LINE
  5
1E5
330
2
100
AcDbEntity
  8
0
100
AcDbLine
 10
418.8452993861521
 20
157.0000001278582
 30
0.0
 11
417.690598847773
 21
155.0000001278582
 31
0.0
  0
LINE
  5
1E6
330
2
100
AcDbEntity
  8
0
100
AcDbLine
 10
417.690598847773
 20
155.0000001278582
 30
0.0
 11
418.8452993861521
 21
153.0000001278582
 31
0.0
  0
LINE
  5
1E7
330
2
100
AcDbEntity
  8
0
100
AcDbLine
 10
418.8452993861521
 20
153.0000001278582
 30
0.0
 11
421.1547004629107
 21
153.0000001278582
 31
0.0
  0
LINE
  5
1E8
330
2
100
AcDbEntity
  8
0
100
AcDbLine
 10
421.1547004629107
 20
153.0000001278582
 30
0.0
 11
422.3094010012899
 21
155.0000001278582
 31
0.0
  0
LINE
  5
1E9
330
2
100
AcDbEntity
  8
0
100
AcDbLine
 10
422.3094010012899
 20
155.0000001278582
 30
0.0
 11
421.1547004629107
 21
157.0000001278582
 31
0.0
  0
LINE
  5
1EA
330
2
100
AcDbEntity
  8
0
100
AcDbLine
 10
421.1547004629107
 20
157.0000001278582
 30
0.0
 11
418.8452993861521
 21
157.0000001278582
 31
0.0
  0
CIRCLE
  5
1EB
330
2
100
AcDbEntity
  8
0
 48
10.0
100
AcDbCircle
 10
420.0000056170873
 20
155.0034530005611
 30
0.0
 40
4.003452656656321
  0
CIRCLE
  5
1EC
330
2
100
AcDbEntity
  8
0
 48
10.0
370
    15
100
AcDbCircle
 10
523.0000056170873
 20
155.0034530005611
 30
0.0
 40
3.496547127301767
  0
LINE
  5
1ED
330
2
100
AcDbEntity
  8
0
100
AcDbLine
 10
521.8452993861522
 20
157.0000001278582
 30
0.0
 11
520.6905988477728
 21
155.0000001278582
 31
0.0
  0
LINE
  5
1EE
330
2
100
AcDbEntity
  8
0
100
AcDbLine
 10
520.6905988477728
 20
155.0000001278582
 30
0.0
 11
521.8452993861522
 21
153.0000001278582
 31
0.0
  0
LINE
  5
1EF
330
2
100
AcDbEntity
  8
0
100
AcDbLine
 10
521.8452993861522
 20
153.0000001278582
 30
0.0
 11
524.1547004629108
 21
153.0000001278582
 31
0.0
  0
LINE
  5
1F0
330
2
100
AcDbEntity
  8
0
100
AcDbLine
 10
524.1547004629108
 20
153.0000001278582
 30
0.0
 11
525.3094010012898
 21
155.0000001278582
 31
0.0
  0
LINE
  5
1F1
330
2
100
AcDbEntity
  8
0
100
AcDbLine
 10
525.3094010012898
 20
155.0000001278582
 30
0.0
 11
524.1547004629108
 21
157.0000001278582
 31
0.0
  0
LINE
  5
1F2
330
2
100
AcDbEntity
  8
0
100
AcDbLine
 10
524.1547004629108
 20
157.0000001278582
 30
0.0
 11
521.8452993861522
 21
157.0000001278582
 31
0.0
  0
CIRCLE
  5
1F3
330
2
100
AcDbEntity
  8
0
 48
10.0
100
AcDbCircle
 10
523.0000003005101
 20
155.0034530005611
 30
0.0
 40
4.003452656652301
  0
CIRCLE
  5
1F4
330
2
100
AcDbEntity
  8
0
 48
10.0
370
    15
100
AcDbCircle
 10
420.0000056170873
 20
61.00345300056112
 30
0.0
 40
3.496547127301767
  0
LINE
  5
1F5
330
2
100
AcDbEntity
  8
0
100
AcDbLine
 10
418.8452993861521
 20
63.00000012785823
 30
0.0
 11
417.690598847773
 21
61.00000012785823
 31
0.0
  0
LINE
  5
1F6
330
2
100
AcDbEntity
  8
0
100
AcDbLine
 10
417.690598847773
 20
61.00000012785823
 30
0.0
 11
418.8452993861521
 21
59.00000012785824
 31
0.0
  0
LINE
  5
1F7
330
2
100
AcDbEntity
  8
0
100
AcDbLine
 10
418.8452993861521
 20
59.00000012785824
 30
0.0
 11
421.1547004629107
 21
59.00000012785824
 31
0.0
  0
LINE
  5
1F8
330
2
100
AcDbEntity
  8
0
100
AcDbLine
 10
421.1547004629107
 20
59.00000012785824
 30
0.0
 11
422.3094010012899
 21
61.00000012785823
 31
0.0
  0
LINE
  5
1F9
330
2
100
AcDbEntity
  8
0
100
AcDbLine
 10
422.3094010012899
 20
61.00000012785823
 30
0.0
 11
421.1547004629107
 21
63.00000012785823
 31
0.0
  0
LINE
  5
1FA
330
2
100
AcDbEntity
  8
0
100
AcDbLine
 10
421.1547004629107
 20
63.00000012785823
 30
0.0
 11
418.8452993861521
 21
63.00000012785823
 31
0.0
  0
CIRCLE
  5
1FB
330
2
100
AcDbEntity
  8
0
 48
10.0
100
AcDbCircle
 10
420.0000056170873
 20
61.00345300056112
 30
0.0
 40
4.003452656656321
  0
CIRCLE
  5
1FC
330
2
100
AcDbEntity
  8
0
 48
10.0
370
    15
100
AcDbCircle
 10
523.0000056170873
 20
61.00345300056112
 30
0.0
 40
3.496547127301767
  0
LINE
  5
1FD
330
2
100
AcDbEntity
  8
0
100
AcDbLine
 10
521.8452993861522
 20
63.00000012785823
 30
0.0
 11
520.6905988477728
 21
61.00000012785823
 31
0.0
  0
LINE
  5
1FE
330
2
100
AcDbEntity
  8
0
100
AcDbLine
 10
520.6905988477728
 20
61.00000012785823
 30
0.0
 11
521.8452993861522
 21
59.00000012785824
 31
0.0
  0
LINE
  5
1FF
330
2
100
AcDbEntity
  8
0
100
AcDbLine
 10
521.8452993861522
 20
59.00000012785824
 30
0.0
 11
524.1547004629108
 21
59.00000012785824
 31
0.0
  0
LINE
  5
200
330
2
100
AcDbEntity
  8
0
100
AcDbLine
 10
524.1547004629108
 20
59.00000012785824
 30
0.0
 11
525.3094010012898
 21
61.00000012785823
 31
0.0
  0
LINE
  5
201
330
2
100
AcDbEntity
  8
0
100
AcDbLine
 10
525.3094010012898
 20
61.00000012785823
 30
0.0
 11
524.1547004629108
 21
63.00000012785823
 31
0.0
  0
LINE
  5
202
330
2
100
AcDbEntity
  8
0
100
AcDbLine
 10
524.1547004629108
 20
63.00000012785823
 30
0.0
 11
521.8452993861522
 21
63.00000012785823
 31
0.0
  0
CIRCLE
  5
203
330
2
100
AcDbEntity
  8
0
 48
10.0
100
AcDbCircle
 10
523.0000003005101
 20
61.00345300056112
 30
0.0
 40
4.003452656652301
  0
LINE
  5
204
330
2
100
AcDbEntity
  8
0
100
AcDbLine
 10
313.4999999319092
 20
-37.50000103172647
 30
0.0
 11
315.9999999319091
 21
-34.00000103172647
 31
0.0
  0
LINE
  5
205
330
2
100
AcDbEntity
  8
0
100
AcDbLine
 10
315.9999999319091
 20
-22.00000103172647
 30
0.0
 11
313.4999999319092
 21
-18.50000103172646
 31
0.0
  0
LINE
  5
206
330
2
100
AcDbEntity
  8
0
100
AcDbLine
 10
310.4999999319091
 20
-114.0000010317264
 30
0.0
 11
318.4999999319091
 21
-114.0000010317264
 31
0.0
  0
LINE
  5
207
330
2
100
AcDbEntity
  8
0
100
AcDbLine
 10
318.4999999319091
 20
-102.0000010317264
 30
0.0
 11
310.4999999319091
 21
-102.0000010317264
 31
0.0
  0
LINE
  5
208
330
2
100
AcDbEntity
  8
0
100
AcDbLine
 10
313.4999999319092
 20
-56.00000103172646
 30
0.0
 11
317.4999999319092
 21
-56.00000103172646
 31
0.0
  0
LINE
  5
209
330
2
100
AcDbEntity
  8
0
100
AcDbLine
 10
313.4999999319092
 20
-76.00000103172646
 30
0.0
 11
317.4999999319092
 21
-76.00000103172646
 31
0.0
  0
LINE
  5
20A
330
2
100
AcDbEntity
  8
0
100
AcDbLine
 10
302.4999999319092
 20
-123.5000010317264
 30
0.0
 11
302.4999999319092
 21
-8.500001031726469
 31
0.0
  0
LINE
  5
20B
330
2
100
AcDbEntity
  8
0
100
AcDbLine
 10
118.4999999319091
 20
-123.5000010317264
 30
0.0
 11
118.4999999319091
 21
-8.500001031726469
 31
0.0
  0
LINE
  5
20C
330
2
100
AcDbEntity
  8
0
100
AcDbLine
 10
114.4999999319091
 20
-8.500001031726469
 30
0.0
 11
306.4999999319092
 21
-8.500001031726469
 31
0.0
  0
ARC
  5
20D
330
2
100
AcDbEntity
  8
0
100
AcDbCircle
 10
306.4999999319092
 20
-12.50000103172647
 30
0.0
 40
4.0
100
AcDbArc
 50
0.0
 51
90.0
  0
LINE
  5
20E
330
2
100
AcDbEntity
  8
0
100
AcDbLine
 10
310.4999999319091
 20
-12.50000103172647
 30
0.0
 11
310.4999999319091
 21
-119.5000010317264
 31
0.0
  0
ARC
  5
20F
330
2
100
AcDbEntity
  8
0
100
AcDbCircle
 10
306.4999999319092
 20
-119.5000010317264
 30
0.0
 40
4.0
100
AcDbArc
 50
270.0
 51
0.0
  0
LINE
  5
210
330
2
100
AcDbEntity
  8
0
100
AcDbLine
 10
306.4999999319092
 20
-123.5000010317264
 30
0.0
 11
114.4999999319091
 21
-123.5000010317264
 31
0.0
  0
ARC
  5
211
330
2
100
AcDbEntity
  8
0
100
AcDbCircle
 10
114.4999999319091
 20
-119.5000010317264
 30
0.0
 40
4.0
100
AcDbArc
 50
180.0
 51
270.0
  0
LINE
  5
212
330
2
100
AcDbEntity
  8
0
100
AcDbLine
 10
110.4999999319091
 20
-119.5000010317264
 30
0.0
 11
110.4999999319091
 21
-12.50000103172647
 31
0.0
  0
ARC
  5
213
330
2
100
AcDbEntity
  8
0
100
AcDbCircle
 10
114.4999999319091
 20
-12.50000103172647
 30
0.0
 40
4.0
100
AcDbArc
 50
90.0
 51
180.0
  0
LINE
  5
214
330
2
100
AcDbEntity
  8
0
100
AcDbLine
 10
313.4999999319092
 20
-37.50000103172647
 30
0.0
 11
313.4999999319092
 21
-18.50000103172646
 31
0.0
  0
LINE
  5
215
330
2
100
AcDbEntity
  8
0
100
AcDbLine
 10
313.4999999319092
 20
-18.50000103172646
 30
0.0
 11
310.4999999319091
 21
-18.50000103172646
 31
0.0
  0
LINE
  5
216
330
2
100
AcDbEntity
  8
0
100
AcDbLine
 10
302.4999999319092
 20
-28.0
 30
0.0
 11
118.4999999319091
 21
-28.0
 31
0.0
  0
LINE
  5
217
330
2
100
AcDbEntity
  8
0
100
AcDbLine
 10
265.4999999319091
 20
-30.5
 30
0.0
 11
155.4999999319091
 21
-30.50000000000001
 31
0.0
  0
LINE
  5
218
330
2
100
AcDbEntity
  8
0
100
AcDbLine
 10
302.4999999319092
 20
-104.0
 30
0.0
 11
118.4999999319091
 21
-104.0
 31
0.0
  0
LINE
  5
219
330
2
100
AcDbEntity
  8
0
100
AcDbLine
 10
265.499999931909
 20
-101.5
 30
0.0
 11
155.499999931909
 21
-101.5
 31
0.0
  0
LINE
  5
21A
330
2
100
AcDbEntity
  8
0
100
AcDbLine
 10
63.9999999319091
 20
-95.0000010317265
 30
0.0
 11
52.49999993190908
 21
-95.0000010317265
 31
0.0
  0
LINE
  5
21B
330
2
100
AcDbEntity
  8
0
100
AcDbLine
 10
52.49999993190908
 20
-37.00000103172647
 30
0.0
 11
63.9999999319091
 21
-37.00000103172647
 31
0.0
  0
LINE
  5
21C
330
2
100
AcDbEntity
  8
0
100
AcDbLine
 10
52.49999993190908
 20
-95.0000010317265
 30
0.0
 11
52.49999993190908
 21
-37.00000103172647
 31
0.0
  0
LINE
  5
21D
330
2
100
AcDbEntity
  8
0
100
AcDbLine
 10
51.4999999319091
 20
-94.00000103172649
 30
0.0
 11
51.4999999319091
 21
-38.00000103172647
 31
0.0
  0
LINE
  5
21E
330
2
100
AcDbEntity
  8
0
100
AcDbLine
 10
51.4999999319091
 20
-38.00000103172647
 30
0.0
 11
52.49999993190908
 21
-37.00000103172647
 31
0.0
  0
LINE
  5
21F
330
2
100
AcDbEntity
  8
0
100
AcDbLine
 10
52.49999993190908
 20
-95.0000010317265
 30
0.0
 11
51.4999999319091
 21
-94.00000103172649
 31
0.0
  0
LINE
  5
220
330
2
100
AcDbEntity
  8
0
100
AcDbLine
 10
62.49999993190908
 20
-95.0000010317265
 30
0.0
 11
62.49999993190908
 21
-37.00000103172647
 31
0.0
  0
LINE
  5
221
330
2
100
AcDbEntity
  8
0
100
AcDbLine
 10
102.4999999319091
 20
-97.0000010317265
 30
0.0
 11
102.4999999319091
 21
-35.00000103172647
 31
0.0
  0
LINE
  5
222
330
2
100
AcDbEntity
  8
0
100
AcDbLine
 10
102.4999999319091
 20
-40.00000103172647
 30
0.0
 11
62.49999993190908
 21
-40.00000103172647
 31
0.0
  0
LINE
  5
223
330
2
100
AcDbEntity
  8
0
100
AcDbLine
 10
102.4999999319091
 20
-38.75000103172647
 30
0.0
 11
62.49999993190908
 21
-38.75000103172647
 31
0.0
  0
LINE
  5
224
330
2
100
AcDbEntity
  8
0
100
AcDbLine
 10
102.4999999319091
 20
-64.00000103172647
 30
0.0
 11
62.49999993190908
 21
-64.00000103172647
 31
0.0
  0
LINE
  5
225
330
2
100
AcDbEntity
  8
0
100
AcDbLine
 10
102.4999999319091
 20
-56.50000103172646
 30
0.0
 11
62.49999993190908
 21
-56.50000103172646
 31
0.0
  0
LINE
  5
226
330
2
100
AcDbEntity
  8
0
100
AcDbLine
 10
102.4999999319091
 20
-53.25000103172646
 30
0.0
 11
62.49999993190908
 21
-53.25000103172646
 31
0.0
  0
LINE
  5
227
330
2
100
AcDbEntity
  8
0
100
AcDbLine
 10
102.4999999319091
 20
-46.75000103172646
 30
0.0
 11
62.49999993190908
 21
-46.75000103172646
 31
0.0
  0
LINE
  5
228
330
2
100
AcDbEntity
  8
0
100
AcDbLine
 10
102.4999999319091
 20
-44.25000103172646
 30
0.0
 11
62.49999993190908
 21
-44.25000103172646
 31
0.0
  0
LINE
  5
229
330
2
100
AcDbEntity
  8
0
100
AcDbLine
 10
102.4999999319091
 20
-68.00000103172647
 30
0.0
 11
62.49999993190908
 21
-68.00000103172647
 31
0.0
  0
LINE
  5
22A
330
2
100
AcDbEntity
  8
0
100
AcDbLine
 10
63.9999999319091
 20
-37.00000103172647
 30
0.0
 11
100.9999999319091
 21
-37.00000103172647
 31
0.0
  0
LINE
  5
22B
330
2
100
AcDbEntity
  8
0
100
AcDbLine
 10
102.4999999319091
 20
-37.00000103172647
 30
0.0
 11
100.9999999319091
 21
-37.00000103172647
 31
0.0
  0
LINE
  5
22C
330
2
100
AcDbEntity
  8
0
100
AcDbLine
 10
102.4999999319091
 20
-35.00000103172647
 30
0.0
 11
110.4999999319091
 21
-35.00000103172647
 31
0.0
  0
LINE
  5
22D
330
2
100
AcDbEntity
  8
0
100
AcDbLine
 10
102.4999999319091
 20
-93.25000103172646
 30
0.0
 11
62.49999993190908
 21
-93.25000103172646
 31
0.0
  0
LINE
  5
22E
330
2
100
AcDbEntity
  8
0
100
AcDbLine
 10
102.4999999319091
 20
-92.00000103172646
 30
0.0
 11
62.49999993190908
 21
-92.00000103172646
 31
0.0
  0
LINE
  5
22F
330
2
100
AcDbEntity
  8
0
100
AcDbLine
 10
102.4999999319091
 20
-87.75000103172647
 30
0.0
 11
62.49999993190908
 21
-87.75000103172647
 31
0.0
  0
LINE
  5
230
330
2
100
AcDbEntity
  8
0
100
AcDbLine
 10
102.4999999319091
 20
-85.25000103172647
 30
0.0
 11
62.49999993190908
 21
-85.25000103172647
 31
0.0
  0
LINE
  5
231
330
2
100
AcDbEntity
  8
0
100
AcDbLine
 10
102.4999999319091
 20
-78.75000103172647
 30
0.0
 11
62.49999993190908
 21
-78.75000103172647
 31
0.0
  0
LINE
  5
232
330
2
100
AcDbEntity
  8
0
100
AcDbLine
 10
102.4999999319091
 20
-75.50000103172647
 30
0.0
 11
62.49999993190908
 21
-75.50000103172647
 31
0.0
  0
LINE
  5
233
330
2
100
AcDbEntity
  8
0
100
AcDbLine
 10
100.9999999319091
 20
-95.0000010317265
 30
0.0
 11
63.9999999319091
 21
-95.0000010317265
 31
0.0
  0
LINE
  5
234
330
2
100
AcDbEntity
  8
0
100
AcDbLine
 10
102.4999999319091
 20
-95.0000010317265
 30
0.0
 11
100.9999999319091
 21
-95.0000010317265
 31
0.0
  0
LINE
  5
235
330
2
100
AcDbEntity
  8
0
100
AcDbLine
 10
110.4999999319091
 20
-97.0000010317265
 30
0.0
 11
102.4999999319091
 21
-97.0000010317265
 31
0.0
  0
LINE
  5
236
330
2
100
AcDbEntity
  8
0
100
AcDbLine
 10
313.4999999319092
 20
-79.00000103172647
 30
0.0
 11
313.4999999319092
 21
-53.00000103172646
 31
0.0
  0
LINE
  5
237
330
2
100
AcDbEntity
  8
0
100
AcDbLine
 10
310.4999999319091
 20
-37.50000103172647
 30
0.0
 11
313.4999999319092
 21
-37.50000103172647
 31
0.0
  0
LINE
  5
238
330
2
100
AcDbEntity
  8
0
100
AcDbLine
 10
310.4999999319091
 20
-53.00000103172646
 30
0.0
 11
313.4999999319092
 21
-53.00000103172646
 31
0.0
  0
LINE
  5
239
330
2
100
AcDbEntity
  8
0
100
AcDbLine
 10
310.4999999319091
 20
-79.00000103172647
 30
0.0
 11
313.4999999319092
 21
-79.00000103172647
 31
0.0
  0
LINE
  5
23A
330
2
100
AcDbEntity
  8
0
100
AcDbLine
 10
317.4999999319092
 20
-78.00000103172647
 30
0.0
 11
317.4999999319092
 21
-54.00000103172646
 31
0.0
  0
LINE
  5
23B
330
2
100
AcDbEntity
  8
0
100
AcDbLine
 10
338.5000003888956
 20
-77.00000102597981
 30
0.0
 11
338.5000003888956
 21
-55.00000102597983
 31
0.0
  0
LINE
  5
23C
330
2
100
AcDbEntity
  8
0
100
AcDbLine
 10
337.5000003888956
 20
-78.00000102597983
 30
0.0
 11
337.5000003888956
 21
-54.00000102597982
 31
0.0
  0
LINE
  5
23D
330
2
100
AcDbEntity
  8
0
100
AcDbLine
 10
315.9999999319091
 20
-34.00000103172647
 30
0.0
 11
315.9999999319091
 21
-22.00000103172647
 31
0.0
  0
LINE
  5
23E
330
2
100
AcDbEntity
  8
0
100
AcDbLine
 10
330.4999999319091
 20
-33.00000103172647
 30
0.0
 11
315.9999999319091
 21
-34.00000103172647
 31
0.0
  0
LINE
  5
23F
330
2
100
AcDbEntity
  8
0
100
AcDbLine
 10
330.4999999319091
 20
-23.00000103172647
 30
0.0
 11
315.9999999319091
 21
-22.00000103172647
 31
0.0
  0
LINE
  5
240
330
2
100
AcDbEntity
  8
0
100
AcDbLine
 10
330.4999999319091
 20
-33.00000103172647
 30
0.0
 11
330.4999999319091
 21
-23.00000103172647
 31
0.0
  0
LINE
  5
241
330
2
100
AcDbEntity
  8
0
100
AcDbLine
 10
317.4999999319092
 20
-54.00000103172646
 30
0.0
 11
337.4999999319091
 21
-54.00000103172646
 31
0.0
  0
LINE
  5
242
330
2
100
AcDbEntity
  8
0
100
AcDbLine
 10
338.5000003888956
 20
-55.00000102597983
 30
0.0
 11
337.5000003888956
 21
-54.00000102597982
 31
0.0
  0
LINE
  5
243
330
2
100
AcDbEntity
  8
0
100
AcDbLine
 10
317.4999999319092
 20
-78.00000103172647
 30
0.0
 11
337.4999999319091
 21
-78.00000103172647
 31
0.0
  0
LINE
  5
244
330
2
100
AcDbEntity
  8
0
100
AcDbLine
 10
337.5000003888956
 20
-78.00000102597983
 30
0.0
 11
338.5000003888956
 21
-77.00000102597981
 31
0.0
  0
LINE
  5
245
330
2
100
AcDbEntity
  8
0
100
AcDbLine
 10
318.4999999319091
 20
-102.0000010317264
 30
0.0
 11
318.4999999319091
 21
-114.0000010317264
 31
0.0
  0
LINE
  5
246
330
2
100
AcDbEntity
  8
0
100
AcDbLine
 10
152.9999999319091
 20
-28.00000000000001
 30
0.0
 11
152.999999931909
 21
-104.0
 31
0.0
  0
LINE
  5
247
330
2
100
AcDbEntity
  8
0
100
AcDbLine
 10
267.9999999319091
 20
-28.00000000000001
 30
0.0
 11
267.9999999319091
 21
-104.0
 31
0.0
  0
LINE
  5
248
330
2
100
AcDbEntity
  8
0
100
AcDbLine
 10
155.4999999319091
 20
-30.5
 30
0.0
 11
155.499999931909
 21
-101.5
 31
0.0
  0
LINE
  5
249
330
2
100
AcDbEntity
  8
0
100
AcDbLine
 10
265.499999931909
 20
-30.5
 30
0.0
 11
265.499999931909
 21
-101.5
 31
0.0
  0
CIRCLE
  5
24A
330
2
100
AcDbEntity
  8
0
100
AcDbCircle
 10
210.5
 20
-66.0
 30
0.0
 40
3.174999999999998
  0
CIRCLE
  5
24B
330
2
100
AcDbEntity
  8
0
100
AcDbCircle
 10
210.5
 20
-66.0
 30
0.0
 40
2.487999999999999
  0
CIRCLE
  5
24C
330
2
100
AcDbEntity
  8
0
100
AcDbCircle
 10
165.5
 20
-41.0
 30
0.0
 40
2.5
  0
CIRCLE
  5
24D
330
2
100
AcDbEntity
  8
0
100
AcDbCircle
 10
165.5
 20
-41.0
 30
0.0
 40
2.066999999999999
  0
CIRCLE
  5
24E
330
2
100
AcDbEntity
  8
0
100
AcDbCircle
 10
165.5
 20
-91.0
 30
0.0
 40
2.5
  0
CIRCLE
  5
24F
330
2
100
AcDbEntity
  8
0
100
AcDbCircle
 10
165.5
 20
-91.0
 30
0.0
 40
2.066999999999999
  0
CIRCLE
  5
250
330
2
100
AcDbEntity
  8
0
100
AcDbCircle
 10
255.5
 20
-91.0
 30
0.0
 40
2.5
  0
CIRCLE
  5
251
330
2
100
AcDbEntity
  8
0
100
AcDbCircle
 10
255.5
 20
-91.0
 30
0.0
 40
2.066999999999999
  0
CIRCLE
  5
252
330
2
100
AcDbEntity
  8
0
100
AcDbCircle
 10
255.5
 20
-41.0
 30
0.0
 40
2.5
  0
CIRCLE
  5
253
330
2
100
AcDbEntity
  8
0
100
AcDbCircle
 10
255.5
 20
-41.0
 30
0.0
 40
2.066999999999999
  0
ENDSEC
  0
SECTION
  2
OBJECTS
  0
DICTIONARY
  5
9
330
0
100
AcDbDictionary
281
     1
  3
ACAD_COLOR
350
3E
  3
ACAD_GROUP
350
38
  3
ACAD_LAYOUT
350
14
  3
ACAD_MATERIAL
350
B
  3
ACAD_MLINESTYLE
350
39
  3
ACAD_PLOTSETTINGS
350
3A
  3
ACAD_PLOTSTYLENAME
350
8
  3
ACAD_TABLESTYLE
350
3F
  3
ACAD_VISUALSTYLE
350
2D
  3
AcDbVariableDictionary
350
255
  0
DICTIONARY
  5
1D
330
1C
100
AcDbDictionary
280
     1
281
     1
  3
ACAD_LAYERFILTERS
360
1E
  3
ACAD_LAYERSTATES
360
1F
  3
ACLYDICTIONARY
360
20
  0
DICTIONARY
  5
3
330
2
100
AcDbDictionary
280
     1
281
     1
  3
ACAD_SORTENTS
360
254
  0
DICTIONARY
  5
3E
102
{ACAD_REACTORS
330
9
102
}
330
9
100
AcDbDictionary
281
     1
  0
DICTIONARY
  5
38
102
{ACAD_REACTORS
330
9
102
}
330
9
100
AcDbDictionary
281
     1
  0
DICTIONARY
  5
14
102
{ACAD_REACTORS
330
9
102
}
330
9
100
AcDbDictionary
281
     1
  3
Model
350
13
  3
レイアウト1
350
18
  0
DICTIONARY
  5
B
102
{ACAD_REACTORS
330
9
102
}
330
9
100
AcDbDictionary
281
     1
  3
ByBlock
350
3B
  3
ByLayer
350
F
  3
Global
350
A
  0
DICTIONARY
  5
39
102
{ACAD_REACTORS
330
9
102
}
330
9
100
AcDbDictionary
281
     1
  3
STANDARD
350
40
  0
DICTIONARY
  5
3A
102
{ACAD_REACTORS
330
9
102
}
330
9
100
AcDbDictionary
281
     1
  0
ACDBDICTIONARYWDFLT
  5
8
102
{ACAD_REACTORS
330
9
102
}
330
9
100
AcDbDictionary
281
     1
  3
Normal
350
7
100
AcDbDictionaryWithDefault
340
7
  0
DICTIONARY
  5
3F
102
{ACAD_REACTORS
330
9
102
}
330
9
100
AcDbDictionary
281
     1
  3
Standard
350
41
  0
DICTIONARY
  5
2D
102
{ACAD_REACTORS
330
9
102
}
330
9
100
AcDbDictionary
281
     1
  3
2dWireframe
350
2C
  3
3dWireframe
350
43
  3
Realistic
350
42
  0
DICTIONARY
  5
255
102
{ACAD_REACTORS
330
9
102
}
330
9
100
AcDbDictionary
281
     1
  3
CTABLESTYLE
350
256
  3
DIMASSOC
350
25A
  3
HIDETEXT
350
259
  3
INDEXCTL
350
258
  3
SORTENTS
350
257
  0
DICTIONARY
  5
1E
102
{ACAD_REACTORS
330
1D
102
}
330
1D
100
AcDbDictionary
281
     1
  0
DICTIONARY
  5
1F
102
{ACAD_REACTORS
330
1D
102
}
330
1D
100
AcDbDictionary
281
     1
  0
DICTIONARY
  5
20
102
{ACAD_REACTORS
330
1D
102
}
330
1D
100
AcDbDictionary
281
     1
1001
ACAD
1000
<All
  0
SORTENTSTABLE
  5
254
102
{ACAD_REACTORS
330
3
102
}
330
3
100
AcDbSortentsTable
330
2
  0
LAYOUT
  5
13
102
{ACAD_XDICTIONARY
360
25B
102
}
102
{ACAD_REACTORS
330
14
102
}
330
14
100
AcDbPlotSettings
  1

  2
iR-ADV C5030 (機器)
  4

  6

 40
0.0
 41
0.0
 42
0.0
 43
0.0
 44
0.0
 45
0.0
 46
0.0
 47
0.0
 48
0.0
 49
0.0
140
0.0
141
0.0
142
1.0
143
1.0
 70
  1712
 72
     0
 73
     0
 74
     0
  7

 75
     0
147
1.0
148
0.0
149
0.0
100
AcDbLayout
  1
Model
 70
     1
 71
     0
 10
0.0
 20
0.0
 11
12.0
 21
9.0
 12
0.0
 22
0.0
 32
0.0
 14
0.0
 24
0.0
 34
0.0
 15
0.0
 25
0.0
 35
0.0
146
0.0
 13
0.0
 23
0.0
 33
0.0
 16
1.0
 26
0.0
 36
0.0
 17
0.0
 27
1.0
 37
0.0
 76
     0
330
2
331
2B
  0
LAYOUT
  5
18
102
{ACAD_XDICTIONARY
360
19
102
}
102
{ACAD_REACTORS
330
14
102
}
330
14
100
AcDbPlotSettings
  1

  2
iR-ADV C5030 (機器)
  4
A4
  6

 40
5.873749732971191
 41
5.873747825622557
 42
5.873748779296875
 43
5.873748779296875
 44
209.9733276367186
 45
296.9259948730469
 46
0.0
 47
0.0
 48
0.0
 49
0.0
140
0.0
141
0.0
142
1.0
143
24.22773620289016
 70
   688
 72
     0
 73
     1
 74
     1
  7

 75
     0
147
0.0412750077690176
148
-253.61245189143
149
-152.2895593675416
100
AcDbLayout
  1
レイアウト1
 70
     0
 71
     1
 10
4.38207936789674
 20
0.3929882013905175
 11
287.6043106893494
 21
200.6756020449121
 12
0.0
 22
0.0
 32
0.0
 14
10.0
 24
6.0
 34
0.0
 15
282.0
 25
183.0
 35
0.0
146
0.0
 13
0.0
 23
0.0
 33
0.0
 16
1.0
 26
0.0
 36
0.0
 17
0.0
 27
1.0
 37
0.0
 76
     0
330
15
1001
ACAD_PSEXT
1000
iR-ADV C5030 (機器)
1000
Canon iR-ADV C5030/5035 LIPSLX
1000
IP_192.168.11.45
1000

1070
     0
  0
MATERIAL
  5
3B
102
{ACAD_XDICTIONARY
360
3C
102
}
102
{ACAD_REACTORS
330
B
102
}
330
B
100
AcDbMaterial
  1
ByBlock
  0
MATERIAL
  5
F
102
{ACAD_XDICTIONARY
360
10
102
}
102
{ACAD_REACTORS
330
B
102
}
330
B
100
AcDbMaterial
  1
ByLayer
  0
MATERIAL
  5
A
102
{ACAD_XDICTIONARY
360
C
102
}
102
{ACAD_REACTORS
330
B
102
}
330
B
100
AcDbMaterial
  1
Global
  0
MLINESTYLE
  5
40
102
{ACAD_REACTORS
330
39
102
}
330
39
100
AcDbMlineStyle
  2
STANDARD
 70
     0
  3

 62
     0
 51
90.0
 52
90.0
 71
     2
 49
0.5
 62
   256
  6
BYLAYER
 49
-0.5
 62
   256
  6
BYLAYER
  0
ACDBPLACEHOLDER
  5
7
102
{ACAD_REACTORS
330
8
102
}
330
8
  0
TABLESTYLE
  5
41
102
{ACAD_XDICTIONARY
360
25E
102
}
102
{ACAD_REACTORS
330
3F
102
}
330
3F
100
AcDbTableStyle
  3
Standard
 70
     0
 71
     0
 40
0.06
 41
0.06
280
     0
281
     0
  7
STANDARD
140
0.18
170
     2
 62
     0
 63
     7
283
     0
274
    -2
284
     1
 64
     0
275
    -2
285
     1
 65
     0
276
    -2
286
     1
 66
     0
277
    -2
287
     1
 67
     0
278
    -2
288
     1
 68
     0
279
    -2
289
     1
 69
     0
  7
STANDARD
140
0.25
170
     5
 62
     0
 63
     7
283
     0
274
    -2
284
     1
 64
     0
275
    -2
285
     1
 65
     0
276
    -2
286
     1
 66
     0
277
    -2
287
     1
 67
     0
278
    -2
288
     1
 68
     0
279
    -2
289
     1
 69
     0
  7
STANDARD
140
0.18
170
     5
 62
     0
 63
     7
283
     0
274
    -2
284
     1
 64
     0
275
    -2
285
     1
 65
     0
276
    -2
286
     1
 66
     0
277
    -2
287
     1
 67
     0
278
    -2
288
     1
 68
     0
279
    -2
289
     1
 69
     0
  0
VISUALSTYLE
  5
2C
102
{ACAD_REACTORS
330
2D
102
}
330
2D
100
AcDbVisualStyle
  2
2dWireframe
 70
     4
 71
     0
 72
     2
 73
     0
 90
        0
 40
-0.6
 41
-30.0
 62
     5
 63
     7
 74
     1
 91
        4
 64
     7
 65
   257
 75
     1
175
     1
 42
1.0
 92
        0
 66
   257
 43
1.0
 76
     1
 77
     6
 78
     2
 67
     7
 79
     5
170
     0
171
     0
290
     0
174
     0
 93
        1
 44
0.0
173
     0
291
     0
 45
0.0
1001
ACAD
1000
AcDbSavedByObjectVersion
1070
     0
1000
AcDbSavedByObjectVersion
1070
     0
  0
VISUALSTYLE
  5
43
102
{ACAD_REACTORS
330
2D
102
}
330
2D
100
AcDbVisualStyle
  2
3dWireframe
 70
     5
 71
     0
 72
     2
 73
     0
 90
        0
 40
-0.6
 41
-30.0
 62
     5
 63
     7
 74
     1
 91
        4
 64
     7
 65
   257
 75
     1
175
     1
 42
1.0
 92
        0
 66
   257
 43
1.0
 76
     1
 77
     6
 78
     2
 67
     7
 79
     5
170
     0
171
     0
290
     0
174
     0
 93
        1
 44
0.0
173
     0
291
     0
 45
0.0
1001
ACAD
1000
AcDbSavedByObjectVersion
1070
     0
  0
VISUALSTYLE
  5
42
102
{ACAD_REACTORS
330
2D
102
}
330
2D
100
AcDbVisualStyle
  2
Realistic
 70
     8
 71
     2
 72
     2
 73
     0
 90
        0
 40
-0.6
 41
-30.0
 62
     5
 63
     7
 74
     1
 91
        0
 64
     7
 65
   257
 75
     1
175
     1
 42
1.0
 92
        8
 66
     8
 43
1.0
 76
     1
 77
     6
 78
     2
 67
     7
 79
     5
170
     0
171
     0
290
     0
174
     0
 93
       13
 44
0.0
173
     0
291
     0
 45
0.0
1001
ACAD
1000
AcDbSavedByObjectVersion
1070
     0
  0
DICTIONARYVAR
  5
256
102
{ACAD_REACTORS
330
255
102
}
330
255
100
DictionaryVariables
280
     0
  1
STANDARD
  0
DICTIONARYVAR
  5
25A
102
{ACAD_REACTORS
330
255
102
}
330
255
100
DictionaryVariables
280
     0
  1
1
  0
DICTIONARYVAR
  5
259
102
{ACAD_REACTORS
330
255
102
}
330
255
100
DictionaryVariables
280
     0
  1
1
  0
DICTIONARYVAR
  5
258
102
{ACAD_REACTORS
330
255
102
}
330
255
100
DictionaryVariables
280
     0
  1
0
  0
DICTIONARYVAR
  5
257
102
{ACAD_REACTORS
330
255
102
}
330
255
100
DictionaryVariables
280
     0
  1
127
  0
DICTIONARY
  5
25B
330
13
100
AcDbDictionary
280
     1
281
     1
  3
ACAD_XREC_ROUNDTRIP
360
25C
  0
DICTIONARY
  5
19
330
18
100
AcDbDictionary
280
     1
281
     1
  3
ACAD_XREC_ROUNDTRIP
360
25D
  3
ADSK_XREC_LAYOUTTHUMBNAIL
360
1A
  0
DICTIONARY
  5
3C
330
3B
100
AcDbDictionary
280
     1
281
     1
  3
ACAD_XREC_ROUNDTRIP
360
3D
  0
DICTIONARY
  5
10
330
F
100
AcDbDictionary
280
     1
281
     1
  3
ACAD_XREC_ROUNDTRIP
360
11
  0
DICTIONARY
  5
C
330
A
100
AcDbDictionary
280
     1
281
     1
  3
ACAD_XREC_ROUNDTRIP
360
D
  0
DICTIONARY
  5
25E
330
41
100
AcDbDictionary
280
     1
281
     1
  3
ACAD_XREC_ROUNDTRIP
360
25F
  0
XRECORD
  5
25C
102
{ACAD_REACTORS
330
25B
102
}
330
25B
100
AcDbXrecord
280
     1
102
SHADEPLOT
 70
     0
102
SHADEPLOTRESLEVEL
 70
     2
102
SHADEPLOTCUSTOMDPI
 70
   300
  0
XRECORD
  5
25D
102
{ACAD_REACTORS
330
19
102
}
330
19
100
AcDbXrecord
280
     1
102
SHADEPLOT
 70
     0
102
SHADEPLOTRESLEVEL
 70
     2
102
SHADEPLOTCUSTOMDPI
 70
   300
  0
XRECORD
  5
1A
102
{ACAD_REACTORS
330
19
102
}
330
19
100
AcDbXrecord
280
     1
310
28000000B40000007F00000001000800000000004C590000000000000000000000010000000000000000000000000000FFFFFF000000000000000000000000000000000000000000000000000000000000000000330000006600000099000000CC000000FF00000000330000333300006633000099330000CC330000FF3300
310
0000660000336600006666000099660000CC660000FF66000000990000339900006699000099990000CC990000FF99000000CC000033CC000066CC000099CC0000CCCC0000FFCC000000FF000033FF000066FF000099FF0000CCFF0000FFFF000000003300330033006600330099003300CC003300FF003300003333003333
310
33006633330099333300CC333300FF33330000663300336633006666330099663300CC663300FF66330000993300339933006699330099993300CC993300FF99330000CC330033CC330066CC330099CC3300CCCC3300FFCC330000FF330033FF330066FF330099FF3300CCFF3300FFFF330000006600330066006600660099
310
006600CC006600FF00660000336600333366006633660099336600CC336600FF33660000666600336666006666660099666600CC666600FF66660000996600339966006699660099996600CC996600FF99660000CC660033CC660066CC660099CC6600CCCC6600FFCC660000FF660033FF660066FF660099FF6600CCFF6600
310
FFFF660000009900330099006600990099009900CC009900FF00990000339900333399006633990099339900CC339900FF33990000669900336699006666990099669900CC669900FF66990000999900339999006699990099999900CC999900FF99990000CC990033CC990066CC990099CC9900CCCC9900FFCC990000FF99
310
0033FF990066FF990099FF9900CCFF9900FFFF99000000CC003300CC006600CC009900CC00CC00CC00FF00CC000033CC003333CC006633CC009933CC00CC33CC00FF33CC000066CC003366CC006666CC009966CC00CC66CC00FF66CC000099CC003399CC006699CC009999CC00CC99CC00FF99CC0000CCCC0033CCCC0066CC
310
CC0099CCCC00CCCCCC00FFCCCC0000FFCC0033FFCC0066FFCC0099FFCC00CCFFCC00FFFFCC000000FF003300FF006600FF009900FF00CC00FF00FF00FF000033FF003333FF006633FF009933FF00CC33FF00FF33FF000066FF003366FF006666FF009966FF00CC66FF00FF66FF000099FF003399FF006699FF009999FF00CC
310
99FF00FF99FF0000CCFF0033CCFF0066CCFF0099CCFF00CCCCFF00FFCCFF0000FFFF0033FFFF0066FFFF0099FFFF00CCFFFF00FFFFFF00000000000D0D0D001A1A1A00282828003535350043434300505050005D5D5D006B6B6B00787878008686860093939300A1A1A100AEAEAE00BBBBBB00C9C9C900D6D6D600E4E4E400
310
F1F1F100FFFFFF0000000000000000000000000000000000000000000000000000000000000000000000000000000000F5F5F5F5F5F5F5F5F5F5F5F5F5F5F5F5F5F5F5F5F5F5F5F5F5F5F5F5F5F5F5F5F5F5F5F5F5F5F5F5F5F5F5F5F5F5F5F5F5F5F5F5F5F5F5F5F5F5F5F5F5F5F5F5F5F5F5F5F5F5F5F5F5F5F5F5F5F5F5
310
F5F5F5F5F5F5F5F5F5F5F5F5F5F5F5F5F5F5F5F5F5F5F5F5F5F5F5F5F5F5F5F5F5F5F5F5F5F5F5F5F5F5F5F5F5F5F5F5F5F5F5F5F5F5F5F5F5F5F5F5F5F5F5F5F5F5F5F5F5F5F5F5F5F5F5F5F5F5F5F5F5F5F5F5F5F5F5F5F5F5F5F5F5F5F5F5F5F5F5F5F5F5E2E2E2E2E2E2E2E2E2E2E2E2E2E2E2E2E2E2E2E2E2E2E2E2E2
310
E2E2E2E2E2E2E2E2E2E2E2E2E2E2E2E2E2E2E2E2E2E2E2E2E2E2E2E2E2E2E2E2E2E2E2E2E2E2E2E2E2E2E2E2E2E2E2E2E2E2E2E2E2E2E2E2E2E2E2E2E2E2E2E2E2E2E2E2E2E2E2E2E2E2E2E2E2E2E2E2E2E2E2E2E2E2E2E2E2E2E2E2E2E2E2E2E2E2E2E2E2E2E2E2E2E2E2E2E2E2E2E2E2E2E2E2E2E2E2E2E2E2E2E2E2E2E2
310
E2E2E2E2E2E2E2E2E2E2E2E2E2E2E2E2E2E2E2E2E2E2E2E2E2F5F5F5E2E2E2E2E2E2E2E2E2E2E2E2E2E2E2E2E2E2E2E2E2E2E2E2E2E2E2E2E2E2E2E2E2E2E2E2E2E2E2E2E2E2E2E2E2E2E2E2E2E2E2E2E2E2E2E2E2E2E2E2E2E2E2E2E2E2E2E2E2E2E2E2E2E2E2E2E2E2E2E2E2E2E2E2E2E2E2E2E2E2E2E2E2E2E2E2E2E2E2
310
E2E2E2E2E2E2E2E2E2E2E2E2E2E2E2E2E2E2E2E2E2E2E2E2E2E2E2E2E2E2E2E2E2E2E2E2E2E2E2E2E2E2E2E2E2E2E2E2E2E2E2E2E2E2E2E2E2E2E2E2E2E2E2E2E2E2E2E2E2E2E2E2E2E2E2E2E2E2F5F5F5E2E2E2E2E2E2E2E2E2E2E2E2E2E2E2E2E2E2E2E2E2E2E2E2E2E2E2E2E2E2E2E2E2E2E2E2E2E2E2E2E2E2E2E2E2E2
310
E2E2E2E2E2E2E2E2E2E2E2E2E2E2E2E2E2E2E2E2E2E2E2E2E2E2E2E2E2E2E2E2E2E2E2E2E2E2E2E2E2E2E2E2E2E2E2E2E2E2E2E2E2E2E2E2E2E2E2E2E2E2E2E2E2E2E2E2E2E2E2E2E2E2E2E2E2E2E2E2E2E2E2E2E2E2E2E2E2E2E2E2E2E2E2E2E2E2E2E2E2E2E2E2E2E2E2E2E2E2E2E2E2E2E2E2E2E2E2E2E2E2E2E2E2E2E2
310
E2E2E2E2F5F5F5E2E2E2F0F0F0F0F0F0F0F0F0F0F0F0F0F0F0F0F0F0F0F0F0F0F0F0F0F0F0F0F0F0F0F0F0F0F0F0F0F0F0F0F0F0F0F0F0F0F0F0F0F0F0F0F0F0F0F0F0F0F0F0F0F0F0F0F0F0F0F0F0F0F0F0F0F0F0F0F0F0F0F0F0F0F0F0F0F0F0F0F0F0F0F0F0F0F0F0F0F0F0F0F0F0F0F0F0F0F0F0F0F0F0F0F0F0F0F0F0
310
F0F0F0F0F0F0F0F0F0F0F0F0F0F0F0F0F0F0F0F0F0F0F0F0F0F0F0F0F0F0F0F0F0F0F0F0F0F0F0F0F0F0F0F0F0F0F0F0F0F0F0F0F0F0E2E2E2F5F5F5E2E2E2F0E2E2E9E2E2E2F0F0E2E2E2E2F0F0E2E2E2E2F0F0F0E2E2E2E2F0F0E2E2E2E2E9E2F0F0E2E2F0F0E2E2F0F0F0F0F0E2F0F0F0E2E2E2E2E2E2E9E2E2E2E2E2E2
310
E9E2E2E2E2E2E9E2E2E2E2E2E9E2E2E2E2E2F0F0F0F0F0F0F0F0F0F0F0F0F0F0F0E2E2E2E2E2E2E9F0F0E9E2E2E228E228282828E22828282828282828E2E2E2E2E2E2E2E2E2E2E2E9F0F0F0E9E2E2282828282828E2E2E2E22828E2282828282828E228E2E2E2E2E2E2F0E2E2E2F5F5F5E2E2E2F0E9E9E9E9E9E9F0F0E9E9
310
E9E9F0F0F0E9E9E9F0F0F0E9E9E9E9F0E9E9E9E9E9E9E9F0F0E9E9F0F0E9E9F0F0F0F0F0E9F0F0F0E2E2E2E2E2E2E9E2E2E2E2E2E2E9E2E2E2E2E2E92828E22828E9E2E2E2E2E2F0F0F0F0F0F0F0E2F0F0F0F0F0F0F0E2E2E2E2E2E2E9F0F0E9E2E2E2282828282828E22828282828282828E2E2E2E2E2E2E2E2E2E2E2E9F0
310
F0F0E9E2E2282828282828E228282828E2282828E2282828E228E2E2E2E2E2E2F0E2E2E2F5F5F5E2E2E2F0F0F0E9E2E2E2E2E2E2E2E2E2E2E2E2E2E2E2E2E2E2E2E2E2E2E2E2E2E2E2E2E9E2E2E2E2E2E2E2E2E2E2E2E9E2E2E2E2E2E9E2E2E2E2E2E2E9E2E2E2E2E2E2E9E2E2E2E2E2E92828282828E9E9E9E9E9E9E9E9E9
310
E9E9E9E9E9E9E9E9E9E9E9E9E9E9E9E9E9E9E9E2E2E9E2E2E2282828282828282828282828282828E2E2E2E2E2E2E2E2E2E2E2E9E2E2E2E9E2E228282828282828E2E2E22828282828282828282828E2E2E2E2E2E2F0E2E2E2F5F5F5E2E2E2F0F0E2E9E2E2E2E2E2E2E2E2E2E2E2E2E2E2E2E2E2E2E2E2E2E2E2E2E2E2E2E2
310
E9E2E2E2E2E2E2E2E2E2E2E2E9E2E2E2E2E2E9E2E2E2E2E2E2E9E2E2E2E2E2E2E9E2E2E2E2E2E9E228E22828E9E2E2E2E22828282828E2E228E2282828E22828E2E2F0F0F0F0F0E9F0F0E9E2E2E2E2E2E2E2E2E2E2E2E2E2E2E2E2E2E2E2E2E2E2E2E2E2E2E2E2E2E9F0F0F0E9E2E2E2E2E2E2E2E2E2E2E2E2E2E2E2E2E2E2
310
E2E2E2E2E2E2E2E2E2E2E2F0E2E2E2F5F5F5E2E2E2F0F0F0E9E9E9E9E9E9E9E9E9E9E9E9E9E9E9E9E9E9E9E9E9E9E9E9E9E9E9E9E9E9E9E9E9E9E9E9E9E9E9E9E9E9E9E9E9E9E9E9E2E2E2E2E2E2E9E2E2E2E2E2E2E9E2E2E2E2E2E9E2E2E2E2E2E9E2E2E2282828E228E2E2E228E228E2E2E22828E2E2F0F0F0F0F0E9F0F0
310
E9E2E2E2E2E2E2E2E2E2E2E2E2E2E2E2E2E2E2E2E2E2E2E2E2E2E2E2E2E2E9F0F0F0E9E2E2E2E2E2E2E2E2E2E2E2E2E2E2E2E2E2E2E2E2E2E2E2E2E2E2E2E2E2F0E2E2E2F5F5F5E2E2E2F0F0F0E9E2E2E2E2E2E2E2E2E2E2E2E2E2E2E2E2E2E2E2E2E2E2E2E2E2E2E2E2E9E2E2E2E2E2E2E2E2E2E2E2E9E2E2E2E2E2E9E2E2
310
E2E2E2E2E9E2E2E2E2E2E2E9E2E2E2E2E2E9E2E2E2E2E2E9E2E2E228E2E2E2E2E2E2E2E2E2E2E2E2E2E2E2E2E2E2F0F0F0F0E9F0E2E9E2E2E2E2E2E2E2E2E2E2E2E2E2E2E2E2E2E2E2E2E2E2E2E2E2E2E2E2E2E9E2E2E2E9E2E2E2E2E2E2E2E2E2E2E2E2E2E2E2E2E2E2E2E2E2E2E2E2E2E2E2E2E2F0E2E2E2F5F5F5E2E2E2
310
F0F0E9E9E9E9E9E9E9E9E9E9E9E9E9E9E9E9E9E9E9E9E9E9E9E9E9E9E9E9E9E9E9E9E9E9E9E9E9E9E9E9E9E9E9E9E9E9E9E9E9E2E2E2E2E2E2E9F0F0F0E9F0F0F0F0F0E9F0F0F0F0F0E9E9F0F0F0F0F0F0F0E9F0E9E9E9E9E9E9E9E9E9E9E9E9E9E9E9E9E9E9E9E9E9E9E9E9E9E9E9E9E9E9E9E9E9E9E9E9E9E9E9E9E9E9E9
310
E9E9E9E9E9E9E9E9E9E9E9E9E9E9E9E9E9E9E9E9E9E9E9E9E9E9E9E9E9E9E9E9E9E9E9E9E9E9E9E9E9E9E9F0E2E2E2F5F5F5E2E2E2F0F0F0E9E2E2E2E2E2E2E2E2E2E2E2E2E2E2E2E2E2E2E2E2E2E2E2E2E2E2E2E2E9E2E2E2E2E2E2E2E2E2E2E2E9E2E2E2E2E2E9E2E2E2E2E2E2E9F0F0F0E2F0F0F0F0F0E2F0F0F0F0F0E2
310
E2F0F0F0F0F0F0F0E2F0E2E2E2E2E2E2E2E2E2E2E2E2E2E2E2E2E2E2E2E9E2E2E2E2E2E2E2E2E2E2E2E2E2E2E2E2E2E2E2E2E2E2E2E2E2E2E2E2E2E2E2E2E2E2E2E2E2E2E2E2E2E2E2E2E2E2E2E2E2E2E2E2E2E2E2E2E2E2E2E2E2E2E2E2E2E2F0E2E2E2F5F5F5E2E2E2F0F0F0E9E2E2E2E2E2E2E2E2E2E2E2E2E2E2E2E2E2
310
E2E2E2E2E2E2E2E2E2E2E2E9E2E2E2E2E2E2E2E2E2E2E2E9E2E2E2E2E2E9E2E2E2E2E2E2E9F0F0E2E2F0F0F0F0F0E2F0F0F0F0F0E2E2F0F0F0F0F0F0F0E2F0E2E2E2E2E2E2E2E2E2E2E2E2E2E2E2E2E2E2E2E9E2E2E2E2E2E2E2E2E2E2E2E2E2E2E2E2E2E2E2E2E2E2E2E2E2E2E2E2E2E2E2E2E2E2E2E2E2E2E2E2E2E2E2E2
310
E2E2E2E2E2E2E2E2E2E2E2E2E2E2E2E2E2E2E2E2E2E2F0E2E2E2F5F5F5E2E2E2F0E9E9E9E9E9E9E9E9E9E9E9E9E9E9E9E9E9E9E9E9E9E9E9E9E9E9E9E9E9E9E9E9E9E9E9E9E9E9E9E9E9E9E9E9E9E9E9E9E9E9E2E2E2E2E2E2E9E9E9E9E9E9E9E9E9E9E9E9E9E9E9E9E9E9E9E9E9E9E9E9E9E9E9E9E9E9E9E9E9E9E9E9E9E9
310
E9E9E9E9E9E9E9E9E9E9E9E9E9E9E9E9E9E9E9E9E9E9E9E9E9E9E9E9E9E9E9E9E9E9E9E9E9E9E9E9E9E9E9E9E9E9E9E9E9E9E9E9E9E9E9E9E9E9E9E9E9E9E9E9E9E9E9E9E9E9E9E9E9E9E9F0E2E2E2F5F5F5E2E2E2F0E2E2E2E2E2E2E2E2E2E2E2E2E2E2E2E2E2E2E2E2E2E2E2E2E2E2E2E2E2E2E2E2E2E2E2E2E2E2E2E2E2
310
E2E2E2E2E2E2E2E2E2E2E2E2E2E2E2E2E2E2E2E2E2E2E2E2E2E2E2E2E2E2E2E2E2E2E2E2E2E2E2E2E2E2E2E2E2E2E2E2E2E2E2E2E2E2E2E2E2E2E2E2E2E2E2E2E2E2E2E2E2E2E2E2F0E2E2E2E2E2E2E2E2E2E2E2E2E2E2E2E2E2E2E2E2E2E2E2E2E2E2E2E2E2E2E2E2E2E2E2E2E2E2E2E2E2E2E2E2E2E2E2E2E2E2E2E2E2E2
310
E2F0E2E2E2F5F5F5E2E2E2F0E2E2E2E2E2E2E2E2E2E2E2E2E2E2E2E2E2E2E2E2E2E2E2E2E2E2E2E2E2E2E2E2E2E2E2E2E2E2E2E2E2E2E2E2E2E2E2E2E2E2E2E2E2E2E2E2E2E2E2E2E2E2E2E2E2E2E2E2E2E2E2E2E2E2E2E2E2E2E2E2E2E2E2E2E2E2E2E2E2E2E2E2E2E2E2E2E2E2E2E2E2E2E2E2E2E2E2E2E2E2E2E2E2F0E2
310
E2E2E2E2E2E2E2E2E2E2E2E2E2E2E2E2E2E2E2E2E2E2E2E2E2E2E2E2E2E2E2E2E2E2E2E2E2E2E2E2E2E2E2E2E2E2E2E2E2E2E2E2E2E2F0E2E2E2F5F5F5E2E2E2F0E2E2E2E2E2E2E2E2E2E2E2E2E2E2E2E2E2E2E2E2E2E2E2E2E2E2E2E2E2E2E2E2E2E2E2E2E2E2E2E2E2E2E2E2E2E2E2E2E2E2E2E2E2E2E2E2E2E2E2E2E2E2
310
E2E2E2E2E2E2E2E2E2E2E2E2E2E2E2E2E2E2E2E2E2E2E2E2E2E2E2E2E2E2E2E2E2E2E2E2E2E2E2E2E2E2E2E2E2E2E2E2E2E2E2F0E2E2E2E2E2E2E2E2E2E2E2E2E2E2E2E2E2E2E2E2E2E2E2E2E2E2E2E2E2E2E2E2E2E2E2E2E2E2E2E2E2E2E2E2E2E2E2E2E2E2E2E2E2E2E2F0E2E2E2F5F5F5E2E2E2F0E2E2E2E2E2E2E2E2E2
310
E2E2E2E2E2E2E2E2E2E2E2E2E2E2E2E2E2E2E2E2E2E2E2E2E2E2E2E2E2E2F5F5F5F5F5F5F5F5F5F5F5F5F5F5F5F5F5F5F5F5F5F5F5F5F5F5F5F5F5F5F5F5F5F5F5E2E2E2E2E2E2E2E2E2E2E2E2E2E2E2E2E2E2E2E2E2E2E2E2E2E2E2E2E2E2E2E2E2E2F0F0F0F0F0F0F0F0F0F0F0F0F0F0F0F0F0F0F0F5F5F5F5F5F5F5F5F5
310
F5F5F5F5F5F5F5F5F5F5F5F5F5F5E2E2E2E2E2E2E2E2E2E2E2E2E2E2E2E2E2E2E2F0E2E2E2F5F5F5E2E2E2F0E2E2E2E2E2E2E2E2E2E2E2E2E2E2E2E2E2E2E2E2E2E2E2E2E2E2E2E2E2E2E2E2E2E2E2E2E2E2E2F5E2E2E2E2E2E2E2E2E2E2E2E2E2E2E2E2E2E2E2E2E2E2E2E2E2E2E2E2E2E2E2E2E2E2F5E2E2E2E2E2E2E2E2
310
E2E2E2E2E2E2E2E2E2E2E2E2E2E2E2E2E2E2E2E2E2E2E2E2E2E2F0F0F0F0F0E2E2E2E2E2E2E2E2E2E2E2E2E2F5E2E2E2E2E2E2E2E2E2E2E2E2E2E2E2E2E2E2E2E2E2E2F5E2E2E2E2E2E2E2E2E2E2E2E2E2E2E2E2E2E2F0E2E2E2F5F5F5E2E2E2F0E2E2E2E2E2E2E2E2E2E2E2E2E2E2E2E2E2E2E2E2E2E2E2E2E2E2E2E2E2E2
310
E2E2E2E2E2E2E2E2F5E2E2E2E2E2E2E2E2E2E2E2E2E2E2E2E2E2E2E2E2E2E2E2E2E2E2E2E2E2E2E2E2E2E2E2F5E2E2E2E2E2E2E2E2E2E2E2E2E2E2E2E2E2E2E2E2E2E2E2E2E2E2E2E2E2E2E2E2E2E2F0F0F0F0F0E2E2E2E2E2E2E2E2E2E2E2E2F5E2E2E2E2E2E2E2E2E2E2E2E2E2E2E2E2E2E2E2E2E2E2E2F5E2E2E2E2E2E2
310
E2E2E2E2E2E2E2E2E2E2E2E2F0E2E2E2F5F5F5E2E2E2F0E2E2E2E2E2E2E2E2E2E2E2E2E2E2E2E2E2E2E2E2E2E2E2E2E2F5F5F0F5F5F5F5F5F5F5F5F5F5F5F5F5F5F5F5F5F5F5F5F5F5F5F5F5F5F5F5F5F5F5F5F5F5F5F5F5F5F5F5F5F5F5F5F5F5F5F5F5F5F5F5F5F5F5F5F5F0F5F5E2E2E2E2E2E2E2E2E2E2E2E2E2E2E2E2
310
E2E2E2E2E2F0F0F0F0F0F0F0F0F0F0F0F0F0F5F5F5F5F5F5F5F5F5F5F5F5F5F5F5F5F5F5F5F5F5F5F5F5F5F5F5F5F5F5F5F5F5F5E2E2E2E2E2E2E2E2E2E2E2E2E2F0E2E2E2F5F5F5E2E2E2F0E2E2E2E2E2E2E2E2E2E2E2E2E2E2E2E2E2E2E2E2E2E2E2E2E2F5E2F0E2E2E2E2E2E2E2E2E2E2E2E2E2E2E2E2E2E2E2E2E2E2E2
310
E2E2E2E2E2E2E2E2E2E2E2E2E2E2E2E2E2E2E2E2E2E2E2E2E2E2E2E2E2E2E2E2E2E2F0E2F5E2E2E2E2E2E2E2E2E2E2E2E2E2E2E2E2E2E2E2E2E2F0E2E2E2F0E2E2E2E2E2E2F5F5F5F5E2E2E2E2E2E2E2E2E2F5F5E2E2E2E2E2E2E2F5F5E2E2E2E2E2E2E2E2E2F5F5F5F5E2E2E2E2E2E2E2E2E2E2E2E2F0E2E2E2F5F5F5E2E2
310
E2F0E2E2E2E2E2E2E2E2E2E2E2E2E2E2E2E2E2E2E2E2E2E2E2E2E2F5E2F0E2E2E2E2E2E2E2E2E2E2E2E2E2E2E2E2E2E2E2E2E2E2E2E2E2E2E2E2E2E2E2E2E2E2E2E2E2E2E2E2E2E2E2E2E2E2E2E2E2E2E2E2E2E2E2E2E2F0E2F5E2E2E2E2E2E2E2E2E2E2E2E2E2E2E2E2E2E2E2E2E2F0E2E2E2F0E2E2E2E2E2E2F5F5F0F5E2
310
E2E2E2E2E2E2E2F5F5F5E2E2E2E2E2E2E2F5F5F5E2E2E2E2E2E2E2E2F5F0F5F5E2E2E2E2E2E2E2E2E2E2E2E2F0E2E2E2F5F5F5E2E2E2F0E2E2E2E2E2E2E2E2E2E2E2E2E2E2E2E2E2E2E2E2E2E2E2E2E2F5E2F0E2E2E2E2E2E2E2E2E2E2E2E2E2E2E2E2E2E2E2E2E2E2E2E2E2E2E2E2E2E2E2E2E2E2E2E2E2E2E2E2E2E2E2E2
310
E2E2E2E2E2E2E2E2E2E2E2E2E2F0E2F5F5E2E2E2E2E2E2E2E2E2E2E2E2E2E2E2E2E2E2E2E2F0E2E2E2F0E2E2E2E2E2E2F5F5F5F5E2F5F5F5E2E2E2E2E2F5F5E2E2E2E2E2E2E2F5F5E2E2E2E2E2E2F5F5F5F5F5F5F5E2E2E2E2E2E2E2E2E2E2E2E2F0E2E2E2F5F5F5E2E2E2F0E2E2E2E2E2E2E2E2E2E2E2E2E2E2E2E2E2E2E2
310
E2E2E2E2E2E2F5E2F0E2E2E2E2E2E2E2E2E2E2E2E2E2E2E2E2E2E2E2E2E2E2E2E2E2E2E2E2E2E2E2E2E2E2E2E2E2E2E2E2E2E2E2E2E2E2E2E2E2E2E2E2E2E2E2E2E2F0E2F5F5F5F5F5E2E2E2E2E2E2E2E2E2E2E2E2E2E2E2E2E2F0E2E2E2F0E2E2E2E2E2E2F5E2E2E2F5E2F5E2F5E2E2E2E2E2F5F5F5F5E2E2E2E2E2E2E2E2
310
E2E2E2F5F5F5F5F5E2E2F5E2E2E2E2E2E2E2E2E2E2E2E2F0E2E2E2F5F5F5E2E2E2F0E2E2E2E2E2E2E2E2E2E2E2E2E2E2E2E2E2E2E2E2E2E2E2E2E2F5E2F0E2E2E2E2E2E2E2E2E2E2E2E2E2E2E2E2E2E2E2E2E2E2E2E2E2E2E2E2E2E2E2E2E2E2E2E2E2E2E2E2E2E2E2E2E2E2E2E2E2E2E2E2E2E2E2E2E2F0E2F5F5F5E2E2F5
310
F5F5E2E2E2E2E2E2E2E2E2E2E2E2E2E2F0E2E2E2F0E2E2E2E2E2E2F5E2E2F5F5F5F5F5F5F5E2E2E2E2F5E9E9F5E2E2E2E2E2E2E2E2E2E2E2F5F5E2F5F5E2E2F5E2E2E2E2E2E2E2E2E2E2E2E2F0E2E2E2F5F5F5E2E2E2F0E2E2E2E2E2E2E2E2E2E2E2E2E2E2E2E2E2E2E2E2E2E2E2E2E2F5E2F0E2E2E2E2E2E2E2E2E2E2E2E2
310
E2E2E2E2E2E2E2E2E2E2E2E2E2E2E2E2E2E2E2E2E2E2E2E2E2E2E2E2E2E2E2E2E2E2E2E2E2E2E2E2E2E2E2E2E2F0E2F5F5F5E2E2E2E2F5E2E2E2E2E2E2E2E2E2E2E2E2E2E2F0E2E2E2F0E2E2E2E2E2E2F5E2E2F5F5E2E2E2F5F5E2E2E2F5E2E9E9E2F5E2E2E2E2E2E2E2E2F5F5F5F5F5F5F5E2E2F5E2E2E2E2E2E2E2E2E2E2
310
E2E2F0E2E2E2F5F5F5E2E2E2F0E2E2E2E2E2E2E2F5F5F5F5F5F5F5F5F5F5F5F5F5F5F5F5F5F5F5E2F0E2E2E2E2E2E2E2E2E2E2E2E2E2E2E2E2E2E2E2E2E2E2E2E2E2E2E2E2E2E2E2E2E2E2E2E2E2E2E2E2E2E2E2E2E2E2E2E2E2E2E2E2E2E2E2E2E2F0E2F5F5F5E2E2E2E2F5E2E2E2E2E2E2E2E2E2E2E2E2E2E2F0E2E2E2F0
310
E2E2E2E2E2E2F5E2E2F5F5F5E2F5F5F5E2E2E2E2F5E9E9F5E2E2E2E2E2E2E2E2E2F5F5E2F5F5F5E2E2E2F5E2E2E2E2E2E2E2E2E2E2E2E2F0E2E2E2F5F5F5E2E2E2F0E2E2E2E2E2E2F5F0E2E2F0F0F0F0F0F0F0F0F0F0F0F0F0E2E2F5E2F0E2E2E2E2E2E2E2E2E2E2E2E2E2E2E2E2E2E2E2E2E2E2E2E2E2E2E2E2E2E2E2E2E2
310
E2E2E2E2E2E2E2E2E2E2E2E2E2E2E2E2E2E2E2E2E2E2E2E2F0E2F5F5F5F5F5F5F5F5E2E2E2E2E2E2E2E2E2E2E2E2E2E2F0E2E2E2F0E2E2E2E2E2E2F5E2E2E2F5F5F5F5F5E2E2E2E2E2F5F5F5F5E2E2E2E2E2E2E2E2E2E2E2E2E2E2E2E2E2E2F5E2E2E2E2E2E2E2E2E2E2E2E2F0E2E2E2F5F5F5E2E2E2F0E2E2E2E2E2E2F5F0
310
E2E2F0E2E2E2E2E2E2E2E2E2E2E2F5E2E2F5E2F0E2E2E2E2E2E2E2E2E2E2E2E2E2E2E2E2E2E2E2E2E2E2E2E2E2E2E2E2E2E2E2E2E2E2E2E2E2E2E2E2E2E2E2E2E2E2E2E2E2E2E2E2E2E2E2E2E2F0E2F5F5E2E2E2E2E2E2E2E2E2E2E2E2E2E2E2E2E2E2E2E2F0E2E2E2F0E2E2E2E2E2E2F5E2E2E2E2F5F5F5E2E2E2E2E2E2E2
310
E2E2E2E2E2E2E2E2E2E2E2E2E2E2E2E2E2E2E2E2E2F5E2E2E2E2E2E2E2E2E2E2E2E2F0E2E2E2F5F5F5E2E2E2F0E2E2E2E2E2E2F5F0E2E2F0F0F0F0F0F0F0F0F0F0F0F0F0E2E2F5E2F0E2E2E2E2E2E2E2E2E2E2E2E2E2E2E2E2E2E2E2E2E2E2E2E2E2E2E2E2E2E2E2E2E2E2E2E2E2E2E2E2E2E2E2E2E2E2E2E2E2E2E2E2E2E2
310
E2E2E2F0E2F5E2E2E2E2E2E2E2E2E2E2E2E2E2E2E2E2E2E2E2E2E2F0E2E2E2F0E2E2E2E2E2E2F5E2E2E2E2E2E2E2E2E2E2E2E2E2E2E2E2E2E2E2E2E2E2E2E2E2E2E2E2E2E2E2E2E2E2E2F5E2E2E2E2E2E2E2E2E2E2E2E2F0E2E2E2F5F5F5E2E2E2F0E2E2E2E2E2E2F5F0E2E2F0F0F0F0F0F0F0F0F0F0F0F0F0E2E2F5E2F0E2
310
E2E2E2E2E2E2E2E2E2E2E2E2E2E2E2E2E2E2E2E2E2E2E2E2E2E2E2E2E2E2E2E2E2E2E2E2E2E2E2E2E2E2E2E2E2E2E2E2E2E2E2E2E2E2E2E2F0E2F5F5F5F5E2E2E2E2E2E2E2E2E2E2E2E2E2E2E2E2E2E2F0E2E2E2F0E2E2E2E2E2E2F5E2E2E2E2E2E2E2E2E2E2E2E2E2E2E2E2E2E2E2E2E2E2E2E2E2E2E2E2E2F5F5F5E2E2E2
310
F5E2E2E2E2E2E2E2E2E2E2E2E2F0E2E2E2F5F5F5E2E2E2F0E2E2E2E2E2E2F5F0E2E2F0E2E2E2E2E2E2E2E2E2E2E2F5E2E2F5E2F0E2E2E2E2E2E2E2E2E2E2E2E2E2E2E2E2E2E2E2E2E2E2E2E2E2E2E2E2E2E2E2E2E2E2E2E2E2E2E2E2E2E2E2E2E2E2E2E2E2E2E2E2E2E2E2E2E2F0E2F5E2E2F5E2E2E2E2E2E2E2E2E2E2E2E2
310
E2E2E2E2E2E2F0E2E2E2F0E2E2E2E2E2E2F5E2E2E2E2E2E2E2E2E2E2E2F0F0F0F0F0F0F0F0F0F0F0F0F0E2E2E2E2F5F5F5F5F5E2E2F5E2E2E2E2E2E2E2E2E2E2E2E2F0E2E2E2F5F5F5E2E2E2F0E2E2E2E2E2E2F5F0E2E2F0F0F0F0F0F0F0F0F0F0F0F0F0E2E2F5E2F0E2E2E2E2E2E2E2E2E2E2E2E2E2E2E2E2E2E2E2E2E2E2
310
E2E2E2E2E2E2E2E2E2E2E2E2E2E2E2E2E2E2E2E2E2E2E2E2E2E2E2E2E2E2E2E2E2E2E2F0E2F5E2E2F5E2E2E2E2E2E2E2E2E2E2E2E2E2E2E2E2E2E2F0E2E2E2F0E2E2E2E2E2E2F5E2E2E2E2E2E2E2E2E2E2E2F0E2E2E2E2E2E2E2E2E2E2E2F0E2E2E2E2F5F5E2F5F5E2E2F5E2E2E2E2E2E2E2E2E2E2E2E2F0E2E2E2F5F5F5E2
310
E2E2F0E2E2E2E2E2E2F5F0E2E2F0F0F0F0F0F0F0F0F0F0F0F0F0E2E2F5E2F0F0F0F0F0F0F0F0F0F0F0F0F0F0F0F0F0F0F0F0F0F0F0F0F0F0F0F0F0F0F0F0F0F0F0F0F0F0F0F0F0F0F0F0F0F0F0F0F0F0F0F0F0F0F0F0F0F0F0E2F5E2E2F5E2E2E2E2E2E2E2E2E2E2E2E2E2E2E2E2E2E2F0E2F0E2F0E2E2E2E2E2E2F5E2E2E2
310
E2E2E2E2E2E2E2E2F0E2E2E2E2E2E2E2E2E2E2E2F0E2E2E2E2F5F5F5F5F5E2E2F5E2E2E2E2E2E2E2E2E2E2E2E2F0E2E2E2F5F5F5E2E2E2F0E2E2E2E2E2E2F5F0E2E2F0E2E2E2E2E2E2E2E2E2E2E2F5E2E2F5E2F0E2E2E2E2E2E2E2E2E2E2E2E2E2E2E2E2E2E2E2E2E2E2E2E2E2E2E2E2E2E2E2E2E2E2E2E2E2E2E2E2E2E2E2
310
E2E2E2E2E2E2E2E2E2E2E2E2E2E2F0E2F5F5F5F5E2E2E2E2E2E2E2E2E2E2E2E2E2E2E2E2F0F0F0E2F0F0F0E2E2E2E2E2E2F5E2E2E2E2E2E2E2E2E2E2E2F0E2E2E2E2E2E2E2E2E2E2E2F0E2E2E2E2E2F5F5F5E2E2E2F5E2E2E2E2E2E2E2E2E2E2E2E2F0E2E2E2F5F5F5E2E2E2F0E2E2E2E2E2E2F5F0E2E2F0F0F0F0F0F0F0F0
310
F0F0F0F0F0E2E2F5E2F0E2E2E2E2E2E2E2E2E2E2E2E2E2E2E2E2E2E2E2E2E2E2E2E2E2E2E2E2E2E2E2E2E2E2E2E2E2E2E2E2E2E2E2E2E2E2E2E2E2E2E2E2E2E2E2E2E2F0E2F5E2E2E2E2E2E2E2E2E2E2E2E2E2E2E2E2E2E2E2F0E2F0E2F0F0F0E2E2E2E2E2E2F5E2E2E2E2E2E2E2E2E2E2E2F0E2E2E2E2E2E2E2E2E2E2E2F0
310
E2E2E2E2E2E2E2E2E2E2E2F5E2E2E2E2E2E2E2E2E2E2E2E2F0E2E2E2F5F5F5E2E2E2F0E2E2E2E2E2E2F5F0E2E2F0F0F0F0F0F0F0F0F0F0F0F0F0E2E2F5E2F0E2E2E2E2E2E2E2E2E2E2E2E2E2E2E2E2E2E2E2E2E2E2E2E2E2E2E2E2E2E2E2E2E2E2E2E2E2E2E2E2E2E2E2E2E2E2E2E2E2E2E2E2E2E2E2E2E2F0E2F5E2E2E2E2
310
E2E2E2E2E2E2E2E2E2E2E2E2E2E2E2F0F0F0E2F0F0F0E2E2E2E2E2E2F5E2E2E2E2E2E2E2E2E2E2E2F0E2E2E2E2E2E2E2E2E2E2E2F0E2E2E2E2E2E2E2E2E2E2E2F5E2E2E2E2E2E2E2E2E2E2E2E2F0E2E2E2F5F5F5E2E2E2F0E2E2E2E2E2E2F5F0E2E2F0E2E2E2E2E2E2E2E2E2E2E2F5E2E2F5E2F0E2E2E2E2E2E2E2E2E2E2E2
310
E2E2E2E2E2E2E2E2E2E2E2E2E2E2E2E2E2E2E2E2E2E2E2E2E2E2E2E2E2E2E2E2E2E2E2E2E2E2E2E2E2E2E2E2E2E2F0E2F5E2E2E2E2E2E2E2E2E2E2E2E2E2E2E2E2E2E2E2F0F0F0E2F0F0F0E2E2E2E2E2E2F5E2E2E2E2E2E2E2E2E2E2E2F0E2E2E2E2E2E2E2E2E2E2E2F0E2E2E2E2E2E2E2E2E2E2E2F5E2E2E2E2E2E2E2E2E2
310
E2E2E2F0E2E2E2F5F5F5E2E2E2F0E2E2E2E2E2E2F5F0E2E2F0E2E2E2E2E2E2E2E2E2E2E2F5E2E2F5E2F0F0F0F0F0F0F0F0F0F0F0F0F0F0F0F0F0F0F0F0F0F0F0F0F0F0F0F0F0F0F0F0F0F0F0F0F0F0F0F0F0F0F0F0F0F0F0F0F0F0F0F0F0F0F0F0F0F0F0E2F5E2E2E2E2E2E2E2E2E2E2E2E2E2E2E2E2E2E2E2F0F0F0E2F0F0
310
F0E2E2E2E2E2E2F5E2E2E2E2E2E2E2E2E2E2E2F0F0F0F0F0F0F0F0F0F0F0F0F0E2E2E2E2E2E2E2E2E2E2E2F5E2E2E2E2E2E2E2E2E2E2E2E2F0E2E2E2F5F5F5E2E2E2F0E2E2E2E2E2E2F5F0E2E2F0F0F0F0F0F0F0F0F0F0F0F0F0E2E2F5E2F0E2E2E2E2E2E2E2E2E2E2E2E2E2E2E2E2E2E2E2E2E2E2E2E2E2E2E2E2E2E2E2E2
310
E2E2E2E2E2E2E2E2E2E2E2E2E2E2E2E2E2E2E2E2E2E2E2E2E2F0E2F5E2E2E2E2E2E2E2E2E2E2E2E2E2E2E2E2E2E2E2E2E2F0E2E2E2F0E2E2E2E2E2E2F5E2E2E2E2E2E2E2E2E2E2E2E2E2E2E2E2E2E2E2E2E2E2E2E2E2E2E2E2E2E2E2E2E2E2E2F5E2E2E2E2E2E2E2E2E2E2E2E2F0E2E2E2F5F5F5E2E2E2F0E2E2E2E2E2E2F5
310
F0E2E2F0F0F0F0F0F0F0F0F0F0F0F0F0E2E2F5E2F0E2E2E2E2E2E2E2E2E2E2E2E2E2E2E2E2E2E2E2E2E2E2E2E2E2E2E2E2E2E2E2E2E2E2E2E2E2E2E2E2E2E2E2E2E2E2E2E2E2E2E2E2E2E2E2E2E2F0E2F5E2E2E2E2E2E2E2E2E2E2E2E2E2E2E2E2E2E2E2E2E2F0E2E2E2F0E2E2E2E2E2E2F5E2E2E2E2E2E2E2E2E2E2E2E2E2
310
E2E2E2E2E2E2E2E2E2E2E2E2E2E2E2E2E2E2E2E2E2E2F5E2E2E2E2E2E2E2E2E2E2E2E2F0E2E2E2F5F5F5E2E2E2F0E2E2E2E2E2E2F5F0E2E2F0E2E2E2E2E2E2E2E2E2E2E2F5E2E2F5E2F0E2E2E2E2E2E2E2E2E2E2E2E2E2E2E2E2E2E2E2E2E2E2E2E2E2E2E2E2E2E2E2E2E2E2E2E2E2E2E2E2E2E2E2E2E2E2E2E2E2E2E2E2E2
310
E2E2E2E2F0E2F5E2E2E2E2E2E2E2E2E2E2E2E2E2E2E2E2E2E2E2E2E2F0E2E2E2F0E2E2E2E2E2E2F5E2E2E2E2E2E2E2E2E2E2E2E2E2E2E2E2E2E2E2E2E2E2E2E2E2E2E2E2E2E2E2E2E2E2E2F5E2E2E2E2E2E2E2E2E2E2E2E2F0E2E2E2F5F5F5E2E2E2F0E2E2E2E2E2E2F5F0E2E2F0F0F0F0F0F0F0F0F0F0F0F0F0E2E2F5E2F0
310
F0F0F0F0F0F0F0F0F0F0F0F0F0F0F0F0F0F0F0F0F0F0F0F0F0F0F0F0F0F0F0F0F0F0F0F0F0F0F0F0F0F0F0F0F0F0F0F0F0F0F0F0F0F0F0F0F0F0E2F5F5F5F5F5F5F5F5F5F5E2E2E2E2E2E2E2E2E2E2E2E2F0E2E2E2F0E2E2E2E2E2E2F5E2E2E2E2E2E2E2E2E2E2E2E2E2F5F5F5F5F5F5F5F5F5E2E2E2E2E2E2E2E2E2E2E2E2
310
E2F5E2E2E2E2E2E2E2E2E2E2E2E2F0E2E2E2F5F5F5E2E2E2F0E2E2E2E2E2E2F5F0E2E2F0E2E2E2E2E2E2E2E2E2E2E2F5E2E2F5E2F0F0F0F0F0F0F0F0F0F0F0F0F0F0F0F0F0F0F0F0F0F0F0F0F0F0F0F0F0F0F0F0F0F0F0F0F0F0F0F0F0F0F0F0F0F0F0F0F0F0F0F0F0F0F0F0F0F0F0E2F5F5E2F5E2E2E2E2E2F5E2E2E2E2E2
310
E2E2E2E2E2E2E2F0E2E2E2F0E2E2E2E2E2E2F5E2E2E2E2E2E2E2E2E2E2E2E2E2F5F5F5E2E2E2F5F5F5E2E2E2E2F5F5F5F5E2E2E2E2E2F5E2E2E2E2E2E2E2E2E2E2E2E2F0E2E2E2F5F5F5E2E2E2F0E2E2E2E2E2E2F5F0E2E2F0F0F0F0F0F0F0F0F0F0F0F0F0E2E2F5E2F0E2E2E2E2E2E2E2E2E2E2E2E2E2E2E2E2E2E2E2E2E2
310
E2E2E2E2E2E2E2E2E2E2E2E2E2E2E2E2E2E2E2E2E2E2E2E2E2E2E2E2E2E2E2E2E2E2E2E2F0E2F5F5E2F5E2E2E2E2E2F5E2E2E2E2E2E2E2E2E2E2E2E2F0E2E2E2F0E2E2E2E2E2E2F5E2E2E2E2E2E2E2E2E2E2E2E2E2F5F5E2F5F5F5E2F5F5E2E2E2F5E2E2F5E2F5E2E2E2E2F5E2E2E2E2E2E2E2E2E2E2E2E2F0E2E2E2F5F5F5
310
E2E2E2F0E2E2E2E2E2E2E2F5F5F5F5F5F5F5F5F5F5F5F5F5F5F5F5F5F5F5E2F0F0F0F0F0F0F0F0F0F0F0F0F0F0F0F0F0F0F0F0F0F0F0F0F0F0F0F0F0F0F0F0F0F0F0F0F0F0F0F0F0F0F0F0F0F0F0F0F0F0F0F0F0F0F0F0F0F0F0E2F5F5E2F5E2E2E2E2E2F5E2E2E2E2E2E2E2E2E2E2E2E2F0E2E2E2F0E2E2E2E2E2E2F5E2E2
310
E2E2E2E2E2E2E2E2E2E2E2F5F5E2F5E2F5E2E2F5E2E2E2F5E2F5E2F5F5E2E2E2E2F5E2E2E2E2E2E2E2E2E2E2E2E2F0E2E2E2F5F5F5E2E2E2F0E2E2E2E2E2E2F0E2E2E2E2E2E2E2E2E2E2E2E2E2E2E2E2E2E2F5E2F0F0F0F0F0F0F0F0F0F0F0F0F0F0F0F0F0F0F0F0F0F0F0F0F0F0F0F0F0F0F0F0F0F0F0F0F0F0F0F0F0F0F0
310
F0F0F0F0F0F0F0F0F0F0F0F0F0F0F0F0E2F5F5E2F5E2E2E2E2E2F5E2E2E2E2E2E2E2E2E2E2E2E2F0E2E2E2F0E2E2E2E2E2E2F5E2E2E2E2E2E2E2E2E2E2E2E2E2F5E2E2F5E2F5E2E2F5E2E2E2F5F5F5E2F5F5E2E2E2E2F5E2E2E2E2E2E2E2E2E2E2E2E2F0E2E2E2F5F5F5E2E2E2F0E2E2E2E2E2E2F0E2E2E2E2E2E2E2E2E2E2
310
E2E2E2E2E2E2E2E2F5E2F0F0F0F0F0F0F0F0F0F0F0F0F0F0F0F0F0F0F0F0F0F0F0F0F0F0F0F0F0F0F0F0F0F0F0F0F0F0F0F0F0F0F0F0F0F0F0F0F0F0F0F0F0F0F0F0F0F0F0E2F5F5E2F5E2E2E2E2E2F5E2E2E2E2E2E2E2E2E2E2E2E2F0E2E2E2F0E2E2E2E2E2E2F5E2E2E2E2E2E2E2E2E2E2E2E2E2F5F5E2F5F5F5E2F5F5E2
310
E2E2F5E2E2F5E2F5E2E2E2E2F5E2E2E2E2E2E2E2E2E2E2E2E2F0E2E2E2F5F5F5E2E2E2F0E2E2E2E2E2E2F0E2E2E2E2E2E2E2E2E2E2E2E2E2E2E2E2E2E2F5E2F0F0F0F0F0F0F0F0F0F0F0F0F0F0F0F0F0F0F0F0F0F0F0F0F0F0F0F0F0F0F0F0F0F0F0F0F0F0F0F0F0F0F0F0F0F0F0F0F0F0F0F0F0F0F0F0F0F0F0E2F5F5E2F5
310
E2E2E2E2E2F5E2E2E2E2E2E2E2E2E2E2E2E2F0E2E2E2F0E2E2E2E2E2E2F5E2E2E2E2E2E2E2E2E2E2E2E2E2F5F5E2E2E2E2E2F5F5E2E2E2E2F5F5F5F5E2E2E2E2E2F5E2E2E2E2E2E2E2E2E2E2E2E2F0E2E2E2F5F5F5E2E2E2F0E2E2E2E2E2E2F0E2E2E2E2E2E2E2E2E2E2E2E2E2E2E2E2E2E2F5E2F0E2E2E2E2E2E2E2E2E2E2
310
E2E2E2E2E2E2E2E2E2E2E2E2E2E2E2E2E2E2E2E2E2E2E2E2E2E2E2E2E2E2E2E2E2E2E2E2E2E2E2E2E2E2E2E2E2E2E2F0E2F5F5F5F5F5F5F5F5F5F5E2E2E2E2E2E2E2E2E2E2E2E2F0E2E2E2F0E2E2E2E2E2E2F5F5F5F5E2E2E2E2E2E2E2E2E2E2F5F5F5F5F5F5F5F5F5E2E2E2E2E2E2E2E2E2E2F5F5F5F5E2E2E2E2E2E2E2E2
310
E2E2E2E2F0E2E2E2F5F5F5E2E2E2F0E2E2E2E2E2E2F0E2E2E2E2E2E2E2E2E2E2E2E2E2E2E2E2E2E2F5E2F0E2E2E2E2E2E2E2E2E2E2E2E2E2E2E2E2E2E2E2E2E2E2E2E2E2E2E2E2E2E2E2E2E2E2E2E2E2E2E2E2E2E2E2E2E2E2E2E2E2E2E2E2E2E2E2E2E2F0E2F5F5E2E2E2E2E2E2E2E2E2E2E2E2E2E2E2E2E2E2E2E2F0E2E2
310
E2F0E2E2E2E2E2E2F5F5F0F5E2E2E2E2E2E2E2E2E2E2F5F5F5F5F5F5F5F5F5E2E2E2E2E2E2E2E2E2E2F5F0F5F5E2E2E2E2E2E2E2E2E2E2E2E2F0E2E2E2F5F5F5E2E2E2F0E2E2E2E2E2E2F0E2E2E2E2E2E2E2E2E2E2E2E2E2E2E2E2E2E2F0E2F0E2E2E2E2E2E2E2E2E2E2E2E2E2E2E2E2E2E2E2E2E2E2E2E2E2E2E2E2E2E2E2
310
E2E2E2E2E2E2E2E2E2E2E2E2E2E2E2E2E2E2E2E2E2E2E2E2E2E2F0E2F0E2E2E2E2E2E2E2E2E2E2E2E2E2E2E2E2E2E2E2E2E2F0E2E2E2F0E2E2E2E2E2E2F0F5F0F5E2E2E2E2E2E2E2E2E2E2E2E2E2E2E2E2E2E2E2E2E2E2E2E2E2E2E2E2E2F5F0F5F0E2E2E2E2E2E2E2E2E2E2E2E2F0E2E2E2F5F5F5E2E2E2F0E2E2E2E2E2E2
310
F0E2E2E2E2E2E2E2E2E2E2E2E2E2E2E2E2E2E2F0F5F0F5F5F5F5F5F5F5F5F5F5F5F5F5F5F5F5F5F5F5F5F5F5F5F5F5F5F5F5F5F5F5F5F5F5F5F5F5F5F5F5F5F5F5F5F5F5F5F5F5F5F5F5F5F5F5F5F5F0F5F0E2E2E2E2E2E2E2E2E2E2E2E2E2E2E2E2E2E2E2E2E2F0E2E2F0F0F0F0F0F0F0F0F0F0F5F5F5F5F5F5F5F5F5F5F5
310
F5F5F5F5F5F5F5F5F5F5F5F5F5F5F5F5F5F5F5F5F5F5F5F0E2E2E2E2E2E2E2E2E2E2E2E2F0E2E2E2F5F5F5E2E2E2F0E2E2E2E2E2E2F0E2E2E2E2E2E2E2E2E2E2E2E2E2E2E2E2E2E2F0E2E2E2E2E2F5F5E2E2E2F5F5F5F5F5F5F5F5F5F5F5F5F5E2E2E2E2E2E2E2E2E2E2E2E2E2E2E2F5F5F5F5F5F52DF5F5F5F50FF5E2E2E2
310
F5F5E2E2E2E2E2F0E2E2E2E2E2E2E2E2E2F0E2E2E2E2E2E2E2E2E2E2E2F0E2E2E2F0E2E2E2E2E2E2F0E2E2E2E2E2E2E2E2E2E2E2E2E2E2F5E2E2E2E2F5E2E2E2E2E2E2E2E2E2E2E2E2E2E2E2F0E2E2E2E2E2E2E2E2E2E2E2E2F0E2E2E2F5F5F5E2E2E2F0E2E2E2E2E2E2F0E2E2E2E2E2E2E2E2E2E2E2E2E2E2E2E2E2E2F0E2
310
E2E2E2E2E2E2F5F5F5F5F5F5F5F5F5F5F5F5F5F5F5E2F5F5F5F5F5F5F5F5F5F5F5F5F5F5F5E2F5F5F5F5F5F5F5F5F5F50FF5F5F5F5E2E2E2E2E2E2E2F0E2E2E2E2E2E2E2E2E2F0E2E2E2E2E2E2E2E2E2E2E2F0E2E2E2F0E2E2E2E2E2E2F0E2E2E2E2E2E2E2E2E2E2E2E2E2E2F5E2E2E2E2F5E2E2E2E2E2E2E2E2E2E2E2E2E2
310
E2E2F0E2E2E2E2E2E2E2E2E2E2E2E2F0E2E2E2F5F5F5E2E2E2F0E2E2E2E2E2E2F0E2E2E2E2E2E2E2E2E2E2E2E2E2E2E2E2E2E2F0E2E2E2E2E2E2E2E2E2E2F5F5F5F5F5F5F5F5F5F5E2E2E2E2E2E2E2E2E2E2E2E2E2E2E2E2E2E2E2E2E2F5F5F5F5F5F5F5F5F5F5E2E2E2E2E2E2E2E2E2E2F0E2E2E2E2E2E2E2E2E2F0E2E2E2
310
E2E2E2E2E2E2E2E2F0E2E2E2F0E2E2E2E2E2E2F0E2E2E2E2E2E2E2E2E2E2E2E2E2E2F5F5F5F5F5F5E2E2E2E2E2E2E2E2E2E2E2E2E2E2E2F0E2E2E2E2E2E2E2E2E2E2E2E2F0E2E2E2F5F5F5E2E2E2F0E2E2E2E2E2E2F0E2E2E2E2E2E2E2E2E2E2E2E2E2E2E2E2E2E2F0E2E2E2E2E2E2E2E2E2E2E2E2E20FE2E2E2F5F5F5F5F5
310
F5F5F5F5F5F5F5F5F5F5F5F5F5F5F5F5F5F5F5F5F5F5E2E2E20F0FE2E2E2E2E2E2E2E2E2E2E2E2F0E2E2E2E2E2E2E2E2E2F0E2E2E2E2E2E2E2E2E2E2F0F0F0F0F0F0F0F0F0F0F0F0F0F0F0F0F0F0F0F0F0F0F0F0F0F0F0F0F5F5F5F5F5E2E2E2E2E2E2E2E2E2E2E2E2E2E2E2F0E2E2E2E2E2E2E2E2E2E2E2E2F0E2E2E2F5F5
310
F5E2E2E2F0E2E2E2E2E2E2F0E2E2E2E2E2E2E2E2E2E2E2E2E2E2E2E2E2E2F0E2E2E2E2E2E2E2E2E2E2E2E2E20F0FE2E2E2E2E2E2E2E2E2E2E2E2E2E2E2E2E2E2E2E2E2E2E2E2E2E2E2E2E2E2E20F0FE2E2E2E2E2E2E2E2E2E2E2E2E2F0E2E2E2E2E2E2E2E2E2F0E2E2E2E2E2E2E2E2E2E2E2E2E2E2E2F0E2E2E2E2E2E2F0E2
310
E2E2E2E2E2E2E2E2E2E2E2E2E2E2E2E2E2E2E2E2E2E2E2E2E2E2E2E2E2E2E2E2E2E2F0E2E2E2E2E2E2E2E2E2E2E2E2F0E2E2E2F5F5F5E2E2E2F0E2E2E2E2E2E2F0E2E2E2E2E2E2E2E2E2E2E2E2E2E2E2E2E2E2F0E2E2E2E2E2E2E2E2E2E2E2E2E2E20F0F0F0FE2E2E2E2E2E2E2E2E2E2E2E2E2E2E2E2E2E2E2E2E2E2E2E2E2
310
0F0F0F0FE2E2E2E2E2E2E2E2E2E2E2E2E2E2F0E2E2E2E2E2E2E2E2E2F0E2E2E2E2E2E2E2E2E2E2E2E2F0F0F0F0E2E2E2E2E2E2F0E2E2E2E2E2E2E2E2E2E2E2E2E2E2E2E2E2E2E2E2E2E2E2E2E2E2E2E2E2E2E2E2E2E2E2F0E2E2E2E2E2E2E2E2E2E2E2E2F0E2E2E2F5F5F5E2E2E2F0E2E2E2E2E2E2F0E2E2E2E2E2E2E2E2E2
310
E2E2E2E2E2E2E2E2E2F0E2E2E2E2E2E2E2E2E2E2E2E2E2E2E20F0F0F0F0F0F0F0FE2E2E2E2E2E2E2E2E2E2E2E2E2E2E20F0F0F0F0F0F0F0F0FE2E2E2E2E2E2E2E2E2E2E2E2E2E2F0E2E2E2E2E2E2E2E2E2F0E2E2E2E2E2E2E2E2E2E2E2E2F0E2F0F0E2E2E2E2E2E2F0E2E2E2E2E2E2E2E2E2E2E2E2E2E2E2E2E2E2E2E2E2E2
310
E2E2E2E2E2E2E2E2E2E2E2E2E2F0E2E2E2E2E2E2E2E2E2E2E2E2F0E2E2E2F5F5F5E2E2E2F0E2E2E2E2E2E2F0E2E2E2E2E2E2E2E2E2E2E2E2E2E2E2E2E2E2F0E2E2E2E2E2E2E2E2E2E2E2E20F0F0F0F0F0F0F0F0F0FE20F0F0F0F0F0F0F0F0F0F0F0F0F0F0FE20F0F0F0F0F0F0F0F0F0FE2E2E2E2E2E2E2E2E2E2E2E2F0E2E2
310
E2E2E2E2E2E2E2F0E2E2E2E2E2E2E2E2E2E2E2E2F0F0F0F0E2E2E2E2E2E2F0E2E2E2E2E2E2E2E2E2E2E2E2E2E2E2E2E2E2E2E2E2E2E2E2E2E2E2E2E2E2E2E2E2E2E2F0E2E2E2E2E2E2E2E2E2E2E2E2F0E2E2E2F5F5F5E2E2E2F0E2E2E2E2E2E2F0E2E2E2E2E2E2E2E2E2E2E2E2E2E2E2E2E2E2F0E2E2E2E2E2E2E2E2E2E2E2
310
E20F0F0FE2E2E20F0FE2E2E2E2E2E2E2E2E2E2E2E2E2E2E2E2E2E2E2E2E20F0FE2E2E20F0F0FE2E2E2E2E2E2E2E2E2E2E2E2F0E2E2E2E2E2E2E2E2E2F0E2E2E2E2E2E2E2E2E2E2E2E2F0F0F0F0E2E2E2E2E2E2F0E2E2E2E2E2E2E2E2E2E2E2E2E2E2E2E2E2E2E2E2E2E2E2E2E2E2E2E2E2E2E2E2E2E2E2F0E2E2E2E2E2E2E2
310
E2E2E2E2E2F0E2E2E2F5F5F5E2E2E2F0E2E2E2E2E2E2F0E2E2E2E2E2E2E2E2E2E2E2E2E2E2E2E2E2E2F0E2E2E2E2E2E2E2E2E2E2E2E2E2E2E20F0F0F0FE20F0FE20F0F0F0F0F0F0F0F0F0F0F0FE20F0FE20F0FE20F0F0F0FE2E2E2E2E2E2E2E2E2E2E2E2E2E2E2F0E2E2E2E2E2E2E2E2E2F0E2E2E2E2E2E2E2E2E2E2E2E2F0
310
F0F0F0E2E2E2E2E2E2F0E2E2E2E2E2E2E2E2E2E2E2E2E2E2E2E2E2E2E2E2E2E2E2E2E2E2E2E2E2E2E2E2E2E2E2F0E2E2E2E2E2E2E2E2E2E2E2E2F0E2E2E2F5F5F5E2E2E2F0E2E2E2E2E2E2F0F0F0F0F0F0F0F0F0F0F0F0F0F0F0F0F0F0F0F0F0F0F0F0F0F0F0F0F0F0F0F0F0F0F0F0F0F0F0F0F0F0F0F0F0F0F0F0F0F0F0F0
310
F0F0F0F0F0F0F0F0F0F0F0F0F0F0F0F0F0F0F0F0F0F0F0F0F0F0F0F0F0F0F0F0F0F0F0F0F0F0F0F0E2E2E2E2E2E2E2E2E2E2E2E2F0F0F0F0E2E2E2E2E2E2F0F0F0F0F0F0F0F0F0F0F0F0F0F0F0F0F0F0F0F0F0F0F0F0F0F0F0F0F0F0F0F0F0F0F0F0F0E2E2E2E2E2E2E2E2E2E2E2E2F0E2E2E2F5F5F5E2E2E2F0E2E2E2E2E2
310
E2F0E2E2E2E2E2E2F0F0F0F0F0F0E2E2E2E2E2E2F0E2E2E2E2E2E2E2E2E2E2E2E2E2E2E2E2E2E2E2E2E2E2E2E2E2E2E2E2E2F0F0F0F0E2E2E2E2E2E2E2E2E2E2E2E2E2E2E2E2E2E2E2E2E2E2E2E2E2E2E2E2F0E2E2F0F0F0F0F0F0E2F0E2E2E2E2E2E2E2E2E2E2E2E2E2E2E2F0E2E2E2E2E2E2F0E2E2E2E2E2E2E2E2E2E2E2
310
E2E2E2E2E2F0F0F0F0E2E2E2E2E2E2E2E2E2E2E2E2E2E2E2F0E2E2E2E2E2E2E2E2E2E2E2E2F0E2E2E2F5F5F5E2E2E2F0E2E2E2E2E2E2F0E2E2E2E2E2E2F0F0F0F0F0F0E2E2E2E2E2E2E2E2E2E2E2E2E2E2E2E2E2E2E2E2E2E2E2E2E2E2E2E2E2E2E2E2E2E2E2F0F0F0F0F0E2E2E2E2E2E2E2E2E2E2E2E2E2E2E2E2E2E2E2E2
310
E2E2E2E2E2E2E2E2E2E2F0E2F0F0F0F0F0E2F0E2E2E2E2E2E2E2E2E2E2E2E2E2E2E2E2E2E2E2E2E2E2E2E2E2E2E2E2E2E2E2E2E2E2E2E2E2E2F0F0F0F0F0E2E2E2E2E2E2E2E2E2E2E2E2E2E2E2E2E2E2E2E2E2E2E2E2E2E2E2E2F0E2E2E2F5F5F5E2E2E2F0E2E2E2E2E2E2F0E2E2E2E2E2E2F0F0F0F0F0F0E2E2E2E2E2E2E2
310
E2E2E2E2E2E2E2E2E2E2E2E2E2E2E2E2E2E2E2E2E2E2E2E2E2E2E2E2E2E2E2E2E2E2E2E2E2E2E2E2E2E2E2E2E2E2E2E2E2E2E2E2E2E2E2E2E2E2E2E2E2E2E2E2F0F0F0F0F0F0E2F0E2E2E2E2E2E2E2E2E2E2E2E2E2E2E2E2E2E2E2E2E2E2E2E2E2E2E2E2E2E2E2E2E2E2E2E2E2E2E2E2E2E2E2E2E2E2E2E2E2E2E2E2E2E2E2
310
E2E2E2E2E2E2E2E2E2E2E2E2E2E2E2E2F0E2E2E2F5F5F5E2E2E2F0E2E2E2E2E2E2F0F0F0F0F0F0F0F0F0F0F0F0F0F0F0F0F0F0F0F0F0F0F0F0F0F0F0F0F0F0F0F0F0F0F0F0F0F0F0F0F0F0F0F0F0F0F0F0F0F0F0F0F0F0F0F0F0F0F0F0F0F0F0F0F0F0F0F0F0F0F0F0F0F0F0F0F0F0F0F0F0F0F0F0F0F0F0F0F0F0F0F0E2E2
310
E2E2E2E2E2E2E2E2E2E2E2E2E2E2E2E2E2E2E2E2E2E2E2E2E2E2E2E2E2E2E2E2E2E2E2E2E2E2E2E2E2E2E2E2E2E2E2E2E2E2E2E2E2E2E2E2E2E2E2E2E2E2E2E2E2E2E2E2E2F0E2E2E2F5F5F5E2E2E2F0E2E2E2E2E2E2F0E2E2E2E2E2E2E2E2E2E2E2E2E2E2E2E2E2E2E2E2E2E2E2E2E2E2E2E2E2E2E2E2E2E2E2E2E2E2E2E2
310
E2E2E2F0F0F0F0F0E2E2E2E2E2E2E2E2E2E2E2E2E2E2E2E2E2E2E2E2E2E2E2E2E2E2E2E2E2E2E2E2E2E2E2E2E2E2E2E2E2E2F0E2E2E2E2E2E2E2E2E2E2E2E2E2E2E2E2E2E2E2E2E2E2E2E2E2E2E2E2E2E2E2E2E2E2E2E2E2E2E2E2E2E2E2E2E2E2E2E2E2E2E2E2E2E2E2E2E2E2E2E2E2E2E2E2E2E2E2E2E2E2E2F0E2E2E2F5
310
F5F5E2E2E2F0E2E2E2E2E2E2E2E2E2E2E2E2E2E2E2E2E2E2E2E2E2E2E2E2E2E2E2E2E2E2E2E2E2E2E2E2E2E2E2E2E2E2E2E2E2E2E2E2E2E2F0F0F0F0F0E2E2E2E2E2E2E2E2E2E2E2E2E2E2E2E2E2E2E2E2E2E2E2E2E2E2E2E2E2E2E2E2E2E2E2E2E2E2E2E2E2E2E2E2E2E2E2E2E2E2E2E2E2E2E2E2E2E2E2E2E2E2E2E2E2E2
310
E2E2E2E2E2E2E2E2E2E2E2E2E2E2E2E2E2E2E2E2E2E2E2E2E2E2E2E2E2E2E2E2E2E2E2E2E2E2E2E2E2E2E2E2E2E2E2E2F0E2E2E2F5F5F5E2E2E2F0E2E2E2E2E2E2E2E2E2E2E2E2E2E2E2E2E2E2E2E2E2E2E2E2E2E2E2E2E2E2E2E2E2E2E2E2E2E2E2E2E2E2E2E2E2E2E2E2E2E2E2E2E2E2E2E2E2E2E2E2E2E2E2E2E2E2E2E2
310
E2E2E2E2E2E2E2E2E2E2E2E2E2E2E2E2E2E2E2E2E2E2E2E2E2E2E2E2E2E2E2E2E2E2E2E2E2E2E2E2E2E2E2E2E2E2E2E2E2E2E2E2E2E2E2E2E2E2E2E2E2E2E2E2E2E2E2E2E2E2E2E2E2E2E2E2E2E2E2E2E2E2E2E2E2E2E2E2E2E2E2E2E2E2E2E2E2E2E2E2E2F0E2E2E2F5F5F5E2E2E2F0E2E2E2E2E2E2E2E2E2E2E2E2E2E2E2
310
E2E2E2E2E2E2E2E2E2E2E2E2E2E2E2E2E2E2E2E2E2E2E2E2E2E2E2E2E2E2E2E2E2E2E2E2E2E2E2E2E2E2E2E2E2E2E2E2E2E2E2E2E2E2E2E2E2E2E2E2E2E2E2E2E2E2E2E2E2E2E2E2E2E2E2E2E2E2E2E2E2E2E2E2E2E2E2E2E2E2E2E2E2E2E2E2E2E2E2E2E2E2E2E2E2E2E2E2E2E2E2E2F5F5F5F5F5F5F5F5F5F5F5F5F5F5F5
310
F5F5F5F5F5F5F5F5E2E2E2E2E2E2E2E2E2E2E2E2E2E2E2E2E2E2E2F0E2E2E2F5F5F5E2E2E2F0E2E2E2E2E2E2E2E2E2E2E2E2E2E2E2E2E2E2E2E2E2E2E2E2E2F5F5F5F5F5F5F5F5F5F5F5F5F5F5F5F5F5F5F5F5F5F5F5F5F5F5F5F5F5F5F5F5F5F5F5F5F5F5F5F5F5F5F5F5F5F5F5F5F5F5F5F5F5F5F5F5F5F5F5F5F5F5F5E2
310
E2E2E2E2E2E2E2E2E2E2E2E2E2E2E2E2E2E2E2E2E2E2E2E2E2E2E2E2E2E2E2E2E2E2E2E2E2E2F5E2E2E2E2E2E2E2E2E2E2E2E2E2E2E2E2E2E2E2E2E2E2F5E2E2E2E2E2E2E2E2E2E2E2E2E2E2E2E2E2E2F0E2E2E2F5F5F5E2E2E2F0E2E2E2E2E2E2E2E2E2E2E2E2E2E2E2E2E2E2E2E2E2E2E2E2E2F5E2F0E2E2E2E2E2E2E2E2
310
E2E2E2E2E2E2E2E2E2E2E2E2E2E2E2E2E2E2E2E2E2E2E2E2E2E2E2E2E2E2E2E2E2E2E2E2E2E2E2E2E2E2E2E2E2E2E2E2E2F0E2F5E2E2E2E2E2E2E2E2E2E2E2E2E2E2E2E2E2E2E2E2E2E2E2E2E2E2E2E2E2E2E2E2E2E2E2E2E2E2F5E2E2E2E2E2E2E2E2E2E2E2E2E2E2E2E2E2E2E2E2E2E2E2F5E2E2E2E2E2E2E2E2E2E2E2E2
310
E2E2E2E2E2E2F0E2E2E2F5F5F5E2E2E2F0E2E2E2E2E2E2E2E2E2E2E2E2E2E2E2E2E2E2E2E2E2E2E2E2E2F5E2F0E2E2E2E2E2E2E2E2E2E2E2E2E2E2E2E2E2E2E2E2E2E2E2E2E2E2E2E2E2E2E2E2E2E2E2E2E2E2E2E2E2E2E2E2E2E2E2E2E2E2E2E2E2E2E2E2E2F0E2F5E2E2E2E2E2E2E2E2E2E2E2E2E2E2E2E2E2E2E2E2E2E2
310
E2E2E2E2E2E2E2E2E2E2E2F5F5F5F5F5F5F5F5F5F5F5F5F5F5F5F5F5F5F5F5F5F5F5F5F5F5F5F5F5F5F5F5F5F5F5E2E2E2E2E2E2E2E2E2E2E2E2E2F0E2E2E2F5F5F5E2E2E2F0E2E2E2E2E2E2E2E2E2E2E2E2E2E2E2E2E2E2E2E2E2E2E2E2E2F5E2F0E2E2E2E2E2E2E2E2E2E2E2E2E2E2E2E2E2E2E2E2E2E2E2E2E2E2E2E2E2
310
E2E2E2E2E2E2E2E2E2E2E2E2E2E2E2E2E2E2E2E2E2E2E2E2E2E2E2E2F0E2F5F5E2E2E2E2E2E2E2E2E2E2E2E2E2E2E2E2E2E2E2E2E2E2E2E2E2E2E2E2E2E2E2F5F0F0F0E2E2E2E2E2E2E2E2E2E2E2E2E2E2E2E2E2E2E2E2E2E2E2E2E2E2E2E2E2F5F0F5F5E2E2E2E2E2E2E2E2E2E2E2E2F0E2E2E2F5F5F5E2E2E2F0E2E2E2E2
310
E2E2E2E2E2E2E2E2E2E2E2E2E2E2E2E2E2E2E2E2E2F5E2F0F0F0F0F0F0F0F0F0F0F0F0F0F0F0F0F0F0F0F0F0F0F0F0F0F0F0F0F0F0F0F0F0F0F0F0F0F0F0F0F0F0F0F0F0F0F0F0F0F0F0F0F0F0F0F0F0F0F0E2F5F5F5F5F5E2E2E2E2E2E2E2E2E2E2E2E2E2E2E2E2E2E2E2E2E2E2E2E2E2E2E2E2F5F0F0F5E2E2E2E2E2E2E2
310
E2E2E2E2E2E2E2E2E2E2E2E2E2E2E2E2E2E2E2E2E2E2F5F0F5F5E2E2E2E2E2E2E2E2E2E2E2E2F0E2E2E2F5F5F5E2E2E2F0E2E2E2E2E2E2E2E2E2E2E2E2E2E2E2E2E2E2E2E2E2E2E2E2E2F5E2F0F0F0F0F0F0F0F0F0F0F0F0F0F0F0F0F0F0F0F0F0F0F0F0F0F0F0F0F0F0F0F0F0F0F0F0F0F0F0F0F0F0F0F0F0F0F0F0F0F0F0
310
F0F0F0F0F0F0F0F0E2F5F5F5E2E2F5F5F5E2E2E2E2E2E2E2E2E2E2E2E2E2E2E2E2E2E2E2E2E2E2E2E2E2F5E2F5E2E2E2E2E2E2E2E2E2E2E2E2E2E2E2E2E2E2E2E2E2E2E2E2E2E2E2E2E2E2E2F5E2F5E2E2E2E2E2E2E2E2E2E2E2E2F0E2E2E2F5F5F5E2E2E2F0E2E2E2E2E2E2E2E2E2E2E2E2E2E2E2E2E2E2E2E2E2E2E2E2E2
310
F5E2F0F0F0F0F0F0F0F0F0F0F0F0F0F0F0F0F0F0F0F0F0F0F0F0F0F0F0F0F0F0F0F0F0F0F0F0F0F0F0F0F0F0F0F0F0F0F0F0F0F0F0F0F0F0F0F0F0F0F0E2F5F5F5E2E2E2E2F5E2E2E2E2E2E2E2E2E2E2E2E2E2E2E2E2E2E2E2E2E2E2E2E2E2F5E2E2E2E2E2E2E2E2E2E2E2E2E2E2E2E2E2E2E2E2E2E2E2E2E2E2E2E2E2E2E2
310
E2E2E2E2F5E2E2E2E2E2E2E2E2E2E2E2E2F0E2E2E2F5F5F5E2E2E2F0E2E2E2E2E2E2E2E2E2E2E2E2E2E2E2E2E2E2E2E2E2E2E2E2E2F5E2F0F0F0F0F0F0F0F0F0F0F0F0F0F0F0F0F0F0F0F0F0F0F0F0F0F0F0F0F0F0F0F0F0F0F0F0F0F0F0F0F0F0F0F0F0F0F0F0F0F0F0F0F0F0F0F0F0F0F0E2F5F5F5E2E2E2E2F5E2E2E2E2
310
E2E2E2E2E2E2E2E2E2E2E2E2E2E2E2E2E2E2E2E2E2F5E2E2E2E2E2E2E2E2E2E2E2E2E2E2E2E2E2E2E2E2E2E2E2E2E2E2E2E2E2E2E2E2E2E2E2F5E2E2E2E2E2E2E2E2E2E2E2E2F0E2E2E2F5F5F5E2E2E2F0E2E2E2E2E2E2E2E2E2E2E2E2E2E2E2E2E2E2E2E2E2E2F5F5F5F5E2F0F0F0F0F0F0F0F0F0F0F0F0F0F0F0F0F0F0F0
310
F0F0F0F0F0F0F0F0F0F0F0F0F0F0F0F0F0F0F0F0F0F0F0F0F0F0F0F0F0F0F0F0F0F0F0F0F0F0F0F0E2F5F5F5F5F5F5F5F5E2E2E2E2E2E2E2E2E2E2E2E2E2E2E2E2E2E2E2E2E2E2E2E2E2F5E2E2E2E2E2E2E2E2E2E2E2E2E2E2E2E2F5F5E2E2E2E2E2E2E2E2E2E2E2E2E2E2E2E2E2F5E2E2E2E2E2E2E2E2E2E2E2E2F0E2E2E2
310
F5F5F5E2E2E2F0E2E2E2E2E2E2F5F5F5F5F5F5F5F5F5F5F5F5F5F5F5F5F5E2E2F5E2F0F0F0F0F0F0F0F0F0F0F0F0F0F0F0F0F0F0F0F0F0F0F0F0F0F0F0F0F0F0F0F0F0F0F0F0F0F0F0F0F0F0F0F0F0F0F0F0F0F0F0F0F0F0F0F0F0F0F0E2F5F5E2E2E2E2E2E2E2E2E2E2E2E2E2E2E2E2E2E2E2E2E2E2E2E2E2E2E2E2E2E2E2
310
F5E2E2E2E2E2E2E2E2E2E2E2E2E2E2F5F5F5F5F5F5F5E2E2E2E2E2E2E2E2E2E2E2E2E2E2F5E2E2E2E2E2E2E2E2E2E2E2E2F0E2E2E2F5F5F5E2E2E2F0E2E2E2E2E2E2F5F0E2E2F0F0F0F0F0F0F0F0F0F0F0F0F0E2E2F5E2F0F0F0F0F0F0F0F0F0F0F0F0F0F0F0F0F0F0F0F0F0F0F0F0F0F0F0F0F0F0F0F0F0F0F0F0F0F0F0F0
310
F0F0F0F0F0F0F0F0F0F0F0F0F0F0F0F0F0F0F0E2F5E2E2E2E2E2E2E2E2E2E2E2E2E2E2E2E2E2E2E2E2E2E2E2E2E2E2E2E2E2E2E2E2F5E2E2E2E2E2E2E2E2E2E2E2E2F5F5E2E2E2E2E2E2E2F5F5E2E2E2E2E2E2E2E2E2E2E2E2F5E2E2E2E2E2E2E2E2E2E2E2E2F0E2E2E2F5F5F5E2E2E2F0E2E2E2E2E2E2F5F0E2E2F0F0F0F0
310
F0F0F0F0F0F0F0F0F0E2E2F5E2F0E2E2E2E2E2E2E2E2E2E2E2E2E2E2E2E2E2E2E2E2E2E2E2E2E2E2E2E2E2E2E2E2E2E2E2E2E2E2E2E2E2E2E2E2E2E2E2E2E2E2E2E2E2E2E2E2E2F0E2F5E2E2E2E2E2E2E2E2E2E2E2E2E2E2E2E2E2E2E2E2E2E2E2E2E2E2E2E2E2E2E2E2F5E2E2E2E2E2E2E2E2E2E2F5F5F0E2E2F5F5F5F5F5
310
E2E2E2F5F5E2E2E2E2E2E2E2E2E2E2F5E2E2E2E2E2E2E2E2E2E2E2E2F0E2E2E2F5F5F5E2E2E2F0E2E2E2E2E2E2F5F0E2E2F0F0F0F0F0F0F0F0F0F0F0F0F0E2E2F5E2F0E2E2E2E2E2E2E2E2E2E2E2E2E2E2E2E2E2E2E2E2E2E2E2E2E2E2E2E2E2E2E2E2E2E2E2E2E2E2E2E2E2E2E2E2E2E2E2E2E2E2E2E2E2E2E2E2E2F0E2F5
310
E2E2E2E2E2E2E2E2E2E2E2E2E2E2E2E2E2E2E2E2E2E2E2E2E2E2E2E2E2E2E2E2F5E2E2E2E2E2E2E2E2E2E2F5F0E2F5F5F5F5F5F5F5F5F5E2F0F5F5E2E2E2E2E2E2E2E2E2F5E2E2E2E2E2E2E2E2E2E2E2E2F0E2E2E2F5F5F5E2E2E2F0E2E2E2E2E2E2F5F0E2E2F0E2E2E2E2E2E2E2E2E2E2E2F5E2E2F5E2F0E2E2E2E2E2E2E2
310
E2E2E2E2E2E2E2E2E2E2E2E2E2E2E2E2E2E2E2E2E2E2E2E2E2E2E2E2E2E2E2E2E2E2E2E2E2E2E2E2E2E2E2E2E2E2E2E2E2E2F0E2F5E2E2E2E2E2E2E2E2E2E2E2E2E2E2E2E2E2E2E2E2E2E2E2E2E2E2E2E2E2E2E2E2F5E2E2E2E2E2E2E2E2E2F5F0E2F5F5F5E2E2E2E2E2F5F5F5E2F0F5E2E2E2E2E2E2E2E2E2F5E2E2E2E2E2
310
E2E2E2E2E2E2E2F0E2E2E2F5F5F5E2E2E2F0E2E2E2E2E2E2F5F0E2E2F0F0F0F0F0F0F0F0F0F0F0F0F0E2E2F5E2F0E2E2E2E2E2E2E2E2E2F5F5F5F5E2E2E2E2E2E2E2E2E2E2E2E2E2E2E2E2E2E2E2E2E2E2E2E2E2E2E2E2E2E2E2F5F5F5F5E2E2E2E2E2E2E2E2E2F0E2F5F5E2F5F5F5F5F5F5F5E2E2E2E2E2E2E2E2E2E2E2E2
310
E2E2E2E2E2E2E2E2E2E2E2F5E2E2E2E2E2E2E2E2E2F5E2F5F5E2E2E2E2E2E2E2E2E2F5F5E2F5E2E2E2E2E2E2E2E2E2F5E2E2E2E2E2E2E2E2E2E2E2E2F0E2E2E2F5F5F5E2E2E2F0E2E2E2E2E2E2F5F0E2E2F0F0F0F0F0F0F0F0F0F0F0F0F0E2E2F5E2F0E2E2E2E2E2E2E2E2F5F5F5F5F5F5F5F5F5F5E2E2E2E2E2E2E2E2E2E2
310
E2E2E2E2E2E2E2E2E2E2E2F5F5F5F5F5F5F5F5F5F5E2E2E2E2E2E2E2E2F0E2F5F5F5F5E2E2E2E2E2F5E2E2E2E2E2E2E2E2E2E2E2E2E2E2E2E2E2E2E2E2E2E2E2F5E2E2E2E2E2E2E2E2F5F0E2F5F5E2E2E2E2E2E2E2E2E2E2F5F5E2F5E2E2E2E2E2E2E2E2F5E2E2E2E2E2E2E2E2E2E2E2E2F0E2E2E2F5F5F5E2E2E2F0E2E2E2
310
E2E2E2F5F0E2E2F0E2E2E2E2E2E2E2E2E2E2E2F5E2E2F5E2F0E2E2E2F5F5F5F5F5F5F5F5F5F52DF5F5F5F5F5F5F5F5F5F5F5F5F5F5F5F5F5F5F5F5F5F5F5F5F5F5F5F5F52D2DF5F5F5F5F5F5F5F5F5E2E2E2F0E2F5F5E2F5E2E2E2E2E2F5E2E2E2E2E2E2E2E2E2E2E2E2E2E2E2E2E2E2E2E2E2E2E2F5E2E2E2E2E2E2E2E2F5
310
E2F5F5E2E2E2E2E20FE2E2E2E2E2F5F5E2F5E2E2E2E2E2E2E2E2F5E2E2E2E2E2E2E2E2E2E2E2E2F0E2E2E2F5F5F5E2E2E2F0E2E2E2E2E2E2F5F0E2E2F0E2E2E2E2E2E2E2E2E2E2E2F5E2E2F5E2F0E2E2E2F5E2F5F5E2E2E2F5E2E22DE2E2E2E2E2E2E2E2E2E2E2E2E2E2E2E2E2E2E2E2E2E2E2E2E2E2E2E2E22DE2E2F5F5E2
310
E2F5F5F5F5E2E2E2F0E2F5F5E2F5E2E2E2E2E2F5E2E2E2E2E2E2E2E2E2E2E2E2E2E2E2E2E2E2E2E2E2E2E2F5E2E2E2E2E2E2E2E2F5E2F5F5E2E2E2E2E20FE2E2E2E2E2E2F5E2F5F5E2E2E2E2E2E2E2F5E2E2E2E2E2E2E2E2E2E2E2E2F0E2E2E2F5F5F5E2E2E2F0E2E2E2E2E2E2F5F0E2E2F0F0F0F0F0F0F0F0F0F0F0F0F0E2
310
E2F5E2F0E2E2E2F5F5F5F5E2E2E2F5E2E22DE2E2E2E2E2E2E2E2E2E2E2E2E2E2E2E2E2E2E2E2E2E2E2E2E2E2E2E2E22DE2E2F5F5E2E2F5F5F5F5E2E2E2F0E2F5F5E2F5E2E2E2E2E2F5E2E2E2E2E2E2E2E2E2E2E2E2E2E2E2E2E2E2E2E2E2E2E2F5E2E2E2E2E2E2E2F5F5E2F5E2E2E20F0F0F0F0F0FE2E2E2E2F5E2F5F5E2E2
310
E2E2E2E2E2F5E2E2E2E2E2E2E2E2E2E2E2E2F0E2E2E2F5F5F5E2E2E2F0E2E2E2E2E2E2F5F0E2E2F0F0F0F0F0F0F0F0F0F0F0F0F0E2E2F5E2F0E2E2E2F5E2F5F5E2E2E2F5E2E22DE2E2E2E2E2E2E2E2E2E2E2E2E2E2E2E2E2E2E2E2E2E2E2E2E2E2E2E2E22DE2E2F5F5E2E2F5F5F5F5E2E2E2F0E2F5F5E2F5E2E2E2E2E2F5E2
310
E2E2E2E2E2E2E2E2E2E2E2E2E2E2E2E2E2E2E2E2E2E2F5E2E2E2E2E2E2E2F5F5E2F5F5E2E2E2E2E20FE2E2E2E2E2E2F5E2F5F5E2E2E2E2E2E2E2F5E2E2E2E2E2E2E2E2E2E2E2E2F0E2E2E2F5F5F5E2E2E2F0E2E2E2E2E2E2F5F0E2E2F0E2E2E2E2E2E2E2E2E2E2E2F5E2E2F5E2F0E2E2E2F5E2E2E2E2E2F5F5E2E22DE2E2E2
310
E2E2E2E2E2E2E2E2E2E2E2E2E2E2E2E2E2E2E2E2E2E2E2E2E2E22DE2E2F5F5E2E2E2E2E2F5E2E2E2F0E2F5F5E2F5E2E2E2E2E2F5E2E2E2E2E2E2E2E2E2E2E2E2E2E2E2E2E2E2E2E2E2E2E2F5E2E2E2E2E2E2E2E2F5E2F5F5E2E2E2E2E20FE2E2E2E2E2F5F5E2F5E2E2E2E2E2E2E2E2F5E2E2E2E2E2E2E2E2E2E2E2E2F0E2E2
310
E2F5F5F5E2E2E2F0E2E2E2E2E2E2F5F0E2E2F0F0F0F0F0F0F0F0F0F0F0F0F0E2E2F5E2F0E2E2E2E2F5F5F5F5F5F5F5F5F5F5F5F5F5F5F5F5F5F5F5F5F5F5F5F5F5F5F5F5F5F5F5F5F5F5F5F5F5F5F5F5F5F5F5F5F5F5F5F5F5E2E2E2E2F0E2F5F5F5F5E2E2E2E2E2F5E2E2E2E2E2E2E2E2E2E2E2E2E2E2E2E2E2E2E2E2E2E2
310
E2F5E2E2E2E2E2E2E2E2F5E2E2F5F5E2E2E2E20FE2E2E2E2E2F5F5E2F5E2E2E2E2E2E2E2E2F5E2E2E2E2E2E2E2E2E2E2E2E2F0E2E2E2F5F5F5E2E2E2F0E2E2E2E2E2E2F5F0E2E2F0F0F0F0F0F0F0F0F0F0F0F0F0E2E2F5E2F0E2E2E2E2E2E2E2E2F5F5F5F5F5F5F5F5F5F5E2E2E2E2E2E2E2E2E2E2E2E2E2E2E2E2E2E2E2E2
310
E2E2F5F5F5F5F5F5F5F5F5E2E2E2E2E2E2E2E2F0E2F5F5E2F5F5F5F5F5F5F5E2E2E2E2E2E2E2E2E2E2E2E2E2E2E2E2E2E2E2E2E2E2E2F5E2E2E2E2E2E2E2E2E2F5E2F5F5E2E2E2E2E2E2E2E2E2F5F5E2E2F5E2E2E2E2E2E2E2E2F5E2E2E2E2E2E2E2E2E2E2E2E2F0E2E2E2F5F5F5E2E2E2F0E2E2E2E2E2E2F5F0E2E2F0E2E2
310
E2E2E2E2E2E2E2E2E2F5E2E2F5E2F0E2E2E2E2E2E2E2E2E2E2E2E2E2E2E2E2E2E2E2E2E2E2E2E2E2E2E2E2E2E2E2E2E2E2E2E2E2E2E2E2E2E2E2E2E2E2E2E2E2E2E2E2E2E2E2E2E2F0E2F5E2E2E2E2E2E2E2E2E2E2E2E2E2E2E2E2E2E2E2E2E2E2E2E2E2E2E2E2E2E2E2E2F5E2E2E2E2E2E2E2E2E2F5E2E2F5F5E2E2E2E2E2
310
E2E2F5F5E2E2F5E2E2E2E2E2E2E2E2E2F5E2E2E2E2E2E2E2E2E2E2E2E2F0E2E2E2F5F5F5E2E2E2F0E2E2E2E2E2E2F5F0E2E2F0F0F0F0F0F0F0F0F0F0F0F0F0E2E2F5E2F0E2E2E2E2E2E2E2E2E2E2E2E2E2E2E2E2E2E2E2E2E2E2E2E2E2E2E2E2E2E2E2E2E2E2E2E2E2E2E2E2E2E2E2E2E2E2E2E2E2E2E2E2E2E2E2E2E2F0E2
310
F5E2E2E2E2E2E2E2E2E2E2E2E2E2E2E2E2E2E2E2E2E2E2E2E2E2E2E2E2E2E2E2E2F5E2E2E2E2E2E2E2E2E2E2F5E2E2F5F5F5E2E2E2F5F5F5E2E2F0F5E2E2E2E2E2E2E2E2E2F5E2E2E2E2E2E2E2E2E2E2E2E2F0E2E2E2F5F5F5E2E2E2F0E2E2E2E2E2E2F5F0E2E2F0F0F0F0F0F0F0F0F0F0F0F0F0E2E2F5E2F0E2E2E2E2E2E2
310
E2E2E2E2E2E2E2E2E2E2E2E2E2E2E2E2E2E2E2E2E2E2E2E2E2E2E2E2E2E2E2E2E2E2E2E2E2E2E2E2E2E2E2E2E2E2E2E2E2E2E2F0E2F5E2E2E2E2E2E2E2E2E2E2E2E2E2E2E2E2E2E2E2E2E2E2E2E2E2E2E2E2E2E2E2E2F5E2E2E2E2E2E2E2E2E2E2F5F0E2E2F5F5F5F5F5F5F5E2E2F0F5E2E2E2E2E2E2E2E2E2E2F5E2E2E2E2
310
E2E2E2E2E2E2E2E2F0E2E2E2F5F5F5E2E2E2F0E2E2E2E2E2E2F5F0E2E2F0F0F0F0F0F0F0F0F0F0F0F0F0E2E2F5E2F0F0F0F0F0F0F0F0F0F0F0F0F0F0F0F0F0F0F0F0F0F0F0F0F0F0F0F0F0F0F0F0F0F0F0F0F0F0F0F0F0F0F0F0F0F0F0F0F0F0F0F0F0F0F0F0F0F0F0E2F5E2E2E2E2E2E2E2E2E2E2E2E2E2E2E2E2E2E2E2E2
310
E2E2E2E2E2E2E2E2E2E2E2E2F5E2E2E2E2E2E2E2E2E2E2E2F5F5F5E2E2E2E2E2E2E2F5F5F5E2E2E2E2E2E2E2E2E2E2E2F5E2E2E2E2E2E2E2E2E2E2E2E2F0E2E2E2F5F5F5E2E2E2F0E2E2E2E2E2E2F5F5F5F5F5F5F5F5F5F5F5F5F5F5F5F5F5E2E2F5E2F0F0F0F0F0F0F0F0F0F0F0F0F0F0F0F0F0F0F0F0F0F0F0F0F0F0F0F0
310
F0F0F0F0F0F0F0F0F0F0F0F0F0F0F0F0F0F0F0F0F0F0F0F0F0F0F0F0F0F0F0E2F5E2E2E2E2E2E2E2E2E2E2E2E2E2E2E2E2E2E2E2E2E2E2E2E2E2E2E2E2E2E2E2E2F5E2E2E2E2E2E2E2E2E2E2E2E2F5F0F5F5F0F0F0F5F5F5F5E2E2E2E2E2E2E2E2E2E2E2E2F5E2E2E2E2E2E2E2E2E2E2E2E2F0E2E2E2F5F5F5E2E2E2F0E2E2
310
E2E2E2E2E2E2E2E2E2E2E2E2E2E2E2E2E2E2E2E2F5F5F5F5E2F0E2E2E2E2E2E2E2E2E2E2E2E2E2E2E2E2E2E2E2E2E2E2E2E2E2E2E2E2E2E2E2E2E2E2E2E2E2E2E2E2E2E2E2E2E2E2E2E2E2E2E2E2E2E2E2E2E2F0E2F5E2E2E2E2E2E2E2E2E2E2E2E2E2E2E2E2E2E2E2E2E2E2E2E2E2E2E2E2E2E2E2E2F5E2E2E2E2E2E2E2E2
310
E2E2E2E2E2F5F5F5F5F5F5F5F5E2E2E2E2E2E2E2E2E2E2E2E2E2E2F5E2E2E2E2E2E2E2E2E2E2E2E2F0E2E2E2F5F5F5E2E2E2F0E2E2E2E2E2E2E2E2E2E2E2E2E2E2E2E2E2E2E2E2E2E2E2E2E2F5E2F0F0F0F0F0F0F0F0F0F0F0F0F0F0F0F0F0F0F0F0F0F0F0F0F0F0F0F0F0F0F0F0F0F0F0F0F0F0F0F0F0F0F0F0F0F0F0F0F0
310
F0F0F0F0F0F0F0F0F0F0E2F5F5F5F5E2E2E2E2E2E2E2E2E2E2E2E2E2E2E2E2E2E2E2E2E2E2E2E2E2E2E2E2E2F5E2E2E2E2E2E2E2E2E2E2E2E2E2E2E2E2E2E2E2E2E2E2E2E2E2E2E2E2E2E2E2E2E2E2E2F5E2E2E2E2E2E2E2E2E2E2E2E2F0E2E2E2F5F5F5E2E2E2F0E2E2E2E2E2E2E2E2E2E2E2E2E2E2E2E2E2E2E2E2E2E2E2
310
E2E2F5E2F0F0F0F0F0F0F0F0F0F0F0F0F0F0F0F0F0F0F0F0F0F0F0F0F0F0F0F0F0F0F0F0F0F0F0F0F0F0F0F0F0F0F0F0F0F0F0F0F0F0F0F0F0F0F0F0F0F0F0E2F5E2E2F5E2E2E2E2E2E2E2E2E2E2E2E2E2E2E2E2E2E2E2E2E2E2E2E2E2E2E2E2E2F5E2E2E2E2E2E2E2E2E2E2E2E2E2E2E2E2E2E2E2E2E2E2E2E2E2E2E2E2E2
310
E2E2E2E2E2E2F5E2E2E2E2E2E2E2E2E2E2E2E2F0E2E2E2F5F5F5E2E2E2F0E2E2E2E2E2E2E2E2E2E2E2E2E2E2E2E2E2E2E2E2E2E2E2E2E2F5E2F0F0F0F0F0F0F0F0F0F0F0F0F0F0F0F0F0F0F0F0F0F0F0F0F0F0F0F0F0F0F0F0F0F0F0F0F0F0F0F0F0F0F0F0F0F0F0F0F0F0F0F0F0F0F0F0F0F0F0E2F5E2E2F5E2E2E2E2E2E2
310
E2E2E2E2E2E2E2E2E2E2E2E2E2E2E2E2E2E2E2E2E2E2E2F5E2E2E2E2E2E2E2E2E2E2E2E2E2E2E2E2E2E2E2E2E2E2E2E2E2E2E2E2E2E2E2E2E2E2E2F5E2E2E2E2E2E2E2E2E2E2E2E2F0E2E2E2F5F5F5E2E2E2F0E2E2E2E2E2E2E2E2E2E2E2E2E2E2E2E2E2E2E2E2E2E2E2E2E2F5E2F0F0F0F0F0F0F0F0F0F0F0F0F0F0F0F0F0
310
F0F0F0F0F0F0F0F0F0F0F0F0F0F0F0F0F0F0F0F0F0F0F0F0F0F0F0F0F0F0F0F0F0F0F0F0F0F0F0F0F0F0E2F5E2E2F5E2E2E2E2E2E2E2E2E2E2E2E2E2E2E2E2E2E2E2E2E2E2E2E2E2E2E2E2E2F5F5F5F5E2E2E2E2E2E2E2E2E2E2E2E2E2E2E2E2E2E2E2E2E2E2E2E2E2E2E2E2E2F5F5F5F5E2E2E2E2E2E2E2E2E2E2E2E2F0E2
310
E2E2F5F5F5E2E2E2F0E2E2E2E2E2E2E2E2E2E2E2E2E2E2E2E2E2E2E2E2E2E2E2E2E2F5E2F0E2E2E2E2E2E2E2E2E2E2E2E2E2E2E2E2E2E2E2E2E2E2E2E2E2E2E2E2E2E2E2E2E2E2E2E2E2E2E2E2E2E2E2E2E2E2E2E2E2E2E2E2E2E2E2E2E2F0E2F5F5F5F5E2E2E2E2E2E2E2E2E2E2E2E2E2E2E2E2E2E2E2E2E2E2E2E2E2E2E2
310
E2E2F5F5E2F5E2E2E2E2E2E2E2E2E2E2E2E2E2E2E2E2E2E2E2E2E2E2E2E2E2E2E2E2E2F5E2F5F5E2E2E2E2E2E2E2E2E2E2E2E2F0E2E2E2F5F5F5E2E2E2F0E2E2E2E2E2E2E2E2E2E2E2E2E2E2E2E2E2E2E2E2E2E2E2E2E2F5E2F0E2E2E2E2E2E2E2E2E2E2E2E2E2E2E2E2E2E2E2E2E2E2E2E2E2E2E2E2E2E2E2E2E2E2E2E2E2
310
E2E2E2E2E2E2E2E2E2E2E2E2E2E2E2E2E2E2E2E2F0E2F5E2E2E2E2E2E2E2E2E2E2E2E2E2E2E2E2E2E2E2E2E2E2E2E2E2E2E2E2E2E2E2E2F5F5F5F5E2E2E2E2E2E2E2E2E2E2E2E2E2E2E2E2E2E2E2E2E2E2E2E2E2E2E2E2E2F5F5F5F5E2E2E2E2E2E2E2E2E2E2E2E2F0E2E2E2F5F5F5E2E2E2F0E2E2E2E2E2E2E2E2E2E2E2E2
310
E2E2E2E2E2E2E2E2E2E2E2E2E2F5E2F0E2E2E2E2E2E2E2E2E2E2E2E2E2E2E2E2E2E2E2E2E2E2E2E2E2E2E2E2E2E2E2E2E2E2E2E2E2E2E2E2E2E2E2E2E2E2E2E2E2E2E2E2E2E2E2E2E2F0E2F5E2E2E2E2E2E2E2E2E2E2E2E2E2E2E2E2E2E2E2E2E2E2E2E2E2E2E2E2E2E2E2E2E2E2F5F5F5F5F5F5F5F5F5F5F5F5F5F5F5F5F5
310
F5F5F5F5F5F5F5F5F5F5F5F5F5F5F5F5E2E2E2E2E2E2E2E2E2E2E2E2E2E2F0E2E2E2F5F5F5E2E2E2F0E2E2E2E2E2E2E2E2E2E2E2E2E2E2E2E2E2E2E2E2E2E2E2E2E2F5F5F5F5F5F5F5F5F5F5F5F5F5F5F5F5F5F5F5F5F5F5F5F5F5F5F5F5F5F5F5F5F5F5F5F5F5F5F5F5F5F5F5F5F5F5F5F5F5F5F5F5F5F5F5F5F5F5F5F5F5
310
F5F5E2E2E2E2E2E2E2E2E2E2E2E2E2E2E2E2E2E2E2E2E2E2E2E2E2E2E2E2E2E2E2E2E2E2E2E2E2E2E2E2E2E2E2E2E2E2E2F5E2E2E2E2F5E2E2E2E2E2E2E2E2E2E2E2E2E2E2E2E2E2E2E2E2E2E2E2E2E2E2E2E2F0E2E2E2F5F5F5E2E2E2F0E2E2E2E2E2E2E2E2E2E2E2E2E2E2E2E2E2E2E2E2E2E2E2E2E2E2E2E2E2E2E2E2E2
310
E2E2E2E2E2E2E2E2E2E2E2E2E2E2E2E2E2E2E2E2E2E2E2E2E2E2E2E2E2E2E2E2E2E2E2E2E2E2E2E2E2E2E2E2E2E2E2E2E2E2E2E2E2E2E2E2E2E2E2E2E2E2E2E2E2E2E2E2E2E2E2E2E2E2E2E2E2E2E2E2E2E2E2E2E2E2E2E2E2E2E2E2E2E2E2E2E2E2E2E2E2E2F5F5F5F5F5F5E2E2E2E2E2E2E2E2E2E2E2E2E2E2E2E2E2E2E2
310
E2E2E2E2E2E2E2E2E2F0E2E2E2F5F5F5E2E2E2F0E2E2E2E2E2E2E2E2E2E2E2E2E2E2E2E2E2E2E2E2E2E2E2E2E2E2E2E2E2E2E2E2E2E2E2E2E2E2E2E2E2E2E2E2E2E2E2E2E2E2E2E2E2E2E2E2E2E2E2E2E2E2E2E2E2E2E2E2E2E2E2E2E2E2E2E2E2E2E2E2E2E2E2E2E2E2E2E2E2E2E2E2E2E2E2E2E2E2E2E2E2E2E2E2E2E2E2
310
E2E2E2E2E2E2E2E2E2E2E2E2E2E2E2E2E2E2E2E2E2E2E2E2E2E2E2E2F5E2E2E2E2F5E2E2E2E2E2E2E2E2E2E2E2E2E2E2E2E2E2E2E2E2E2E2E2E2E2E2E2E2F0E2E2E2F5F5F5E2E2E2F0E2E2E2E2E2E2E2E2E2E2E2E2E2E2E2E2E2E2E2E2E2E2E2E2E2E2E2E2E2E2E2E2E2E2E2E2E2E2E2E2E2E2E2E2E2E2E2E2E2E2E2E2E2E2
310
E2E2E2E2E2E2E2E2E2E2E2E2E2E2E2E2E2E2E2E2E2E2E2E2E2E2E2E2E2E2E2E2E2E2E2E2E2E2E2E2E2E2E2E2E2E2E2E2E2E2E2E2E2E2E2E2E2E2E2E2E2E2E2E2E2E2E2E2E2E2E2E2E2E2E2E2E2E2E2E2E2F5F5F5F5F5F5E2E2E2E2E2E2E2E2E2E2E2E2E2E2E2E2E2E2E2E2E2E2E2E2E2E2E2E2F0E2E2E2F5F5F5E2E2E2F0E2
310
E2E2E2E2E2E2E2E2E2E2E2E2E2E2E2E2E2E2E2E2E2E2E2E2E2E2E2E2E2E2E2E2E2E2E2E2E2E2E2E2E2E2E2E2E2E2E2E2E2E2E2E2E2E2E2E2E2E2E2E2E2E2E2E2E2E2E2E2E2E2E2E2E2E2E2E2E2E2E2E2E2E2E2E2E2E2E2E2E2E2E2E2E2E2E2E2E2E2E2E2E2E2E2E2E2E2E2E2E2E2E2E2E2E2E2E2E2E2E2E2E2E2E2E2E2E2E2
310
E2E2E2E2E2E2E2E2E2E2E2E2E2E2E2E2E2E2E2E2E2E2E2E2E2E2E2E2E2E2E2E2E2E2E2E2E2E2E2E2E2F0E2E2E2F5F5F5E2E2E2F0F0F0F0F0F0F0F0F0F0F0F0F0F0F0F0F0F0F0F0F0F0F0F0F0F0F0F0F0F0F0F0F0F0F0F0F0F0F0F0F0F0F0F0F0F0F0F0F0F0F0F0F0F0F0F0F0F0F0F0F0F0F0F0F0F0F0F0F0F0F0F0F0F0F0F0
310
F0F0F0F0F0F0F0F0F0F0F0F0F0F0F0F0F0F0F0F0F0F0F0F0F0F0F0F0F0F0F0F0F0F0F0F0F0F0F0F0F0F0F0F0F0F0F0F0F0F0F0F0F0F0F0F0F0F0F0F0F0F0F0F0F0F0F0F0F0F0F0F0F0F0F0F0F0F0F0F0F0F0F0F0F0F0F0F0F0F0F0F0F0F0F0E2E2E2F5F5F5E2E2E2F5E2E2E2E2E2E2E2E2E2E2E2E2E2E2E2E2E2E2E2E2E2E2
310
E2E2E2E2E2E2E2E2E2E2E2E2E2E2E2E2E2E2E2E2E2E2E2E2E2E2E2E2E2E2E2E2E2E2E2E2E2E2E2E2E2E2E2E2E2E2E2E2E2E2E2E2E2E2E2E2E2E2E2E2E2E2E2E2E2E2E2E2E2E2E2E2E2E2E2E2E2E2E2E2E2E2E2E2E2E2E2E2E2E2E2E2E2E2E2E2E2E2E2E2E2E2E2E2E2E2E2E2E2E2E2E2E2E2E2E2E2E2E2E2E2E2E2E2E2E2E2
310
E2E2E2E2E2E2E2E2E2E2E2E2E2E2E2E2E2E2E2E2F5E2E2E2F5F5F5E2E2E2F5E2E2E2E2E2E2E2E2E2E2E2E2E2E2E2E2E2E2E2E2E2E2E2E2E2E2E2E2E2E2E2E2E2E2E2E2E2E2E2E2E2E2E2E2E2E2E2E2E2E2E2E2E2E2E2E2E2E2E2E2E2E2E2E2E2E2E2E2E2E2E2E2E2E2E2E2E2E2E2E2E2E2E2E2E2E2E2E2E2E2E2E2E2E2E2E2
310
E2E2E2E2E2E2E2E2E2E2E2E2E2E2E2E2E2E2E2E2E2E2E2E2E2E2E2E2E2E2E2E2E2E2E2E2E2E2E2E2E2E2E2E2E2E2E2E2E2E2E2E2E2E2E2E2E2E2E2E2E2E2E2E2E2E2E2E2E2E2E2E2E2F5E2E2E2F5F5F5E2E2E2F5E2E2E2E2E2E2E2E2E2E2E2E2E2E2E2E2E2E2E2E2E2E2E2E2E2E2E2E2E2E2E2E2E2E2E2E2E2E2E2E2E2E2E2
310
E2E2E2E2E2E2E2E2E2E2E2E2E2E2E2E2E2E2E2E2E2E2E2E2E2E2E2E2E2E2E2E2E2E2E2E2E2E2E2E2E2E2E2E2E2E2E2E2E2E2E2E2E2E2E2E2E2E2E2E2E2E2E2E2E2E2E2E2E2E2E2E2E2E2E2E2E2E2E2E2E2E2E2E2E2E2E2E2E2E2E2E2E2E2E2E2E2E2E2E2E2E2E2E2E2E2E2E2E2E2E2E2E2E2E2E2E2E2E2E2E2E2E2E2E2E2F5
310
E2E2E2F5F5F5E2E2E2F5E2E2E2E2E2E2E2E2E2E2E2E2E2E2E2E2E2E2E2E2E2E2E2E2E2E2E2E2E2E2E2E2E2E2E2E2E2E2E2E2E2E2E2E2E2E2E2E2E2E2E2E2E2E2E2E2E2E2E2E2E2E2E2E2E2E2E2E2E2E2E2E2E2E2E2E2E2E2E2E2E2E2E2E2E2E2E2E2E2E2E2E2E2E2E2E2E2E2E2E2E2E2E2E2E2E2E2E2E2E2E2E2E2E2E2E2E2
310
E2E2E2E2E2E2E2E2E2E2E2E2E2E2E2E2E2E2E2E2E2E2E2E2E2E2E2E2E2E2E2E2E2E2E2E2E2E2E2E2E2E2E2E2E2E2E2E2E2E2E2E2F5E2E2E2F5F5F5E2E2E2F5E2E2E2E2E2E2E2E2E2E2E2E2E2E2E2E2E2E2E2E2E2E2E2E2E2E2E2E2E2E2E2E2E2E2E2E2E2E2E2E2E2E2E2E2E2E2E2E2E2E2E2E2E2E2E2E2E2E2E2E2E2E2E2E2
310
E2E2E2E2E2E2E2E2E2E2E2E2E2E2E2E2E2E2E2E2E2E2E2E2E2E2E2E2E2E2E2E2E2E2E2E2E2E2E2E2E2E2E2E2E2E2E2E2E2E2E2E2E2E2E2E2E2E2E2E2E2E2E2E2E2E2E2E2E2E2E2E2E2E2E2E2E2E2E2E2E2E2E2E2E2E2E2E2E2E2E2E2E2E2E2E2E2E2E2E2E2E2E2E2E2F5E2E2E2F5F5F5E2E2E2F5E2E2E2E2E2E2E2E2E2E2E2
310
E2E2E2E2E2E2E2E2E2E2E2E2E2E2E2E2E2E2E2E2E2E2E2E2E2E2E2E2E2E2E2E2E2E2E2E2E2E2E2E2E2E2E2E2E2E2E2E2E2E2E2E2E2E2E2E2E2E2E2E2E2E2E2E2E2E2E2E2E2E2E2E2E2E2E2E2E2E2E2E2E2E2E2E2E2E2E2E2E2E2E2E2E2E2E2E2E2E2E2E2E2E2E2E2E2E2E2E2E2E2E2E2E2E2E2E2E2E2E2E2E2E2E2E2E2E2E2
310
E2E2E2E2E2E2E2E2E2E2E2E2E2E2E2E2E2E2E2E2E2E2E2E2E2E2E2E2E2E2E2F5E2E2E2F5F5F5E2E2E2F5F5F5F5F5F5F5F5E2E2E2E2E2E2E2E2E2F5F5F5F5F5F5F5F5F5F5F5F5F5F5F5F5E2E2E2E2E2E2E2E2F5F5F5F5F5F5F5F5F5F5F5F5F5F5F5F5E2E2E2E2E2E2E2E2E2F5F5F5F5F5F5F5F5F5F5F5F5F5F5F5E2E2E2E2E2
310
E2E2E2E2F5F5F5F5F5F5F5F5F5F5F5F5F5F5F5E2E2E2E2E2E2E2E2E2F5F5F5F5F5F5F5F5F5F5F5F5F5F5F5F5E2E2E2E2E2E2E2E2F5F5F5F5F5F5F5F5F5F5F5F5F5F5F5F5E2E2E2E2E2E2E2E2E2F5F5F5F5F5F5F5F5E2E2E2F5F5F5E2E2E2E2E2E2E2E2E2E2E2E2E2E2E2E2E2E2E2E2E2E2E2E2E2E2E2E2E2E2E2E2E2E2E2E2
310
E2E2E2E2E2E2E2E2E2E2E2E2E2E2E2E2E2E2E2E2E2E2E2E2E2E2E2E2E2E2E2E2E2E2E2E2E2E2E2E2E2E2E2E2E2E2E2E2E2E2E2E2E2E2E2E2E2E2E2E2E2E2E2E2E2E2E2E2E2E2E2E2E2E2E2E2E2E2E2E2E2E2E2E2E2E2E2E2E2E2E2E2E2E2E2E2E2E2E2E2E2E2E2E2E2E2E2E2E2E2E2E2E2E2E2E2E2E2E2E2E2E2E2E2E2E2E2
310
E2E2E2E2E2E2E2E2E2E2E2E2E2E2F5F5F5E2E2E2E2E2E2E2E2E2E2E2E2E2E2E2E2E2E2E2E2E2E2E2E2E2E2E2E2E2E2E2E2E2E2E2E2E2E2E2E2E2E2E2E2E2E2E2E2E2E2E2E2E2E2E2E2E2E2E2E2E2E2E2E2E2E2E2E2E2E2E2E2E2E2E2E2E2E2E2E2E2E2E2E2E2E2E2E2E2E2E2E2E2E2E2E2E2E2E2E2E2E2E2E2E2E2E2E2E2E2
310
E2E2E2E2E2E2E2E2E2E2E2E2E2E2E2E2E2E2E2E2E2E2E2E2E2E2E2E2E2E2E2E2E2E2E2E2E2E2E2E2E2E2E2E2E2E2E2E2E2E2E2E2E2E2E2E2E2E2E2E2E2E2E2E2E2E2E2F5F5F5E2E2E2E2E2E2E2E2E2E2E2E2E2E2E2E2E2E2E2E2E2E2E2E2E2E2E2E2E2E2E2E2E2E2E2E2E2E2E2E2E2E2E2E2E2E2E2E2E2E2E2E2E2E2E2E2E2
310
E2E2E2E2E2E2E2E2E2E2E2E2E2E2E2E2E2E2E2E2E2E2E2E2E2E2E2E2E2E2E2E2E2E2E2E2E2E2E2E2E2E2E2E2E2E2E2E2E2E2E2E2E2E2E2E2E2E2E2E2E2E2E2E2E2E2E2E2E2E2E2E2E2E2E2E2E2E2E2E2E2E2E2E2E2E2E2E2E2E2E2E2E2E2E2E2E2E2E2E2E2E2E2E2E2E2E2E2E2E2E2E2E2E2E2E2E2E2E2E2F5EFF5F5F5F5F5
310
F5F5F5F5F5F5F5F5F5F5F5F5F5F5F5F5F5F5F5F5F5F5F5F5F5F5F5F5F5F5F5F5F5F5F5F5F5F5F5F5F5F5F5F5F5F5F5F5F5F5F5F5F5F5F5F5F5F5F5F5F5F5F5F5F5F5F5F5F5F5F5F5F5F5F5F5F5F5F5F5F5F5F5F5F5F5F5F5F5F5F5F5F5F5F5F5F5F5F5F5F5F5F5F5F5F5F5F5F5F5F5F5F5F5F5F5F5F5F5F5F5F5F5F5F5F5F5
310
F5F5F5F5F5F5F5F5F5F5F5F5F5F5F5F5F5F5F5F5F5F5F5F5F5F5F5F5F5F5F5F5F5F5F5F5F5F5F5F5F5F5F5F5F5F5F5EF
  0
XRECORD
  5
3D
102
{ACAD_REACTORS
330
3C
102
}
330
3C
100
AcDbXrecord
280
     1
102
MATERIAL
148
0.0
149
0.0
149
0.0
 93
        0
 94
       63
282
     0
 72
     1
 77
     1
171
     1
175
     1
179
     1
273
     0
  0
XRECORD
  5
11
102
{ACAD_REACTORS
330
10
102
}
330
10
100
AcDbXrecord
280
     1
102
MATERIAL
148
0.0
149
0.0
149
0.0
 93
        0
 94
       63
282
     0
 72
     1
 77
     1
171
     1
175
     1
179
     1
273
     0
  0
XRECORD
  5
D
102
{ACAD_REACTORS
330
C
102
}
330
C
100
AcDbXrecord
280
     1
102
MATERIAL
148
0.0
149
0.0
149
0.0
 93
        0
 94
       63
282
     0
 72
     1
 77
     1
171
     1
175
     1
179
     1
273
     0
  0
XRECORD
  5
25F
102
{ACAD_REACTORS
330
25E
102
}
330
25E
100
AcDbXrecord
280
     1
102
ACAD_ROUNDTRIP_PRE2007_TABLESTYLE
 90
      512
 91
        0
  1

 92
      512
 93
        0
  2

 94
      512
 95
        0
  3

  0
ENDSEC
  0
EOF
