  0
SECTION
  2
HEADER
  9
$ACADVER
  1
AC1015
  9
$ACADMAINTVER
 70
    20
  9
$DWGCODEPAGE
  3
ANSI_932
  9
$INSBASE
 10
0.0
 20
0.0
 30
0.0
  9
$EXTMIN
 10
-0.1520349506110961
 20
-5.540283645643498
 30
0.0
  9
$EXTMAX
 10
317.2262874877672
 20
142.6930299280662
 30
0.0
  9
$LIMMIN
 10
0.0
 20
0.0
  9
$LIMMAX
 10
420.0
 20
297.0
  9
$ORTHOMODE
 70
     0
  9
$REGENMODE
 70
     1
  9
$FILLMODE
 70
     1
  9
$QTEXTMODE
 70
     0
  9
$MIRRTEXT
 70
     1
  9
$LTSCALE
 40
1.0
  9
$ATTMODE
 70
     1
  9
$TEXTSIZE
 40
1.0
  9
$TRACEWID
 40
1.0
  9
$TEXTSTYLE
  7
ACISOTS
  9
$CLAYER
  8
AM_0
  9
$CELTYPE
  6
ByLayer
  9
$CECOLOR
 62
   256
  9
$CELTSCALE
 40
1.0
  9
$DISPSILH
 70
     0
  9
$DIMSCALE
 40
1.0
  9
$DIMASZ
 40
2.5
  9
$DIMEXO
 40
1.0
  9
$DIMDLI
 40
10.0
  9
$DIMRND
 40
0.0
  9
$DIMDLE
 40
0.0
  9
$DIMEXE
 40
1.0
  9
$DIMTP
 40
0.1
  9
$DIMTM
 40
0.1
  9
$DIMTXT
 40
3.5
  9
$DIMCEN
 40
0.0
  9
$DIMTSZ
 40
0.0
  9
$DIMTOL
 70
     0
  9
$DIMLIM
 70
     0
  9
$DIMTIH
 70
     0
  9
$DIMTOH
 70
     0
  9
$DIMSE1
 70
     0
  9
$DIMSE2
 70
     0
  9
$DIMTAD
 70
     1
  9
$DIMZIN
 70
     8
  9
$DIMBLK
  1

  9
$DIMASO
 70
     1
  9
$DIMSHO
 70
     1
  9
$DIMPOST
  1

  9
$DIMAPOST
  1
"
  9
$DIMALT
 70
     0
  9
$DIMALTD
 70
     2
  9
$DIMALTF
 40
0.0393701
  9
$DIMLFAC
 40
1.0
  9
$DIMTOFL
 70
     1
  9
$DIMTVP
 40
0.0
  9
$DIMTIX
 70
     0
  9
$DIMSOXD
 70
     0
  9
$DIMSAH
 70
     0
  9
$DIMBLK1
  1

  9
$DIMBLK2
  1

  9
$DIMSTYLE
  2
AM_ISO
  9
$DIMCLRD
 70
   256
  9
$DIMCLRE
 70
   256
  9
$DIMCLRT
 70
     2
  9
$DIMTFAC
 40
0.71
  9
$DIMGAP
 40
1.5
  9
$DIMJUST
 70
     0
  9
$DIMSD1
 70
     0
  9
$DIMSD2
 70
     0
  9
$DIMTOLJ
 70
     0
  9
$DIMTZIN
 70
     8
  9
$DIMALTZ
 70
     0
  9
$DIMALTTZ
 70
     0
  9
$DIMUPT
 70
     0
  9
$DIMDEC
 70
     2
  9
$DIMTDEC
 70
     3
  9
$DIMALTU
 70
     2
  9
$DIMALTTD
 70
     4
  9
$DIMTXSTY
  7
STANDARD
  9
$DIMAUNIT
 70
     0
  9
$DIMADEC
 70
     0
  9
$DIMALTRND
 40
0.0
  9
$DIMAZIN
 70
     2
  9
$DIMDSEP
 70
    46
  9
$DIMATFIT
 70
     3
  9
$DIMFRAC
 70
     0
  9
$DIMLDRBLK
  1

  9
$DIMLUNIT
 70
     2
  9
$DIMLWD
 70
    -1
  9
$DIMLWE
 70
    -1
  9
$DIMTMOVE
 70
     0
  9
$LUNITS
 70
     2
  9
$LUPREC
 70
     2
  9
$SKETCHINC
 40
1.0
  9
$FILLETRAD
 40
2.5
  9
$AUNITS
 70
     0
  9
$AUPREC
 70
     0
  9
$MENU
  1
.
  9
$ELEVATION
 40
0.0
  9
$PELEVATION
 40
0.0
  9
$THICKNESS
 40
0.0
  9
$LIMCHECK
 70
     0
  9
$CHAMFERA
 40
2.5
  9
$CHAMFERB
 40
2.5
  9
$CHAMFERC
 40
20.0
  9
$CHAMFERD
 40
0.0
  9
$SKPOLY
 70
     0
  9
$TDCREATE
 40
2456406.529898125
  9
$TDUCREATE
 40
2456406.154898125
  9
$TDUPDATE
 40
2456406.638538507
  9
$TDUUPDATE
 40
2456406.263538507
  9
$TDINDWG
 40
0.0010908333
  9
$TDUSRTIMER
 40
0.0010116319
  9
$USRTIMER
 70
     1
  9
$ANGBASE
 50
0.0
  9
$ANGDIR
 70
     0
  9
$PDMODE
 70
     0
  9
$PDSIZE
 40
0.0
  9
$PLINEWID
 40
0.0
  9
$SPLFRAME
 70
     0
  9
$SPLINETYPE
 70
     6
  9
$SPLINESEGS
 70
     8
  9
$HANDSEED
  5
8D2
  9
$SURFTAB1
 70
     6
  9
$SURFTAB2
 70
     6
  9
$SURFTYPE
 70
     6
  9
$SURFU
 70
     6
  9
$SURFV
 70
     6
  9
$UCSBASE
  2

  9
$UCSNAME
  2

  9
$UCSORG
 10
0.0
 20
0.0
 30
0.0
  9
$UCSXDIR
 10
1.0
 20
0.0
 30
0.0
  9
$UCSYDIR
 10
0.0
 20
1.0
 30
0.0
  9
$UCSORTHOREF
  2

  9
$UCSORTHOVIEW
 70
     0
  9
$UCSORGTOP
 10
0.0
 20
0.0
 30
0.0
  9
$UCSORGBOTTOM
 10
0.0
 20
0.0
 30
0.0
  9
$UCSORGLEFT
 10
0.0
 20
0.0
 30
0.0
  9
$UCSORGRIGHT
 10
0.0
 20
0.0
 30
0.0
  9
$UCSORGFRONT
 10
0.0
 20
0.0
 30
0.0
  9
$UCSORGBACK
 10
0.0
 20
0.0
 30
0.0
  9
$PUCSBASE
  2

  9
$PUCSNAME
  2

  9
$PUCSORG
 10
0.0
 20
0.0
 30
0.0
  9
$PUCSXDIR
 10
1.0
 20
0.0
 30
0.0
  9
$PUCSYDIR
 10
0.0
 20
1.0
 30
0.0
  9
$PUCSORTHOREF
  2

  9
$PUCSORTHOVIEW
 70
     0
  9
$PUCSORGTOP
 10
0.0
 20
0.0
 30
0.0
  9
$PUCSORGBOTTOM
 10
0.0
 20
0.0
 30
0.0
  9
$PUCSORGLEFT
 10
0.0
 20
0.0
 30
0.0
  9
$PUCSORGRIGHT
 10
0.0
 20
0.0
 30
0.0
  9
$PUCSORGFRONT
 10
0.0
 20
0.0
 30
0.0
  9
$PUCSORGBACK
 10
0.0
 20
0.0
 30
0.0
  9
$USERI1
 70
     0
  9
$USERI2
 70
     0
  9
$USERI3
 70
     0
  9
$USERI4
 70
     0
  9
$USERI5
 70
     0
  9
$USERR1
 40
0.0
  9
$USERR2
 40
0.0
  9
$USERR3
 40
0.0
  9
$USERR4
 40
0.0
  9
$USERR5
 40
0.0
  9
$WORLDVIEW
 70
     1
  9
$SHADEDGE
 70
     3
  9
$SHADEDIF
 70
    70
  9
$TILEMODE
 70
     1
  9
$MAXACTVP
 70
    64
  9
$PINSBASE
 10
0.0
 20
0.0
 30
0.0
  9
$PLIMCHECK
 70
     0
  9
$PEXTMIN
 10
1.000000000000000E+20
 20
1.000000000000000E+20
 30
1.000000000000000E+20
  9
$PEXTMAX
 10
-1.000000000000000E+20
 20
-1.000000000000000E+20
 30
-1.000000000000000E+20
  9
$PLIMMIN
 10
0.0
 20
0.0
  9
$PLIMMAX
 10
420.0
 20
297.0
  9
$UNITMODE
 70
     0
  9
$VISRETAIN
 70
     1
  9
$PLINEGEN
 70
     0
  9
$PSLTSCALE
 70
     1
  9
$TREEDEPTH
 70
  3020
  9
$CMLSTYLE
  2
Standard
  9
$CMLJUST
 70
     0
  9
$CMLSCALE
 40
20.0
  9
$PROXYGRAPHICS
 70
     1
  9
$MEASUREMENT
 70
     1
  9
$CELWEIGHT
370
    -1
  9
$ENDCAPS
280
     0
  9
$JOINSTYLE
280
     0
  9
$LWDISPLAY
290
     0
  9
$INSUNITS
 70
     4
  9
$HYPERLINKBASE
  1

  9
$STYLESHEET
  1

  9
$XEDIT
290
     1
  9
$CEPSNTYPE
380
     0
  9
$PSTYLEMODE
290
     1
  9
$FINGERPRINTGUID
  2
{987469E4-5CDB-40A1-94AD-00AEDE9E3DA3}
  9
$VERSIONGUID
  2
{416AAC72-5600-4FAE-B334-27A52B1D9A73}
  9
$EXTNAMES
290
     1
  9
$PSVPSCALE
 40
0.0
  9
$OLESTARTUP
290
     0
  0
ENDSEC
  0
SECTION
  2
CLASSES
  0
CLASS
  1
ACDBDICTIONARYWDFLT
  2
AcDbDictionaryWithDefault
  3
ObjectDBX Classes
 90
        0
280
     0
281
     0
  0
CLASS
  1
ACDBPLACEHOLDER
  2
AcDbPlaceHolder
  3
ObjectDBX Classes
 90
        0
280
     0
281
     0
  0
CLASS
  1
LAYOUT
  2
AcDbLayout
  3
ObjectDBX Classes
 90
        0
280
     0
281
     0
  0
CLASS
  1
ACME_DOCUMENT
  2
AcMeDbDoc
  3
AcMeServices
 90
        0
280
     0
281
     0
  0
CLASS
  1
AMGSETTINGSOBJ
  2
AmgSettingsObj
  3
"AcadM|Product Description: AutoCAD Mechanical 2000|Company: Autodesk"
 90
        0
280
     0
281
     0
  0
CLASS
  1
ACMESCOPE
  2
AcMeScope
  3
AcMeServices
 90
        0
280
     0
281
     0
  0
CLASS
  1
ACMECOMMANDHISTORY
  2
AcMeCommandHistory
  3
AcMeServices
 90
        0
280
     0
281
     0
  0
CLASS
  1
ACIMSYSVARMAN
  2
AcImSysVarManager
  3
AcMeServices
 90
        0
280
     0
281
     0
  0
CLASS
  1
ACIMREALSYSVAR
  2
AcImRealSysVar
  3
AcMeServices
 90
        0
280
     0
281
     0
  0
CLASS
  1
ACIMINTSYSVAR
  2
AcImIntSysVar
  3
AcMeServices
 90
        0
280
     0
281
     0
  0
CLASS
  1
ACMEDRAWINGMAN
  2
AcMeDrawingMan
  3
AcMeServices
 90
        0
280
     0
281
     0
  0
CLASS
  1
ACMEVIEW
  2
AcMeView
  3
AcMeServices
 90
        0
280
     0
281
     0
  0
CLASS
  1
ACDBENTITYCACHE
  2
AcMeEntityCache
  3
AcMeServices
 90
        0
280
     0
281
     0
  0
CLASS
  1
GSMANAGER
  2
AcMeGSManager
  3
AcMeServices
 90
        0
280
     0
281
     0
  0
CLASS
  1
AMDTINTERNALREACTOR
  2
AmdtInternalReactor
  3
AcMeServices
 90
        0
280
     0
281
     0
  0
CLASS
  1
ACMESTATEMGR
  2
AcMeStateMgr
  3
AcMeServices
 90
        0
280
     0
281
     0
  0
CLASS
  1
ACGREFMASTER
  2
AcGrefMaster
  3
AcAttribServices
 90
        0
280
     0
281
     0
  0
CLASS
  1
ACME_DATABASE
  2
AcMeDbDatabase
  3
AcMeServices
 90
        0
280
     0
281
     0
  0
CLASS
  1
ACRFINSADJUSTERMGR
  2
AcRfInsAdjusterMgr
  3
AcMeServices
 90
        0
280
     0
281
     0
  0
CLASS
  1
ACGREFACADMASTER
  2
AcGrefacadMaster
  3
AcGrefServices
 90
        0
280
     0
281
     0
  0
CLASS
  1
AMIMASTER
  2
AmiMaster
  3
AmiServices
 90
        0
280
     0
281
     0
  0
CLASS
  1
ACMDATADICTIONARY
  2
AcmDataDictionary
  3
"AcmSymBB|Product Description: AutoCAD Mechanical 2004 DX|Company: Autodesk"
 90
        0
280
     0
281
     0
  0
CLASS
  1
ACMDATAENTRYBLOCK
  2
AcmDataEntryBlock
  3
"AcmSymBB|Product Description: AutoCAD Mechanical 2004 DX|Company: Autodesk"
 90
    32768
280
     0
281
     0
  0
CLASS
  1
ACIMSTRSYSVAR
  2
AcImStrSysVar
  3
AcMeServices
 90
        0
280
     0
281
     0
  0
CLASS
  1
ACMSTANDARDISO
  2
AcmStandardISO
  3
"Amdt_StdImp|Product Description: AutoCAD Mechanical 2004 DX|Company: Autodesk"
 90
    32768
280
     0
281
     0
  0
CLASS
  1
AMGOBJPROPCFG
  2
AmgObjPropCfg
  3
"AmgLay|Product Description: AutoCAD Mechanical 2000|Company: Autodesk"
 90
        1
280
     0
281
     0
  0
CLASS
  1
AMDTEDGESTANDARDISO
  2
AmdtEdgeStdISO
  3
"Amdt_StdImp|Product Description: AutoCAD Mechanical 2004 DX|Company: Autodesk"
 90
    32768
280
     0
281
     0
  0
CLASS
  1
ACMSURFSTANDARDISO
  2
AcmSurfTextStdISO
  3
"Amdt_StdImp|Product Description: AutoCAD Mechanical 2004 DX|Company: Autodesk"
 90
    32768
280
     0
281
     0
  0
CLASS
  1
ACMFCFSTANDARDISO
  2
AcmFCFStdISO
  3
"Amdt_StdImp|Product Description: AutoCAD Mechanical 2004 DX|Company: Autodesk"
 90
    32768
280
     0
281
     0
  0
CLASS
  1
ACMWELDSTANDARDISO
  2
AcmWeldingStdISO
  3
"Amdt_StdImp|Product Description: AutoCAD Mechanical 2004 DX|Company: Autodesk"
 90
    32768
280
     0
281
     0
  0
CLASS
  1
ACMIDSTANDARDISO
  2
AcmIdStdISO
  3
"Amdt_StdImp|Product Description: AutoCAD Mechanical 2004 DX|Company: Autodesk"
 90
    32768
280
     0
281
     0
  0
CLASS
  1
ACMDATUMSTANDARDISO
  2
AcmDatumStdISO
  3
"Amdt_StdImp|Product Description: AutoCAD Mechanical 2004 DX|Company: Autodesk"
 90
    32768
280
     0
281
     0
  0
CLASS
  1
ACMBOMSTANDARDISO
  2
AcmBOMStdISO
  3
"Amdt_StdImp|Product Description: AutoCAD Mechanical 2004 DX|Company: Autodesk"
 90
    32768
280
     0
281
     0
  0
CLASS
  1
ACMDETAILSTANDARDISO
  2
AmdtDetailSymStdISO
  3
"Amdt_StdImp|Product Description: AutoCAD Mechanical 2004 DX|Company: Autodesk"
 90
    32768
280
     0
281
     0
  0
CLASS
  1
ACMSECTIONSTANDARDISO
  2
AmdtSectionSymStdISO
  3
"Amdt_StdImp|Product Description: AutoCAD Mechanical 2004 DX|Company: Autodesk"
 90
    32768
280
     0
281
     0
  0
CLASS
  1
ACMCENTERLINESTANDARDISO
  2
AmdtCenterLineStdISO
  3
"Amdt_StdImp|Product Description: AutoCAD Mechanical 2004 DX|Company: Autodesk"
 90
    32768
280
     0
281
     0
  0
CLASS
  1
ACMNOTESTANDARDISO
  2
AmdtNoteStdISO
  3
"Amdt_StdImp|Product Description: AutoCAD Mechanical 2004 DX|Company: Autodesk"
 90
    32768
280
     0
281
     0
  0
CLASS
  1
ACAMGLAYSTD
  2
AcAmgLayStd
  3
"AcAmgLayStd|Product Description: AutoCAD Mechanical 2000|Company: Autodesk"
 90
        0
280
     0
281
     0
  0
CLASS
  1
ACAMGDIMSTD
  2
AcAmgDimStd
  3
"AcAmgDimStd|Product Description: AutoCAD Mechanical 2000|Company: Autodesk"
 90
        0
280
     0
281
     0
  0
CLASS
  1
ACAMGHOLECHARTSTDISO
  2
AcAmgHoleChartStdISO
  3
ACMSYMBB_MODULE_NAME
 90
    32768
280
     0
281
     0
  0
CLASS
  1
ACAMGTITLESTD
  2
AcAmgTitleStd
  3
"TITLEAPP"
 90
        0
280
     0
281
     0
  0
CLASS
  1
LAYER_INDEX
  2
AcDbLayerIndex
  3
ObjectDBX Classes
 90
    32768
280
     0
281
     0
  0
CLASS
  1
IDBUFFER
  2
AcDbIdBuffer
  3
ObjectDBX Classes
 90
    32768
280
     0
281
     0
  0
CLASS
  1
DICTIONARYVAR
  2
AcDbDictionaryVar
  3
ObjectDBX Classes
 90
        0
280
     0
281
     0
  0
CLASS
  1
AM_DRAWING_MGR
  2
AcDmDwgMgr
  3
AcMechDwgViewMgmt
 90
        0
280
     0
281
     0
  0
CLASS
  1
AM_DWG_DOCUMENT
  2
AcDmDwgDocument
  3
AcMechDwgViewMgmt
 90
        0
280
     0
281
     0
  0
CLASS
  1
AM_DWG_SHEET
  2
AcDmSheet
  3
AcMechDwgViewMgmt
 90
        0
280
     0
281
     0
  0
CLASS
  1
AM_VIEWDIMPARMAP
  2
AcDmViewDimParMap
  3
AcMechDwgViewMgmt
 90
        0
280
     0
281
     0
  0
CLASS
  1
AM_DWGMGR_NAME
  2
AcDmDwgMgrName
  3
AcMechDwgViewMgmt
 90
        0
280
     0
281
     0
  0
CLASS
  1
AMDTMENUSTATEMGR
  2
AmdtMenuStateMgr
  3
McadcomServices
 90
        0
280
     0
281
     0
  0
CLASS
  1
AMDTMCOMMENUSTATE
  2
AmdtMcomMenuState
  3
McadcomServices
 90
        0
280
     0
281
     0
  0
CLASS
  1
MAPIAMMOUDLE
  2
MApiAmModule
  3
MApiAmServices
 90
        0
280
     0
281
     0
  0
CLASS
  1
AMDTADMENUSTATE
  2
AmdtAdMenuState
  3
DesignerServices
 90
        0
280
     0
281
     0
  0
CLASS
  1
ADAPPL
  2
AcAdAppl
  3
DesignerServices
 90
        0
280
     0
281
     0
  0
CLASS
  1
DEPMGR
  2
AcAdDepMgr
  3
DesignerServices
 90
        0
280
     0
281
     0
  0
CLASS
  1
PARAMMGR
  2
AcAdParamMgr
  3
DesignerServices
 90
        0
280
     0
281
     0
  0
CLASS
  1
PARAMSCOPE
  2
AcAdParamScope
  3
DesignerServices
 90
        0
280
     0
281
     0
  0
CLASS
  1
NAMEDAPPL
  2
AcAdNamedAppl
  3
DesignerServices
 90
        0
280
     0
281
     0
  0
CLASS
  1
AMDTDMMENUSTATE
  2
AmdtDmMenuState
  3
AcMechDwgViewMgmt
 90
        0
280
     0
281
     0
  0
CLASS
  1
AMDTAMMENUSTATE
  2
AmdtAmMenuState
  3
DesignerAssemblies
 90
        0
280
     0
281
     0
  0
CLASS
  1
ACAMPROJECT
  2
AcAmProject
  3
DesignerAssemblies
 90
        0
280
     0
281
     0
  0
CLASS
  1
ACAMGRCOMPDEF
  2
AcAmGrCompDef
  3
DesignerAssemblies
 90
        0
280
     0
281
     0
  0
CLASS
  1
ACCMCONTEXT
  2
AcCmContext
  3
DesignerAssemblies
 90
        0
280
     0
281
     0
  0
CLASS
  1
ACAMCOMPDEF
  2
AcAmCompDef
  3
DesignerAssemblies
 90
        0
280
     0
281
     0
  0
CLASS
  1
ACAMCOMPDEFMGR
  2
AcAmCompDefMgr
  3
DesignerAssemblies
 90
        0
280
     0
281
     0
  0
CLASS
  1
AMCONTEXTMGR
  2
AcAmContextMgr
  3
DesignerAssemblies
 90
        0
280
     0
281
     0
  0
CLASS
  1
ACAMCONTEXTMODELER
  2
AcAmContextModeler
  3
DesignerAssemblies
 90
        0
280
     0
281
     0
  0
CLASS
  1
ACMTHREADLINESTANDARDISO
  2
AmdtThreadLineStdISO
  3
"Amdt_StdImp|Product Description: AutoCAD Mechanical 2004 DX|Company: Autodesk"
 90
    32768
280
     0
281
     0
  0
CLASS
  1
CATALOGSTATE
  2
AcAmCatalogState
  3
DesignerAssemblies
 90
        0
280
     0
281
     0
  0
CLASS
  1
ACAMGRCOMPDEFSET
  2
AcAmGrCompDefSet
  3
DesignerAssemblies
 90
        0
280
     0
281
     0
  0
CLASS
  1
AMDTBROWSERDBTAB
  2
AmdtBrowserDbTab
  3
McadcomServices
 90
        0
280
     0
281
     0
  0
CLASS
  1
CBROWSERAPPOBJECT
  2
CBrowserAppObject
  3
McadcomServices
 90
        0
280
     0
281
     0
  0
CLASS
  1
DM_PLACEHOLDER
  2
AcDmSelsetPlaceholder
  3
AcMechDwgViewMgmt
 90
        0
280
     0
281
     0
  0
CLASS
  1
TABLESTYLE
  2
AcDbTableStyle
  3
ObjectDBX Classes
 90
     2047
280
     0
281
     0
  0
CLASS
  1
VAACXREFPANELOBJECT
  2
VaAcXREFPanelObject
  3
VAAC_ADDIN
 90
    32768
280
     0
281
     0
  0
CLASS
  1
VAACIMAGEINVENTORY
  2
VaAcImageInventory
  3
VAAC_ADDIN
 90
    32768
280
     0
281
     0
  0
CLASS
  1
AMDTNOTETEMPLATEDB
  2
AmdtNoteTemplateDB
  3
AMDT_STDIMP_MODULE_NAME
 90
        0
280
     0
281
     0
  0
CLASS
  1
ACMBOM
  2
AcmBom
  3
"AcmSymBB|Product Description: AutoCAD Mechanical 2004 DX|Company: Autodesk"
 90
    32768
280
     0
281
     0
  0
CLASS
  1
AMDTFORMULAUPDATEDISPATCHER
  2
AmdtFormulaUpdateDispatcher
  3
AcMeServices
 90
    32768
280
     0
281
     0
  0
CLASS
  1
ACMPARTLIST
  2
AcmPartList
  3
"AcmSymBB|Product Description: AutoCAD Mechanical 2004 DX|Company: Autodesk"
 90
    33791
280
     0
281
     1
  0
CLASS
  1
ACAMGFILTERDAT
  2
AcAmgFilterDat
  3
"AcadM|Product Description: AutoCAD Mechanical 2000|Company: Autodesk"
 90
    32768
280
     0
281
     0
  0
CLASS
  1
SORTENTSTABLE
  2
AcDbSortentsTable
  3
ObjectDBX Classes
 90
        0
280
     0
281
     0
  0
CLASS
  1
ACMSTANDARDJIS
  2
AcmStandardJIS
  3
"Amdt_StdImp|Product Description: AutoCAD Mechanical 2004 DX|Company: Autodesk"
 90
        0
280
     0
281
     0
  0
CLASS
  1
ACMSURFSTANDARDJIS
  2
AcmSurfTextStdJIS
  3
"Amdt_StdImp|Product Description: AutoCAD Mechanical 2004 DX|Company: Autodesk"
 90
        0
280
     0
281
     0
  0
CLASS
  1
ACMFCFSTANDARDJIS
  2
AcmFCFStdJIS
  3
"Amdt_StdImp|Product Description: AutoCAD Mechanical 2004 DX|Company: Autodesk"
 90
        0
280
     0
281
     0
  0
CLASS
  1
ACMWELDSTANDARDJIS
  2
AcmWeldingStdJIS
  3
"Amdt_StdImp|Product Description: AutoCAD Mechanical 2004 DX|Company: Autodesk"
 90
        0
280
     0
281
     0
  0
CLASS
  1
ACMIDSTANDARDJIS
  2
AcmIdStdJIS
  3
"Amdt_StdImp|Product Description: AutoCAD Mechanical 2004 DX|Company: Autodesk"
 90
        0
280
     0
281
     0
  0
CLASS
  1
ACMDATUMSTANDARDJIS
  2
AcmDatumStdJIS
  3
"Amdt_StdImp|Product Description: AutoCAD Mechanical 2004 DX|Company: Autodesk"
 90
        0
280
     0
281
     0
  0
CLASS
  1
ACMBOMSTANDARDJIS
  2
AcmBOMStdJIS
  3
"Amdt_StdImp|Product Description: AutoCAD Mechanical 2004 DX|Company: Autodesk"
 90
        0
280
     0
281
     0
  0
CLASS
  1
ACMDETAILSTANDARDJIS
  2
AmdtDetailSymStdJIS
  3
"Amdt_StdImp|Product Description: AutoCAD Mechanical 2004 DX|Company: Autodesk"
 90
        0
280
     0
281
     0
  0
CLASS
  1
ACMSECTIONSTANDARDJIS
  2
AmdtSectionSymStdJIS
  3
"Amdt_StdImp|Product Description: AutoCAD Mechanical 2004 DX|Company: Autodesk"
 90
        0
280
     0
281
     0
  0
CLASS
  1
ACMCENTERLINESTANDARDJIS
  2
AmdtCenterLineStdJIS
  3
"Amdt_StdImp|Product Description: AutoCAD Mechanical 2004 DX|Company: Autodesk"
 90
        0
280
     0
281
     0
  0
CLASS
  1
ACMTHREADLINESTANDARDJIS
  2
AmdtThreadLineStdJIS
  3
"Amdt_StdImp|Product Description: AutoCAD Mechanical 2004 DX|Company: Autodesk"
 90
        0
280
     0
281
     0
  0
CLASS
  1
ACMNOTESTANDARDJIS
  2
AmdtNoteStdJIS
  3
"Amdt_StdImp|Product Description: AutoCAD Mechanical 2004 DX|Company: Autodesk"
 90
        0
280
     0
281
     0
  0
CLASS
  1
ACAMGHOLECHARTSTDJIS
  2
AcAmgHoleChartStdJIS
  3
ACMSYMBB_MODULE_NAME
 90
        0
280
     0
281
     0
  0
CLASS
  1
ACRFATTGENMGR
  2
AcRfAttGeneralMgr
  3
AcAttribServices
 90
        0
280
     0
281
     0
  0
ENDSEC
  0
SECTION
  2
TABLES
  0
TABLE
  2
VPORT
  5
8
330
0
100
AcDbSymbolTable
 70
     3
  0
VPORT
  5
8C9
330
8
100
AcDbSymbolTableRecord
100
AcDbViewportTableRecord
  2
*Active
 70
     0
 10
0.0
 20
0.0
 11
1.0
 21
1.0
 12
158.538208925792
 22
68.56931364777189
 13
0.0
 23
0.0
 14
2.5
 24
2.5
 15
10.0
 25
10.0
 16
0.0
 26
0.0
 36
1.0
 17
0.0
 27
0.0
 37
0.0
 40
325.9234768631795
 41
1.954070981210855
 42
50.0
 43
0.0
 44
0.0
 50
0.0
 51
0.0
 71
     0
 72
   100
 73
     1
 74
     3
 75
     0
 76
     0
 77
     0
 78
     0
281
     0
 65
     1
110
0.0
120
0.0
130
0.0
111
1.0
121
0.0
131
0.0
112
0.0
122
1.0
132
0.0
 79
     0
146
0.0
  0
ENDTAB
  0
TABLE
  2
LTYPE
  5
5
330
0
100
AcDbSymbolTable
 70
    16
  0
LTYPE
  5
14
330
5
100
AcDbSymbolTableRecord
100
AcDbLinetypeTableRecord
  2
ByBlock
 70
     0
  3

 72
    65
 73
     0
 40
0.0
  0
LTYPE
  5
15
330
5
100
AcDbSymbolTableRecord
100
AcDbLinetypeTableRecord
  2
ByLayer
 70
     0
  3

 72
    65
 73
     0
 40
0.0
  0
LTYPE
  5
16
330
5
100
AcDbSymbolTableRecord
100
AcDbLinetypeTableRecord
  2
Continuous
 70
     0
  3
Solid line
 72
    65
 73
     0
 40
0.0
  0
LTYPE
  5
64
330
5
100
AcDbSymbolTableRecord
100
AcDbLinetypeTableRecord
  2
AM_ISO02W050
 70
     0
  3
__ __ __ __ __ __ __ __ __ __ __ __ __ __ __
 72
    65
 73
     2
 40
7.5
 49
6.0
 74
     0
 49
-1.5
 74
     0
  0
LTYPE
  5
65
330
5
100
AcDbSymbolTableRecord
100
AcDbLinetypeTableRecord
  2
AM_ISO08W050
 70
     0
  3
____ . ____ . ____ . ____ . ____ . ____ . ____
 72
    65
 73
     4
 40
18.0
 49
12.0
 74
     0
 49
-1.5
 74
     0
 49
3.0
 74
     0
 49
-1.5
 74
     0
  0
LTYPE
  5
66
330
5
100
AcDbSymbolTableRecord
100
AcDbLinetypeTableRecord
  2
AM_ISO09W050
 70
     0
  3
_____ . . _____ . . _____ . . ____ .. ____
 72
    65
 73
     6
 40
22.5
 49
12.0
 74
     0
 49
-1.5
 74
     0
 49
3.0
 74
     0
 49
-1.5
 74
     0
 49
3.0
 74
     0
 49
-1.5
 74
     0
  0
LTYPE
  5
67
330
5
100
AcDbSymbolTableRecord
100
AcDbLinetypeTableRecord
  2
Amconstr
 70
     0
  3
_______________________
 72
    65
 73
     2
 40
9999.0
 49
9999.0
 74
     0
 49
0.0
 74
     0
  0
LTYPE
  5
68
330
5
100
AcDbSymbolTableRecord
100
AcDbLinetypeTableRecord
  2
AM_ISO08W050x2
 70
     0
  3
__ . __ . __ . __ . __ . __
 72
    65
 73
     4
 40
9.0
 49
6.0
 74
     0
 49
-0.75
 74
     0
 49
1.5
 74
     0
 49
-0.75
 74
     0
  0
LTYPE
  5
69
330
5
100
AcDbSymbolTableRecord
100
AcDbLinetypeTableRecord
  2
AM_ISO02W050x2
 70
     0
  3
 _ _ _ _ _ _ _ _ _ _ _ _
 72
    65
 73
     2
 40
3.75
 49
3.0
 74
     0
 49
-0.75
 74
     0
  0
LTYPE
  5
6C
330
5
100
AcDbSymbolTableRecord
100
AcDbLinetypeTableRecord
  2
Amzigzag
 70
     0
  3
/\/-/\/-/\/-/\/-/\/-/\/
 72
    65
 73
     2
 40
11.0001
 49
0.0001
 74
     4
 75
   135
340
6B
 46
0.04
 50
0.0
 44
0.0
 45
0.0
 49
-11.0
 74
     0
  0
LTYPE
  5
7A
330
5
100
AcDbSymbolTableRecord
100
AcDbLinetypeTableRecord
  2
ACISOWELD
 70
     0
  3
_ _ _ _ _
 72
    65
 73
     2
 40
2.0
 49
2.0
 74
     0
 49
-1.0
 74
     0
  0
LTYPE
  5
7B
330
5
100
AcDbSymbolTableRecord
100
AcDbLinetypeTableRecord
  2
ACISOTGB
 70
     0
  3
__ . . __ . .
 72
    65
 73
     6
 40
9.0
 49
4.0
 74
     0
 49
-1.0
 74
     0
 49
1.0
 74
     0
 49
-1.0
 74
     0
 49
1.0
 74
     0
 49
-1.0
 74
     0
  0
LTYPE
  5
7C
330
5
100
AcDbSymbolTableRecord
100
AcDbLinetypeTableRecord
  2
ACISOTGL
 70
     0
  3
_ _ _ _ _
 72
    65
 73
     2
 40
3.0
 49
2.0
 74
     0
 49
-1.0
 74
     0
  0
LTYPE
  5
7E
330
5
100
AcDbSymbolTableRecord
100
AcDbLinetypeTableRecord
  2
CENTER
 70
     0
  3
__ . __
 72
    65
 73
     4
 40
7.0
 49
4.0
 74
     0
 49
-1.0
 74
     0
 49
1.0
 74
     0
 49
-1.0
 74
     0
  0
LTYPE
  5
D8
330
5
100
AcDbSymbolTableRecord
100
AcDbLinetypeTableRecord
  2
HIDDEN
 70
     0
  3
Hidden __ __ __ __ __ __ __ __ __ __ __ __ __ _
 72
    65
 73
     2
 40
9.524999999999996
 49
6.349999999999997
 74
     0
 49
-3.174999999999998
 74
     0
  0
LTYPE
  5
D9
330
5
100
AcDbSymbolTableRecord
100
AcDbLinetypeTableRecord
  2
PHANTOM2
 70
     0
  3
Phantom (.5x) ___ _ _ ___ _ _ ___ _ _ ___ _ _
 72
    65
 73
     6
 40
31.75
 49
15.875
 74
     0
 49
-3.174999999999998
 74
     0
 49
3.174999999999998
 74
     0
 49
-3.174999999999998
 74
     0
 49
3.174999999999998
 74
     0
 49
-3.174999999999998
 74
     0
  0
LTYPE
  5
273
330
5
100
AcDbSymbolTableRecord
100
AcDbLinetypeTableRecord
  2
ACJISTGB
 70
     0
  3
__ . . __ . .
 72
    65
 73
     6
 40
9.0
 49
4.0
 74
     0
 49
-1.0
 74
     0
 49
1.0
 74
     0
 49
-1.0
 74
     0
 49
1.0
 74
     0
 49
-1.0
 74
     0
  0
LTYPE
  5
274
330
5
100
AcDbSymbolTableRecord
100
AcDbLinetypeTableRecord
  2
ACJISTGL
 70
     0
  3
_ _ _ _ _
 72
    65
 73
     2
 40
3.0
 49
2.0
 74
     0
 49
-1.0
 74
     0
  0
ENDTAB
  0
TABLE
  2
LAYER
  5
2
102
{ACAD_XDICTIONARY
360
27F
102
}
330
0
100
AcDbSymbolTable
 70
     3
  0
LAYER
  5
10
330
2
100
AcDbSymbolTableRecord
100
AcDbLayerTableRecord
  2
0
 70
     0
 62
     7
  6
Continuous
370
    -3
390
F
  0
LAYER
  5
1B0
330
2
100
AcDbSymbolTableRecord
100
AcDbLayerTableRecord
  2
AM_5
 70
     0
 62
     3
  6
Continuous
370
    25
390
F
  0
LAYER
  5
1FD
330
2
100
AcDbSymbolTableRecord
100
AcDbLayerTableRecord
  2
AM_0
 70
     0
 62
     7
  6
Continuous
370
    50
390
F
  0
ENDTAB
  0
TABLE
  2
STYLE
  5
3
330
0
100
AcDbSymbolTable
 70
     9
  0
STYLE
  5
11
330
3
100
AcDbSymbolTableRecord
100
AcDbTextStyleTableRecord
  2
STANDARD
 70
     0
 40
0.0
 41
1.0
 50
0.0
 71
     0
 42
2.5
  3
ISOCP.SHX
  4
extfont.shx
  0
STYLE
  5
6B
330
3
100
AcDbSymbolTableRecord
100
AcDbTextStyleTableRecord
  2

 70
     1
 40
0.0
 41
1.0
 50
0.0
 71
     0
 42
2.5
  3
ltypeshp.shx
  4

  0
STYLE
  5
6D
330
3
100
AcDbSymbolTableRecord
100
AcDbTextStyleTableRecord
  2
ACISOTS
 70
     0
 40
1.0
 41
1.0
 50
0.0
 71
     0
 42
1.0
  3
isocp.shx
  4
extfont.shx
  0
STYLE
  5
79
330
3
100
AcDbSymbolTableRecord
100
AcDbTextStyleTableRecord
  2
ACISOGDT
 70
     0
 40
0.0
 41
1.0
 50
0.0
 71
     0
 42
2.5
  3
amgdt.shx
  4
extfont.shx
  0
STYLE
  5
1F8
330
3
100
AcDbSymbolTableRecord
100
AcDbTextStyleTableRecord
  2
USER1
 70
     0
 40
0.0
 41
1.0
 50
0.0
 71
     0
 42
1.0
  3
TXT.SHX
  4

  0
STYLE
  5
1F9
330
3
100
AcDbSymbolTableRecord
100
AcDbTextStyleTableRecord
  2
USER2
 70
     0
 40
0.0
 41
1.0
 50
0.0
 71
     0
 42
1.0
  3
SIMPLEX.SHX
  4

  0
STYLE
  5
1FA
330
3
100
AcDbSymbolTableRecord
100
AcDbTextStyleTableRecord
  2
USER3
 70
     0
 40
0.0
 41
1.0
 50
0.0
 71
     0
 42
1.0
  3
ITALIC.SHX
  4

  0
STYLE
  5
1FB
330
3
100
AcDbSymbolTableRecord
100
AcDbTextStyleTableRecord
  2
ACJISTS
 70
     0
 40
1.0
 41
1.0
 50
0.0
 71
     0
 42
2.5
  3
isocp.shx
  4
extfont.shx
  0
STYLE
  5
1FC
330
3
100
AcDbSymbolTableRecord
100
AcDbTextStyleTableRecord
  2
ACJISGDT
 70
     0
 40
0.0
 41
1.0
 50
0.0
 71
     0
 42
2.5
  3
amgdt.shx
  4
extfont.shx
  0
ENDTAB
  0
TABLE
  2
VIEW
  5
6
330
0
100
AcDbSymbolTable
 70
     0
  0
ENDTAB
  0
TABLE
  2
UCS
  5
7
330
0
100
AcDbSymbolTable
 70
     0
  0
ENDTAB
  0
TABLE
  2
APPID
  5
9
330
0
100
AcDbSymbolTable
 70
    12
  0
APPID
  5
12
330
9
100
AcDbSymbolTableRecord
100
AcDbRegAppTableRecord
  2
ACAD
 70
     0
  0
APPID
  5
46
330
9
100
AcDbSymbolTableRecord
100
AcDbRegAppTableRecord
  2
MCAD_NO_VIS
 70
     0
  0
APPID
  5
47
330
9
100
AcDbSymbolTableRecord
100
AcDbRegAppTableRecord
  2
ACAD_TEMP_GRAPHIC
 70
     0
  0
APPID
  5
58
330
9
100
AcDbSymbolTableRecord
100
AcDbRegAppTableRecord
  2
ACATTRIBSERVICES
 70
     0
  0
APPID
  5
EE
330
9
100
AcDbSymbolTableRecord
100
AcDbRegAppTableRecord
  2
AD_DRAW
 70
     0
  0
APPID
  5
10C
330
9
100
AcDbSymbolTableRecord
100
AcDbRegAppTableRecord
  2
DESIGNERASSEMBLIES
 70
     0
  0
APPID
  5
111
330
9
100
AcDbSymbolTableRecord
100
AcDbRegAppTableRecord
  2
ACADM_DIM_EDIT
 70
     0
  0
APPID
  5
112
330
9
100
AcDbSymbolTableRecord
100
AcDbRegAppTableRecord
  2
AMDT_DM_ADJ
 70
     0
  0
APPID
  5
27B
330
9
100
AcDbSymbolTableRecord
100
AcDbRegAppTableRecord
  2
GENIUS_GENODEF_13
 70
     0
  0
APPID
  5
27C
330
9
100
AcDbSymbolTableRecord
100
AcDbRegAppTableRecord
  2
GENIUS_GENOBJ-N-FIL_13
 70
     0
  0
APPID
  5
27D
330
9
100
AcDbSymbolTableRecord
100
AcDbRegAppTableRecord
  2
GENIUS_GENOBJ-N-CEN_13
 70
     0
  0
APPID
  5
27E
330
9
100
AcDbSymbolTableRecord
100
AcDbRegAppTableRecord
  2
ACAD_PSEXT
 70
     0
  0
ENDTAB
  0
TABLE
  2
DIMSTYLE
  5
A
330
0
100
AcDbSymbolTable
 70
    15
100
AcDbDimStyleTable
 71
     2
340
81
340
1FE
  0
DIMSTYLE
105
27
330
A
100
AcDbSymbolTableRecord
100
AcDbDimStyleTableRecord
  2
ISO-25
 70
     0
 41
2.5
 42
0.625
 43
3.75
 44
1.25
 73
     0
 74
     0
 77
     1
 78
     8
140
2.5
141
2.5
143
0.03937007874016
147
0.625
171
     3
172
     1
271
     2
272
     2
274
     3
278
    44
283
     0
284
     8
340
11
  0
DIMSTYLE
105
81
330
A
100
AcDbSymbolTableRecord
100
AcDbDimStyleTableRecord
  2
AM_ISO
 70
     0
  4
"
 41
2.5
 42
1.0
 43
10.0
 44
1.0
 47
0.1
 48
0.1
 73
     0
 74
     0
 77
     1
 78
     8
 79
     2
140
3.5
141
0.0
143
0.0393701
146
0.71
147
1.5
172
     1
176
   256
177
   256
178
     2
271
     2
272
     3
274
     4
283
     0
284
     8
340
11
371
    -1
372
    -1
  0
DIMSTYLE
105
82
330
A
100
AcDbSymbolTableRecord
100
AcDbDimStyleTableRecord
  2
AM_ISO$3
 70
     0
  4
"
 41
2.5
 42
1.0
 43
10.0
 44
1.0
 47
0.1
 48
0.1
 73
     0
 77
     1
 78
     8
 79
     2
140
3.5
141
0.0
143
0.0393701
146
0.71
147
1.5
176
   256
177
   256
178
     2
271
     2
272
     3
274
     4
283
     0
284
     8
288
     1
289
     0
340
11
371
    -1
372
    -1
  0
DIMSTYLE
105
83
330
A
100
AcDbSymbolTableRecord
100
AcDbDimStyleTableRecord
  2
AM_ISO$4
 70
     0
  4
"
 41
2.5
 42
1.0
 43
10.0
 44
1.0
 47
0.1
 48
0.1
 73
     0
 77
     1
 78
     8
 79
     2
140
3.5
141
0.0
143
0.0393701
146
0.71
147
1.5
176
   256
177
   256
178
     2
271
     2
272
     3
274
     4
283
     0
284
     8
288
     1
289
     0
340
11
371
    -1
372
    -1
  0
DIMSTYLE
105
84
330
A
100
AcDbSymbolTableRecord
100
AcDbDimStyleTableRecord
  2
AM_ISO$6
 70
     0
  4
"
 41
2.5
 42
1.0
 43
10.0
 44
1.0
 47
0.1
 48
0.1
 73
     0
 74
     0
 78
     8
 79
     2
140
3.5
141
0.0
143
0.0393701
146
0.71
147
1.5
172
     1
176
   256
177
   256
178
     2
271
     2
272
     3
274
     4
283
     0
284
     8
340
11
371
    -1
372
    -1
  0
DIMSTYLE
105
85
330
A
100
AcDbSymbolTableRecord
100
AcDbDimStyleTableRecord
  2
AM_ISO$7
 70
     0
  4
"
 41
2.5
 42
1.0
 43
10.0
 44
1.0
 47
0.1
 48
0.1
 73
     0
 74
     0
 77
     1
 78
     8
 79
     2
140
5.0
141
0.0
143
0.0393701
146
0.71
147
1.5
172
     1
176
   256
177
   256
178
     2
271
     2
272
     3
274
     4
283
     0
284
     8
340
11
371
    -1
372
    -1
  0
DIMSTYLE
105
86
330
A
100
AcDbSymbolTableRecord
100
AcDbDimStyleTableRecord
  2
AM_ISO$SF
 70
     0
  4
"
 41
2.5
 42
1.0
 43
10.0
 44
1.0
 47
0.1
 48
0.1
 73
     0
 74
     0
 75
     1
 76
     1
 77
     1
 78
     8
 79
     2
140
3.5
141
0.0
143
0.0393701
146
0.71
147
1.5
172
     1
176
   256
177
   256
178
     2
271
     2
272
     3
274
     4
283
     0
284
     8
340
11
371
    -1
372
    -1
  0
DIMSTYLE
105
8B
330
A
100
AcDbSymbolTableRecord
100
AcDbDimStyleTableRecord
  2
AM_ISO$SH
 70
     0
  4
"
 41
2.5
 42
1.0
 43
10.0
 44
1.0
 47
0.1
 48
0.1
 73
     0
 74
     0
 75
     1
 76
     1
 77
     1
 78
     8
 79
     2
140
3.5
141
0.0
143
0.0393701
144
2.0
146
0.71
147
1.5
172
     1
173
     1
176
   256
177
   256
178
     2
271
     2
272
     3
274
     4
283
     0
284
     8
340
11
343
87
371
    -1
372
    -1
  0
DIMSTYLE
105
1FE
330
A
100
AcDbSymbolTableRecord
100
AcDbDimStyleTableRecord
  2
AM_JIS
 70
     0
  4
"
 41
2.5
 42
1.0
 43
10.0
 44
1.0
 47
0.1
 48
0.1
 73
     0
 74
     0
 77
     3
 78
     8
 79
     2
140
3.5
141
0.0
143
0.0393701
146
0.71
147
1.5
172
     1
176
   256
177
   256
178
     2
271
     2
272
     3
274
     4
283
     0
284
     8
340
11
341
1FF
342
1FF
343
1FF
344
1FF
371
    -1
372
    -1
  0
DIMSTYLE
105
275
330
A
100
AcDbSymbolTableRecord
100
AcDbDimStyleTableRecord
  2
AM_JIS$3
 70
     0
  4
"
 41
2.5
 42
1.0
 43
10.0
 44
1.0
 47
0.1
 48
0.1
 73
     0
 77
     3
 78
     8
 79
     2
140
3.5
141
0.0
143
0.0393701
146
0.71
147
1.5
176
   256
177
   256
178
     2
271
     2
272
     3
274
     4
283
     0
284
     8
288
     1
289
     0
340
11
341
1FF
342
1FF
343
1FF
344
1FF
371
    -1
372
    -1
  0
DIMSTYLE
105
276
330
A
100
AcDbSymbolTableRecord
100
AcDbDimStyleTableRecord
  2
AM_JIS$4
 70
     0
  4
"
 41
2.5
 42
1.0
 43
10.0
 44
1.0
 47
0.1
 48
0.1
 73
     0
 77
     3
 78
     8
 79
     2
140
3.5
141
0.0
143
0.0393701
146
0.71
147
1.5
176
   256
177
   256
178
     2
271
     2
272
     3
274
     4
283
     0
284
     8
288
     1
289
     0
340
11
341
1FF
342
1FF
343
1FF
344
1FF
371
    -1
372
    -1
  0
DIMSTYLE
105
277
330
A
100
AcDbSymbolTableRecord
100
AcDbDimStyleTableRecord
  2
AM_JIS$6
 70
     0
  4
"
 41
2.5
 42
1.0
 43
10.0
 44
1.0
 47
0.1
 48
0.1
 73
     0
 74
     0
 78
     8
 79
     2
140
3.5
141
0.0
143
0.0393701
146
0.71
147
1.5
172
     1
176
   256
177
   256
178
     2
271
     2
272
     3
274
     4
283
     0
284
     8
340
11
341
1FF
342
1FF
343
1FF
344
1FF
371
    -1
372
    -1
  0
DIMSTYLE
105
278
330
A
100
AcDbSymbolTableRecord
100
AcDbDimStyleTableRecord
  2
AM_JIS$7
 70
     0
  4
"
 41
2.5
 42
1.0
 43
10.0
 44
1.0
 47
0.1
 48
0.1
 73
     0
 74
     0
 77
     3
 78
     8
 79
     2
140
3.5
141
0.0
143
0.0393701
146
0.71
147
1.5
172
     1
176
   256
177
   256
178
     2
271
     2
272
     3
274
     4
283
     0
284
     8
340
11
341
1FF
342
1FF
343
1FF
344
1FF
371
    -1
372
    -1
  0
DIMSTYLE
105
279
330
A
100
AcDbSymbolTableRecord
100
AcDbDimStyleTableRecord
  2
AM_JIS$SF
 70
     0
  4
"
 41
2.5
 42
1.0
 43
10.0
 44
1.0
 47
0.1
 48
0.1
 73
     0
 74
     0
 75
     1
 76
     1
 77
     3
 78
     8
 79
     2
140
3.5
141
0.0
143
0.0393701
146
0.71
147
1.5
172
     1
176
   256
177
   256
178
     2
271
     2
272
     3
274
     4
283
     0
284
     8
340
11
341
1FF
342
1FF
343
1FF
344
1FF
371
    -1
372
    -1
  0
DIMSTYLE
105
27A
330
A
100
AcDbSymbolTableRecord
100
AcDbDimStyleTableRecord
  2
AM_JIS$SH
 70
     0
  4
"
 41
2.5
 42
1.0
 43
10.0
 44
1.0
 47
0.1
 48
0.1
 73
     0
 74
     0
 75
     1
 76
     1
 77
     3
 78
     8
 79
     2
140
3.5
141
0.0
143
0.0393701
144
2.0
146
0.71
147
1.5
172
     1
173
     1
176
   256
177
   256
178
     2
271
     2
272
     3
274
     4
283
     0
284
     8
340
11
341
1FF
342
1FF
343
87
344
1FF
371
    -1
372
    -1
  0
ENDTAB
  0
TABLE
  2
BLOCK_RECORD
  5
1
330
0
100
AcDbSymbolTable
 70
     5
  0
BLOCK_RECORD
  5
1F
102
{ACAD_XDICTIONARY
360
8F
102
}
330
1
100
AcDbSymbolTableRecord
100
AcDbBlockTableRecord
  2
*Model_Space
340
22
  0
BLOCK_RECORD
  5
1B
330
1
100
AcDbSymbolTableRecord
100
AcDbBlockTableRecord
  2
*Paper_Space
340
1E
  0
BLOCK_RECORD
  5
23
330
1
100
AcDbSymbolTableRecord
100
AcDbBlockTableRecord
  2
*Paper_Space0
340
26
  0
BLOCK_RECORD
  5
87
330
1
100
AcDbSymbolTableRecord
100
AcDbBlockTableRecord
  2
GENAXEH
340
0
  0
BLOCK_RECORD
  5
1FF
330
1
100
AcDbSymbolTableRecord
100
AcDbBlockTableRecord
  2
_Open30
340
0
  0
BLOCK_RECORD
  5
207
330
1
100
AcDbSymbolTableRecord
100
AcDbBlockTableRecord
  2
A$C1A4D5635
340
0
  0
ENDTAB
  0
ENDSEC
  0
SECTION
  2
BLOCKS
  0
BLOCK
  5
20
330
1F
100
AcDbEntity
  8
0
100
AcDbBlockBegin
  2
*Model_Space
 70
     0
 10
0.0
 20
0.0
 30
0.0
  3
*Model_Space
  1

  0
ENDBLK
  5
21
330
1F
100
AcDbEntity
  8
0
100
AcDbBlockEnd
  0
BLOCK
  5
1C
330
1B
100
AcDbEntity
 67
     1
  8
0
100
AcDbBlockBegin
  2
*Paper_Space
 70
     0
 10
0.0
 20
0.0
 30
0.0
  3
*Paper_Space
  1

  0
ENDBLK
  5
1D
330
1B
100
AcDbEntity
 67
     1
  8
0
100
AcDbBlockEnd
  0
BLOCK
  5
24
330
23
100
AcDbEntity
  8
0
100
AcDbBlockBegin
  2
*Paper_Space0
 70
     0
 10
0.0
 20
0.0
 30
0.0
  3
*Paper_Space0
  1

  0
ENDBLK
  5
25
330
23
100
AcDbEntity
  8
0
100
AcDbBlockEnd
  0
BLOCK
  5
852
330
87
100
AcDbEntity
  8
0
100
AcDbBlockBegin
  2
GENAXEH
 70
     0
 10
0.0
 20
0.0
 30
0.0
  3
GENAXEH
  1

  0
LINE
  5
853
330
87
100
AcDbEntity
  8
0
100
AcDbLine
 10
-1.0
 20
0.0
 30
0.0
 11
1.0
 21
0.0
 31
0.0
  0
ENDBLK
  5
854
330
87
100
AcDbEntity
  8
0
100
AcDbBlockEnd
  0
BLOCK
  5
846
330
1FF
100
AcDbEntity
  8
0
100
AcDbBlockBegin
  2
_Open30
 70
     0
 10
0.0
 20
0.0
 30
0.0
  3
_Open30
  1

  0
LINE
  5
847
330
1FF
100
AcDbEntity
  8
0
  6
ByBlock
 62
     0
370
    -2
100
AcDbLine
 10
-1.0
 20
0.26794919
 30
0.0
 11
0.0
 21
0.0
 31
0.0
  0
LINE
  5
848
330
1FF
100
AcDbEntity
  8
0
  6
ByBlock
 62
     0
370
    -2
100
AcDbLine
 10
0.0
 20
0.0
 30
0.0
 11
-1.0
 21
-0.26794919
 31
0.0
  0
LINE
  5
849
330
1FF
100
AcDbEntity
  8
0
  6
ByBlock
 62
     0
370
    -2
100
AcDbLine
 10
0.0
 20
0.0
 30
0.0
 11
-1.0
 21
0.0
 31
0.0
  0
ENDBLK
  5
84A
330
1FF
100
AcDbEntity
  8
0
100
AcDbBlockEnd
  0
BLOCK
  5
208
330
207
100
AcDbEntity
  8
0
100
AcDbBlockBegin
  2
A$C1A4D5635
 70
     0
 10
0.0
 20
0.0
 30
0.0
  3
A$C1A4D5635
  1

  0
LINE
  5
209
330
207
100
AcDbEntity
  8
0
100
AcDbLine
 10
0.0963723966138162
 20
1.125000107727622
 30
0.0
 11
11.34637239661418
 21
20.61057169287638
 31
0.0
  0
LINE
  5
20A
330
207
100
AcDbEntity
  8
0
100
AcDbLine
 10
2.044929555128803
 20
1.500000107727579
 30
0.0
 11
11.99589144945206
 21
18.73557169287578
 31
0.0
  0
LINE
  5
20B
330
207
100
AcDbEntity
  8
0
100
AcDbLine
 10
21.95518359297306
 20
1.500000107727194
 30
0.0
 11
2.036599305931474
 21
1.500000107727584
 31
0.0
  0
LINE
  5
20C
330
207
100
AcDbEntity
  8
0
100
AcDbLine
 10
23.24589144945205
 20
0.0000001077271747
 30
0.0
 11
0.7458914494520457
 21
0.0000001077276224
 31
0.0
  0
ARC
  5
20D
330
207
100
AcDbEntity
  8
0
100
AcDbCircle
 10
0.7458914494520599
 20
0.7500001077276224
 30
0.0
 40
0.75
100
AcDbArc
 50
149.999999999998
 51
269.9999999999992
1001
GENIUS_GENOBJ-N-FIL_13
1002
{
1000
OWNER
1000
GEN
1002
}
1001
GENIUS_GENODEF_13
1002
{
1000
HIER
1070
     0
1002
}
1002
{
1000
MANEDIT
1070
     0
1002
}
1002
{
1000
NOSEL
1070
     0
1002
}
1002
{
1000
BEHIND
1070
     0
1002
}
1002
{
1000
OTHER
1070
     0
1002
}
1002
{
1000
REACTOR
1002
}
  0
LINE
  5
20E
330
207
100
AcDbEntity
  8
0
100
AcDbLine
 10
23.89541050229039
 20
1.125000107727174
 30
0.0
 11
12.64541050229083
 21
20.61057169287635
 31
0.0
  0
LINE
  5
20F
330
207
100
AcDbEntity
  8
0
100
AcDbLine
 10
21.94685334377536
 20
1.500000107727194
 30
0.0
 11
18.71369183631331
 21
7.100000107727452
 31
0.0
  0
LINE
  5
210
330
207
100
AcDbEntity
  8
0
100
AcDbLine
 10
16.46752481932051
 20
4.495096297159789
 30
0.0
 11
16.61752481932053
 21
4.754903918295183
 31
0.0
  0
LINE
  5
211
330
207
100
AcDbEntity
  8
0
100
AcDbLine
 10
16.46752481932049
 20
4.495096297159801
 30
0.0
 11
13.43085833650636
 21
6.248316508451664
 31
0.0
  0
LINE
  5
212
330
207
100
AcDbEntity
  8
0
100
AcDbLine
 10
14.36469916642709
 20
4.669060356396471
 30
0.0
 11
14.57683120078303
 21
4.881192390752431
 31
0.0
  0
LINE
  5
213
330
207
100
AcDbEntity
  8
0
100
AcDbLine
 10
13.12270823286798
 20
5.91105128995562
 30
0.0
 11
14.36469916642709
 21
4.669060356396471
 31
0.0
  0
LINE
  5
214
330
207
100
AcDbEntity
  8
0
100
AcDbLine
 10
14.75079526001994
 20
2.778366737859128
 30
0.0
 11
12.99757504872808
 21
5.815033220673327
 31
0.0
  0
LINE
  5
215
330
207
100
AcDbEntity
  8
0
100
AcDbLine
 10
14.49098763888456
 20
2.628366737859122
 30
0.0
 11
12.7377674275927
 21
5.665033220673277
 31
0.0
  0
LINE
  5
216
330
207
100
AcDbEntity
  8
0
100
AcDbLine
 10
12.59204674830172
 20
5.60467373899273
 30
0.0
 11
13.04664698125434
 21
3.908082572481021
 31
0.0
  0
LINE
  5
217
330
207
100
AcDbEntity
  8
0
100
AcDbLine
 10
12.30226900041505
 20
5.527028025461987
 30
0.0
 11
12.75686923336762
 21
3.83043685895025
 31
0.0
  0
LINE
  5
218
330
207
100
AcDbEntity
  8
0
100
AcDbLine
 10
12.14589144945229
 20
2.000000107727371
 30
0.0
 11
12.14589144945232
 21
5.506440530311135
 31
0.0
  0
LINE
  5
219
330
207
100
AcDbEntity
  8
0
100
AcDbLine
 10
11.84589144945225
 20
2.000000107727387
 30
0.0
 11
11.84589144945225
 21
5.50644053031111
 31
0.0
  0
LINE
  5
21A
330
207
100
AcDbEntity
  8
0
100
AcDbLine
 10
11.68951389848925
 20
5.527028025462006
 30
0.0
 11
11.23491366553666
 21
3.830436858950291
 31
0.0
  0
LINE
  5
21B
330
207
100
AcDbEntity
  8
0
100
AcDbLine
 10
11.39973615060256
 20
5.604673738992755
 30
0.0
 11
10.94513591764993
 21
3.908082572481033
 31
0.0
  0
LINE
  5
21C
330
207
100
AcDbEntity
  8
0
100
AcDbLine
 10
9.500795260019911
 20
2.628366737859029
 30
0.0
 11
11.25401547131182
 21
5.665033220673199
 31
0.0
  0
LINE
  5
21D
330
207
100
AcDbEntity
  8
0
100
AcDbLine
 10
9.240987638884547
 20
2.778366737859058
 30
0.0
 11
10.99420785017642
 21
5.815033220673207
 31
0.0
  0
LINE
  5
21E
330
207
100
AcDbEntity
  8
0
100
AcDbLine
 10
7.374258079583881
 20
4.754903918294992
 30
0.0
 11
7.524258079583915
 21
4.495096297159611
 31
0.0
  0
LINE
  5
21F
330
207
100
AcDbEntity
  8
0
100
AcDbLine
 10
9.414951698121226
 20
4.881192390752471
 30
0.0
 11
9.627083732477217
 21
4.669060356396521
 31
0.0
  0
LINE
  5
220
330
207
100
AcDbEntity
  8
0
100
AcDbLine
 10
10.86907466603631
 20
5.911051289955665
 30
0.0
 11
9.627083732477217
 21
4.669060356396521
 31
0.0
  0
LINE
  5
221
330
207
100
AcDbEntity
  8
0
100
AcDbLine
 10
7.524258079583915
 20
4.495096297159625
 30
0.0
 11
10.5609245623981
 21
6.24831650845148
 31
0.0
  0
LINE
  5
222
330
207
100
AcDbEntity
  8
0
100
AcDbLine
 10
11.84589144945225
 20
2.000000107727371
 30
0.0
 11
12.14589144945231
 21
2.000000107727371
 31
0.0
  0
LINE
  5
223
330
207
100
AcDbEntity
  8
0
100
AcDbLine
 10
9.240987638884547
 20
2.778366737859049
 30
0.0
 11
9.500795260019927
 21
2.628366737859025
 31
0.0
  0
LINE
  5
224
330
207
100
AcDbEntity
  8
0
100
AcDbLine
 10
10.94513591764993
 20
3.908082572481033
 30
0.0
 11
11.23491366553666
 21
3.830436858950291
 31
0.0
  0
LINE
  5
225
330
207
100
AcDbEntity
  8
0
100
AcDbLine
 10
14.49098763888457
 20
2.62836673785911
 30
0.0
 11
14.75079526001994
 21
2.778366737859128
 31
0.0
  0
LINE
  5
226
330
207
100
AcDbEntity
  8
0
100
AcDbLine
 10
12.75686923336762
 20
3.83043685895025
 30
0.0
 11
13.04664698125434
 21
3.908082572481021
 31
0.0
  0
ARC
  5
227
330
207
100
AcDbEntity
  8
0
100
AcDbCircle
 10
23.24589144945206
 20
0.7500001077271749
 30
0.0
 40
0.75
100
AcDbArc
 50
269.9999999999992
 51
30.00000000000014
1001
GENIUS_GENOBJ-N-FIL_13
1002
{
1000
OWNER
1000
GEN
1002
}
1001
GENIUS_GENODEF_13
1002
{
1000
HIER
1070
     0
1002
}
1002
{
1000
MANEDIT
1070
     0
1002
}
1002
{
1000
NOSEL
1070
     0
1002
}
1002
{
1000
BEHIND
1070
     0
1002
}
1002
{
1000
OTHER
1070
     0
1002
}
1002
{
1000
REACTOR
1002
}
  0
LINE
  5
228
330
207
100
AcDbEntity
  8
0
100
AcDbLine
 10
18.54048675555643
 20
7.400000107727507
 30
0.0
 11
11.99589144945206
 21
18.73557169287706
 31
0.0
  0
LINE
  5
229
330
207
100
AcDbEntity
  8
0
100
AcDbLine
 10
18.71369183631331
 20
7.100000107727452
 30
0.0
 11
13.73945102686844
 21
7.100000107727468
 31
0.0
  0
LINE
  5
22A
330
207
100
AcDbEntity
  8
0
100
AcDbLine
 10
18.54048675555643
 20
7.400000107727507
 30
0.0
 11
13.73945102686841
 21
7.400000107727534
 31
0.0
  0
LINE
  5
22B
330
207
100
AcDbEntity
  8
0
100
AcDbLine
 10
12.14589144945208
 20
12.5000001077274
 30
0.0
 11
12.14589144945208
 21
8.993559685143679
 31
0.0
  0
LINE
  5
22C
330
207
100
AcDbEntity
  8
0
100
AcDbLine
 10
11.84589144945204
 20
12.50000010772742
 30
0.0
 11
11.84589144945201
 21
8.993559685143651
 31
0.0
  0
LINE
  5
22D
330
207
100
AcDbEntity
  8
0
100
AcDbLine
 10
7.374258079583796
 20
9.745096297159648
 30
0.0
 11
10.41092456239795
 21
7.991876085867744
 31
0.0
  0
LINE
  5
22E
330
207
100
AcDbEntity
  8
0
100
AcDbLine
 10
7.524258079583816
 20
10.00490391829501
 30
0.0
 11
10.56092456239795
 21
8.251683707003138
 31
0.0
  0
LINE
  5
22F
330
207
100
AcDbEntity
  8
0
100
AcDbLine
 10
10.65694263168042
 20
8.376816891143249
 30
0.0
 11
9.414951698121283
 21
9.618807824702344
 31
0.0
  0
LINE
  5
230
330
207
100
AcDbEntity
  8
0
100
AcDbLine
 10
7.374258079583896
 20
4.754903918294997
 30
0.0
 11
10.41092456239804
 21
6.508124129586859
 31
0.0
  0
LINE
  5
231
330
207
100
AcDbEntity
  8
0
100
AcDbLine
 10
10.3505650807175
 20
6.653844808877846
 30
0.0
 11
8.653973914205792
 21
6.199244575925232
 31
0.0
  0
LINE
  5
232
330
207
100
AcDbEntity
  8
0
100
AcDbLine
 10
10.27291936718676
 20
6.943622556764522
 30
0.0
 11
8.576328200675021
 21
6.48902232381195
 31
0.0
  0
LINE
  5
233
330
207
100
AcDbEntity
  8
0
100
AcDbLine
 10
6.745891449452145
 20
7.10000010772728
 30
0.0
 11
10.25233187203591
 21
7.100000107727253
 31
0.0
  0
LINE
  5
234
330
207
100
AcDbEntity
  8
0
100
AcDbLine
 10
6.745891449452159
 20
7.400000107727322
 30
0.0
 11
10.25233187203588
 21
7.400000107727322
 31
0.0
  0
LINE
  5
235
330
207
100
AcDbEntity
  8
0
100
AcDbLine
 10
10.27291936718677
 20
7.556377658690307
 30
0.0
 11
8.57632820067505
 21
8.01097789164288
 31
0.0
  0
LINE
  5
236
330
207
100
AcDbEntity
  8
0
100
AcDbLine
 10
10.35056508071751
 20
7.846155406576982
 30
0.0
 11
8.653973914205792
 21
8.300755639529597
 31
0.0
  0
LINE
  5
237
330
207
100
AcDbEntity
  8
0
100
AcDbLine
 10
8.576328200675021
 20
6.48902232381195
 30
0.0
 11
8.653973914205792
 21
6.199244575925232
 31
0.0
  0
LINE
  5
238
330
207
100
AcDbEntity
  8
0
100
AcDbLine
 10
6.745891449452145
 20
7.400000107727322
 30
0.0
 11
6.745891449452145
 21
7.100000107727267
 31
0.0
  0
LINE
  5
239
330
207
100
AcDbEntity
  8
0
100
AcDbLine
 10
8.653973914205792
 20
8.300755639529597
 30
0.0
 11
8.57632820067505
 21
8.01097789164288
 31
0.0
  0
ARC
  5
23A
330
207
100
AcDbEntity
  8
0
100
AcDbCircle
 10
11.99589144945217
 20
7.250000107727402
 30
0.0
 40
1.75
100
AcDbArc
 50
199.9171003355269
 51
205.082899664473
  0
ARC
  5
23B
330
207
100
AcDbEntity
  8
0
100
AcDbCircle
 10
11.99589144945217
 20
7.250000107727402
 30
0.0
 40
1.75
100
AcDbArc
 50
214.9171003355335
 51
220.0828996644713
  0
LINE
  5
23C
330
207
100
AcDbEntity
  8
0
100
AcDbLine
 10
10.65694263168039
 20
6.12318332431159
 30
0.0
 11
9.414951698121226
 21
4.881192390752471
 31
0.0
  0
ARC
  5
23D
330
207
100
AcDbEntity
  8
0
100
AcDbCircle
 10
11.99589144945217
 20
7.250000107727402
 30
0.0
 40
1.75
100
AcDbArc
 50
259.9171003355269
 51
265.0828996644734
  0
ARC
  5
23E
330
207
100
AcDbEntity
  8
0
100
AcDbCircle
 10
11.99589144945217
 20
7.250000107727402
 30
0.0
 40
1.75
100
AcDbArc
 50
229.9171003355269
 51
235.0828996644737
  0
ARC
  5
23F
330
207
100
AcDbEntity
  8
0
100
AcDbCircle
 10
11.99589144945217
 20
7.250000107727402
 30
0.0
 40
1.75
100
AcDbArc
 50
244.9171003355328
 51
250.08289966447
  0
ARC
  5
240
330
207
100
AcDbEntity
  8
0
100
AcDbCircle
 10
11.99589144945217
 20
7.250000107727402
 30
0.0
 40
1.75
100
AcDbArc
 50
139.9171003355272
 51
145.0828996644742
  0
ARC
  5
241
330
207
100
AcDbEntity
  8
0
100
AcDbCircle
 10
11.99589144945217
 20
7.250000107727402
 30
0.0
 40
1.75
100
AcDbArc
 50
184.9171003355335
 51
190.0828996644713
  0
ARC
  5
242
330
207
100
AcDbEntity
  8
0
100
AcDbCircle
 10
11.99589144945217
 20
7.250000107727402
 30
0.0
 40
1.75
100
AcDbArc
 50
169.9171003355277
 51
175.0828996644738
  0
ARC
  5
243
330
207
100
AcDbEntity
  8
0
100
AcDbCircle
 10
11.99589144945217
 20
7.250000107727402
 30
0.0
 40
1.75
100
AcDbArc
 50
154.9171003355332
 51
160.0828996644723
  0
LINE
  5
244
330
207
100
AcDbEntity
  8
0
100
AcDbLine
 10
7.524258079583802
 20
10.00490391829501
 30
0.0
 11
7.37425807958378
 21
9.745096297159632
 31
0.0
  0
LINE
  5
245
330
207
100
AcDbEntity
  8
0
100
AcDbLine
 10
9.240987638884377
 20
11.72163347759566
 30
0.0
 11
10.99420785017624
 21
8.68496699478146
 31
0.0
  0
LINE
  5
246
330
207
100
AcDbEntity
  8
0
100
AcDbLine
 10
9.500795260019755
 20
11.87163347759568
 30
0.0
 11
11.25401547131162
 21
8.834966994781524
 31
0.0
  0
LINE
  5
247
330
207
100
AcDbEntity
  8
0
100
AcDbLine
 10
11.68951389848928
 20
8.972972189992802
 30
0.0
 11
11.23491366553671
 21
10.66956335650454
 31
0.0
  0
LINE
  5
248
330
207
100
AcDbEntity
  8
0
100
AcDbLine
 10
11.3997361506026
 20
8.895326476462059
 30
0.0
 11
10.94513591764999
 21
10.59191764297377
 31
0.0
  0
LINE
  5
249
330
207
100
AcDbEntity
  8
0
100
AcDbLine
 10
10.86907466603634
 20
8.588948925499181
 30
0.0
 11
9.627083732477231
 21
9.830939859058332
 31
0.0
  0
LINE
  5
24A
330
207
100
AcDbEntity
  8
0
100
AcDbLine
 10
9.627083732477231
 20
9.830939859058332
 30
0.0
 11
9.414951698121283
 21
9.618807824702344
 31
0.0
  0
ARC
  5
24B
330
207
100
AcDbEntity
  8
0
100
AcDbCircle
 10
11.99589144945217
 20
7.250000107727402
 30
0.0
 40
1.75
100
AcDbArc
 50
124.9171003355342
 51
130.0828996644713
  0
ARC
  5
24C
330
207
100
AcDbEntity
  8
0
100
AcDbCircle
 10
11.99589144945217
 20
7.250000107727402
 30
0.0
 40
1.75
100
AcDbArc
 50
109.9171003355282
 51
115.0828996644735
  0
ARC
  5
24D
330
207
100
AcDbEntity
  8
0
100
AcDbCircle
 10
11.99589144945217
 20
7.250000107727402
 30
0.0
 40
1.75
100
AcDbArc
 50
94.9171003355339
 51
100.0828996644722
  0
LINE
  5
24E
330
207
100
AcDbEntity
  8
0
100
AcDbLine
 10
9.500795260019742
 20
11.87163347759568
 30
0.0
 11
9.240987638884377
 21
11.72163347759564
 31
0.0
  0
LINE
  5
24F
330
207
100
AcDbEntity
  8
0
100
AcDbLine
 10
11.23491366553671
 20
10.66956335650454
 30
0.0
 11
10.94513591764999
 21
10.59191764297377
 31
0.0
  0
LINE
  5
250
330
207
100
AcDbEntity
  8
0
100
AcDbLine
 10
13.33484026722392
 20
8.376816891143235
 30
0.0
 11
14.57683120078307
 21
9.618807824702344
 31
0.0
  0
LINE
  5
251
330
207
100
AcDbEntity
  8
0
100
AcDbLine
 10
16.46752481932042
 20
10.00490391829518
 30
0.0
 11
13.43085833650622
 21
8.251683707003337
 31
0.0
  0
LINE
  5
252
330
207
100
AcDbEntity
  8
0
100
AcDbLine
 10
16.61752481932042
 20
9.745096297159818
 30
0.0
 11
13.58085833650626
 21
7.991876085867942
 31
0.0
  0
LINE
  5
253
330
207
100
AcDbEntity
  8
0
100
AcDbLine
 10
13.64121781818681
 20
7.846155406576941
 30
0.0
 11
15.33780898469852
 21
8.300755639529555
 31
0.0
  0
LINE
  5
254
330
207
100
AcDbEntity
  8
0
100
AcDbLine
 10
13.71886353171756
 20
7.556377658690266
 30
0.0
 11
15.4154546982293
 21
8.010977891642838
 31
0.0
  0
LINE
  5
255
330
207
100
AcDbEntity
  8
0
100
AcDbLine
 10
13.71886353171754
 20
6.943622556764481
 30
0.0
 11
15.41545469822927
 21
6.489022323811923
 31
0.0
  0
LINE
  5
256
330
207
100
AcDbEntity
  8
0
100
AcDbLine
 10
13.6412178181868
 20
6.653844808877806
 30
0.0
 11
15.33780898469852
 21
6.199244575925193
 31
0.0
  0
LINE
  5
257
330
207
100
AcDbEntity
  8
0
100
AcDbLine
 10
16.61752481932052
 20
4.754903918295156
 30
0.0
 11
13.58085833650636
 21
6.508124129587057
 31
0.0
  0
ARC
  5
258
330
207
100
AcDbEntity
  8
0
100
AcDbCircle
 10
11.99589144945217
 20
7.250000107727402
 30
0.0
 40
1.75
100
AcDbArc
 50
334.9171003355329
 51
340.0828996644709
  0
ARC
  5
259
330
207
100
AcDbEntity
  8
0
100
AcDbCircle
 10
11.99589144945217
 20
7.250000107727402
 30
0.0
 40
1.75
100
AcDbArc
 50
319.9171003355271
 51
325.0828996644731
  0
LINE
  5
25A
330
207
100
AcDbEntity
  8
0
100
AcDbLine
 10
13.33484026722391
 20
6.123183324311553
 30
0.0
 11
14.57683120078303
 21
4.881192390752431
 31
0.0
  0
ARC
  5
25B
330
207
100
AcDbEntity
  8
0
100
AcDbCircle
 10
11.99589144945217
 20
7.250000107727402
 30
0.0
 40
1.75
100
AcDbArc
 50
274.917100335534
 51
280.0828996644714
  0
ARC
  5
25C
330
207
100
AcDbEntity
  8
0
100
AcDbCircle
 10
11.99589144945217
 20
7.250000107727402
 30
0.0
 40
1.75
100
AcDbArc
 50
289.9171003355265
 51
295.0828996644735
  0
ARC
  5
25D
330
207
100
AcDbEntity
  8
0
100
AcDbCircle
 10
11.99589144945217
 20
7.250000107727402
 30
0.0
 40
1.75
100
AcDbArc
 50
304.9171003355331
 51
310.0828996644712
  0
ARC
  5
25E
330
207
100
AcDbEntity
  8
0
100
AcDbCircle
 10
11.99589144945217
 20
7.250000107727402
 30
0.0
 40
1.75
100
AcDbArc
 50
34.91710033553427
 51
40.08289966447196
  0
ARC
  5
25F
330
207
100
AcDbEntity
  8
0
100
AcDbCircle
 10
11.99589144945217
 20
7.250000107727402
 30
0.0
 40
1.75
100
AcDbArc
 50
349.9171003355265
 51
355.0828996644733
  0
ARC
  5
260
330
207
100
AcDbEntity
  8
0
100
AcDbCircle
 10
11.99589144945217
 20
7.250000107727402
 30
0.0
 40
1.75
100
AcDbArc
 50
4.917100335533119
 51
10.08289966447091
  0
ARC
  5
261
330
207
100
AcDbEntity
  8
0
100
AcDbCircle
 10
11.99589144945217
 20
7.250000107727402
 30
0.0
 40
1.75
100
AcDbArc
 50
19.91710033552693
 51
25.08289966447444
  0
LINE
  5
262
330
207
100
AcDbEntity
  8
0
100
AcDbLine
 10
15.33780898469852
 20
6.199244575925193
 30
0.0
 11
15.41545469822927
 21
6.489022323811923
 31
0.0
  0
LINE
  5
263
330
207
100
AcDbEntity
  8
0
100
AcDbLine
 10
15.4154546982293
 20
8.010977891642838
 30
0.0
 11
15.33780898469852
 21
8.300755639529555
 31
0.0
  0
LINE
  5
264
330
207
100
AcDbEntity
  8
0
100
AcDbLine
 10
12.30226900041506
 20
8.972972189992786
 30
0.0
 11
12.75686923336762
 21
10.66956335650451
 31
0.0
  0
LINE
  5
265
330
207
100
AcDbEntity
  8
0
100
AcDbLine
 10
12.59204674830174
 20
8.895326476462043
 30
0.0
 11
13.04664698125435
 21
10.59191764297378
 31
0.0
  0
LINE
  5
266
330
207
100
AcDbEntity
  8
0
100
AcDbLine
 10
14.49098763888439
 20
11.87163347759578
 30
0.0
 11
12.73776742759247
 21
8.834966994781609
 31
0.0
  0
LINE
  5
267
330
207
100
AcDbEntity
  8
0
100
AcDbLine
 10
14.75079526001974
 20
11.72163347759574
 30
0.0
 11
12.99757504872789
 21
8.684966994781602
 31
0.0
  0
LINE
  5
268
330
207
100
AcDbEntity
  8
0
100
AcDbLine
 10
13.12270823286799
 20
8.588948925499151
 30
0.0
 11
14.3646991664271
 21
9.830939859058304
 31
0.0
  0
ARC
  5
269
330
207
100
AcDbEntity
  8
0
100
AcDbCircle
 10
11.99589144945217
 20
7.250000107727402
 30
0.0
 40
1.75
100
AcDbArc
 50
49.91710033552803
 51
55.08289966447453
  0
ARC
  5
26A
330
207
100
AcDbEntity
  8
0
100
AcDbCircle
 10
11.99589144945217
 20
7.250000107727402
 30
0.0
 40
1.75
100
AcDbArc
 50
64.9171003355345
 51
70.08289966447178
  0
ARC
  5
26B
330
207
100
AcDbEntity
  8
0
100
AcDbCircle
 10
11.99589144945217
 20
7.250000107727402
 30
0.0
 40
1.75
100
AcDbArc
 50
79.91710033552781
 51
85.08289966447428
  0
LINE
  5
26C
330
207
100
AcDbEntity
  8
0
100
AcDbLine
 10
14.57683120078307
 20
9.618807824702344
 30
0.0
 11
14.3646991664271
 21
9.830939859058304
 31
0.0
  0
LINE
  5
26D
330
207
100
AcDbEntity
  8
0
100
AcDbLine
 10
13.04664698125435
 20
10.59191764297378
 30
0.0
 11
12.75686923336762
 21
10.66956335650451
 31
0.0
  0
LINE
  5
26E
330
207
100
AcDbEntity
  8
0
100
AcDbLine
 10
14.75079526001976
 20
11.72163347759576
 30
0.0
 11
14.49098763888438
 21
11.87163347759579
 31
0.0
  0
LINE
  5
26F
330
207
100
AcDbEntity
  8
0
100
AcDbLine
 10
16.61752481932042
 20
9.745096297159818
 30
0.0
 11
16.4675248193204
 21
10.0049039182952
 31
0.0
  0
LINE
  5
270
330
207
100
AcDbEntity
  8
0
100
AcDbLine
 10
12.14589144945208
 20
12.50000010772742
 30
0.0
 11
11.84589144945202
 21
12.50000010772742
 31
0.0
  0
ARC
  5
271
330
207
100
AcDbEntity
  8
0
100
AcDbCircle
 10
11.9958914494525
 20
20.23557169287635
 30
0.0
 40
0.75
100
AcDbArc
 50
30.00000000000014
 51
149.9999999999977
1001
GENIUS_GENOBJ-N-FIL_13
1002
{
1000
OWNER
1000
GEN
1002
}
1001
GENIUS_GENODEF_13
1002
{
1000
HIER
1070
     0
1002
}
1002
{
1000
MANEDIT
1070
     0
1002
}
1002
{
1000
NOSEL
1070
     0
1002
}
1002
{
1000
BEHIND
1070
     0
1002
}
1002
{
1000
OTHER
1070
     0
1002
}
1002
{
1000
REACTOR
1002
}
  0
ENDBLK
  5
272
330
207
100
AcDbEntity
  8
0
100
AcDbBlockEnd
  0
ENDSEC
  0
SECTION
  2
ENTITIES
  0
ARC
  5
4DB
330
1F
100
AcDbEntity
  8
0
100
AcDbCircle
 10
241.6894684634164
 20
-157.5119353094977
 30
0.0
 40
300.0
100
AcDbArc
 50
77.1714652017268
 51
86.09854051662864
  0
ARC
  5
4DC
330
1F
100
AcDbEntity
  8
0
100
AcDbCircle
 10
131.2294990791732
 20
-18.24498955317077
 30
0.0
 40
150.0
100
AcDbArc
 50
7.634940427047863
 51
22.39552040886768
  0
ARC
  5
4DD
330
1F
100
AcDbEntity
  8
0
100
AcDbCircle
 10
1235.209823335847
 20
84.65713157243262
 30
0.0
 40
1000.0
100
AcDbArc
 50
178.2357468229468
 51
183.3682057335624
  0
LINE
  5
4DE
330
1F
100
AcDbEntity
  8
0
100
AcDbLine
 10
265.2929935948317
 20
41.99973361791551
 30
0.0
 11
236.1200644053749
 21
41.99973361791551
 31
0.0
  0
ARC
  5
4DF
330
1F
100
AcDbEntity
  8
0
100
AcDbCircle
 10
265.2929935948317
 20
36.99973361791551
 30
0.0
 40
5.0
100
AcDbArc
 50
22.39552040886768
 51
90.0
1001
GENIUS_GENODEF_13
1002
{
1000
HIER
1070
     0
1002
}
1002
{
1000
MANEDIT
1070
     0
1002
}
1002
{
1000
NOSEL
1070
     0
1002
}
1002
{
1000
BEHIND
1070
     0
1002
}
1002
{
1000
REACTOR
1002
}
1001
GENIUS_GENOBJ-N-FIL_13
1002
{
1000
OWNER
1000
GEN
1002
}
  0
ARC
  5
4E0
330
1F
100
AcDbEntity
  8
0
100
AcDbCircle
 10
388.2527108265348
 20
-10.45327273526538
 30
0.0
 40
200.0
100
AcDbArc
 50
131.2900847728933
 51
138.6239399162126
  0
ARC
  5
4E1
330
1F
100
AcDbEntity
  8
0
100
AcDbCircle
 10
245.6791199658257
 20
115.1364210659501
 30
0.0
 40
10.0
100
AcDbArc
 50
138.6239399162126
 51
178.2357468229468
1001
GENIUS_GENODEF_13
1002
{
1000
HIER
1070
     0
1002
}
1002
{
1000
MANEDIT
1070
     0
1002
}
1002
{
1000
NOSEL
1070
     0
1002
}
1002
{
1000
BEHIND
1070
     0
1002
}
1002
{
1000
REACTOR
1002
}
1001
GENIUS_GENOBJ-N-FIL_13
1002
{
1000
OWNER
1000
GEN
1002
}
  0
ARC
  5
4E2
330
1F
100
AcDbEntity
  8
0
100
AcDbCircle
 10
261.5573541615027
 20
133.8113681145295
 30
0.0
 40
8.0
100
AcDbArc
 50
86.09854051662864
 51
131.2900847728933
1001
GENIUS_GENODEF_13
1002
{
1000
HIER
1070
     0
1002
}
1002
{
1000
MANEDIT
1070
     0
1002
}
1002
{
1000
NOSEL
1070
     0
1002
}
1002
{
1000
BEHIND
1070
     0
1002
}
1002
{
1000
REACTOR
1002
}
1001
GENIUS_GENOBJ-N-FIL_13
1002
{
1000
OWNER
1000
GEN
1002
}
  0
ARC
  5
4E3
330
1F
100
AcDbEntity
  8
0
100
AcDbCircle
 10
1291.65952705638
 20
224.2283365188296
 30
0.0
 40
1000.0
100
AcDbArc
 50
188.2912349720608
 51
190.769095895473
  0
ARC
  5
4E4
330
1F
100
AcDbEntity
  8
0
100
AcDbCircle
 10
279.7997044733531
 20
31.77132978162651
 30
0.0
 40
30.0
100
AcDbArc
 50
274.2623395502465
 51
10.76909589547298
  0
LINE
  5
4E5
330
1F
100
AcDbEntity
  8
0
100
AcDbLine
 10
279.3419300226561
 20
25.53852004016717
 30
0.0
 11
276.1248215416804
 21
25.99973361791553
 31
0.0
  0
LINE
  5
4E6
330
1F
100
AcDbEntity
  8
0
100
AcDbLine
 10
276.1248215416804
 20
25.99973361791553
 30
0.0
 11
278.7176114737424
 21
27.95931093353154
 31
0.0
  0
LINE
  5
4E7
330
1F
100
AcDbEntity
  8
0
100
AcDbLine
 10
279.3419300226561
 20
25.53852004016717
 30
0.0
 11
278.7176114737424
 21
27.95931093353154
 31
0.0
  0
ARC
  5
4E8
330
1F
100
AcDbEntity
  8
0
100
AcDbCircle
 10
331.7981019841043
 20
84.34965816426858
 30
0.0
 40
30.0
100
AcDbArc
 50
141.5618703095585
 51
188.2912349720608
  0
LINE
  5
4E9
330
1F
100
AcDbEntity
  8
0
100
AcDbLine
 10
311.2997044733532
 20
133.9997336179155
 30
0.0
 11
311.2997044733532
 21
103.9997336179155
 31
0.0
  0
LINE
  5
4EA
330
1F
100
AcDbEntity
  8
0
100
AcDbLine
 10
308.2997044733531
 20
134.9997336179155
 30
0.0
 11
308.2997044733531
 21
102.9997336179154
 31
0.0
  0
ARC
  5
4EB
330
1F
100
AcDbEntity
  8
0
100
AcDbCircle
 10
310.2997044733531
 20
103.9997336179155
 30
0.0
 40
1.0
100
AcDbArc
 50
270.0
 51
0.0
1001
GENIUS_GENODEF_13
1002
{
1000
HIER
1070
     0
1002
}
1002
{
1000
MANEDIT
1070
     0
1002
}
1002
{
1000
NOSEL
1070
     0
1002
}
1002
{
1000
BEHIND
1070
     0
1002
}
1002
{
1000
REACTOR
1002
}
1001
GENIUS_GENOBJ-N-FIL_13
1002
{
1000
OWNER
1000
GEN
1002
}
  0
LINE
  5
4EC
330
1F
100
AcDbEntity
  8
0
100
AcDbLine
 10
310.2997044733531
 20
102.9997336179155
 30
0.0
 11
308.2997044733531
 21
102.9997336179154
 31
0.0
  0
ARC
  5
4ED
330
1F
100
AcDbEntity
  8
0
100
AcDbCircle
 10
310.2997044733531
 20
133.9997336179155
 30
0.0
 40
1.0
100
AcDbArc
 50
0.0
 51
90.0
1001
GENIUS_GENODEF_13
1002
{
1000
HIER
1070
     0
1002
}
1002
{
1000
MANEDIT
1070
     0
1002
}
1002
{
1000
NOSEL
1070
     0
1002
}
1002
{
1000
BEHIND
1070
     0
1002
}
1002
{
1000
REACTOR
1002
}
1001
GENIUS_GENOBJ-N-FIL_13
1002
{
1000
OWNER
1000
GEN
1002
}
  0
LINE
  5
4EE
330
1F
100
AcDbEntity
  8
0
100
AcDbLine
 10
310.2997044733531
 20
134.9997336179155
 30
0.0
 11
308.2997044733531
 21
134.9997336179155
 31
0.0
  0
ARC
  5
4EF
330
1F
100
AcDbEntity
  8
0
100
AcDbCircle
 10
-94.70029552664756
 20
31.76999998978255
 30
0.0
 40
300.0
100
AcDbArc
 50
354.780861667565
 51
1.954114023782579
  0
ARC
  5
4F0
330
1F
100
AcDbEntity
  8
0
100
AcDbCircle
 10
477.299704473403
 20
31.76999998978245
 30
0.0
 40
300.0
100
AcDbArc
 50
178.0458859762174
 51
185.219138332437
  0
LINE
  5
4F1
330
1F
100
AcDbEntity
  8
0
100
AcDbLine
 10
205.1252413275329
 20
41.99973361791551
 30
0.0
 11
177.474167619223
 21
41.99973361791551
 31
0.0
  0
ARC
  5
4F2
330
1F
100
AcDbEntity
  8
0
100
AcDbCircle
 10
17.85275884286886
 20
52.99999998978307
 30
0.0
 40
160.0
100
AcDbArc
 50
356.0577098710445
 51
0.0
  0
ARC
  5
4F3
330
1F
100
AcDbEntity
  8
0
100
AcDbCircle
 10
364.7466501038868
 20
52.99999998978369
 30
0.0
 40
160.0
100
AcDbArc
 50
180.0
 51
183.9422901289555
  0
ARC
  5
4F4
330
1F
100
AcDbEntity
  8
0
100
AcDbCircle
 10
2204.746650103887
 20
52.99999998978339
 30
0.0
 40
2000.0
100
AcDbArc
 50
179.2142900149258
 51
180.0
  0
ARC
  5
4F5
330
1F
100
AcDbEntity
  8
0
100
AcDbCircle
 10
-1822.147241157131
 20
52.9999999897797
 30
0.0
 40
2000.0
100
AcDbArc
 50
0.0
 51
0.7755566674846679
  0
ARC
  5
4F6
330
1F
100
AcDbEntity
  8
0
100
AcDbCircle
 10
112.3064153518658
 20
36.999733617917
 30
0.0
 40
5.0
100
AcDbArc
 50
89.99999999999877
 51
157.604479591131
1001
GENIUS_GENODEF_13
1002
{
1000
HIER
1070
     0
1002
}
1002
{
1000
MANEDIT
1070
     0
1002
}
1002
{
1000
NOSEL
1070
     0
1002
}
1002
{
1000
BEHIND
1070
     0
1002
}
1002
{
1000
REACTOR
1002
}
1001
GENIUS_GENOBJ-N-FIL_13
1002
{
1000
OWNER
1000
GEN
1002
}
  0
ARC
  5
4F7
330
1F
100
AcDbEntity
  8
0
100
AcDbCircle
 10
-857.6104143891486
 20
84.6571315724535
 30
0.0
 40
1000.0
100
AcDbArc
 50
356.6317942664364
 51
1.76425317705197
  0
ARC
  5
4F8
330
1F
100
AcDbEntity
  8
0
100
AcDbCircle
 10
-914.0601181096792
 20
224.2283365188517
 30
0.0
 40
1000.0
100
AcDbArc
 50
349.2309041045258
 51
351.708765027938
  0
ARC
  5
4F9
330
1F
100
AcDbEntity
  8
0
100
AcDbCircle
 10
246.3699098675234
 20
-18.24498955317193
 30
0.0
 40
150.0
100
AcDbArc
 50
157.604479591131
 51
172.3650595729509
  0
LINE
  5
4FA
330
1F
100
AcDbEntity
  8
0
100
AcDbLine
 10
98.2574789240413
 20
25.53852004016901
 30
0.0
 11
98.88179747295495
 21
27.95931093353332
 31
0.0
  0
LINE
  5
4FB
330
1F
100
AcDbEntity
  8
0
100
AcDbLine
 10
98.2574789240413
 20
25.53852004016901
 30
0.0
 11
101.474587405017
 21
25.99973361791726
 31
0.0
  0
LINE
  5
4FC
330
1F
100
AcDbEntity
  8
0
100
AcDbLine
 10
101.474587405017
 20
25.99973361791726
 30
0.0
 11
98.88179747295495
 21
27.95931093353332
 31
0.0
  0
ARC
  5
4FD
330
1F
100
AcDbEntity
  8
0
100
AcDbCircle
 10
135.9099404832774
 20
-157.5119353094966
 30
0.0
 40
300.0
100
AcDbArc
 50
93.90145948337012
 51
102.8285347982719
  0
ARC
  5
4FE
330
1F
100
AcDbEntity
  8
0
100
AcDbCircle
 10
-10.65330187983829
 20
-10.4532727352614
 30
0.0
 40
200.0
100
AcDbArc
 50
41.37606008378623
 51
48.70991522710539
  0
LINE
  5
4FF
330
1F
100
AcDbEntity
  8
0
100
AcDbLine
 10
112.306415351866
 20
41.99973361791697
 30
0.0
 11
141.4793445413228
 21
41.99973361791637
 31
0.0
  0
ARC
  5
500
330
1F
100
AcDbEntity
  8
0
100
AcDbCircle
 10
131.9202889808734
 20
115.1364210659512
 30
0.0
 40
10.0
100
AcDbArc
 50
1.76425317705197
 51
41.37606008378623
1001
GENIUS_GENODEF_13
1002
{
1000
HIER
1070
     0
1002
}
1002
{
1000
MANEDIT
1070
     0
1002
}
1002
{
1000
NOSEL
1070
     0
1002
}
1002
{
1000
BEHIND
1070
     0
1002
}
1002
{
1000
REACTOR
1002
}
1001
GENIUS_GENOBJ-N-FIL_13
1002
{
1000
OWNER
1000
GEN
1002
}
  0
ARC
  5
501
330
1F
100
AcDbEntity
  8
0
100
AcDbCircle
 10
116.0420547851968
 20
133.8113681145309
 30
0.0
 40
8.0
100
AcDbArc
 50
48.70991522710539
 51
93.90145948337012
1001
GENIUS_GENODEF_13
1002
{
1000
HIER
1070
     0
1002
}
1002
{
1000
MANEDIT
1070
     0
1002
}
1002
{
1000
NOSEL
1070
     0
1002
}
1002
{
1000
BEHIND
1070
     0
1002
}
1002
{
1000
REACTOR
1002
}
1001
GENIUS_GENOBJ-N-FIL_13
1002
{
1000
OWNER
1000
GEN
1002
}
  0
LINE
  5
502
330
1F
100
AcDbEntity
  8
0
100
AcDbLine
 10
69.29970447334652
 20
134.9997336179178
 30
0.0
 11
69.29970447334587
 21
102.9997336179177
 31
0.0
  0
LINE
  5
503
330
1F
100
AcDbEntity
  8
0
100
AcDbLine
 10
66.29970447334656
 20
133.9997336179179
 30
0.0
 11
66.29970447334582
 21
103.9997336179179
 31
0.0
  0
ARC
  5
504
330
1F
100
AcDbEntity
  8
0
100
AcDbCircle
 10
45.80130696259425
 20
84.34965816427149
 30
0.0
 40
30.0
100
AcDbArc
 50
351.708765027938
 51
38.43812969044004
  0
LINE
  5
505
330
1F
100
AcDbEntity
  8
0
100
AcDbLine
 10
67.29970447334583
 20
102.9997336179179
 30
0.0
 11
69.29970447334587
 21
102.9997336179177
 31
0.0
  0
ARC
  5
506
330
1F
100
AcDbEntity
  8
0
100
AcDbCircle
 10
67.29970447334583
 20
103.9997336179179
 30
0.0
 40
1.0
100
AcDbArc
 50
179.9999999999988
 51
269.999999999999
1001
GENIUS_GENODEF_13
1002
{
1000
HIER
1070
     0
1002
}
1002
{
1000
MANEDIT
1070
     0
1002
}
1002
{
1000
NOSEL
1070
     0
1002
}
1002
{
1000
BEHIND
1070
     0
1002
}
1002
{
1000
REACTOR
1002
}
1001
GENIUS_GENOBJ-N-FIL_13
1002
{
1000
OWNER
1000
GEN
1002
}
  0
LINE
  5
507
330
1F
100
AcDbEntity
  8
0
100
AcDbLine
 10
67.29970447334652
 20
134.9997336179179
 30
0.0
 11
69.29970447334652
 21
134.9997336179179
 31
0.0
  0
ARC
  5
508
330
1F
100
AcDbEntity
  8
0
100
AcDbCircle
 10
67.29970447334652
 20
133.9997336179179
 30
0.0
 40
1.0
100
AcDbArc
 50
89.99999999999877
 51
179.9999999999988
1001
GENIUS_GENODEF_13
1002
{
1000
HIER
1070
     0
1002
}
1002
{
1000
MANEDIT
1070
     0
1002
}
1002
{
1000
NOSEL
1070
     0
1002
}
1002
{
1000
BEHIND
1070
     0
1002
}
1002
{
1000
REACTOR
1002
}
1001
GENIUS_GENOBJ-N-FIL_13
1002
{
1000
OWNER
1000
GEN
1002
}
  0
LINE
  5
509
330
1F
100
AcDbEntity
  8
0
100
AcDbLine
 10
311.2997044733532
 20
133.9997336179154
 30
0.0
 11
314.2997044733531
 21
133.9997336179154
 31
0.0
1001
GENIUS_GENODEF_13
1002
{
1000
HIER
1070
     0
1002
}
1002
{
1000
MANEDIT
1070
     0
1002
}
1002
{
1000
NOSEL
1070
     0
1002
}
1002
{
1000
BEHIND
1070
     0
1002
}
1002
{
1000
REACTOR
1002
}
1001
GENIUS_GENOBJ-N-CEN_13
1002
{
1000
OWNER
1000
GEN
1002
}
  0
LINE
  5
50A
330
1F
100
AcDbEntity
  8
0
100
AcDbLine
 10
311.2997044733532
 20
103.9997336179154
 30
0.0
 11
314.2997044733532
 21
103.9997336179154
 31
0.0
1001
GENIUS_GENODEF_13
1002
{
1000
HIER
1070
     0
1002
}
1002
{
1000
MANEDIT
1070
     0
1002
}
1002
{
1000
NOSEL
1070
     0
1002
}
1002
{
1000
BEHIND
1070
     0
1002
}
1002
{
1000
REACTOR
1002
}
1001
GENIUS_GENOBJ-N-CEN_13
1002
{
1000
OWNER
1000
GEN
1002
}
  0
LINE
  5
50B
330
1F
100
AcDbEntity
  8
0
100
AcDbLine
 10
315.7997044733531
 20
132.4997336179154
 30
0.0
 11
315.7997044733531
 21
105.4997336179154
 31
0.0
  0
ARC
  5
50C
330
1F
100
AcDbEntity
  8
0
100
AcDbCircle
 10
314.2997044733531
 20
132.4997336179154
 30
0.0
 40
1.5
100
AcDbArc
 50
0.0
 51
90.0
1001
GENIUS_GENOBJ-N-CEN_13
1002
{
1000
OWNER
1000
GEN
1002
}
1001
GENIUS_GENOBJ-N-FIL_13
1002
{
1000
OWNER
1000
GEN
1002
}
1001
GENIUS_GENODEF_13
1002
{
1000
HIER
1070
     0
1002
}
1002
{
1000
MANEDIT
1070
     0
1002
}
1002
{
1000
NOSEL
1070
     0
1002
}
1002
{
1000
BEHIND
1070
     0
1002
}
1002
{
1000
OTHER
1070
     0
1002
}
1002
{
1000
REACTOR
1002
}
  0
ARC
  5
50D
330
1F
100
AcDbEntity
  8
0
100
AcDbCircle
 10
314.2997044733532
 20
105.4997336179154
 30
0.0
 40
1.5
100
AcDbArc
 50
270.0
 51
0.0
1001
GENIUS_GENOBJ-N-CEN_13
1002
{
1000
OWNER
1000
GEN
1002
}
1001
GENIUS_GENODEF_13
1002
{
1000
HIER
1070
     0
1002
}
1002
{
1000
MANEDIT
1070
     0
1002
}
1002
{
1000
NOSEL
1070
     0
1002
}
1002
{
1000
BEHIND
1070
     0
1002
}
1002
{
1000
OTHER
1070
     0
1002
}
1002
{
1000
REACTOR
1002
}
1001
GENIUS_GENOBJ-N-FIL_13
1002
{
1000
OWNER
1000
GEN
1002
}
  0
ARC
  5
50E
330
1F
100
AcDbEntity
  8
0
100
AcDbCircle
 10
19.86970763777287
 20
62.09229389552338
 30
0.0
 40
160.0
100
AcDbArc
 50
0.9608738011681181
 51
10.72832757741285
1001
GENIUS_GENOBJ-N-FIL_13
1002
{
1000
OWNER
1000
GEN
1002
}
1001
GENIUS_GENODEF_13
1002
{
1000
HIER
1070
     0
1002
}
1002
{
1000
MANEDIT
1070
     0
1002
}
1002
{
1000
NOSEL
1070
     0
1002
}
1002
{
1000
BEHIND
1070
     0
1002
}
1002
{
1000
OTHER
1070
     0
1002
}
1002
{
1000
REACTOR
1002
}
  0
ARC
  5
50F
330
1F
100
AcDbEntity
  8
0
100
AcDbCircle
 10
362.7351770426114
 20
62.41395333887417
 30
0.0
 40
160.0
100
AcDbArc
 50
169.2767429614897
 51
179.0103255754361
1001
GENIUS_GENOBJ-N-FIL_13
1002
{
1000
OWNER
1000
GEN
1002
}
1001
GENIUS_GENODEF_13
1002
{
1000
HIER
1070
     0
1002
}
1002
{
1000
MANEDIT
1070
     0
1002
}
1002
{
1000
NOSEL
1070
     0
1002
}
1002
{
1000
BEHIND
1070
     0
1002
}
1002
{
1000
OTHER
1070
     0
1002
}
1002
{
1000
REACTOR
1002
}
  0
ARC
  5
510
330
1F
100
AcDbEntity
  8
0
100
AcDbCircle
 10
191.2997044733532
 20
49.99999998978307
 30
0.0
 40
50.0
100
AcDbArc
 50
259.0055947429561
 51
280.9944052571075
  0
LINE
  5
511
330
1F
100
AcDbEntity
  8
0
100
AcDbLine
 10
179.6797044733532
 20
41.99973361791551
 30
0.0
 11
179.6797044733532
 21
4.635524901890804
 31
0.0
1001
GENIUS_GENODEF_13
1002
{
1000
HIER
1070
     0
1002
}
1002
{
1000
MANEDIT
1070
     0
1002
}
1002
{
1000
NOSEL
1070
     0
1002
}
1002
{
1000
BEHIND
1070
     0
1002
}
1002
{
1000
REACTOR
1002
}
1001
GENIUS_GENOBJ-N-CEN_13
1002
{
1000
OWNER
1000
GEN
1002
}
  0
LINE
  5
512
330
1F
100
AcDbEntity
  8
0
100
AcDbLine
 10
202.9137191109206
 20
41.99973361791551
 30
0.0
 11
202.9137191109207
 21
4.634519929511412
 31
0.0
1001
GENIUS_GENODEF_13
1002
{
1000
HIER
1070
     0
1002
}
1002
{
1000
MANEDIT
1070
     0
1002
}
1002
{
1000
NOSEL
1070
     0
1002
}
1002
{
1000
BEHIND
1070
     0
1002
}
1002
{
1000
REACTOR
1002
}
1001
GENIUS_GENOBJ-N-CEN_13
1002
{
1000
OWNER
1000
GEN
1002
}
  0
ARC
  5
513
330
1F
100
AcDbEntity
  8
0
100
AcDbCircle
 10
362.6397044733531
 20
51.35973361791538
 30
0.0
 40
160.0
100
AcDbArc
 50
180.0
 51
183.3901585490892
  0
ARC
  5
514
330
1F
100
AcDbEntity
  8
0
100
AcDbCircle
 10
19.9597044733531
 20
51.35973361791506
 30
0.0
 40
160.0
100
AcDbArc
 50
356.6462821636072
 51
0.0
  0
ARC
  5
515
330
1F
100
AcDbEntity
  8
0
100
AcDbCircle
 10
-620.0402955266467
 20
51.35973361791506
 30
0.0
 40
800.0
100
AcDbArc
 50
0.0
 51
0.9608738011681181
  0
LINE
  5
516
330
1F
100
AcDbEntity
  8
0
100
AcDbLine
 10
175.299704473353
 20
126.2597336179156
 30
0.0
 11
175.299704473353
 21
118.9997336179241
 31
0.0
  0
LINE
  5
517
330
1F
100
AcDbEntity
  8
0
100
AcDbLine
 10
207.2997044733531
 20
126.2597336179156
 30
0.0
 11
207.2997044733531
 21
119.2873461138856
 31
0.0
  0
ARC
  5
518
330
1F
100
AcDbEntity
  8
0
100
AcDbCircle
 10
375.2995175831982
 20
119.2731491021288
 30
0.0
 40
200.0
100
AcDbArc
 50
180.0783277908892
 51
186.5984400542233
  0
ARC
  5
519
330
1F
100
AcDbEntity
  8
0
100
AcDbCircle
 10
7.299891363507867
 20
119.5607615980769
 30
0.0
 40
200.0
100
AcDbArc
 50
353.407715651142
 51
359.9216722091116
  0
ELLIPSE
  5
51A
330
1F
100
AcDbEntity
  8
0
100
AcDbEllipse
 10
191.299704473353
 20
126.2597336179156
 30
0.0
 11
-15.99999999999999
 21
-0.0000000000000284
 31
0.0
210
0.0
220
0.0
230
1.0
 40
0.98374999999999
 41
3.141592653589792
 42
4.69988865484116
  0
ARC
  5
51B
330
1F
100
AcDbEntity
  8
0
100
AcDbCircle
 10
198.9137191109207
 20
4.634519929511412
 30
0.0
 40
4.0
100
AcDbArc
 50
279.527563174917
 51
0.0
1001
GENIUS_GENODEF_13
1002
{
1000
HIER
1070
     0
1002
}
1002
{
1000
MANEDIT
1070
     0
1002
}
1002
{
1000
NOSEL
1070
     0
1002
}
1002
{
1000
BEHIND
1070
     0
1002
}
1002
{
1000
OTHER
1070
     0
1002
}
1002
{
1000
REACTOR
1002
}
1001
GENIUS_GENOBJ-N-FIL_13
1002
{
1000
OWNER
1000
GEN
1002
}
  0
ARC
  5
51C
330
1F
100
AcDbEntity
  8
0
100
AcDbCircle
 10
200.0725089974122
 20
4.844292700641346
 30
0.0
 40
4.0
100
AcDbArc
 50
280.9944052571074
 51
354.780861667565
1001
GENIUS_GENODEF_13
1002
{
1000
HIER
1070
     0
1002
}
1002
{
1000
MANEDIT
1070
     0
1002
}
1002
{
1000
NOSEL
1070
     0
1002
}
1002
{
1000
BEHIND
1070
     0
1002
}
1002
{
1000
OTHER
1070
     0
1002
}
1002
{
1000
REACTOR
1002
}
1001
GENIUS_GENOBJ-N-FIL_13
1002
{
1000
OWNER
1000
GEN
1002
}
  0
ARC
  5
51D
330
1F
100
AcDbEntity
  8
0
100
AcDbCircle
 10
182.5268999493444
 20
4.844292700631568
 30
0.0
 40
4.0
100
AcDbArc
 50
185.2191383324358
 51
259.005594742956
1001
GENIUS_GENODEF_13
1002
{
1000
HIER
1070
     0
1002
}
1002
{
1000
MANEDIT
1070
     0
1002
}
1002
{
1000
NOSEL
1070
     0
1002
}
1002
{
1000
BEHIND
1070
     0
1002
}
1002
{
1000
OTHER
1070
     0
1002
}
1002
{
1000
REACTOR
1002
}
1001
GENIUS_GENOBJ-N-FIL_13
1002
{
1000
OWNER
1000
GEN
1002
}
  0
ARC
  5
51E
330
1F
100
AcDbEntity
  8
0
100
AcDbCircle
 10
183.6797044733532
 20
4.635524901890804
 30
0.0
 40
4.0
100
AcDbArc
 50
180.0
 51
260.4648773370353
1001
GENIUS_GENOBJ-N-FIL_13
1002
{
1000
OWNER
1000
GEN
1002
}
1001
GENIUS_GENODEF_13
1002
{
1000
HIER
1070
     0
1002
}
1002
{
1000
MANEDIT
1070
     0
1002
}
1002
{
1000
NOSEL
1070
     0
1002
}
1002
{
1000
BEHIND
1070
     0
1002
}
1002
{
1000
OTHER
1070
     0
1002
}
1002
{
1000
REACTOR
1002
}
  0
LINE
  5
51F
330
1F
100
AcDbEntity
  8
0
100
AcDbLine
 10
27.91970447333602
 20
41.99973361791818
 30
0.0
 11
27.91970447333444
 21
4.63552490189346
 31
0.0
1001
GENIUS_GENODEF_13
1002
{
1000
HIER
1070
     0
1002
}
1002
{
1000
MANEDIT
1070
     0
1002
}
1002
{
1000
NOSEL
1070
     0
1002
}
1002
{
1000
BEHIND
1070
     0
1002
}
1002
{
1000
REACTOR
1002
}
1001
GENIUS_GENOBJ-N-CEN_13
1002
{
1000
OWNER
1000
GEN
1002
}
  0
ARC
  5
520
330
1F
100
AcDbEntity
  8
0
100
AcDbCircle
 10
-269.7002955267145
 20
31.76999998979744
 30
0.0
 40
300.0
100
AcDbArc
 50
354.7808616675605
 51
1.954114023780129
  0
ARC
  5
521
330
1F
100
AcDbEntity
  8
0
100
AcDbCircle
 10
302.2997044733362
 20
31.76999998977379
 30
0.0
 40
300.0
100
AcDbArc
 50
178.0458859762149
 51
185.2191383324329
  0
LINE
  5
522
330
1F
100
AcDbEntity
  8
0
100
AcDbLine
 10
4.685689835768537
 20
41.99973361791909
 30
0.0
 11
4.685689835766996
 21
4.634519929515021
 31
0.0
1001
GENIUS_GENODEF_13
1002
{
1000
HIER
1070
     0
1002
}
1002
{
1000
MANEDIT
1070
     0
1002
}
1002
{
1000
NOSEL
1070
     0
1002
}
1002
{
1000
BEHIND
1070
     0
1002
}
1002
{
1000
REACTOR
1002
}
1001
GENIUS_GENOBJ-N-CEN_13
1002
{
1000
OWNER
1000
GEN
1002
}
  0
ARC
  5
523
330
1F
100
AcDbEntity
  8
0
100
AcDbCircle
 10
16.2997044733363
 20
49.99999998978619
 30
0.0
 40
50.0
100
AcDbArc
 50
259.0055947428901
 51
269.7708162707859
  0
ARC
  5
524
330
1F
100
AcDbEntity
  8
0
100
AcDbCircle
 10
23.91970447333443
 20
4.635524901893615
 30
0.0
 40
4.0
100
AcDbArc
 50
279.5351226629622
 51
359.9999999999976
1001
GENIUS_GENOBJ-N-FIL_13
1002
{
1000
OWNER
1000
GEN
1002
}
1001
GENIUS_GENODEF_13
1002
{
1000
HIER
1070
     0
1002
}
1002
{
1000
MANEDIT
1070
     0
1002
}
1002
{
1000
NOSEL
1070
     0
1002
}
1002
{
1000
BEHIND
1070
     0
1002
}
1002
{
1000
OTHER
1070
     0
1002
}
1002
{
1000
REACTOR
1002
}
  0
ARC
  5
525
330
1F
100
AcDbEntity
  8
0
100
AcDbCircle
 10
25.07250899734306
 20
4.844292700634325
 30
0.0
 40
4.0
100
AcDbArc
 50
280.9944052570415
 51
354.7808616675621
1001
GENIUS_GENODEF_13
1002
{
1000
HIER
1070
     0
1002
}
1002
{
1000
MANEDIT
1070
     0
1002
}
1002
{
1000
NOSEL
1070
     0
1002
}
1002
{
1000
BEHIND
1070
     0
1002
}
1002
{
1000
OTHER
1070
     0
1002
}
1002
{
1000
REACTOR
1002
}
1001
GENIUS_GENOBJ-N-FIL_13
1002
{
1000
OWNER
1000
GEN
1002
}
  0
ARC
  5
526
330
1F
100
AcDbEntity
  8
0
100
AcDbCircle
 10
8.685689835766936
 20
4.634519929514835
 30
0.0
 40
4.0
100
AcDbArc
 50
179.9999999999974
 51
260.4724368250805
1001
GENIUS_GENODEF_13
1002
{
1000
HIER
1070
     0
1002
}
1002
{
1000
MANEDIT
1070
     0
1002
}
1002
{
1000
NOSEL
1070
     0
1002
}
1002
{
1000
BEHIND
1070
     0
1002
}
1002
{
1000
OTHER
1070
     0
1002
}
1002
{
1000
REACTOR
1002
}
1001
GENIUS_GENOBJ-N-FIL_13
1002
{
1000
OWNER
1000
GEN
1002
}
  0
ARC
  5
527
330
1F
100
AcDbEntity
  8
0
100
AcDbCircle
 10
7.526899949275502
 20
4.844292700644826
 30
0.0
 40
4.0
100
AcDbArc
 50
185.2191383324329
 51
259.0055947428903
1001
GENIUS_GENODEF_13
1002
{
1000
HIER
1070
     0
1002
}
1002
{
1000
MANEDIT
1070
     0
1002
}
1002
{
1000
NOSEL
1070
     0
1002
}
1002
{
1000
BEHIND
1070
     0
1002
}
1002
{
1000
OTHER
1070
     0
1002
}
1002
{
1000
REACTOR
1002
}
1001
GENIUS_GENOBJ-N-FIL_13
1002
{
1000
OWNER
1000
GEN
1002
}
  0
LINE
  5
528
330
1F
100
AcDbEntity
  8
0
100
AcDbLine
 10
32.29970447333961
 20
126.259733617918
 30
0.0
 11
32.29970447333948
 21
122.1141288914694
 31
0.0
  0
LINE
  5
529
330
1F
100
AcDbEntity
  8
0
100
AcDbLine
 10
0.2997044733395491
 20
126.2597336179194
 30
0.0
 11
0.2997044733394354
 21
122.1110905414119
 31
0.0
  0
ARC
  5
52A
330
1F
100
AcDbEntity
  8
0
100
AcDbCircle
 10
187.7297013089173
 20
62.09229389551939
 30
0.0
 40
160.0
100
AcDbArc
 50
170.8606769282519
 51
179.0391261988294
1001
GENIUS_GENOBJ-N-FIL_13
1002
{
1000
OWNER
1000
GEN
1002
}
1001
GENIUS_GENODEF_13
1002
{
1000
HIER
1070
     0
1002
}
1002
{
1000
MANEDIT
1070
     0
1002
}
1002
{
1000
NOSEL
1070
     0
1002
}
1002
{
1000
BEHIND
1070
     0
1002
}
1002
{
1000
OTHER
1070
     0
1002
}
1002
{
1000
REACTOR
1002
}
  0
ARC
  5
52B
330
1F
100
AcDbEntity
  8
0
100
AcDbCircle
 10
-155.1357680959213
 20
62.4139533388845
 30
0.0
 40
160.0
100
AcDbArc
 50
0.9896744245614318
 51
9.13383469876814
1001
GENIUS_GENOBJ-N-FIL_13
1002
{
1000
OWNER
1000
GEN
1002
}
1001
GENIUS_GENODEF_13
1002
{
1000
HIER
1070
     0
1002
}
1002
{
1000
MANEDIT
1070
     0
1002
}
1002
{
1000
NOSEL
1070
     0
1002
}
1002
{
1000
BEHIND
1070
     0
1002
}
1002
{
1000
OTHER
1070
     0
1002
}
1002
{
1000
REACTOR
1002
}
  0
ARC
  5
52C
330
1F
100
AcDbEntity
  8
0
100
AcDbCircle
 10
2029.746650103821
 20
52.9999999896991
 30
0.0
 40
2000.0
100
AcDbArc
 50
179.2244433325129
 51
179.9999999999974
  0
ARC
  5
52D
330
1F
100
AcDbEntity
  8
0
100
AcDbCircle
 10
827.6397044733366
 20
51.35973361788451
 30
0.0
 40
800.0
100
AcDbArc
 50
179.0391261988294
 51
179.9999999999974
  0
ARC
  5
52E
330
1F
100
AcDbEntity
  8
0
100
AcDbCircle
 10
189.7466501038208
 20
52.999999989779
 30
0.0
 40
160.0
100
AcDbArc
 50
179.9999999999974
 51
183.9422901289535
  0
ARC
  5
52F
330
1F
100
AcDbEntity
  8
0
100
AcDbCircle
 10
-1997.147241157197
 20
52.99999998987019
 30
0.0
 40
2000.0
100
AcDbArc
 50
359.9999999999976
 51
0.7857099850721383
  0
ARC
  5
530
330
1F
100
AcDbEntity
  8
0
100
AcDbCircle
 10
-795.0402955266638
 20
51.35973361795318
 30
0.0
 40
800.0
100
AcDbArc
 50
359.9999999999976
 51
0.9896744245614318
  0
ARC
  5
531
330
1F
100
AcDbEntity
  8
0
100
AcDbCircle
 10
-157.1472411571972
 20
52.999999989794
 30
0.0
 40
160.0
100
AcDbArc
 50
356.0577098710421
 51
359.9999999999976
  0
ARC
  5
532
330
1F
100
AcDbEntity
  8
0
100
AcDbCircle
 10
-155.0402955266634
 20
51.35973361792569
 30
0.0
 40
160.0
100
AcDbArc
 50
356.6098414509085
 51
359.9999999999976
  0
ARC
  5
533
330
1F
100
AcDbEntity
  8
0
100
AcDbCircle
 10
-167.7001086365057
 20
119.2731491021395
 30
0.0
 40
200.0
100
AcDbArc
 50
350.8606769282518
 51
358.9846351842377
  0
ARC
  5
534
330
1F
100
AcDbEntity
  8
0
100
AcDbCircle
 10
200.2995175831845
 20
119.5607615980724
 30
0.0
 40
200.0
100
AcDbArc
 50
181.1050180302027
 51
189.133834698768
  0
ELLIPSE
  5
535
330
1F
100
AcDbEntity
  8
0
100
AcDbEllipse
 10
16.29970447333959
 20
126.2597336179186
 30
0.0
 11
15.99999999999999
 21
-0.0000000000006934
 31
0.0
210
0.0
220
0.0
230
-1.0
 40
0.98374999999999
 41
3.141592653589792
 42
4.699888654826943
  0
CIRCLE
  5
536
330
1F
100
AcDbEntity
  8
0
100
AcDbCircle
 10
16.3000000360667
 20
118.9997336179186
 30
0.0
 40
14.0
  0
LINE
  5
537
330
1F
100
AcDbEntity
  8
0
100
AcDbLine
 10
19.3000000360667
 20
98.29973361791871
 30
0.0
 11
17.3000000360667
 21
98.29973361791871
 31
0.0
  0
LINE
  5
538
330
1F
100
AcDbEntity
  8
0
100
AcDbLine
 10
19.3000000360667
 20
102.0997336179186
 30
0.0
 11
13.3000000360667
 21
102.0997336179186
 31
0.0
  0
LINE
  5
539
330
1F
100
AcDbEntity
  8
0
100
AcDbLine
 10
19.3000000360667
 20
100.2997336179186
 30
0.0
 11
16.8000000360667
 21
100.2997336179187
 31
0.0
  0
CIRCLE
  5
53A
330
1F
100
AcDbEntity
  8
0
100
AcDbCircle
 10
16.3000000360667
 20
118.9997336179186
 30
0.0
 40
15.83
  0
CIRCLE
  5
53B
330
1F
100
AcDbEntity
  8
0
100
AcDbCircle
 10
16.3000000360667
 20
118.9997336179186
 30
0.0
 40
16.3
  0
LINE
  5
53C
330
1F
100
AcDbEntity
  8
0
100
AcDbLine
 10
10.8000000360667
 20
102.9672665588537
 30
0.0
 11
10.8000000360667
 21
100.7997336179186
 31
0.0
1001
GENIUS_GENODEF_13
1002
{
1000
HIER
1070
     0
1002
}
1002
{
1000
MANEDIT
1070
     0
1002
}
1002
{
1000
NOSEL
1070
     0
1002
}
1002
{
1000
BEHIND
1070
     0
1002
}
1002
{
1000
REACTOR
1002
}
1001
GENIUS_GENOBJ-N-CEN_13
1002
{
1000
OWNER
1000
GEN
1002
}
  0
ARC
  5
53D
330
1F
100
AcDbEntity
  8
0
100
AcDbCircle
 10
13.3000000360667
 20
100.7997336179186
 30
0.0
 40
2.5
100
AcDbArc
 50
180.0
 51
270.0
1001
GENIUS_GENODEF_13
1002
{
1000
HIER
1070
     0
1002
}
1002
{
1000
MANEDIT
1070
     0
1002
}
1002
{
1000
NOSEL
1070
     0
1002
}
1002
{
1000
BEHIND
1070
     0
1002
}
1002
{
1000
REACTOR
1002
}
1001
GENIUS_GENOBJ-N-FIL_13
1002
{
1000
OWNER
1000
GEN
1002
}
  0
LINE
  5
53E
330
1F
100
AcDbEntity
  8
0
100
AcDbLine
 10
15.8000000360667
 20
100.2997336179187
 30
0.0
 11
13.3000000360667
 21
100.2997336179187
 31
0.0
  0
ARC
  5
53F
330
1F
100
AcDbEntity
  8
0
100
AcDbCircle
 10
15.3000000360667
 20
98.79973361791869
 30
0.0
 40
0.5
100
AcDbArc
 50
270.0
 51
0.0
1001
GENIUS_GENODEF_13
1002
{
1000
HIER
1070
     0
1002
}
1002
{
1000
MANEDIT
1070
     0
1002
}
1002
{
1000
NOSEL
1070
     0
1002
}
1002
{
1000
BEHIND
1070
     0
1002
}
1002
{
1000
REACTOR
1002
}
1001
GENIUS_GENOBJ-N-FIL_13
1002
{
1000
OWNER
1000
GEN
1002
}
  0
LINE
  5
540
330
1F
100
AcDbEntity
  8
0
100
AcDbLine
 10
15.3000000360667
 20
98.29973361791871
 30
0.0
 11
13.3000000360667
 21
98.29973361791871
 31
0.0
  0
ARC
  5
541
330
1F
100
AcDbEntity
  8
0
100
AcDbCircle
 10
13.3000000360667
 20
101.5997336179186
 30
0.0
 40
0.5
100
AcDbArc
 50
90.0
 51
180.0
1001
GENIUS_GENODEF_13
1002
{
1000
HIER
1070
     0
1002
}
1002
{
1000
MANEDIT
1070
     0
1002
}
1002
{
1000
NOSEL
1070
     0
1002
}
1002
{
1000
BEHIND
1070
     0
1002
}
1002
{
1000
REACTOR
1002
}
1001
GENIUS_GENOBJ-N-FIL_13
1002
{
1000
OWNER
1000
GEN
1002
}
  0
ARC
  5
542
330
1F
100
AcDbEntity
  8
0
100
AcDbCircle
 10
13.3000000360667
 20
100.7997336179187
 30
0.0
 40
0.5
100
AcDbArc
 50
180.0
 51
270.0
1001
GENIUS_GENODEF_13
1002
{
1000
HIER
1070
     0
1002
}
1002
{
1000
MANEDIT
1070
     0
1002
}
1002
{
1000
NOSEL
1070
     0
1002
}
1002
{
1000
BEHIND
1070
     0
1002
}
1002
{
1000
REACTOR
1002
}
1001
GENIUS_GENOBJ-N-FIL_13
1002
{
1000
OWNER
1000
GEN
1002
}
  0
LINE
  5
543
330
1F
100
AcDbEntity
  8
0
100
AcDbLine
 10
12.8000000360667
 20
101.5997336179186
 30
0.0
 11
12.8000000360667
 21
100.7997336179187
 31
0.0
1001
GENIUS_GENODEF_13
1002
{
1000
HIER
1070
     0
1002
}
1002
{
1000
MANEDIT
1070
     0
1002
}
1002
{
1000
NOSEL
1070
     0
1002
}
1002
{
1000
BEHIND
1070
     0
1002
}
1002
{
1000
REACTOR
1002
}
1001
GENIUS_GENOBJ-N-CEN_13
1002
{
1000
OWNER
1000
GEN
1002
}
  0
ARC
  5
544
330
1F
100
AcDbEntity
  8
0
100
AcDbCircle
 10
17.3000000360667
 20
98.79973361791869
 30
0.0
 40
0.5
100
AcDbArc
 50
180.0
 51
270.0
1001
GENIUS_GENODEF_13
1002
{
1000
HIER
1070
     0
1002
}
1002
{
1000
MANEDIT
1070
     0
1002
}
1002
{
1000
NOSEL
1070
     0
1002
}
1002
{
1000
BEHIND
1070
     0
1002
}
1002
{
1000
REACTOR
1002
}
1001
GENIUS_GENOBJ-N-FIL_13
1002
{
1000
OWNER
1000
GEN
1002
}
  0
LINE
  5
545
330
1F
100
AcDbEntity
  8
0
100
AcDbLine
 10
15.8000000360667
 20
100.2997336179187
 30
0.0
 11
15.8000000360667
 21
98.79973361791869
 31
0.0
1001
GENIUS_GENODEF_13
1002
{
1000
HIER
1070
     0
1002
}
1002
{
1000
MANEDIT
1070
     0
1002
}
1002
{
1000
NOSEL
1070
     0
1002
}
1002
{
1000
BEHIND
1070
     0
1002
}
1002
{
1000
REACTOR
1002
}
1001
GENIUS_GENOBJ-N-CEN_13
1002
{
1000
OWNER
1000
GEN
1002
}
  0
LINE
  5
546
330
1F
100
AcDbEntity
  8
0
100
AcDbLine
 10
16.8000000360667
 20
100.2997336179187
 30
0.0
 11
16.8000000360667
 21
98.79973361791869
 31
0.0
1001
GENIUS_GENODEF_13
1002
{
1000
HIER
1070
     0
1002
}
1002
{
1000
MANEDIT
1070
     0
1002
}
1002
{
1000
NOSEL
1070
     0
1002
}
1002
{
1000
BEHIND
1070
     0
1002
}
1002
{
1000
REACTOR
1002
}
1001
GENIUS_GENOBJ-N-CEN_13
1002
{
1000
OWNER
1000
GEN
1002
}
  0
ARC
  5
547
330
1F
100
AcDbEntity
  8
0
100
AcDbCircle
 10
9.800000036066702
 20
102.9672665588537
 30
0.0
 40
1.0
100
AcDbArc
 50
0.0
 51
67.93102253616918
1001
GENIUS_GENODEF_13
1002
{
1000
HIER
1070
     0
1002
}
1002
{
1000
MANEDIT
1070
     0
1002
}
1002
{
1000
NOSEL
1070
     0
1002
}
1002
{
1000
BEHIND
1070
     0
1002
}
1002
{
1000
REACTOR
1002
}
1001
GENIUS_GENOBJ-N-FIL_13
1002
{
1000
OWNER
1000
GEN
1002
}
  0
LINE
  5
548
330
1F
100
AcDbEntity
  8
0
100
AcDbLine
 10
21.80000003606671
 20
102.9672665588537
 30
0.0
 11
21.80000003606671
 21
100.7997336179187
 31
0.0
1001
GENIUS_GENODEF_13
1002
{
1000
HIER
1070
     0
1002
}
1002
{
1000
MANEDIT
1070
     0
1002
}
1002
{
1000
NOSEL
1070
     0
1002
}
1002
{
1000
BEHIND
1070
     0
1002
}
1002
{
1000
REACTOR
1002
}
1001
GENIUS_GENOBJ-N-CEN_13
1002
{
1000
OWNER
1000
GEN
1002
}
  0
ARC
  5
549
330
1F
100
AcDbEntity
  8
0
100
AcDbCircle
 10
19.3000000360667
 20
100.7997336179187
 30
0.0
 40
2.5
100
AcDbArc
 50
270.0
 51
0.0
1001
GENIUS_GENODEF_13
1002
{
1000
HIER
1070
     0
1002
}
1002
{
1000
MANEDIT
1070
     0
1002
}
1002
{
1000
NOSEL
1070
     0
1002
}
1002
{
1000
BEHIND
1070
     0
1002
}
1002
{
1000
REACTOR
1002
}
1001
GENIUS_GENOBJ-N-FIL_13
1002
{
1000
OWNER
1000
GEN
1002
}
  0
ARC
  5
54A
330
1F
100
AcDbEntity
  8
0
100
AcDbCircle
 10
19.3000000360667
 20
101.5997336179186
 30
0.0
 40
0.5
100
AcDbArc
 50
0.0
 51
90.0
1001
GENIUS_GENODEF_13
1002
{
1000
HIER
1070
     0
1002
}
1002
{
1000
MANEDIT
1070
     0
1002
}
1002
{
1000
NOSEL
1070
     0
1002
}
1002
{
1000
BEHIND
1070
     0
1002
}
1002
{
1000
REACTOR
1002
}
1001
GENIUS_GENOBJ-N-FIL_13
1002
{
1000
OWNER
1000
GEN
1002
}
  0
ARC
  5
54B
330
1F
100
AcDbEntity
  8
0
100
AcDbCircle
 10
19.3000000360667
 20
100.7997336179186
 30
0.0
 40
0.5
100
AcDbArc
 50
270.0
 51
0.0
1001
GENIUS_GENODEF_13
1002
{
1000
HIER
1070
     0
1002
}
1002
{
1000
MANEDIT
1070
     0
1002
}
1002
{
1000
NOSEL
1070
     0
1002
}
1002
{
1000
BEHIND
1070
     0
1002
}
1002
{
1000
REACTOR
1002
}
1001
GENIUS_GENOBJ-N-FIL_13
1002
{
1000
OWNER
1000
GEN
1002
}
  0
LINE
  5
54C
330
1F
100
AcDbEntity
  8
0
100
AcDbLine
 10
19.8000000360667
 20
101.5997336179186
 30
0.0
 11
19.8000000360667
 21
100.7997336179186
 31
0.0
1001
GENIUS_GENODEF_13
1002
{
1000
HIER
1070
     0
1002
}
1002
{
1000
MANEDIT
1070
     0
1002
}
1002
{
1000
NOSEL
1070
     0
1002
}
1002
{
1000
BEHIND
1070
     0
1002
}
1002
{
1000
REACTOR
1002
}
1001
GENIUS_GENOBJ-N-CEN_13
1002
{
1000
OWNER
1000
GEN
1002
}
  0
ARC
  5
54D
330
1F
100
AcDbEntity
  8
0
100
AcDbCircle
 10
22.80000003606671
 20
102.9672665588537
 30
0.0
 40
1.0
100
AcDbArc
 50
112.0689774638317
 51
180.0
1001
GENIUS_GENODEF_13
1002
{
1000
HIER
1070
     0
1002
}
1002
{
1000
MANEDIT
1070
     0
1002
}
1002
{
1000
NOSEL
1070
     0
1002
}
1002
{
1000
BEHIND
1070
     0
1002
}
1002
{
1000
REACTOR
1002
}
1001
GENIUS_GENOBJ-N-FIL_13
1002
{
1000
OWNER
1000
GEN
1002
}
  0
LINE
  5
54E
330
1F
100
AcDbEntity
  8
0
100
AcDbLine
 10
59.79970447334622
 20
133.1500794912162
 30
0.0
 11
59.79970447334622
 21
104.8493877446197
 31
0.0
  0
LINE
  5
54F
330
1F
100
AcDbEntity
  8
0
100
AcDbLine
 10
66.29970447334618
 20
134.6074865566415
 30
0.0
 11
66.29970447334618
 21
103.3919806791945
 31
0.0
  0
ARC
  5
550
330
1F
100
AcDbEntity
  8
0
100
AcDbCircle
 10
62.69970447334618
 20
98.499733617918
 30
0.0
 40
0.2
100
AcDbArc
 50
180.0
 51
270.0
1001
GENIUS_GENODEF_13
1002
{
1000
HIER
1070
     0
1002
}
1002
{
1000
MANEDIT
1070
     0
1002
}
1002
{
1000
NOSEL
1070
     0
1002
}
1002
{
1000
BEHIND
1070
     0
1002
}
1002
{
1000
REACTOR
1002
}
1001
GENIUS_GENOBJ-N-FIL_13
1002
{
1000
OWNER
1000
GEN
1002
}
  0
ARC
  5
551
330
1F
100
AcDbEntity
  8
0
100
AcDbCircle
 10
61.79970447334618
 20
104.8493877446197
 30
0.0
 40
2.0
100
AcDbArc
 50
180.0
 51
259.9999999999998
1001
GENIUS_GENODEF_13
1002
{
1000
HIER
1070
     0
1002
}
1002
{
1000
MANEDIT
1070
     0
1002
}
1002
{
1000
NOSEL
1070
     0
1002
}
1002
{
1000
BEHIND
1070
     0
1002
}
1002
{
1000
REACTOR
1002
}
1001
GENIUS_GENOBJ-N-FIL_13
1002
{
1000
OWNER
1000
GEN
1002
}
  0
LINE
  5
552
330
1F
100
AcDbEntity
  8
0
100
AcDbLine
 10
62.44761002004612
 20
102.7042912920143
 30
0.0
 11
61.4524081180124
 21
102.8797722385953
 31
0.0
  0
ARC
  5
553
330
1F
100
AcDbEntity
  8
0
100
AcDbCircle
 10
62.49970447334624
 20
102.999733617918
 30
0.0
 40
0.3
100
AcDbArc
 50
260.0000000000014
 51
270.0
  0
LINE
  5
554
330
1F
100
AcDbEntity
  8
0
100
AcDbLine
 10
62.49970447334624
 20
102.699733617918
 30
0.0
 11
62.49970447334624
 21
98.499733617918
 31
0.0
  0
ARC
  5
555
330
1F
100
AcDbEntity
  8
0
100
AcDbCircle
 10
64.99970447334624
 20
102.5655205236326
 30
0.0
 40
0.5
100
AcDbArc
 50
91.49999999999948
 51
180.0
1001
GENIUS_GENODEF_13
1002
{
1000
HIER
1070
     0
1002
}
1002
{
1000
MANEDIT
1070
     0
1002
}
1002
{
1000
NOSEL
1070
     0
1002
}
1002
{
1000
BEHIND
1070
     0
1002
}
1002
{
1000
REACTOR
1002
}
1001
GENIUS_GENOBJ-N-FIL_13
1002
{
1000
OWNER
1000
GEN
1002
}
  0
ARC
  5
556
330
1F
100
AcDbEntity
  8
0
100
AcDbCircle
 10
64.29970447334618
 20
98.499733617918
 30
0.0
 40
0.2
100
AcDbArc
 50
270.0
 51
0.0
1001
GENIUS_GENODEF_13
1002
{
1000
HIER
1070
     0
1002
}
1002
{
1000
MANEDIT
1070
     0
1002
}
1002
{
1000
NOSEL
1070
     0
1002
}
1002
{
1000
BEHIND
1070
     0
1002
}
1002
{
1000
REACTOR
1002
}
1001
GENIUS_GENOBJ-N-FIL_13
1002
{
1000
OWNER
1000
GEN
1002
}
  0
LINE
  5
557
330
1F
100
AcDbEntity
  8
0
100
AcDbLine
 10
64.29970447334618
 20
98.299733617918
 30
0.0
 11
62.69970447334618
 21
98.299733617918
 31
0.0
  0
LINE
  5
558
330
1F
100
AcDbEntity
  8
0
100
AcDbLine
 10
64.49970447334624
 20
103.8939987587996
 30
0.0
 11
64.49970447334624
 21
98.499733617918
 31
0.0
  0
ARC
  5
559
330
1F
100
AcDbEntity
  8
0
100
AcDbCircle
 10
65.99970447334624
 20
103.3919806791945
 30
0.0
 40
0.3
100
AcDbArc
 50
271.4999999999986
 51
0.0
1001
GENIUS_GENODEF_13
1002
{
1000
HIER
1070
     0
1002
}
1002
{
1000
MANEDIT
1070
     0
1002
}
1002
{
1000
NOSEL
1070
     0
1002
}
1002
{
1000
BEHIND
1070
     0
1002
}
1002
{
1000
REACTOR
1002
}
1001
GENIUS_GENOBJ-N-FIL_13
1002
{
1000
OWNER
1000
GEN
1002
}
  0
LINE
  5
55A
330
1F
100
AcDbEntity
  8
0
100
AcDbLine
 10
66.00755755783861
 20
103.0920834817018
 30
0.0
 11
64.98661599919228
 21
103.0653491861204
 31
0.0
  0
ARC
  5
55B
330
1F
100
AcDbEntity
  8
0
100
AcDbCircle
 10
62.49970447334624
 20
134.999733617918
 30
0.0
 40
0.3
100
AcDbArc
 50
0.0000000000162844
 51
99.99999999999857
  0
ARC
  5
55C
330
1F
100
AcDbEntity
  8
0
100
AcDbCircle
 10
61.79970447334618
 20
133.1500794912162
 30
0.0
 40
2.0
100
AcDbArc
 50
100.0000000000001
 51
180.0
1001
GENIUS_GENODEF_13
1002
{
1000
HIER
1070
     0
1002
}
1002
{
1000
MANEDIT
1070
     0
1002
}
1002
{
1000
NOSEL
1070
     0
1002
}
1002
{
1000
BEHIND
1070
     0
1002
}
1002
{
1000
REACTOR
1002
}
1001
GENIUS_GENOBJ-N-FIL_13
1002
{
1000
OWNER
1000
GEN
1002
}
  0
LINE
  5
55D
330
1F
100
AcDbEntity
  8
0
100
AcDbLine
 10
62.44761002004612
 20
135.2951759438216
 30
0.0
 11
61.4524081180124
 21
135.1196949972407
 31
0.0
  0
ARC
  5
55E
330
1F
100
AcDbEntity
  8
0
100
AcDbCircle
 10
65.99970447334624
 20
134.6074865566415
 30
0.0
 40
0.3
100
AcDbArc
 50
0.0
 51
88.49999999999971
1001
GENIUS_GENODEF_13
1002
{
1000
HIER
1070
     0
1002
}
1002
{
1000
MANEDIT
1070
     0
1002
}
1002
{
1000
NOSEL
1070
     0
1002
}
1002
{
1000
BEHIND
1070
     0
1002
}
1002
{
1000
REACTOR
1002
}
1001
GENIUS_GENOBJ-N-FIL_13
1002
{
1000
OWNER
1000
GEN
1002
}
  0
LINE
  5
55F
330
1F
100
AcDbEntity
  8
0
100
AcDbLine
 10
62.79970447334617
 20
134.9913843434101
 30
0.0
 11
62.79970447334617
 21
134.999733617918
 31
0.0
  0
LINE
  5
560
330
1F
100
AcDbEntity
  8
0
100
AcDbLine
 10
62.79970447334617
 20
134.9913843434102
 30
0.0
 11
66.00755755783861
 21
134.9073837541342
 31
0.0
1001
GENIUS_GENODEF_13
1002
{
1000
HIER
1070
     0
1002
}
1002
{
1000
MANEDIT
1070
     0
1002
}
1002
{
1000
NOSEL
1070
     0
1002
}
1002
{
1000
BEHIND
1070
     0
1002
}
1002
{
1000
REACTOR
1002
}
1001
GENIUS_GENOBJ-N-CEN_13
1002
{
1000
OWNER
1000
GEN
1002
}
  0
LINE
  5
561
330
1F
100
AcDbEntity
  8
0
100
AcDbLine
 10
62.79970447334617
 20
134.9997336179181
 30
0.0
 11
62.79970447334617
 21
102.999733617918
 31
0.0
  0
ARC
  5
562
330
1F
100
AcDbEntity
  8
0
100
AcDbCircle
 10
62.49970447334624
 20
102.999733617918
 30
0.0
 40
0.3
100
AcDbArc
 50
260.0
 51
0.0
1001
GENIUS_GENODEF_13
1002
{
1000
HIER
1070
     0
1002
}
1002
{
1000
MANEDIT
1070
     0
1002
}
1002
{
1000
NOSEL
1070
     0
1002
}
1002
{
1000
BEHIND
1070
     0
1002
}
1002
{
1000
OTHER
1070
     0
1002
}
1002
{
1000
REACTOR
1002
}
1001
GENIUS_GENOBJ-N-FIL_13
1002
{
1000
OWNER
1000
GEN
1002
}
  0
LINE
  5
563
330
1F
100
AcDbEntity
  8
0
100
AcDbLine
 10
9.299704473188226
 20
94.99973361791893
 30
0.0
 11
9.299704473218923
 21
73.99973361791879
 31
0.0
1001
GENIUS_GENOBJ-N-CEN_13
1002
{
1000
OWNER
1000
GEN
1002
}
1001
GENIUS_GENODEF_13
1002
{
1000
HIER
1070
     0
1002
}
1002
{
1000
MANEDIT
1070
     0
1002
}
1002
{
1000
NOSEL
1070
     0
1002
}
1002
{
1000
BEHIND
1070
     0
1002
}
1002
{
1000
OTHER
1070
     0
1002
}
1002
{
1000
REACTOR
1002
}
  0
LINE
  5
564
330
1F
100
AcDbEntity
  8
0
100
AcDbLine
 10
23.29970447318817
 20
94.99973361791829
 30
0.0
 11
23.29970447321892
 21
73.99973361791828
 31
0.0
1001
GENIUS_GENOBJ-N-CEN_13
1002
{
1000
OWNER
1000
GEN
1002
}
1001
GENIUS_GENODEF_13
1002
{
1000
HIER
1070
     0
1002
}
1002
{
1000
MANEDIT
1070
     0
1002
}
1002
{
1000
NOSEL
1070
     0
1002
}
1002
{
1000
BEHIND
1070
     0
1002
}
1002
{
1000
OTHER
1070
     0
1002
}
1002
{
1000
REACTOR
1002
}
  0
LINE
  5
565
330
1F
100
AcDbEntity
  8
0
100
AcDbLine
 10
9.299704473188226
 20
94.99973361791893
 30
0.0
 11
23.29970447318817
 21
94.99973361791829
 31
0.0
1001
GENIUS_GENODEF_13
1002
{
1000
HIER
1070
     0
1002
}
1002
{
1000
MANEDIT
1070
     0
1002
}
1002
{
1000
NOSEL
1070
     0
1002
}
1002
{
1000
BEHIND
1070
     0
1002
}
1002
{
1000
OTHER
1070
     0
1002
}
1002
{
1000
REACTOR
1002
}
1001
GENIUS_GENOBJ-N-CEN_13
1002
{
1000
OWNER
1000
GEN
1002
}
  0
LINE
  5
566
330
1F
100
AcDbEntity
  8
0
100
AcDbLine
 10
9.299704473218923
 20
73.99973361791879
 30
0.0
 11
23.29970447321892
 21
73.99973361791841
 31
0.0
1001
GENIUS_GENODEF_13
1002
{
1000
HIER
1070
     0
1002
}
1002
{
1000
MANEDIT
1070
     0
1002
}
1002
{
1000
NOSEL
1070
     0
1002
}
1002
{
1000
BEHIND
1070
     0
1002
}
1002
{
1000
OTHER
1070
     0
1002
}
1002
{
1000
REACTOR
1002
}
1001
GENIUS_GENOBJ-N-CEN_13
1002
{
1000
OWNER
1000
GEN
1002
}
  0
ARC
  5
567
330
1F
100
AcDbEntity
  8
0
100
AcDbCircle
 10
345.9615635134152
 20
-386.5799141990407
 30
0.0
 40
500.0
100
AcDbArc
 50
94.31980799999776
 51
97.74590199999844
  0
ARC
  5
568
330
1F
100
AcDbEntity
  8
0
100
AcDbCircle
 10
280.9301915134155
 20
91.51759680095928
 30
0.0
 40
17.5
100
AcDbArc
 50
97.74587099999763
 51
196.9050599999999
  0
ARC
  5
569
330
1F
100
AcDbEntity
  8
0
100
AcDbCircle
 10
551.2228165134156
 20
173.6646538009591
 30
0.0
 40
300.0
100
AcDbArc
 50
196.9050299999996
 51
205.6613170000003
  0
ARC
  5
56A
330
1F
100
AcDbEntity
  8
0
100
AcDbCircle
 10
145.6065365134154
 20
-21.20821819904055
 30
0.0
 40
150.0
100
AcDbArc
 50
16.43046599999989
 51
25.66131700000028
  0
ARC
  5
56B
330
1F
100
AcDbEntity
  8
0
100
AcDbCircle
 10
277.9711155134155
 20
17.82533580095935
 30
0.0
 40
12.0
100
AcDbArc
 50
276.2335025078514
 51
16.43051200000074
  0
ARC
  5
56C
330
1F
100
AcDbEntity
  8
0
100
AcDbCircle
 10
31.63784543330872
 20
-386.5799141990478
 30
0.0
 40
500.0
100
AcDbArc
 50
82.25409800000418
 51
85.6801920000049
  0
ARC
  5
56D
330
1F
100
AcDbEntity
  8
0
100
AcDbCircle
 10
96.66921743328671
 20
91.51759680095516
 30
0.0
 40
17.5
100
AcDbArc
 50
343.0949400000027
 51
82.25412900000504
  0
ARC
  5
56E
330
1F
100
AcDbEntity
  8
0
100
AcDbCircle
 10
-173.6234075667171
 20
173.6646538009428
 30
0.0
 40
300.0
100
AcDbArc
 50
334.338683000002
 51
343.094970000003
  0
ARC
  5
56F
330
1F
100
AcDbEntity
  8
0
100
AcDbCircle
 10
231.9928724332919
 20
-21.20821819903857
 30
0.0
 40
150.0
100
AcDbArc
 50
154.338683000002
 51
163.5695340000026
  0
ARC
  5
570
330
1F
100
AcDbEntity
  8
0
100
AcDbCircle
 10
99.62829343329008
 20
17.82533580095529
 30
0.0
 40
12.0
100
AcDbArc
 50
163.5694880000018
 51
263.7664974921038
  0
LINE
  5
571
330
1F
100
AcDbEntity
  8
0
100
AcDbLine
 10
282.0294023345247
 20
1.85430373544524
 30
0.0
 11
266.0411122632737
 21
0.5767994993661178
 31
0.0
  0
ARC
  5
572
330
1F
100
AcDbEntity
  8
0
100
AcDbCircle
 10
263.8905989068497
 20
27.49102050432633
 30
0.0
 40
27.0
100
AcDbArc
 50
183.3682057335624
 51
274.5683700071351
1001
GENIUS_GENOBJ-N-FIL_13
1002
{
1000
OWNER
1000
GEN
1002
}
1001
GENIUS_GENODEF_13
1002
{
1000
HIER
1070
     0
1002
}
1002
{
1000
MANEDIT
1070
     0
1002
}
1002
{
1000
NOSEL
1070
     0
1002
}
1002
{
1000
BEHIND
1070
     0
1002
}
1002
{
1000
OTHER
1070
     0
1002
}
1002
{
1000
REACTOR
1002
}
  0
ARC
  5
573
330
1F
100
AcDbEntity
  8
0
100
AcDbCircle
 10
97.79970447334449
 20
31.77132978162831
 30
0.0
 40
30.0
100
AcDbArc
 50
169.2309041045257
 51
265.7376604497525
  0
ARC
  5
574
330
1F
100
AcDbEntity
  8
0
100
AcDbCircle
 10
113.7088100398478
 20
27.49102050432782
 30
0.0
 40
27.0
100
AcDbArc
 50
265.4316299928635
 51
356.6317942664364
1001
GENIUS_GENOBJ-N-FIL_13
1002
{
1000
OWNER
1000
GEN
1002
}
1001
GENIUS_GENODEF_13
1002
{
1000
HIER
1070
     0
1002
}
1002
{
1000
MANEDIT
1070
     0
1002
}
1002
{
1000
NOSEL
1070
     0
1002
}
1002
{
1000
BEHIND
1070
     0
1002
}
1002
{
1000
OTHER
1070
     0
1002
}
1002
{
1000
REACTOR
1002
}
  0
ARC
  5
575
330
1F
100
AcDbEntity
  8
0
100
AcDbCircle
 10
1002.639704473353
 20
51.35973361791538
 30
0.0
 40
800.0
100
AcDbArc
 50
179.0103255754361
 51
180.0
  0
LINE
  5
576
330
1F
100
AcDbEntity
  8
0
100
AcDbLine
 10
69.29970447334618
 20
120.499733617918
 30
0.0
 11
132.2997044733462
 21
120.499733617918
 31
0.0
1001
GENIUS_GENODEF_13
1002
{
1000
HIER
1070
     0
1002
}
1002
{
1000
MANEDIT
1070
     0
1002
}
1002
{
1000
NOSEL
1070
     0
1002
}
1002
{
1000
BEHIND
1070
     0
1002
}
1002
{
1000
OTHER
1070
     0
1002
}
1002
{
1000
REACTOR
1002
}
1001
GENIUS_GENOBJ-N-CEN_13
1002
{
1000
OWNER
1000
GEN
1002
}
  0
LINE
  5
577
330
1F
100
AcDbEntity
  8
0
100
AcDbLine
 10
69.29970447334618
 20
117.499733617918
 30
0.0
 11
134.2997044733462
 21
117.499733617918
 31
0.0
1001
GENIUS_GENODEF_13
1002
{
1000
HIER
1070
     0
1002
}
1002
{
1000
MANEDIT
1070
     0
1002
}
1002
{
1000
NOSEL
1070
     0
1002
}
1002
{
1000
BEHIND
1070
     0
1002
}
1002
{
1000
OTHER
1070
     0
1002
}
1002
{
1000
REACTOR
1002
}
1001
GENIUS_GENOBJ-N-CEN_13
1002
{
1000
OWNER
1000
GEN
1002
}
  0
LINE
  5
578
330
1F
100
AcDbEntity
  8
0
100
AcDbLine
 10
184.2369218220655
 20
110.6997336179155
 30
0.0
 11
198.3624871246358
 21
110.6997336179155
 31
0.0
1001
GENIUS_GENODEF_13
1002
{
1000
HIER
1070
     0
1002
}
1002
{
1000
MANEDIT
1070
     0
1002
}
1002
{
1000
NOSEL
1070
     0
1002
}
1002
{
1000
BEHIND
1070
     0
1002
}
1002
{
1000
OTHER
1070
     0
1002
}
1002
{
1000
REACTOR
1002
}
1001
GENIUS_GENOBJ-N-CEN_13
1002
{
1000
OWNER
1000
GEN
1002
}
  0
LINE
  5
579
330
1F
100
AcDbEntity
  8
0
100
AcDbLine
 10
185.2961009265435
 20
97.2997336179155
 30
0.0
 11
197.3033080201585
 21
97.2997336179155
 31
0.0
1001
GENIUS_GENODEF_13
1002
{
1000
HIER
1070
     0
1002
}
1002
{
1000
MANEDIT
1070
     0
1002
}
1002
{
1000
NOSEL
1070
     0
1002
}
1002
{
1000
BEHIND
1070
     0
1002
}
1002
{
1000
OTHER
1070
     0
1002
}
1002
{
1000
REACTOR
1002
}
1001
GENIUS_GENOBJ-N-CEN_13
1002
{
1000
OWNER
1000
GEN
1002
}
  0
LINE
  5
57A
330
1F
100
AcDbEntity
  8
0
100
AcDbLine
 10
183.2412102531712
 20
109.6072216102085
 30
0.0
 11
184.3003893576492
 21
98.20722161020851
 31
0.0
  0
LINE
  5
57B
330
1F
100
AcDbEntity
  8
0
100
AcDbLine
 10
199.3581986935302
 20
109.6072216102085
 30
0.0
 11
198.2990195890528
 21
98.20722161020851
 31
0.0
  0
ARC
  5
57C
330
1F
100
AcDbEntity
  8
0
100
AcDbCircle
 10
198.3624871246358
 20
109.6997336179155
 30
0.0
 40
1.0
100
AcDbArc
 50
354.6918623717181
 51
90.0
1001
GENIUS_GENOBJ-N-FIL_13
1002
{
1000
OWNER
1000
GEN
1002
}
1001
GENIUS_GENODEF_13
1002
{
1000
HIER
1070
     0
1002
}
1002
{
1000
MANEDIT
1070
     0
1002
}
1002
{
1000
NOSEL
1070
     0
1002
}
1002
{
1000
BEHIND
1070
     0
1002
}
1002
{
1000
OTHER
1070
     0
1002
}
1002
{
1000
REACTOR
1002
}
  0
ARC
  5
57D
330
1F
100
AcDbEntity
  8
0
100
AcDbCircle
 10
197.3033080201585
 20
98.29973361791552
 30
0.0
 40
1.0
100
AcDbArc
 50
270.0
 51
354.6918623717181
1001
GENIUS_GENOBJ-N-CEN_13
1002
{
1000
OWNER
1000
GEN
1002
}
1001
GENIUS_GENOBJ-N-FIL_13
1002
{
1000
OWNER
1000
GEN
1002
}
1001
GENIUS_GENODEF_13
1002
{
1000
HIER
1070
     0
1002
}
1002
{
1000
MANEDIT
1070
     0
1002
}
1002
{
1000
NOSEL
1070
     0
1002
}
1002
{
1000
BEHIND
1070
     0
1002
}
1002
{
1000
OTHER
1070
     0
1002
}
1002
{
1000
REACTOR
1002
}
  0
ARC
  5
57E
330
1F
100
AcDbEntity
  8
0
100
AcDbCircle
 10
185.2961009265435
 20
98.29973361791552
 30
0.0
 40
1.0
100
AcDbArc
 50
185.3081376282848
 51
270.0
1001
GENIUS_GENODEF_13
1002
{
1000
HIER
1070
     0
1002
}
1002
{
1000
MANEDIT
1070
     0
1002
}
1002
{
1000
NOSEL
1070
     0
1002
}
1002
{
1000
BEHIND
1070
     0
1002
}
1002
{
1000
OTHER
1070
     0
1002
}
1002
{
1000
REACTOR
1002
}
1001
GENIUS_GENOBJ-N-FIL_13
1002
{
1000
OWNER
1000
GEN
1002
}
  0
ARC
  5
57F
330
1F
100
AcDbEntity
  8
0
100
AcDbCircle
 10
184.2369218220655
 20
109.6997336179155
 30
0.0
 40
1.0
100
AcDbArc
 50
90.0
 51
185.3081376282844
1001
GENIUS_GENOBJ-N-CEN_13
1002
{
1000
OWNER
1000
GEN
1002
}
1001
GENIUS_GENOBJ-N-FIL_13
1002
{
1000
OWNER
1000
GEN
1002
}
1001
GENIUS_GENODEF_13
1002
{
1000
HIER
1070
     0
1002
}
1002
{
1000
MANEDIT
1070
     0
1002
}
1002
{
1000
NOSEL
1070
     0
1002
}
1002
{
1000
BEHIND
1070
     0
1002
}
1002
{
1000
OTHER
1070
     0
1002
}
1002
{
1000
REACTOR
1002
}
  0
ARC
  5
580
330
1F
100
AcDbEntity
  8
0
100
AcDbCircle
 10
-620.0004690638077
 20
34.20056767871165
 30
0.0
 40
808.3
100
AcDbArc
 50
1.632631223872181
 51
1.880628344580451
  0
ARC
  5
581
330
1F
100
AcDbEntity
  8
0
100
AcDbCircle
 10
1002.599883603628
 20
34.20090823466373
 30
0.0
 40
808.3
100
AcDbArc
 50
176.0982639858037
 51
176.3466842821343
  0
LINE
  5
582
330
1F
100
AcDbEntity
  8
0
100
AcDbLine
 10
187.3555140631969
 20
85.04973361791552
 30
0.0
 11
195.2438787324141
 21
85.04973361791552
 31
0.0
1001
GENIUS_GENODEF_13
1002
{
1000
HIER
1070
     0
1002
}
1002
{
1000
MANEDIT
1070
     0
1002
}
1002
{
1000
NOSEL
1070
     0
1002
}
1002
{
1000
BEHIND
1070
     0
1002
}
1002
{
1000
OTHER
1070
     0
1002
}
1002
{
1000
REACTOR
1002
}
1001
GENIUS_GENOBJ-N-CEN_13
1002
{
1000
OWNER
1000
GEN
1002
}
  0
LINE
  5
583
330
1F
100
AcDbEntity
  8
0
100
AcDbLine
 10
187.1244217241036
 20
89.94973361791551
 30
0.0
 11
195.474969588502
 21
89.94973361791551
 31
0.0
1001
GENIUS_GENODEF_13
1002
{
1000
HIER
1070
     0
1002
}
1002
{
1000
MANEDIT
1070
     0
1002
}
1002
{
1000
NOSEL
1070
     0
1002
}
1002
{
1000
BEHIND
1070
     0
1002
}
1002
{
1000
OTHER
1070
     0
1002
}
1002
{
1000
REACTOR
1002
}
1001
GENIUS_GENOBJ-N-CEN_13
1002
{
1000
OWNER
1000
GEN
1002
}
  0
LINE
  5
584
330
1F
100
AcDbEntity
  8
0
100
AcDbLine
 10
187.9060030255162
 20
75.54973361791549
 30
0.0
 11
194.693393789436
 21
75.54973361791549
 31
0.0
1001
GENIUS_GENODEF_13
1002
{
1000
HIER
1070
     0
1002
}
1002
{
1000
MANEDIT
1070
     0
1002
}
1002
{
1000
NOSEL
1070
     0
1002
}
1002
{
1000
BEHIND
1070
     0
1002
}
1002
{
1000
OTHER
1070
     0
1002
}
1002
{
1000
REACTOR
1002
}
1001
GENIUS_GENOBJ-N-CEN_13
1002
{
1000
OWNER
1000
GEN
1002
}
  0
LINE
  5
585
330
1F
100
AcDbEntity
  8
0
100
AcDbLine
 10
187.7162346648218
 20
80.44973361791551
 30
0.0
 11
194.8831606702679
 21
80.44973361791551
 31
0.0
1001
GENIUS_GENODEF_13
1002
{
1000
HIER
1070
     0
1002
}
1002
{
1000
MANEDIT
1070
     0
1002
}
1002
{
1000
NOSEL
1070
     0
1002
}
1002
{
1000
BEHIND
1070
     0
1002
}
1002
{
1000
OTHER
1070
     0
1002
}
1002
{
1000
REACTOR
1002
}
1001
GENIUS_GENOBJ-N-CEN_13
1002
{
1000
OWNER
1000
GEN
1002
}
  0
LINE
  5
586
330
1F
100
AcDbEntity
  8
0
100
AcDbLine
 10
188.195953617639
 20
70.94973361791551
 30
0.0
 11
194.4034457319381
 21
70.94973361791551
 31
0.0
1001
GENIUS_GENODEF_13
1002
{
1000
HIER
1070
     0
1002
}
1002
{
1000
MANEDIT
1070
     0
1002
}
1002
{
1000
NOSEL
1070
     0
1002
}
1002
{
1000
BEHIND
1070
     0
1002
}
1002
{
1000
OTHER
1070
     0
1002
}
1002
{
1000
REACTOR
1002
}
1001
GENIUS_GENOBJ-N-CEN_13
1002
{
1000
OWNER
1000
GEN
1002
}
  0
LINE
  5
587
330
1F
100
AcDbEntity
  8
0
100
AcDbLine
 10
188.3444769812962
 20
66.04973361791549
 30
0.0
 11
194.254923845623
 21
66.04973361791549
 31
0.0
1001
GENIUS_GENODEF_13
1002
{
1000
HIER
1070
     0
1002
}
1002
{
1000
MANEDIT
1070
     0
1002
}
1002
{
1000
NOSEL
1070
     0
1002
}
1002
{
1000
BEHIND
1070
     0
1002
}
1002
{
1000
OTHER
1070
     0
1002
}
1002
{
1000
REACTOR
1002
}
1001
GENIUS_GENOBJ-N-CEN_13
1002
{
1000
OWNER
1000
GEN
1002
}
  0
LINE
  5
588
330
1F
100
AcDbEntity
  8
0
100
AcDbLine
 10
188.6711181392467
 20
56.54973361791551
 30
0.0
 11
193.9282866939475
 21
56.54973361791551
 31
0.0
1001
GENIUS_GENODEF_13
1002
{
1000
HIER
1070
     0
1002
}
1002
{
1000
MANEDIT
1070
     0
1002
}
1002
{
1000
NOSEL
1070
     0
1002
}
1002
{
1000
BEHIND
1070
     0
1002
}
1002
{
1000
OTHER
1070
     0
1002
}
1002
{
1000
REACTOR
1002
}
1001
GENIUS_GENOBJ-N-CEN_13
1002
{
1000
OWNER
1000
GEN
1002
}
  0
LINE
  5
589
330
1F
100
AcDbEntity
  8
0
100
AcDbLine
 10
188.5637780977475
 20
61.44973361791549
 30
0.0
 11
194.0356252600069
 21
61.44973361791549
 31
0.0
1001
GENIUS_GENODEF_13
1002
{
1000
HIER
1070
     0
1002
}
1002
{
1000
MANEDIT
1070
     0
1002
}
1002
{
1000
NOSEL
1070
     0
1002
}
1002
{
1000
BEHIND
1070
     0
1002
}
1002
{
1000
OTHER
1070
     0
1002
}
1002
{
1000
REACTOR
1002
}
1001
GENIUS_GENOBJ-N-CEN_13
1002
{
1000
OWNER
1000
GEN
1002
}
  0
ARC
  5
58A
330
1F
100
AcDbEntity
  8
0
100
AcDbCircle
 10
-620.0004690638077
 20
34.20056767871165
 30
0.0
 40
808.3
100
AcDbArc
 50
2.305850862480435
 51
2.553954522336562
  0
ARC
  5
58B
330
1F
100
AcDbEntity
  8
0
100
AcDbCircle
 10
1002.599883603628
 20
34.20090823466373
 30
0.0
 40
808.3
100
AcDbArc
 50
178.1193957876006
 51
178.3673929051053
  0
ARC
  5
58C
330
1F
100
AcDbEntity
  8
0
100
AcDbCircle
 10
1002.599883603628
 20
34.20090823466373
 30
0.0
 40
808.3
100
AcDbArc
 50
177.446069620827
 51
177.6941732762471
  0
ARC
  5
58D
330
1F
100
AcDbEntity
  8
0
100
AcDbCircle
 10
-620.0004690638077
 20
34.20056767871165
 30
0.0
 40
808.3
100
AcDbArc
 50
2.979389188301583
 51
3.227633850287386
  0
ARC
  5
58E
330
1F
100
AcDbEntity
  8
0
100
AcDbCircle
 10
-620.0004690638077
 20
34.20056767871165
 30
0.0
 40
808.3
100
AcDbArc
 50
3.653339886161578
 51
3.901760189411949
  0
ARC
  5
58F
330
1F
100
AcDbEntity
  8
0
100
AcDbCircle
 10
1002.599883603628
 20
34.20090823466373
 30
0.0
 40
808.3
100
AcDbArc
 50
176.7723903072152
 51
177.0206349635271
  0
ARC
  5
590
330
1F
100
AcDbEntity
  8
0
100
AcDbCircle
 10
187.1244217241036
 20
89.24973361791549
 30
0.0
 40
0.7
100
AcDbArc
 50
90.0
 51
183.9017601894115
1001
GENIUS_GENOBJ-N-FIL_13
1002
{
1000
OWNER
1000
GEN
1002
}
1001
GENIUS_GENODEF_13
1002
{
1000
HIER
1070
     0
1002
}
1002
{
1000
MANEDIT
1070
     0
1002
}
1002
{
1000
NOSEL
1070
     0
1002
}
1002
{
1000
BEHIND
1070
     0
1002
}
1002
{
1000
OTHER
1070
     0
1002
}
1002
{
1000
REACTOR
1002
}
  0
ARC
  5
591
330
1F
100
AcDbEntity
  8
0
100
AcDbCircle
 10
187.7162346648218
 20
79.74973361791548
 30
0.0
 40
0.7
100
AcDbArc
 50
90.0
 51
183.2276338502874
1001
GENIUS_GENODEF_13
1002
{
1000
HIER
1070
     0
1002
}
1002
{
1000
MANEDIT
1070
     0
1002
}
1002
{
1000
NOSEL
1070
     0
1002
}
1002
{
1000
BEHIND
1070
     0
1002
}
1002
{
1000
OTHER
1070
     0
1002
}
1002
{
1000
REACTOR
1002
}
1001
GENIUS_GENOBJ-N-FIL_13
1002
{
1000
OWNER
1000
GEN
1002
}
  0
ARC
  5
592
330
1F
100
AcDbEntity
  8
0
100
AcDbCircle
 10
187.3555140631969
 20
85.74973361791547
 30
0.0
 40
0.7
100
AcDbArc
 50
183.6533398861611
 51
269.9999999999976
1001
GENIUS_GENOBJ-N-FIL_13
1002
{
1000
OWNER
1000
GEN
1002
}
1001
GENIUS_GENODEF_13
1002
{
1000
HIER
1070
     0
1002
}
1002
{
1000
MANEDIT
1070
     0
1002
}
1002
{
1000
NOSEL
1070
     0
1002
}
1002
{
1000
BEHIND
1070
     0
1002
}
1002
{
1000
OTHER
1070
     0
1002
}
1002
{
1000
REACTOR
1002
}
  0
ARC
  5
593
330
1F
100
AcDbEntity
  8
0
100
AcDbCircle
 10
195.474969588502
 20
89.24973361791549
 30
0.0
 40
0.7
100
AcDbArc
 50
356.0982639857983
 51
90.0
1001
GENIUS_GENOBJ-N-FIL_13
1002
{
1000
OWNER
1000
GEN
1002
}
1001
GENIUS_GENODEF_13
1002
{
1000
HIER
1070
     0
1002
}
1002
{
1000
MANEDIT
1070
     0
1002
}
1002
{
1000
NOSEL
1070
     0
1002
}
1002
{
1000
BEHIND
1070
     0
1002
}
1002
{
1000
OTHER
1070
     0
1002
}
1002
{
1000
REACTOR
1002
}
  0
ARC
  5
594
330
1F
100
AcDbEntity
  8
0
100
AcDbCircle
 10
195.2438787324141
 20
85.74973361791547
 30
0.0
 40
0.7
100
AcDbArc
 50
270.0
 51
356.3466842821388
1001
GENIUS_GENOBJ-N-FIL_13
1002
{
1000
OWNER
1000
GEN
1002
}
1001
GENIUS_GENODEF_13
1002
{
1000
HIER
1070
     0
1002
}
1002
{
1000
MANEDIT
1070
     0
1002
}
1002
{
1000
NOSEL
1070
     0
1002
}
1002
{
1000
BEHIND
1070
     0
1002
}
1002
{
1000
OTHER
1070
     0
1002
}
1002
{
1000
REACTOR
1002
}
  0
ARC
  5
595
330
1F
100
AcDbEntity
  8
0
100
AcDbCircle
 10
194.8831606702679
 20
79.74973361791548
 30
0.0
 40
0.7
100
AcDbArc
 50
356.7723903072376
 51
90.0
1001
GENIUS_GENOBJ-N-FIL_13
1002
{
1000
OWNER
1000
GEN
1002
}
1001
GENIUS_GENODEF_13
1002
{
1000
HIER
1070
     0
1002
}
1002
{
1000
MANEDIT
1070
     0
1002
}
1002
{
1000
NOSEL
1070
     0
1002
}
1002
{
1000
BEHIND
1070
     0
1002
}
1002
{
1000
OTHER
1070
     0
1002
}
1002
{
1000
REACTOR
1002
}
  0
ARC
  5
596
330
1F
100
AcDbEntity
  8
0
100
AcDbCircle
 10
194.693393789436
 20
76.2497336179155
 30
0.0
 40
0.7
100
AcDbArc
 50
270.0
 51
357.0206349635451
1001
GENIUS_GENOBJ-N-FIL_13
1002
{
1000
OWNER
1000
GEN
1002
}
1001
GENIUS_GENODEF_13
1002
{
1000
HIER
1070
     0
1002
}
1002
{
1000
MANEDIT
1070
     0
1002
}
1002
{
1000
NOSEL
1070
     0
1002
}
1002
{
1000
BEHIND
1070
     0
1002
}
1002
{
1000
OTHER
1070
     0
1002
}
1002
{
1000
REACTOR
1002
}
  0
ARC
  5
597
330
1F
100
AcDbEntity
  8
0
100
AcDbCircle
 10
187.9060030255162
 20
76.2497336179155
 30
0.0
 40
0.7
100
AcDbArc
 50
182.9793891883012
 51
270.0
1001
GENIUS_GENOBJ-N-FIL_13
1002
{
1000
OWNER
1000
GEN
1002
}
1001
GENIUS_GENODEF_13
1002
{
1000
HIER
1070
     0
1002
}
1002
{
1000
MANEDIT
1070
     0
1002
}
1002
{
1000
NOSEL
1070
     0
1002
}
1002
{
1000
BEHIND
1070
     0
1002
}
1002
{
1000
OTHER
1070
     0
1002
}
1002
{
1000
REACTOR
1002
}
  0
ARC
  5
598
330
1F
100
AcDbEntity
  8
0
100
AcDbCircle
 10
188.195953617639
 20
70.24973361791549
 30
0.0
 40
0.7
100
AcDbArc
 50
90.0
 51
182.5539545223362
1001
GENIUS_GENOBJ-N-FIL_13
1002
{
1000
OWNER
1000
GEN
1002
}
1001
GENIUS_GENODEF_13
1002
{
1000
HIER
1070
     0
1002
}
1002
{
1000
MANEDIT
1070
     0
1002
}
1002
{
1000
NOSEL
1070
     0
1002
}
1002
{
1000
BEHIND
1070
     0
1002
}
1002
{
1000
OTHER
1070
     0
1002
}
1002
{
1000
REACTOR
1002
}
  0
ARC
  5
599
330
1F
100
AcDbEntity
  8
0
100
AcDbCircle
 10
188.3444769812962
 20
66.74973361791538
 30
0.0
 40
0.7
100
AcDbArc
 50
182.30585086248
 51
269.9999999999976
1001
GENIUS_GENOBJ-N-FIL_13
1002
{
1000
OWNER
1000
GEN
1002
}
1001
GENIUS_GENODEF_13
1002
{
1000
HIER
1070
     0
1002
}
1002
{
1000
MANEDIT
1070
     0
1002
}
1002
{
1000
NOSEL
1070
     0
1002
}
1002
{
1000
BEHIND
1070
     0
1002
}
1002
{
1000
OTHER
1070
     0
1002
}
1002
{
1000
REACTOR
1002
}
  0
ARC
  5
59A
330
1F
100
AcDbEntity
  8
0
100
AcDbCircle
 10
194.254923845623
 20
66.7497336179155
 30
0.0
 40
0.7
100
AcDbArc
 50
270.0
 51
357.6941732762655
1001
GENIUS_GENOBJ-N-FIL_13
1002
{
1000
OWNER
1000
GEN
1002
}
1001
GENIUS_GENODEF_13
1002
{
1000
HIER
1070
     0
1002
}
1002
{
1000
MANEDIT
1070
     0
1002
}
1002
{
1000
NOSEL
1070
     0
1002
}
1002
{
1000
BEHIND
1070
     0
1002
}
1002
{
1000
OTHER
1070
     0
1002
}
1002
{
1000
REACTOR
1002
}
  0
ARC
  5
59B
330
1F
100
AcDbEntity
  8
0
100
AcDbCircle
 10
194.4034457319381
 20
70.24973361791549
 30
0.0
 40
0.7
100
AcDbArc
 50
357.4460696208281
 51
90.0
1001
GENIUS_GENOBJ-N-FIL_13
1002
{
1000
OWNER
1000
GEN
1002
}
1001
GENIUS_GENODEF_13
1002
{
1000
HIER
1070
     0
1002
}
1002
{
1000
MANEDIT
1070
     0
1002
}
1002
{
1000
NOSEL
1070
     0
1002
}
1002
{
1000
BEHIND
1070
     0
1002
}
1002
{
1000
OTHER
1070
     0
1002
}
1002
{
1000
REACTOR
1002
}
  0
ARC
  5
59C
330
1F
100
AcDbEntity
  8
0
100
AcDbCircle
 10
194.0356252600069
 20
60.74973361791551
 30
0.0
 40
0.7
100
AcDbArc
 50
358.1193957876226
 51
90.0
1001
GENIUS_GENODEF_13
1002
{
1000
HIER
1070
     0
1002
}
1002
{
1000
MANEDIT
1070
     0
1002
}
1002
{
1000
NOSEL
1070
     0
1002
}
1002
{
1000
BEHIND
1070
     0
1002
}
1002
{
1000
OTHER
1070
     0
1002
}
1002
{
1000
REACTOR
1002
}
1001
GENIUS_GENOBJ-N-FIL_13
1002
{
1000
OWNER
1000
GEN
1002
}
  0
ARC
  5
59D
330
1F
100
AcDbEntity
  8
0
100
AcDbCircle
 10
193.9282866939475
 20
57.24973361791551
 30
0.0
 40
0.7
100
AcDbArc
 50
270.0
 51
358.3673929051097
1001
GENIUS_GENOBJ-N-FIL_13
1002
{
1000
OWNER
1000
GEN
1002
}
1001
GENIUS_GENODEF_13
1002
{
1000
HIER
1070
     0
1002
}
1002
{
1000
MANEDIT
1070
     0
1002
}
1002
{
1000
NOSEL
1070
     0
1002
}
1002
{
1000
BEHIND
1070
     0
1002
}
1002
{
1000
OTHER
1070
     0
1002
}
1002
{
1000
REACTOR
1002
}
  0
ARC
  5
59E
330
1F
100
AcDbEntity
  8
0
100
AcDbCircle
 10
188.6711181392467
 20
57.24973361791551
 30
0.0
 40
0.7
100
AcDbArc
 50
181.6326312238718
 51
270.0
1001
GENIUS_GENOBJ-N-FIL_13
1002
{
1000
OWNER
1000
GEN
1002
}
1001
GENIUS_GENODEF_13
1002
{
1000
HIER
1070
     0
1002
}
1002
{
1000
MANEDIT
1070
     0
1002
}
1002
{
1000
NOSEL
1070
     0
1002
}
1002
{
1000
BEHIND
1070
     0
1002
}
1002
{
1000
OTHER
1070
     0
1002
}
1002
{
1000
REACTOR
1002
}
  0
ARC
  5
59F
330
1F
100
AcDbEntity
  8
0
100
AcDbCircle
 10
188.5637780977474
 20
60.74973361791551
 30
0.0
 40
0.7
100
AcDbArc
 50
89.99999999999777
 51
181.8806283445804
1001
GENIUS_GENODEF_13
1002
{
1000
HIER
1070
     0
1002
}
1002
{
1000
MANEDIT
1070
     0
1002
}
1002
{
1000
NOSEL
1070
     0
1002
}
1002
{
1000
BEHIND
1070
     0
1002
}
1002
{
1000
OTHER
1070
     0
1002
}
1002
{
1000
REACTOR
1002
}
1001
GENIUS_GENOBJ-N-FIL_13
1002
{
1000
OWNER
1000
GEN
1002
}
  0
ARC
  5
5A0
330
1F
100
AcDbEntity
  8
0
100
AcDbCircle
 10
-620.0402955266467
 20
51.35973361791506
 30
0.0
 40
803.4
100
AcDbArc
 50
0.0099657214218197
 51
0.9608738011681181
  0
ARC
  5
5A1
330
1F
100
AcDbEntity
  8
0
100
AcDbCircle
 10
1002.639704473353
 20
51.35973361791538
 30
0.0
 40
803.4
100
AcDbArc
 50
179.0103255754361
 51
179.9900342785782
  0
ARC
  5
5A2
330
1F
100
AcDbEntity
  8
0
100
AcDbCircle
 10
-620.0402955266467
 20
51.35973361791506
 30
0.0
 40
803.8999999999997
100
AcDbArc
 50
0.0099657214218197
 51
0.9608738011681181
  0
ARC
  5
5A3
330
1F
100
AcDbEntity
  8
0
100
AcDbCircle
 10
1002.639704473353
 20
51.35973361791538
 30
0.0
 40
803.8999999999997
100
AcDbArc
 50
179.0103255754361
 51
179.9900342785782
  0
ARC
  5
5A4
330
1F
100
AcDbEntity
  8
0
100
AcDbCircle
 10
19.86970763777287
 20
62.09229389552338
 30
0.0
 40
163.4
100
AcDbArc
 50
0.9608738011681181
 51
9.139323071745613
1001
GENIUS_GENOBJ-N-FIL_13
1002
{
1000
OWNER
1000
GEN
1002
}
1001
GENIUS_GENODEF_13
1002
{
1000
HIER
1070
     0
1002
}
1002
{
1000
MANEDIT
1070
     0
1002
}
1002
{
1000
NOSEL
1070
     0
1002
}
1002
{
1000
BEHIND
1070
     0
1002
}
1002
{
1000
OTHER
1070
     0
1002
}
1002
{
1000
REACTOR
1002
}
  0
ARC
  5
5A5
330
1F
100
AcDbEntity
  8
0
100
AcDbCircle
 10
375.2995175831982
 20
119.2731491021288
 30
0.0
 40
196.6
100
AcDbArc
 50
180.0783277908892
 51
189.1393230717456
  0
ARC
  5
5A6
330
1F
100
AcDbEntity
  8
0
100
AcDbCircle
 10
7.299891363507867
 20
119.5607615980769
 30
0.0
 40
196.6
100
AcDbArc
 50
350.8661653012294
 51
359.9216722091116
  0
ARC
  5
5A7
330
1F
100
AcDbEntity
  8
0
100
AcDbCircle
 10
362.7351770426114
 20
62.41395333887417
 30
0.0
 40
163.4
100
AcDbArc
 50
170.8661653012294
 51
179.0103255754361
1001
GENIUS_GENOBJ-N-FIL_13
1002
{
1000
OWNER
1000
GEN
1002
}
1001
GENIUS_GENODEF_13
1002
{
1000
HIER
1070
     0
1002
}
1002
{
1000
MANEDIT
1070
     0
1002
}
1002
{
1000
NOSEL
1070
     0
1002
}
1002
{
1000
BEHIND
1070
     0
1002
}
1002
{
1000
OTHER
1070
     0
1002
}
1002
{
1000
REACTOR
1002
}
  0
ARC
  5
5A8
330
1F
100
AcDbEntity
  8
0
100
AcDbCircle
 10
375.2995175831982
 20
119.2731491021288
 30
0.0
 40
196.1
100
AcDbArc
 50
180.0783277908892
 51
189.1393230717456
  0
ARC
  5
5A9
330
1F
100
AcDbEntity
  8
0
100
AcDbCircle
 10
19.86970763777287
 20
62.09229389552338
 30
0.0
 40
163.9
100
AcDbArc
 50
0.9608738011681181
 51
9.139323071745613
1001
GENIUS_GENOBJ-N-FIL_13
1002
{
1000
OWNER
1000
GEN
1002
}
1001
GENIUS_GENODEF_13
1002
{
1000
HIER
1070
     0
1002
}
1002
{
1000
MANEDIT
1070
     0
1002
}
1002
{
1000
NOSEL
1070
     0
1002
}
1002
{
1000
BEHIND
1070
     0
1002
}
1002
{
1000
OTHER
1070
     0
1002
}
1002
{
1000
REACTOR
1002
}
  0
ARC
  5
5AA
330
1F
100
AcDbEntity
  8
0
100
AcDbCircle
 10
362.7351770426114
 20
62.41395333887417
 30
0.0
 40
163.9
100
AcDbArc
 50
170.8661653012294
 51
179.0103255754361
1001
GENIUS_GENOBJ-N-FIL_13
1002
{
1000
OWNER
1000
GEN
1002
}
1001
GENIUS_GENODEF_13
1002
{
1000
HIER
1070
     0
1002
}
1002
{
1000
MANEDIT
1070
     0
1002
}
1002
{
1000
NOSEL
1070
     0
1002
}
1002
{
1000
BEHIND
1070
     0
1002
}
1002
{
1000
OTHER
1070
     0
1002
}
1002
{
1000
REACTOR
1002
}
  0
ARC
  5
5AB
330
1F
100
AcDbEntity
  8
0
100
AcDbCircle
 10
7.299891363507867
 20
119.5607615980769
 30
0.0
 40
196.1
100
AcDbArc
 50
350.8661653012294
 51
359.9216722091116
  0
LINE
  5
5AC
330
1F
100
AcDbEntity
  8
0
100
AcDbLine
 10
181.7997044733502
 20
132.5506078736828
 30
0.0
 11
181.7997044733504
 21
124.3271692408123
 31
0.0
1001
GENIUS_GENODEF_13
1002
{
1000
HIER
1070
     0
1002
}
1002
{
1000
MANEDIT
1070
     0
1002
}
1002
{
1000
NOSEL
1070
     0
1002
}
1002
{
1000
BEHIND
1070
     0
1002
}
1002
{
1000
OTHER
1070
     0
1002
}
1002
{
1000
REACTOR
1002
}
1001
GENIUS_GENOBJ-N-CEN_13
1002
{
1000
OWNER
1000
GEN
1002
}
  0
LINE
  5
5AD
330
1F
100
AcDbEntity
  8
0
100
AcDbLine
 10
200.7997044733502
 20
132.5506078736829
 30
0.0
 11
200.7997044733504
 21
124.3271692408123
 31
0.0
1001
GENIUS_GENODEF_13
1002
{
1000
HIER
1070
     0
1002
}
1002
{
1000
MANEDIT
1070
     0
1002
}
1002
{
1000
NOSEL
1070
     0
1002
}
1002
{
1000
BEHIND
1070
     0
1002
}
1002
{
1000
OTHER
1070
     0
1002
}
1002
{
1000
REACTOR
1002
}
1001
GENIUS_GENOBJ-N-CEN_13
1002
{
1000
OWNER
1000
GEN
1002
}
  0
LINE
  5
5AE
330
1F
100
AcDbEntity
  8
0
100
AcDbLine
 10
178.699704473353
 20
126.2597336179156
 30
0.0
 11
178.699704473353
 21
118.9997336179241
 31
0.0
  0
LINE
  5
5AF
330
1F
100
AcDbEntity
  8
0
100
AcDbLine
 10
203.899704473353
 20
126.2597336179156
 30
0.0
 11
203.899704473353
 21
119.2873461138856
 31
0.0
  0
ELLIPSE
  5
5B0
330
1F
100
AcDbEntity
  8
0
100
AcDbEllipse
 10
191.299704473353
 20
126.2597336179156
 30
0.0
 11
0.0000000000000329
 21
-14.60043397270979
 31
0.0
210
0.0
220
0.0
230
1.0
 40
0.8629880470368973
 41
1.570796326794896
 42
4.712388980384688
  0
SPLINE
  5
5B1
330
1F
100
AcDbEntity
  8
0
100
AcDbSpline
210
0.0
220
0.0
230
1.0
 70
     8
 71
     3
 72
    26
 73
    22
 74
     0
 42
0.0000000001
 43
0.0000000001
 40
1.570796326794896
 40
1.570796326794896
 40
1.570796326794896
 40
1.570796326794896
 40
1.772513032365356
 40
1.772513032365356
 40
2.11840621556333
 40
2.11840621556333
 40
2.464299398761303
 40
2.464299398761303
 40
2.810192581959277
 40
2.810192581959277
 40
3.15608576515725
 40
3.15608576515725
 40
3.501978948355223
 40
3.501978948355223
 40
3.847872131553197
 40
3.847872131553197
 40
4.193765314751169
 40
4.193765314751169
 40
4.539658497949143
 40
4.539658497949143
 40
4.712388980384688
 40
4.712388980384688
 40
4.712388980384688
 40
4.712388980384688
 10
203.399704473353
 20
126.2597336179156
 30
0.0
 10
203.399704473353
 20
127.2124375805745
 30
0.0
 10
203.3164821375991
 20
128.165111511911
 30
0.0
 10
202.869511633222
 20
130.6978200679812
 30
0.0
 10
202.3462365332286
 20
132.2386275161736
 30
0.0
 10
200.8832754283582
 20
135.0185026519705
 30
0.0
 10
199.9440900784664
 20
136.2568241703835
 30
0.0
 10
197.7660602149103
 20
138.2864691363446
 30
0.0
 10
196.527974718249
 20
139.0774341801301
 30
0.0
 10
193.9003237356067
 20
140.1251292239985
 30
0.0
 10
192.5113056781443
 20
140.381979804318
 30
0.0
 10
189.7396825552059
 20
140.3354296162219
 30
0.0
 10
188.3572965018622
 20
140.032013750144
 30
0.0
 10
185.7558747483634
 20
138.8960420205723
 30
0.0
 10
184.5374251577617
 20
138.0633888163339
 30
0.0
 10
182.4100006047618
 20
135.9603892950529
 30
0.0
 10
181.5017751063999
 20
134.6904454650425
 30
0.0
 10
180.1084663742807
 20
131.8616111368004
 30
0.0
 10
179.6238554724243
 20
130.3034852663185
 30
0.0
 10
179.260669199891
 20
127.8913250084192
 30
0.0
 10
179.199704473353
 20
127.0755362289236
 30
0.0
 10
179.199704473353
 20
126.2597336179156
 30
0.0
  0
LINE
  5
5B2
330
1F
100
AcDbEntity
  8
0
100
AcDbLine
 10
179.199704473353
 20
126.2597336179156
 30
0.0
 11
179.199704473353
 21
118.9997336179241
 31
0.0
  0
LINE
  5
5B3
330
1F
100
AcDbEntity
  8
0
100
AcDbLine
 10
203.399704473353
 20
126.2597336179156
 30
0.0
 11
203.399704473353
 21
119.2873461138856
 31
0.0
  0
ARC
  5
5B4
330
1F
100
AcDbEntity
  8
0
100
AcDbCircle
 10
191.299704473353
 20
192.6402676567618
 30
0.0
 40
74.11694698285351
100
AcDbArc
 50
260.6040915164879
 51
279.3959084835121
  0
LINE
  5
5B5
330
1F
100
AcDbEntity
  8
0
100
AcDbLine
 10
183.7997044733503
 20
122.3271692408123
 30
0.0
 11
198.7997044733504
 21
122.3271692408123
 31
0.0
  0
LINE
  5
5B6
330
1F
100
AcDbEntity
  8
0
100
AcDbLine
 10
183.7997044733502
 20
134.5506078736829
 30
0.0
 11
198.7997044733502
 21
134.5506078736829
 31
0.0
  0
ARC
  5
5B7
330
1F
100
AcDbEntity
  8
0
100
AcDbCircle
 10
183.7997044733502
 20
132.5506078736829
 30
0.0
 40
2.0
100
AcDbArc
 50
90.0
 51
180.0000000000016
1001
GENIUS_GENOBJ-N-CEN_13
1002
{
1000
OWNER
1000
GEN
1002
}
1001
GENIUS_GENODEF_13
1002
{
1000
HIER
1070
     0
1002
}
1002
{
1000
MANEDIT
1070
     0
1002
}
1002
{
1000
NOSEL
1070
     0
1002
}
1002
{
1000
BEHIND
1070
     0
1002
}
1002
{
1000
OTHER
1070
     0
1002
}
1002
{
1000
REACTOR
1002
}
1001
GENIUS_GENOBJ-N-FIL_13
1002
{
1000
OWNER
1000
GEN
1002
}
  0
ARC
  5
5B8
330
1F
100
AcDbEntity
  8
0
100
AcDbCircle
 10
183.7997044733503
 20
124.3271692408123
 30
0.0
 40
2.0
100
AcDbArc
 50
180.0000000000016
 51
270.0
1001
GENIUS_GENODEF_13
1002
{
1000
HIER
1070
     0
1002
}
1002
{
1000
MANEDIT
1070
     0
1002
}
1002
{
1000
NOSEL
1070
     0
1002
}
1002
{
1000
BEHIND
1070
     0
1002
}
1002
{
1000
OTHER
1070
     0
1002
}
1002
{
1000
REACTOR
1002
}
1001
GENIUS_GENOBJ-N-FIL_13
1002
{
1000
OWNER
1000
GEN
1002
}
  0
ARC
  5
5B9
330
1F
100
AcDbEntity
  8
0
100
AcDbCircle
 10
198.7997044733502
 20
132.5506078736829
 30
0.0
 40
2.0
100
AcDbArc
 50
0.0000000000012213
 51
90.0
1001
GENIUS_GENOBJ-N-CEN_13
1002
{
1000
OWNER
1000
GEN
1002
}
1001
GENIUS_GENODEF_13
1002
{
1000
HIER
1070
     0
1002
}
1002
{
1000
MANEDIT
1070
     0
1002
}
1002
{
1000
NOSEL
1070
     0
1002
}
1002
{
1000
BEHIND
1070
     0
1002
}
1002
{
1000
OTHER
1070
     0
1002
}
1002
{
1000
REACTOR
1002
}
1001
GENIUS_GENOBJ-N-FIL_13
1002
{
1000
OWNER
1000
GEN
1002
}
  0
ARC
  5
5BA
330
1F
100
AcDbEntity
  8
0
100
AcDbCircle
 10
198.7997044733504
 20
124.3271692408123
 30
0.0
 40
2.0
100
AcDbArc
 50
270.0
 51
0.0000000000012213
1001
GENIUS_GENOBJ-N-FIL_13
1002
{
1000
OWNER
1000
GEN
1002
}
1001
GENIUS_GENODEF_13
1002
{
1000
HIER
1070
     0
1002
}
1002
{
1000
MANEDIT
1070
     0
1002
}
1002
{
1000
NOSEL
1070
     0
1002
}
1002
{
1000
BEHIND
1070
     0
1002
}
1002
{
1000
OTHER
1070
     0
1002
}
1002
{
1000
REACTOR
1002
}
  0
ELLIPSE
  5
5BB
330
1F
100
AcDbEntity
  8
0
100
AcDbEllipse
 10
191.2997044733501
 20
138.2193223325295
 30
0.0
 11
-2.05000000000001
 21
0.0
 31
0.0
210
0.0
220
0.0
230
1.0
 40
0.6984865798831729
 41
0.0
 42
6.283185307179584
  0
LINE
  5
5BC
330
1F
100
AcDbEntity
  8
0
100
AcDbLine
 10
19.49970138374765
 20
8.359722389786227
 30
0.0
 11
19.49970138374765
 21
2.413188950108192
 31
0.0
  0
LINE
  5
5BD
330
1F
100
AcDbEntity
  8
0
100
AcDbLine
 10
13.09970138374768
 20
8.359722389786227
 30
0.0
 11
13.09970138374768
 21
2.413188950108192
 31
0.0
  0
LINE
  5
5BE
330
1F
100
AcDbEntity
  8
0
100
AcDbLine
 10
13.09970138374768
 20
4.519722389786237
 30
0.0
 11
19.49970138374765
 21
4.519722389786237
 31
0.0
  0
LINE
  5
5BF
330
1F
100
AcDbEntity
  8
0
100
AcDbLine
 10
19.09970138374769
 20
2.013188950108173
 30
0.0
 11
13.49970138374766
 21
2.013188950108173
 31
0.0
  0
ARC
  5
5C0
330
1F
100
AcDbEntity
  8
0
100
AcDbCircle
 10
13.49970138374766
 20
2.413188950108192
 30
0.0
 40
0.4
100
AcDbArc
 50
180.0
 51
270.0
  0
ARC
  5
5C1
330
1F
100
AcDbEntity
  8
0
100
AcDbCircle
 10
19.09970138374769
 20
2.413188950108192
 30
0.0
 40
0.4
100
AcDbArc
 50
270.0
 51
0.0
  0
LINE
  5
5C2
330
1F
100
AcDbEntity
  8
0
100
AcDbLine
 10
13.49970138374766
 20
8.759722389786247
 30
0.0
 11
19.09970138374769
 21
8.759722389786247
 31
0.0
  0
LINE
  5
5C3
330
1F
100
AcDbEntity
  8
0
100
AcDbLine
 10
13.09970138374768
 20
6.359722389786227
 30
0.0
 11
19.49970138374765
 21
6.359722389786227
 31
0.0
  0
ARC
  5
5C4
330
1F
100
AcDbEntity
  8
0
100
AcDbCircle
 10
13.49970138374766
 20
8.359722389786227
 30
0.0
 40
0.4
100
AcDbArc
 50
90.0
 51
180.0
  0
ARC
  5
5C5
330
1F
100
AcDbEntity
  8
0
100
AcDbCircle
 10
19.09970138374769
 20
8.359722389786227
 30
0.0
 40
0.4
100
AcDbArc
 50
0.0
 51
90.0
  0
LINE
  5
5C6
330
1F
100
AcDbEntity
  8
0
100
AcDbLine
 10
16.49970447311597
 20
141.9985038823829
 30
0.0
 11
16.49970447312625
 21
135.2985102020006
 31
0.0
1001
GENIUS_GENOBJ-N-CEN_13
1002
{
1000
OWNER
1000
GEN
1002
}
1001
GENIUS_GENODEF_13
1002
{
1000
HIER
1070
     0
1002
}
1002
{
1000
MANEDIT
1070
     0
1002
}
1002
{
1000
NOSEL
1070
     0
1002
}
1002
{
1000
BEHIND
1070
     0
1002
}
1002
{
1000
OTHER
1070
     0
1002
}
1002
{
1000
REACTOR
1002
}
  0
LINE
  5
5C7
330
1F
100
AcDbEntity
  8
0
100
AcDbLine
 10
16.09970447311593
 20
141.9985038823774
 30
0.0
 11
16.09970447312622
 21
135.2985029483762
 31
0.0
1001
GENIUS_GENOBJ-N-CEN_13
1002
{
1000
OWNER
1000
GEN
1002
}
1001
GENIUS_GENODEF_13
1002
{
1000
HIER
1070
     0
1002
}
1002
{
1000
MANEDIT
1070
     0
1002
}
1002
{
1000
NOSEL
1070
     0
1002
}
1002
{
1000
BEHIND
1070
     0
1002
}
1002
{
1000
OTHER
1070
     0
1002
}
1002
{
1000
REACTOR
1002
}
  0
LINE
  5
5C8
330
1F
100
AcDbEntity
  8
0
100
AcDbLine
 10
16.4997044733273
 20
4.519722389786222
 30
0.0
 11
16.49970447333424
 21
0.0003999913862316
 31
0.0
1001
GENIUS_GENOBJ-N-CEN_13
1002
{
1000
OWNER
1000
GEN
1002
}
1001
GENIUS_GENODEF_13
1002
{
1000
HIER
1070
     0
1002
}
1002
{
1000
MANEDIT
1070
     0
1002
}
1002
{
1000
NOSEL
1070
     0
1002
}
1002
{
1000
BEHIND
1070
     0
1002
}
1002
{
1000
OTHER
1070
     0
1002
}
1002
{
1000
REACTOR
1002
}
  0
LINE
  5
5C9
330
1F
100
AcDbEntity
  8
0
100
AcDbLine
 10
16.09970447332728
 20
4.519722389786222
 30
0.0
 11
16.09970447333426
 21
0.0003999913862671
 31
0.0
1001
GENIUS_GENOBJ-N-CEN_13
1002
{
1000
OWNER
1000
GEN
1002
}
1001
GENIUS_GENODEF_13
1002
{
1000
HIER
1070
     0
1002
}
1002
{
1000
MANEDIT
1070
     0
1002
}
1002
{
1000
NOSEL
1070
     0
1002
}
1002
{
1000
BEHIND
1070
     0
1002
}
1002
{
1000
OTHER
1070
     0
1002
}
1002
{
1000
REACTOR
1002
}
  0
ARC
  5
5CA
330
1F
100
AcDbEntity
  8
0
100
AcDbCircle
 10
16.2997044733363
 20
49.99999998978619
 30
0.0
 40
49.5
100
AcDbArc
 50
269.768501271087
 51
270.2314987289066
  0
ARC
  5
5CB
330
1F
100
AcDbEntity
  8
0
100
AcDbCircle
 10
16.2997044733363
 20
49.99999998978619
 30
0.0
 40
50.0
100
AcDbArc
 50
270.2291837292094
 51
280.9944052570413
  0
SPLINE
  5
5CC
330
1F
100
AcDbEntity
  8
0
100
AcDbSpline
210
0.0
220
0.0
230
1.0
 70
     8
 71
     3
 72
     8
 73
     4
 74
     0
 42
0.0000000001
 43
0.0000000001
 40
4.699492328318203
 40
4.699492328318203
 40
4.699492328318203
 40
4.699492328318203
 40
4.725286618730008
 40
4.725286618730008
 40
4.725286618730008
 40
4.725286618730008
 10
16.09970447311673
 20
141.4984405333653
 30
0.0
 10
16.23303147631355
 20
141.5001121838727
 30
0.0
 10
16.36637946108207
 20
141.5000816534601
 30
0.0
 10
16.4997044731167
 20
141.4983548421826
 30
0.0
  0
ELLIPSE
  5
5CD
330
1F
100
AcDbEntity
  8
0
100
AcDbEllipse
 10
16.29970447333959
 20
126.2597336179186
 30
0.0
 11
15.99999999999999
 21
-0.0000000000006934
 31
0.0
210
0.0
220
0.0
230
-1.0
 40
0.98374999999999
 41
4.724889305914391
 42
6.283185307179584
  0
LINE
  5
5CE
330
1F
100
AcDbEntity
  8
0
100
AcDbLine
 10
16.49970447317729
 20
102.0997336179186
 30
0.0
 11
16.49970447318821
 21
94.99973361791859
 31
0.0
1001
GENIUS_GENOBJ-N-CEN_13
1002
{
1000
OWNER
1000
GEN
1002
}
1001
GENIUS_GENODEF_13
1002
{
1000
HIER
1070
     0
1002
}
1002
{
1000
MANEDIT
1070
     0
1002
}
1002
{
1000
NOSEL
1070
     0
1002
}
1002
{
1000
BEHIND
1070
     0
1002
}
1002
{
1000
OTHER
1070
     0
1002
}
1002
{
1000
REACTOR
1002
}
  0
LINE
  5
5CF
330
1F
100
AcDbEntity
  8
0
100
AcDbLine
 10
16.09970447317727
 20
102.0997336179186
 30
0.0
 11
16.09970447318817
 21
94.99973361791859
 31
0.0
1001
GENIUS_GENOBJ-N-CEN_13
1002
{
1000
OWNER
1000
GEN
1002
}
1001
GENIUS_GENODEF_13
1002
{
1000
HIER
1070
     0
1002
}
1002
{
1000
MANEDIT
1070
     0
1002
}
1002
{
1000
NOSEL
1070
     0
1002
}
1002
{
1000
BEHIND
1070
     0
1002
}
1002
{
1000
OTHER
1070
     0
1002
}
1002
{
1000
REACTOR
1002
}
  0
LINE
  5
5D0
330
1F
100
AcDbEntity
  8
0
100
AcDbLine
 10
16.49970447321897
 20
73.99973361791859
 30
0.0
 11
16.49970447332447
 21
6.359722389786227
 31
0.0
1001
GENIUS_GENOBJ-N-CEN_13
1002
{
1000
OWNER
1000
GEN
1002
}
1001
GENIUS_GENODEF_13
1002
{
1000
HIER
1070
     0
1002
}
1002
{
1000
MANEDIT
1070
     0
1002
}
1002
{
1000
NOSEL
1070
     0
1002
}
1002
{
1000
BEHIND
1070
     0
1002
}
1002
{
1000
OTHER
1070
     0
1002
}
1002
{
1000
REACTOR
1002
}
  0
LINE
  5
5D1
330
1F
100
AcDbEntity
  8
0
100
AcDbLine
 10
16.09970447321893
 20
73.99973361791859
 30
0.0
 11
16.09970447332449
 21
6.359722389786227
 31
0.0
1001
GENIUS_GENOBJ-N-CEN_13
1002
{
1000
OWNER
1000
GEN
1002
}
1001
GENIUS_GENODEF_13
1002
{
1000
HIER
1070
     0
1002
}
1002
{
1000
MANEDIT
1070
     0
1002
}
1002
{
1000
NOSEL
1070
     0
1002
}
1002
{
1000
BEHIND
1070
     0
1002
}
1002
{
1000
OTHER
1070
     0
1002
}
1002
{
1000
REACTOR
1002
}
  0
LINE
  5
5D2
330
1F
100
AcDbEntity
  8
0
100
AcDbLine
 10
191.0997044733499
 20
141.998503882377
 30
0.0
 11
191.0997044733499
 21
140.8583281658656
 31
0.0
1001
GENIUS_GENODEF_13
1002
{
1000
HIER
1070
     0
1002
}
1002
{
1000
MANEDIT
1070
     0
1002
}
1002
{
1000
NOSEL
1070
     0
1002
}
1002
{
1000
BEHIND
1070
     0
1002
}
1002
{
1000
OTHER
1070
     0
1002
}
1002
{
1000
REACTOR
1002
}
1001
GENIUS_GENOBJ-N-CEN_13
1002
{
1000
OWNER
1000
GEN
1002
}
  0
LINE
  5
5D3
330
1F
100
AcDbEntity
  8
0
100
AcDbLine
 10
191.4997044733499
 20
141.9985038823771
 30
0.0
 11
191.4997044733499
 21
140.8583281658657
 31
0.0
1001
GENIUS_GENODEF_13
1002
{
1000
HIER
1070
     0
1002
}
1002
{
1000
MANEDIT
1070
     0
1002
}
1002
{
1000
NOSEL
1070
     0
1002
}
1002
{
1000
BEHIND
1070
     0
1002
}
1002
{
1000
OTHER
1070
     0
1002
}
1002
{
1000
REACTOR
1002
}
1001
GENIUS_GENOBJ-N-CEN_13
1002
{
1000
OWNER
1000
GEN
1002
}
  0
LINE
  5
5D4
330
1F
100
AcDbEntity
  8
0
100
AcDbLine
 10
197.7397166487789
 20
49.99973361791551
 30
0.0
 11
184.8596922979275
 21
49.99973361791551
 31
0.0
  0
ARC
  5
5D5
330
1F
100
AcDbEntity
  8
0
100
AcDbCircle
 10
184.8596922979275
 20
51.49973361791551
 30
0.0
 40
1.5
100
AcDbArc
 50
180.0099657214214
 51
270.0
1001
GENIUS_GENODEF_13
1002
{
1000
HIER
1070
     0
1002
}
1002
{
1000
MANEDIT
1070
     0
1002
}
1002
{
1000
NOSEL
1070
     0
1002
}
1002
{
1000
BEHIND
1070
     0
1002
}
1002
{
1000
OTHER
1070
     0
1002
}
1002
{
1000
REACTOR
1002
}
1001
GENIUS_GENOBJ-N-FIL_13
1002
{
1000
OWNER
1000
GEN
1002
}
  0
ARC
  5
5D6
330
1F
100
AcDbEntity
  8
0
100
AcDbCircle
 10
197.7397166487789
 20
51.49973361791551
 30
0.0
 40
1.5
100
AcDbArc
 50
270.0
 51
359.9900342785807
1001
GENIUS_GENODEF_13
1002
{
1000
HIER
1070
     0
1002
}
1002
{
1000
MANEDIT
1070
     0
1002
}
1002
{
1000
NOSEL
1070
     0
1002
}
1002
{
1000
BEHIND
1070
     0
1002
}
1002
{
1000
OTHER
1070
     0
1002
}
1002
{
1000
REACTOR
1002
}
1001
GENIUS_GENOBJ-N-FIL_13
1002
{
1000
OWNER
1000
GEN
1002
}
  0
LINE
  5
5D7
330
1F
100
AcDbEntity
  8
0
100
AcDbLine
 10
197.7397166487789
 20
50.4997336179155
 30
0.0
 11
184.8596922979275
 21
50.4997336179155
 31
0.0
  0
ARC
  5
5D8
330
1F
100
AcDbEntity
  8
0
100
AcDbCircle
 10
184.8596922979275
 20
51.49973361791551
 30
0.0
 40
1.0
100
AcDbArc
 50
180.0099657214214
 51
270.0000000000017
1001
GENIUS_GENOBJ-N-FIL_13
1002
{
1000
OWNER
1000
GEN
1002
}
1001
GENIUS_GENODEF_13
1002
{
1000
HIER
1070
     0
1002
}
1002
{
1000
MANEDIT
1070
     0
1002
}
1002
{
1000
NOSEL
1070
     0
1002
}
1002
{
1000
BEHIND
1070
     0
1002
}
1002
{
1000
OTHER
1070
     0
1002
}
1002
{
1000
REACTOR
1002
}
  0
ARC
  5
5D9
330
1F
100
AcDbEntity
  8
0
100
AcDbCircle
 10
197.7397166487789
 20
51.49973361791551
 30
0.0
 40
1.0
100
AcDbArc
 50
270.0000000000017
 51
359.9900342785819
1001
GENIUS_GENOBJ-N-FIL_13
1002
{
1000
OWNER
1000
GEN
1002
}
1001
GENIUS_GENODEF_13
1002
{
1000
HIER
1070
     0
1002
}
1002
{
1000
MANEDIT
1070
     0
1002
}
1002
{
1000
NOSEL
1070
     0
1002
}
1002
{
1000
BEHIND
1070
     0
1002
}
1002
{
1000
OTHER
1070
     0
1002
}
1002
{
1000
REACTOR
1002
}
  0
SPLINE
  5
5DA
330
1F
100
AcDbEntity
  8
0
100
AcDbSpline
210
0.0
220
0.0
230
1.0
 70
     8
 71
     3
 72
     8
 73
     4
 74
     0
 42
0.0000000001
 43
0.0000000001
 40
4.69949232833282
 40
4.69949232833282
 40
4.69949232833282
 40
4.69949232833282
 40
4.725286618744624
 40
4.725286618744624
 40
4.725286618744624
 40
4.725286618744624
 10
191.4997044733499
 20
141.498440533365
 30
0.0
 10
191.3663774701531
 20
141.5001121838704
 30
0.0
 10
191.2330294853846
 20
141.500081653456
 30
0.0
 10
191.09970447335
 20
141.4983548421766
 30
0.0
  0
ELLIPSE
  5
5DB
330
1F
100
AcDbEntity
  8
0
100
AcDbEllipse
 10
191.299704473353
 20
126.2597336179156
 30
0.0
 11
-15.99999999999999
 21
-0.0000000000000284
 31
0.0
210
0.0
220
0.0
230
1.0
 40
0.98374999999999
 41
4.724889305928606
 42
6.283185307179584
  0
LINE
  5
5DC
330
1F
100
AcDbEntity
  8
0
100
AcDbLine
 10
191.099704473352
 20
49.99973361791551
 30
0.0
 11
191.0997044733522
 21
41.99973361791551
 31
0.0
1001
GENIUS_GENODEF_13
1002
{
1000
HIER
1070
     0
1002
}
1002
{
1000
MANEDIT
1070
     0
1002
}
1002
{
1000
NOSEL
1070
     0
1002
}
1002
{
1000
BEHIND
1070
     0
1002
}
1002
{
1000
OTHER
1070
     0
1002
}
1002
{
1000
REACTOR
1002
}
1001
GENIUS_GENOBJ-N-CEN_13
1002
{
1000
OWNER
1000
GEN
1002
}
  0
LINE
  5
5DD
330
1F
100
AcDbEntity
  8
0
100
AcDbLine
 10
191.4997044733521
 20
49.99973361791551
 30
0.0
 11
191.4997044733522
 21
41.99973361791551
 31
0.0
1001
GENIUS_GENODEF_13
1002
{
1000
HIER
1070
     0
1002
}
1002
{
1000
MANEDIT
1070
     0
1002
}
1002
{
1000
NOSEL
1070
     0
1002
}
1002
{
1000
BEHIND
1070
     0
1002
}
1002
{
1000
OTHER
1070
     0
1002
}
1002
{
1000
REACTOR
1002
}
1001
GENIUS_GENOBJ-N-CEN_13
1002
{
1000
OWNER
1000
GEN
1002
}
  0
LINE
  5
5DE
330
1F
100
AcDbEntity
  8
0
100
AcDbLine
 10
235.5489894133108
 20
110.6997336179154
 30
0.0
 11
234.5486504712753
 21
110.6997336179154
 31
0.0
  0
LINE
  5
5DF
330
1F
100
AcDbEntity
  8
0
100
AcDbLine
 10
235.2897442227614
 20
97.2997336179155
 30
0.0
 11
234.2896643753437
 21
97.2997336179155
 31
0.0
  0
LINE
  5
5E0
330
1F
100
AcDbEntity
  8
0
100
AcDbLine
 10
235.2238292521359
 20
89.94973361791551
 30
0.0
 11
234.2238152600159
 21
89.94973361791551
 31
0.0
  0
LINE
  5
5E1
330
1F
100
AcDbEntity
  8
0
100
AcDbLine
 10
235.2099004040331
 20
85.04973361791542
 30
0.0
 11
234.2099003270419
 21
85.04973361791552
 31
0.0
  0
LINE
  5
5E2
330
1F
100
AcDbEntity
  8
0
100
AcDbLine
 10
235.2186744737923
 20
80.44973361791551
 30
0.0
 11
234.2186656314185
 21
80.44973361791551
 31
0.0
  0
LINE
  5
5E3
330
1F
100
AcDbEntity
  8
0
100
AcDbLine
 10
235.2512965446116
 20
75.54973361791549
 30
0.0
 11
234.2512551111188
 21
75.54973361791549
 31
0.0
  0
LINE
  5
5E4
330
1F
100
AcDbEntity
  8
0
100
AcDbLine
 10
235.3030881254873
 20
70.9998668038493
 30
0.0
 11
234.3029949451918
 21
70.9998668038493
 31
0.0
  0
LINE
  5
5E5
330
1F
100
AcDbEntity
  8
0
100
AcDbLine
 10
235.3829559526175
 20
66.04973361791549
 30
0.0
 11
234.3827829630552
 21
66.04973361791549
 31
0.0
  0
LINE
  5
5E6
330
1F
100
AcDbEntity
  8
0
100
AcDbLine
 10
235.4791512645233
 20
61.44973361791549
 30
0.0
 11
234.4788821332777
 21
61.44973361791549
 31
0.0
  0
LINE
  5
5E7
330
1F
100
AcDbEntity
  8
0
100
AcDbLine
 10
235.6049142941666
 20
56.54973361791551
 30
0.0
 11
234.6045194421358
 21
56.54973361791551
 31
0.0
  0
ARC
  5
5E8
330
1F
100
AcDbEntity
  8
0
100
AcDbCircle
 10
-857.6104143891486
 20
84.6571315724535
 30
0.0
 40
1001.0
100
AcDbArc
 50
358.3909620628127
 51
358.6715233721092
  0
ARC
  5
5E9
330
1F
100
AcDbEntity
  8
0
100
AcDbCircle
 10
1235.209823335847
 20
84.65713157243262
 30
0.0
 40
1001.0
100
AcDbArc
 50
178.5091912447239
 51
179.2763366646188
  0
LINE
  5
5EA
330
1F
100
AcDbEntity
  8
0
100
AcDbLine
 10
142.994889504562
 20
56.54973361791551
 30
0.0
 11
141.9944946525313
 21
56.54973361791551
 31
0.0
  0
LINE
  5
5EB
330
1F
100
AcDbEntity
  8
0
100
AcDbLine
 10
143.1205268134204
 20
61.44973361791549
 30
0.0
 11
142.1202576821745
 21
61.44973361791549
 31
0.0
  0
LINE
  5
5EC
330
1F
100
AcDbEntity
  8
0
100
AcDbLine
 10
143.216625983643
 20
66.04973361791549
 30
0.0
 11
142.2164529940805
 21
66.04973361791549
 31
0.0
  0
LINE
  5
5ED
330
1F
100
AcDbEntity
  8
0
100
AcDbLine
 10
143.2964140015064
 20
70.99986680384919
 30
0.0
 11
142.296320821211
 21
70.9998668038493
 31
0.0
  0
LINE
  5
5EE
330
1F
100
AcDbEntity
  8
0
100
AcDbLine
 10
143.3481538355795
 20
75.54973361791549
 30
0.0
 11
142.3481124020868
 21
75.54973361791549
 31
0.0
  0
LINE
  5
5EF
330
1F
100
AcDbEntity
  8
0
100
AcDbLine
 10
143.3807433152798
 20
80.44973361791551
 30
0.0
 11
142.380734472906
 21
80.44973361791539
 31
0.0
  0
LINE
  5
5F0
330
1F
100
AcDbEntity
  8
0
100
AcDbLine
 10
143.3895086196565
 20
85.04973361791552
 30
0.0
 11
142.3895085426653
 21
85.04973361791552
 31
0.0
  0
LINE
  5
5F1
330
1F
100
AcDbEntity
  8
0
100
AcDbLine
 10
143.3755936866828
 20
89.94973361791551
 30
0.0
 11
142.3755796945625
 21
89.94973361791551
 31
0.0
  0
LINE
  5
5F2
330
1F
100
AcDbEntity
  8
0
100
AcDbLine
 10
143.0507584754239
 20
110.6997336179154
 30
0.0
 11
142.0504195333883
 21
110.6997336179154
 31
0.0
  0
LINE
  5
5F3
330
1F
100
AcDbEntity
  8
0
100
AcDbLine
 10
143.309744571355
 20
97.2997336179155
 30
0.0
 11
142.3096647239374
 21
97.2997336179155
 31
0.0
  0
ARC
  5
5F4
330
1F
100
AcDbEntity
  8
0
100
AcDbCircle
 10
-857.6104143891486
 20
84.6571315724535
 30
0.0
 40
1001.0
100
AcDbArc
 50
358.9348783427528
 51
359.2182538362298
  0
ARC
  5
5F5
330
1F
100
AcDbEntity
  8
0
100
AcDbCircle
 10
-857.6104143891486
 20
84.6571315724535
 30
0.0
 40
1001.0
100
AcDbArc
 50
359.4786986367217
 51
359.7591739706838
  0
ARC
  5
5F6
330
1F
100
AcDbEntity
  8
0
100
AcDbCircle
 10
-857.6104143891486
 20
84.6571315724535
 30
0.0
 40
1001.0
100
AcDbArc
 50
0.0224719688409224
 51
0.3029422305328681
  0
ARC
  5
5F7
330
1F
100
AcDbEntity
  8
0
100
AcDbCircle
 10
-857.6104143891486
 20
84.6571315724535
 30
0.0
 40
1001.0
100
AcDbArc
 50
0.7236633353799246
 51
1.490808755274811
  0
ARC
  5
5F8
330
1F
100
AcDbEntity
  8
0
100
AcDbCircle
 10
1235.209823335847
 20
84.65713157243262
 30
0.0
 40
1001.0
100
AcDbArc
 50
179.6970577694659
 51
179.9775280311578
  0
ARC
  5
5F9
330
1F
100
AcDbEntity
  8
0
100
AcDbCircle
 10
1235.209823335847
 20
84.65713157243262
 30
0.0
 40
1001.0
100
AcDbArc
 50
180.240826029315
 51
180.5213013632766
  0
ARC
  5
5FA
330
1F
100
AcDbEntity
  8
0
100
AcDbCircle
 10
1235.209823335847
 20
84.65713157243262
 30
0.0
 40
1001.0
100
AcDbArc
 50
180.7817461637689
 51
181.0651216572458
  0
ARC
  5
5FB
330
1F
100
AcDbEntity
  8
0
100
AcDbCircle
 10
1235.209823335847
 20
84.65713157243262
 30
0.0
 40
1001.0
100
AcDbArc
 50
181.3284766278895
 51
181.6090379371861
  0
ARC
  5
5FC
330
1F
100
AcDbEntity
  8
0
100
AcDbCircle
 10
9.799704473188967
 20
94.4997336179189
 30
0.0
 40
0.5
100
AcDbArc
 50
89.99999999999756
 51
180.0000000000879
1001
GENIUS_GENOBJ-N-CEN_13
1002
{
1000
OWNER
1000
GEN
1002
}
1001
GENIUS_GENOBJ-N-FIL_13
1002
{
1000
OWNER
1000
GEN
1002
}
1001
GENIUS_GENODEF_13
1002
{
1000
HIER
1070
     0
1002
}
1002
{
1000
MANEDIT
1070
     0
1002
}
1002
{
1000
NOSEL
1070
     0
1002
}
1002
{
1000
BEHIND
1070
     0
1002
}
1002
{
1000
OTHER
1070
     0
1002
}
1002
{
1000
REACTOR
1002
}
  0
ARC
  5
5FD
330
1F
100
AcDbEntity
  8
0
100
AcDbCircle
 10
22.79970447318897
 20
94.4997336179184
 30
0.0
 40
0.5
100
AcDbArc
 50
0.000000000087936
 51
89.99999999999735
1001
GENIUS_GENOBJ-N-CEN_13
1002
{
1000
OWNER
1000
GEN
1002
}
1001
GENIUS_GENODEF_13
1002
{
1000
HIER
1070
     0
1002
}
1002
{
1000
MANEDIT
1070
     0
1002
}
1002
{
1000
NOSEL
1070
     0
1002
}
1002
{
1000
BEHIND
1070
     0
1002
}
1002
{
1000
OTHER
1070
     0
1002
}
1002
{
1000
REACTOR
1002
}
1001
GENIUS_GENOBJ-N-FIL_13
1002
{
1000
OWNER
1000
GEN
1002
}
  0
ARC
  5
5FE
330
1F
100
AcDbEntity
  8
0
100
AcDbCircle
 10
22.79970447321819
 20
74.49973361791828
 30
0.0
 40
0.5
100
AcDbArc
 50
269.9999999999976
 51
0.000000000087936
1001
GENIUS_GENOBJ-N-CEN_13
1002
{
1000
OWNER
1000
GEN
1002
}
1001
GENIUS_GENODEF_13
1002
{
1000
HIER
1070
     0
1002
}
1002
{
1000
MANEDIT
1070
     0
1002
}
1002
{
1000
NOSEL
1070
     0
1002
}
1002
{
1000
BEHIND
1070
     0
1002
}
1002
{
1000
OTHER
1070
     0
1002
}
1002
{
1000
REACTOR
1002
}
1001
GENIUS_GENOBJ-N-FIL_13
1002
{
1000
OWNER
1000
GEN
1002
}
  0
ARC
  5
5FF
330
1F
100
AcDbEntity
  8
0
100
AcDbCircle
 10
9.799704473218193
 20
74.4997336179189
 30
0.0
 40
0.5
100
AcDbArc
 50
180.0000000000879
 51
269.9999999999976
1001
GENIUS_GENOBJ-N-CEN_13
1002
{
1000
OWNER
1000
GEN
1002
}
1001
GENIUS_GENOBJ-N-FIL_13
1002
{
1000
OWNER
1000
GEN
1002
}
1001
GENIUS_GENODEF_13
1002
{
1000
HIER
1070
     0
1002
}
1002
{
1000
MANEDIT
1070
     0
1002
}
1002
{
1000
NOSEL
1070
     0
1002
}
1002
{
1000
BEHIND
1070
     0
1002
}
1002
{
1000
OTHER
1070
     0
1002
}
1002
{
1000
REACTOR
1002
}
  0
LINE
  5
600
330
1F
100
AcDbEntity
  8
0
100
AcDbLine
 10
9.29970447318788
 20
87.59973361791891
 30
0.0
 11
23.29970447318789
 21
87.59973361791827
 31
0.0
1001
GENIUS_GENODEF_13
1002
{
1000
HIER
1070
     0
1002
}
1002
{
1000
MANEDIT
1070
     0
1002
}
1002
{
1000
NOSEL
1070
     0
1002
}
1002
{
1000
BEHIND
1070
     0
1002
}
1002
{
1000
OTHER
1070
     0
1002
}
1002
{
1000
REACTOR
1002
}
1001
GENIUS_GENOBJ-N-CEN_13
1002
{
1000
OWNER
1000
GEN
1002
}
  0
LINE
  5
601
330
1F
100
AcDbEntity
  8
0
100
AcDbLine
 10
9.999704473203117
 20
85.29973361791878
 30
0.0
 11
22.59970447320307
 21
85.2997336179183
 31
0.0
1001
GENIUS_GENODEF_13
1002
{
1000
HIER
1070
     0
1002
}
1002
{
1000
MANEDIT
1070
     0
1002
}
1002
{
1000
NOSEL
1070
     0
1002
}
1002
{
1000
BEHIND
1070
     0
1002
}
1002
{
1000
OTHER
1070
     0
1002
}
1002
{
1000
REACTOR
1002
}
1001
GENIUS_GENOBJ-N-CEN_13
1002
{
1000
OWNER
1000
GEN
1002
}
  0
LINE
  5
602
330
1F
100
AcDbEntity
  8
0
100
AcDbLine
 10
9.999704473203117
 20
85.29973361791878
 30
0.0
 11
9.999704473217944
 21
74.69973361791881
 31
0.0
1001
GENIUS_GENOBJ-N-CEN_13
1002
{
1000
OWNER
1000
GEN
1002
}
1001
GENIUS_GENODEF_13
1002
{
1000
HIER
1070
     0
1002
}
1002
{
1000
MANEDIT
1070
     0
1002
}
1002
{
1000
NOSEL
1070
     0
1002
}
1002
{
1000
BEHIND
1070
     0
1002
}
1002
{
1000
OTHER
1070
     0
1002
}
1002
{
1000
REACTOR
1002
}
  0
LINE
  5
603
330
1F
100
AcDbEntity
  8
0
100
AcDbLine
 10
22.59970447320307
 20
85.2997336179183
 30
0.0
 11
22.59970447321796
 21
74.69973361791838
 31
0.0
1001
GENIUS_GENOBJ-N-CEN_13
1002
{
1000
OWNER
1000
GEN
1002
}
1001
GENIUS_GENODEF_13
1002
{
1000
HIER
1070
     0
1002
}
1002
{
1000
MANEDIT
1070
     0
1002
}
1002
{
1000
NOSEL
1070
     0
1002
}
1002
{
1000
BEHIND
1070
     0
1002
}
1002
{
1000
OTHER
1070
     0
1002
}
1002
{
1000
REACTOR
1002
}
  0
LINE
  5
604
330
1F
100
AcDbEntity
  8
0
100
AcDbLine
 10
9.999704473217944
 20
74.69973361791881
 30
0.0
 11
22.59970447321796
 21
74.69973361791838
 31
0.0
1001
GENIUS_GENODEF_13
1002
{
1000
HIER
1070
     0
1002
}
1002
{
1000
MANEDIT
1070
     0
1002
}
1002
{
1000
NOSEL
1070
     0
1002
}
1002
{
1000
BEHIND
1070
     0
1002
}
1002
{
1000
OTHER
1070
     0
1002
}
1002
{
1000
REACTOR
1002
}
1001
GENIUS_GENOBJ-N-CEN_13
1002
{
1000
OWNER
1000
GEN
1002
}
  0
LINE
  5
605
330
1F
100
AcDbEntity
  8
0
100
AcDbLine
 10
95.57000661217207
 20
1.85430373544713
 30
0.0
 11
111.5582966834234
 21
0.5767994993677519
 31
0.0
  0
ARC
  5
606
330
1F
100
AcDbEntity
  8
0
100
AcDbCircle
 10
17.68419555135006
 20
77.90551141205148
 30
0.0
 40
160.0
100
AcDbArc
 50
0.7755566674846679
 51
6.598440054223376
1001
GENIUS_GENODEF_13
1002
{
1000
HIER
1070
     0
1002
}
1002
{
1000
MANEDIT
1070
     0
1002
}
1002
{
1000
NOSEL
1070
     0
1002
}
1002
{
1000
BEHIND
1070
     0
1002
}
1002
{
1000
OTHER
1070
     0
1002
}
1002
{
1000
REACTOR
1002
}
1001
GENIUS_GENOBJ-N-FIL_13
1002
{
1000
OWNER
1000
GEN
1002
}
  0
ARC
  5
607
330
1F
100
AcDbEntity
  8
0
100
AcDbCircle
 10
364.9196557598035
 20
78.23154538075678
 30
0.0
 40
160.0
100
AcDbArc
 50
173.407715651142
 51
179.2142900149254
1001
GENIUS_GENODEF_13
1002
{
1000
HIER
1070
     0
1002
}
1002
{
1000
MANEDIT
1070
     0
1002
}
1002
{
1000
NOSEL
1070
     0
1002
}
1002
{
1000
BEHIND
1070
     0
1002
}
1002
{
1000
OTHER
1070
     0
1002
}
1002
{
1000
REACTOR
1002
}
1001
GENIUS_GENOBJ-N-FIL_13
1002
{
1000
OWNER
1000
GEN
1002
}
  0
ARC
  5
608
330
1F
100
AcDbEntity
  8
0
100
AcDbCircle
 10
-157.3202468131132
 20
78.23154538077128
 30
0.0
 40
160.0
100
AcDbArc
 50
0.7857099850721383
 51
6.592284348854723
1001
GENIUS_GENOBJ-N-FIL_13
1002
{
1000
OWNER
1000
GEN
1002
}
1001
GENIUS_GENODEF_13
1002
{
1000
HIER
1070
     0
1002
}
1002
{
1000
MANEDIT
1070
     0
1002
}
1002
{
1000
NOSEL
1070
     0
1002
}
1002
{
1000
BEHIND
1070
     0
1002
}
1002
{
1000
OTHER
1070
     0
1002
}
1002
{
1000
REACTOR
1002
}
  0
ARC
  5
609
330
1F
100
AcDbEntity
  8
0
100
AcDbCircle
 10
189.9152133953407
 20
77.90551141204741
 30
0.0
 40
160.0
100
AcDbArc
 50
173.401559945774
 51
179.2244433325129
1001
GENIUS_GENOBJ-N-FIL_13
1002
{
1000
OWNER
1000
GEN
1002
}
1001
GENIUS_GENODEF_13
1002
{
1000
HIER
1070
     0
1002
}
1002
{
1000
MANEDIT
1070
     0
1002
}
1002
{
1000
NOSEL
1070
     0
1002
}
1002
{
1000
BEHIND
1070
     0
1002
}
1002
{
1000
OTHER
1070
     0
1002
}
1002
{
1000
REACTOR
1002
}
  0
ARC
  5
60A
330
1F
100
AcDbEntity
  8
0
100
AcDbCircle
 10
187.6400020031919
 20
51.35879580519439
 30
0.0
 40
160.0
100
AcDbArc
 50
179.9996863974297
 51
183.3898449465186
  0
LINE
  5
60B
330
1F
100
AcDbEntity
  8
0
100
AcDbLine
 10
19.49970138374765
 20
6.359722389786227
 30
0.0
 11
19.49970138374765
 21
4.519722389786237
 31
0.0
  0
ELLIPSE
  5
60C
330
1F
100
AcDbEntity
  8
0
100
AcDbEllipse
 10
8.397405622764665
 20
118.9997336179185
 30
0.0
 11
-2.09773433663198
 21
0.0000000000000448
 31
0.0
210
0.0
220
0.0
230
1.0
 40
0.5753333635477999
 41
3.859128061423152
 42
9.190159774811318
  0
ELLIPSE
  5
60D
330
1F
100
AcDbEntity
  8
0
100
AcDbEllipse
 10
8.540864580140294
 20
118.9997336179185
 30
0.0
 11
1.321653064122584
 21
0.0000000000000004
 31
0.0
210
0.0
220
0.0
230
1.0
 40
0.6522657033973779
 41
0.331498499987813
 42
5.951686807191772
  0
ELLIPSE
  5
60E
330
1F
100
AcDbEntity
  8
0
100
AcDbEllipse
 10
24.23077214330471
 20
118.9997336179185
 30
0.0
 11
2.068965517241366
 21
0.0
 31
0.0
210
0.0
220
0.0
230
1.0
 40
0.5833333335538823
 41
3.141592653589792
 42
6.283185307179584
  0
ELLIPSE
  5
60F
330
1F
100
AcDbEntity
  8
0
100
AcDbEllipse
 10
24.23080533051149
 20
118.9997336179185
 30
0.0
 11
-1.14945847456305
 21
0.0000000000000006
 31
0.0
210
0.0
220
0.0
230
1.0
 40
0.7499783459728237
 41
0.0
 42
6.283185307179584
  0
LINE
  5
610
330
1F
100
AcDbEntity
  8
0
100
AcDbLine
 10
21.58709398238523
 20
117.7928370661944
 30
0.0
 11
20.62163479426897
 21
117.7928370661944
 31
0.0
  0
LINE
  5
611
330
1F
100
AcDbEntity
  8
0
100
AcDbLine
 10
15.15031237318988
 20
117.7928370661944
 30
0.0
 11
13.31123191341976
 21
117.7928370661944
 31
0.0
  0
LINE
  5
612
330
1F
100
AcDbEntity
  8
0
100
AcDbLine
 10
12.21927789043128
 20
118.7985841926312
 30
0.0
 11
13.7710020283622
 21
118.7985841926312
 31
0.0
  0
LINE
  5
613
330
1F
100
AcDbEntity
  8
0
100
AcDbLine
 10
12.21927789043128
 20
119.2008830432059
 30
0.0
 11
13.7710020283622
 21
119.2008830432059
 31
0.0
  0
LINE
  5
614
330
1F
100
AcDbEntity
  8
0
100
AcDbLine
 10
13.7710020283622
 20
119.8618025834358
 30
0.0
 11
13.31123191341976
 21
119.8618025834358
 31
0.0
  0
LINE
  5
615
330
1F
100
AcDbEntity
  8
0
100
AcDbLine
 10
13.7710020283622
 20
118.1376646524012
 30
0.0
 11
13.31123191341976
 21
118.1376646524012
 31
0.0
  0
LINE
  5
616
330
1F
100
AcDbEntity
  8
0
100
AcDbLine
 10
10.43766869502894
 20
119.2803028493711
 30
0.0
 11
9.790561172396225
 21
119.2803028493711
 31
0.0
  0
LINE
  5
617
330
1F
100
AcDbEntity
  8
0
100
AcDbLine
 10
10.43766869502894
 20
118.719164386466
 30
0.0
 11
9.790561172396225
 21
118.719164386466
 31
0.0
  0
LINE
  5
618
330
1F
100
AcDbEntity
  8
0
100
AcDbLine
 10
9.977898580086396
 20
120.2066301696427
 30
0.0
 11
9.977898580086396
 21
119.7933040380923
 31
0.0
  0
LINE
  5
619
330
1F
100
AcDbEntity
  8
0
100
AcDbLine
 10
10.43766869502894
 20
120.2066301696427
 30
0.0
 11
10.43766869502894
 21
119.2803028493711
 31
0.0
  0
LINE
  5
61A
330
1F
100
AcDbEntity
  8
0
100
AcDbLine
 10
12.67904800537372
 20
117.7928370661944
 30
0.0
 11
10.8399675456036
 21
117.7928370661944
 31
0.0
  0
LINE
  5
61B
330
1F
100
AcDbEntity
  8
0
100
AcDbLine
 10
11.29973766054615
 20
119.8618025834358
 30
0.0
 11
10.8399675456036
 21
119.8618025834358
 31
0.0
  0
LINE
  5
61C
330
1F
100
AcDbEntity
  8
0
100
AcDbLine
 10
11.29973766054615
 20
118.1376646524012
 30
0.0
 11
10.8399675456036
 21
118.1376646524012
 31
0.0
  0
LINE
  5
61D
330
1F
100
AcDbEntity
  8
0
100
AcDbLine
 10
10.8399675456036
 20
118.1376646524012
 30
0.0
 11
10.8399675456036
 21
117.7928370661944
 31
0.0
  0
LINE
  5
61E
330
1F
100
AcDbEntity
  8
0
100
AcDbLine
 10
11.29973766054615
 20
119.8618025834358
 30
0.0
 11
11.29973766054615
 21
118.1376646524012
 31
0.0
  0
LINE
  5
61F
330
1F
100
AcDbEntity
  8
0
100
AcDbLine
 10
10.8399675456036
 20
120.2066301696427
 30
0.0
 11
10.8399675456036
 21
119.8618025834358
 31
0.0
  0
LINE
  5
620
330
1F
100
AcDbEntity
  8
0
100
AcDbLine
 10
12.21927789043128
 20
118.7985841926312
 30
0.0
 11
12.21927789043128
 21
118.1376646524012
 31
0.0
  0
LINE
  5
621
330
1F
100
AcDbEntity
  8
0
100
AcDbLine
 10
12.67904800537372
 20
119.8618025834358
 30
0.0
 11
12.21927789043128
 21
119.8618025834358
 31
0.0
  0
LINE
  5
622
330
1F
100
AcDbEntity
  8
0
100
AcDbLine
 10
12.67904800537372
 20
118.1376646524012
 30
0.0
 11
12.21927789043128
 21
118.1376646524012
 31
0.0
  0
LINE
  5
623
330
1F
100
AcDbEntity
  8
0
100
AcDbLine
 10
12.67904800537372
 20
118.1376646524012
 30
0.0
 11
12.67904800537372
 21
117.7928370661944
 31
0.0
  0
LINE
  5
624
330
1F
100
AcDbEntity
  8
0
100
AcDbLine
 10
12.21927789043128
 20
119.8618025834358
 30
0.0
 11
12.21927789043128
 21
119.2008830432059
 31
0.0
  0
LINE
  5
625
330
1F
100
AcDbEntity
  8
0
100
AcDbLine
 10
12.67904800537372
 20
120.2066301696427
 30
0.0
 11
12.67904800537372
 21
119.8618025834358
 31
0.0
  0
LINE
  5
626
330
1F
100
AcDbEntity
  8
0
100
AcDbLine
 10
13.31123191341976
 20
118.1376646524012
 30
0.0
 11
13.31123191341976
 21
117.7928370661944
 31
0.0
  0
LINE
  5
627
330
1F
100
AcDbEntity
  8
0
100
AcDbLine
 10
13.31123191341976
 20
120.2066301696427
 30
0.0
 11
13.31123191341976
 21
119.8618025834358
 31
0.0
  0
LINE
  5
628
330
1F
100
AcDbEntity
  8
0
100
AcDbLine
 10
17.44916294790244
 20
119.8618025834358
 30
0.0
 11
16.98939283295998
 21
119.8618025834358
 31
0.0
  0
LINE
  5
629
330
1F
100
AcDbEntity
  8
0
100
AcDbLine
 10
17.44916294790244
 20
118.1376646524012
 30
0.0
 11
16.98939283295998
 21
118.1376646524012
 31
0.0
  0
LINE
  5
62A
330
1F
100
AcDbEntity
  8
0
100
AcDbLine
 10
17.44916294790244
 20
117.7928370661944
 30
0.0
 11
15.61008248813231
 21
117.7928370661944
 31
0.0
  0
LINE
  5
62B
330
1F
100
AcDbEntity
  8
0
100
AcDbLine
 10
15.15031237318988
 20
119.8618025834358
 30
0.0
 11
14.69054225824731
 21
119.8618025834358
 31
0.0
  0
LINE
  5
62C
330
1F
100
AcDbEntity
  8
0
100
AcDbLine
 10
15.15031237318988
 20
118.1376646524012
 30
0.0
 11
14.69054225824731
 21
118.1376646524012
 31
0.0
  0
LINE
  5
62D
330
1F
100
AcDbEntity
  8
0
100
AcDbLine
 10
13.7710020283622
 20
118.7985841926312
 30
0.0
 11
13.7710020283622
 21
118.1376646524012
 31
0.0
  0
LINE
  5
62E
330
1F
100
AcDbEntity
  8
0
100
AcDbLine
 10
13.7710020283622
 20
119.8618025834358
 30
0.0
 11
13.7710020283622
 21
119.2008830432059
 31
0.0
  0
LINE
  5
62F
330
1F
100
AcDbEntity
  8
0
100
AcDbLine
 10
14.69054225824731
 20
119.8618025834358
 30
0.0
 11
14.69054225824731
 21
118.1376646524012
 31
0.0
  0
LINE
  5
630
330
1F
100
AcDbEntity
  8
0
100
AcDbLine
 10
15.15031237318988
 20
118.1376646524012
 30
0.0
 11
15.15031237318988
 21
117.7928370661944
 31
0.0
  0
LINE
  5
631
330
1F
100
AcDbEntity
  8
0
100
AcDbLine
 10
15.15031237318988
 20
120.2066301696427
 30
0.0
 11
15.15031237318988
 21
119.8618025834358
 31
0.0
  0
LINE
  5
632
330
1F
100
AcDbEntity
  8
0
100
AcDbLine
 10
15.61008248813231
 20
118.1376646524012
 30
0.0
 11
15.61008248813231
 21
117.7928370661944
 31
0.0
  0
LINE
  5
633
330
1F
100
AcDbEntity
  8
0
100
AcDbLine
 10
16.06985260307488
 20
118.1376646524012
 30
0.0
 11
15.61008248813231
 21
118.1376646524012
 31
0.0
  0
LINE
  5
634
330
1F
100
AcDbEntity
  8
0
100
AcDbLine
 10
16.06985260307488
 20
119.8618025834358
 30
0.0
 11
15.61008248813231
 21
119.8618025834358
 31
0.0
  0
LINE
  5
635
330
1F
100
AcDbEntity
  8
0
100
AcDbLine
 10
15.61008248813231
 20
120.2066301696427
 30
0.0
 11
15.61008248813231
 21
119.8618025834358
 31
0.0
  0
LINE
  5
636
330
1F
100
AcDbEntity
  8
0
100
AcDbLine
 10
16.06985260307488
 20
119.8618025834358
 30
0.0
 11
16.06985260307488
 21
118.1376646524012
 31
0.0
  0
LINE
  5
637
330
1F
100
AcDbEntity
  8
0
100
AcDbLine
 10
16.98939283295998
 20
119.8618025834358
 30
0.0
 11
16.98939283295998
 21
118.1376646524012
 31
0.0
  0
LINE
  5
638
330
1F
100
AcDbEntity
  8
0
100
AcDbLine
 10
19.34571467204045
 20
117.7928370661944
 30
0.0
 11
17.90893306284498
 21
117.7928370661944
 31
0.0
  0
LINE
  5
639
330
1F
100
AcDbEntity
  8
0
100
AcDbLine
 10
18.36870317778754
 20
119.8618025834358
 30
0.0
 11
17.90893306284498
 21
119.8618025834358
 31
0.0
  0
LINE
  5
63A
330
1F
100
AcDbEntity
  8
0
100
AcDbLine
 10
18.36870317778754
 20
118.1376646524012
 30
0.0
 11
17.90893306284498
 21
118.1376646524012
 31
0.0
  0
LINE
  5
63B
330
1F
100
AcDbEntity
  8
0
100
AcDbLine
 10
17.90893306284498
 20
118.1376646524012
 30
0.0
 11
17.90893306284498
 21
117.7928370661944
 31
0.0
  0
LINE
  5
63C
330
1F
100
AcDbEntity
  8
0
100
AcDbLine
 10
18.36870317778754
 20
119.8618025834358
 30
0.0
 11
18.36870317778754
 21
118.1376646524012
 31
0.0
  0
LINE
  5
63D
330
1F
100
AcDbEntity
  8
0
100
AcDbLine
 10
17.90893306284498
 20
120.2066301696427
 30
0.0
 11
17.90893306284498
 21
119.8618025834358
 31
0.0
  0
LINE
  5
63E
330
1F
100
AcDbEntity
  8
0
100
AcDbLine
 10
17.44916294790244
 20
118.1376646524012
 30
0.0
 11
17.44916294790244
 21
117.7928370661944
 31
0.0
  0
LINE
  5
63F
330
1F
100
AcDbEntity
  8
0
100
AcDbLine
 10
17.44916294790244
 20
120.2066301696427
 30
0.0
 11
17.44916294790244
 21
119.8618025834358
 31
0.0
  0
LINE
  5
640
330
1F
100
AcDbEntity
  8
0
100
AcDbLine
 10
18.8859445570979
 20
119.5285273033654
 30
0.0
 11
20.62163479426897
 21
117.7928370661944
 31
0.0
  0
LINE
  5
641
330
1F
100
AcDbEntity
  8
0
100
AcDbLine
 10
18.8859445570979
 20
118.1376646524012
 30
0.0
 11
19.34571467204045
 21
118.1376646524012
 31
0.0
  0
LINE
  5
642
330
1F
100
AcDbEntity
  8
0
100
AcDbLine
 10
18.8859445570979
 20
119.5285273033654
 30
0.0
 11
18.8859445570979
 21
118.1376646524012
 31
0.0
  0
LINE
  5
643
330
1F
100
AcDbEntity
  8
0
100
AcDbLine
 10
21.06985260307488
 20
119.8618025834358
 30
0.0
 11
20.61008248813231
 21
119.8618025834358
 31
0.0
  0
LINE
  5
644
330
1F
100
AcDbEntity
  8
0
100
AcDbLine
 10
20.61008248813231
 20
120.2066301696426
 30
0.0
 11
20.61008248813231
 21
119.8618025834357
 31
0.0
  0
LINE
  5
645
330
1F
100
AcDbEntity
  8
0
100
AcDbLine
 10
21.06985260307488
 20
119.8618025834358
 30
0.0
 11
21.06985260307488
 21
118.4824922386082
 31
0.0
  0
LINE
  5
646
330
1F
100
AcDbEntity
  8
0
100
AcDbLine
 10
19.34571467204045
 20
120.2066301696427
 30
0.0
 11
21.06985260307488
 21
118.4824922386082
 31
0.0
  0
LINE
  5
647
330
1F
100
AcDbEntity
  8
0
100
AcDbLine
 10
19.34571467204045
 20
118.1376646524012
 30
0.0
 11
19.34571467204045
 21
117.7928370661944
 31
0.0
  0
LINE
  5
648
330
1F
100
AcDbEntity
  8
0
100
AcDbLine
 10
21.58709398238523
 20
119.8618025834358
 30
0.0
 11
21.58709398238523
 21
117.7928370661944
 31
0.0
  0
LINE
  5
649
330
1F
100
AcDbEntity
  8
0
100
AcDbLine
 10
22.04686409732778
 20
120.2066301696426
 30
0.0
 11
22.04686409732778
 21
119.8618025834357
 31
0.0
  0
LINE
  5
64A
330
1F
100
AcDbEntity
  8
0
100
AcDbLine
 10
22.04686409732778
 20
119.8618025834358
 30
0.0
 11
21.58709398238523
 21
119.8618025834358
 31
0.0
  0
ELLIPSE
  5
64B
330
1F
100
AcDbEntity
  8
0
100
AcDbEllipse
 10
24.23077214330471
 20
118.9997336179186
 30
0.0
 11
2.068965517241366
 21
0.0
 31
0.0
210
0.0
220
0.0
230
-1.0
 40
0.5833333335538823
 41
3.141592653589792
 42
6.283185307179584
  0
LINE
  5
64C
330
1F
100
AcDbEntity
  8
0
100
AcDbLine
 10
9.977898580086396
 20
120.2066301696427
 30
0.0
 11
10.43766869502894
 21
120.2066301696427
 31
0.0
  0
LINE
  5
64D
330
1F
100
AcDbEntity
  8
0
100
AcDbLine
 10
10.8399675456036
 20
120.2066301696427
 30
0.0
 11
12.67904800537372
 21
120.2066301696427
 31
0.0
  0
LINE
  5
64E
330
1F
100
AcDbEntity
  8
0
100
AcDbLine
 10
13.31123191341976
 20
120.2066301696427
 30
0.0
 11
15.15031237318988
 21
120.2066301696427
 31
0.0
  0
LINE
  5
64F
330
1F
100
AcDbEntity
  8
0
100
AcDbLine
 10
15.61008248813231
 20
120.2066301696427
 30
0.0
 11
17.44916294790244
 21
120.2066301696427
 31
0.0
  0
LINE
  5
650
330
1F
100
AcDbEntity
  8
0
100
AcDbLine
 10
17.90893306284498
 20
120.2066301696427
 30
0.0
 11
19.34571467204045
 21
120.2066301696427
 31
0.0
  0
LINE
  5
651
330
1F
100
AcDbEntity
  8
0
100
AcDbLine
 10
20.61008248813231
 20
120.2066301696426
 30
0.0
 11
22.04686409732778
 21
120.2066301696426
 31
0.0
  0
ELLIPSE
  5
652
330
1F
100
AcDbEntity
  8
0
100
AcDbEllipse
 10
255.8974056227758
 20
123.2245673426321
 30
0.0
 11
-2.09773433663198
 21
0.0000000000000448
 31
0.0
210
0.0
220
0.0
230
1.0
 40
0.5753333635477999
 41
3.859128061423152
 42
9.190159774811318
  0
ELLIPSE
  5
653
330
1F
100
AcDbEntity
  8
0
100
AcDbEllipse
 10
256.0408645801515
 20
123.2245673426321
 30
0.0
 11
1.321653064122584
 21
0.0000000000000004
 31
0.0
210
0.0
220
0.0
230
1.0
 40
0.6522657033973779
 41
0.331498499987813
 42
5.951686807191772
  0
ELLIPSE
  5
654
330
1F
100
AcDbEntity
  8
0
100
AcDbEllipse
 10
271.7307721433158
 20
123.2245673426321
 30
0.0
 11
2.068965517241366
 21
0.0
 31
0.0
210
0.0
220
0.0
230
1.0
 40
0.5833333335538823
 41
3.141592653589792
 42
6.283185307179584
  0
ELLIPSE
  5
655
330
1F
100
AcDbEntity
  8
0
100
AcDbEllipse
 10
271.7308053305226
 20
123.2245673426321
 30
0.0
 11
-1.14945847456305
 21
0.0000000000000006
 31
0.0
210
0.0
220
0.0
230
1.0
 40
0.7499783459728237
 41
0.0
 42
6.283185307179584
  0
LINE
  5
656
330
1F
100
AcDbEntity
  8
0
100
AcDbLine
 10
269.0870939823964
 20
122.0176707909079
 30
0.0
 11
268.12163479428
 21
122.0176707909079
 31
0.0
  0
LINE
  5
657
330
1F
100
AcDbEntity
  8
0
100
AcDbLine
 10
262.650312373201
 20
122.0176707909079
 30
0.0
 11
260.8112319134308
 21
122.0176707909079
 31
0.0
  0
LINE
  5
658
330
1F
100
AcDbEntity
  8
0
100
AcDbLine
 10
259.7192778904424
 20
123.0234179173446
 30
0.0
 11
261.2710020283734
 21
123.0234179173446
 31
0.0
  0
LINE
  5
659
330
1F
100
AcDbEntity
  8
0
100
AcDbLine
 10
259.7192778904424
 20
123.4257167679194
 30
0.0
 11
261.2710020283734
 21
123.4257167679194
 31
0.0
  0
LINE
  5
65A
330
1F
100
AcDbEntity
  8
0
100
AcDbLine
 10
261.2710020283734
 20
124.0866363081493
 30
0.0
 11
260.8112319134308
 21
124.0866363081493
 31
0.0
  0
LINE
  5
65B
330
1F
100
AcDbEntity
  8
0
100
AcDbLine
 10
261.2710020283734
 20
122.3624983771148
 30
0.0
 11
260.8112319134308
 21
122.3624983771148
 31
0.0
  0
LINE
  5
65C
330
1F
100
AcDbEntity
  8
0
100
AcDbLine
 10
257.9376686950401
 20
123.5051365740846
 30
0.0
 11
257.2905611724074
 21
123.5051365740846
 31
0.0
  0
LINE
  5
65D
330
1F
100
AcDbEntity
  8
0
100
AcDbLine
 10
257.9376686950401
 20
122.9439981111795
 30
0.0
 11
257.2905611724074
 21
122.9439981111795
 31
0.0
  0
LINE
  5
65E
330
1F
100
AcDbEntity
  8
0
100
AcDbLine
 10
257.4778985800975
 20
124.4314638943562
 30
0.0
 11
257.4778985800975
 21
124.0181377628059
 31
0.0
  0
LINE
  5
65F
330
1F
100
AcDbEntity
  8
0
100
AcDbLine
 10
257.9376686950401
 20
124.4314638943562
 30
0.0
 11
257.9376686950401
 21
123.5051365740846
 31
0.0
  0
LINE
  5
660
330
1F
100
AcDbEntity
  8
0
100
AcDbLine
 10
260.1790480053848
 20
122.0176707909079
 30
0.0
 11
258.3399675456147
 21
122.0176707909079
 31
0.0
  0
LINE
  5
661
330
1F
100
AcDbEntity
  8
0
100
AcDbLine
 10
258.7997376605573
 20
124.0866363081493
 30
0.0
 11
258.3399675456147
 21
124.0866363081493
 31
0.0
  0
LINE
  5
662
330
1F
100
AcDbEntity
  8
0
100
AcDbLine
 10
258.7997376605573
 20
122.3624983771148
 30
0.0
 11
258.3399675456147
 21
122.3624983771148
 31
0.0
  0
LINE
  5
663
330
1F
100
AcDbEntity
  8
0
100
AcDbLine
 10
258.3399675456147
 20
122.3624983771148
 30
0.0
 11
258.3399675456147
 21
122.0176707909079
 31
0.0
  0
LINE
  5
664
330
1F
100
AcDbEntity
  8
0
100
AcDbLine
 10
258.7997376605573
 20
124.0866363081493
 30
0.0
 11
258.7997376605573
 21
122.3624983771148
 31
0.0
  0
LINE
  5
665
330
1F
100
AcDbEntity
  8
0
100
AcDbLine
 10
258.3399675456147
 20
124.4314638943562
 30
0.0
 11
258.3399675456147
 21
124.0866363081493
 31
0.0
  0
LINE
  5
666
330
1F
100
AcDbEntity
  8
0
100
AcDbLine
 10
259.7192778904424
 20
123.0234179173446
 30
0.0
 11
259.7192778904424
 21
122.3624983771148
 31
0.0
  0
LINE
  5
667
330
1F
100
AcDbEntity
  8
0
100
AcDbLine
 10
260.1790480053848
 20
124.0866363081493
 30
0.0
 11
259.7192778904424
 21
124.0866363081493
 31
0.0
  0
LINE
  5
668
330
1F
100
AcDbEntity
  8
0
100
AcDbLine
 10
260.1790480053848
 20
122.3624983771148
 30
0.0
 11
259.7192778904424
 21
122.3624983771148
 31
0.0
  0
LINE
  5
669
330
1F
100
AcDbEntity
  8
0
100
AcDbLine
 10
260.1790480053848
 20
122.3624983771148
 30
0.0
 11
260.1790480053848
 21
122.0176707909079
 31
0.0
  0
LINE
  5
66A
330
1F
100
AcDbEntity
  8
0
100
AcDbLine
 10
259.7192778904424
 20
124.0866363081493
 30
0.0
 11
259.7192778904424
 21
123.4257167679194
 31
0.0
  0
LINE
  5
66B
330
1F
100
AcDbEntity
  8
0
100
AcDbLine
 10
260.1790480053848
 20
124.4314638943562
 30
0.0
 11
260.1790480053848
 21
124.0866363081493
 31
0.0
  0
LINE
  5
66C
330
1F
100
AcDbEntity
  8
0
100
AcDbLine
 10
260.8112319134308
 20
122.3624983771148
 30
0.0
 11
260.8112319134308
 21
122.0176707909079
 31
0.0
  0
LINE
  5
66D
330
1F
100
AcDbEntity
  8
0
100
AcDbLine
 10
260.8112319134308
 20
124.4314638943562
 30
0.0
 11
260.8112319134308
 21
124.0866363081493
 31
0.0
  0
LINE
  5
66E
330
1F
100
AcDbEntity
  8
0
100
AcDbLine
 10
264.9491629479136
 20
124.0866363081493
 30
0.0
 11
264.4893928329711
 21
124.0866363081493
 31
0.0
  0
LINE
  5
66F
330
1F
100
AcDbEntity
  8
0
100
AcDbLine
 10
264.9491629479136
 20
122.3624983771148
 30
0.0
 11
264.4893928329711
 21
122.3624983771148
 31
0.0
  0
LINE
  5
670
330
1F
100
AcDbEntity
  8
0
100
AcDbLine
 10
264.9491629479136
 20
122.0176707909079
 30
0.0
 11
263.1100824881435
 21
122.0176707909079
 31
0.0
  0
LINE
  5
671
330
1F
100
AcDbEntity
  8
0
100
AcDbLine
 10
262.650312373201
 20
124.0866363081493
 30
0.0
 11
262.1905422582585
 21
124.0866363081493
 31
0.0
  0
LINE
  5
672
330
1F
100
AcDbEntity
  8
0
100
AcDbLine
 10
262.650312373201
 20
122.3624983771148
 30
0.0
 11
262.1905422582585
 21
122.3624983771148
 31
0.0
  0
LINE
  5
673
330
1F
100
AcDbEntity
  8
0
100
AcDbLine
 10
261.2710020283734
 20
123.0234179173446
 30
0.0
 11
261.2710020283734
 21
122.3624983771148
 31
0.0
  0
LINE
  5
674
330
1F
100
AcDbEntity
  8
0
100
AcDbLine
 10
261.2710020283734
 20
124.0866363081493
 30
0.0
 11
261.2710020283734
 21
123.4257167679194
 31
0.0
  0
LINE
  5
675
330
1F
100
AcDbEntity
  8
0
100
AcDbLine
 10
262.1905422582585
 20
124.0866363081493
 30
0.0
 11
262.1905422582585
 21
122.3624983771148
 31
0.0
  0
LINE
  5
676
330
1F
100
AcDbEntity
  8
0
100
AcDbLine
 10
262.650312373201
 20
122.3624983771148
 30
0.0
 11
262.650312373201
 21
122.0176707909079
 31
0.0
  0
LINE
  5
677
330
1F
100
AcDbEntity
  8
0
100
AcDbLine
 10
262.650312373201
 20
124.4314638943562
 30
0.0
 11
262.650312373201
 21
124.0866363081493
 31
0.0
  0
LINE
  5
678
330
1F
100
AcDbEntity
  8
0
100
AcDbLine
 10
263.1100824881435
 20
122.3624983771148
 30
0.0
 11
263.1100824881435
 21
122.0176707909079
 31
0.0
  0
LINE
  5
679
330
1F
100
AcDbEntity
  8
0
100
AcDbLine
 10
263.569852603086
 20
122.3624983771148
 30
0.0
 11
263.1100824881435
 21
122.3624983771148
 31
0.0
  0
LINE
  5
67A
330
1F
100
AcDbEntity
  8
0
100
AcDbLine
 10
263.569852603086
 20
124.0866363081493
 30
0.0
 11
263.1100824881435
 21
124.0866363081493
 31
0.0
  0
LINE
  5
67B
330
1F
100
AcDbEntity
  8
0
100
AcDbLine
 10
263.1100824881435
 20
124.4314638943562
 30
0.0
 11
263.1100824881435
 21
124.0866363081493
 31
0.0
  0
LINE
  5
67C
330
1F
100
AcDbEntity
  8
0
100
AcDbLine
 10
263.569852603086
 20
124.0866363081493
 30
0.0
 11
263.569852603086
 21
122.3624983771148
 31
0.0
  0
LINE
  5
67D
330
1F
100
AcDbEntity
  8
0
100
AcDbLine
 10
264.4893928329711
 20
124.0866363081493
 30
0.0
 11
264.4893928329711
 21
122.3624983771148
 31
0.0
  0
LINE
  5
67E
330
1F
100
AcDbEntity
  8
0
100
AcDbLine
 10
266.8457146720515
 20
122.0176707909079
 30
0.0
 11
265.4089330628562
 21
122.0176707909079
 31
0.0
  0
LINE
  5
67F
330
1F
100
AcDbEntity
  8
0
100
AcDbLine
 10
265.8687031777987
 20
124.0866363081493
 30
0.0
 11
265.4089330628562
 21
124.0866363081493
 31
0.0
  0
LINE
  5
680
330
1F
100
AcDbEntity
  8
0
100
AcDbLine
 10
265.8687031777987
 20
122.3624983771148
 30
0.0
 11
265.4089330628562
 21
122.3624983771148
 31
0.0
  0
LINE
  5
681
330
1F
100
AcDbEntity
  8
0
100
AcDbLine
 10
265.4089330628562
 20
122.3624983771148
 30
0.0
 11
265.4089330628562
 21
122.0176707909079
 31
0.0
  0
LINE
  5
682
330
1F
100
AcDbEntity
  8
0
100
AcDbLine
 10
265.8687031777987
 20
124.0866363081493
 30
0.0
 11
265.8687031777987
 21
122.3624983771148
 31
0.0
  0
LINE
  5
683
330
1F
100
AcDbEntity
  8
0
100
AcDbLine
 10
265.4089330628562
 20
124.4314638943562
 30
0.0
 11
265.4089330628562
 21
124.0866363081493
 31
0.0
  0
LINE
  5
684
330
1F
100
AcDbEntity
  8
0
100
AcDbLine
 10
264.9491629479136
 20
122.3624983771148
 30
0.0
 11
264.9491629479136
 21
122.0176707909079
 31
0.0
  0
LINE
  5
685
330
1F
100
AcDbEntity
  8
0
100
AcDbLine
 10
264.9491629479136
 20
124.4314638943562
 30
0.0
 11
264.9491629479136
 21
124.0866363081493
 31
0.0
  0
LINE
  5
686
330
1F
100
AcDbEntity
  8
0
100
AcDbLine
 10
266.3859445571091
 20
123.753361028079
 30
0.0
 11
268.12163479428
 21
122.0176707909079
 31
0.0
  0
LINE
  5
687
330
1F
100
AcDbEntity
  8
0
100
AcDbLine
 10
266.3859445571091
 20
122.3624983771148
 30
0.0
 11
266.8457146720515
 21
122.3624983771148
 31
0.0
  0
LINE
  5
688
330
1F
100
AcDbEntity
  8
0
100
AcDbLine
 10
266.3859445571091
 20
123.753361028079
 30
0.0
 11
266.3859445571091
 21
122.3624983771148
 31
0.0
  0
LINE
  5
689
330
1F
100
AcDbEntity
  8
0
100
AcDbLine
 10
268.569852603086
 20
124.0866363081493
 30
0.0
 11
268.1100824881435
 21
124.0866363081493
 31
0.0
  0
LINE
  5
68A
330
1F
100
AcDbEntity
  8
0
100
AcDbLine
 10
268.1100824881435
 20
124.4314638943562
 30
0.0
 11
268.1100824881435
 21
124.0866363081493
 31
0.0
  0
LINE
  5
68B
330
1F
100
AcDbEntity
  8
0
100
AcDbLine
 10
268.569852603086
 20
124.0866363081493
 30
0.0
 11
268.569852603086
 21
122.7073259633218
 31
0.0
  0
LINE
  5
68C
330
1F
100
AcDbEntity
  8
0
100
AcDbLine
 10
266.8457146720515
 20
124.4314638943562
 30
0.0
 11
268.569852603086
 21
122.7073259633218
 31
0.0
  0
LINE
  5
68D
330
1F
100
AcDbEntity
  8
0
100
AcDbLine
 10
266.8457146720515
 20
122.3624983771148
 30
0.0
 11
266.8457146720515
 21
122.0176707909079
 31
0.0
  0
LINE
  5
68E
330
1F
100
AcDbEntity
  8
0
100
AcDbLine
 10
269.0870939823964
 20
124.0866363081493
 30
0.0
 11
269.0870939823964
 21
122.0176707909079
 31
0.0
  0
LINE
  5
68F
330
1F
100
AcDbEntity
  8
0
100
AcDbLine
 10
269.5468640973389
 20
124.4314638943562
 30
0.0
 11
269.5468640973389
 21
124.0866363081493
 31
0.0
  0
LINE
  5
690
330
1F
100
AcDbEntity
  8
0
100
AcDbLine
 10
269.5468640973389
 20
124.0866363081493
 30
0.0
 11
269.0870939823964
 21
124.0866363081493
 31
0.0
  0
ELLIPSE
  5
691
330
1F
100
AcDbEntity
  8
0
100
AcDbEllipse
 10
271.7307721433158
 20
123.2245673426321
 30
0.0
 11
2.068965517241366
 21
0.0
 31
0.0
210
0.0
220
0.0
230
-1.0
 40
0.5833333335538823
 41
3.141592653589792
 42
6.283185307179584
  0
LINE
  5
692
330
1F
100
AcDbEntity
  8
0
100
AcDbLine
 10
257.4778985800975
 20
124.4314638943562
 30
0.0
 11
257.9376686950401
 21
124.4314638943562
 31
0.0
  0
LINE
  5
693
330
1F
100
AcDbEntity
  8
0
100
AcDbLine
 10
258.3399675456147
 20
124.4314638943562
 30
0.0
 11
260.1790480053848
 21
124.4314638943562
 31
0.0
  0
LINE
  5
694
330
1F
100
AcDbEntity
  8
0
100
AcDbLine
 10
260.8112319134308
 20
124.4314638943562
 30
0.0
 11
262.650312373201
 21
124.4314638943562
 31
0.0
  0
LINE
  5
695
330
1F
100
AcDbEntity
  8
0
100
AcDbLine
 10
263.1100824881435
 20
124.4314638943562
 30
0.0
 11
264.9491629479136
 21
124.4314638943562
 31
0.0
  0
LINE
  5
696
330
1F
100
AcDbEntity
  8
0
100
AcDbLine
 10
265.4089330628562
 20
124.4314638943562
 30
0.0
 11
266.8457146720515
 21
124.4314638943562
 31
0.0
  0
LINE
  5
697
330
1F
100
AcDbEntity
  8
0
100
AcDbLine
 10
268.1100824881435
 20
124.4314638943562
 30
0.0
 11
269.5468640973389
 21
124.4314638943562
 31
0.0
  0
LINE
  5
698
330
1F
100
AcDbEntity
  8
0
100
AcDbLine
 10
81.19970447334576
 20
98.99973361791795
 30
0.0
 11
103.1997044733458
 21
98.99973361791795
 31
0.0
1001
GENIUS_GENODEF_13
1002
{
1000
HIER
1070
     0
1002
}
1002
{
1000
MANEDIT
1070
     0
1002
}
1002
{
1000
NOSEL
1070
     0
1002
}
1002
{
1000
BEHIND
1070
     0
1002
}
1002
{
1000
REACTOR
1002
}
1001
GENIUS_GENOBJ-N-CEN_13
1002
{
1000
OWNER
1000
GEN
1002
}
  0
LINE
  5
699
330
1F
100
AcDbEntity
  8
0
100
AcDbLine
 10
81.49970447334577
 20
98.19973361791795
 30
0.0
 11
102.8997044733457
 21
98.19973361791795
 31
0.0
1001
GENIUS_GENODEF_13
1002
{
1000
HIER
1070
     0
1002
}
1002
{
1000
MANEDIT
1070
     0
1002
}
1002
{
1000
NOSEL
1070
     0
1002
}
1002
{
1000
BEHIND
1070
     0
1002
}
1002
{
1000
REACTOR
1002
}
1001
GENIUS_GENOBJ-N-CEN_13
1002
{
1000
OWNER
1000
GEN
1002
}
  0
LINE
  5
69A
330
1F
100
AcDbEntity
  8
0
100
AcDbLine
 10
81.49970447334577
 20
75.29973361791798
 30
0.0
 11
94.19970447334575
 21
75.29973361791798
 31
0.0
1001
GENIUS_GENODEF_13
1002
{
1000
HIER
1070
     0
1002
}
1002
{
1000
MANEDIT
1070
     0
1002
}
1002
{
1000
NOSEL
1070
     0
1002
}
1002
{
1000
BEHIND
1070
     0
1002
}
1002
{
1000
REACTOR
1002
}
1001
GENIUS_GENOBJ-N-CEN_13
1002
{
1000
OWNER
1000
GEN
1002
}
  0
LINE
  5
69B
330
1F
100
AcDbEntity
  8
0
100
AcDbLine
 10
81.49970447334577
 20
72.79973361791798
 30
0.0
 11
94.19970447334575
 21
72.79973361791798
 31
0.0
1001
GENIUS_GENODEF_13
1002
{
1000
HIER
1070
     0
1002
}
1002
{
1000
MANEDIT
1070
     0
1002
}
1002
{
1000
NOSEL
1070
     0
1002
}
1002
{
1000
BEHIND
1070
     0
1002
}
1002
{
1000
REACTOR
1002
}
1001
GENIUS_GENOBJ-N-CEN_13
1002
{
1000
OWNER
1000
GEN
1002
}
  0
LINE
  5
69C
330
1F
100
AcDbEntity
  8
0
100
AcDbLine
 10
81.49970447334577
 20
87.99973361791797
 30
0.0
 11
102.8997044733457
 21
87.99973361791797
 31
0.0
1001
GENIUS_GENODEF_13
1002
{
1000
HIER
1070
     0
1002
}
1002
{
1000
MANEDIT
1070
     0
1002
}
1002
{
1000
NOSEL
1070
     0
1002
}
1002
{
1000
BEHIND
1070
     0
1002
}
1002
{
1000
REACTOR
1002
}
1001
GENIUS_GENOBJ-N-CEN_13
1002
{
1000
OWNER
1000
GEN
1002
}
  0
LINE
  5
69D
330
1F
100
AcDbEntity
  8
0
100
AcDbLine
 10
81.49970447334577
 20
87.49973361791798
 30
0.0
 11
94.19970447334575
 21
87.49973361791798
 31
0.0
1001
GENIUS_GENODEF_13
1002
{
1000
HIER
1070
     0
1002
}
1002
{
1000
MANEDIT
1070
     0
1002
}
1002
{
1000
NOSEL
1070
     0
1002
}
1002
{
1000
BEHIND
1070
     0
1002
}
1002
{
1000
REACTOR
1002
}
1001
GENIUS_GENOBJ-N-CEN_13
1002
{
1000
OWNER
1000
GEN
1002
}
  0
LINE
  5
69E
330
1F
100
AcDbEntity
  8
0
100
AcDbLine
 10
81.19970447334576
 20
67.99973361791797
 30
0.0
 11
98.3563049242233
 21
67.99973361791797
 31
0.0
1001
GENIUS_GENODEF_13
1002
{
1000
HIER
1070
     0
1002
}
1002
{
1000
MANEDIT
1070
     0
1002
}
1002
{
1000
NOSEL
1070
     0
1002
}
1002
{
1000
BEHIND
1070
     0
1002
}
1002
{
1000
REACTOR
1002
}
1001
GENIUS_GENOBJ-N-CEN_13
1002
{
1000
OWNER
1000
GEN
1002
}
  0
LINE
  5
69F
330
1F
100
AcDbEntity
  8
0
100
AcDbLine
 10
81.49970447334577
 20
68.79973361791797
 30
0.0
 11
94.19970447334575
 21
68.79973361791797
 31
0.0
1001
GENIUS_GENODEF_13
1002
{
1000
HIER
1070
     0
1002
}
1002
{
1000
MANEDIT
1070
     0
1002
}
1002
{
1000
NOSEL
1070
     0
1002
}
1002
{
1000
BEHIND
1070
     0
1002
}
1002
{
1000
REACTOR
1002
}
1001
GENIUS_GENOBJ-N-CEN_13
1002
{
1000
OWNER
1000
GEN
1002
}
  0
LINE
  5
6A0
330
1F
100
AcDbEntity
  8
0
100
AcDbLine
 10
94.69970447334576
 20
68.79973361791795
 30
0.0
 11
98.15026519474979
 21
68.79973361791795
 31
0.0
1001
GENIUS_GENODEF_13
1002
{
1000
HIER
1070
     0
1002
}
1002
{
1000
MANEDIT
1070
     0
1002
}
1002
{
1000
NOSEL
1070
     0
1002
}
1002
{
1000
BEHIND
1070
     0
1002
}
1002
{
1000
REACTOR
1002
}
1001
GENIUS_GENOBJ-N-CEN_13
1002
{
1000
OWNER
1000
GEN
1002
}
  0
ARC
  5
6A1
330
1F
100
AcDbEntity
  8
0
100
AcDbCircle
 10
98.3563049242233
 20
68.49973361791795
 30
0.0
 40
0.5
100
AcDbArc
 50
270.0
 51
338.9624889745793
1001
GENIUS_GENOBJ-N-CEN_13
1002
{
1000
OWNER
1000
GEN
1002
}
1001
GENIUS_GENODEF_13
1002
{
1000
HIER
1070
     0
1002
}
1002
{
1000
MANEDIT
1070
     0
1002
}
1002
{
1000
NOSEL
1070
     0
1002
}
1002
{
1000
BEHIND
1070
     0
1002
}
1002
{
1000
OTHER
1070
     0
1002
}
1002
{
1000
REACTOR
1002
}
1001
GENIUS_GENOBJ-N-FIL_13
1002
{
1000
OWNER
1000
GEN
1002
}
  0
ARC
  5
6A2
330
1F
100
AcDbEntity
  8
0
100
AcDbCircle
 10
103.1997044733458
 20
98.49973361791796
 30
0.0
 40
0.5
100
AcDbArc
 50
0.0
 51
90.0
1001
GENIUS_GENOBJ-N-CEN_13
1002
{
1000
OWNER
1000
GEN
1002
}
1001
GENIUS_GENOBJ-N-FIL_13
1002
{
1000
OWNER
1000
GEN
1002
}
1001
GENIUS_GENODEF_13
1002
{
1000
HIER
1070
     0
1002
}
1002
{
1000
MANEDIT
1070
     0
1002
}
1002
{
1000
NOSEL
1070
     0
1002
}
1002
{
1000
BEHIND
1070
     0
1002
}
1002
{
1000
OTHER
1070
     0
1002
}
1002
{
1000
REACTOR
1002
}
  0
LINE
  5
6A3
330
1F
100
AcDbEntity
  8
0
370
    25
100
AcDbLine
 10
80.69970447334576
 20
98.49973361791796
 30
0.0
 11
80.69970447334576
 21
68.49973361791795
 31
0.0
  0
LINE
  5
6A4
330
1F
100
AcDbEntity
  8
0
370
    25
100
AcDbLine
 10
81.49970447334577
 20
98.19973361791795
 30
0.0
 11
81.49970447334577
 21
87.99973361791797
 31
0.0
  0
LINE
  5
6A5
330
1F
100
AcDbEntity
  8
0
370
    25
100
AcDbLine
 10
81.49970447334577
 20
87.49973361791798
 30
0.0
 11
81.49970447334577
 21
75.29973361791798
 31
0.0
  0
LINE
  5
6A6
330
1F
100
AcDbEntity
  8
0
370
    25
100
AcDbLine
 10
81.49970447334577
 20
72.79973361791798
 30
0.0
 11
81.49970447334577
 21
68.79973361791797
 31
0.0
  0
LINE
  5
6A7
330
1F
100
AcDbEntity
  8
0
370
    25
100
AcDbLine
 10
94.19970447334575
 20
87.49973361791798
 30
0.0
 11
94.19970447334575
 21
75.29973361791798
 31
0.0
  0
LINE
  5
6A8
330
1F
100
AcDbEntity
  8
0
370
    25
100
AcDbLine
 10
94.69970447334576
 20
87.49973361791798
 30
0.0
 11
94.69970447334576
 21
68.79973361791795
 31
0.0
  0
ARC
  5
6A9
330
1F
100
AcDbEntity
  8
0
370
    25
100
AcDbCircle
 10
81.19970447334576
 20
68.49973361791795
 30
0.0
 40
0.5
100
AcDbArc
 50
180.0
 51
270.0
1001
GENIUS_GENOBJ-N-FIL_13
1002
{
1000
OWNER
1000
GEN
1002
}
1001
GENIUS_GENODEF_13
1002
{
1000
HIER
1070
     0
1002
}
1002
{
1000
MANEDIT
1070
     0
1002
}
1002
{
1000
NOSEL
1070
     0
1002
}
1002
{
1000
BEHIND
1070
     0
1002
}
1002
{
1000
OTHER
1070
     0
1002
}
1002
{
1000
REACTOR
1002
}
  0
ARC
  5
6AA
330
1F
100
AcDbEntity
  8
0
370
    25
100
AcDbCircle
 10
81.19970447334576
 20
98.49973361791796
 30
0.0
 40
0.5
100
AcDbArc
 50
90.0
 51
180.0
1001
GENIUS_GENOBJ-N-FIL_13
1002
{
1000
OWNER
1000
GEN
1002
}
1001
GENIUS_GENODEF_13
1002
{
1000
HIER
1070
     0
1002
}
1002
{
1000
MANEDIT
1070
     0
1002
}
1002
{
1000
NOSEL
1070
     0
1002
}
1002
{
1000
BEHIND
1070
     0
1002
}
1002
{
1000
OTHER
1070
     0
1002
}
1002
{
1000
REACTOR
1002
}
  0
LINE
  5
6AB
330
1F
100
AcDbEntity
  8
0
370
    25
100
AcDbLine
 10
103.6997044733457
 20
98.49973361791796
 30
0.0
 11
103.6997044733457
 21
81.3710889287916
 31
0.0
  0
LINE
  5
6AC
330
1F
100
AcDbEntity
  8
0
370
    25
100
AcDbLine
 10
102.8997044733457
 20
98.19973361791795
 30
0.0
 11
102.8997044733457
 21
87.99973361791797
 31
0.0
  0
LINE
  5
6AD
330
1F
100
AcDbEntity
  8
0
370
    25
100
AcDbLine
 10
102.8997044733457
 20
87.49973361791798
 30
0.0
 11
102.8997044733457
 21
81.14827574226742
 31
0.0
  0
LINE
  5
6AE
330
1F
100
AcDbEntity
  8
0
100
AcDbLine
 10
103.5663956857519
 20
80.65313077017391
 30
0.0
 11
98.82297772732485
 21
68.32024407826352
 31
0.0
  0
LINE
  5
6AF
330
1F
100
AcDbEntity
  8
0
100
AcDbLine
 10
102.8997044733457
 20
81.14827574226742
 30
0.0
 11
98.15026519474979
 21
68.79973361791795
 31
0.0
  0
ARC
  5
6B0
330
1F
100
AcDbEntity
  8
0
100
AcDbCircle
 10
101.6997044733457
 20
81.3710889287916
 30
0.0
 40
2.0
100
AcDbArc
 50
338.9624889745793
 51
0.0
1001
GENIUS_GENODEF_13
1002
{
1000
HIER
1070
     0
1002
}
1002
{
1000
MANEDIT
1070
     0
1002
}
1002
{
1000
NOSEL
1070
     0
1002
}
1002
{
1000
BEHIND
1070
     0
1002
}
1002
{
1000
OTHER
1070
     0
1002
}
1002
{
1000
REACTOR
1002
}
1001
GENIUS_GENOBJ-N-FIL_13
1002
{
1000
OWNER
1000
GEN
1002
}
  0
LINE
  5
6B1
330
1F
100
AcDbEntity
  8
0
100
AcDbLine
 10
94.19970447334575
 20
72.79973361791798
 30
0.0
 11
94.19970447334575
 21
68.79973361791797
 31
0.0
  0
LINE
  5
6B2
330
1F
100
AcDbEntity
  8
0
100
AcDbLine
 10
94.69970447334576
 20
87.49973361791798
 30
0.0
 11
102.8997044733457
 21
87.49973361791798
 31
0.0
  0
LINE
  5
6B3
330
1F
100
AcDbEntity
  8
0
100
AcDbLine
 10
98.93559446477295
 20
84.65116801864985
 30
0.0
 11
95.29154072348246
 21
81.60646522165061
 31
0.0
  0
ARC
  5
6B4
330
1F
100
AcDbEntity
  8
0
100
AcDbCircle
 10
98.99970447413004
 20
84.57442228976967
 30
0.0
 40
0.1
100
AcDbArc
 50
50.12035554304016
 51
50.12610146954155
1001
GENIUS_GENODEF_13
1002
{
1000
HIER
1070
     0
1002
}
1002
{
1000
MANEDIT
1070
     0
1002
}
1002
{
1000
NOSEL
1070
     0
1002
}
1002
{
1000
BEHIND
1070
     0
1002
}
1002
{
1000
OTHER
1070
     0
1002
}
1002
{
1000
REACTOR
1002
}
1001
GENIUS_GENOBJ-N-FIL_13
1002
{
1000
OWNER
1000
GEN
1002
}
  0
ARC
  5
6B5
330
1F
100
AcDbEntity
  8
0
100
AcDbCircle
 10
98.99970447413004
 20
84.57442228976967
 30
0.0
 40
0.1
100
AcDbArc
 50
50.12610146954155
 51
129.8796444569598
1001
GENIUS_GENODEF_13
1002
{
1000
HIER
1070
     0
1002
}
1002
{
1000
MANEDIT
1070
     0
1002
}
1002
{
1000
NOSEL
1070
     0
1002
}
1002
{
1000
BEHIND
1070
     0
1002
}
1002
{
1000
OTHER
1070
     0
1002
}
1002
{
1000
REACTOR
1002
}
1001
GENIUS_GENOBJ-N-FIL_13
1002
{
1000
OWNER
1000
GEN
1002
}
  0
LINE
  5
6B6
330
1F
100
AcDbEntity
  8
0
100
AcDbLine
 10
98.99970447334576
 20
84.4962354928807
 30
0.0
 11
95.44924553638244
 21
81.52973361791797
 31
0.0
  0
LINE
  5
6B7
330
1F
100
AcDbEntity
  8
0
100
AcDbLine
 10
99.06381448191858
 20
84.65116801864985
 30
0.0
 11
102.7078590128852
 21
81.60647291617991
 31
0.0
  0
LINE
  5
6B8
330
1F
100
AcDbEntity
  8
0
100
AcDbLine
 10
98.99970447334576
 20
84.4962354928807
 30
0.0
 11
102.550163410309
 21
81.52973361791797
 31
0.0
  0
LINE
  5
6B9
330
1F
100
AcDbEntity
  8
0
100
AcDbLine
 10
102.7078683018819
 20
81.4530020799347
 30
0.0
 11
99.06382217649884
 21
78.4083056468656
 31
0.0
  0
ARC
  5
6BA
330
1F
100
AcDbEntity
  8
0
100
AcDbCircle
 10
98.9997044725615
 20
78.48504494606624
 30
0.0
 40
0.1
100
AcDbArc
 50
230.1203555430404
 51
309.8796444569596
1001
GENIUS_GENOBJ-N-FIL_13
1002
{
1000
OWNER
1000
GEN
1002
}
1001
GENIUS_GENODEF_13
1002
{
1000
HIER
1070
     0
1002
}
1002
{
1000
MANEDIT
1070
     0
1002
}
1002
{
1000
NOSEL
1070
     0
1002
}
1002
{
1000
BEHIND
1070
     0
1002
}
1002
{
1000
OTHER
1070
     0
1002
}
1002
{
1000
REACTOR
1002
}
  0
ARC
  5
6BB
330
1F
100
AcDbEntity
  8
0
100
AcDbCircle
 10
102.6437413089478
 20
81.52973361697931
 30
0.0
 40
0.1
100
AcDbArc
 50
309.8796444569596
 51
50.12035554304016
1001
GENIUS_GENOBJ-N-FIL_13
1002
{
1000
OWNER
1000
GEN
1002
}
1001
GENIUS_GENODEF_13
1002
{
1000
HIER
1070
     0
1002
}
1002
{
1000
MANEDIT
1070
     0
1002
}
1002
{
1000
NOSEL
1070
     0
1002
}
1002
{
1000
BEHIND
1070
     0
1002
}
1002
{
1000
OTHER
1070
     0
1002
}
1002
{
1000
REACTOR
1002
}
  0
LINE
  5
6BC
330
1F
100
AcDbEntity
  8
0
100
AcDbLine
 10
102.550163410309
 20
81.52973361791797
 30
0.0
 11
98.99970447334576
 21
78.56323174295518
 31
0.0
  0
LINE
  5
6BD
330
1F
100
AcDbEntity
  8
0
100
AcDbLine
 10
98.93559446477295
 20
78.40829921718603
 30
0.0
 11
95.29154993380634
 21
81.452994319656
 31
0.0
  0
ARC
  5
6BE
330
1F
100
AcDbEntity
  8
0
100
AcDbCircle
 10
95.35566763774367
 20
81.52973361885662
 30
0.0
 40
0.1
100
AcDbArc
 50
129.8796444569598
 51
129.8865214959096
1001
GENIUS_GENODEF_13
1002
{
1000
HIER
1070
     0
1002
}
1002
{
1000
MANEDIT
1070
     0
1002
}
1002
{
1000
NOSEL
1070
     0
1002
}
1002
{
1000
BEHIND
1070
     0
1002
}
1002
{
1000
OTHER
1070
     0
1002
}
1002
{
1000
REACTOR
1002
}
1001
GENIUS_GENOBJ-N-FIL_13
1002
{
1000
OWNER
1000
GEN
1002
}
  0
ARC
  5
6BF
330
1F
100
AcDbEntity
  8
0
100
AcDbCircle
 10
95.35566763774367
 20
81.52973361885662
 30
0.0
 40
0.1
100
AcDbArc
 50
129.8865214959096
 51
230.1203555430404
1001
GENIUS_GENODEF_13
1002
{
1000
HIER
1070
     0
1002
}
1002
{
1000
MANEDIT
1070
     0
1002
}
1002
{
1000
NOSEL
1070
     0
1002
}
1002
{
1000
BEHIND
1070
     0
1002
}
1002
{
1000
OTHER
1070
     0
1002
}
1002
{
1000
REACTOR
1002
}
1001
GENIUS_GENOBJ-N-FIL_13
1002
{
1000
OWNER
1000
GEN
1002
}
  0
LINE
  5
6C0
330
1F
100
AcDbEntity
  8
0
100
AcDbLine
 10
98.99970447334576
 20
78.56323174295518
 30
0.0
 11
95.44924553638244
 21
81.52973361791797
 31
0.0
  0
ARC
  5
6C1
330
1F
100
AcDbEntity
  8
0
100
AcDbCircle
 10
98.99970447413004
 20
78.48504494606624
 30
0.0
 40
0.1
100
AcDbArc
 50
309.8738985304584
 51
309.8796444569596
1001
GENIUS_GENODEF_13
1002
{
1000
HIER
1070
     0
1002
}
1002
{
1000
MANEDIT
1070
     0
1002
}
1002
{
1000
NOSEL
1070
     0
1002
}
1002
{
1000
BEHIND
1070
     0
1002
}
1002
{
1000
OTHER
1070
     0
1002
}
1002
{
1000
REACTOR
1002
}
1001
GENIUS_GENOBJ-N-FIL_13
1002
{
1000
OWNER
1000
GEN
1002
}
  0
ARC
  5
6C2
330
1F
100
AcDbEntity
  8
0
100
AcDbCircle
 10
102.6437413089478
 20
81.52973361885662
 30
0.0
 40
0.1
100
AcDbArc
 50
50.11347850409039
 51
50.12035554304016
1001
GENIUS_GENODEF_13
1002
{
1000
HIER
1070
     0
1002
}
1002
{
1000
MANEDIT
1070
     0
1002
}
1002
{
1000
NOSEL
1070
     0
1002
}
1002
{
1000
BEHIND
1070
     0
1002
}
1002
{
1000
OTHER
1070
     0
1002
}
1002
{
1000
REACTOR
1002
}
1001
GENIUS_GENOBJ-N-FIL_13
1002
{
1000
OWNER
1000
GEN
1002
}
  0
ARC
  5
6C3
330
1F
100
AcDbEntity
  8
0
100
AcDbCircle
 10
102.6437413089478
 20
81.52973361885662
 30
0.0
 40
0.1
100
AcDbArc
 50
309.8796444569596
 51
50.11347850409039
1001
GENIUS_GENODEF_13
1002
{
1000
HIER
1070
     0
1002
}
1002
{
1000
MANEDIT
1070
     0
1002
}
1002
{
1000
NOSEL
1070
     0
1002
}
1002
{
1000
BEHIND
1070
     0
1002
}
1002
{
1000
OTHER
1070
     0
1002
}
1002
{
1000
REACTOR
1002
}
1001
GENIUS_GENOBJ-N-FIL_13
1002
{
1000
OWNER
1000
GEN
1002
}
  0
LINE
  5
6C4
330
1F
100
AcDbEntity
  8
0
370
    25
100
AcDbLine
 10
82.14254649924333
 20
76.39963316669048
 30
0.0
 11
93.2568624474482
 21
76.39963316669048
 31
0.0
  0
LINE
  5
6C5
330
1F
100
AcDbEntity
  8
0
370
    25
100
AcDbLine
 10
82.65467801866645
 20
77.09963316669045
 30
0.0
 11
92.74473092802507
 21
77.09963316669045
 31
0.0
  0
LINE
  5
6C6
330
1F
100
AcDbEntity
  8
0
100
AcDbLine
 10
81.79364216004044
 20
76.99524953125487
 30
0.0
 11
87.35507370356913
 21
86.9147038777155
 31
0.0
  0
LINE
  5
6C7
330
1F
100
AcDbEntity
  8
0
100
AcDbLine
 10
82.65467801866645
 20
77.09963316669045
 30
0.0
 11
87.69970447334577
 21
86.09801949981159
 31
0.0
  0
LINE
  5
6C8
330
1F
100
AcDbEntity
  8
0
100
AcDbLine
 10
93.60576678665113
 20
76.99524953125487
 30
0.0
 11
88.04433524312242
 21
86.9147038777155
 31
0.0
  0
LINE
  5
6C9
330
1F
100
AcDbEntity
  8
0
100
AcDbLine
 10
92.74473092802507
 20
77.09963316669045
 30
0.0
 11
91.11876345385514
 21
79.99973361791797
 31
0.0
  0
LINE
  5
6CA
330
1F
100
AcDbEntity
  8
0
100
AcDbLine
 10
91.00663165004252
 20
80.19973361791796
 30
0.0
 11
87.69970447334577
 21
86.09801949981159
 31
0.0
  0
ARC
  5
6CB
330
1F
100
AcDbEntity
  8
0
100
AcDbCircle
 10
87.69970447334577
 20
86.71165306505233
 30
0.0
 40
0.4
100
AcDbArc
 50
30.50589638367847
 51
149.4941036163215
1001
GENIUS_GENODEF_13
1002
{
1000
HIER
1070
     0
1002
}
1002
{
1000
MANEDIT
1070
     0
1002
}
1002
{
1000
NOSEL
1070
     0
1002
}
1002
{
1000
BEHIND
1070
     0
1002
}
1002
{
1000
OTHER
1070
     0
1002
}
1002
{
1000
REACTOR
1002
}
1001
GENIUS_GENOBJ-N-FIL_13
1002
{
1000
OWNER
1000
GEN
1002
}
  0
ARC
  5
6CC
330
1F
100
AcDbEntity
  8
0
100
AcDbCircle
 10
87.69970447334577
 20
86.71165306505233
 30
0.0
 40
0.4
100
AcDbArc
 50
149.4941036163215
 51
149.4941036163215
1001
GENIUS_GENODEF_13
1002
{
1000
HIER
1070
     0
1002
}
1002
{
1000
MANEDIT
1070
     0
1002
}
1002
{
1000
NOSEL
1070
     0
1002
}
1002
{
1000
BEHIND
1070
     0
1002
}
1002
{
1000
OTHER
1070
     0
1002
}
1002
{
1000
REACTOR
1002
}
1001
GENIUS_GENOBJ-N-FIL_13
1002
{
1000
OWNER
1000
GEN
1002
}
  0
ARC
  5
6CD
330
1F
100
AcDbEntity
  8
0
100
AcDbCircle
 10
87.69970447334577
 20
86.71165306505233
 30
0.0
 40
0.4
100
AcDbArc
 50
149.4941036163215
 51
149.4941036163215
1001
GENIUS_GENODEF_13
1002
{
1000
HIER
1070
     0
1002
}
1002
{
1000
MANEDIT
1070
     0
1002
}
1002
{
1000
NOSEL
1070
     0
1002
}
1002
{
1000
BEHIND
1070
     0
1002
}
1002
{
1000
OTHER
1070
     0
1002
}
1002
{
1000
REACTOR
1002
}
1001
GENIUS_GENOBJ-N-FIL_13
1002
{
1000
OWNER
1000
GEN
1002
}
  0
LINE
  5
6CE
330
1F
100
AcDbEntity
  8
0
100
AcDbLine
 10
91.00663165004252
 20
80.19973361791796
 30
0.0
 11
88.45927988461836
 21
80.19973361791796
 31
0.0
  0
LINE
  5
6CF
330
1F
100
AcDbEntity
  8
0
100
AcDbLine
 10
91.11876345385514
 20
79.99973361791797
 30
0.0
 11
88.45927988461822
 21
79.99973361791794
 31
0.0
  0
ARC
  5
6D0
330
1F
100
AcDbEntity
  8
0
100
AcDbCircle
 10
87.69970447334577
 20
80.09973361791796
 30
0.0
 40
2.729999999999998
100
AcDbArc
 50
87.90078387854261
 51
92.09921612145656
  0
ARC
  5
6D1
330
1F
100
AcDbEntity
  8
0
100
AcDbCircle
 10
87.69970447334577
 20
80.09973361791796
 30
0.0
 40
1.784999999999999
100
AcDbArc
 50
101.7884710091658
 51
108.2115289908333
  0
LINE
  5
6D2
330
1F
100
AcDbEntity
  8
0
100
AcDbLine
 10
87.79970447334575
 20
80.85930902919043
 30
0.0
 11
87.79970447334575
 21
82.82790150131518
 31
0.0
  0
LINE
  5
6D3
330
1F
100
AcDbEntity
  8
0
100
AcDbLine
 10
87.59970447334579
 20
80.85930902919043
 30
0.0
 11
87.59970447334579
 21
82.82790150131518
 31
0.0
  0
LINE
  5
6D4
330
1F
100
AcDbEntity
  8
0
100
AcDbLine
 10
87.59970447334579
 20
80.85930902919043
 30
0.0
 11
87.33503061352259
 21
81.84708532148588
 31
0.0
  0
LINE
  5
6D5
330
1F
100
AcDbEntity
  8
0
100
AcDbLine
 10
87.406519308088
 20
80.80754522016986
 30
0.0
 11
87.14184544826478
 21
81.79532151246538
 31
0.0
  0
ARC
  5
6D6
330
1F
100
AcDbEntity
  8
0
100
AcDbCircle
 10
87.69970447334577
 20
80.09973361791796
 30
0.0
 40
2.729999999999998
100
AcDbArc
 50
117.9007838785423
 51
122.0992161214565
  0
ARC
  5
6D7
330
1F
100
AcDbEntity
  8
0
100
AcDbCircle
 10
87.69970447334577
 20
80.09973361791796
 30
0.0
 40
1.784999999999999
100
AcDbArc
 50
131.7884710091658
 51
138.2115289908337
  0
LINE
  5
6D8
330
1F
100
AcDbEntity
  8
0
100
AcDbLine
 10
87.406519308088
 20
80.80754522016986
 30
0.0
 11
86.42222307202562
 21
82.51239631072877
 31
0.0
  0
LINE
  5
6D9
330
1F
100
AcDbEntity
  8
0
100
AcDbLine
 10
87.23331422733108
 20
80.70754522016988
 30
0.0
 11
86.24901799126872
 21
82.41239631072877
 31
0.0
  0
LINE
  5
6DA
330
1F
100
AcDbEntity
  8
0
100
AcDbLine
 10
87.23331422733108
 20
80.70754522016988
 30
0.0
 11
86.51021179485884
 21
81.43064765264222
 31
0.0
  0
LINE
  5
6DB
330
1F
100
AcDbEntity
  8
0
100
AcDbLine
 10
87.09189287109388
 20
80.56612386393263
 30
0.0
 11
86.36879043862155
 21
81.28922629640493
 31
0.0
  0
ARC
  5
6DC
330
1F
100
AcDbEntity
  8
0
100
AcDbCircle
 10
87.69970447334577
 20
80.09973361791796
 30
0.0
 40
2.729999999999998
100
AcDbArc
 50
147.9007838785426
 51
152.0992161214564
  0
ARC
  5
6DD
330
1F
100
AcDbEntity
  8
0
100
AcDbCircle
 10
87.69970447334577
 20
80.09973361791798
 30
0.0
 40
1.784999999999999
100
AcDbArc
 50
161.7884710091649
 51
168.2115289908342
  0
LINE
  5
6DE
330
1F
100
AcDbEntity
  8
0
100
AcDbLine
 10
87.09189287109388
 20
80.56612386393263
 30
0.0
 11
85.38704178053496
 21
81.55042009999503
 31
0.0
  0
LINE
  5
6DF
330
1F
100
AcDbEntity
  8
0
100
AcDbLine
 10
86.99189287109382
 20
80.39291878317575
 30
0.0
 11
85.28704178053493
 21
81.37721501923811
 31
0.0
  0
LINE
  5
6E0
330
1F
100
AcDbEntity
  8
0
100
AcDbLine
 10
86.99189287109382
 20
80.39291878317575
 30
0.0
 11
86.00411657879837
 21
80.65759264299897
 31
0.0
  0
LINE
  5
6E1
330
1F
100
AcDbEntity
  8
0
100
AcDbLine
 10
86.94012906207328
 20
80.19973361791796
 30
0.0
 11
85.95235276977787
 21
80.46440747774113
 31
0.0
  0
ARC
  5
6E2
330
1F
100
AcDbEntity
  8
0
100
AcDbCircle
 10
87.69970447334577
 20
80.09973361791796
 30
0.0
 40
2.729999999999998
100
AcDbArc
 50
177.9007838785426
 51
182.0992161214557
  0
ARC
  5
6E3
330
1F
100
AcDbEntity
  8
0
100
AcDbCircle
 10
87.69970447334577
 20
80.09973361791798
 30
0.0
 40
1.784999999999999
100
AcDbArc
 50
191.7884710091658
 51
198.2115289908333
  0
LINE
  5
6E4
330
1F
100
AcDbEntity
  8
0
100
AcDbLine
 10
86.94012906207328
 20
80.19973361791796
 30
0.0
 11
84.97153658994855
 21
80.19973361791796
 31
0.0
  0
LINE
  5
6E5
330
1F
100
AcDbEntity
  8
0
100
AcDbLine
 10
86.94012906207328
 20
79.99973361791798
 30
0.0
 11
84.97153658994855
 21
79.99973361791797
 31
0.0
  0
LINE
  5
6E6
330
1F
100
AcDbEntity
  8
0
100
AcDbLine
 10
86.94012906207328
 20
79.99973361791798
 30
0.0
 11
85.95235276977785
 21
79.73505975809479
 31
0.0
  0
LINE
  5
6E7
330
1F
100
AcDbEntity
  8
0
100
AcDbLine
 10
86.99189287109382
 20
79.80654845266022
 30
0.0
 11
86.00411657879833
 21
79.54187459283701
 31
0.0
  0
ARC
  5
6E8
330
1F
100
AcDbEntity
  8
0
100
AcDbCircle
 10
87.69970447334577
 20
80.09973361791796
 30
0.0
 40
2.729999999999998
100
AcDbArc
 50
207.9007838785431
 51
212.0992161214573
  0
ARC
  5
6E9
330
1F
100
AcDbEntity
  8
0
100
AcDbCircle
 10
87.69970447334577
 20
80.09973361791798
 30
0.0
 40
1.784999999999999
100
AcDbArc
 50
221.7884710091654
 51
228.2115289908341
  0
LINE
  5
6EA
330
1F
100
AcDbEntity
  8
0
100
AcDbLine
 10
86.99189287109382
 20
79.80654845266022
 30
0.0
 11
85.28704178053493
 21
78.82225221659782
 31
0.0
  0
LINE
  5
6EB
330
1F
100
AcDbEntity
  8
0
100
AcDbLine
 10
87.09189287109373
 20
79.63334337190329
 30
0.0
 11
85.38704178053492
 21
78.64904713584095
 31
0.0
  0
LINE
  5
6EC
330
1F
100
AcDbEntity
  8
0
100
AcDbLine
 10
87.09189287109373
 20
79.63334337190329
 30
0.0
 11
86.36879043862149
 21
78.91024093943102
 31
0.0
  0
LINE
  5
6ED
330
1F
100
AcDbEntity
  8
0
100
AcDbLine
 10
87.23331422733107
 20
79.49192201566599
 30
0.0
 11
86.51021179485878
 21
78.76881958319373
 31
0.0
  0
ARC
  5
6EE
330
1F
100
AcDbEntity
  8
0
100
AcDbCircle
 10
87.69970447334577
 20
80.09973361791796
 30
0.0
 40
2.729999999999998
100
AcDbArc
 50
237.9007838785426
 51
242.0992161214572
  0
ARC
  5
6EF
330
1F
100
AcDbEntity
  8
0
100
AcDbCircle
 10
87.69970447334573
 20
80.09973361791796
 30
0.0
 40
1.784999999999999
100
AcDbArc
 50
251.7884710091657
 51
258.2115289908342
  0
LINE
  5
6F0
330
1F
100
AcDbEntity
  8
0
100
AcDbLine
 10
87.23331422733107
 20
79.49192201566599
 30
0.0
 11
86.24901799126869
 21
77.78707092510718
 31
0.0
  0
LINE
  5
6F1
330
1F
100
AcDbEntity
  8
0
100
AcDbLine
 10
87.40651930808798
 20
79.39192201566609
 30
0.0
 11
86.42222307202557
 21
77.68707092510715
 31
0.0
  0
LINE
  5
6F2
330
1F
100
AcDbEntity
  8
0
100
AcDbLine
 10
87.40651930808798
 20
79.39192201566609
 30
0.0
 11
87.14184544826478
 21
78.40414572337056
 31
0.0
  0
LINE
  5
6F3
330
1F
100
AcDbEntity
  8
0
100
AcDbLine
 10
87.59970447334573
 20
79.34015820664554
 30
0.0
 11
87.33503061352257
 21
78.35238191435005
 31
0.0
  0
ARC
  5
6F4
330
1F
100
AcDbEntity
  8
0
100
AcDbCircle
 10
87.69970447334577
 20
80.09973361791796
 30
0.0
 40
2.729999999999998
100
AcDbArc
 50
267.9007838785426
 51
272.0992161214565
  0
ARC
  5
6F5
330
1F
100
AcDbEntity
  8
0
100
AcDbCircle
 10
87.69970447334577
 20
80.09973361791796
 30
0.0
 40
1.784999999999999
100
AcDbArc
 50
281.7884710091658
 51
288.2115289908334
  0
LINE
  5
6F6
330
1F
100
AcDbEntity
  8
0
100
AcDbLine
 10
87.59970447334573
 20
79.34015820664554
 30
0.0
 11
87.59970447334573
 21
77.37156573452073
 31
0.0
  0
LINE
  5
6F7
330
1F
100
AcDbEntity
  8
0
100
AcDbLine
 10
87.79970447334575
 20
79.34015820664551
 30
0.0
 11
87.79970447334575
 21
77.37156573452073
 31
0.0
  0
LINE
  5
6F8
330
1F
100
AcDbEntity
  8
0
100
AcDbLine
 10
87.79970447334575
 20
79.34015820664551
 30
0.0
 11
88.0643783331689
 21
78.35238191435005
 31
0.0
  0
LINE
  5
6F9
330
1F
100
AcDbEntity
  8
0
100
AcDbLine
 10
87.99288963860352
 20
79.39192201566601
 30
0.0
 11
88.2575634984267
 21
78.40414572337056
 31
0.0
  0
ARC
  5
6FA
330
1F
100
AcDbEntity
  8
0
100
AcDbCircle
 10
87.69970447334577
 20
80.09973361791798
 30
0.0
 40
2.729999999999998
100
AcDbArc
 50
297.9007838785422
 51
302.0992161214568
  0
ARC
  5
6FB
330
1F
100
AcDbEntity
  8
0
100
AcDbCircle
 10
87.69970447334577
 20
80.09973361791796
 30
0.0
 40
1.784999999999999
100
AcDbArc
 50
311.7884710091658
 51
318.2115289908336
  0
LINE
  5
6FC
330
1F
100
AcDbEntity
  8
0
100
AcDbLine
 10
87.99288963860352
 20
79.39192201566601
 30
0.0
 11
88.9771858746659
 21
77.68707092510715
 31
0.0
  0
LINE
  5
6FD
330
1F
100
AcDbEntity
  8
0
100
AcDbLine
 10
88.16609471936041
 20
79.49192201566599
 30
0.0
 11
89.15039095542278
 21
77.78707092510714
 31
0.0
  0
LINE
  5
6FE
330
1F
100
AcDbEntity
  8
0
100
AcDbLine
 10
88.16609471936041
 20
79.49192201566599
 30
0.0
 11
88.88919715183268
 21
78.7688195831937
 31
0.0
  0
LINE
  5
6FF
330
1F
100
AcDbEntity
  8
0
100
AcDbLine
 10
88.30751607559765
 20
79.63334337190329
 30
0.0
 11
89.03061850806997
 21
78.91024093943098
 31
0.0
  0
ARC
  5
700
330
1F
100
AcDbEntity
  8
0
100
AcDbCircle
 10
87.69970447334577
 20
80.09973361791796
 30
0.0
 40
2.729999999999998
100
AcDbArc
 50
327.9007838785426
 51
332.0992161214564
  0
ARC
  5
701
330
1F
100
AcDbEntity
  8
0
100
AcDbCircle
 10
87.69970447334577
 20
80.09973361791796
 30
0.0
 40
1.784999999999999
100
AcDbArc
 50
341.7884710091649
 51
348.2115289908342
  0
LINE
  5
702
330
1F
100
AcDbEntity
  8
0
100
AcDbLine
 10
88.30751607559765
 20
79.63334337190329
 30
0.0
 11
90.01236716615656
 21
78.6490471358409
 31
0.0
  0
LINE
  5
703
330
1F
100
AcDbEntity
  8
0
100
AcDbLine
 10
88.40751607559765
 20
79.80654845266016
 30
0.0
 11
90.11236716615655
 21
78.82225221659779
 31
0.0
  0
LINE
  5
704
330
1F
100
AcDbEntity
  8
0
100
AcDbLine
 10
88.40751607559765
 20
79.80654845266016
 30
0.0
 11
89.39529236789317
 21
79.54187459283698
 31
0.0
  0
LINE
  5
705
330
1F
100
AcDbEntity
  8
0
100
AcDbLine
 10
88.45927988461822
 20
79.99973361791794
 30
0.0
 11
89.44705617691367
 21
79.73505975809479
 31
0.0
  0
ARC
  5
706
330
1F
100
AcDbEntity
  8
0
100
AcDbCircle
 10
87.69970447334577
 20
80.09973361791793
 30
0.0
 40
1.784999999999999
100
AcDbArc
 50
11.78847100916579
 51
18.21152899083333
  0
LINE
  5
707
330
1F
100
AcDbEntity
  8
0
100
AcDbLine
 10
88.45927988461836
 20
80.19973361791796
 30
0.0
 11
89.44705617691367
 21
80.46440747774111
 31
0.0
  0
LINE
  5
708
330
1F
100
AcDbEntity
  8
0
100
AcDbLine
 10
88.40751607559772
 20
80.39291878317573
 30
0.0
 11
89.39529236789317
 21
80.6575926429989
 31
0.0
  0
ARC
  5
709
330
1F
100
AcDbEntity
  8
0
100
AcDbCircle
 10
87.69970447334577
 20
80.09973361791796
 30
0.0
 40
2.729999999999998
100
AcDbArc
 50
27.90078387854308
 51
32.09921612145735
  0
ARC
  5
70A
330
1F
100
AcDbEntity
  8
0
100
AcDbCircle
 10
87.69970447334577
 20
80.09973361791796
 30
0.0
 40
1.784999999999999
100
AcDbArc
 50
41.78847100916508
 51
48.21152899083422
  0
LINE
  5
70B
330
1F
100
AcDbEntity
  8
0
100
AcDbLine
 10
88.40751607559772
 20
80.39291878317573
 30
0.0
 11
90.11236716615655
 21
81.37721501923811
 31
0.0
  0
LINE
  5
70C
330
1F
100
AcDbEntity
  8
0
100
AcDbLine
 10
88.30751607559772
 20
80.56612386393263
 30
0.0
 11
90.01236716615656
 21
81.55042009999496
 31
0.0
  0
LINE
  5
70D
330
1F
100
AcDbEntity
  8
0
100
AcDbLine
 10
88.30751607559772
 20
80.56612386393263
 30
0.0
 11
89.03061850806999
 21
81.28922629640488
 31
0.0
  0
LINE
  5
70E
330
1F
100
AcDbEntity
  8
0
100
AcDbLine
 10
88.16609471936045
 20
80.70754522016992
 30
0.0
 11
88.88919715183272
 21
81.43064765264218
 31
0.0
  0
ARC
  5
70F
330
1F
100
AcDbEntity
  8
0
100
AcDbCircle
 10
87.69970447334577
 20
80.09973361791796
 30
0.0
 40
2.729999999999998
100
AcDbArc
 50
57.90078387854264
 51
62.09921612145701
  0
ARC
  5
710
330
1F
100
AcDbEntity
  8
0
100
AcDbCircle
 10
87.69970447334577
 20
80.09973361791796
 30
0.0
 40
1.784999999999999
100
AcDbArc
 50
71.78847100916576
 51
78.21152899083417
  0
LINE
  5
711
330
1F
100
AcDbEntity
  8
0
100
AcDbLine
 10
88.16609471936045
 20
80.70754522016992
 30
0.0
 11
89.15039095542281
 21
82.41239631072875
 31
0.0
  0
LINE
  5
712
330
1F
100
AcDbEntity
  8
0
100
AcDbLine
 10
87.99288963860355
 20
80.80754522016993
 30
0.0
 11
88.97718587466595
 21
82.51239631072875
 31
0.0
  0
LINE
  5
713
330
1F
100
AcDbEntity
  8
0
100
AcDbLine
 10
87.99288963860355
 20
80.80754522016993
 30
0.0
 11
88.25756349842675
 21
81.79532151246538
 31
0.0
  0
LINE
  5
714
330
1F
100
AcDbEntity
  8
0
100
AcDbLine
 10
87.79970447334575
 20
80.85930902919043
 30
0.0
 11
88.06437833316895
 21
81.84708532148585
 31
0.0
  0
ARC
  5
715
330
1F
100
AcDbEntity
  8
0
100
AcDbCircle
 10
82.14254649924333
 20
76.79963316669049
 30
0.0
 40
0.4
100
AcDbArc
 50
150.7224370598366
 51
270.0
  0
ARC
  5
716
330
1F
100
AcDbEntity
  8
0
100
AcDbCircle
 10
93.2568624474482
 20
76.79963316669049
 30
0.0
 40
0.4
100
AcDbArc
 50
270.0
 51
29.27756294016297
  0
LINE
  5
85E
330
1F
100
AcDbEntity
  8
0
100
AcDbLine
 10
12.74030887732299
 20
88.54087088904693
 30
0.0
 11
16.11530887732299
 21
94.38654236459136
 31
0.0
  0
LINE
  5
85F
330
1F
100
AcDbEntity
  8
0
100
AcDbLine
 10
13.32487602487747
 20
88.65337088904691
 30
0.0
 11
16.31016459317435
 21
93.82404236459121
 31
0.0
  0
LINE
  5
860
330
1F
100
AcDbEntity
  8
0
100
AcDbLine
 10
19.29795223623055
 20
88.65337088904679
 30
0.0
 11
13.32237695011827
 21
88.65337088904691
 31
0.0
  0
LINE
  5
861
330
1F
100
AcDbEntity
  8
0
100
AcDbLine
 10
19.68516459317423
 20
88.20337088904681
 30
0.0
 11
12.93516459317445
 21
88.20337088904693
 31
0.0
  0
ARC
  5
862
330
1F
100
AcDbEntity
  8
0
100
AcDbCircle
 10
12.93516459317446
 20
88.42837088904692
 30
0.0
 40
0.2249999999999925
100
AcDbArc
 50
149.9999999999977
 51
269.9999999999993
1001
GENIUS_GENOBJ-N-FIL_13
1002
{
1000
OWNER
1000
GEN
1002
}
1001
GENIUS_GENODEF_13
1002
{
1000
HIER
1070
     0
1002
}
1002
{
1000
MANEDIT
1070
     0
1002
}
1002
{
1000
NOSEL
1070
     0
1002
}
1002
{
1000
BEHIND
1070
     0
1002
}
1002
{
1000
OTHER
1070
     0
1002
}
1002
{
1000
REACTOR
1002
}
  0
LINE
  5
863
330
1F
100
AcDbEntity
  8
0
100
AcDbLine
 10
19.88002030902572
 20
88.5408708890468
 30
0.0
 11
16.50502030902597
 21
94.38654236459134
 31
0.0
  0
LINE
  5
864
330
1F
100
AcDbEntity
  8
0
100
AcDbLine
 10
19.29545316147123
 20
88.65337088904679
 30
0.0
 11
18.32550470923265
 21
90.33337088904682
 31
0.0
  0
LINE
  5
865
330
1F
100
AcDbEntity
  8
0
100
AcDbLine
 10
17.65165460413484
 20
89.55189974587653
 30
0.0
 11
17.69665460413484
 21
89.62984203221715
 31
0.0
  0
LINE
  5
866
330
1F
100
AcDbEntity
  8
0
100
AcDbLine
 10
17.65165460413483
 20
89.55189974587655
 30
0.0
 11
16.74065465929062
 21
90.0778658092641
 31
0.0
  0
LINE
  5
867
330
1F
100
AcDbEntity
  8
0
100
AcDbLine
 10
17.02080690826683
 20
89.60408896364755
 30
0.0
 11
17.08444651857361
 21
89.66772857395433
 31
0.0
  0
LINE
  5
868
330
1F
100
AcDbEntity
  8
0
100
AcDbLine
 10
16.64820962819911
 20
89.97668624371527
 30
0.0
 11
17.02080690826683
 21
89.60408896364755
 31
0.0
  0
LINE
  5
869
330
1F
100
AcDbEntity
  8
0
100
AcDbLine
 10
17.13663573634468
 20
89.03688087808637
 30
0.0
 11
16.61066967295714
 21
89.94788082293061
 31
0.0
  0
LINE
  5
86A
330
1F
100
AcDbEntity
  8
0
100
AcDbLine
 10
17.05869345000407
 20
88.99188087808637
 30
0.0
 11
16.53272738661653
 21
89.90288082293059
 31
0.0
  0
LINE
  5
86B
330
1F
100
AcDbEntity
  8
0
100
AcDbLine
 10
16.48901118282924
 20
89.8847729784264
 30
0.0
 11
16.62539125271502
 21
89.37579562847291
 31
0.0
  0
LINE
  5
86C
330
1F
100
AcDbEntity
  8
0
100
AcDbLine
 10
16.40207785846324
 20
89.8614792643672
 30
0.0
 11
16.53845792834901
 21
89.35250191441369
 31
0.0
  0
LINE
  5
86D
330
1F
100
AcDbEntity
  8
0
100
AcDbLine
 10
16.35516459317441
 20
88.80337088904685
 30
0.0
 11
16.35516459317442
 21
89.85530301582194
 31
0.0
  0
LINE
  5
86E
330
1F
100
AcDbEntity
  8
0
100
AcDbLine
 10
16.2651645931744
 20
88.80337088904685
 30
0.0
 11
16.2651645931744
 21
89.85530301582192
 31
0.0
  0
LINE
  5
86F
330
1F
100
AcDbEntity
  8
0
100
AcDbLine
 10
16.21825132788551
 20
89.8614792643672
 30
0.0
 11
16.08187125799974
 21
89.35250191441371
 31
0.0
  0
LINE
  5
870
330
1F
100
AcDbEntity
  8
0
100
AcDbLine
 10
16.1313180035195
 20
89.88477297842642
 30
0.0
 11
15.99493793363372
 21
89.37579562847293
 31
0.0
  0
LINE
  5
871
330
1F
100
AcDbEntity
  8
0
100
AcDbLine
 10
15.56163573634473
 20
88.99188087808633
 30
0.0
 11
16.08760179973228
 21
89.90288082293055
 31
0.0
  0
LINE
  5
872
330
1F
100
AcDbEntity
  8
0
100
AcDbLine
 10
15.48369345000412
 20
89.03688087808635
 30
0.0
 11
16.00965951339166
 21
89.94788082293055
 31
0.0
  0
LINE
  5
873
330
1F
100
AcDbEntity
  8
0
100
AcDbLine
 10
14.92367458221394
 20
89.6298420322171
 30
0.0
 11
14.96867458221395
 21
89.5518997458765
 31
0.0
  0
LINE
  5
874
330
1F
100
AcDbEntity
  8
0
100
AcDbLine
 10
15.53588266777512
 20
89.66772857395435
 30
0.0
 11
15.59952227808192
 21
89.60408896364757
 31
0.0
  0
LINE
  5
875
330
1F
100
AcDbEntity
  8
0
100
AcDbLine
 10
15.97211955814963
 20
89.97668624371529
 30
0.0
 11
15.59952227808192
 21
89.60408896364757
 31
0.0
  0
LINE
  5
876
330
1F
100
AcDbEntity
  8
0
100
AcDbLine
 10
14.96867458221395
 20
89.5518997458765
 30
0.0
 11
15.87967452705817
 21
90.07786580926405
 31
0.0
  0
LINE
  5
877
330
1F
100
AcDbEntity
  8
0
100
AcDbLine
 10
16.2651645931744
 20
88.80337088904685
 30
0.0
 11
16.35516459317442
 21
88.80337088904685
 31
0.0
  0
LINE
  5
878
330
1F
100
AcDbEntity
  8
0
100
AcDbLine
 10
15.48369345000412
 20
89.03688087808633
 30
0.0
 11
15.56163573634473
 21
88.99188087808633
 31
0.0
  0
LINE
  5
879
330
1F
100
AcDbEntity
  8
0
100
AcDbLine
 10
15.99493793363372
 20
89.37579562847293
 30
0.0
 11
16.08187125799974
 21
89.35250191441371
 31
0.0
  0
LINE
  5
87A
330
1F
100
AcDbEntity
  8
0
100
AcDbLine
 10
17.05869345000407
 20
88.99188087808637
 30
0.0
 11
17.13663573634468
 21
89.03688087808637
 31
0.0
  0
LINE
  5
87B
330
1F
100
AcDbEntity
  8
0
100
AcDbLine
 10
16.53845792834901
 20
89.35250191441369
 30
0.0
 11
16.62539125271502
 21
89.37579562847291
 31
0.0
  0
ARC
  5
87C
330
1F
100
AcDbEntity
  8
0
100
AcDbCircle
 10
19.68516459317423
 20
88.4283708890468
 30
0.0
 40
0.2249999999999925
100
AcDbArc
 50
269.9999999999993
 51
29.99999999999941
1001
GENIUS_GENOBJ-N-FIL_13
1002
{
1000
OWNER
1000
GEN
1002
}
1001
GENIUS_GENODEF_13
1002
{
1000
HIER
1070
     0
1002
}
1002
{
1000
MANEDIT
1070
     0
1002
}
1002
{
1000
NOSEL
1070
     0
1002
}
1002
{
1000
BEHIND
1070
     0
1002
}
1002
{
1000
OTHER
1070
     0
1002
}
1002
{
1000
REACTOR
1002
}
  0
LINE
  5
87D
330
1F
100
AcDbEntity
  8
0
100
AcDbLine
 10
18.27354318500559
 20
90.42337088904684
 30
0.0
 11
16.31016459317435
 21
93.82404236459157
 31
0.0
  0
LINE
  5
87E
330
1F
100
AcDbEntity
  8
0
100
AcDbLine
 10
18.32550470923265
 20
90.33337088904682
 30
0.0
 11
16.83323246639924
 21
90.33337088904682
 31
0.0
  0
LINE
  5
87F
330
1F
100
AcDbEntity
  8
0
100
AcDbLine
 10
18.27354318500559
 20
90.42337088904684
 30
0.0
 11
16.83323246639923
 21
90.42337088904684
 31
0.0
  0
LINE
  5
880
330
1F
100
AcDbEntity
  8
0
100
AcDbLine
 10
16.35516459317435
 20
91.95337088904675
 30
0.0
 11
16.35516459317435
 21
90.90143876227166
 31
0.0
  0
LINE
  5
881
330
1F
100
AcDbEntity
  8
0
100
AcDbLine
 10
16.26516459317434
 20
91.95337088904675
 30
0.0
 11
16.26516459317433
 21
90.90143876227164
 31
0.0
  0
LINE
  5
882
330
1F
100
AcDbEntity
  8
0
100
AcDbLine
 10
14.92367458221391
 20
91.12689974587645
 30
0.0
 11
15.83467452705813
 21
90.60093368248891
 31
0.0
  0
LINE
  5
883
330
1F
100
AcDbEntity
  8
0
100
AcDbLine
 10
14.96867458221392
 20
91.20484203221705
 30
0.0
 11
15.87967452705813
 21
90.67887596882952
 31
0.0
  0
LINE
  5
884
330
1F
100
AcDbEntity
  8
0
100
AcDbLine
 10
15.90847994784287
 20
90.71641592407154
 30
0.0
 11
15.53588266777514
 21
91.08901320413925
 31
0.0
  0
LINE
  5
885
330
1F
100
AcDbEntity
  8
0
100
AcDbLine
 10
14.92367458221394
 20
89.62984203221711
 30
0.0
 11
15.83467452705815
 21
90.15580809560464
 31
0.0
  0
LINE
  5
886
330
1F
100
AcDbEntity
  8
0
100
AcDbLine
 10
15.81656668255399
 20
90.19952429939193
 30
0.0
 11
15.3075893326005
 21
90.06314422950616
 31
0.0
  0
LINE
  5
887
330
1F
100
AcDbEntity
  8
0
100
AcDbLine
 10
15.79327296849477
 20
90.28645762375793
 30
0.0
 11
15.28429561854127
 21
90.15007755387218
 31
0.0
  0
LINE
  5
888
330
1F
100
AcDbEntity
  8
0
100
AcDbLine
 10
14.73516459317442
 20
90.33337088904676
 30
0.0
 11
15.78709671994952
 21
90.33337088904676
 31
0.0
  0
LINE
  5
889
330
1F
100
AcDbEntity
  8
0
100
AcDbLine
 10
14.73516459317443
 20
90.42337088904679
 30
0.0
 11
15.78709671994951
 21
90.42337088904679
 31
0.0
  0
LINE
  5
88A
330
1F
100
AcDbEntity
  8
0
100
AcDbLine
 10
15.79327296849478
 20
90.47028415433567
 30
0.0
 11
15.28429561854128
 21
90.60666422422142
 31
0.0
  0
LINE
  5
88B
330
1F
100
AcDbEntity
  8
0
100
AcDbLine
 10
15.816566682554
 20
90.55721747870167
 30
0.0
 11
15.3075893326005
 21
90.69359754858744
 31
0.0
  0
LINE
  5
88C
330
1F
100
AcDbEntity
  8
0
100
AcDbLine
 10
15.28429561854127
 20
90.15007755387218
 30
0.0
 11
15.3075893326005
 21
90.06314422950616
 31
0.0
  0
LINE
  5
88D
330
1F
100
AcDbEntity
  8
0
100
AcDbLine
 10
14.73516459317442
 20
90.42337088904679
 30
0.0
 11
14.73516459317442
 21
90.33337088904676
 31
0.0
  0
LINE
  5
88E
330
1F
100
AcDbEntity
  8
0
100
AcDbLine
 10
15.3075893326005
 20
90.69359754858744
 30
0.0
 11
15.28429561854128
 21
90.60666422422142
 31
0.0
  0
ARC
  5
88F
330
1F
100
AcDbEntity
  8
0
100
AcDbCircle
 10
16.31016459317438
 20
90.3783708890468
 30
0.0
 40
0.5249999999999825
100
AcDbArc
 50
199.9171003355258
 51
205.0828996644722
  0
ARC
  5
890
330
1F
100
AcDbEntity
  8
0
100
AcDbCircle
 10
16.31016459317438
 20
90.3783708890468
 30
0.0
 40
0.5249999999999825
100
AcDbArc
 50
214.9171003355327
 51
220.0828996644705
  0
LINE
  5
891
330
1F
100
AcDbEntity
  8
0
100
AcDbLine
 10
15.90847994784286
 20
90.04032585402207
 30
0.0
 11
15.53588266777512
 21
89.66772857395435
 31
0.0
  0
ARC
  5
892
330
1F
100
AcDbEntity
  8
0
100
AcDbCircle
 10
16.31016459317438
 20
90.3783708890468
 30
0.0
 40
0.5249999999999825
100
AcDbArc
 50
259.9171003355267
 51
265.0828996644737
  0
ARC
  5
893
330
1F
100
AcDbEntity
  8
0
100
AcDbCircle
 10
16.31016459317438
 20
90.3783708890468
 30
0.0
 40
0.5249999999999825
100
AcDbArc
 50
229.9171003355266
 51
235.0828996644737
  0
ARC
  5
894
330
1F
100
AcDbEntity
  8
0
100
AcDbCircle
 10
16.31016459317438
 20
90.3783708890468
 30
0.0
 40
0.5249999999999825
100
AcDbArc
 50
244.9171003355329
 51
250.08289966447
  0
ARC
  5
895
330
1F
100
AcDbEntity
  8
0
100
AcDbCircle
 10
16.31016459317438
 20
90.3783708890468
 30
0.0
 40
0.5249999999999825
100
AcDbArc
 50
139.9171003355267
 51
145.0828996644743
  0
ARC
  5
896
330
1F
100
AcDbEntity
  8
0
100
AcDbCircle
 10
16.31016459317438
 20
90.3783708890468
 30
0.0
 40
0.5249999999999825
100
AcDbArc
 50
184.9171003355346
 51
190.0828996644701
  0
ARC
  5
897
330
1F
100
AcDbEntity
  8
0
100
AcDbCircle
 10
16.31016459317438
 20
90.3783708890468
 30
0.0
 40
0.5249999999999825
100
AcDbArc
 50
169.9171003355272
 51
175.0828996644735
  0
ARC
  5
898
330
1F
100
AcDbEntity
  8
0
100
AcDbCircle
 10
16.31016459317438
 20
90.3783708890468
 30
0.0
 40
0.5249999999999825
100
AcDbArc
 50
154.9171003355339
 51
160.0828996644715
  0
LINE
  5
899
330
1F
100
AcDbEntity
  8
0
100
AcDbLine
 10
14.96867458221391
 20
91.20484203221705
 30
0.0
 11
14.92367458221391
 21
91.12689974587643
 31
0.0
  0
LINE
  5
89A
330
1F
100
AcDbEntity
  8
0
100
AcDbLine
 10
15.48369345000407
 20
91.71986090000723
 30
0.0
 11
16.00965951339161
 21
90.808860955163
 31
0.0
  0
LINE
  5
89B
330
1F
100
AcDbEntity
  8
0
100
AcDbLine
 10
15.56163573634468
 20
91.76486090000723
 30
0.0
 11
16.08760179973222
 21
90.85386095516303
 31
0.0
  0
LINE
  5
89C
330
1F
100
AcDbEntity
  8
0
100
AcDbLine
 10
16.21825132788551
 20
90.89526251372641
 30
0.0
 11
16.08187125799975
 21
91.4042398636799
 31
0.0
  0
LINE
  5
89D
330
1F
100
AcDbEntity
  8
0
100
AcDbLine
 10
16.13131800351952
 20
90.87196879966718
 30
0.0
 11
15.99493793363373
 21
91.38094614962069
 31
0.0
  0
LINE
  5
89E
330
1F
100
AcDbEntity
  8
0
100
AcDbLine
 10
15.97211955814964
 20
90.78005553437831
 30
0.0
 11
15.59952227808192
 21
91.15265281444605
 31
0.0
  0
LINE
  5
89F
330
1F
100
AcDbEntity
  8
0
100
AcDbLine
 10
15.59952227808192
 20
91.15265281444605
 30
0.0
 11
15.53588266777514
 21
91.08901320413925
 31
0.0
  0
ARC
  5
8A0
330
1F
100
AcDbEntity
  8
0
100
AcDbCircle
 10
16.31016459317438
 20
90.3783708890468
 30
0.0
 40
0.5249999999999825
100
AcDbArc
 50
124.9171003355346
 51
130.0828996644706
  0
ARC
  5
8A1
330
1F
100
AcDbEntity
  8
0
100
AcDbCircle
 10
16.31016459317438
 20
90.3783708890468
 30
0.0
 40
0.5249999999999825
100
AcDbArc
 50
109.9171003355284
 51
115.0828996644734
  0
ARC
  5
8A2
330
1F
100
AcDbEntity
  8
0
100
AcDbCircle
 10
16.31016459317438
 20
90.3783708890468
 30
0.0
 40
0.5249999999999825
100
AcDbArc
 50
94.91710033553381
 51
100.0828996644723
  0
LINE
  5
8A3
330
1F
100
AcDbEntity
  8
0
100
AcDbLine
 10
15.56163573634467
 20
91.76486090000723
 30
0.0
 11
15.48369345000407
 21
91.71986090000723
 31
0.0
  0
LINE
  5
8A4
330
1F
100
AcDbEntity
  8
0
100
AcDbLine
 10
16.08187125799975
 20
91.4042398636799
 30
0.0
 11
15.99493793363373
 21
91.38094614962069
 31
0.0
  0
LINE
  5
8A5
330
1F
100
AcDbEntity
  8
0
100
AcDbLine
 10
16.71184923850589
 20
90.71641592407154
 30
0.0
 11
17.08444651857362
 21
91.08901320413925
 31
0.0
  0
LINE
  5
8A6
330
1F
100
AcDbEntity
  8
0
100
AcDbLine
 10
17.65165460413481
 20
91.2048420322171
 30
0.0
 11
16.74065465929058
 21
90.67887596882957
 31
0.0
  0
LINE
  5
8A7
330
1F
100
AcDbEntity
  8
0
100
AcDbLine
 10
17.6966546041348
 20
91.12689974587651
 30
0.0
 11
16.78565465929059
 21
90.60093368248896
 31
0.0
  0
LINE
  5
8A8
330
1F
100
AcDbEntity
  8
0
100
AcDbLine
 10
16.80376250379476
 20
90.55721747870165
 30
0.0
 11
17.31273985374825
 21
90.69359754858743
 31
0.0
  0
LINE
  5
8A9
330
1F
100
AcDbEntity
  8
0
100
AcDbLine
 10
16.82705621785398
 20
90.47028415433565
 30
0.0
 11
17.33603356780748
 21
90.60666422422142
 31
0.0
  0
LINE
  5
8AA
330
1F
100
AcDbEntity
  8
0
100
AcDbLine
 10
16.82705621785397
 20
90.28645762375793
 30
0.0
 11
17.33603356780747
 21
90.15007755387216
 31
0.0
  0
LINE
  5
8AB
330
1F
100
AcDbEntity
  8
0
100
AcDbLine
 10
16.80376250379475
 20
90.19952429939193
 30
0.0
 11
17.31273985374825
 21
90.06314422950614
 31
0.0
  0
LINE
  5
8AC
330
1F
100
AcDbEntity
  8
0
100
AcDbLine
 10
17.69665460413484
 20
89.62984203221715
 30
0.0
 11
16.78565465929062
 21
90.15580809560471
 31
0.0
  0
ARC
  5
8AD
330
1F
100
AcDbEntity
  8
0
100
AcDbCircle
 10
16.31016459317438
 20
90.3783708890468
 30
0.0
 40
0.5249999999999825
100
AcDbArc
 50
334.9171003355337
 51
340.0828996644713
  0
ARC
  5
8AE
330
1F
100
AcDbEntity
  8
0
100
AcDbCircle
 10
16.31016459317438
 20
90.3783708890468
 30
0.0
 40
0.5249999999999825
100
AcDbArc
 50
319.9171003355268
 51
325.0828996644739
  0
LINE
  5
8AF
330
1F
100
AcDbEntity
  8
0
100
AcDbLine
 10
16.71184923850589
 20
90.04032585402205
 30
0.0
 11
17.08444651857361
 21
89.66772857395433
 31
0.0
  0
ARC
  5
8B0
330
1F
100
AcDbEntity
  8
0
100
AcDbCircle
 10
16.31016459317438
 20
90.3783708890468
 30
0.0
 40
0.5249999999999825
100
AcDbArc
 50
274.9171003355338
 51
280.0828996644716
  0
ARC
  5
8B1
330
1F
100
AcDbEntity
  8
0
100
AcDbCircle
 10
16.31016459317438
 20
90.3783708890468
 30
0.0
 40
0.5249999999999825
100
AcDbArc
 50
289.9171003355269
 51
295.0828996644734
  0
ARC
  5
8B2
330
1F
100
AcDbEntity
  8
0
100
AcDbCircle
 10
16.31016459317438
 20
90.3783708890468
 30
0.0
 40
0.5249999999999825
100
AcDbArc
 50
304.9171003355338
 51
310.0828996644706
  0
ARC
  5
8B3
330
1F
100
AcDbEntity
  8
0
100
AcDbCircle
 10
16.31016459317438
 20
90.3783708890468
 30
0.0
 40
0.5249999999999825
100
AcDbArc
 50
34.91710033553512
 51
40.0828996644728
  0
ARC
  5
8B4
330
1F
100
AcDbEntity
  8
0
100
AcDbCircle
 10
16.31016459317438
 20
90.3783708890468
 30
0.0
 40
0.5249999999999825
100
AcDbArc
 50
349.9171003355272
 51
355.0828996644735
  0
ARC
  5
8B5
330
1F
100
AcDbEntity
  8
0
100
AcDbCircle
 10
16.31016459317438
 20
90.3783708890468
 30
0.0
 40
0.5249999999999825
100
AcDbArc
 50
4.917100335531907
 51
10.08289966447009
  0
ARC
  5
8B6
330
1F
100
AcDbEntity
  8
0
100
AcDbCircle
 10
16.31016459317438
 20
90.3783708890468
 30
0.0
 40
0.5249999999999825
100
AcDbArc
 50
19.91710033552585
 51
25.08289966447495
  0
LINE
  5
8B7
330
1F
100
AcDbEntity
  8
0
100
AcDbLine
 10
17.31273985374825
 20
90.06314422950614
 30
0.0
 11
17.33603356780747
 21
90.15007755387216
 31
0.0
  0
LINE
  5
8B8
330
1F
100
AcDbEntity
  8
0
100
AcDbLine
 10
17.33603356780748
 20
90.60666422422142
 30
0.0
 11
17.31273985374825
 21
90.69359754858743
 31
0.0
  0
LINE
  5
8B9
330
1F
100
AcDbEntity
  8
0
100
AcDbLine
 10
16.40207785846324
 20
90.89526251372639
 30
0.0
 11
16.53845792834901
 21
91.4042398636799
 31
0.0
  0
LINE
  5
8BA
330
1F
100
AcDbEntity
  8
0
100
AcDbLine
 10
16.48901118282924
 20
90.87196879966716
 30
0.0
 11
16.62539125271502
 21
91.38094614962069
 31
0.0
  0
LINE
  5
8BB
330
1F
100
AcDbEntity
  8
0
100
AcDbLine
 10
17.05869345000402
 20
91.76486090000727
 30
0.0
 11
16.53272738661646
 21
90.85386095516303
 31
0.0
  0
LINE
  5
8BC
330
1F
100
AcDbEntity
  8
0
100
AcDbLine
 10
17.13663573634462
 20
91.71986090000727
 30
0.0
 11
16.61066967295709
 21
90.80886095516303
 31
0.0
  0
LINE
  5
8BD
330
1F
100
AcDbEntity
  8
0
100
AcDbLine
 10
16.64820962819911
 20
90.78005553437831
 30
0.0
 11
17.02080690826683
 21
91.15265281444605
 31
0.0
  0
ARC
  5
8BE
330
1F
100
AcDbEntity
  8
0
100
AcDbCircle
 10
16.31016459317438
 20
90.3783708890468
 30
0.0
 40
0.5249999999999825
100
AcDbArc
 50
49.9171003355271
 51
55.08289966447429
  0
ARC
  5
8BF
330
1F
100
AcDbEntity
  8
0
100
AcDbCircle
 10
16.31016459317438
 20
90.3783708890468
 30
0.0
 40
0.5249999999999825
100
AcDbArc
 50
64.91710033553419
 51
70.08289966447158
  0
ARC
  5
8C0
330
1F
100
AcDbEntity
  8
0
100
AcDbCircle
 10
16.31016459317438
 20
90.3783708890468
 30
0.0
 40
0.5249999999999825
100
AcDbArc
 50
79.91710033552772
 51
85.0828996644743
  0
LINE
  5
8C1
330
1F
100
AcDbEntity
  8
0
100
AcDbLine
 10
17.08444651857362
 20
91.08901320413925
 30
0.0
 11
17.02080690826683
 21
91.15265281444605
 31
0.0
  0
LINE
  5
8C2
330
1F
100
AcDbEntity
  8
0
100
AcDbLine
 10
16.62539125271502
 20
91.38094614962069
 30
0.0
 11
16.53845792834901
 21
91.4042398636799
 31
0.0
  0
LINE
  5
8C3
330
1F
100
AcDbEntity
  8
0
100
AcDbLine
 10
17.13663573634463
 20
91.71986090000727
 30
0.0
 11
17.05869345000402
 21
91.76486090000727
 31
0.0
  0
LINE
  5
8C4
330
1F
100
AcDbEntity
  8
0
100
AcDbLine
 10
17.6966546041348
 20
91.12689974587651
 30
0.0
 11
17.6516546041348
 21
91.20484203221712
 31
0.0
  0
LINE
  5
8C5
330
1F
100
AcDbEntity
  8
0
100
AcDbLine
 10
16.35516459317435
 20
91.95337088904675
 30
0.0
 11
16.26516459317433
 21
91.95337088904675
 31
0.0
  0
ARC
  5
8C6
330
1F
100
AcDbEntity
  8
0
100
AcDbCircle
 10
16.31016459317448
 20
94.27404236459135
 30
0.0
 40
0.2249999999999925
100
AcDbArc
 50
29.99999999999941
 51
149.9999999999977
1001
GENIUS_GENOBJ-N-FIL_13
1002
{
1000
OWNER
1000
GEN
1002
}
1001
GENIUS_GENODEF_13
1002
{
1000
HIER
1070
     0
1002
}
1002
{
1000
MANEDIT
1070
     0
1002
}
1002
{
1000
NOSEL
1070
     0
1002
}
1002
{
1000
BEHIND
1070
     0
1002
}
1002
{
1000
OTHER
1070
     0
1002
}
1002
{
1000
REACTOR
1002
}
  0
ENDSEC
  0
SECTION
  2
OBJECTS
  0
DICTIONARY
  5
C
330
0
100
AcDbDictionary
281
     1
  3
ACAD_COLOR
350
BE
  3
ACAD_GROUP
350
D
  3
ACAD_LAYOUT
350
1A
  3
ACAD_MATERIAL
350
BD
  3
ACAD_MLINESTYLE
350
17
  3
ACAD_PLOTSETTINGS
350
19
  3
ACAD_PLOTSTYLENAME
350
E
  3
ACAD_TABLESTYLE
350
11A
  3
ACDBHEADERROUNDTRIPXREC
350
8CB
  3
AcDbVariableDictionary
350
94
  3
AcmDictionary
350
5B
  3
AMG
350
41
  3
AMGSNAPSETTINGS
350
1B8
  3
DWGPROPS
350
8CA
  0
DICTIONARY
  5
27F
330
2
100
AcDbDictionary
280
     1
281
     1
  3
ACAD_LAYERSTATES
360
280
  0
DICTIONARY
  5
8F
330
1F
100
AcDbDictionary
280
     1
281
     1
  3
ACAD_SORTENTS
360
8C7
  0
DICTIONARY
  5
BE
102
{ACAD_REACTORS
330
C
102
}
330
C
100
AcDbDictionary
281
     1
  0
DICTIONARY
  5
D
102
{ACAD_REACTORS
330
C
102
}
330
C
100
AcDbDictionary
281
     1
  0
DICTIONARY
  5
1A
102
{ACAD_REACTORS
330
C
102
}
330
C
100
AcDbDictionary
281
     1
  3
Model
350
22
  3
レイアウト1
350
1E
  3
レイアウト2
350
26
  0
DICTIONARY
  5
BD
102
{ACAD_REACTORS
330
C
102
}
330
C
100
AcDbDictionary
281
     1
  0
DICTIONARY
  5
17
102
{ACAD_REACTORS
330
C
102
}
330
C
100
AcDbDictionary
281
     1
  3
Standard
350
18
  0
DICTIONARY
  5
19
102
{ACAD_REACTORS
330
C
102
}
330
C
100
AcDbDictionary
281
     1
  0
ACDBDICTIONARYWDFLT
  5
E
102
{ACAD_REACTORS
330
C
102
}
330
C
100
AcDbDictionary
281
     1
  3
Normal
350
F
100
AcDbDictionaryWithDefault
340
F
  0
DICTIONARY
  5
11A
102
{ACAD_REACTORS
330
C
102
}
330
C
100
AcDbDictionary
281
     1
  3
Standard
350
11B
  0
DICTIONARY
  5
8CB
102
{ACAD_REACTORS
330
C
102
}
330
C
100
AcDbDictionary
281
     1
  0
DICTIONARY
  5
94
102
{ACAD_REACTORS
330
C
102
}
330
C
100
AcDbDictionary
281
     1
  3
CTABLESTYLE
350
138
  3
DIMASSOC
350
96
  3
INDEXCTL
350
95
  3
PROJECTNAME
350
719
  0
DICTIONARY
  5
5B
102
{ACAD_REACTORS
330
C
102
}
330
C
100
AcDbDictionary
281
     1
  3
AcmBOM
350
1B5
  3
AcmStdDictionary
350
61
  3
AMDTSECTSYM_ARROWCOLOR
350
123
  0
DICTIONARY
  5
41
102
{ACAD_REACTORS
330
C
102
}
330
C
100
AcDbDictionary
281
     1
  0
DICTIONARY
  5
1B8
102
{ACAD_REACTORS
330
C
102
}
330
C
100
AcDbDictionary
281
     1
  0
XRECORD
  5
8CA
102
{ACAD_REACTORS
330
C
102
}
330
C
100
AcDbXrecord
280
     1
  1
DWGPROPS COOKIE
  2

  3

  4

  6

  7

  8

  9

300
AmdtFileType=84
301
=
302
=
303
=
304
=
305
=
306
=
307
=
308
=
309
=
 40
0.0010908333333333
 41
2456406.529898125
 42
2456406.638538507
  1

 90
        1
  0
DICTIONARY
  5
280
102
{ACAD_REACTORS
330
27F
102
}
330
27F
100
AcDbDictionary
281
     1
  0
SORTENTSTABLE
  5
8C7
102
{ACAD_REACTORS
330
8F
102
}
330
8F
100
AcDbSortentsTable
330
1F
331
691
  5
691
331
5A2
  5
5A2
331
580
  5
580
331
6B3
  5
6B3
331
5C4
  5
5C4
331
6D5
  5
6D5
331
5E6
  5
5E6
331
6EF
  5
6EF
331
600
  5
600
331
879
  5
879
331
622
  5
622
331
89B
  5
89B
331
8BD
  5
8BD
331
86E
  5
86E
331
710
  5
710
331
680
  5
680
331
666
  5
666
331
644
  5
644
331
591
  5
591
331
572
  5
572
331
550
  5
550
331
52E
  5
52E
331
50C
  5
50C
331
4F2
  5
4F2
331
6A2
  5
6A2
331
5B3
  5
5B3
331
6C4
  5
6C4
331
5D5
  5
5D5
331
6E6
  5
6E6
331
5F7
  5
5F7
331
700
  5
700
331
611
  5
611
331
88A
  5
88A
331
8AC
  5
8AC
331
655
  5
655
331
633
  5
633
331
561
  5
561
331
53F
  5
53F
331
51D
  5
51D
331
503
  5
503
331
4E1
  5
4E1
331
5A0
  5
5A0
331
6B1
  5
6B1
331
5C2
  5
5C2
331
6D3
  5
6D3
331
5E4
  5
5E4
331
6ED
  5
6ED
331
5FE
  5
5FE
331
70F
  5
70F
331
620
  5
620
331
899
  5
899
331
8BB
  5
8BB
331
86C
  5
86C
331
67E
  5
67E
331
664
  5
664
331
642
  5
642
331
58F
  5
58F
331
570
  5
570
331
54E
  5
54E
331
52C
  5
52C
331
50A
  5
50A
331
4F0
  5
4F0
331
6A0
  5
6A0
331
5B1
  5
5B1
331
6C2
  5
6C2
331
5D3
  5
5D3
331
6E4
  5
6E4
331
5F5
  5
5F5
331
6FE
  5
6FE
331
60F
  5
60F
331
888
  5
888
331
8AA
  5
8AA
331
68F
  5
68F
331
653
  5
653
331
631
  5
631
331
55F
  5
55F
331
53D
  5
53D
331
51B
  5
51B
331
501
  5
501
331
4DF
  5
4DF
331
5C0
  5
5C0
331
6D1
  5
6D1
331
5E2
  5
5E2
331
6EB
  5
6EB
331
5FC
  5
5FC
331
70D
  5
70D
331
61E
  5
61E
331
897
  5
897
331
8B9
  5
8B9
331
86A
  5
86A
331
67C
  5
67C
331
662
  5
662
331
640
  5
640
331
58D
  5
58D
331
56E
  5
56E
331
54C
  5
54C
331
52A
  5
52A
331
508
  5
508
331
69E
  5
69E
331
5AF
  5
5AF
331
6C0
  5
6C0
331
5D1
  5
5D1
331
6E2
  5
6E2
331
5F3
  5
5F3
331
6FC
  5
6FC
331
60D
  5
60D
331
886
  5
886
331
62F
  5
62F
331
8A8
  5
8A8
331
68D
  5
68D
331
651
  5
651
331
59E
  5
59E
331
57F
  5
57F
331
55D
  5
55D
331
53B
  5
53B
331
519
  5
519
331
4FF
  5
4FF
331
6AF
  5
6AF
331
4EE
  5
4EE
331
4DD
  5
4DD
331
5E0
  5
5E0
331
6E9
  5
6E9
331
5FA
  5
5FA
331
70B
  5
70B
331
61C
  5
61C
331
895
  5
895
331
8B7
  5
8B7
331
868
  5
868
331
67A
  5
67A
331
660
  5
660
331
63E
  5
63E
331
58B
  5
58B
331
56C
  5
56C
331
54A
  5
54A
331
528
  5
528
331
69C
  5
69C
331
5AD
  5
5AD
331
6BE
  5
6BE
331
5CF
  5
5CF
331
6E0
  5
6E0
331
5F1
  5
5F1
331
6FA
  5
6FA
331
60B
  5
60B
331
884
  5
884
331
62D
  5
62D
331
8A6
  5
8A6
331
68B
  5
68B
331
64F
  5
64F
331
59C
  5
59C
331
57D
  5
57D
331
55B
  5
55B
331
539
  5
539
331
517
  5
517
331
4FD
  5
4FD
331
6AD
  5
6AD
331
6CF
  5
6CF
331
5BE
  5
5BE
331
4EC
  5
4EC
331
4DB
  5
4DB
331
5F8
  5
5F8
331
709
  5
709
331
61A
  5
61A
331
893
  5
893
331
8B5
  5
8B5
331
866
  5
866
331
678
  5
678
331
65E
  5
65E
331
63C
  5
63C
331
69A
  5
69A
331
5AB
  5
5AB
331
589
  5
589
331
56A
  5
56A
331
548
  5
548
331
6BC
  5
6BC
331
5CD
  5
5CD
331
6DE
  5
6DE
331
5EF
  5
5EF
331
6F8
  5
6F8
331
609
  5
609
331
882
  5
882
331
62B
  5
62B
331
8A4
  5
8A4
331
8C6
  5
8C6
331
877
  5
877
331
689
  5
689
331
66F
  5
66F
331
64D
  5
64D
331
59A
  5
59A
331
57B
  5
57B
331
559
  5
559
331
537
  5
537
331
515
  5
515
331
4FB
  5
4FB
331
6AB
  5
6AB
331
6CD
  5
6CD
331
5DE
  5
5DE
331
5BC
  5
5BC
331
526
  5
526
331
4EA
  5
4EA
331
618
  5
618
331
891
  5
891
331
8B3
  5
8B3
331
864
  5
864
331
676
  5
676
331
65C
  5
65C
331
63A
  5
63A
331
698
  5
698
331
5A9
  5
5A9
331
587
  5
587
331
568
  5
568
331
6BA
  5
6BA
331
5CB
  5
5CB
331
6DC
  5
6DC
331
5ED
  5
5ED
331
6F6
  5
6F6
331
607
  5
607
331
880
  5
880
331
629
  5
629
331
8A2
  5
8A2
331
8C4
  5
8C4
331
875
  5
875
331
687
  5
687
331
66D
  5
66D
331
64B
  5
64B
331
598
  5
598
331
579
  5
579
331
557
  5
557
331
535
  5
535
331
513
  5
513
331
4F9
  5
4F9
331
6A9
  5
6A9
331
6CB
  5
6CB
331
5DC
  5
5DC
331
5BA
  5
5BA
331
707
  5
707
331
546
  5
546
331
524
  5
524
331
4E8
  5
4E8
331
8B1
  5
8B1
331
862
  5
862
331
674
  5
674
331
65A
  5
65A
331
638
  5
638
331
696
  5
696
331
5A7
  5
5A7
331
585
  5
585
331
6B8
  5
6B8
331
5C9
  5
5C9
331
6DA
  5
6DA
331
5EB
  5
5EB
331
6F4
  5
6F4
331
605
  5
605
331
87E
  5
87E
331
627
  5
627
331
8A0
  5
8A0
331
8C2
  5
8C2
331
873
  5
873
331
715
  5
715
331
685
  5
685
331
66B
  5
66B
331
649
  5
649
331
596
  5
596
331
577
  5
577
331
555
  5
555
331
533
  5
533
331
511
  5
511
331
4F7
  5
4F7
331
6A7
  5
6A7
331
6C9
  5
6C9
331
5DA
  5
5DA
331
5B8
  5
5B8
331
705
  5
705
331
616
  5
616
331
88F
  5
88F
331
566
  5
566
331
544
  5
544
331
522
  5
522
331
4E6
  5
4E6
331
860
  5
860
331
672
  5
672
331
658
  5
658
331
694
  5
694
331
5A5
  5
5A5
331
583
  5
583
331
6B6
  5
6B6
331
5C7
  5
5C7
331
6D8
  5
6D8
331
5E9
  5
5E9
331
6F2
  5
6F2
331
603
  5
603
331
87C
  5
87C
331
625
  5
625
331
89E
  5
89E
331
8C0
  5
8C0
331
871
  5
871
331
713
  5
713
331
683
  5
683
331
669
  5
669
331
647
  5
647
331
594
  5
594
331
575
  5
575
331
553
  5
553
331
531
  5
531
331
50F
  5
50F
331
4F5
  5
4F5
331
6A5
  5
6A5
331
5B6
  5
5B6
331
6C7
  5
6C7
331
5D8
  5
5D8
331
703
  5
703
331
614
  5
614
331
88D
  5
88D
331
8AF
  5
8AF
331
636
  5
636
331
564
  5
564
331
542
  5
542
331
520
  5
520
331
506
  5
506
331
4E4
  5
4E4
331
670
  5
670
331
692
  5
692
331
5A3
  5
5A3
331
581
  5
581
331
6B4
  5
6B4
331
5C5
  5
5C5
331
6D6
  5
6D6
331
5E7
  5
5E7
331
6F0
  5
6F0
331
601
  5
601
331
87A
  5
87A
331
623
  5
623
331
89C
  5
89C
331
8BE
  5
8BE
331
86F
  5
86F
331
711
  5
711
331
681
  5
681
331
667
  5
667
331
645
  5
645
331
592
  5
592
331
573
  5
573
331
551
  5
551
331
52F
  5
52F
331
50D
  5
50D
331
4F3
  5
4F3
331
6A3
  5
6A3
331
5B4
  5
5B4
331
6C5
  5
6C5
331
5D6
  5
5D6
331
6E7
  5
6E7
331
701
  5
701
331
612
  5
612
331
88B
  5
88B
331
8AD
  5
8AD
331
85E
  5
85E
331
656
  5
656
331
634
  5
634
331
562
  5
562
331
540
  5
540
331
51E
  5
51E
331
504
  5
504
331
4E2
  5
4E2
331
690
  5
690
331
5A1
  5
5A1
331
6B2
  5
6B2
331
5C3
  5
5C3
331
6D4
  5
6D4
331
5E5
  5
5E5
331
6EE
  5
6EE
331
5FF
  5
5FF
331
878
  5
878
331
621
  5
621
331
89A
  5
89A
331
8BC
  5
8BC
331
86D
  5
86D
331
67F
  5
67F
331
665
  5
665
331
643
  5
643
331
590
  5
590
331
571
  5
571
331
54F
  5
54F
331
52D
  5
52D
331
50B
  5
50B
331
4F1
  5
4F1
331
6A1
  5
6A1
331
5B2
  5
5B2
331
6C3
  5
6C3
331
5D4
  5
5D4
331
6E5
  5
6E5
331
5F6
  5
5F6
331
6FF
  5
6FF
331
610
  5
610
331
889
  5
889
331
8AB
  5
8AB
331
654
  5
654
331
632
  5
632
331
560
  5
560
331
53E
  5
53E
331
51C
  5
51C
331
502
  5
502
331
4E0
  5
4E0
331
6B0
  5
6B0
331
5C1
  5
5C1
331
6D2
  5
6D2
331
5E3
  5
5E3
331
6EC
  5
6EC
331
5FD
  5
5FD
331
70E
  5
70E
331
61F
  5
61F
331
898
  5
898
331
8BA
  5
8BA
331
86B
  5
86B
331
67D
  5
67D
331
663
  5
663
331
641
  5
641
331
58E
  5
58E
331
56F
  5
56F
331
54D
  5
54D
331
52B
  5
52B
331
509
  5
509
331
69F
  5
69F
331
5B0
  5
5B0
331
6C1
  5
6C1
331
5D2
  5
5D2
331
6E3
  5
6E3
331
5F4
  5
5F4
331
6FD
  5
6FD
331
60E
  5
60E
331
887
  5
887
331
8A9
  5
8A9
331
68E
  5
68E
331
652
  5
652
331
630
  5
630
331
59F
  5
59F
331
55E
  5
55E
331
53C
  5
53C
331
51A
  5
51A
331
500
  5
500
331
4EF
  5
4EF
331
4DE
  5
4DE
331
6D0
  5
6D0
331
5E1
  5
5E1
331
6EA
  5
6EA
331
5FB
  5
5FB
331
70C
  5
70C
331
61D
  5
61D
331
896
  5
896
331
8B8
  5
8B8
331
869
  5
869
331
67B
  5
67B
331
661
  5
661
331
63F
  5
63F
331
58C
  5
58C
331
56D
  5
56D
331
54B
  5
54B
331
529
  5
529
331
69D
  5
69D
331
5AE
  5
5AE
331
6BF
  5
6BF
331
5D0
  5
5D0
331
6E1
  5
6E1
331
5F2
  5
5F2
331
6FB
  5
6FB
331
60C
  5
60C
331
885
  5
885
331
62E
  5
62E
331
8A7
  5
8A7
331
68C
  5
68C
331
650
  5
650
331
59D
  5
59D
331
57E
  5
57E
331
55C
  5
55C
331
53A
  5
53A
331
518
  5
518
331
4FE
  5
4FE
331
6AE
  5
6AE
331
5BF
  5
5BF
331
4ED
  5
4ED
331
4DC
  5
4DC
331
6E8
  5
6E8
331
5F9
  5
5F9
331
70A
  5
70A
331
61B
  5
61B
331
894
  5
894
331
8B6
  5
8B6
331
867
  5
867
331
679
  5
679
331
65F
  5
65F
331
63D
  5
63D
331
69B
  5
69B
331
5AC
  5
5AC
331
58A
  5
58A
331
56B
  5
56B
331
549
  5
549
331
6BD
  5
6BD
331
5CE
  5
5CE
331
6DF
  5
6DF
331
5F0
  5
5F0
331
6F9
  5
6F9
331
60A
  5
60A
331
883
  5
883
331
62C
  5
62C
331
8A5
  5
8A5
331
68A
  5
68A
331
64E
  5
64E
331
59B
  5
59B
331
57C
  5
57C
331
55A
  5
55A
331
538
  5
538
331
516
  5
516
331
4FC
  5
4FC
331
6AC
  5
6AC
331
6CE
  5
6CE
331
5DF
  5
5DF
331
5BD
  5
5BD
331
527
  5
527
331
4EB
  5
4EB
331
708
  5
708
331
619
  5
619
331
892
  5
892
331
8B4
  5
8B4
331
865
  5
865
331
677
  5
677
331
65D
  5
65D
331
63B
  5
63B
331
699
  5
699
331
5AA
  5
5AA
331
588
  5
588
331
569
  5
569
331
6BB
  5
6BB
331
5CC
  5
5CC
331
6DD
  5
6DD
331
5EE
  5
5EE
331
6F7
  5
6F7
331
608
  5
608
331
881
  5
881
331
62A
  5
62A
331
8A3
  5
8A3
331
8C5
  5
8C5
331
876
  5
876
331
688
  5
688
331
66E
  5
66E
331
64C
  5
64C
331
599
  5
599
331
57A
  5
57A
331
558
  5
558
331
536
  5
536
331
514
  5
514
331
4FA
  5
4FA
331
6AA
  5
6AA
331
6CC
  5
6CC
331
5DD
  5
5DD
331
5BB
  5
5BB
331
547
  5
547
331
525
  5
525
331
4E9
  5
4E9
331
890
  5
890
331
8B2
  5
8B2
331
863
  5
863
331
675
  5
675
331
65B
  5
65B
331
639
  5
639
331
697
  5
697
331
5A8
  5
5A8
331
586
  5
586
331
6B9
  5
6B9
331
5CA
  5
5CA
331
6DB
  5
6DB
331
5EC
  5
5EC
331
6F5
  5
6F5
331
606
  5
606
331
87F
  5
87F
331
628
  5
628
331
8A1
  5
8A1
331
8C3
  5
8C3
331
874
  5
874
331
716
  5
716
331
686
  5
686
331
66C
  5
66C
331
64A
  5
64A
331
597
  5
597
331
578
  5
578
331
556
  5
556
331
534
  5
534
331
512
  5
512
331
4F8
  5
4F8
331
6A8
  5
6A8
331
6CA
  5
6CA
331
5DB
  5
5DB
331
5B9
  5
5B9
331
706
  5
706
331
617
  5
617
331
567
  5
567
331
545
  5
545
331
523
  5
523
331
4E7
  5
4E7
331
8B0
  5
8B0
331
861
  5
861
331
673
  5
673
331
659
  5
659
331
695
  5
695
331
5A6
  5
5A6
331
584
  5
584
331
6B7
  5
6B7
331
5C8
  5
5C8
331
6D9
  5
6D9
331
5EA
  5
5EA
331
6F3
  5
6F3
331
604
  5
604
331
87D
  5
87D
331
626
  5
626
331
89F
  5
89F
331
8C1
  5
8C1
331
872
  5
872
331
714
  5
714
331
684
  5
684
331
66A
  5
66A
331
648
  5
648
331
595
  5
595
331
576
  5
576
331
554
  5
554
331
532
  5
532
331
510
  5
510
331
4F6
  5
4F6
331
6A6
  5
6A6
331
5B7
  5
5B7
331
6C8
  5
6C8
331
5D9
  5
5D9
331
704
  5
704
331
615
  5
615
331
88E
  5
88E
331
637
  5
637
331
565
  5
565
331
543
  5
543
331
521
  5
521
331
507
  5
507
331
4E5
  5
4E5
331
671
  5
671
331
693
  5
693
331
5A4
  5
5A4
331
582
  5
582
331
6B5
  5
6B5
331
5C6
  5
5C6
331
6D7
  5
6D7
331
5E8
  5
5E8
331
6F1
  5
6F1
331
602
  5
602
331
87B
  5
87B
331
624
  5
624
331
89D
  5
89D
331
8BF
  5
8BF
331
870
  5
870
331
712
  5
712
331
682
  5
682
331
668
  5
668
331
646
  5
646
331
593
  5
593
331
574
  5
574
331
552
  5
552
331
530
  5
530
331
50E
  5
50E
331
4F4
  5
4F4
331
6A4
  5
6A4
331
5B5
  5
5B5
331
6C6
  5
6C6
331
5D7
  5
5D7
331
702
  5
702
331
613
  5
613
331
88C
  5
88C
331
8AE
  5
8AE
331
85F
  5
85F
331
657
  5
657
331
635
  5
635
331
563
  5
563
331
541
  5
541
331
51F
  5
51F
331
505
  5
505
331
4E3
  5
4E3
  0
LAYOUT
  5
22
102
{ACAD_XDICTIONARY
360
8CE
102
}
102
{ACAD_REACTORS
330
1A
102
}
330
1A
100
AcDbPlotSettings
  1

  2

  4

  6

 40
0.0
 41
0.0
 42
0.0
 43
0.0
 44
0.0
 45
0.0
 46
0.0
 47
0.0
 48
0.0
 49
0.0
140
0.0
141
0.0
142
1.0
143
1.0
 70
  1712
 72
     0
 73
     0
 74
     0
  7

 75
     0
147
1.0
148
0.0
149
0.0
100
AcDbLayout
  1
Model
 70
     1
 71
     0
 10
0.0
 20
0.0
 11
12.0
 21
9.0
 12
0.0
 22
0.0
 32
0.0
 14
0.0
 24
0.0
 34
0.0
 15
0.0
 25
0.0
 35
0.0
146
0.0
 13
0.0
 23
0.0
 33
0.0
 16
1.0
 26
0.0
 36
0.0
 17
0.0
 27
1.0
 37
0.0
 76
     0
330
1F
  0
LAYOUT
  5
1E
102
{ACAD_XDICTIONARY
360
8CC
102
}
102
{ACAD_REACTORS
330
1A
102
}
330
1A
100
AcDbPlotSettings
  1

  2

  4

  6

 40
0.0
 41
0.0
 42
0.0
 43
0.0
 44
0.0
 45
0.0
 46
0.0
 47
0.0
 48
0.0
 49
0.0
140
0.0
141
0.0
142
1.0
143
1.0
 70
   688
 72
     0
 73
     0
 74
     5
  7

 75
    16
147
1.0
148
0.0
149
0.0
100
AcDbLayout
  1
レイアウト1
 70
     1
 71
     1
 10
0.0
 20
0.0
 11
420.0
 21
297.0
 12
0.0
 22
0.0
 32
0.0
 14
1.000000000000000E+20
 24
1.000000000000000E+20
 34
1.000000000000000E+20
 15
-1.000000000000000E+20
 25
-1.000000000000000E+20
 35
-1.000000000000000E+20
146
0.0
 13
0.0
 23
0.0
 33
0.0
 16
1.0
 26
0.0
 36
0.0
 17
0.0
 27
1.0
 37
0.0
 76
     0
330
1B
  0
LAYOUT
  5
26
102
{ACAD_XDICTIONARY
360
8D0
102
}
102
{ACAD_REACTORS
330
1A
102
}
330
1A
100
AcDbPlotSettings
  1

  2

  4

  6

 40
0.0
 41
0.0
 42
0.0
 43
0.0
 44
0.0
 45
0.0
 46
0.0
 47
0.0
 48
0.0
 49
0.0
140
0.0
141
0.0
142
1.0
143
1.0
 70
   688
 72
     0
 73
     0
 74
     5
  7

 75
    16
147
1.0
148
0.0
149
0.0
100
AcDbLayout
  1
レイアウト2
 70
     1
 71
     2
 10
0.0
 20
0.0
 11
12.0
 21
9.0
 12
0.0
 22
0.0
 32
0.0
 14
0.0
 24
0.0
 34
0.0
 15
0.0
 25
0.0
 35
0.0
146
0.0
 13
0.0
 23
0.0
 33
0.0
 16
1.0
 26
0.0
 36
0.0
 17
0.0
 27
1.0
 37
0.0
 76
     0
330
23
  0
MLINESTYLE
  5
18
102
{ACAD_REACTORS
330
17
102
}
330
17
100
AcDbMlineStyle
  2
STANDARD
 70
     0
  3

 62
   256
 51
90.0
 52
90.0
 71
     2
 49
0.5
 62
   256
  6
BYLAYER
 49
-0.5
 62
   256
  6
BYLAYER
  0
ACDBPLACEHOLDER
  5
F
102
{ACAD_REACTORS
330
E
102
}
330
E
  0
TABLESTYLE
  5
11B
102
{ACAD_REACTORS
330
11A
102
}
330
11A
100
AcDbTableStyle
  3
Standard
 70
     0
 71
     0
 40
1.5
 41
1.5
280
     0
281
     0
  7
STANDARD
140
4.5
170
     2
 62
     0
 63
     7
283
     0
274
    -2
284
     1
 64
     0
275
    -2
285
     1
 65
     0
276
    -2
286
     1
 66
     0
277
    -2
287
     1
 67
     0
278
    -2
288
     1
 68
     0
279
    -2
289
     1
 69
     0
  7
STANDARD
140
6.0
170
     5
 62
     0
 63
     7
283
     0
274
    -2
284
     1
 64
     0
275
    -2
285
     1
 65
     0
276
    -2
286
     1
 66
     0
277
    -2
287
     1
 67
     0
278
    -2
288
     1
 68
     0
279
    -2
289
     1
 69
     0
  7
STANDARD
140
4.5
170
     5
 62
     0
 63
     7
283
     0
274
    -2
284
     1
 64
     0
275
    -2
285
     1
 65
     0
276
    -2
286
     1
 66
     0
277
    -2
287
     1
 67
     0
278
    -2
288
     1
 68
     0
279
    -2
289
     1
 69
     0
  0
DICTIONARYVAR
  5
138
102
{ACAD_REACTORS
330
94
102
}
330
94
100
DictionaryVariables
280
     0
  1
STANDARD
  0
DICTIONARYVAR
  5
96
102
{ACAD_REACTORS
330
94
102
}
330
94
100
DictionaryVariables
280
     0
  1
2
  0
DICTIONARYVAR
  5
95
102
{ACAD_REACTORS
330
94
102
}
330
94
100
DictionaryVariables
280
     0
  1
0
  0
DICTIONARYVAR
  5
719
102
{ACAD_REACTORS
330
94
102
}
330
94
100
DictionaryVariables
280
     0
  1

  0
DICTIONARY
  5
1B5
102
{ACAD_REACTORS
330
5B
102
}
330
5B
100
AcDbDictionary
281
     1
  0
DICTIONARY
  5
61
102
{ACAD_REACTORS
330
5B
102
}
330
5B
100
AcDbDictionary
281
     1
  0
XRECORD
  5
123
102
{ACAD_REACTORS
330
5B
102
}
330
5B
100
AcDbXrecord
280
     1
 90
-1023410169
  0
DICTIONARY
  5
8CE
330
22
100
AcDbDictionary
280
     1
281
     1
  3
ACAD_XREC_ROUNDTRIP
360
8CF
  0
DICTIONARY
  5
8CC
330
1E
100
AcDbDictionary
280
     1
281
     1
  3
ACAD_XREC_ROUNDTRIP
360
8CD
  0
DICTIONARY
  5
8D0
330
26
100
AcDbDictionary
280
     1
281
     1
  3
ACAD_XREC_ROUNDTRIP
360
8D1
  0
XRECORD
  5
8CF
102
{ACAD_REACTORS
330
8CE
102
}
330
8CE
100
AcDbXrecord
280
     1
102
SHADEPLOT
 70
     0
102
SHADEPLOTRESLEVEL
 70
     2
102
SHADEPLOTCUSTOMDPI
 70
   300
  0
XRECORD
  5
8CD
102
{ACAD_REACTORS
330
8CC
102
}
330
8CC
100
AcDbXrecord
280
     1
102
SHADEPLOT
 70
     0
102
SHADEPLOTRESLEVEL
 70
     2
102
SHADEPLOTCUSTOMDPI
 70
   300
  0
XRECORD
  5
8D1
102
{ACAD_REACTORS
330
8D0
102
}
330
8D0
100
AcDbXrecord
280
     1
102
SHADEPLOT
 70
     0
102
SHADEPLOTRESLEVEL
 70
     2
102
SHADEPLOTCUSTOMDPI
 70
   300
  0
ENDSEC
  0
EOF
