  0
SECTION
  2
HEADER
  9
$ACADVER
  1
AC1015
  9
$ACADMAINTVER
 70
    10
  9
$DWGCODEPAGE
  3
ANSI_932
  9
$INSBASE
 10
0.0
 20
0.0
 30
0.0
  9
$EXTMIN
 10
319.5305451107
 20
246.4733295852528
 30
0.0
  9
$EXTMAX
 10
558.4447587220878
 20
418.6804363818962
 30
0.0
  9
$LIMMIN
 10
0.0
 20
0.0
  9
$LIMMAX
 10
420.0
 20
297.0
  9
$ORTHOMODE
 70
     0
  9
$REGENMODE
 70
     1
  9
$FILLMODE
 70
     1
  9
$QTEXTMODE
 70
     0
  9
$MIRRTEXT
 70
     1
  9
$LTSCALE
 40
1.0
  9
$ATTMODE
 70
     1
  9
$TEXTSIZE
 40
2.5
  9
$TRACEWID
 40
1.0
  9
$TEXTSTYLE
  7
Standard
  9
$CLAYER
  8
0
  9
$CELTYPE
  6
ByLayer
  9
$CECOLOR
 62
   256
  9
$CELTSCALE
 40
1.0
  9
$DISPSILH
 70
     0
  9
$DIMSCALE
 40
1.0
  9
$DIMASZ
 40
2.5
  9
$DIMEXO
 40
0.625
  9
$DIMDLI
 40
3.75
  9
$DIMRND
 40
0.0
  9
$DIMDLE
 40
0.0
  9
$DIMEXE
 40
1.25
  9
$DIMTP
 40
0.0
  9
$DIMTM
 40
0.0
  9
$DIMTXT
 40
2.5
  9
$DIMCEN
 40
2.5
  9
$DIMTSZ
 40
0.0
  9
$DIMTOL
 70
     0
  9
$DIMLIM
 70
     0
  9
$DIMTIH
 70
     0
  9
$DIMTOH
 70
     0
  9
$DIMSE1
 70
     0
  9
$DIMSE2
 70
     0
  9
$DIMTAD
 70
     1
  9
$DIMZIN
 70
     8
  9
$DIMBLK
  1

  9
$DIMASO
 70
     1
  9
$DIMSHO
 70
     1
  9
$DIMPOST
  1

  9
$DIMAPOST
  1

  9
$DIMALT
 70
     0
  9
$DIMALTD
 70
     3
  9
$DIMALTF
 40
0.03937007874016
  9
$DIMLFAC
 40
1.0
  9
$DIMTOFL
 70
     1
  9
$DIMTVP
 40
0.0
  9
$DIMTIX
 70
     0
  9
$DIMSOXD
 70
     0
  9
$DIMSAH
 70
     0
  9
$DIMBLK1
  1

  9
$DIMBLK2
  1

  9
$DIMSTYLE
  2
ISO-25
  9
$DIMCLRD
 70
     0
  9
$DIMCLRE
 70
     0
  9
$DIMCLRT
 70
     0
  9
$DIMTFAC
 40
1.0
  9
$DIMGAP
 40
0.625
  9
$DIMJUST
 70
     0
  9
$DIMSD1
 70
     0
  9
$DIMSD2
 70
     0
  9
$DIMTOLJ
 70
     0
  9
$DIMTZIN
 70
     8
  9
$DIMALTZ
 70
     0
  9
$DIMALTTZ
 70
     0
  9
$DIMUPT
 70
     0
  9
$DIMDEC
 70
     2
  9
$DIMTDEC
 70
     2
  9
$DIMALTU
 70
     2
  9
$DIMALTTD
 70
     3
  9
$DIMTXSTY
  7
Standard
  9
$DIMAUNIT
 70
     0
  9
$DIMADEC
 70
     0
  9
$DIMALTRND
 40
0.0
  9
$DIMAZIN
 70
     0
  9
$DIMDSEP
 70
    44
  9
$DIMATFIT
 70
     3
  9
$DIMFRAC
 70
     0
  9
$DIMLDRBLK
  1

  9
$DIMLUNIT
 70
     2
  9
$DIMLWD
 70
    -2
  9
$DIMLWE
 70
    -2
  9
$DIMTMOVE
 70
     0
  9
$LUNITS
 70
     2
  9
$LUPREC
 70
     4
  9
$SKETCHINC
 40
1.0
  9
$FILLETRAD
 40
10.0
  9
$AUNITS
 70
     0
  9
$AUPREC
 70
     0
  9
$MENU
  1
.
  9
$ELEVATION
 40
0.0
  9
$PELEVATION
 40
0.0
  9
$THICKNESS
 40
0.0
  9
$LIMCHECK
 70
     0
  9
$CHAMFERA
 40
10.0
  9
$CHAMFERB
 40
10.0
  9
$CHAMFERC
 40
20.0
  9
$CHAMFERD
 40
0.0
  9
$SKPOLY
 70
     0
  9
$TDCREATE
 40
2456496.437692164
  9
$TDUCREATE
 40
2456496.062692164
  9
$TDUPDATE
 40
2456500.609964988
  9
$TDUUPDATE
 40
2456500.234964988
  9
$TDINDWG
 40
0.0396573495
  9
$TDUSRTIMER
 40
0.0396568056
  9
$USRTIMER
 70
     1
  9
$ANGBASE
 50
0.0
  9
$ANGDIR
 70
     0
  9
$PDMODE
 70
     0
  9
$PDSIZE
 40
0.0
  9
$PLINEWID
 40
0.0
  9
$SPLFRAME
 70
     0
  9
$SPLINETYPE
 70
     6
  9
$SPLINESEGS
 70
     8
  9
$HANDSEED
  5
48B
  9
$SURFTAB1
 70
     6
  9
$SURFTAB2
 70
     6
  9
$SURFTYPE
 70
     6
  9
$SURFU
 70
     6
  9
$SURFV
 70
     6
  9
$UCSBASE
  2

  9
$UCSNAME
  2

  9
$UCSORG
 10
0.0
 20
0.0
 30
0.0
  9
$UCSXDIR
 10
1.0
 20
0.0
 30
0.0
  9
$UCSYDIR
 10
0.0
 20
1.0
 30
0.0
  9
$UCSORTHOREF
  2

  9
$UCSORTHOVIEW
 70
     0
  9
$UCSORGTOP
 10
0.0
 20
0.0
 30
0.0
  9
$UCSORGBOTTOM
 10
0.0
 20
0.0
 30
0.0
  9
$UCSORGLEFT
 10
0.0
 20
0.0
 30
0.0
  9
$UCSORGRIGHT
 10
0.0
 20
0.0
 30
0.0
  9
$UCSORGFRONT
 10
0.0
 20
0.0
 30
0.0
  9
$UCSORGBACK
 10
0.0
 20
0.0
 30
0.0
  9
$PUCSBASE
  2

  9
$PUCSNAME
  2

  9
$PUCSORG
 10
0.0
 20
0.0
 30
0.0
  9
$PUCSXDIR
 10
1.0
 20
0.0
 30
0.0
  9
$PUCSYDIR
 10
0.0
 20
1.0
 30
0.0
  9
$PUCSORTHOREF
  2

  9
$PUCSORTHOVIEW
 70
     0
  9
$PUCSORGTOP
 10
0.0
 20
0.0
 30
0.0
  9
$PUCSORGBOTTOM
 10
0.0
 20
0.0
 30
0.0
  9
$PUCSORGLEFT
 10
0.0
 20
0.0
 30
0.0
  9
$PUCSORGRIGHT
 10
0.0
 20
0.0
 30
0.0
  9
$PUCSORGFRONT
 10
0.0
 20
0.0
 30
0.0
  9
$PUCSORGBACK
 10
0.0
 20
0.0
 30
0.0
  9
$USERI1
 70
     0
  9
$USERI2
 70
     0
  9
$USERI3
 70
     0
  9
$USERI4
 70
     0
  9
$USERI5
 70
     0
  9
$USERR1
 40
0.0
  9
$USERR2
 40
0.0
  9
$USERR3
 40
0.0
  9
$USERR4
 40
0.0
  9
$USERR5
 40
0.0
  9
$WORLDVIEW
 70
     1
  9
$SHADEDGE
 70
     3
  9
$SHADEDIF
 70
    70
  9
$TILEMODE
 70
     1
  9
$MAXACTVP
 70
    64
  9
$PINSBASE
 10
0.0
 20
0.0
 30
0.0
  9
$PLIMCHECK
 70
     0
  9
$PEXTMIN
 10
0.0
 20
0.0
 30
0.0
  9
$PEXTMAX
 10
0.0
 20
0.0
 30
0.0
  9
$PLIMMIN
 10
0.0
 20
0.0
  9
$PLIMMAX
 10
12.0
 20
9.0
  9
$UNITMODE
 70
     0
  9
$VISRETAIN
 70
     1
  9
$PLINEGEN
 70
     0
  9
$PSLTSCALE
 70
     1
  9
$TREEDEPTH
 70
  3020
  9
$CMLSTYLE
  2
Standard
  9
$CMLJUST
 70
     0
  9
$CMLSCALE
 40
20.0
  9
$PROXYGRAPHICS
 70
     1
  9
$MEASUREMENT
 70
     1
  9
$CELWEIGHT
370
    -1
  9
$ENDCAPS
280
     0
  9
$JOINSTYLE
280
     0
  9
$LWDISPLAY
290
     0
  9
$INSUNITS
 70
     4
  9
$HYPERLINKBASE
  1

  9
$STYLESHEET
  1

  9
$XEDIT
290
     1
  9
$CEPSNTYPE
380
     0
  9
$PSTYLEMODE
290
     1
  9
$FINGERPRINTGUID
  2
{FDEAD578-A652-11D2-9A35-0060089B3A3F}
  9
$VERSIONGUID
  2
{5938F008-ECCE-4501-8C2E-5252C65E1B32}
  9
$EXTNAMES
290
     1
  9
$PSVPSCALE
 40
0.0
  9
$OLESTARTUP
290
     0
  0
ENDSEC
  0
SECTION
  2
CLASSES
  0
CLASS
  1
ACDBDICTIONARYWDFLT
  2
AcDbDictionaryWithDefault
  3
AutoCAD 2000
 90
        0
280
     0
281
     0
  0
CLASS
  1
ACDBPLACEHOLDER
  2
AcDbPlaceHolder
  3
AutoCAD 2000
 90
        0
280
     0
281
     0
  0
CLASS
  1
LAYOUT
  2
AcDbLayout
  3
AutoCAD 2000
 90
        0
280
     0
281
     0
  0
ENDSEC
  0
SECTION
  2
TABLES
  0
TABLE
  2
VPORT
  5
8
330
0
100
AcDbSymbolTable
 70
     2
  0
VPORT
  5
48A
330
8
100
AcDbSymbolTableRecord
100
AcDbViewportTableRecord
  2
*Active
 70
     0
 10
0.0
 20
0.0
 11
1.0
 21
1.0
 12
437.1493444597157
 22
327.7743944694333
 13
0.0
 23
0.0
 14
10.0
 24
10.0
 15
10.0
 25
10.0
 16
0.0
 26
0.0
 36
1.0
 17
0.0
 27
0.0
 37
0.0
 40
224.6428305578888
 41
1.781954887218045
 42
50.0
 43
0.0
 44
0.0
 50
0.0
 51
0.0
 71
     0
 72
   100
 73
     1
 74
     3
 75
     0
 76
     0
 77
     0
 78
     0
281
     0
 65
     1
110
0.0
120
0.0
130
0.0
111
1.0
121
0.0
131
0.0
112
0.0
122
1.0
132
0.0
 79
     0
146
0.0
  0
ENDTAB
  0
TABLE
  2
LTYPE
  5
5
330
0
100
AcDbSymbolTable
 70
     1
  0
LTYPE
  5
14
330
5
100
AcDbSymbolTableRecord
100
AcDbLinetypeTableRecord
  2
ByBlock
 70
     0
  3

 72
    65
 73
     0
 40
0.0
  0
LTYPE
  5
15
330
5
100
AcDbSymbolTableRecord
100
AcDbLinetypeTableRecord
  2
ByLayer
 70
     0
  3

 72
    65
 73
     0
 40
0.0
  0
LTYPE
  5
16
330
5
100
AcDbSymbolTableRecord
100
AcDbLinetypeTableRecord
  2
Continuous
 70
     0
  3
Solid line
 72
    65
 73
     0
 40
0.0
  0
ENDTAB
  0
TABLE
  2
LAYER
  5
2
330
0
100
AcDbSymbolTable
 70
     1
  0
LAYER
  5
10
330
2
100
AcDbSymbolTableRecord
100
AcDbLayerTableRecord
  2
0
 70
     0
 62
     7
  6
Continuous
370
    -3
390
F
  0
ENDTAB
  0
TABLE
  2
STYLE
  5
3
330
0
100
AcDbSymbolTable
 70
     2
  0
STYLE
  5
11
330
3
100
AcDbSymbolTableRecord
100
AcDbTextStyleTableRecord
  2
Standard
 70
     0
 40
0.0
 41
1.0
 50
0.0
 71
     0
 42
2.5
  3
txt
  4

  0
STYLE
  5
67
330
3
100
AcDbSymbolTableRecord
100
AcDbTextStyleTableRecord
  2
_TCW_TXTSTY_2
 70
     0
 40
0.0
 41
1.0
 50
0.0
 71
     0
 42
0.6875
  3
MS PGothic.ttf
  4

1001
ACAD
1000
ＭＳ Ｐゴシック
1071
    32802
  0
ENDTAB
  0
TABLE
  2
VIEW
  5
6
330
0
100
AcDbSymbolTable
 70
     0
  0
ENDTAB
  0
TABLE
  2
UCS
  5
7
330
0
100
AcDbSymbolTable
 70
     0
  0
ENDTAB
  0
TABLE
  2
APPID
  5
9
330
0
100
AcDbSymbolTable
 70
     2
  0
APPID
  5
12
330
9
100
AcDbSymbolTableRecord
100
AcDbRegAppTableRecord
  2
ACAD
 70
     0
  0
APPID
  5
69
330
9
100
AcDbSymbolTableRecord
100
AcDbRegAppTableRecord
  2
TCAD
 70
     0
  0
ENDTAB
  0
TABLE
  2
DIMSTYLE
  5
A
330
0
100
AcDbSymbolTable
 70
     2
100
AcDbDimStyleTable
 71
     1
340
27
  0
DIMSTYLE
105
27
330
A
100
AcDbSymbolTableRecord
100
AcDbDimStyleTableRecord
  2
ISO-25
 70
     0
 41
2.5
 42
0.625
 43
3.75
 44
1.25
 73
     0
 74
     0
 77
     1
 78
     8
140
2.5
141
2.5
143
0.03937007874016
147
0.625
171
     3
172
     1
271
     2
272
     2
274
     3
278
    44
283
     0
284
     8
340
11
  0
DIMSTYLE
105
68
330
A
100
AcDbSymbolTableRecord
100
AcDbDimStyleTableRecord
  2
S1
 70
     0
 41
2.0
 42
0.5
 43
1.0
 44
1.0
 45
0.01
 73
     0
 74
     0
 77
     1
 78
     8
140
2.40625
143
0.0394
145
0.6103515625
147
1.0
148
0.01
172
     1
176
   256
177
   256
178
   256
179
     2
271
     2
286
     8
340
67
341
61
342
61
  0
ENDTAB
  0
TABLE
  2
BLOCK_RECORD
  5
1
330
0
100
AcDbSymbolTable
 70
     1
  0
BLOCK_RECORD
  5
1F
330
1
100
AcDbSymbolTableRecord
100
AcDbBlockTableRecord
  2
*Model_Space
340
22
  0
BLOCK_RECORD
  5
50
330
1
100
AcDbSymbolTableRecord
100
AcDbBlockTableRecord
  2
*Paper_Space
340
51
  0
BLOCK_RECORD
  5
61
330
1
100
AcDbSymbolTableRecord
100
AcDbBlockTableRecord
  2
_OPEN
340
0
  0
ENDTAB
  0
ENDSEC
  0
SECTION
  2
BLOCKS
  0
BLOCK
  5
20
330
1F
100
AcDbEntity
  8
0
100
AcDbBlockBegin
  2
*Model_Space
 70
     0
 10
0.0
 20
0.0
 30
0.0
  3
*Model_Space
  1

  0
ENDBLK
  5
21
330
1F
100
AcDbEntity
  8
0
100
AcDbBlockEnd
  0
BLOCK
  5
52
330
50
100
AcDbEntity
 67
     1
  8
0
100
AcDbBlockBegin
  2
*Paper_Space
 70
     0
 10
0.0
 20
0.0
 30
0.0
  3
*Paper_Space
  1

  0
ENDBLK
  5
53
330
50
100
AcDbEntity
 67
     1
  8
0
100
AcDbBlockEnd
  0
BLOCK
  5
65
330
61
100
AcDbEntity
  8
0
100
AcDbBlockBegin
  2
_OPEN
 70
     0
 10
0.0
 20
0.0
 30
0.0
  3
_OPEN
  1

  0
LINE
  5
62
330
61
100
AcDbEntity
  8
0
  6
ByBlock
 62
     0
100
AcDbLine
 10
-1.0
 20
0.166667
 30
0.0
 11
0.0
 21
0.0
 31
0.0
  0
LINE
  5
63
330
61
100
AcDbEntity
  8
0
  6
ByBlock
 62
     0
100
AcDbLine
 10
0.0
 20
0.0
 30
0.0
 11
-1.0
 21
-0.166667
 31
0.0
  0
LINE
  5
64
330
61
100
AcDbEntity
  8
0
  6
ByBlock
 62
     0
100
AcDbLine
 10
0.0
 20
0.0
 30
0.0
 11
-1.0
 21
0.0
 31
0.0
  0
ENDBLK
  5
66
330
61
100
AcDbEntity
  8
0
100
AcDbBlockEnd
  0
ENDSEC
  0
SECTION
  2
ENTITIES
  0
ARC
  5
26A
330
1F
100
AcDbEntity
  8
0
  6
Continuous
 62
     7
 48
2.0
100
AcDbCircle
 10
1229.44475872312
 20
339.4733295852585
 30
0.0
 40
800.0000000010295
100
AcDbArc
 50
175.451768380272
 51
184.6000864159069
  0
ARC
  5
26B
330
1F
100
AcDbEntity
  8
0
  6
Continuous
 62
     7
 48
2.0
100
AcDbCircle
 10
434.0153149623037
 20
275.473329585256
 30
0.0
 40
2.000000000000548
100
AcDbArc
 50
184.6000864159412
 51
269.9999974955181
  0
ARC
  5
26C
330
1F
100
AcDbEntity
  8
0
  6
Continuous
 62
     7
 48
2.0
100
AcDbCircle
 10
433.9577175342862
 20
402.7533999255886
 30
0.0
 40
1.999999999998635
100
AcDbArc
 50
90.49999967246971
 51
175.4517683803143
  0
LINE
  5
26D
330
1F
100
AcDbEntity
  8
0
  6
Continuous
 62
     7
 48
2.0
100
AcDbLine
 10
320.7494559163998
 20
402.7488472479793
 30
0.0
 11
320.7494559163998
 21
275.4733295852553
 31
0.0
  0
LINE
  5
26E
330
1F
100
AcDbEntity
  8
0
  6
Continuous
 62
     7
 48
2.0
100
AcDbLine
 10
367.1400615277768
 20
402.7488472479793
 30
0.0
 11
367.1400615277768
 21
275.4733295852553
 31
0.0
  0
LINE
  5
26F
330
1F
100
AcDbEntity
  8
0
  6
Continuous
 62
     7
 48
2.0
100
AcDbLine
 10
424.9447587220878
 20
399.9733295852552
 30
0.0
 11
424.9447587220878
 21
296.9733295852553
 31
0.0
  0
LINE
  5
270
330
1F
100
AcDbEntity
  8
0
  6
Continuous
 62
     7
 48
2.0
100
AcDbLine
 10
319.9447587220878
 20
418.4733295852552
 30
0.0
 11
319.9447587220878
 21
246.4733295852553
 31
0.0
  0
LINE
  5
271
330
1F
100
AcDbEntity
  8
0
  6
Continuous
 62
     7
 48
2.0
100
AcDbLine
 10
337.4447587220878
 20
399.9733295852552
 30
0.0
 11
337.4447587220878
 21
296.9733295852553
 31
0.0
  0
LINE
  5
272
330
1F
100
AcDbEntity
  8
0
  6
Continuous
 62
     7
 48
2.0
100
AcDbLine
 10
336.9447587220878
 20
400.4733295852552
 30
0.0
 11
336.9447587220878
 21
294.9733295852553
 31
0.0
  0
LINE
  5
273
330
1F
100
AcDbEntity
  8
0
  6
Continuous
 62
     7
 48
2.0
100
AcDbLine
 10
367.9447587220877
 20
418.4733295852552
 30
0.0
 11
367.9447587220877
 21
246.4733295852553
 31
0.0
  0
LINE
  5
274
330
1F
100
AcDbEntity
  8
0
  6
Continuous
 62
     7
 48
2.0
100
AcDbLine
 10
416.9447587220878
 20
399.9733295852552
 30
0.0
 11
416.9447587220878
 21
296.9733295852553
 31
0.0
  0
LINE
  5
275
330
1F
100
AcDbEntity
  8
0
  6
Continuous
 62
     7
 48
2.0
100
AcDbLine
 10
350.4447587220878
 20
399.9733295852552
 30
0.0
 11
350.4447587220878
 21
296.9733295852553
 31
0.0
  0
LINE
  5
276
330
1F
100
AcDbEntity
  8
0
  6
Continuous
 62
     7
 48
2.0
100
AcDbLine
 10
350.9447587220877
 20
400.4733295852552
 30
0.0
 11
350.9447587220877
 21
294.9733295852553
 31
0.0
  0
LINE
  5
277
330
1F
100
AcDbEntity
  8
0
  6
Continuous
 62
     7
 48
2.0
100
AcDbLine
 10
415.4447587220877
 20
399.9733295852552
 30
0.0
 11
415.4447587220877
 21
296.9733295852553
 31
0.0
  0
LINE
  5
27A
330
1F
100
AcDbEntity
  8
0
  6
Continuous
 62
     7
 48
2.0
100
AcDbLine
 10
423.9447587220878
 20
327.6733295852555
 30
0.0
 11
423.9447587220878
 21
319.2733295852554
 31
0.0
  0
ARC
  5
27B
330
1F
100
AcDbEntity
  8
0
  6
Continuous
 62
     7
 48
2.0
100
AcDbCircle
 10
343.9447587220884
 20
252.473329585254
 30
0.0
 40
3.099999904632496
100
AcDbArc
 50
0.0000000000260551
 51
180.0000050089374
  0
ARC
  5
27C
330
1F
100
AcDbEntity
  8
0
  6
Continuous
 62
     7
 48
2.0
100
AcDbCircle
 10
343.9447587220878
 20
252.4733295852529
 30
0.0
 40
6.000000000000021
100
AcDbArc
 50
0.0000000000244267
 51
180.0000050089357
  0
LINE
  5
27D
330
1F
100
AcDbEntity
  8
0
  6
Continuous
 62
     7
 48
2.0
100
AcDbLine
 10
321.9447587220878
 20
259.5733295852554
 30
0.0
 11
365.9447587220877
 21
259.5733295852554
 31
0.0
  0
LINE
  5
27E
330
1F
100
AcDbEntity
  8
0
  6
Continuous
 62
     7
 48
2.0
100
AcDbLine
 10
365.9447587220877
 20
273.4733295852553
 30
0.0
 11
321.9447587220878
 21
273.4733295852553
 31
0.0
  0
LINE
  5
280
330
1F
100
AcDbEntity
  8
0
  6
Continuous
 62
     7
 48
2.0
100
AcDbLine
 10
331.7947587220878
 20
261.9733295852554
 30
0.0
 11
342.5947587220878
 21
261.9733295852554
 31
0.0
  0
LINE
  5
281
330
1F
100
AcDbEntity
  8
0
  6
Continuous
 62
     7
 48
2.0
100
AcDbLine
 10
331.7947587220878
 20
271.9733295852553
 30
0.0
 11
342.5947587220878
 21
271.9733295852553
 31
0.0
  0
LINE
  5
282
330
1F
100
AcDbEntity
  8
0
  6
Continuous
 62
     7
 48
2.0
100
AcDbLine
 10
320.9447587220878
 20
273.7412787776865
 30
0.0
 11
320.9447587220878
 21
246.4733295852553
 31
0.0
  0
LINE
  5
283
330
1F
100
AcDbEntity
  8
0
  6
Continuous
 62
     7
 48
2.0
100
AcDbLine
 10
323.9447587220878
 20
259.5733295852554
 30
0.0
 11
323.9447587220878
 21
246.4733295852553
 31
0.0
  0
LINE
  5
284
330
1F
100
AcDbEntity
  8
0
  6
Continuous
 62
     7
 48
2.0
100
AcDbLine
 10
329.9447587220878
 20
259.5733295852554
 30
0.0
 11
329.9447587220878
 21
246.4733295852553
 31
0.0
  0
LINE
  5
285
330
1F
100
AcDbEntity
  8
0
  6
Continuous
 62
     7
 48
2.0
100
AcDbLine
 10
340.8447587220878
 20
246.4733295852553
 30
0.0
 11
319.9447587220878
 21
246.4733295852553
 31
0.0
  0
LINE
  5
286
330
1F
100
AcDbEntity
  8
0
  6
Continuous
 62
     7
 48
2.0
100
AcDbLine
 10
340.8447587220878
 20
252.4733295852553
 30
0.0
 11
340.8447587220878
 21
246.4733295852553
 31
0.0
  0
LINE
  5
287
330
1F
100
AcDbEntity
  8
0
  6
Continuous
 62
     7
 48
2.0
100
AcDbLine
 10
337.9447587220878
 20
252.4733295852553
 30
0.0
 11
337.9447587220878
 21
246.4733295852553
 31
0.0
  0
ARC
  5
288
330
1F
100
AcDbEntity
  8
0
  6
Continuous
 62
     7
 48
2.0
100
AcDbCircle
 10
326.9447587220881
 20
275.4733295852588
 30
0.0
 40
4.000000000001882
100
AcDbArc
 50
210.0000026560926
 51
329.9999991651271
  0
LINE
  5
289
330
1F
100
AcDbEntity
  8
0
  6
Continuous
 62
     7
 48
2.0
100
AcDbLine
 10
326.9947587220877
 20
271.0733295852554
 30
0.0
 11
321.9447587220878
 21
271.0733295852554
 31
0.0
  0
ARC
  5
28A
330
1F
100
AcDbEntity
  8
0
  6
Continuous
 62
     7
 48
2.0
100
AcDbCircle
 10
326.9447587220881
 20
275.4733295852574
 30
0.0
 40
3.50000000000104
100
AcDbArc
 50
214.8499014196582
 51
325.1500969864693
  0
LINE
  5
28B
330
1F
100
AcDbEntity
  8
0
  6
Continuous
 62
     7
 48
2.0
100
AcDbLine
 10
321.9447587220878
 20
272.9733295852553
 30
0.0
 11
321.9447587220878
 21
259.5733295852554
 31
0.0
  0
ARC
  5
28C
330
1F
100
AcDbEntity
  8
0
  6
Continuous
 62
     7
 48
2.0
100
AcDbCircle
 10
322.7494559163988
 20
275.4733295852544
 30
0.0
 40
1.999999999998926
100
AcDbArc
 50
180.0000050089374
 51
269.9999974955443
  0
LINE
  5
28D
330
1F
100
AcDbEntity
  8
0
  6
Continuous
 62
     7
 48
2.0
100
AcDbLine
 10
323.8222597228888
 20
272.9733295852553
 30
0.0
 11
321.9447587220878
 21
272.9733295852553
 31
0.0
  0
ARC
  5
28E
330
1F
100
AcDbEntity
  8
0
  6
Continuous
 62
     7
 48
2.0
100
AcDbCircle
 10
321.9447587220868
 20
275.4733295852544
 30
0.0
 40
1.999999999998939
100
AcDbArc
 50
180.0000050089374
 51
269.9999974955443
  0
LINE
  5
28F
330
1F
100
AcDbEntity
  8
0
  6
Continuous
 62
     7
 48
2.0
100
AcDbLine
 10
331.7947587220878
 20
271.9733295852553
 30
0.0
 11
331.7947587220878
 21
259.5733295852554
 31
0.0
  0
ARC
  5
290
330
1F
100
AcDbEntity
  8
0
  6
Continuous
 62
     7
 48
2.0
100
AcDbCircle
 10
339.4447587220886
 20
265.2233295852539
 30
0.0
 40
1.767766952515239
100
AcDbArc
 50
81.86989856185398
 51
188.1301057638608
  0
ARC
  5
291
330
1F
100
AcDbEntity
  8
0
  6
Continuous
 62
     7
 48
2.0
100
AcDbCircle
 10
334.9447587220887
 20
265.2233295852565
 30
0.0
 40
1.767766952513563
100
AcDbArc
 50
351.869897764851
 51
98.13009961698895
  0
ARC
  5
293
330
1F
100
AcDbEntity
  8
0
  6
Continuous
 62
     7
 48
2.0
100
AcDbCircle
 10
326.9947587220913
 20
275.4733295852493
 30
0.0
 40
4.400000095361808
100
AcDbArc
 50
269.9999974954759
 51
332.9643080952044
  0
ARC
  5
294
330
1F
100
AcDbEntity
  8
0
  6
Continuous
 62
     7
 48
2.0
100
AcDbCircle
 10
339.4447587220888
 20
269.723329585256
 30
0.0
 40
1.76776695251569
100
AcDbArc
 50
171.8698942361224
 51
278.1301014381296
  0
ARC
  5
295
330
1F
100
AcDbEntity
  8
0
  6
Continuous
 62
     7
 48
2.0
100
AcDbCircle
 10
334.9447587220887
 20
269.7233295852543
 30
0.0
 40
1.767766952513555
100
AcDbArc
 50
261.8699003830077
 51
8.130102235148976
  0
LINE
  5
296
330
1F
100
AcDbEntity
  8
0
  6
Continuous
 62
     7
 48
2.0
100
AcDbLine
 10
340.6947587220878
 20
267.4733295852553
 30
0.0
 11
340.6947587220878
 21
267.4733295852553
 31
0.0
  0
LINE
  5
297
330
1F
100
AcDbEntity
  8
0
  6
Continuous
 62
     7
 48
2.0
100
AcDbLine
 10
366.9447587220878
 20
273.7412787776865
 30
0.0
 11
366.9447587220878
 21
246.4733295852553
 31
0.0
  0
LINE
  5
298
330
1F
100
AcDbEntity
  8
0
  6
Continuous
 62
     7
 48
2.0
100
AcDbLine
 10
357.9447587220877
 20
259.5733295852554
 30
0.0
 11
357.9447587220877
 21
246.4733295852553
 31
0.0
  0
LINE
  5
299
330
1F
100
AcDbEntity
  8
0
  6
Continuous
 62
     7
 48
2.0
100
AcDbLine
 10
363.9447587220877
 20
259.5733295852554
 30
0.0
 11
363.9447587220877
 21
246.4733295852553
 31
0.0
  0
LINE
  5
29A
330
1F
100
AcDbEntity
  8
0
  6
Continuous
 62
     7
 48
2.0
100
AcDbLine
 10
367.9447587220877
 20
246.4733295852553
 30
0.0
 11
347.0447587220878
 21
246.4733295852553
 31
0.0
  0
LINE
  5
29B
330
1F
100
AcDbEntity
  8
0
  6
Continuous
 62
     7
 48
2.0
100
AcDbLine
 10
347.0447587220878
 20
252.4733295852553
 30
0.0
 11
347.0447587220878
 21
246.4733295852553
 31
0.0
  0
LINE
  5
29C
330
1F
100
AcDbEntity
  8
0
  6
Continuous
 62
     7
 48
2.0
100
AcDbLine
 10
349.9447587220878
 20
252.4733295852553
 30
0.0
 11
349.9447587220878
 21
246.4733295852553
 31
0.0
  0
LINE
  5
29D
330
1F
100
AcDbEntity
  8
0
  6
Continuous
 62
     7
 48
2.0
100
AcDbLine
 10
356.0947587220877
 20
271.9733295852553
 30
0.0
 11
356.0947587220877
 21
259.5733295852554
 31
0.0
  0
LINE
  5
29E
330
1F
100
AcDbEntity
  8
0
  6
Continuous
 62
     7
 48
2.0
100
AcDbLine
 10
342.5947587220878
 20
271.9733295852553
 30
0.0
 11
342.5947587220878
 21
259.5733295852554
 31
0.0
  0
LINE
  5
29F
330
1F
100
AcDbEntity
  8
0
  6
Continuous
 62
     7
 48
2.0
100
AcDbLine
 10
345.2947587220878
 20
271.9733295852553
 30
0.0
 11
345.2947587220878
 21
259.5733295852554
 31
0.0
  0
ARC
  5
2A1
330
1F
100
AcDbEntity
  8
0
  6
Continuous
 62
     7
 48
2.0
100
AcDbCircle
 10
348.4447587220886
 20
265.2233295852565
 30
0.0
 40
1.767766952513559
100
AcDbArc
 50
351.869897764851
 51
98.13009961698895
  0
ARC
  5
2A2
330
1F
100
AcDbEntity
  8
0
  6
Continuous
 62
     7
 48
2.0
100
AcDbCircle
 10
352.9447587220886
 20
265.2233295852539
 30
0.0
 40
1.767766952515239
100
AcDbArc
 50
81.86989856185398
 51
188.1301057638625
  0
LINE
  5
2A3
330
1F
100
AcDbEntity
  8
0
  6
Continuous
 62
     7
 48
2.0
100
AcDbLine
 10
356.0947587220877
 20
261.9733295852554
 30
0.0
 11
345.2947587220878
 21
261.9733295852554
 31
0.0
  0
LINE
  5
2A4
330
1F
100
AcDbEntity
  8
0
  6
Continuous
 62
     7
 48
2.0
100
AcDbLine
 10
356.0947587220877
 20
271.9733295852553
 30
0.0
 11
345.2947587220878
 21
271.9733295852553
 31
0.0
  0
ARC
  5
2A5
330
1F
100
AcDbEntity
  8
0
  6
Continuous
 62
     7
 48
2.0
100
AcDbCircle
 10
348.4447587220886
 20
269.7233295852543
 30
0.0
 40
1.767766952513555
100
AcDbArc
 50
261.8699003830077
 51
8.130102235148976
  0
ARC
  5
2A6
330
1F
100
AcDbEntity
  8
0
  6
Continuous
 62
     7
 48
2.0
100
AcDbCircle
 10
352.9447587220888
 20
269.723329585256
 30
0.0
 40
1.767766952515684
100
AcDbArc
 50
171.8698942361224
 51
278.1301014381296
  0
LINE
  5
2A8
330
1F
100
AcDbEntity
  8
0
  6
Continuous
 62
     7
 48
2.0
100
AcDbLine
 10
354.1947587220878
 20
267.4733295852553
 30
0.0
 11
354.1947587220878
 21
267.4733295852553
 31
0.0
  0
LINE
  5
2A9
330
1F
100
AcDbEntity
  8
0
  6
Continuous
 62
     7
 48
2.0
100
AcDbLine
 10
365.9447587220877
 20
272.9733295852553
 30
0.0
 11
365.9447587220877
 21
259.5733295852554
 31
0.0
  0
ARC
  5
2AA
330
1F
100
AcDbEntity
  8
0
  6
Continuous
 62
     7
 48
2.0
100
AcDbCircle
 10
360.944758722088
 20
275.4733295852588
 30
0.0
 40
4.000000000001876
100
AcDbArc
 50
210.0000026560926
 51
329.9999991651271
  0
LINE
  5
2AB
330
1F
100
AcDbEntity
  8
0
  6
Continuous
 62
     7
 48
2.0
100
AcDbLine
 10
360.8947587220877
 20
271.0733295852554
 30
0.0
 11
365.9447587220877
 21
271.0733295852554
 31
0.0
  0
ARC
  5
2AC
330
1F
100
AcDbEntity
  8
0
  6
Continuous
 62
     7
 48
2.0
100
AcDbCircle
 10
360.944758722088
 20
275.4733295852574
 30
0.0
 40
3.500000000001048
100
AcDbArc
 50
214.8499014196582
 51
325.1500969864693
  0
ARC
  5
2AD
330
1F
100
AcDbEntity
  8
0
  6
Continuous
 62
     7
 48
2.0
100
AcDbCircle
 10
360.8947587220848
 20
275.4733295852489
 30
0.0
 40
4.400000095361579
100
AcDbArc
 50
207.035686895835
 51
269.9999974955638
  0
ARC
  5
2AE
330
1F
100
AcDbEntity
  8
0
  6
Continuous
 62
     7
 48
2.0
100
AcDbCircle
 10
365.9447587220883
 20
275.4733295852551
 30
0.0
 40
1.99999999999966
100
AcDbArc
 50
269.9999974955051
 51
0.0000000000097707
  0
ARC
  5
2AF
330
1F
100
AcDbEntity
  8
0
  6
Continuous
 62
     7
 48
2.0
100
AcDbCircle
 10
365.1400615277771
 20
275.4733295852551
 30
0.0
 40
1.999999999999644
100
AcDbArc
 50
269.9999974955051
 51
0.0000000000097707
  0
LINE
  5
2B0
330
1F
100
AcDbEntity
  8
0
  6
Continuous
 62
     7
 48
2.0
100
AcDbLine
 10
364.0672577212868
 20
272.9733295852553
 30
0.0
 11
365.9447587220877
 21
272.9733295852553
 31
0.0
  0
LINE
  5
2B3
330
1F
100
AcDbEntity
  8
0
  6
Continuous
 62
     7
 48
2.0
100
AcDbLine
 10
337.4447587220878
 20
309.2733295852553
 30
0.0
 11
350.4447587220878
 21
309.2733295852553
 31
0.0
  0
LINE
  5
2B4
330
1F
100
AcDbEntity
  8
0
  6
Continuous
 62
     7
 48
2.0
100
AcDbLine
 10
337.4447587220878
 20
307.6733295852553
 30
0.0
 11
350.4447587220878
 21
307.6733295852553
 31
0.0
  0
LINE
  5
2B5
330
1F
100
AcDbEntity
  8
0
  6
Continuous
 62
     7
 48
2.0
100
AcDbLine
 10
337.4447587220878
 20
296.9733295852553
 30
0.0
 11
350.4447587220878
 21
296.9733295852553
 31
0.0
  0
LINE
  5
2B6
330
1F
100
AcDbEntity
  8
0
  6
Continuous
 62
     7
 48
2.0
100
AcDbLine
 10
336.9447587220878
 20
294.9733295852553
 30
0.0
 11
350.9447587220877
 21
294.9733295852553
 31
0.0
  0
LINE
  5
2B7
330
1F
100
AcDbEntity
  8
0
  6
Continuous
 62
     7
 48
2.0
100
AcDbLine
 10
337.4447587220878
 20
299.2733295852553
 30
0.0
 11
350.4447587220878
 21
299.2733295852553
 31
0.0
  0
LINE
  5
2B8
330
1F
100
AcDbEntity
  8
0
  6
Continuous
 62
     7
 48
2.0
100
AcDbLine
 10
337.4447587220878
 20
297.6733295852553
 30
0.0
 11
350.4447587220878
 21
297.6733295852553
 31
0.0
  0
LINE
  5
2B9
330
1F
100
AcDbEntity
  8
0
  6
Continuous
 62
     7
 48
2.0
100
AcDbLine
 10
337.4447587220878
 20
319.2733295852554
 30
0.0
 11
350.4447587220878
 21
319.2733295852554
 31
0.0
  0
LINE
  5
2BA
330
1F
100
AcDbEntity
  8
0
  6
Continuous
 62
     7
 48
2.0
100
AcDbLine
 10
337.4447587220878
 20
317.6733295852553
 30
0.0
 11
350.4447587220878
 21
317.6733295852553
 31
0.0
  0
ARC
  5
2BB
330
1F
100
AcDbEntity
  8
0
  6
Continuous
 62
     7
 48
2.0
100
AcDbCircle
 10
346.194758722089
 20
305.723329585256
 30
0.0
 40
1.767766952515725
100
AcDbArc
 50
171.8698942361224
 51
278.1301014381296
  0
ARC
  5
2BD
330
1F
100
AcDbEntity
  8
0
  6
Continuous
 62
     7
 48
2.0
100
AcDbCircle
 10
341.6947587220888
 20
305.7233295852542
 30
0.0
 40
1.767766952513593
100
AcDbArc
 50
261.869900383011
 51
8.130102235152202
  0
ARC
  5
2BE
330
1F
100
AcDbEntity
  8
0
  6
Continuous
 62
     7
 48
2.0
100
AcDbCircle
 10
346.1947587220886
 20
301.2233295852542
 30
0.0
 40
1.767766952515198
100
AcDbArc
 50
81.86989856185398
 51
188.1301057638608
  0
ARC
  5
2BF
330
1F
100
AcDbEntity
  8
0
  6
Continuous
 62
     7
 48
2.0
100
AcDbCircle
 10
341.6947587220888
 20
301.2233295852563
 30
0.0
 40
1.767766952513599
100
AcDbArc
 50
351.8698977648477
 51
98.13009961698895
  0
LINE
  5
2C0
330
1F
100
AcDbEntity
  8
0
  6
Continuous
 62
     7
 48
2.0
100
AcDbLine
 10
347.4447587220877
 20
303.4733295852554
 30
0.0
 11
347.4447587220877
 21
303.4733295852554
 31
0.0
  0
ARC
  5
2C1
330
1F
100
AcDbEntity
  8
0
  6
Continuous
 62
     7
 48
2.0
100
AcDbCircle
 10
346.194758722089
 20
315.7233295852561
 30
0.0
 40
1.76776695251569
100
AcDbArc
 50
171.8698942361239
 51
278.1301014381296
  0
ARC
  5
2C2
330
1F
100
AcDbEntity
  8
0
  6
Continuous
 62
     7
 48
2.0
100
AcDbCircle
 10
341.6947587220888
 20
315.7233295852543
 30
0.0
 40
1.767766952513535
100
AcDbArc
 50
261.8699003830077
 51
8.130102235147365
  0
ARC
  5
2C4
330
1F
100
AcDbEntity
  8
0
  6
Continuous
 62
     7
 48
2.0
100
AcDbCircle
 10
346.1947587220886
 20
311.2233295852541
 30
0.0
 40
1.767766952515277
100
AcDbArc
 50
81.8698985618572
 51
188.1301057638625
  0
ARC
  5
2C5
330
1F
100
AcDbEntity
  8
0
  6
Continuous
 62
     7
 48
2.0
100
AcDbCircle
 10
341.6947587220888
 20
311.223329585256
 30
0.0
 40
1.767766952513514
100
AcDbArc
 50
351.869897764851
 51
98.13009961699222
  0
LINE
  5
2C6
330
1F
100
AcDbEntity
  8
0
  6
Continuous
 62
     7
 48
2.0
100
AcDbLine
 10
347.4447587220877
 20
313.4733295852553
 30
0.0
 11
347.4447587220877
 21
313.4733295852553
 31
0.0
  0
LINE
  5
2C7
330
1F
100
AcDbEntity
  8
0
  6
Continuous
 62
     7
 48
2.0
100
AcDbLine
 10
415.4447587220877
 20
296.9733295852553
 30
0.0
 11
430.5744626163939
 21
296.9733295852553
 31
0.0
  0
LINE
  5
2C8
330
1F
100
AcDbEntity
  8
0
  6
Continuous
 62
     7
 48
2.0
100
AcDbLine
 10
416.9447587220878
 20
297.6733295852553
 30
0.0
 11
424.9447587220878
 21
297.6733295852553
 31
0.0
  0
LINE
  5
2C9
330
1F
100
AcDbEntity
  8
0
  6
Continuous
 62
     7
 48
2.0
100
AcDbLine
 10
416.9447587220878
 20
299.2733295852553
 30
0.0
 11
424.9447587220878
 21
299.2733295852553
 31
0.0
  0
LINE
  5
2CA
330
1F
100
AcDbEntity
  8
0
  6
Continuous
 62
     7
 48
2.0
100
AcDbLine
 10
416.9447587220878
 20
307.6733295852553
 30
0.0
 11
424.9447587220878
 21
307.6733295852553
 31
0.0
  0
LINE
  5
2CB
330
1F
100
AcDbEntity
  8
0
  6
Continuous
 62
     7
 48
2.0
100
AcDbLine
 10
422.9447587220877
 20
306.9733295852553
 30
0.0
 11
422.9447587220877
 21
299.9733295852553
 31
0.0
  0
LINE
  5
2CC
330
1F
100
AcDbEntity
  8
0
  6
Continuous
 62
     7
 48
2.0
100
AcDbLine
 10
423.9447587220878
 20
307.6733295852553
 30
0.0
 11
423.9447587220878
 21
299.2733295852553
 31
0.0
  0
ARC
  5
2CD
330
1F
100
AcDbEntity
  8
0
  6
Continuous
 62
     7
 48
2.0
100
AcDbCircle
 10
424.5072587220867
 20
303.4733295852554
 30
0.0
 40
4.062499999999515
100
AcDbArc
 50
120.5102321306691
 51
239.4897678693308
  0
LINE
  5
2CE
330
1F
100
AcDbEntity
  8
0
  6
Continuous
 62
     7
 48
2.0
100
AcDbLine
 10
422.9447587220877
 20
302.4733295852553
 30
0.0
 11
423.9447587220878
 21
304.4733295852553
 31
0.0
  0
LINE
  5
2CF
330
1F
100
AcDbEntity
  8
0
  6
Continuous
 62
     7
 48
2.0
100
AcDbLine
 10
423.9447587220878
 20
299.9733295852553
 30
0.0
 11
422.9447587220877
 21
299.9733295852553
 31
0.0
  0
LINE
  5
2D0
330
1F
100
AcDbEntity
  8
0
  6
Continuous
 62
     7
 48
2.0
100
AcDbLine
 10
422.4447587220877
 20
299.9733295852553
 30
0.0
 11
422.9447587220877
 21
299.9733295852553
 31
0.0
  0
LINE
  5
2D1
330
1F
100
AcDbEntity
  8
0
  6
Continuous
 62
     7
 48
2.0
100
AcDbLine
 10
423.9447587220878
 20
306.9733295852553
 30
0.0
 11
422.9447587220877
 21
306.9733295852553
 31
0.0
  0
LINE
  5
2D2
330
1F
100
AcDbEntity
  8
0
  6
Continuous
 62
     7
 48
2.0
100
AcDbLine
 10
422.4447587220877
 20
306.9733295852553
 30
0.0
 11
422.9447587220877
 21
306.9733295852553
 31
0.0
  0
LINE
  5
2D3
330
1F
100
AcDbEntity
  8
0
  6
Continuous
 62
     7
 48
2.0
100
AcDbLine
 10
416.9447587220878
 20
319.2733295852554
 30
0.0
 11
424.9447587220878
 21
319.2733295852554
 31
0.0
  0
LINE
  5
2D4
330
1F
100
AcDbEntity
  8
0
  6
Continuous
 62
     7
 48
2.0
100
AcDbLine
 10
416.9447587220878
 20
317.6733295852553
 30
0.0
 11
424.9447587220878
 21
317.6733295852553
 31
0.0
  0
LINE
  5
2D5
330
1F
100
AcDbEntity
  8
0
  6
Continuous
 62
     7
 48
2.0
100
AcDbLine
 10
416.9447587220878
 20
309.2733295852553
 30
0.0
 11
424.9447587220878
 21
309.2733295852553
 31
0.0
  0
LINE
  5
2D6
330
1F
100
AcDbEntity
  8
0
  6
Continuous
 62
     7
 48
2.0
100
AcDbLine
 10
422.9447587220877
 20
312.4733295852553
 30
0.0
 11
423.9447587220878
 21
314.4733295852554
 31
0.0
  0
LINE
  5
2D7
330
1F
100
AcDbEntity
  8
0
  6
Continuous
 62
     7
 48
2.0
100
AcDbLine
 10
422.9447587220877
 20
316.9733295852553
 30
0.0
 11
422.9447587220877
 21
309.9733295852554
 31
0.0
  0
LINE
  5
2D8
330
1F
100
AcDbEntity
  8
0
  6
Continuous
 62
     7
 48
2.0
100
AcDbLine
 10
423.9447587220878
 20
317.6733295852553
 30
0.0
 11
423.9447587220878
 21
309.2733295852553
 31
0.0
  0
ARC
  5
2D9
330
1F
100
AcDbEntity
  8
0
  6
Continuous
 62
     7
 48
2.0
100
AcDbCircle
 10
424.507258722087
 20
313.4733295852553
 30
0.0
 40
4.062499999999568
100
AcDbArc
 50
120.5102321306691
 51
239.4897678693308
  0
LINE
  5
2DA
330
1F
100
AcDbEntity
  8
0
  6
Continuous
 62
     7
 48
2.0
100
AcDbLine
 10
423.9447587220878
 20
309.9733295852554
 30
0.0
 11
422.9447587220877
 21
309.9733295852554
 31
0.0
  0
LINE
  5
2DB
330
1F
100
AcDbEntity
  8
0
  6
Continuous
 62
     7
 48
2.0
100
AcDbLine
 10
422.4447587220877
 20
309.9733295852554
 30
0.0
 11
422.9447587220877
 21
309.9733295852554
 31
0.0
  0
LINE
  5
2DC
330
1F
100
AcDbEntity
  8
0
  6
Continuous
 62
     7
 48
2.0
100
AcDbLine
 10
423.9447587220878
 20
316.9733295852553
 30
0.0
 11
422.9447587220877
 21
316.9733295852553
 31
0.0
  0
LINE
  5
2DD
330
1F
100
AcDbEntity
  8
0
  6
Continuous
 62
     7
 48
2.0
100
AcDbLine
 10
422.4447587220877
 20
316.9733295852553
 30
0.0
 11
422.9447587220877
 21
316.9733295852553
 31
0.0
  0
ARC
  5
2DE
330
1F
100
AcDbEntity
  8
0
  6
Continuous
 62
     7
 48
2.0
100
AcDbCircle
 10
322.7494559163993
 20
402.7488472479796
 30
0.0
 40
1.999999999999575
100
AcDbArc
 50
90.00000250447197
 51
180.0000050089764
  0
ARC
  5
2DF
330
1F
100
AcDbEntity
  8
0
  6
Continuous
 62
     7
 48
2.0
100
AcDbCircle
 10
321.9447587220875
 20
403.4733295852556
 30
0.0
 40
1.99999999999966
100
AcDbArc
 50
90.0000025044752
 51
180.0000050089781
  0
ARC
  5
2E0
330
1F
100
AcDbEntity
  8
0
  6
Continuous
 62
     7
 48
2.0
100
AcDbCircle
 10
365.1400615277771
 20
402.7488472479796
 30
0.0
 40
1.999999999999649
100
AcDbArc
 50
359.9999999999884
 51
90.00000250449476
  0
ARC
  5
2E1
330
1F
100
AcDbEntity
  8
0
  6
Continuous
 62
     7
 48
2.0
100
AcDbCircle
 10
365.9447587220883
 20
403.4733295852556
 30
0.0
 40
1.999999999999649
100
AcDbArc
 50
359.9999999999884
 51
90.00000250449476
  0
ARC
  5
2E3
330
1F
100
AcDbEntity
  8
0
  6
Continuous
 62
     7
 48
2.0
100
AcDbCircle
 10
341.6947587220888
 20
361.2233295852563
 30
0.0
 40
1.767766952513563
100
AcDbArc
 50
351.869897764851
 51
98.13009961698895
  0
ARC
  5
2E4
330
1F
100
AcDbEntity
  8
0
  6
Continuous
 62
     7
 48
2.0
100
AcDbCircle
 10
346.1947587220886
 20
361.2233295852539
 30
0.0
 40
1.767766952515303
100
AcDbArc
 50
81.8698985618572
 51
188.1301057638625
  0
LINE
  5
2E6
330
1F
100
AcDbEntity
  8
0
  6
Continuous
 62
     7
 48
2.0
100
AcDbLine
 10
337.4447587220878
 20
339.2733295852554
 30
0.0
 11
350.4447587220878
 21
339.2733295852554
 31
0.0
  0
LINE
  5
2E7
330
1F
100
AcDbEntity
  8
0
  6
Continuous
 62
     7
 48
2.0
100
AcDbLine
 10
337.4447587220878
 20
337.6733295852553
 30
0.0
 11
350.4447587220878
 21
337.6733295852553
 31
0.0
  0
LINE
  5
2E8
330
1F
100
AcDbEntity
  8
0
  6
Continuous
 62
     7
 48
2.0
100
AcDbLine
 10
337.4447587220878
 20
329.2733295852554
 30
0.0
 11
350.4447587220878
 21
329.2733295852554
 31
0.0
  0
LINE
  5
2E9
330
1F
100
AcDbEntity
  8
0
  6
Continuous
 62
     7
 48
2.0
100
AcDbLine
 10
337.4447587220878
 20
327.6733295852555
 30
0.0
 11
350.4447587220878
 21
327.6733295852555
 31
0.0
  0
LINE
  5
2ED
330
1F
100
AcDbEntity
  8
0
  6
Continuous
 62
     7
 48
2.0
100
AcDbLine
 10
337.4447587220878
 20
359.2733295852553
 30
0.0
 11
350.4447587220878
 21
359.2733295852553
 31
0.0
  0
LINE
  5
2EE
330
1F
100
AcDbEntity
  8
0
  6
Continuous
 62
     7
 48
2.0
100
AcDbLine
 10
337.4447587220878
 20
357.6733295852552
 30
0.0
 11
350.4447587220878
 21
357.6733295852552
 31
0.0
  0
LINE
  5
2EF
330
1F
100
AcDbEntity
  8
0
  6
Continuous
 62
     7
 48
2.0
100
AcDbLine
 10
337.4447587220878
 20
349.2733295852552
 30
0.0
 11
350.4447587220878
 21
349.2733295852552
 31
0.0
  0
LINE
  5
2F0
330
1F
100
AcDbEntity
  8
0
  6
Continuous
 62
     7
 48
2.0
100
AcDbLine
 10
337.4447587220878
 20
347.6733295852552
 30
0.0
 11
350.4447587220878
 21
347.6733295852552
 31
0.0
  0
ARC
  5
2F1
330
1F
100
AcDbEntity
  8
0
  6
Continuous
 62
     7
 48
2.0
100
AcDbCircle
 10
346.194758722089
 20
325.723329585256
 30
0.0
 40
1.767766952515725
100
AcDbArc
 50
171.8698942361224
 51
278.1301014381296
  0
ARC
  5
2F3
330
1F
100
AcDbEntity
  8
0
  6
Continuous
 62
     7
 48
2.0
100
AcDbCircle
 10
341.6947587220888
 20
325.7233295852541
 30
0.0
 40
1.767766952513555
100
AcDbArc
 50
261.8699003830077
 51
8.130102235148976
  0
ARC
  5
2F4
330
1F
100
AcDbEntity
  8
0
  6
Continuous
 62
     7
 48
2.0
100
AcDbCircle
 10
346.1947587220886
 20
321.2233295852538
 30
0.0
 40
1.767766952515277
100
AcDbArc
 50
81.8698985618572
 51
188.1301057638625
  0
ARC
  5
2F5
330
1F
100
AcDbEntity
  8
0
  6
Continuous
 62
     7
 48
2.0
100
AcDbCircle
 10
341.6947587220888
 20
321.2233295852564
 30
0.0
 40
1.767766952513514
100
AcDbArc
 50
351.869897764851
 51
98.13009961699222
  0
LINE
  5
2F6
330
1F
100
AcDbEntity
  8
0
  6
Continuous
 62
     7
 48
2.0
100
AcDbLine
 10
347.4447587220877
 20
323.4733295852553
 30
0.0
 11
347.4447587220877
 21
323.4733295852553
 31
0.0
  0
ARC
  5
2F7
330
1F
100
AcDbEntity
  8
0
  6
Continuous
 62
     7
 48
2.0
100
AcDbCircle
 10
346.194758722089
 20
335.723329585256
 30
0.0
 40
1.76776695251569
100
AcDbArc
 50
171.8698942361239
 51
278.1301014381296
  0
ARC
  5
2F9
330
1F
100
AcDbEntity
  8
0
  6
Continuous
 62
     7
 48
2.0
100
AcDbCircle
 10
341.6947587220888
 20
335.7233295852543
 30
0.0
 40
1.767766952513535
100
AcDbArc
 50
261.8699003830077
 51
8.130102235147365
  0
ARC
  5
2FA
330
1F
100
AcDbEntity
  8
0
  6
Continuous
 62
     7
 48
2.0
100
AcDbCircle
 10
346.1947587220886
 20
331.2233295852542
 30
0.0
 40
1.767766952515253
100
AcDbArc
 50
81.86989856185398
 51
188.1301057638608
  0
ARC
  5
2FB
330
1F
100
AcDbEntity
  8
0
  6
Continuous
 62
     7
 48
2.0
100
AcDbCircle
 10
341.6947587220888
 20
331.2233295852564
 30
0.0
 40
1.767766952513563
100
AcDbArc
 50
351.869897764851
 51
98.13009961698895
  0
LINE
  5
2FC
330
1F
100
AcDbEntity
  8
0
  6
Continuous
 62
     7
 48
2.0
100
AcDbLine
 10
347.4447587220877
 20
333.4733295852553
 30
0.0
 11
347.4447587220877
 21
333.4733295852553
 31
0.0
  0
LINE
  5
2FD
330
1F
100
AcDbEntity
  8
0
  6
Continuous
 62
     7
 48
2.0
100
AcDbLine
 10
355.2447587220878
 20
350.2733295852552
 30
0.0
 11
361.6447587220879
 21
350.2733295852552
 31
0.0
  0
LINE
  5
2FE
330
1F
100
AcDbEntity
  8
0
  6
Continuous
 62
     7
 48
2.0
100
AcDbLine
 10
355.2447587220878
 20
356.6733295852555
 30
0.0
 11
361.6447587220879
 21
356.6733295852555
 31
0.0
  0
LINE
  5
2FF
330
1F
100
AcDbEntity
  8
0
  6
Continuous
 62
     7
 48
2.0
100
AcDbLine
 10
355.9447587220877
 20
349.9733295852552
 30
0.0
 11
360.9447587220877
 21
349.9733295852552
 31
0.0
  0
LINE
  5
300
330
1F
100
AcDbEntity
  8
0
  6
Continuous
 62
     7
 48
2.0
100
AcDbLine
 10
355.9447587220877
 20
348.9733295852552
 30
0.0
 11
360.9447587220877
 21
348.9733295852552
 31
0.0
  0
LINE
  5
301
330
1F
100
AcDbEntity
  8
0
  6
Continuous
 62
     7
 48
2.0
100
AcDbLine
 10
360.9447587220877
 20
356.9733295852552
 30
0.0
 11
355.9447587220877
 21
356.9733295852552
 31
0.0
  0
LINE
  5
302
330
1F
100
AcDbEntity
  8
0
  6
Continuous
 62
     7
 48
2.0
100
AcDbLine
 10
360.9447587220877
 20
357.9733295852552
 30
0.0
 11
355.9447587220877
 21
357.9733295852552
 31
0.0
  0
ARC
  5
303
330
1F
100
AcDbEntity
  8
0
  6
Continuous
 62
     7
 48
2.0
100
AcDbCircle
 10
346.1947587220886
 20
351.2233295852539
 30
0.0
 40
1.767766952515253
100
AcDbArc
 50
81.86989856185398
 51
188.1301057638608
  0
LINE
  5
304
330
1F
100
AcDbEntity
  8
0
  6
Continuous
 62
     7
 48
2.0
100
AcDbLine
 10
355.2447587220878
 20
356.6733295852555
 30
0.0
 11
355.2447587220878
 21
350.2733295852552
 31
0.0
  0
LINE
  5
305
330
1F
100
AcDbEntity
  8
0
  6
Continuous
 62
     7
 48
2.0
100
AcDbLine
 10
354.9447587220877
 20
350.9733295852552
 30
0.0
 11
354.9447587220877
 21
355.9733295852552
 31
0.0
  0
LINE
  5
306
330
1F
100
AcDbEntity
  8
0
  6
Continuous
 62
     7
 48
2.0
100
AcDbLine
 10
353.9447587220877
 20
350.9733295852552
 30
0.0
 11
353.9447587220877
 21
355.9733295852552
 31
0.0
  0
ARC
  5
307
330
1F
100
AcDbEntity
  8
0
  6
Continuous
 62
     7
 48
2.0
100
AcDbCircle
 10
341.6947587220888
 20
351.2233295852563
 30
0.0
 40
1.767766952513563
100
AcDbArc
 50
351.869897764851
 51
98.13009961698895
  0
ARC
  5
309
330
1F
100
AcDbEntity
  8
0
  6
Continuous
 62
     7
 48
2.0
100
AcDbCircle
 10
346.1947587220886
 20
341.2233295852538
 30
0.0
 40
1.767766952515225
100
AcDbArc
 50
81.86989856185398
 51
188.1301057638625
  0
ARC
  5
30A
330
1F
100
AcDbEntity
  8
0
  6
Continuous
 62
     7
 48
2.0
100
AcDbCircle
 10
346.194758722089
 20
345.7233295852558
 30
0.0
 40
1.76776695251569
100
AcDbArc
 50
171.8698942361239
 51
278.1301014381296
  0
ARC
  5
30B
330
1F
100
AcDbEntity
  8
0
  6
Continuous
 62
     7
 48
2.0
100
AcDbCircle
 10
341.6947587220888
 20
345.7233295852542
 30
0.0
 40
1.767766952513555
100
AcDbArc
 50
261.8699003830077
 51
8.130102235148976
  0
ARC
  5
30C
330
1F
100
AcDbEntity
  8
0
  6
Continuous
 62
     7
 48
2.0
100
AcDbCircle
 10
341.6947587220888
 20
341.2233295852564
 30
0.0
 40
1.767766952513514
100
AcDbArc
 50
351.869897764851
 51
98.13009961699222
  0
LINE
  5
30D
330
1F
100
AcDbEntity
  8
0
  6
Continuous
 62
     7
 48
2.0
100
AcDbLine
 10
347.4447587220877
 20
343.4733295852554
 30
0.0
 11
347.4447587220877
 21
343.4733295852554
 31
0.0
  0
ARC
  5
30E
330
1F
100
AcDbEntity
  8
0
  6
Continuous
 62
     7
 48
2.0
100
AcDbCircle
 10
355.9447587220876
 20
350.9733295852548
 30
0.0
 40
0.9999999999997266
100
AcDbArc
 50
180.0000050089535
 51
269.9999974955606
  0
ARC
  5
30F
330
1F
100
AcDbEntity
  8
0
  6
Continuous
 62
     7
 48
2.0
100
AcDbCircle
 10
355.9447587220868
 20
350.9733295852543
 30
0.0
 40
1.999999999998939
100
AcDbArc
 50
180.000005008939
 51
269.9999974955443
  0
ARC
  5
311
330
1F
100
AcDbEntity
  8
0
  6
Continuous
 62
     7
 48
2.0
100
AcDbCircle
 10
346.194758722089
 20
355.7233295852558
 30
0.0
 40
1.767766952515676
100
AcDbArc
 50
171.8698942361239
 51
278.1301014381296
  0
ARC
  5
312
330
1F
100
AcDbEntity
  8
0
  6
Continuous
 62
     7
 48
2.0
100
AcDbCircle
 10
341.6947587220888
 20
355.7233295852542
 30
0.0
 40
1.767766952513605
100
AcDbArc
 50
261.869900383011
 51
8.130102235152202
  0
LINE
  5
313
330
1F
100
AcDbEntity
  8
0
  6
Continuous
 62
     7
 48
2.0
100
AcDbLine
 10
347.4447587220877
 20
353.4733295852552
 30
0.0
 11
347.4447587220877
 21
353.4733295852552
 31
0.0
  0
ARC
  5
314
330
1F
100
AcDbEntity
  8
0
  6
Continuous
 62
     7
 48
2.0
100
AcDbCircle
 10
355.9447587220876
 20
355.9733295852556
 30
0.0
 40
1.999999999999715
100
AcDbArc
 50
90.0000025044752
 51
180.0000050089796
  0
ARC
  5
315
330
1F
100
AcDbEntity
  8
0
  6
Continuous
 62
     7
 48
2.0
100
AcDbCircle
 10
355.944758722088
 20
355.9733295852552
 30
0.0
 40
1.000000000000142
100
AcDbArc
 50
90.0000025044622
 51
180.0000050089666
  0
LINE
  5
316
330
1F
100
AcDbEntity
  8
0
  6
Continuous
 62
     7
 48
2.0
100
AcDbLine
 10
361.6447587220879
 20
356.6733295852555
 30
0.0
 11
361.6447587220879
 21
350.2733295852552
 31
0.0
  0
LINE
  5
317
330
1F
100
AcDbEntity
  8
0
  6
Continuous
 62
     7
 48
2.0
100
AcDbLine
 10
361.9447587220877
 20
350.9733295852552
 30
0.0
 11
361.9447587220877
 21
355.9733295852552
 31
0.0
  0
LINE
  5
318
330
1F
100
AcDbEntity
  8
0
  6
Continuous
 62
     7
 48
2.0
100
AcDbLine
 10
362.9447587220878
 20
350.9733295852552
 30
0.0
 11
362.9447587220878
 21
355.9733295852552
 31
0.0
  0
ARC
  5
319
330
1F
100
AcDbEntity
  8
0
  6
Continuous
 62
     7
 48
2.0
100
AcDbCircle
 10
360.9447587220881
 20
350.9733295852548
 30
0.0
 40
0.9999999999995743
100
AcDbArc
 50
269.9999974955181
 51
0.0000000000244267
  0
ARC
  5
31A
330
1F
100
AcDbEntity
  8
0
  6
Continuous
 62
     7
 48
2.0
100
AcDbCircle
 10
360.944758722088
 20
350.9733295852548
 30
0.0
 40
1.999999999999629
100
AcDbArc
 50
269.9999974955051
 51
0.0000000000097707
  0
ARC
  5
31B
330
1F
100
AcDbEntity
  8
0
  6
Continuous
 62
     7
 48
2.0
100
AcDbCircle
 10
360.944758722088
 20
355.9733295852558
 30
0.0
 40
1.999999999999649
100
AcDbArc
 50
359.9999999999884
 51
90.00000250449476
  0
ARC
  5
31C
330
1F
100
AcDbEntity
  8
0
  6
Continuous
 62
     7
 48
2.0
100
AcDbCircle
 10
360.9447587220881
 20
355.9733295852558
 30
0.0
 40
0.9999999999995734
100
AcDbArc
 50
359.9999999999753
 51
90.00000250448172
  0
LINE
  5
31D
330
1F
100
AcDbEntity
  8
0
  6
Continuous
 62
     7
 48
2.0
100
AcDbLine
 10
357.4447587220877
 20
352.9033295852552
 30
0.0
 11
359.4447587220877
 21
352.9033295852552
 31
0.0
  0
LINE
  5
31E
330
1F
100
AcDbEntity
  8
0
  6
Continuous
 62
     7
 48
2.0
100
AcDbLine
 10
357.4447587220877
 20
354.0433295852555
 30
0.0
 11
359.4447587220877
 21
354.0433295852555
 31
0.0
  0
LINE
  5
31F
330
1F
100
AcDbEntity
  8
0
  6
Continuous
 62
     7
 48
2.0
100
AcDbLine
 10
357.4447587220877
 20
355.4433295852553
 30
0.0
 11
359.4447587220877
 21
355.4433295852553
 31
0.0
  0
LINE
  5
320
330
1F
100
AcDbEntity
  8
0
  6
Continuous
 62
     7
 48
2.0
100
AcDbLine
 10
357.4447587220877
 20
352.9033295852552
 30
0.0
 11
357.4447587220877
 21
351.5033295852552
 31
0.0
  0
LINE
  5
321
330
1F
100
AcDbEntity
  8
0
  6
Continuous
 62
     7
 48
2.0
100
AcDbLine
 10
358.4447587220878
 20
352.9033295852552
 30
0.0
 11
358.4447587220878
 21
351.5033295852552
 31
0.0
  0
LINE
  5
322
330
1F
100
AcDbEntity
  8
0
  6
Continuous
 62
     7
 48
2.0
100
AcDbLine
 10
358.4447587220878
 20
355.4433295852553
 30
0.0
 11
358.4447587220878
 21
354.0433295852555
 31
0.0
  0
ARC
  5
323
330
1F
100
AcDbEntity
  8
0
  6
Continuous
 62
     7
100
AcDbCircle
 10
357.4447587220876
 20
354.7433295852552
 30
0.0
 40
0.6999999880789865
100
AcDbArc
 50
90.0000025044557
 51
269.9999974955443
  0
LINE
  5
324
330
1F
100
AcDbEntity
  8
0
  6
Continuous
 62
     7
 48
2.0
100
AcDbLine
 10
357.4447587220877
 20
355.4433295852553
 30
0.0
 11
357.4447587220877
 21
354.0433295852555
 31
0.0
  0
ARC
  5
325
330
1F
100
AcDbEntity
  8
0
  6
Continuous
 62
     7
100
AcDbCircle
 10
359.4447587220876
 20
354.7433295852552
 30
0.0
 40
0.699999988079015
100
AcDbArc
 50
269.9999974955443
 51
90.0000025044557
  0
LINE
  5
326
330
1F
100
AcDbEntity
  8
0
  6
Continuous
 62
     7
 48
2.0
100
AcDbLine
 10
357.4447587220877
 20
351.5033295852552
 30
0.0
 11
359.4447587220877
 21
351.5033295852552
 31
0.0
  0
ARC
  5
327
330
1F
100
AcDbEntity
  8
0
  6
Continuous
 62
     7
100
AcDbCircle
 10
357.4447587220876
 20
352.2033295852553
 30
0.0
 40
0.6999999880790721
100
AcDbArc
 50
90.0000025044557
 51
269.9999974955443
  0
ARC
  5
328
330
1F
100
AcDbEntity
  8
0
  6
Continuous
 62
     7
100
AcDbCircle
 10
359.4447587220876
 20
352.2033295852553
 30
0.0
 40
0.6999999880790436
100
AcDbArc
 50
269.9999974955443
 51
90.0000025044557
  0
LINE
  5
32C
330
1F
100
AcDbEntity
  8
0
  6
Continuous
 62
     7
 48
2.0
100
AcDbLine
 10
337.4447587220878
 20
389.2733295852552
 30
0.0
 11
350.4447587220878
 21
389.2733295852552
 31
0.0
  0
LINE
  5
32D
330
1F
100
AcDbEntity
  8
0
  6
Continuous
 62
     7
 48
2.0
100
AcDbLine
 10
337.4447587220878
 20
387.6733295852555
 30
0.0
 11
350.4447587220878
 21
387.6733295852555
 31
0.0
  0
LINE
  5
32E
330
1F
100
AcDbEntity
  8
0
  6
Continuous
 62
     7
 48
2.0
100
AcDbLine
 10
337.4447587220878
 20
379.2733295852552
 30
0.0
 11
350.4447587220878
 21
379.2733295852552
 31
0.0
  0
LINE
  5
32F
330
1F
100
AcDbEntity
  8
0
  6
Continuous
 62
     7
 48
2.0
100
AcDbLine
 10
337.4447587220878
 20
377.6733295852555
 30
0.0
 11
350.4447587220878
 21
377.6733295852555
 31
0.0
  0
LINE
  5
330
330
1F
100
AcDbEntity
  8
0
  6
Continuous
 62
     7
 48
2.0
100
AcDbLine
 10
337.4447587220878
 20
369.2733295852552
 30
0.0
 11
350.4447587220878
 21
369.2733295852552
 31
0.0
  0
LINE
  5
331
330
1F
100
AcDbEntity
  8
0
  6
Continuous
 62
     7
 48
2.0
100
AcDbLine
 10
337.4447587220878
 20
367.6733295852552
 30
0.0
 11
350.4447587220878
 21
367.6733295852552
 31
0.0
  0
LINE
  5
332
330
1F
100
AcDbEntity
  8
0
  6
Continuous
 62
     7
 48
2.0
100
AcDbLine
 10
337.4447587220878
 20
399.9733295852552
 30
0.0
 11
350.4447587220878
 21
399.9733295852552
 31
0.0
  0
LINE
  5
333
330
1F
100
AcDbEntity
  8
0
  6
Continuous
 62
     7
 48
2.0
100
AcDbLine
 10
336.9447587220878
 20
400.4733295852552
 30
0.0
 11
350.9447587220877
 21
400.4733295852552
 31
0.0
  0
LINE
  5
334
330
1F
100
AcDbEntity
  8
0
  6
Continuous
 62
     7
 48
2.0
100
AcDbLine
 10
337.4447587220878
 20
397.6733295852552
 30
0.0
 11
350.4447587220878
 21
397.6733295852552
 31
0.0
  0
LINE
  5
335
330
1F
100
AcDbEntity
  8
0
  6
Continuous
 62
     7
 48
2.0
100
AcDbLine
 10
337.4447587220878
 20
399.2733295852552
 30
0.0
 11
350.4447587220878
 21
399.2733295852552
 31
0.0
  0
LINE
  5
336
330
1F
100
AcDbEntity
  8
0
  6
Continuous
 62
     7
 48
2.0
100
AcDbLine
 10
340.9447587220878
 20
400.4733295852552
 30
0.0
 11
337.9447587220878
 21
400.4733295852552
 31
0.0
  0
LINE
  5
337
330
1F
100
AcDbEntity
  8
0
  6
Continuous
 62
     7
 48
2.0
100
AcDbLine
 10
337.9447587220878
 20
399.9733295852552
 30
0.0
 11
337.9447587220878
 21
400.4733295852552
 31
0.0
  0
LINE
  5
338
330
1F
100
AcDbEntity
  8
0
  6
Continuous
 62
     7
 48
2.0
100
AcDbLine
 10
340.9447587220878
 20
399.9733295852552
 30
0.0
 11
340.9447587220878
 21
400.4733295852552
 31
0.0
  0
ARC
  5
339
330
1F
100
AcDbEntity
  8
0
  6
Continuous
 62
     7
 48
2.0
100
AcDbCircle
 10
346.1947587220886
 20
381.2233295852538
 30
0.0
 40
1.767766952515253
100
AcDbArc
 50
81.86989856185398
 51
188.1301057638608
  0
ARC
  5
33A
330
1F
100
AcDbEntity
  8
0
  6
Continuous
 62
     7
 48
2.0
100
AcDbCircle
 10
341.6947587220888
 20
381.2233295852563
 30
0.0
 40
1.767766952513563
100
AcDbArc
 50
351.869897764851
 51
98.13009961698895
  0
ARC
  5
33D
330
1F
100
AcDbEntity
  8
0
  6
Continuous
 62
     7
 48
2.0
100
AcDbCircle
 10
346.1947587220886
 20
371.2233295852538
 30
0.0
 40
1.767766952515303
100
AcDbArc
 50
81.8698985618572
 51
188.1301057638625
  0
ARC
  5
33E
330
1F
100
AcDbEntity
  8
0
  6
Continuous
 62
     7
 48
2.0
100
AcDbCircle
 10
341.6947587220888
 20
371.2233295852563
 30
0.0
 40
1.767766952513563
100
AcDbArc
 50
351.869897764851
 51
98.13009961698895
  0
ARC
  5
340
330
1F
100
AcDbEntity
  8
0
  6
Continuous
 62
     7
 48
2.0
100
AcDbCircle
 10
346.194758722089
 20
365.7233295852559
 30
0.0
 40
1.767766952515676
100
AcDbArc
 50
171.8698942361239
 51
278.1301014381296
  0
ARC
  5
341
330
1F
100
AcDbEntity
  8
0
  6
Continuous
 62
     7
 48
2.0
100
AcDbCircle
 10
341.6947587220888
 20
365.7233295852543
 30
0.0
 40
1.767766952513585
100
AcDbArc
 50
261.869900383011
 51
8.130102235148976
  0
LINE
  5
342
330
1F
100
AcDbEntity
  8
0
  6
Continuous
 62
     7
 48
2.0
100
AcDbLine
 10
347.4447587220877
 20
363.4733295852552
 30
0.0
 11
347.4447587220877
 21
363.4733295852552
 31
0.0
  0
ARC
  5
343
330
1F
100
AcDbEntity
  8
0
  6
Continuous
 62
     7
 48
2.0
100
AcDbCircle
 10
346.194758722089
 20
375.7233295852556
 30
0.0
 40
1.767766952515676
100
AcDbArc
 50
171.8698942361239
 51
278.1301014381296
  0
ARC
  5
345
330
1F
100
AcDbEntity
  8
0
  6
Continuous
 62
     7
 48
2.0
100
AcDbCircle
 10
341.6947587220888
 20
375.7233295852543
 30
0.0
 40
1.767766952513605
100
AcDbArc
 50
261.869900383011
 51
8.130102235152202
  0
LINE
  5
346
330
1F
100
AcDbEntity
  8
0
  6
Continuous
 62
     7
 48
2.0
100
AcDbLine
 10
347.4447587220877
 20
373.4733295852552
 30
0.0
 11
347.4447587220877
 21
373.4733295852552
 31
0.0
  0
ARC
  5
354
330
1F
100
AcDbEntity
  8
0
  6
Continuous
 62
     7
 48
2.0
100
AcDbCircle
 10
346.194758722089
 20
395.7233295852561
 30
0.0
 40
1.767766952515676
100
AcDbArc
 50
171.8698942361239
 51
278.1301014381296
  0
ARC
  5
356
330
1F
100
AcDbEntity
  8
0
  6
Continuous
 62
     7
 48
2.0
100
AcDbCircle
 10
341.6947587220888
 20
395.7233295852543
 30
0.0
 40
1.767766952513605
100
AcDbArc
 50
261.869900383011
 51
8.130102235152202
  0
ARC
  5
357
330
1F
100
AcDbEntity
  8
0
  6
Continuous
 62
     7
 48
2.0
100
AcDbCircle
 10
346.194758722089
 20
385.7233295852556
 30
0.0
 40
1.767766952515676
100
AcDbArc
 50
171.8698942361239
 51
278.1301014381296
  0
ARC
  5
359
330
1F
100
AcDbEntity
  8
0
  6
Continuous
 62
     7
 48
2.0
100
AcDbCircle
 10
341.6947587220888
 20
385.7233295852543
 30
0.0
 40
1.767766952513585
100
AcDbArc
 50
261.869900383011
 51
8.130102235148976
  0
LINE
  5
35A
330
1F
100
AcDbEntity
  8
0
  6
Continuous
 62
     7
 48
2.0
100
AcDbLine
 10
347.4447587220877
 20
383.4733295852552
 30
0.0
 11
347.4447587220877
 21
383.4733295852552
 31
0.0
  0
ARC
  5
35B
330
1F
100
AcDbEntity
  8
0
  6
Continuous
 62
     7
 48
2.0
100
AcDbCircle
 10
346.1947587220886
 20
391.2233295852538
 30
0.0
 40
1.767766952515253
100
AcDbArc
 50
81.86989856185398
 51
188.1301057638608
  0
ARC
  5
35C
330
1F
100
AcDbEntity
  8
0
  6
Continuous
 62
     7
 48
2.0
100
AcDbCircle
 10
341.6947587220888
 20
391.2233295852563
 30
0.0
 40
1.767766952513563
100
AcDbArc
 50
351.869897764851
 51
98.13009961698895
  0
LINE
  5
35D
330
1F
100
AcDbEntity
  8
0
  6
Continuous
 62
     7
 48
2.0
100
AcDbLine
 10
347.4447587220877
 20
393.4733295852552
 30
0.0
 11
347.4447587220877
 21
393.4733295852552
 31
0.0
  0
LINE
  5
35E
330
1F
100
AcDbEntity
  8
0
  6
Continuous
 62
     7
 48
2.0
100
AcDbLine
 10
346.9447587220877
 20
400.4733295852552
 30
0.0
 11
349.9447587220878
 21
400.4733295852552
 31
0.0
  0
LINE
  5
35F
330
1F
100
AcDbEntity
  8
0
  6
Continuous
 62
     7
 48
2.0
100
AcDbLine
 10
346.9447587220877
 20
399.9733295852552
 30
0.0
 11
346.9447587220877
 21
400.4733295852552
 31
0.0
  0
LINE
  5
360
330
1F
100
AcDbEntity
  8
0
  6
Continuous
 62
     7
 48
2.0
100
AcDbLine
 10
349.9447587220878
 20
399.9733295852552
 30
0.0
 11
349.9447587220878
 21
400.4733295852552
 31
0.0
  0
LINE
  5
36A
330
1F
100
AcDbEntity
  8
0
  6
Continuous
 62
     7
 48
2.0
100
AcDbLine
 10
422.9447587220877
 20
366.9733295852552
 30
0.0
 11
422.9447587220877
 21
359.9733295852552
 31
0.0
  0
LINE
  5
36B
330
1F
100
AcDbEntity
  8
0
  6
Continuous
 62
     7
 48
2.0
100
AcDbLine
 10
423.9447587220878
 20
367.6733295852552
 30
0.0
 11
423.9447587220878
 21
359.2733295852553
 31
0.0
  0
ARC
  5
36C
330
1F
100
AcDbEntity
  8
0
  6
Continuous
 62
     7
 48
2.0
100
AcDbCircle
 10
424.507258722087
 20
363.4733295852552
 30
0.0
 40
4.062499999999596
100
AcDbArc
 50
120.5102321306691
 51
239.4897678693308
  0
LINE
  5
36D
330
1F
100
AcDbEntity
  8
0
  6
Continuous
 62
     7
 48
2.0
100
AcDbLine
 10
423.9447587220878
 20
347.6733295852552
 30
0.0
 11
423.9447587220878
 21
339.2733295852554
 31
0.0
  0
ARC
  5
36E
330
1F
100
AcDbEntity
  8
0
  6
Continuous
 62
     7
 48
2.0
100
AcDbCircle
 10
424.507258722087
 20
343.4733295852554
 30
0.0
 40
4.062499999999568
100
AcDbArc
 50
120.5102321306691
 51
239.4897678693308
  0
LINE
  5
36F
330
1F
100
AcDbEntity
  8
0
  6
Continuous
 62
     7
 48
2.0
100
AcDbLine
 10
422.9447587220877
 20
346.9733295852552
 30
0.0
 11
422.9447587220877
 21
339.9733295852553
 31
0.0
  0
ARC
  5
370
330
1F
100
AcDbEntity
  8
0
  6
Continuous
 62
     7
 48
2.0
100
AcDbCircle
 10
424.507258722087
 20
333.4733295852553
 30
0.0
 40
4.062499999999568
100
AcDbArc
 50
120.5102321306691
 51
239.4897678693308
  0
LINE
  5
371
330
1F
100
AcDbEntity
  8
0
  6
Continuous
 62
     7
 48
2.0
100
AcDbLine
 10
422.9447587220877
 20
336.9733295852554
 30
0.0
 11
422.9447587220877
 21
329.9733295852553
 31
0.0
  0
LINE
  5
372
330
1F
100
AcDbEntity
  8
0
  6
Continuous
 62
     7
 48
2.0
100
AcDbLine
 10
423.9447587220878
 20
337.6733295852553
 30
0.0
 11
423.9447587220878
 21
329.2733295852554
 31
0.0
  0
LINE
  5
373
330
1F
100
AcDbEntity
  8
0
  6
Continuous
 62
     7
 48
2.0
100
AcDbLine
 10
416.9447587220878
 20
329.2733295852554
 30
0.0
 11
424.9447587220878
 21
329.2733295852554
 31
0.0
  0
LINE
  5
374
330
1F
100
AcDbEntity
  8
0
  6
Continuous
 62
     7
 48
2.0
100
AcDbLine
 10
416.9447587220878
 20
327.6733295852555
 30
0.0
 11
424.9447587220878
 21
327.6733295852555
 31
0.0
  0
LINE
  5
375
330
1F
100
AcDbEntity
  8
0
  6
Continuous
 62
     7
 48
2.0
100
AcDbLine
 10
422.9447587220877
 20
326.9733295852554
 30
0.0
 11
422.9447587220877
 21
319.9733295852553
 31
0.0
  0
ARC
  5
376
330
1F
100
AcDbEntity
  8
0
  6
Continuous
 62
     7
 48
2.0
100
AcDbCircle
 10
424.5072587220867
 20
323.4733295852553
 30
0.0
 40
4.062499999999531
100
AcDbArc
 50
120.5102321306691
 51
239.4897678693308
  0
LINE
  5
377
330
1F
100
AcDbEntity
  8
0
  6
Continuous
 62
     7
 48
2.0
100
AcDbLine
 10
423.9447587220878
 20
319.9733295852553
 30
0.0
 11
422.9447587220877
 21
319.9733295852553
 31
0.0
  0
LINE
  5
378
330
1F
100
AcDbEntity
  8
0
  6
Continuous
 62
     7
 48
2.0
100
AcDbLine
 10
422.4447587220877
 20
319.9733295852553
 30
0.0
 11
422.9447587220877
 21
319.9733295852553
 31
0.0
  0
LINE
  5
379
330
1F
100
AcDbEntity
  8
0
  6
Continuous
 62
     7
 48
2.0
100
AcDbLine
 10
422.9447587220877
 20
322.4733295852554
 30
0.0
 11
423.9447587220878
 21
324.4733295852554
 31
0.0
  0
LINE
  5
37A
330
1F
100
AcDbEntity
  8
0
  6
Continuous
 62
     7
 48
2.0
100
AcDbLine
 10
423.9447587220878
 20
329.9733295852553
 30
0.0
 11
422.9447587220877
 21
329.9733295852553
 31
0.0
  0
LINE
  5
37B
330
1F
100
AcDbEntity
  8
0
  6
Continuous
 62
     7
 48
2.0
100
AcDbLine
 10
422.4447587220877
 20
329.9733295852553
 30
0.0
 11
422.9447587220877
 21
329.9733295852553
 31
0.0
  0
LINE
  5
37C
330
1F
100
AcDbEntity
  8
0
  6
Continuous
 62
     7
 48
2.0
100
AcDbLine
 10
423.9447587220878
 20
326.9733295852554
 30
0.0
 11
422.9447587220877
 21
326.9733295852554
 31
0.0
  0
LINE
  5
37D
330
1F
100
AcDbEntity
  8
0
  6
Continuous
 62
     7
 48
2.0
100
AcDbLine
 10
422.4447587220877
 20
326.9733295852554
 30
0.0
 11
422.9447587220877
 21
326.9733295852554
 31
0.0
  0
LINE
  5
37E
330
1F
100
AcDbEntity
  8
0
  6
Continuous
 62
     7
 48
2.0
100
AcDbLine
 10
416.9447587220878
 20
339.2733295852554
 30
0.0
 11
424.9447587220878
 21
339.2733295852554
 31
0.0
  0
LINE
  5
37F
330
1F
100
AcDbEntity
  8
0
  6
Continuous
 62
     7
 48
2.0
100
AcDbLine
 10
416.9447587220878
 20
337.6733295852553
 30
0.0
 11
424.9447587220878
 21
337.6733295852553
 31
0.0
  0
LINE
  5
380
330
1F
100
AcDbEntity
  8
0
  6
Continuous
 62
     7
 48
2.0
100
AcDbLine
 10
422.9447587220877
 20
332.4733295852553
 30
0.0
 11
423.9447587220878
 21
334.4733295852553
 31
0.0
  0
LINE
  5
381
330
1F
100
AcDbEntity
  8
0
  6
Continuous
 62
     7
 48
2.0
100
AcDbLine
 10
423.9447587220878
 20
336.9733295852554
 30
0.0
 11
422.9447587220877
 21
336.9733295852554
 31
0.0
  0
LINE
  5
382
330
1F
100
AcDbEntity
  8
0
  6
Continuous
 62
     7
 48
2.0
100
AcDbLine
 10
422.4447587220877
 20
336.9733295852554
 30
0.0
 11
422.9447587220877
 21
336.9733295852554
 31
0.0
  0
LINE
  5
383
330
1F
100
AcDbEntity
  8
0
  6
Continuous
 62
     7
 48
2.0
100
AcDbLine
 10
423.9447587220878
 20
339.9733295852553
 30
0.0
 11
422.9447587220877
 21
339.9733295852553
 31
0.0
  0
LINE
  5
384
330
1F
100
AcDbEntity
  8
0
  6
Continuous
 62
     7
 48
2.0
100
AcDbLine
 10
422.4447587220877
 20
339.9733295852553
 30
0.0
 11
422.9447587220877
 21
339.9733295852553
 31
0.0
  0
LINE
  5
385
330
1F
100
AcDbEntity
  8
0
  6
Continuous
 62
     7
 48
2.0
100
AcDbLine
 10
422.9447587220877
 20
356.9733295852552
 30
0.0
 11
422.9447587220877
 21
349.9733295852552
 31
0.0
  0
LINE
  5
386
330
1F
100
AcDbEntity
  8
0
  6
Continuous
 62
     7
 48
2.0
100
AcDbLine
 10
423.9447587220878
 20
357.6733295852552
 30
0.0
 11
423.9447587220878
 21
349.2733295852552
 31
0.0
  0
ARC
  5
387
330
1F
100
AcDbEntity
  8
0
  6
Continuous
 62
     7
 48
2.0
100
AcDbCircle
 10
424.5072587220867
 20
353.4733295852552
 30
0.0
 40
4.062499999999531
100
AcDbArc
 50
120.5102321306691
 51
239.4897678693308
  0
LINE
  5
388
330
1F
100
AcDbEntity
  8
0
  6
Continuous
 62
     7
 48
2.0
100
AcDbLine
 10
416.9447587220878
 20
349.2733295852552
 30
0.0
 11
424.9447587220878
 21
349.2733295852552
 31
0.0
  0
LINE
  5
389
330
1F
100
AcDbEntity
  8
0
  6
Continuous
 62
     7
 48
2.0
100
AcDbLine
 10
416.9447587220878
 20
347.6733295852552
 30
0.0
 11
424.9447587220878
 21
347.6733295852552
 31
0.0
  0
LINE
  5
38A
330
1F
100
AcDbEntity
  8
0
  6
Continuous
 62
     7
 48
2.0
100
AcDbLine
 10
422.9447587220877
 20
342.4733295852553
 30
0.0
 11
423.9447587220878
 21
344.4733295852552
 31
0.0
  0
LINE
  5
38B
330
1F
100
AcDbEntity
  8
0
  6
Continuous
 62
     7
 48
2.0
100
AcDbLine
 10
423.9447587220878
 20
349.9733295852552
 30
0.0
 11
422.9447587220877
 21
349.9733295852552
 31
0.0
  0
LINE
  5
38C
330
1F
100
AcDbEntity
  8
0
  6
Continuous
 62
     7
 48
2.0
100
AcDbLine
 10
423.9447587220878
 20
346.9733295852552
 30
0.0
 11
422.9447587220877
 21
346.9733295852552
 31
0.0
  0
LINE
  5
38D
330
1F
100
AcDbEntity
  8
0
  6
Continuous
 62
     7
 48
2.0
100
AcDbLine
 10
422.4447587220877
 20
349.9733295852552
 30
0.0
 11
422.9447587220877
 21
349.9733295852552
 31
0.0
  0
LINE
  5
38E
330
1F
100
AcDbEntity
  8
0
  6
Continuous
 62
     7
 48
2.0
100
AcDbLine
 10
422.4447587220877
 20
346.9733295852552
 30
0.0
 11
422.9447587220877
 21
346.9733295852552
 31
0.0
  0
LINE
  5
38F
330
1F
100
AcDbEntity
  8
0
  6
Continuous
 62
     7
 48
2.0
100
AcDbLine
 10
416.9447587220878
 20
359.2733295852553
 30
0.0
 11
424.9447587220878
 21
359.2733295852553
 31
0.0
  0
LINE
  5
390
330
1F
100
AcDbEntity
  8
0
  6
Continuous
 62
     7
 48
2.0
100
AcDbLine
 10
416.9447587220878
 20
357.6733295852552
 30
0.0
 11
424.9447587220878
 21
357.6733295852552
 31
0.0
  0
LINE
  5
391
330
1F
100
AcDbEntity
  8
0
  6
Continuous
 62
     7
 48
2.0
100
AcDbLine
 10
422.9447587220877
 20
352.4733295852552
 30
0.0
 11
423.9447587220878
 21
354.4733295852552
 31
0.0
  0
LINE
  5
392
330
1F
100
AcDbEntity
  8
0
  6
Continuous
 62
     7
 48
2.0
100
AcDbLine
 10
423.9447587220878
 20
356.9733295852552
 30
0.0
 11
422.9447587220877
 21
356.9733295852552
 31
0.0
  0
LINE
  5
393
330
1F
100
AcDbEntity
  8
0
  6
Continuous
 62
     7
 48
2.0
100
AcDbLine
 10
422.4447587220877
 20
356.9733295852552
 30
0.0
 11
422.9447587220877
 21
356.9733295852552
 31
0.0
  0
LINE
  5
394
330
1F
100
AcDbEntity
  8
0
  6
Continuous
 62
     7
 48
2.0
100
AcDbLine
 10
423.9447587220878
 20
359.9733295852552
 30
0.0
 11
422.9447587220877
 21
359.9733295852552
 31
0.0
  0
LINE
  5
395
330
1F
100
AcDbEntity
  8
0
  6
Continuous
 62
     7
 48
2.0
100
AcDbLine
 10
422.4447587220877
 20
359.9733295852552
 30
0.0
 11
422.9447587220877
 21
359.9733295852552
 31
0.0
  0
ARC
  5
396
330
1F
100
AcDbEntity
  8
0
  6
Continuous
 62
     7
 48
2.0
100
AcDbCircle
 10
424.507258722087
 20
383.4733295852552
 30
0.0
 40
4.062499999999596
100
AcDbArc
 50
120.5102321306691
 51
239.4897678693308
  0
LINE
  5
397
330
1F
100
AcDbEntity
  8
0
  6
Continuous
 62
     7
 48
2.0
100
AcDbLine
 10
422.9447587220877
 20
386.9733295852552
 30
0.0
 11
422.9447587220877
 21
379.9733295852552
 31
0.0
  0
LINE
  5
398
330
1F
100
AcDbEntity
  8
0
  6
Continuous
 62
     7
 48
2.0
100
AcDbLine
 10
423.9447587220878
 20
387.6733295852555
 30
0.0
 11
423.9447587220878
 21
379.2733295852552
 31
0.0
  0
LINE
  5
399
330
1F
100
AcDbEntity
  8
0
  6
Continuous
 62
     7
 48
2.0
100
AcDbLine
 10
422.9447587220877
 20
382.4733295852552
 30
0.0
 11
423.9447587220878
 21
384.4733295852552
 31
0.0
  0
ARC
  5
39A
330
1F
100
AcDbEntity
  8
0
  6
Continuous
 62
     7
 48
2.0
100
AcDbCircle
 10
424.507258722087
 20
373.4733295852552
 30
0.0
 40
4.062499999999596
100
AcDbArc
 50
120.5102321306691
 51
239.4897678693308
  0
LINE
  5
39B
330
1F
100
AcDbEntity
  8
0
  6
Continuous
 62
     7
 48
2.0
100
AcDbLine
 10
422.9447587220877
 20
376.9733295852552
 30
0.0
 11
422.9447587220877
 21
369.9733295852552
 31
0.0
  0
LINE
  5
39C
330
1F
100
AcDbEntity
  8
0
  6
Continuous
 62
     7
 48
2.0
100
AcDbLine
 10
423.9447587220878
 20
377.6733295852555
 30
0.0
 11
423.9447587220878
 21
369.2733295852552
 31
0.0
  0
LINE
  5
39D
330
1F
100
AcDbEntity
  8
0
  6
Continuous
 62
     7
 48
2.0
100
AcDbLine
 10
416.9447587220878
 20
369.2733295852552
 30
0.0
 11
424.9447587220878
 21
369.2733295852552
 31
0.0
  0
LINE
  5
39E
330
1F
100
AcDbEntity
  8
0
  6
Continuous
 62
     7
 48
2.0
100
AcDbLine
 10
416.9447587220878
 20
367.6733295852552
 30
0.0
 11
424.9447587220878
 21
367.6733295852552
 31
0.0
  0
LINE
  5
39F
330
1F
100
AcDbEntity
  8
0
  6
Continuous
 62
     7
 48
2.0
100
AcDbLine
 10
422.9447587220877
 20
362.4733295852552
 30
0.0
 11
423.9447587220878
 21
364.4733295852552
 31
0.0
  0
LINE
  5
3A0
330
1F
100
AcDbEntity
  8
0
  6
Continuous
 62
     7
 48
2.0
100
AcDbLine
 10
423.9447587220878
 20
366.9733295852552
 30
0.0
 11
422.9447587220877
 21
366.9733295852552
 31
0.0
  0
LINE
  5
3A1
330
1F
100
AcDbEntity
  8
0
  6
Continuous
 62
     7
 48
2.0
100
AcDbLine
 10
422.4447587220877
 20
366.9733295852552
 30
0.0
 11
422.9447587220877
 21
366.9733295852552
 31
0.0
  0
LINE
  5
3A2
330
1F
100
AcDbEntity
  8
0
  6
Continuous
 62
     7
 48
2.0
100
AcDbLine
 10
423.9447587220878
 20
369.9733295852552
 30
0.0
 11
422.9447587220877
 21
369.9733295852552
 31
0.0
  0
LINE
  5
3A3
330
1F
100
AcDbEntity
  8
0
  6
Continuous
 62
     7
 48
2.0
100
AcDbLine
 10
422.4447587220877
 20
369.9733295852552
 30
0.0
 11
422.9447587220877
 21
369.9733295852552
 31
0.0
  0
LINE
  5
3A4
330
1F
100
AcDbEntity
  8
0
  6
Continuous
 62
     7
 48
2.0
100
AcDbLine
 10
416.9447587220878
 20
377.6733295852555
 30
0.0
 11
424.9447587220878
 21
377.6733295852555
 31
0.0
  0
LINE
  5
3A5
330
1F
100
AcDbEntity
  8
0
  6
Continuous
 62
     7
 48
2.0
100
AcDbLine
 10
416.9447587220878
 20
379.2733295852552
 30
0.0
 11
424.9447587220878
 21
379.2733295852552
 31
0.0
  0
LINE
  5
3A6
330
1F
100
AcDbEntity
  8
0
  6
Continuous
 62
     7
 48
2.0
100
AcDbLine
 10
423.9447587220878
 20
376.9733295852552
 30
0.0
 11
422.9447587220877
 21
376.9733295852552
 31
0.0
  0
LINE
  5
3A7
330
1F
100
AcDbEntity
  8
0
  6
Continuous
 62
     7
 48
2.0
100
AcDbLine
 10
422.4447587220877
 20
376.9733295852552
 30
0.0
 11
422.9447587220877
 21
376.9733295852552
 31
0.0
  0
LINE
  5
3A8
330
1F
100
AcDbEntity
  8
0
  6
Continuous
 62
     7
 48
2.0
100
AcDbLine
 10
422.9447587220877
 20
372.4733295852552
 30
0.0
 11
423.9447587220878
 21
374.4733295852552
 31
0.0
  0
LINE
  5
3A9
330
1F
100
AcDbEntity
  8
0
  6
Continuous
 62
     7
 48
2.0
100
AcDbLine
 10
423.9447587220878
 20
379.9733295852552
 30
0.0
 11
422.9447587220877
 21
379.9733295852552
 31
0.0
  0
LINE
  5
3AA
330
1F
100
AcDbEntity
  8
0
  6
Continuous
 62
     7
 48
2.0
100
AcDbLine
 10
422.4447587220877
 20
379.9733295852552
 30
0.0
 11
422.9447587220877
 21
379.9733295852552
 31
0.0
  0
LINE
  5
3AB
330
1F
100
AcDbEntity
  8
0
  6
Continuous
 62
     7
 48
2.0
100
AcDbLine
 10
415.4447587220877
 20
399.9733295852552
 30
0.0
 11
431.7356952158498
 21
399.9733295852552
 31
0.0
  0
LINE
  5
3AC
330
1F
100
AcDbEntity
  8
0
  6
Continuous
 62
     7
 48
2.0
100
AcDbLine
 10
423.9447587220878
 20
397.6733295852552
 30
0.0
 11
423.9447587220878
 21
389.2733295852552
 31
0.0
  0
LINE
  5
3AD
330
1F
100
AcDbEntity
  8
0
  6
Continuous
 62
     7
 48
2.0
100
AcDbLine
 10
422.9447587220877
 20
396.9733295852552
 30
0.0
 11
422.9447587220877
 21
389.9733295852552
 31
0.0
  0
ARC
  5
3AE
330
1F
100
AcDbEntity
  8
0
  6
Continuous
 62
     7
 48
2.0
100
AcDbCircle
 10
424.507258722087
 20
393.4733295852552
 30
0.0
 40
4.062499999999596
100
AcDbArc
 50
120.5102321306691
 51
239.4897678693308
  0
LINE
  5
3AF
330
1F
100
AcDbEntity
  8
0
  6
Continuous
 62
     7
 48
2.0
100
AcDbLine
 10
422.9447587220877
 20
392.4733295852552
 30
0.0
 11
423.9447587220878
 21
394.4733295852552
 31
0.0
  0
LINE
  5
3B0
330
1F
100
AcDbEntity
  8
0
  6
Continuous
 62
     7
 48
2.0
100
AcDbLine
 10
416.9447587220878
 20
387.6733295852555
 30
0.0
 11
424.9447587220878
 21
387.6733295852555
 31
0.0
  0
LINE
  5
3B1
330
1F
100
AcDbEntity
  8
0
  6
Continuous
 62
     7
 48
2.0
100
AcDbLine
 10
416.9447587220878
 20
389.2733295852552
 30
0.0
 11
424.9447587220878
 21
389.2733295852552
 31
0.0
  0
LINE
  5
3B2
330
1F
100
AcDbEntity
  8
0
  6
Continuous
 62
     7
 48
2.0
100
AcDbLine
 10
423.9447587220878
 20
386.9733295852552
 30
0.0
 11
422.9447587220877
 21
386.9733295852552
 31
0.0
  0
LINE
  5
3B3
330
1F
100
AcDbEntity
  8
0
  6
Continuous
 62
     7
 48
2.0
100
AcDbLine
 10
422.4447587220877
 20
386.9733295852552
 30
0.0
 11
422.9447587220877
 21
386.9733295852552
 31
0.0
  0
LINE
  5
3B4
330
1F
100
AcDbEntity
  8
0
  6
Continuous
 62
     7
 48
2.0
100
AcDbLine
 10
423.9447587220878
 20
389.9733295852552
 30
0.0
 11
422.9447587220877
 21
389.9733295852552
 31
0.0
  0
LINE
  5
3B5
330
1F
100
AcDbEntity
  8
0
  6
Continuous
 62
     7
 48
2.0
100
AcDbLine
 10
422.4447587220877
 20
389.9733295852552
 30
0.0
 11
422.9447587220877
 21
389.9733295852552
 31
0.0
  0
LINE
  5
3B6
330
1F
100
AcDbEntity
  8
0
  6
Continuous
 62
     7
 48
2.0
100
AcDbLine
 10
416.9447587220878
 20
399.2733295852552
 30
0.0
 11
424.9447587220878
 21
399.2733295852552
 31
0.0
  0
LINE
  5
3B7
330
1F
100
AcDbEntity
  8
0
  6
Continuous
 62
     7
 48
2.0
100
AcDbLine
 10
416.9447587220878
 20
397.6733295852552
 30
0.0
 11
424.9447587220878
 21
397.6733295852552
 31
0.0
  0
LINE
  5
3B8
330
1F
100
AcDbEntity
  8
0
  6
Continuous
 62
     7
 48
2.0
100
AcDbLine
 10
423.9447587220878
 20
396.9733295852552
 30
0.0
 11
422.9447587220877
 21
396.9733295852552
 31
0.0
  0
LINE
  5
3B9
330
1F
100
AcDbEntity
  8
0
  6
Continuous
 62
     7
 48
2.0
100
AcDbLine
 10
422.4447587220877
 20
396.9733295852552
 30
0.0
 11
422.9447587220877
 21
396.9733295852552
 31
0.0
  0
LINE
  5
3BA
330
1F
100
AcDbEntity
  8
0
  6
Continuous
 62
     7
 48
2.0
100
AcDbLine
 10
365.1400615277768
 20
404.7488472479791
 30
0.0
 11
322.7494559163998
 21
404.7488472479791
 31
0.0
  0
ARC
  5
3BB
330
1F
100
AcDbEntity
  8
0
  6
Continuous
 62
     7
 48
2.0
100
AcDbCircle
 10
343.9447587220884
 20
412.4733295852538
 30
0.0
 40
3.099999904632493
100
AcDbArc
 50
180.0000050089357
 51
0.0000000000244267
  0
ARC
  5
3BC
330
1F
100
AcDbEntity
  8
0
  6
Continuous
 62
     7
 48
2.0
100
AcDbCircle
 10
343.9447587220878
 20
412.4733295852528
 30
0.0
 40
6.000000000000007
100
AcDbArc
 50
180.0000050089341
 51
0.0000000000244267
  0
ARC
  5
3BD
330
1F
100
AcDbEntity
  8
0
  6
Continuous
 62
     7
 48
2.0
100
AcDbCircle
 10
343.9447587220878
 20
412.4733295852528
 30
0.0
 40
6.000000000000007
100
AcDbArc
 50
180.0000050089341
 51
0.0000000000244267
  0
LINE
  5
3BF
330
1F
100
AcDbEntity
  8
0
  6
Continuous
 62
     7
 48
2.0
100
AcDbLine
 10
338.9447587220878
 20
404.9846249889723
 30
0.0
 11
342.4447587220878
 21
404.9846249889723
 31
0.0
  0
LINE
  5
3C0
330
1F
100
AcDbEntity
  8
0
  6
Continuous
 62
     7
 48
2.0
100
AcDbLine
 10
365.9447586346648
 20
405.4733295852552
 30
0.0
 11
321.9447587220878
 21
405.4733295852552
 31
0.0
  0
LINE
  5
3C1
330
1F
100
AcDbEntity
  8
0
  6
Continuous
 62
     7
 48
2.0
100
AcDbLine
 10
325.9447587220878
 20
404.9846249889723
 30
0.0
 11
329.4447587220878
 21
404.9846249889723
 31
0.0
  0
LINE
  5
3C2
330
1F
100
AcDbEntity
  8
0
  6
Continuous
 62
     7
 48
2.0
100
AcDbLine
 10
319.9447587220878
 20
418.4733295852552
 30
0.0
 11
336.9447587220878
 21
418.4733295852552
 31
0.0
  0
LINE
  5
3C3
330
1F
100
AcDbEntity
  8
0
  6
Continuous
 62
     7
 48
2.0
100
AcDbLine
 10
340.8447587220878
 20
418.4733295852552
 30
0.0
 11
319.9447587220878
 21
418.4733295852552
 31
0.0
  0
LINE
  5
3C4
330
1F
100
AcDbEntity
  8
0
  6
Continuous
 62
     7
 48
2.0
100
AcDbLine
 10
325.9447587220878
 20
405.4733295852552
 30
0.0
 11
325.9447587220878
 21
404.9846249889723
 31
0.0
  0
LINE
  5
3C5
330
1F
100
AcDbEntity
  8
0
  6
Continuous
 62
     7
 48
2.0
100
AcDbLine
 10
337.9447587220878
 20
412.4733295852553
 30
0.0
 11
337.9447587220878
 21
418.4733295852552
 31
0.0
  0
LINE
  5
3C6
330
1F
100
AcDbEntity
  8
0
  6
Continuous
 62
     7
 48
2.0
100
AcDbLine
 10
337.9447587220878
 20
417.4733295852552
 30
0.0
 11
337.9447587220878
 21
412.4733295852553
 31
0.0
  0
LINE
  5
3C7
330
1F
100
AcDbEntity
  8
0
  6
Continuous
 62
     7
 48
2.0
100
AcDbLine
 10
340.8447587220878
 20
412.4733295852553
 30
0.0
 11
340.8447587220878
 21
418.4733295852552
 31
0.0
  0
LINE
  5
3C8
330
1F
100
AcDbEntity
  8
0
  6
Continuous
 62
     7
 48
2.0
100
AcDbLine
 10
332.4447587220878
 20
404.9846249889723
 30
0.0
 11
335.9447587220878
 21
404.9846249889723
 31
0.0
  0
LINE
  5
3C9
330
1F
100
AcDbEntity
  8
0
  6
Continuous
 62
     7
 48
2.0
100
AcDbLine
 10
329.4447587220878
 20
405.4733295852552
 30
0.0
 11
329.4447587220878
 21
404.9846249889723
 31
0.0
  0
LINE
  5
3CA
330
1F
100
AcDbEntity
  8
0
  6
Continuous
 62
     7
 48
2.0
100
AcDbLine
 10
332.4447587220878
 20
405.4733295852552
 30
0.0
 11
332.4447587220878
 21
404.9846249889723
 31
0.0
  0
LINE
  5
3CB
330
1F
100
AcDbEntity
  8
0
  6
Continuous
 62
     7
 48
2.0
100
AcDbLine
 10
335.9447587220878
 20
405.4733295852552
 30
0.0
 11
335.9447587220878
 21
404.9846249889723
 31
0.0
  0
LINE
  5
3CC
330
1F
100
AcDbEntity
  8
0
  6
Continuous
 62
     7
 48
2.0
100
AcDbLine
 10
338.9447587220878
 20
405.4733295852552
 30
0.0
 11
338.9447587220878
 21
404.9846249889723
 31
0.0
  0
ARC
  5
3CD
330
1F
100
AcDbEntity
  8
0
  6
Continuous
 62
     7
 48
2.0
100
AcDbCircle
 10
336.9447587220883
 20
417.4733295852558
 30
0.0
 40
0.9999999999995734
100
AcDbArc
 50
359.9999999999753
 51
90.00000250447845
  0
LINE
  5
3CF
330
1F
100
AcDbEntity
  8
0
  6
Continuous
 62
     7
 48
2.0
100
AcDbLine
 10
367.9447587220877
 20
418.4733295852552
 30
0.0
 11
350.9447587220877
 21
418.4733295852552
 31
0.0
  0
LINE
  5
3D0
330
1F
100
AcDbEntity
  8
0
  6
Continuous
 62
     7
 48
2.0
100
AcDbLine
 10
367.9447587220877
 20
418.4733295852552
 30
0.0
 11
347.0447587220878
 21
418.4733295852552
 31
0.0
  0
LINE
  5
3D1
330
1F
100
AcDbEntity
  8
0
  6
Continuous
 62
     7
 48
2.0
100
AcDbLine
 10
349.9447587220878
 20
417.4733295852552
 30
0.0
 11
349.9447587220878
 21
412.4733295852553
 31
0.0
  0
LINE
  5
3D2
330
1F
100
AcDbEntity
  8
0
  6
Continuous
 62
     7
 48
2.0
100
AcDbLine
 10
349.9447587220878
 20
412.4733295852553
 30
0.0
 11
349.9447587220878
 21
418.4733295852552
 31
0.0
  0
LINE
  5
3D3
330
1F
100
AcDbEntity
  8
0
  6
Continuous
 62
     7
 48
2.0
100
AcDbLine
 10
347.0447587220878
 20
412.4733295852553
 30
0.0
 11
347.0447587220878
 21
418.4733295852552
 31
0.0
  0
LINE
  5
3D4
330
1F
100
AcDbEntity
  8
0
  6
Continuous
 62
     7
 48
2.0
100
AcDbLine
 10
348.9447587220877
 20
404.9846249889723
 30
0.0
 11
345.4447587220877
 21
404.9846249889723
 31
0.0
  0
LINE
  5
3D5
330
1F
100
AcDbEntity
  8
0
  6
Continuous
 62
     7
 48
2.0
100
AcDbLine
 10
342.4447587220878
 20
405.4733295852552
 30
0.0
 11
342.4447587220878
 21
404.9846249889723
 31
0.0
  0
LINE
  5
3D6
330
1F
100
AcDbEntity
  8
0
  6
Continuous
 62
     7
 48
2.0
100
AcDbLine
 10
345.4447587220877
 20
405.4733295852552
 30
0.0
 11
345.4447587220877
 21
404.9846249889723
 31
0.0
  0
LINE
  5
3D7
330
1F
100
AcDbEntity
  8
0
  6
Continuous
 62
     7
 48
2.0
100
AcDbLine
 10
355.4447587220877
 20
404.9846249889723
 30
0.0
 11
351.9447587220877
 21
404.9846249889723
 31
0.0
  0
LINE
  5
3D8
330
1F
100
AcDbEntity
  8
0
  6
Continuous
 62
     7
 48
2.0
100
AcDbLine
 10
351.9447587220877
 20
405.4733295852552
 30
0.0
 11
351.9447587220877
 21
404.9846249889723
 31
0.0
  0
LINE
  5
3D9
330
1F
100
AcDbEntity
  8
0
  6
Continuous
 62
     7
 48
2.0
100
AcDbLine
 10
348.9447587220877
 20
405.4733295852552
 30
0.0
 11
348.9447587220877
 21
404.9846249889723
 31
0.0
  0
LINE
  5
3DA
330
1F
100
AcDbEntity
  8
0
  6
Continuous
 62
     7
 48
2.0
100
AcDbLine
 10
355.4447587220877
 20
405.4733295852552
 30
0.0
 11
355.4447587220877
 21
404.9846249889723
 31
0.0
  0
ARC
  5
3DB
330
1F
100
AcDbEntity
  8
0
  6
Continuous
 62
     7
 48
2.0
100
AcDbCircle
 10
350.944758722088
 20
417.4733295852552
 30
0.0
 40
1.000000000000142
100
AcDbArc
 50
90.0000025044622
 51
180.0000050089666
  0
LINE
  5
3DF
330
1F
100
AcDbEntity
  8
0
  6
Continuous
 62
     7
100
AcDbLine
 10
361.3447587220877
 20
408.7733295852553
 30
0.0
 11
361.3447587220877
 21
410.0733295852553
 31
0.0
  0
LINE
  5
3E0
330
1F
100
AcDbEntity
  8
0
  6
Continuous
 62
     7
100
AcDbLine
 10
360.5447587220877
 20
410.0733295852553
 30
0.0
 11
360.5447587220877
 21
408.7733295852553
 31
0.0
  0
LINE
  5
3E3
330
1F
100
AcDbEntity
  8
0
  6
Continuous
 62
     7
 48
2.0
100
AcDbLine
 10
361.9447587220877
 20
404.9846249889723
 30
0.0
 11
358.4447587220878
 21
404.9846249889723
 31
0.0
  0
LINE
  5
3EB
330
1F
100
AcDbEntity
  8
0
  6
Continuous
 62
     7
 48
2.0
100
AcDbLine
 10
358.4447587220878
 20
405.4733295852552
 30
0.0
 11
358.4447587220878
 21
404.9846249889723
 31
0.0
  0
LINE
  5
3F9
330
1F
100
AcDbEntity
  8
0
  6
Continuous
 62
     7
100
AcDbLine
 10
360.5447587220877
 20
408.7733295852553
 30
0.0
 11
361.3447587220877
 21
408.7733295852553
 31
0.0
  0
LINE
  5
3FA
330
1F
100
AcDbEntity
  8
0
  6
Continuous
 62
     7
 48
2.0
100
AcDbLine
 10
361.9447587220877
 20
405.4733295852552
 30
0.0
 11
361.9447587220877
 21
404.9846249889723
 31
0.0
  0
LINE
  5
3FD
330
1F
100
AcDbEntity
  8
0
  6
Continuous
 62
     7
100
AcDbLine
 10
359.2447587220878
 20
410.0733295852553
 30
0.0
 11
360.5447587220877
 21
410.0733295852553
 31
0.0
  0
LINE
  5
3FE
330
1F
100
AcDbEntity
  8
0
  6
Continuous
 62
     7
100
AcDbLine
 10
360.5447587220877
 20
410.8733295852553
 30
0.0
 11
359.2447587220878
 21
410.8733295852553
 31
0.0
  0
LINE
  5
40E
330
1F
100
AcDbEntity
  8
0
  6
Continuous
 62
     7
100
AcDbLine
 10
359.2447587220878
 20
410.8733295852553
 30
0.0
 11
359.2447587220878
 21
410.0733295852553
 31
0.0
  0
LINE
  5
423
330
1F
100
AcDbEntity
  8
0
  6
Continuous
 62
     7
100
AcDbLine
 10
362.6447587220877
 20
410.8733295852553
 30
0.0
 11
361.3447587220877
 21
410.8733295852553
 31
0.0
  0
LINE
  5
424
330
1F
100
AcDbEntity
  8
0
  6
Continuous
 62
     7
100
AcDbLine
 10
362.6447587220877
 20
410.0733295852553
 30
0.0
 11
362.6447587220877
 21
410.8733295852553
 31
0.0
  0
LINE
  5
425
330
1F
100
AcDbEntity
  8
0
  6
Continuous
 62
     7
100
AcDbLine
 10
361.3447587220877
 20
412.1733295852552
 30
0.0
 11
360.5447587220877
 21
412.1733295852552
 31
0.0
  0
LINE
  5
426
330
1F
100
AcDbEntity
  8
0
  6
Continuous
 62
     7
100
AcDbLine
 10
360.5447587220877
 20
412.1733295852552
 30
0.0
 11
360.5447587220877
 21
410.8733295852553
 31
0.0
  0
LINE
  5
427
330
1F
100
AcDbEntity
  8
0
  6
Continuous
 62
     7
100
AcDbLine
 10
361.3447587220877
 20
410.8733295852553
 30
0.0
 11
361.3447587220877
 21
412.1733295852552
 31
0.0
  0
LINE
  5
428
330
1F
100
AcDbEntity
  8
0
  6
Continuous
 62
     7
100
AcDbLine
 10
361.3447587220877
 20
410.0733295852553
 30
0.0
 11
362.6447587220877
 21
410.0733295852553
 31
0.0
  0
LINE
  5
42A
330
1F
100
AcDbEntity
  8
0
  6
Continuous
 62
     7
100
AcDbLine
 10
521.0447587220877
 20
418.4733295852552
 30
0.0
 11
521.0447587220877
 21
246.4733295852553
 31
0.0
  0
LINE
  5
42B
330
1F
100
AcDbEntity
  8
0
  6
Continuous
 62
     7
 48
2.0
100
AcDbLine
 10
526.4447587220878
 20
418.4733295852552
 30
0.0
 11
526.4447587220878
 21
246.4733295852553
 31
0.0
  0
LINE
  5
42C
330
1F
100
AcDbEntity
  8
0
  6
Continuous
 62
     7
 48
2.0
100
AcDbLine
 10
558.4447587220878
 20
418.4733295852552
 30
0.0
 11
558.4447587220878
 21
246.4733295852553
 31
0.0
  0
LINE
  5
42D
330
1F
100
AcDbEntity
  8
0
  6
Continuous
 62
     7
 48
2.0
100
AcDbLine
 10
531.9447587220878
 20
418.4733295852552
 30
0.0
 11
531.9447587220878
 21
246.4733295852553
 31
0.0
  0
LINE
  5
42E
330
1F
100
AcDbEntity
  8
0
  6
Continuous
 62
     7
 48
2.0
100
AcDbLine
 10
533.9447587220878
 20
418.4733295852552
 30
0.0
 11
533.9447587220878
 21
246.4733295852553
 31
0.0
  0
LINE
  5
42F
330
1F
100
AcDbEntity
  8
0
  6
Continuous
 62
     7
 48
2.0
100
AcDbLine
 10
539.4447587220878
 20
418.4733295852552
 30
0.0
 11
539.4447587220878
 21
246.4733295852553
 31
0.0
  0
LINE
  5
430
330
1F
100
AcDbEntity
  8
0
  6
Continuous
 62
     7
 48
2.0
100
AcDbLine
 10
541.4447587220878
 20
418.4733295852552
 30
0.0
 11
541.4447587220878
 21
246.4733295852553
 31
0.0
  0
LINE
  5
431
330
1F
100
AcDbEntity
  8
0
  6
Continuous
 62
     7
 48
2.0
100
AcDbLine
 10
546.9447587220878
 20
418.4733295852552
 30
0.0
 11
546.9447587220878
 21
246.4733295852553
 31
0.0
  0
LINE
  5
432
330
1F
100
AcDbEntity
  8
0
  6
Continuous
 62
     7
 48
2.0
100
AcDbLine
 10
548.9447587220878
 20
418.4733295852552
 30
0.0
 11
548.9447587220878
 21
246.4733295852553
 31
0.0
  0
LINE
  5
433
330
1F
100
AcDbEntity
  8
0
  6
Continuous
 62
     7
 48
2.0
100
AcDbLine
 10
554.4447587220878
 20
418.4733295852552
 30
0.0
 11
554.4447587220878
 21
246.4733295852553
 31
0.0
  0
LINE
  5
434
330
1F
100
AcDbEntity
  8
0
  6
Continuous
 62
     7
 48
2.0
100
AcDbLine
 10
520.9447587220878
 20
418.4733295852552
 30
0.0
 11
520.9447587220878
 21
294.4733295852553
 31
0.0
  0
LINE
  5
435
330
1F
100
AcDbEntity
  8
0
  6
Continuous
 62
     7
 48
2.0
100
AcDbLine
 10
519.4447587220878
 20
246.4733295852553
 30
0.0
 11
558.4447587220878
 21
246.4733295852553
 31
0.0
  0
LINE
  5
436
330
1F
100
AcDbEntity
  8
0
  6
Continuous
 62
     7
 48
2.0
100
AcDbLine
 10
494.4447587220877
 20
294.4733295852553
 30
0.0
 11
450.9447587220877
 21
275.4733295852553
 31
0.0
  0
LINE
  5
437
330
1F
100
AcDbEntity
  8
0
  6
Continuous
 62
     7
 48
2.0
100
AcDbLine
 10
434.0153149623039
 20
273.4733295852553
 30
0.0
 11
450.9447587220877
 21
273.4733295852553
 31
0.0
  0
LINE
  5
438
330
1F
100
AcDbEntity
  8
0
  6
Continuous
 62
     7
 48
2.0
100
AcDbLine
 10
450.9447587220877
 20
275.4733295852553
 30
0.0
 11
450.9447587220877
 21
273.4733295852553
 31
0.0
  0
LINE
  5
439
330
1F
100
AcDbEntity
  8
0
  6
Continuous
 62
     7
100
AcDbLine
 10
519.4447587220878
 20
294.4733295852553
 30
0.0
 11
519.4447587220878
 21
246.4733295852553
 31
0.0
  0
LINE
  5
43A
330
1F
100
AcDbEntity
  8
0
  6
Continuous
 62
     7
 48
2.0
100
AcDbLine
 10
497.0447587220879
 20
291.3733295852555
 30
0.0
 11
497.0447587220879
 21
259.5733295852554
 31
0.0
  0
LINE
  5
43C
330
1F
100
AcDbEntity
  8
0
  6
Continuous
 62
     7
 48
2.0
100
AcDbLine
 10
514.4447587220878
 20
279.8733295852554
 30
0.0
 11
514.4447587220878
 21
271.0733295852554
 31
0.0
  0
LINE
  5
43D
330
1F
100
AcDbEntity
  8
0
  6
Continuous
 62
     7
 48
2.0
100
AcDbLine
 10
514.4447587220878
 20
279.4733295852553
 30
0.0
 11
514.4447587220878
 21
271.4733295852553
 31
0.0
  0
LINE
  5
43E
330
1F
100
AcDbEntity
  8
0
  6
Continuous
 62
     7
 48
2.0
100
AcDbLine
 10
513.6447587220876
 20
279.4733295852553
 30
0.0
 11
513.6447587220876
 21
271.4733295852553
 31
0.0
  0
LINE
  5
43F
330
1F
100
AcDbEntity
  8
0
  6
Continuous
 62
     7
 48
2.0
100
AcDbLine
 10
512.6447587220877
 20
279.2733295852554
 30
0.0
 11
512.6447587220877
 21
271.6733295852553
 31
0.0
  0
ARC
  5
440
330
1F
100
AcDbEntity
  8
0
  6
Continuous
 62
     7
 48
2.0
100
AcDbCircle
 10
514.2184429326173
 20
275.4733295852549
 30
0.0
 40
4.173684120179855
100
AcDbArc
 50
123.0087289894835
 51
236.9912710105162
  0
LINE
  5
441
330
1F
100
AcDbEntity
  8
0
  6
Continuous
 62
     7
 48
2.0
100
AcDbLine
 10
497.0447587220879
 20
259.5733295852554
 30
0.0
 11
519.4447587220878
 21
259.5733295852554
 31
0.0
  0
LINE
  5
442
330
1F
100
AcDbEntity
  8
0
  6
Continuous
 62
     7
 48
2.0
100
AcDbLine
 10
497.0447587220879
 20
271.0733295852554
 30
0.0
 11
514.4447587220878
 21
271.0733295852554
 31
0.0
  0
LINE
  5
443
330
1F
100
AcDbEntity
  8
0
  6
Continuous
 62
     7
 48
2.0
100
AcDbLine
 10
514.4447587220878
 20
273.4733295852553
 30
0.0
 11
519.4447587220878
 21
273.4733295852553
 31
0.0
  0
LINE
  5
444
330
1F
100
AcDbEntity
  8
0
  6
Continuous
 62
     7
 48
2.0
100
AcDbLine
 10
514.4447587220878
 20
273.9733295852553
 30
0.0
 11
519.4447587220878
 21
273.9733295852553
 31
0.0
  0
LINE
  5
445
330
1F
100
AcDbEntity
  8
0
  6
Continuous
 62
     7
 48
2.0
100
AcDbLine
 10
514.4447587220878
 20
272.9733295852553
 30
0.0
 11
519.4447587220878
 21
272.9733295852553
 31
0.0
  0
LINE
  5
446
330
1F
100
AcDbEntity
  8
0
  6
Continuous
 62
     7
 48
2.0
100
AcDbLine
 10
514.4447587220878
 20
276.9733295852554
 30
0.0
 11
519.4447587220878
 21
276.9733295852554
 31
0.0
  0
LINE
  5
447
330
1F
100
AcDbEntity
  8
0
  6
Continuous
 62
     7
 48
2.0
100
AcDbLine
 10
514.4447587220878
 20
271.4733295852553
 30
0.0
 11
513.6447587220876
 21
271.4733295852553
 31
0.0
  0
LINE
  5
448
330
1F
100
AcDbEntity
  8
0
  6
Continuous
 62
     7
 48
2.0
100
AcDbLine
 10
512.6447587220877
 20
271.6733295852553
 30
0.0
 11
513.6447587220876
 21
271.6733295852553
 31
0.0
  0
LINE
  5
449
330
1F
100
AcDbEntity
  8
0
  6
Continuous
 62
     7
 48
2.0
100
AcDbLine
 10
512.6447587220877
 20
271.9733295852553
 30
0.0
 11
511.9447587220878
 21
271.9733295852553
 31
0.0
  0
LINE
  5
44A
330
1F
100
AcDbEntity
  8
0
  6
Continuous
 62
     7
 48
2.0
100
AcDbLine
 10
513.6447587220876
 20
276.4733295852554
 30
0.0
 11
512.6447587220877
 21
274.4733295852554
 31
0.0
  0
LINE
  5
44B
330
1F
100
AcDbEntity
  8
0
  6
Continuous
 62
     7
 48
2.0
100
AcDbLine
 10
497.0447587220879
 20
279.8733295852554
 30
0.0
 11
514.4447587220878
 21
279.8733295852554
 31
0.0
  0
LINE
  5
44C
330
1F
100
AcDbEntity
  8
0
  6
Continuous
 62
     7
 48
2.0
100
AcDbLine
 10
520.9447587220878
 20
294.4733295852553
 30
0.0
 11
494.4447587220877
 21
294.4733295852553
 31
0.0
  0
LINE
  5
44D
330
1F
100
AcDbEntity
  8
0
  6
Continuous
 62
     7
 48
2.0
100
AcDbLine
 10
497.0447587220879
 20
291.3733295852555
 30
0.0
 11
519.4447587220878
 21
291.3733295852555
 31
0.0
  0
LINE
  5
44E
330
1F
100
AcDbEntity
  8
0
  6
Continuous
 62
     7
 48
2.0
100
AcDbLine
 10
514.4447587220878
 20
277.9733295852553
 30
0.0
 11
519.4447587220878
 21
277.9733295852553
 31
0.0
  0
LINE
  5
44F
330
1F
100
AcDbEntity
  8
0
  6
Continuous
 62
     7
 48
2.0
100
AcDbLine
 10
514.4447587220878
 20
277.4733295852553
 30
0.0
 11
519.4447587220878
 21
277.4733295852553
 31
0.0
  0
LINE
  5
450
330
1F
100
AcDbEntity
  8
0
  6
Continuous
 62
     7
 48
2.0
100
AcDbLine
 10
513.6447587220876
 20
279.4733295852553
 30
0.0
 11
514.4447587220878
 21
279.4733295852553
 31
0.0
  0
LINE
  5
451
330
1F
100
AcDbEntity
  8
0
  6
Continuous
 62
     7
 48
2.0
100
AcDbLine
 10
512.6447587220877
 20
279.2733295852554
 30
0.0
 11
513.6447587220876
 21
279.2733295852554
 31
0.0
  0
LINE
  5
452
330
1F
100
AcDbEntity
  8
0
  6
Continuous
 62
     7
 48
2.0
100
AcDbLine
 10
512.6447587220877
 20
278.9733295852554
 30
0.0
 11
511.9447587220878
 21
278.9733295852554
 31
0.0
  0
LINE
  5
453
330
1F
100
AcDbEntity
  8
0
  6
Continuous
 62
     7
 48
2.0
100
AcDbLine
 10
521.0447587220877
 20
418.4733295852552
 30
0.0
 11
558.4447587220878
 21
418.4733295852552
 31
0.0
  0
LINE
  5
454
330
1F
100
AcDbEntity
  8
0
  6
Continuous
 62
     7
 48
2.0
100
AcDbLine
 10
516.4447587220878
 20
405.4733295852552
 30
0.0
 11
433.9402644632897
 21
404.7533237717154
 31
0.0
  0
LINE
  5
455
330
1F
100
AcDbEntity
  8
0
  6
Continuous
 62
     7
 48
2.0
100
AcDbLine
 10
517.4447587220878
 20
418.4733295852552
 30
0.0
 11
522.4447587220878
 21
418.4733295852552
 31
0.0
  0
LINE
  5
456
330
1F
100
AcDbEntity
  8
0
  6
Continuous
 62
     7
 48
2.0
100
AcDbLine
 10
516.4447587220878
 20
405.4733295852552
 30
0.0
 11
516.4447587220878
 21
417.4733295852552
 31
0.0
  0
ARC
  5
457
330
1F
100
AcDbEntity
  8
0
  6
Continuous
 62
     7
100
AcDbCircle
 10
513.0099063197576
 20
410.4733295852552
 30
0.0
 40
1.840933680533899
100
AcDbArc
 50
292.5650505508095
 51
67.43494944919047
  0
ARC
  5
458
330
1F
100
AcDbEntity
  8
0
  6
Continuous
 62
     7
100
AcDbCircle
 10
515.3839400454578
 20
411.4233295852563
 30
0.0
 40
1.79999995231486
100
AcDbArc
 50
94.43470772876292
 51
140.7033449023723
  0
ARC
  5
459
330
1F
100
AcDbEntity
  8
0
  6
Continuous
 62
     7
100
AcDbCircle
 10
515.3839400454589
 20
409.5233295852571
 30
0.0
 40
1.799999952317655
100
AcDbArc
 50
219.2964775127522
 51
265.5652922712141
  0
ARC
  5
45A
330
1F
100
AcDbEntity
  8
0
  6
Continuous
 62
     7
100
AcDbCircle
 10
516.5447587220843
 20
410.4733295852552
 30
0.0
 40
3.299999952313751
100
AcDbArc
 50
140.7034268646025
 51
219.2964775127475
  0
LINE
  5
45B
330
1F
100
AcDbEntity
  8
0
  6
Continuous
 62
     7
100
AcDbLine
 10
515.2447587220879
 20
413.2179405623802
 30
0.0
 11
515.2447587220879
 21
407.7287186081305
 31
0.0
  0
LINE
  5
45C
330
1F
100
AcDbEntity
  8
0
  6
Continuous
 62
     7
 48
2.0
100
AcDbLine
 10
516.4447587220878
 20
413.4733295852552
 30
0.0
 11
516.4447587220878
 21
407.4733295852552
 31
0.0
  0
LINE
  5
45D
330
1F
100
AcDbEntity
  8
0
  6
Continuous
 62
     7
 48
2.0
100
AcDbLine
 10
515.944758722088
 20
407.4733295852552
 30
0.0
 11
515.944758722088
 21
413.4733295852552
 31
0.0
  0
LINE
  5
45E
330
1F
100
AcDbEntity
  8
0
  6
Continuous
 62
     7
 48
2.0
100
AcDbLine
 10
515.944758722088
 20
413.4233295852554
 30
0.0
 11
515.944758722088
 21
407.5233295852553
 31
0.0
  0
LINE
  5
45F
330
1F
100
AcDbEntity
  8
0
  6
Continuous
 62
     7
 48
2.0
100
AcDbLine
 10
515.2447587220879
 20
407.5233295852553
 30
0.0
 11
515.2447587220879
 21
413.4233295852554
 31
0.0
  0
LINE
  5
460
330
1F
100
AcDbEntity
  8
0
  6
Continuous
 62
     7
 48
2.0
100
AcDbLine
 10
516.4447587220878
 20
407.4733295852552
 30
0.0
 11
515.944758722088
 21
407.4733295852552
 31
0.0
  0
LINE
  5
461
330
1F
100
AcDbEntity
  8
0
  6
Continuous
 62
     7
 48
2.0
100
AcDbLine
 10
515.944758722088
 20
407.5233295852553
 30
0.0
 11
515.2447587220879
 21
407.5233295852553
 31
0.0
  0
LINE
  5
462
330
1F
100
AcDbEntity
  8
0
  6
Continuous
 62
     7
 48
2.0
100
AcDbLine
 10
515.944758722088
 20
413.4733295852552
 30
0.0
 11
516.4447587220878
 21
413.4733295852552
 31
0.0
  0
LINE
  5
463
330
1F
100
AcDbEntity
  8
0
  6
Continuous
 62
     7
 48
2.0
100
AcDbLine
 10
515.2447587220879
 20
413.4233295852554
 30
0.0
 11
515.944758722088
 21
413.4233295852554
 31
0.0
  0
ARC
  5
464
330
1F
100
AcDbEntity
  8
0
  6
Continuous
 62
     7
 48
2.0
100
AcDbCircle
 10
517.4447587220878
 20
417.4733295852552
 30
0.0
 40
1.000000000000085
100
AcDbArc
 50
90.00000250446545
 51
180.0000050089699
  0
CIRCLE
  5
46D
330
1F
100
AcDbEntity
  8
0
  6
Continuous
 62
     7
100
AcDbCircle
 10
343.9447587220873
 20
303.4733295852548
 30
0.0
 40
3.500000000000511
  0
CIRCLE
  5
46E
330
1F
100
AcDbEntity
  8
0
  6
Continuous
 62
     7
100
AcDbCircle
 10
343.9447587220873
 20
313.4733295852546
 30
0.0
 40
3.500000000000511
  0
CIRCLE
  5
46F
330
1F
100
AcDbEntity
  8
0
  6
Continuous
 62
     7
100
AcDbCircle
 10
343.9447587220873
 20
323.4733295852546
 30
0.0
 40
3.500000000000511
  0
CIRCLE
  5
470
330
1F
100
AcDbEntity
  8
0
  6
Continuous
 62
     7
100
AcDbCircle
 10
343.9447587220873
 20
333.4733295852546
 30
0.0
 40
3.500000000000511
  0
CIRCLE
  5
471
330
1F
100
AcDbEntity
  8
0
  6
Continuous
 62
     7
100
AcDbCircle
 10
343.9447587220873
 20
343.4733295852546
 30
0.0
 40
3.500000000000511
  0
CIRCLE
  5
472
330
1F
100
AcDbEntity
  8
0
  6
Continuous
 62
     7
100
AcDbCircle
 10
343.9447587220873
 20
353.4733295852546
 30
0.0
 40
3.500000000000511
  0
CIRCLE
  5
473
330
1F
100
AcDbEntity
  8
0
  6
Continuous
 62
     7
100
AcDbCircle
 10
343.9447587220873
 20
363.4733295852548
 30
0.0
 40
3.500000000000511
  0
CIRCLE
  5
474
330
1F
100
AcDbEntity
  8
0
  6
Continuous
 62
     7
100
AcDbCircle
 10
343.9447587220873
 20
373.4733295852545
 30
0.0
 40
3.500000000000511
  0
CIRCLE
  5
475
330
1F
100
AcDbEntity
  8
0
  6
Continuous
 62
     7
100
AcDbCircle
 10
343.944758722087
 20
383.4733295852545
 30
0.0
 40
3.500000000000511
  0
CIRCLE
  5
476
330
1F
100
AcDbEntity
  8
0
  6
Continuous
 62
     7
100
AcDbCircle
 10
343.9447587220873
 20
393.4733295852545
 30
0.0
 40
3.500000000000511
  0
CIRCLE
  5
477
330
1F
100
AcDbEntity
  8
0
  6
Continuous
 62
     7
100
AcDbCircle
 10
337.1947587220873
 20
267.4733295852548
 30
0.0
 40
3.500000000000511
  0
CIRCLE
  5
478
330
1F
100
AcDbEntity
  8
0
  6
Continuous
 62
     7
100
AcDbCircle
 10
350.6947587220873
 20
267.4733295852548
 30
0.0
 40
3.500000000000453
  0
CIRCLE
  5
479
330
1F
100
AcDbEntity
  8
0
  6
Continuous
 62
     7
100
AcDbCircle
 10
358.4447587220876
 20
368.473329585255
 30
0.0
 40
1.500000000000226
  0
CIRCLE
  5
47A
330
1F
100
AcDbEntity
  8
0
  6
Continuous
 62
     7
100
AcDbCircle
 10
358.4447587220876
 20
368.473329585255
 30
0.0
 40
2.50000000000017
  0
CIRCLE
  5
47B
330
1F
100
AcDbEntity
  8
0
  6
Continuous
 62
     7
100
AcDbCircle
 10
358.4447587220876
 20
378.4733295852546
 30
0.0
 40
2.50000000000017
  0
CIRCLE
  5
47C
330
1F
100
AcDbEntity
  8
0
  6
Continuous
 62
     7
100
AcDbCircle
 10
358.4447587220876
 20
378.4733295852546
 30
0.0
 40
1.500000000000226
  0
CIRCLE
  5
47D
330
1F
100
AcDbEntity
  8
0
  6
Continuous
 62
     7
100
AcDbCircle
 10
358.4447587220876
 20
388.4733295852551
 30
0.0
 40
1.500000000000226
  0
CIRCLE
  5
47E
330
1F
100
AcDbEntity
  8
0
  6
Continuous
 62
     7
100
AcDbCircle
 10
358.4447587220876
 20
388.4733295852551
 30
0.0
 40
2.50000000000017
  0
CIRCLE
  5
47F
330
1F
100
AcDbEntity
  8
0
  6
Continuous
 62
     7
100
AcDbCircle
 10
358.4447587220874
 20
396.4733295852551
 30
0.0
 40
2.50000000000017
  0
CIRCLE
  5
480
330
1F
100
AcDbEntity
  8
0
  6
Continuous
 62
     7
100
AcDbCircle
 10
358.4447587220874
 20
396.4733295852551
 30
0.0
 40
1.500000000000226
  0
CIRCLE
  5
481
330
1F
100
AcDbEntity
  8
0
  6
Continuous
 62
     7
100
AcDbCircle
 10
360.9447587220877
 20
410.4733295852552
 30
0.0
 40
2.750000000000106
  0
CIRCLE
  5
482
330
1F
100
AcDbEntity
  8
0
  6
Continuous
 62
     7
100
AcDbCircle
 10
360.9447587220877
 20
410.4733295852552
 30
0.0
 40
3.000000000000055
  0
ENDSEC
  0
SECTION
  2
OBJECTS
  0
DICTIONARY
  5
C
330
0
100
AcDbDictionary
281
     1
  3
ACAD_GROUP
350
D
  3
ACAD_LAYOUT
350
1A
  3
ACAD_MLINESTYLE
350
17
  3
ACAD_PLOTSETTINGS
350
19
  3
ACAD_PLOTSTYLENAME
350
E
  0
DICTIONARY
  5
D
102
{ACAD_REACTORS
330
C
102
}
330
C
100
AcDbDictionary
281
     1
  0
DICTIONARY
  5
1A
102
{ACAD_REACTORS
330
C
102
}
330
C
100
AcDbDictionary
281
     1
  3
Model
350
22
  3
ﾚｲｱｳﾄ1
350
51
  0
DICTIONARY
  5
17
102
{ACAD_REACTORS
330
C
102
}
330
C
100
AcDbDictionary
281
     1
  3
Standard
350
18
  0
DICTIONARY
  5
19
102
{ACAD_REACTORS
330
C
102
}
330
C
100
AcDbDictionary
281
     1
  0
ACDBDICTIONARYWDFLT
  5
E
102
{ACAD_REACTORS
330
C
102
}
330
C
100
AcDbDictionary
281
     1
  3
Normal
350
F
100
AcDbDictionaryWithDefault
340
F
  0
LAYOUT
  5
22
102
{ACAD_REACTORS
330
1A
102
}
330
1A
100
AcDbPlotSettings
  1

  2
none_device
  4
ANSI_A_(8.50_x_11.00_Inches)
  6

 40
6.349999904632567
 41
19.04999923706053
 42
6.350006103515625
 43
19.04998779296875
 44
215.8999938964841
 45
279.3999938964843
 46
0.0
 47
0.0
 48
0.0
 49
0.0
140
0.0
141
0.0
142
1.0
143
78.436453180766
 70
 11952
 72
     0
 73
     1
 74
     0
  7

 75
     0
147
0.0127491741332998
148
0.0
149
0.0
100
AcDbLayout
  1
Model
 70
     1
 71
     0
 10
0.0
 20
0.0
 11
12.0
 21
9.0
 12
0.0
 22
0.0
 32
0.0
 14
0.0
 24
0.0
 34
0.0
 15
0.0
 25
0.0
 35
0.0
146
0.0
 13
0.0
 23
0.0
 33
0.0
 16
1.0
 26
0.0
 36
0.0
 17
0.0
 27
1.0
 37
0.0
 76
     0
330
1F
  0
LAYOUT
  5
51
102
{ACAD_REACTORS
330
1A
102
}
330
1A
100
AcDbPlotSettings
  1

  2
None
  4

  6

 40
0.0
 41
0.0
 42
0.0
 43
0.0
 44
0.0
 45
0.0
 46
0.0
 47
0.0
 48
0.0
 49
0.0
140
0.0
141
0.0
142
1.0
143
1.0
 70
   688
 72
     0
 73
     0
 74
     5
  7

 75
    16
147
1.0
148
0.0
149
0.0
100
AcDbLayout
  1
ﾚｲｱｳﾄ1
 70
     1
 71
     1
 10
0.0
 20
0.0
 11
12.0
 21
9.0
 12
0.0
 22
0.0
 32
0.0
 14
0.0
 24
0.0
 34
0.0
 15
0.0
 25
0.0
 35
0.0
146
0.0
 13
0.0
 23
0.0
 33
0.0
 16
1.0
 26
0.0
 36
0.0
 17
0.0
 27
1.0
 37
0.0
 76
     0
330
50
  0
MLINESTYLE
  5
18
102
{ACAD_REACTORS
330
17
102
}
330
17
100
AcDbMlineStyle
  2
STANDARD
 70
     0
  3

 62
   256
 51
90.0
 52
90.0
 71
     2
 49
0.5
 62
   256
  6
BYLAYER
 49
-0.5
 62
   256
  6
BYLAYER
  0
ACDBPLACEHOLDER
  5
F
102
{ACAD_REACTORS
330
E
102
}
330
E
  0
ENDSEC
  0
EOF
