  0
SECTION
  2
HEADER
  9
$ACADVER
  1
AC1015
  9
$ACADMAINTVER
 70
    10
  9
$DWGCODEPAGE
  3
ANSI_932
  9
$INSBASE
 10
0.0
 20
0.0
 30
0.0
  9
$EXTMIN
 10
383.7490520408508
 20
241.1730801158622
 30
0.0
  9
$EXTMAX
 10
629.6632656522384
 20
429.5872937091462
 30
0.0
  9
$LIMMIN
 10
0.0
 20
0.0
  9
$LIMMAX
 10
420.0
 20
297.0
  9
$ORTHOMODE
 70
     0
  9
$REGENMODE
 70
     1
  9
$FILLMODE
 70
     1
  9
$QTEXTMODE
 70
     0
  9
$MIRRTEXT
 70
     1
  9
$LTSCALE
 40
1.0
  9
$ATTMODE
 70
     1
  9
$TEXTSIZE
 40
2.5
  9
$TRACEWID
 40
1.0
  9
$TEXTSTYLE
  7
Standard
  9
$CLAYER
  8
0
  9
$CELTYPE
  6
ByLayer
  9
$CECOLOR
 62
     7
  9
$CELTSCALE
 40
1.0
  9
$DISPSILH
 70
     0
  9
$DIMSCALE
 40
1.0
  9
$DIMASZ
 40
2.5
  9
$DIMEXO
 40
0.625
  9
$DIMDLI
 40
3.75
  9
$DIMRND
 40
0.0
  9
$DIMDLE
 40
0.0
  9
$DIMEXE
 40
1.25
  9
$DIMTP
 40
0.0
  9
$DIMTM
 40
0.0
  9
$DIMTXT
 40
2.5
  9
$DIMCEN
 40
2.5
  9
$DIMTSZ
 40
0.0
  9
$DIMTOL
 70
     0
  9
$DIMLIM
 70
     0
  9
$DIMTIH
 70
     0
  9
$DIMTOH
 70
     0
  9
$DIMSE1
 70
     0
  9
$DIMSE2
 70
     0
  9
$DIMTAD
 70
     1
  9
$DIMZIN
 70
     8
  9
$DIMBLK
  1

  9
$DIMASO
 70
     1
  9
$DIMSHO
 70
     1
  9
$DIMPOST
  1

  9
$DIMAPOST
  1

  9
$DIMALT
 70
     0
  9
$DIMALTD
 70
     3
  9
$DIMALTF
 40
0.03937007874016
  9
$DIMLFAC
 40
1.0
  9
$DIMTOFL
 70
     1
  9
$DIMTVP
 40
0.0
  9
$DIMTIX
 70
     0
  9
$DIMSOXD
 70
     0
  9
$DIMSAH
 70
     0
  9
$DIMBLK1
  1

  9
$DIMBLK2
  1

  9
$DIMSTYLE
  2
ISO-25
  9
$DIMCLRD
 70
     0
  9
$DIMCLRE
 70
     0
  9
$DIMCLRT
 70
     0
  9
$DIMTFAC
 40
1.0
  9
$DIMGAP
 40
0.625
  9
$DIMJUST
 70
     0
  9
$DIMSD1
 70
     0
  9
$DIMSD2
 70
     0
  9
$DIMTOLJ
 70
     0
  9
$DIMTZIN
 70
     8
  9
$DIMALTZ
 70
     0
  9
$DIMALTTZ
 70
     0
  9
$DIMUPT
 70
     0
  9
$DIMDEC
 70
     2
  9
$DIMTDEC
 70
     2
  9
$DIMALTU
 70
     2
  9
$DIMALTTD
 70
     3
  9
$DIMTXSTY
  7
Standard
  9
$DIMAUNIT
 70
     0
  9
$DIMADEC
 70
     0
  9
$DIMALTRND
 40
0.0
  9
$DIMAZIN
 70
     0
  9
$DIMDSEP
 70
    44
  9
$DIMATFIT
 70
     3
  9
$DIMFRAC
 70
     0
  9
$DIMLDRBLK
  1

  9
$DIMLUNIT
 70
     2
  9
$DIMLWD
 70
    -2
  9
$DIMLWE
 70
    -2
  9
$DIMTMOVE
 70
     0
  9
$LUNITS
 70
     2
  9
$LUPREC
 70
     4
  9
$SKETCHINC
 40
1.0
  9
$FILLETRAD
 40
10.0
  9
$AUNITS
 70
     0
  9
$AUPREC
 70
     0
  9
$MENU
  1
.
  9
$ELEVATION
 40
0.0
  9
$PELEVATION
 40
0.0
  9
$THICKNESS
 40
0.0
  9
$LIMCHECK
 70
     0
  9
$CHAMFERA
 40
10.0
  9
$CHAMFERB
 40
10.0
  9
$CHAMFERC
 40
20.0
  9
$CHAMFERD
 40
0.0
  9
$SKPOLY
 70
     0
  9
$TDCREATE
 40
2456496.439343576
  9
$TDUCREATE
 40
2456496.064343576
  9
$TDUPDATE
 40
2456500.610605995
  9
$TDUUPDATE
 40
2456500.235605995
  9
$TDINDWG
 40
0.0511996644
  9
$TDUSRTIMER
 40
0.0511992940
  9
$USRTIMER
 70
     1
  9
$ANGBASE
 50
0.0
  9
$ANGDIR
 70
     0
  9
$PDMODE
 70
     0
  9
$PDSIZE
 40
0.0
  9
$PLINEWID
 40
0.0
  9
$SPLFRAME
 70
     0
  9
$SPLINETYPE
 70
     6
  9
$SPLINESEGS
 70
     8
  9
$HANDSEED
  5
49B
  9
$SURFTAB1
 70
     6
  9
$SURFTAB2
 70
     6
  9
$SURFTYPE
 70
     6
  9
$SURFU
 70
     6
  9
$SURFV
 70
     6
  9
$UCSBASE
  2

  9
$UCSNAME
  2

  9
$UCSORG
 10
0.0
 20
0.0
 30
0.0
  9
$UCSXDIR
 10
1.0
 20
0.0
 30
0.0
  9
$UCSYDIR
 10
0.0
 20
1.0
 30
0.0
  9
$UCSORTHOREF
  2

  9
$UCSORTHOVIEW
 70
     0
  9
$UCSORGTOP
 10
0.0
 20
0.0
 30
0.0
  9
$UCSORGBOTTOM
 10
0.0
 20
0.0
 30
0.0
  9
$UCSORGLEFT
 10
0.0
 20
0.0
 30
0.0
  9
$UCSORGRIGHT
 10
0.0
 20
0.0
 30
0.0
  9
$UCSORGFRONT
 10
0.0
 20
0.0
 30
0.0
  9
$UCSORGBACK
 10
0.0
 20
0.0
 30
0.0
  9
$PUCSBASE
  2

  9
$PUCSNAME
  2

  9
$PUCSORG
 10
0.0
 20
0.0
 30
0.0
  9
$PUCSXDIR
 10
1.0
 20
0.0
 30
0.0
  9
$PUCSYDIR
 10
0.0
 20
1.0
 30
0.0
  9
$PUCSORTHOREF
  2

  9
$PUCSORTHOVIEW
 70
     0
  9
$PUCSORGTOP
 10
0.0
 20
0.0
 30
0.0
  9
$PUCSORGBOTTOM
 10
0.0
 20
0.0
 30
0.0
  9
$PUCSORGLEFT
 10
0.0
 20
0.0
 30
0.0
  9
$PUCSORGRIGHT
 10
0.0
 20
0.0
 30
0.0
  9
$PUCSORGFRONT
 10
0.0
 20
0.0
 30
0.0
  9
$PUCSORGBACK
 10
0.0
 20
0.0
 30
0.0
  9
$USERI1
 70
     0
  9
$USERI2
 70
     0
  9
$USERI3
 70
     0
  9
$USERI4
 70
     0
  9
$USERI5
 70
     0
  9
$USERR1
 40
0.0
  9
$USERR2
 40
0.0
  9
$USERR3
 40
0.0
  9
$USERR4
 40
0.0
  9
$USERR5
 40
0.0
  9
$WORLDVIEW
 70
     1
  9
$SHADEDGE
 70
     3
  9
$SHADEDIF
 70
    70
  9
$TILEMODE
 70
     1
  9
$MAXACTVP
 70
    64
  9
$PINSBASE
 10
0.0
 20
0.0
 30
0.0
  9
$PLIMCHECK
 70
     0
  9
$PEXTMIN
 10
0.0
 20
0.0
 30
0.0
  9
$PEXTMAX
 10
0.0
 20
0.0
 30
0.0
  9
$PLIMMIN
 10
0.0
 20
0.0
  9
$PLIMMAX
 10
12.0
 20
9.0
  9
$UNITMODE
 70
     0
  9
$VISRETAIN
 70
     1
  9
$PLINEGEN
 70
     0
  9
$PSLTSCALE
 70
     1
  9
$TREEDEPTH
 70
  3020
  9
$CMLSTYLE
  2
Standard
  9
$CMLJUST
 70
     0
  9
$CMLSCALE
 40
20.0
  9
$PROXYGRAPHICS
 70
     1
  9
$MEASUREMENT
 70
     1
  9
$CELWEIGHT
370
    -1
  9
$ENDCAPS
280
     0
  9
$JOINSTYLE
280
     0
  9
$LWDISPLAY
290
     0
  9
$INSUNITS
 70
     4
  9
$HYPERLINKBASE
  1

  9
$STYLESHEET
  1

  9
$XEDIT
290
     1
  9
$CEPSNTYPE
380
     0
  9
$PSTYLEMODE
290
     1
  9
$FINGERPRINTGUID
  2
{FDEAD578-A652-11D2-9A35-0060089B3A3F}
  9
$VERSIONGUID
  2
{571A8ABD-AD14-4B18-A0E1-4FFF47E34670}
  9
$EXTNAMES
290
     1
  9
$PSVPSCALE
 40
0.0
  9
$OLESTARTUP
290
     0
  0
ENDSEC
  0
SECTION
  2
CLASSES
  0
CLASS
  1
ACDBDICTIONARYWDFLT
  2
AcDbDictionaryWithDefault
  3
AutoCAD 2000
 90
        0
280
     0
281
     0
  0
CLASS
  1
ACDBPLACEHOLDER
  2
AcDbPlaceHolder
  3
AutoCAD 2000
 90
        0
280
     0
281
     0
  0
CLASS
  1
LAYOUT
  2
AcDbLayout
  3
AutoCAD 2000
 90
        0
280
     0
281
     0
  0
ENDSEC
  0
SECTION
  2
TABLES
  0
TABLE
  2
VPORT
  5
8
330
0
100
AcDbSymbolTable
 70
     2
  0
VPORT
  5
49A
330
8
100
AcDbSymbolTableRecord
100
AcDbViewportTableRecord
  2
*Active
 70
     0
 10
0.0
 20
0.0
 11
1.0
 21
1.0
 12
511.1299216855465
 22
331.342935922429
 13
0.0
 23
0.0
 14
10.0
 24
10.0
 15
10.0
 25
10.0
 16
0.0
 26
0.0
 36
1.0
 17
0.0
 27
0.0
 37
0.0
 40
237.661179624599
 41
1.90204081632653
 42
50.0
 43
0.0
 44
0.0
 50
0.0
 51
0.0
 71
     0
 72
   100
 73
     1
 74
     3
 75
     0
 76
     0
 77
     0
 78
     0
281
     0
 65
     1
110
0.0
120
0.0
130
0.0
111
1.0
121
0.0
131
0.0
112
0.0
122
1.0
132
0.0
 79
     0
146
0.0
  0
ENDTAB
  0
TABLE
  2
LTYPE
  5
5
330
0
100
AcDbSymbolTable
 70
     1
  0
LTYPE
  5
14
330
5
100
AcDbSymbolTableRecord
100
AcDbLinetypeTableRecord
  2
ByBlock
 70
     0
  3

 72
    65
 73
     0
 40
0.0
  0
LTYPE
  5
15
330
5
100
AcDbSymbolTableRecord
100
AcDbLinetypeTableRecord
  2
ByLayer
 70
     0
  3

 72
    65
 73
     0
 40
0.0
  0
LTYPE
  5
16
330
5
100
AcDbSymbolTableRecord
100
AcDbLinetypeTableRecord
  2
Continuous
 70
     0
  3
Solid line
 72
    65
 73
     0
 40
0.0
  0
ENDTAB
  0
TABLE
  2
LAYER
  5
2
330
0
100
AcDbSymbolTable
 70
     1
  0
LAYER
  5
10
330
2
100
AcDbSymbolTableRecord
100
AcDbLayerTableRecord
  2
0
 70
     0
 62
     7
  6
Continuous
370
    -3
390
F
  0
ENDTAB
  0
TABLE
  2
STYLE
  5
3
330
0
100
AcDbSymbolTable
 70
     2
  0
STYLE
  5
11
330
3
100
AcDbSymbolTableRecord
100
AcDbTextStyleTableRecord
  2
Standard
 70
     0
 40
0.0
 41
1.0
 50
0.0
 71
     0
 42
2.5
  3
txt
  4

  0
STYLE
  5
67
330
3
100
AcDbSymbolTableRecord
100
AcDbTextStyleTableRecord
  2
_TCW_TXTSTY_2
 70
     0
 40
0.0
 41
1.0
 50
0.0
 71
     0
 42
0.6875
  3
MS PGothic.ttf
  4

1001
ACAD
1000
ＭＳ Ｐゴシック
1071
    32802
  0
ENDTAB
  0
TABLE
  2
VIEW
  5
6
330
0
100
AcDbSymbolTable
 70
     0
  0
ENDTAB
  0
TABLE
  2
UCS
  5
7
330
0
100
AcDbSymbolTable
 70
     0
  0
ENDTAB
  0
TABLE
  2
APPID
  5
9
330
0
100
AcDbSymbolTable
 70
     2
  0
APPID
  5
12
330
9
100
AcDbSymbolTableRecord
100
AcDbRegAppTableRecord
  2
ACAD
 70
     0
  0
APPID
  5
69
330
9
100
AcDbSymbolTableRecord
100
AcDbRegAppTableRecord
  2
TCAD
 70
     0
  0
ENDTAB
  0
TABLE
  2
DIMSTYLE
  5
A
330
0
100
AcDbSymbolTable
 70
     2
100
AcDbDimStyleTable
 71
     1
340
27
  0
DIMSTYLE
105
27
330
A
100
AcDbSymbolTableRecord
100
AcDbDimStyleTableRecord
  2
ISO-25
 70
     0
 41
2.5
 42
0.625
 43
3.75
 44
1.25
 73
     0
 74
     0
 77
     1
 78
     8
140
2.5
141
2.5
143
0.03937007874016
147
0.625
171
     3
172
     1
271
     2
272
     2
274
     3
278
    44
283
     0
284
     8
340
11
  0
DIMSTYLE
105
68
330
A
100
AcDbSymbolTableRecord
100
AcDbDimStyleTableRecord
  2
S1
 70
     0
 41
3.0
 42
1.0
 43
1.0
 44
1.0
 45
0.01
 73
     0
 74
     0
 77
     1
 78
     8
140
2.40625
143
0.0394
145
0.6103515625
147
1.0
148
0.01
172
     1
174
     1
176
   256
177
   256
178
   256
179
     2
271
     2
286
     8
340
67
341
61
342
61
  0
ENDTAB
  0
TABLE
  2
BLOCK_RECORD
  5
1
330
0
100
AcDbSymbolTable
 70
     1
  0
BLOCK_RECORD
  5
1F
330
1
100
AcDbSymbolTableRecord
100
AcDbBlockTableRecord
  2
*Model_Space
340
22
  0
BLOCK_RECORD
  5
50
330
1
100
AcDbSymbolTableRecord
100
AcDbBlockTableRecord
  2
*Paper_Space
340
51
  0
BLOCK_RECORD
  5
61
330
1
100
AcDbSymbolTableRecord
100
AcDbBlockTableRecord
  2
_OPEN
340
0
  0
ENDTAB
  0
ENDSEC
  0
SECTION
  2
BLOCKS
  0
BLOCK
  5
20
330
1F
100
AcDbEntity
  8
0
100
AcDbBlockBegin
  2
*Model_Space
 70
     0
 10
0.0
 20
0.0
 30
0.0
  3
*Model_Space
  1

  0
ENDBLK
  5
21
330
1F
100
AcDbEntity
  8
0
100
AcDbBlockEnd
  0
BLOCK
  5
52
330
50
100
AcDbEntity
 67
     1
  8
0
100
AcDbBlockBegin
  2
*Paper_Space
 70
     0
 10
0.0
 20
0.0
 30
0.0
  3
*Paper_Space
  1

  0
ENDBLK
  5
53
330
50
100
AcDbEntity
 67
     1
  8
0
100
AcDbBlockEnd
  0
BLOCK
  5
65
330
61
100
AcDbEntity
  8
0
100
AcDbBlockBegin
  2
_OPEN
 70
     0
 10
0.0
 20
0.0
 30
0.0
  3
_OPEN
  1

  0
LINE
  5
62
330
61
100
AcDbEntity
  8
0
  6
ByBlock
 62
     0
100
AcDbLine
 10
-1.0
 20
0.166667
 30
0.0
 11
0.0
 21
0.0
 31
0.0
  0
LINE
  5
63
330
61
100
AcDbEntity
  8
0
  6
ByBlock
 62
     0
100
AcDbLine
 10
0.0
 20
0.0
 30
0.0
 11
-1.0
 21
-0.166667
 31
0.0
  0
LINE
  5
64
330
61
100
AcDbEntity
  8
0
  6
ByBlock
 62
     0
100
AcDbLine
 10
0.0
 20
0.0
 30
0.0
 11
-1.0
 21
0.0
 31
0.0
  0
ENDBLK
  5
66
330
61
100
AcDbEntity
  8
0
100
AcDbBlockEnd
  0
ENDSEC
  0
SECTION
  2
ENTITIES
  0
LINE
  5
283
330
1F
100
AcDbEntity
  8
0
 62
     7
 48
2.0
100
AcDbLine
 10
629.6632656522384
 20
427.1730801158642
 30
0.0
 11
629.6632656522384
 21
241.1730801158643
 31
0.0
  0
LINE
  5
284
330
1F
100
AcDbEntity
  8
0
 62
     7
 48
2.0
100
AcDbLine
 10
594.6632656522385
 20
427.1730801158642
 30
0.0
 11
594.6632656522385
 21
241.1730801158643
 31
0.0
  0
LINE
  5
285
330
1F
100
AcDbEntity
  8
0
 62
     7
 48
2.0
100
AcDbLine
 10
600.6632656522384
 20
427.1730801158642
 30
0.0
 11
600.6632656522384
 21
241.1730801158643
 31
0.0
  0
LINE
  5
286
330
1F
100
AcDbEntity
  8
0
 62
     7
 48
2.0
100
AcDbLine
 10
602.6632656522386
 20
427.1730801158642
 30
0.0
 11
602.6632656522386
 21
241.1730801158643
 31
0.0
  0
LINE
  5
287
330
1F
100
AcDbEntity
  8
0
 62
     7
 48
2.0
100
AcDbLine
 10
608.6632656522384
 20
427.1730801158642
 30
0.0
 11
608.6632656522384
 21
241.1730801158643
 31
0.0
  0
LINE
  5
288
330
1F
100
AcDbEntity
  8
0
 62
     7
 48
2.0
100
AcDbLine
 10
610.6632656522386
 20
427.1730801158642
 30
0.0
 11
610.6632656522386
 21
241.1730801158643
 31
0.0
  0
LINE
  5
289
330
1F
100
AcDbEntity
  8
0
 62
     7
 48
2.0
100
AcDbLine
 10
616.6632656522384
 20
427.1730801158642
 30
0.0
 11
616.6632656522384
 21
241.1730801158643
 31
0.0
  0
LINE
  5
28A
330
1F
100
AcDbEntity
  8
0
 62
     7
 48
2.0
100
AcDbLine
 10
618.6632656522386
 20
427.1730801158642
 30
0.0
 11
618.6632656522386
 21
241.1730801158643
 31
0.0
  0
LINE
  5
28B
330
1F
100
AcDbEntity
  8
0
 62
     7
 48
2.0
100
AcDbLine
 10
626.6632656522386
 20
427.1730801158642
 30
0.0
 11
626.6632656522386
 21
241.1730801158643
 31
0.0
  0
LINE
  5
28C
330
1F
100
AcDbEntity
  8
0
 62
     7
 48
2.0
100
AcDbLine
 10
588.6632656522383
 20
427.1730801158642
 30
0.0
 11
588.6632656522383
 21
241.1730801158643
 31
0.0
  0
ARC
  5
28D
330
1F
100
AcDbEntity
  8
0
 62
     7
 48
2.0
100
AcDbCircle
 10
418.1632656522384
 20
247.1730801158623
 30
0.0
 40
6.000000000000021
100
AcDbArc
 50
0.0000000000195413
 51
180.0000050089309
  0
LINE
  5
28E
330
1F
100
AcDbEntity
  8
0
 62
     7
 48
2.0
100
AcDbLine
 10
452.1632656522386
 20
427.1730801158642
 30
0.0
 11
452.1632656522386
 21
241.1730801158643
 31
0.0
  0
LINE
  5
28F
330
1F
100
AcDbEntity
  8
0
 62
     7
 48
2.0
100
AcDbLine
 10
384.1632656522384
 20
427.1730801158642
 30
0.0
 11
384.1632656522384
 21
241.1730801158643
 31
0.0
  0
LINE
  5
290
330
1F
100
AcDbEntity
  8
0
 62
     7
 48
2.0
100
AcDbLine
 10
415.0632656522384
 20
241.1730801158643
 30
0.0
 11
384.1632656522384
 21
241.1730801158643
 31
0.0
  0
LINE
  5
291
330
1F
100
AcDbEntity
  8
0
 62
     7
 48
2.0
100
AcDbLine
 10
452.1632656522386
 20
241.1730801158643
 30
0.0
 11
421.2632656522385
 21
241.1730801158643
 31
0.0
  0
LINE
  5
292
330
1F
100
AcDbEntity
  8
0
 62
     7
 48
2.0
100
AcDbLine
 10
421.2632656522385
 20
247.1730801158642
 30
0.0
 11
421.2632656522385
 21
241.1730801158643
 31
0.0
  0
LINE
  5
293
330
1F
100
AcDbEntity
  8
0
 62
     7
 48
2.0
100
AcDbLine
 10
424.1632656522384
 20
247.1730801158642
 30
0.0
 11
424.1632656522384
 21
241.1730801158643
 31
0.0
  0
LINE
  5
294
330
1F
100
AcDbEntity
  8
0
 62
     7
 48
2.0
100
AcDbLine
 10
415.0632656522384
 20
247.1730801158642
 30
0.0
 11
415.0632656522384
 21
241.1730801158643
 31
0.0
  0
LINE
  5
295
330
1F
100
AcDbEntity
  8
0
 62
     7
 48
2.0
100
AcDbLine
 10
412.1632656522383
 20
247.1730801158642
 30
0.0
 11
412.1632656522383
 21
241.1730801158643
 31
0.0
  0
ARC
  5
296
330
1F
100
AcDbEntity
  8
0
 62
     7
 48
2.0
100
AcDbCircle
 10
418.1632656522384
 20
247.1730801158634
 30
0.0
 40
3.099999904633008
100
AcDbArc
 50
0.0000000000162844
 51
180.0000050089276
  0
LINE
  5
297
330
1F
100
AcDbEntity
  8
0
 62
     7
 48
2.0
100
AcDbLine
 10
588.6632656522383
 20
241.1730801158643
 30
0.0
 11
629.6632656522384
 21
241.1730801158643
 31
0.0
  0
ARC
  5
298
330
1F
100
AcDbEntity
  8
0
 62
     7
 48
2.0
100
AcDbCircle
 10
418.1632656522384
 20
421.1730801158622
 30
0.0
 40
6.000000000000007
100
AcDbArc
 50
180.0000050089309
 51
0.0000000000179129
  0
ARC
  5
29B
330
1F
100
AcDbEntity
  8
0
 62
     7
 48
2.0
100
AcDbCircle
 10
418.1632656522384
 20
421.1730801158633
 30
0.0
 40
3.099999904632998
100
AcDbArc
 50
180.0000050089276
 51
0.0000000000162844
  0
ARC
  5
29C
330
1F
100
AcDbEntity
  8
0
 62
     7
 48
2.0
100
AcDbCircle
 10
418.1632656522384
 20
421.1730801158622
 30
0.0
 40
6.000000000000007
100
AcDbArc
 50
180.0000050089309
 51
0.0000000000179129
  0
LINE
  5
29D
330
1F
100
AcDbEntity
  8
0
 62
     7
 48
2.0
100
AcDbLine
 10
384.9748643567794
 20
411.4224171752161
 30
0.0
 11
384.9748643567794
 21
313.2018244892253
 31
0.0
  0
LINE
  5
29E
330
1F
100
AcDbEntity
  8
0
 62
     7
 48
2.0
100
AcDbLine
 10
451.3516669476975
 20
411.4224171752161
 30
0.0
 11
451.3516669476975
 21
313.2018244892253
 31
0.0
  0
LINE
  5
29F
330
1F
100
AcDbEntity
  8
0
 62
     7
 48
2.0
100
AcDbLine
 10
411.6632656522384
 20
408.673080115864
 30
0.0
 11
411.6632656522384
 21
305.6730801158642
 31
0.0
  0
LINE
  5
2A0
330
1F
100
AcDbEntity
  8
0
 62
     7
 48
2.0
100
AcDbLine
 10
424.6632656522383
 20
408.673080115864
 30
0.0
 11
424.6632656522383
 21
305.6730801158642
 31
0.0
  0
LINE
  5
2A1
330
1F
100
AcDbEntity
  8
0
 62
     7
 48
2.0
100
AcDbLine
 10
425.1632656522384
 20
409.1730801158643
 30
0.0
 11
425.1632656522384
 21
303.6730801158642
 31
0.0
  0
LINE
  5
2A2
330
1F
100
AcDbEntity
  8
0
 62
     7
 48
2.0
100
AcDbLine
 10
411.1632656522385
 20
409.1730801158643
 30
0.0
 11
411.1632656522385
 21
303.6730801158642
 31
0.0
  0
LINE
  5
2A3
330
1F
100
AcDbEntity
  8
0
 62
     7
 48
2.0
100
AcDbLine
 10
384.9748643567794
 20
305.1443357425043
 30
0.0
 11
384.9748643567794
 21
284.1730801158643
 31
0.0
  0
LINE
  5
2A4
330
1F
100
AcDbEntity
  8
0
 62
     7
 48
2.0
100
AcDbLine
 10
451.3516669476975
 20
305.1443357425043
 30
0.0
 11
451.3516669476975
 21
284.1730801158643
 31
0.0
  0
LINE
  5
2A5
330
1F
100
AcDbEntity
  8
0
 62
     7
 48
2.0
100
AcDbLine
 10
402.6632656522385
 20
282.1730801158643
 30
0.0
 11
402.6632656522385
 21
253.1730801158643
 31
0.0
  0
LINE
  5
2A6
330
1F
100
AcDbEntity
  8
0
 62
     7
 48
2.0
100
AcDbLine
 10
436.6632656522384
 20
282.1730801158643
 30
0.0
 11
436.6632656522384
 21
253.1730801158643
 31
0.0
  0
LINE
  5
2A7
330
1F
100
AcDbEntity
  8
0
 62
     7
 48
2.0
100
AcDbLine
 10
405.1632656522384
 20
282.1730801158643
 30
0.0
 11
405.1632656522384
 21
253.1730801158643
 31
0.0
  0
LINE
  5
2A8
330
1F
100
AcDbEntity
  8
0
 62
     7
 48
2.0
100
AcDbLine
 10
421.1632656522384
 20
282.1730801158643
 30
0.0
 11
421.1632656522384
 21
253.1730801158643
 31
0.0
  0
LINE
  5
2A9
330
1F
100
AcDbEntity
  8
0
 62
     7
 48
2.0
100
AcDbLine
 10
434.1632656522384
 20
282.1730801158643
 30
0.0
 11
434.1632656522384
 21
253.1730801158643
 31
0.0
  0
LINE
  5
2AA
330
1F
100
AcDbEntity
  8
0
 62
     7
 48
2.0
100
AcDbLine
 10
418.1632656522386
 20
282.1730801158643
 30
0.0
 11
418.1632656522386
 21
253.1730801158643
 31
0.0
  0
LINE
  5
2AB
330
1F
100
AcDbEntity
  8
0
 62
     7
 48
2.0
100
AcDbLine
 10
448.1632656522386
 20
282.1730801158643
 30
0.0
 11
448.1632656522386
 21
253.1730801158643
 31
0.0
  0
LINE
  5
2AC
330
1F
100
AcDbEntity
  8
0
 62
     7
 48
2.0
100
AcDbLine
 10
388.1632656522384
 20
282.1730801158643
 30
0.0
 11
388.1632656522384
 21
253.1730801158643
 31
0.0
  0
LINE
  5
2AD
330
1F
100
AcDbEntity
  8
0
 62
     7
 48
2.0
100
AcDbLine
 10
418.1632656522386
 20
259.1730801158643
 30
0.0
 11
405.1632656522384
 21
259.1730801158643
 31
0.0
  0
ARC
  5
2AE
330
1F
100
AcDbEntity
  8
0
 62
     7
 48
2.0
100
AcDbCircle
 10
409.4132656522391
 20
263.9230801158658
 30
0.0
 40
1.767766952514003
100
AcDbArc
 50
351.8698977648365
 51
98.13009961697581
  0
ARC
  5
2AF
330
1F
100
AcDbEntity
  8
0
 62
     7
 48
2.0
100
AcDbCircle
 10
409.4132656522391
 20
268.4230801158637
 30
0.0
 40
1.767766952514024
100
AcDbArc
 50
261.8699003830241
 51
8.130102235163484
  0
LINE
  5
2B0
330
1F
100
AcDbEntity
  8
0
 62
     7
 48
2.0
100
AcDbLine
 10
450.1632656522384
 20
282.1730801158643
 30
0.0
 11
386.1632656522384
 21
282.1730801158643
 31
0.0
  0
LINE
  5
2B1
330
1F
100
AcDbEntity
  8
0
 62
     7
 48
2.0
100
AcDbLine
 10
416.1632656522384
 20
266.1730801158643
 30
0.0
 11
416.1632656522384
 21
266.1730801158643
 31
0.0
  0
LINE
  5
2B4
330
1F
100
AcDbEntity
  8
0
 62
     7
 48
2.0
100
AcDbLine
 10
388.1632656522384
 20
253.1730801158643
 30
0.0
 11
448.1632656522386
 21
253.1730801158643
 31
0.0
  0
LINE
  5
2B5
330
1F
100
AcDbEntity
  8
0
 62
     7
 48
2.0
100
AcDbLine
 10
398.6632656522384
 20
282.1730801158643
 30
0.0
 11
398.6632656522384
 21
271.1730801158643
 31
0.0
  0
LINE
  5
2B6
330
1F
100
AcDbEntity
  8
0
 62
     7
 48
2.0
100
AcDbLine
 10
388.1632656522384
 20
268.1730801158642
 30
0.0
 11
398.6632656522384
 21
271.1730801158643
 31
0.0
  0
ARC
  5
2B7
330
1F
100
AcDbEntity
  8
0
 62
     7
 48
2.0
100
AcDbCircle
 10
386.163265652238
 20
284.1730801158636
 30
0.0
 40
1.999999999999453
100
AcDbArc
 50
180.0000050089242
 51
269.9999974955313
  0
ARC
  5
2B8
330
1F
100
AcDbEntity
  8
0
 62
     7
 48
2.0
100
AcDbCircle
 10
386.974864356779
 20
284.1730801158636
 30
0.0
 40
1.999999999999453
100
AcDbArc
 50
180.0000050089242
 51
269.9999974955313
  0
ARC
  5
2B9
330
1F
100
AcDbEntity
  8
0
 62
     7
 48
2.0
100
AcDbCircle
 10
390.9132656522391
 20
275.9230801158659
 30
0.0
 40
1.767766952513975
100
AcDbArc
 50
351.8698977648349
 51
98.13009961697581
  0
ARC
  5
2BA
330
1F
100
AcDbEntity
  8
0
 62
     7
 48
2.0
100
AcDbCircle
 10
395.4132656522391
 20
275.9230801158639
 30
0.0
 40
1.767766952515239
100
AcDbArc
 50
81.86989856185398
 51
188.1301057638608
  0
ARC
  5
2BB
330
1F
100
AcDbEntity
  8
0
 62
     7
 48
2.0
100
AcDbCircle
 10
395.4132656522391
 20
280.4230801158654
 30
0.0
 40
1.767766952515224
100
AcDbArc
 50
171.8698942361373
 51
278.130101438146
  0
ARC
  5
2BC
330
1F
100
AcDbEntity
  8
0
 62
     7
 48
2.0
100
AcDbCircle
 10
390.9132656522391
 20
280.4230801158636
 30
0.0
 40
1.767766952513983
100
AcDbArc
 50
261.8699003830241
 51
8.130102235165097
  0
ARC
  5
2BD
330
1F
100
AcDbEntity
  8
0
 62
     7
 48
2.0
100
AcDbCircle
 10
393.1632656522383
 20
278.1730801158656
 30
0.0
 40
4.999999999998832
100
AcDbArc
 50
126.8699032291531
 51
53.13010177979759
  0
LINE
  5
2BE
330
1F
100
AcDbEntity
  8
0
 62
     7
 48
2.0
100
AcDbLine
 10
397.1632656522384
 20
278.1730801158643
 30
0.0
 11
397.1632656522384
 21
278.1730801158643
 31
0.0
  0
LINE
  5
2C1
330
1F
100
AcDbEntity
  8
0
 62
     7
 48
2.0
100
AcDbLine
 10
388.9874423801164
 20
280.9230801158643
 30
0.0
 11
388.1632656522384
 21
280.9230801158643
 31
0.0
  0
LINE
  5
2C2
330
1F
100
AcDbEntity
  8
0
 62
     7
 48
2.0
100
AcDbLine
 10
388.9874423801164
 20
275.4230801158643
 30
0.0
 11
388.1632656522384
 21
275.4230801158643
 31
0.0
  0
LINE
  5
2C3
330
1F
100
AcDbEntity
  8
0
 62
     7
 48
2.0
100
AcDbLine
 10
437.6632656522384
 20
282.1730801158643
 30
0.0
 11
437.6632656522384
 21
271.1730801158643
 31
0.0
  0
LINE
  5
2C4
330
1F
100
AcDbEntity
  8
0
 62
     7
 48
2.0
100
AcDbLine
 10
434.1632656522384
 20
259.1730801158643
 30
0.0
 11
421.1632656522384
 21
259.1730801158643
 31
0.0
  0
LINE
  5
2C5
330
1F
100
AcDbEntity
  8
0
 62
     7
 48
2.0
100
AcDbLine
 10
432.1632656522385
 20
266.1730801158643
 30
0.0
 11
432.1632656522385
 21
266.1730801158643
 31
0.0
  0
ARC
  5
2C8
330
1F
100
AcDbEntity
  8
0
 62
     7
 48
2.0
100
AcDbCircle
 10
413.9132656522391
 20
263.9230801158639
 30
0.0
 40
1.767766952515225
100
AcDbArc
 50
81.86989856185398
 51
188.1301057638625
  0
ARC
  5
2C9
330
1F
100
AcDbEntity
  8
0
 62
     7
 48
2.0
100
AcDbCircle
 10
413.9132656522391
 20
268.4230801158656
 30
0.0
 40
1.767766952515239
100
AcDbArc
 50
171.8698942361373
 51
278.130101438146
  0
ARC
  5
2CA
330
1F
100
AcDbEntity
  8
0
 62
     7
 48
2.0
100
AcDbCircle
 10
429.9132656522393
 20
263.9230801158639
 30
0.0
 40
1.767766952515225
100
AcDbArc
 50
81.86989856185398
 51
188.1301057638625
  0
ARC
  5
2CB
330
1F
100
AcDbEntity
  8
0
 62
     7
 48
2.0
100
AcDbCircle
 10
425.4132656522391
 20
263.9230801158658
 30
0.0
 40
1.767766952513988
100
AcDbArc
 50
351.8698977648349
 51
98.13009961697581
  0
ARC
  5
2CC
330
1F
100
AcDbEntity
  8
0
 62
     7
 48
2.0
100
AcDbCircle
 10
425.4132656522391
 20
268.4230801158637
 30
0.0
 40
1.767766952513995
100
AcDbArc
 50
261.8699003830241
 51
8.130102235165097
  0
ARC
  5
2CD
330
1F
100
AcDbEntity
  8
0
 62
     7
 48
2.0
100
AcDbCircle
 10
429.9132656522393
 20
268.4230801158656
 30
0.0
 40
1.767766952515239
100
AcDbArc
 50
171.8698942361373
 51
278.130101438146
  0
LINE
  5
2CE
330
1F
100
AcDbEntity
  8
0
 62
     7
 48
2.0
100
AcDbLine
 10
448.1632656522386
 20
268.1730801158642
 30
0.0
 11
437.6632656522384
 21
271.1730801158643
 31
0.0
  0
ARC
  5
2CF
330
1F
100
AcDbEntity
  8
0
 62
     7
 48
2.0
100
AcDbCircle
 10
450.1632656522388
 20
284.1730801158638
 30
0.0
 40
1.999999999999644
100
AcDbArc
 50
269.9999974955051
 51
0.0000000000097707
  0
ARC
  5
2D0
330
1F
100
AcDbEntity
  8
0
 62
     7
 48
2.0
100
AcDbCircle
 10
449.3516669476982
 20
284.1730801158634
 30
0.0
 40
1.999999999999163
100
AcDbArc
 50
269.9999974955181
 51
0.0000000000244267
  0
ARC
  5
2D1
330
1F
100
AcDbEntity
  8
0
 62
     7
 48
2.0
100
AcDbCircle
 10
445.4132656522393
 20
280.4230801158654
 30
0.0
 40
1.767766952515231
100
AcDbArc
 50
171.8698942361373
 51
278.130101438146
  0
ARC
  5
2D2
330
1F
100
AcDbEntity
  8
0
 62
     7
 48
2.0
100
AcDbCircle
 10
440.9132656522391
 20
280.4230801158636
 30
0.0
 40
1.767766952513983
100
AcDbArc
 50
261.8699003830241
 51
8.130102235165097
  0
ARC
  5
2D3
330
1F
100
AcDbEntity
  8
0
 62
     7
 48
2.0
100
AcDbCircle
 10
440.9132656522391
 20
275.9230801158659
 30
0.0
 40
1.767766952513988
100
AcDbArc
 50
351.8698977648349
 51
98.13009961697581
  0
ARC
  5
2D4
330
1F
100
AcDbEntity
  8
0
 62
     7
 48
2.0
100
AcDbCircle
 10
445.4132656522393
 20
275.9230801158639
 30
0.0
 40
1.767766952515239
100
AcDbArc
 50
81.86989856185398
 51
188.1301057638608
  0
LINE
  5
2D5
330
1F
100
AcDbEntity
  8
0
 62
     7
 48
2.0
100
AcDbLine
 10
447.1632656522384
 20
278.1730801158643
 30
0.0
 11
447.1632656522384
 21
278.1730801158643
 31
0.0
  0
ARC
  5
2D8
330
1F
100
AcDbEntity
  8
0
 62
     7
 48
2.0
100
AcDbCircle
 10
443.1632656522382
 20
278.1730801158656
 30
0.0
 40
4.999999999998813
100
AcDbArc
 50
126.8699032291531
 51
53.13010177979759
  0
LINE
  5
2D9
330
1F
100
AcDbEntity
  8
0
 62
     7
 48
2.0
100
AcDbLine
 10
447.3390889243614
 20
275.4230801158643
 30
0.0
 11
448.1632656522386
 21
275.4230801158643
 31
0.0
  0
LINE
  5
2DA
330
1F
100
AcDbEntity
  8
0
 62
     7
 48
2.0
100
AcDbLine
 10
447.3390889243614
 20
280.9230801158643
 30
0.0
 11
448.1632656522386
 21
280.9230801158643
 31
0.0
  0
LINE
  5
2DB
330
1F
100
AcDbEntity
  8
0
 62
     7
 48
2.0
100
AcDbLine
 10
384.9748643567794
 20
313.2018244892253
 30
0.0
 11
388.1632656522384
 21
313.2018244892253
 31
0.0
  0
LINE
  5
2DC
330
1F
100
AcDbEntity
  8
0
 62
     7
 48
2.0
100
AcDbLine
 10
384.9748643567794
 20
305.1443357425043
 30
0.0
 11
388.1632656522384
 21
305.1443357425043
 31
0.0
  0
LINE
  5
2DD
330
1F
100
AcDbEntity
  8
0
 62
     7
 48
2.0
100
AcDbLine
 10
388.1632656522384
 20
312.4230801158643
 30
0.0
 11
384.1632656522384
 21
312.4230801158643
 31
0.0
  0
LINE
  5
2DE
330
1F
100
AcDbEntity
  8
0
 62
     7
 48
2.0
100
AcDbLine
 10
388.1632656522384
 20
305.9230801158641
 30
0.0
 11
384.1632656522384
 21
305.9230801158641
 31
0.0
  0
ARC
  5
2DF
330
1F
100
AcDbEntity
  8
0
 62
     7
 48
2.0
100
AcDbCircle
 10
388.163265652237
 20
309.1730801158646
 30
0.0
 40
4.028744220733461
100
AcDbArc
 50
269.9999974955443
 51
90.0000025044557
  0
ARC
  5
2E0
330
1F
100
AcDbEntity
  8
0
 62
     7
 48
2.0
100
AcDbCircle
 10
388.1632656522371
 20
309.1730801158642
 30
0.0
 40
3.250000000000031
100
AcDbArc
 50
269.9999974955443
 51
90.0000025044557
  0
LINE
  5
2E1
330
1F
100
AcDbEntity
  8
0
 62
     7
 48
2.0
100
AcDbLine
 10
421.6632656522384
 20
312.1730801158641
 30
0.0
 11
421.6632656522384
 21
312.1730801158641
 31
0.0
  0
ARC
  5
2E4
330
1F
100
AcDbEntity
  8
0
 62
     7
 48
2.0
100
AcDbCircle
 10
415.9132656522391
 20
314.4230801158635
 30
0.0
 40
1.767766952514034
100
AcDbArc
 50
261.8699003830241
 51
8.130102235165557
  0
ARC
  5
2E5
330
1F
100
AcDbEntity
  8
0
 62
     7
 48
2.0
100
AcDbCircle
 10
420.4132656522391
 20
314.4230801158655
 30
0.0
 40
1.767766952515192
100
AcDbArc
 50
171.869894236139
 51
278.130101438146
  0
LINE
  5
2E6
330
1F
100
AcDbEntity
  8
0
 62
     7
 48
2.0
100
AcDbLine
 10
411.6632656522384
 20
305.6730801158642
 30
0.0
 11
424.6632656522383
 21
305.6730801158642
 31
0.0
  0
LINE
  5
2E7
330
1F
100
AcDbEntity
  8
0
 62
     7
 48
2.0
100
AcDbLine
 10
411.6632656522384
 20
307.9730801158642
 30
0.0
 11
424.6632656522383
 21
307.9730801158642
 31
0.0
  0
LINE
  5
2E8
330
1F
100
AcDbEntity
  8
0
 62
     7
 48
2.0
100
AcDbLine
 10
411.6632656522384
 20
306.3730801158643
 30
0.0
 11
424.6632656522383
 21
306.3730801158643
 31
0.0
  0
ARC
  5
2E9
330
1F
100
AcDbEntity
  8
0
 62
     7
 48
2.0
100
AcDbCircle
 10
420.4132656522393
 20
309.9230801158639
 30
0.0
 40
1.767766952515239
100
AcDbArc
 50
81.86989856185398
 51
188.1301057638625
  0
ARC
  5
2EA
330
1F
100
AcDbEntity
  8
0
 62
     7
 48
2.0
100
AcDbCircle
 10
415.9132656522391
 20
309.9230801158656
 30
0.0
 40
1.767766952513951
100
AcDbArc
 50
351.8698977648381
 51
98.13009961697908
  0
LINE
  5
2EB
330
1F
100
AcDbEntity
  8
0
 62
     7
 48
2.0
100
AcDbLine
 10
411.1632656522385
 20
303.6730801158642
 30
0.0
 11
425.1632656522384
 21
303.6730801158642
 31
0.0
  0
LINE
  5
2EC
330
1F
100
AcDbEntity
  8
0
 62
     7
 48
2.0
100
AcDbLine
 10
451.3516669476975
 20
305.1443357425043
 30
0.0
 11
448.1632656522386
 21
305.1443357425043
 31
0.0
  0
ARC
  5
2ED
330
1F
100
AcDbEntity
  8
0
 62
     7
 48
2.0
100
AcDbCircle
 10
448.163265652237
 20
309.1730801158646
 30
0.0
 40
4.028744220733448
100
AcDbArc
 50
90.0000025044557
 51
269.9999974955443
  0
LINE
  5
2EE
330
1F
100
AcDbEntity
  8
0
 62
     7
 48
2.0
100
AcDbLine
 10
451.3516669476975
 20
313.2018244892253
 30
0.0
 11
448.1632656522386
 21
313.2018244892253
 31
0.0
  0
LINE
  5
2EF
330
1F
100
AcDbEntity
  8
0
 62
     7
 48
2.0
100
AcDbLine
 10
448.1632656522386
 20
312.4230801158643
 30
0.0
 11
452.1632656522386
 21
312.4230801158643
 31
0.0
  0
LINE
  5
2F0
330
1F
100
AcDbEntity
  8
0
 62
     7
 48
2.0
100
AcDbLine
 10
448.1632656522386
 20
305.9230801158641
 30
0.0
 11
452.1632656522386
 21
305.9230801158641
 31
0.0
  0
ARC
  5
2F1
330
1F
100
AcDbEntity
  8
0
 62
     7
 48
2.0
100
AcDbCircle
 10
448.1632656522373
 20
309.1730801158642
 30
0.0
 40
3.250000000000043
100
AcDbArc
 50
90.0000025044557
 51
269.9999974955443
  0
ARC
  5
2F2
330
1F
100
AcDbEntity
  8
0
 62
     7
 48
2.0
100
AcDbCircle
 10
415.9132656522391
 20
334.4230801158635
 30
0.0
 40
1.767766952514034
100
AcDbArc
 50
261.8699003830241
 51
8.130102235165557
  0
ARC
  5
2F3
330
1F
100
AcDbEntity
  8
0
 62
     7
 48
2.0
100
AcDbCircle
 10
420.4132656522391
 20
334.4230801158655
 30
0.0
 40
1.767766952515185
100
AcDbArc
 50
171.869894236139
 51
278.130101438146
  0
ARC
  5
2F4
330
1F
100
AcDbEntity
  8
0
 62
     7
 48
2.0
100
AcDbCircle
 10
415.9132656522391
 20
324.4230801158636
 30
0.0
 40
1.76776695251401
100
AcDbArc
 50
261.8699003830241
 51
8.130102235163484
  0
ARC
  5
2F5
330
1F
100
AcDbEntity
  8
0
 62
     7
 48
2.0
100
AcDbCircle
 10
415.9132656522391
 20
319.9230801158656
 30
0.0
 40
1.767766952513951
100
AcDbArc
 50
351.8698977648381
 51
98.13009961697908
  0
LINE
  5
2F6
330
1F
100
AcDbEntity
  8
0
 62
     7
 48
2.0
100
AcDbLine
 10
421.6632656522384
 20
322.1730801158642
 30
0.0
 11
421.6632656522384
 21
322.1730801158642
 31
0.0
  0
LINE
  5
2F9
330
1F
100
AcDbEntity
  8
0
 62
     7
 48
2.0
100
AcDbLine
 10
411.6632656522384
 20
327.9730801158643
 30
0.0
 11
424.6632656522383
 21
327.9730801158643
 31
0.0
  0
LINE
  5
2FA
330
1F
100
AcDbEntity
  8
0
 62
     7
 48
2.0
100
AcDbLine
 10
411.6632656522384
 20
326.3730801158641
 30
0.0
 11
424.6632656522383
 21
326.3730801158641
 31
0.0
  0
LINE
  5
2FB
330
1F
100
AcDbEntity
  8
0
 62
     7
 48
2.0
100
AcDbLine
 10
411.6632656522384
 20
317.9730801158642
 30
0.0
 11
424.6632656522383
 21
317.9730801158642
 31
0.0
  0
ARC
  5
2FC
330
1F
100
AcDbEntity
  8
0
 62
     7
 48
2.0
100
AcDbCircle
 10
420.4132656522391
 20
324.4230801158654
 30
0.0
 40
1.767766952515185
100
AcDbArc
 50
171.869894236139
 51
278.130101438146
  0
ARC
  5
2FD
330
1F
100
AcDbEntity
  8
0
 62
     7
 48
2.0
100
AcDbCircle
 10
420.4132656522393
 20
319.9230801158638
 30
0.0
 40
1.767766952515225
100
AcDbArc
 50
81.86989856185398
 51
188.1301057638625
  0
LINE
  5
2FE
330
1F
100
AcDbEntity
  8
0
 62
     7
 48
2.0
100
AcDbLine
 10
411.6632656522384
 20
316.3730801158641
 30
0.0
 11
424.6632656522383
 21
316.3730801158641
 31
0.0
  0
LINE
  5
2FF
330
1F
100
AcDbEntity
  8
0
 62
     7
 48
2.0
100
AcDbLine
 10
421.6632656522384
 20
332.1730801158642
 30
0.0
 11
421.6632656522384
 21
332.1730801158642
 31
0.0
  0
ARC
  5
302
330
1F
100
AcDbEntity
  8
0
 62
     7
 48
2.0
100
AcDbCircle
 10
420.4132656522391
 20
329.9230801158639
 30
0.0
 40
1.767766952515199
100
AcDbArc
 50
81.86989856185398
 51
188.1301057638608
  0
ARC
  5
303
330
1F
100
AcDbEntity
  8
0
 62
     7
 48
2.0
100
AcDbCircle
 10
415.9132656522391
 20
329.9230801158658
 30
0.0
 40
1.767766952513991
100
AcDbArc
 50
351.8698977648365
 51
98.13009961697581
  0
ARC
  5
304
330
1F
100
AcDbEntity
  8
0
 62
     7
 48
2.0
100
AcDbCircle
 10
415.9132656522391
 20
354.4230801158636
 30
0.0
 40
1.76776695251401
100
AcDbArc
 50
261.8699003830241
 51
8.130102235163484
  0
ARC
  5
305
330
1F
100
AcDbEntity
  8
0
 62
     7
 48
2.0
100
AcDbCircle
 10
415.9132656522391
 20
349.9230801158657
 30
0.0
 40
1.767766952513951
100
AcDbArc
 50
351.8698977648381
 51
98.13009961697908
  0
LINE
  5
306
330
1F
100
AcDbEntity
  8
0
 62
     7
 48
2.0
100
AcDbLine
 10
411.6632656522384
 20
356.3730801158641
 30
0.0
 11
424.6632656522383
 21
356.3730801158641
 31
0.0
  0
ARC
  5
307
330
1F
100
AcDbEntity
  8
0
 62
     7
 48
2.0
100
AcDbCircle
 10
420.4132656522393
 20
354.4230801158653
 30
0.0
 40
1.767766952515224
100
AcDbArc
 50
171.8698942361373
 51
278.130101438146
  0
ARC
  5
308
330
1F
100
AcDbEntity
  8
0
 62
     7
 48
2.0
100
AcDbCircle
 10
420.4132656522391
 20
349.9230801158637
 30
0.0
 40
1.767766952515199
100
AcDbArc
 50
81.86989856185398
 51
188.1301057638608
  0
ARC
  5
309
330
1F
100
AcDbEntity
  8
0
 62
     7
 48
2.0
100
AcDbCircle
 10
415.9132656522391
 20
344.4230801158636
 30
0.0
 40
1.767766952514034
100
AcDbArc
 50
261.8699003830241
 51
8.130102235165557
  0
ARC
  5
30A
330
1F
100
AcDbEntity
  8
0
 62
     7
 48
2.0
100
AcDbCircle
 10
415.9132656522391
 20
339.9230801158656
 30
0.0
 40
1.767766952513995
100
AcDbArc
 50
351.8698977648365
 51
98.13009961697581
  0
LINE
  5
30B
330
1F
100
AcDbEntity
  8
0
 62
     7
 48
2.0
100
AcDbLine
 10
421.6632656522384
 20
342.1730801158641
 30
0.0
 11
421.6632656522384
 21
342.1730801158641
 31
0.0
  0
LINE
  5
30E
330
1F
100
AcDbEntity
  8
0
 62
     7
 48
2.0
100
AcDbLine
 10
411.6632656522384
 20
347.9730801158643
 30
0.0
 11
424.6632656522383
 21
347.9730801158643
 31
0.0
  0
LINE
  5
30F
330
1F
100
AcDbEntity
  8
0
 62
     7
 48
2.0
100
AcDbLine
 10
411.6632656522384
 20
346.3730801158642
 30
0.0
 11
424.6632656522383
 21
346.3730801158642
 31
0.0
  0
LINE
  5
310
330
1F
100
AcDbEntity
  8
0
 62
     7
 48
2.0
100
AcDbLine
 10
411.6632656522384
 20
337.9730801158641
 30
0.0
 11
424.6632656522383
 21
337.9730801158641
 31
0.0
  0
ARC
  5
311
330
1F
100
AcDbEntity
  8
0
 62
     7
 48
2.0
100
AcDbCircle
 10
420.4132656522391
 20
344.4230801158655
 30
0.0
 40
1.767766952515185
100
AcDbArc
 50
171.869894236139
 51
278.130101438146
  0
ARC
  5
312
330
1F
100
AcDbEntity
  8
0
 62
     7
 48
2.0
100
AcDbCircle
 10
420.4132656522393
 20
339.9230801158639
 30
0.0
 40
1.767766952515277
100
AcDbArc
 50
81.86989856185398
 51
188.1301057638625
  0
LINE
  5
313
330
1F
100
AcDbEntity
  8
0
 62
     7
 48
2.0
100
AcDbLine
 10
411.6632656522384
 20
336.3730801158642
 30
0.0
 11
424.6632656522383
 21
336.3730801158642
 31
0.0
  0
LINE
  5
314
330
1F
100
AcDbEntity
  8
0
 62
     7
 48
2.0
100
AcDbLine
 10
421.6632656522384
 20
352.1730801158641
 30
0.0
 11
421.6632656522384
 21
352.1730801158641
 31
0.0
  0
ARC
  5
317
330
1F
100
AcDbEntity
  8
0
 62
     7
 48
2.0
100
AcDbCircle
 10
415.9132656522391
 20
374.4230801158636
 30
0.0
 40
1.767766952514036
100
AcDbArc
 50
261.8699003830241
 51
8.130102235165097
  0
ARC
  5
318
330
1F
100
AcDbEntity
  8
0
 62
     7
 48
2.0
100
AcDbCircle
 10
415.9132656522391
 20
369.9230801158658
 30
0.0
 40
1.767766952514003
100
AcDbArc
 50
351.8698977648365
 51
98.13009961697581
  0
LINE
  5
319
330
1F
100
AcDbEntity
  8
0
 62
     7
 48
2.0
100
AcDbLine
 10
421.6632656522384
 20
372.1730801158642
 30
0.0
 11
421.6632656522384
 21
372.1730801158642
 31
0.0
  0
LINE
  5
31C
330
1F
100
AcDbEntity
  8
0
 62
     7
 48
2.0
100
AcDbLine
 10
411.6632656522384
 20
377.9730801158643
 30
0.0
 11
424.6632656522383
 21
377.9730801158643
 31
0.0
  0
LINE
  5
31D
330
1F
100
AcDbEntity
  8
0
 62
     7
 48
2.0
100
AcDbLine
 10
411.6632656522384
 20
376.3730801158643
 30
0.0
 11
424.6632656522383
 21
376.3730801158643
 31
0.0
  0
LINE
  5
31E
330
1F
100
AcDbEntity
  8
0
 62
     7
 48
2.0
100
AcDbLine
 10
411.6632656522384
 20
367.9730801158644
 30
0.0
 11
424.6632656522383
 21
367.9730801158644
 31
0.0
  0
ARC
  5
31F
330
1F
100
AcDbEntity
  8
0
 62
     7
 48
2.0
100
AcDbCircle
 10
420.4132656522393
 20
374.4230801158654
 30
0.0
 40
1.767766952515235
100
AcDbArc
 50
171.8698942361373
 51
278.130101438146
  0
ARC
  5
320
330
1F
100
AcDbEntity
  8
0
 62
     7
 48
2.0
100
AcDbCircle
 10
420.4132656522391
 20
369.9230801158638
 30
0.0
 40
1.767766952515198
100
AcDbArc
 50
81.86989856185398
 51
188.1301057638608
  0
ARC
  5
321
330
1F
100
AcDbEntity
  8
0
 62
     7
 48
2.0
100
AcDbCircle
 10
415.9132656522391
 20
364.4230801158636
 30
0.0
 40
1.767766952514036
100
AcDbArc
 50
261.8699003830241
 51
8.130102235165097
  0
ARC
  5
322
330
1F
100
AcDbEntity
  8
0
 62
     7
 48
2.0
100
AcDbCircle
 10
415.9132656522391
 20
359.9230801158658
 30
0.0
 40
1.767766952514003
100
AcDbArc
 50
351.8698977648365
 51
98.13009961697581
  0
LINE
  5
323
330
1F
100
AcDbEntity
  8
0
 62
     7
 48
2.0
100
AcDbLine
 10
421.6632656522384
 20
362.1730801158643
 30
0.0
 11
421.6632656522384
 21
362.1730801158643
 31
0.0
  0
LINE
  5
326
330
1F
100
AcDbEntity
  8
0
 62
     7
 48
2.0
100
AcDbLine
 10
411.6632656522384
 20
366.3730801158643
 30
0.0
 11
424.6632656522383
 21
366.3730801158643
 31
0.0
  0
LINE
  5
327
330
1F
100
AcDbEntity
  8
0
 62
     7
 48
2.0
100
AcDbLine
 10
411.6632656522384
 20
357.9730801158643
 30
0.0
 11
424.6632656522383
 21
357.9730801158643
 31
0.0
  0
ARC
  5
328
330
1F
100
AcDbEntity
  8
0
 62
     7
 48
2.0
100
AcDbCircle
 10
420.4132656522393
 20
364.4230801158655
 30
0.0
 40
1.767766952515235
100
AcDbArc
 50
171.8698942361373
 51
278.130101438146
  0
ARC
  5
329
330
1F
100
AcDbEntity
  8
0
 62
     7
 48
2.0
100
AcDbCircle
 10
420.4132656522393
 20
359.923080115864
 30
0.0
 40
1.767766952515251
100
AcDbArc
 50
81.86989856185398
 51
188.1301057638625
  0
LINE
  5
32A
330
1F
100
AcDbEntity
  8
0
 62
     7
 48
2.0
100
AcDbLine
 10
449.3516669476975
 20
413.4224171752163
 30
0.0
 11
386.9748643567795
 21
413.4224171752163
 31
0.0
  0
LINE
  5
32B
330
1F
100
AcDbEntity
  8
0
 62
     7
 48
2.0
100
AcDbLine
 10
406.6632656522385
 20
413.6581949162101
 30
0.0
 11
410.1632656522384
 21
413.6581949162101
 31
0.0
  0
LINE
  5
32C
330
1F
100
AcDbEntity
  8
0
 62
     7
 48
2.0
100
AcDbLine
 10
386.1632656522384
 20
414.1730801158643
 30
0.0
 11
450.1632655648156
 21
414.1730801158643
 31
0.0
  0
ARC
  5
32D
330
1F
100
AcDbEntity
  8
0
 62
     7
 48
2.0
100
AcDbCircle
 10
386.9748643567792
 20
411.4224171752166
 30
0.0
 40
1.999999999999715
100
AcDbArc
 50
90.0000025044752
 51
180.0000050089796
  0
ARC
  5
32E
330
1F
100
AcDbEntity
  8
0
 62
     7
 48
2.0
100
AcDbCircle
 10
386.1632656522377
 20
412.173080115865
 30
0.0
 40
1.999999999999205
100
AcDbArc
 50
90.00000250445896
 51
180.000005008965
  0
LINE
  5
32F
330
1F
100
AcDbEntity
  8
0
 62
     7
 48
2.0
100
AcDbLine
 10
403.6632656522384
 20
414.1730801158643
 30
0.0
 11
403.6632656522384
 21
413.6581949162101
 31
0.0
  0
LINE
  5
330
330
1F
100
AcDbEntity
  8
0
 62
     7
 48
2.0
100
AcDbLine
 10
406.6632656522385
 20
414.1730801158643
 30
0.0
 11
406.6632656522385
 21
413.6581949162101
 31
0.0
  0
LINE
  5
331
330
1F
100
AcDbEntity
  8
0
 62
     7
 48
2.0
100
AcDbLine
 10
400.1632656522384
 20
414.1730801158643
 30
0.0
 11
400.1632656522384
 21
413.6581949162101
 31
0.0
  0
LINE
  5
332
330
1F
100
AcDbEntity
  8
0
 62
     7
 48
2.0
100
AcDbLine
 10
400.1632656522384
 20
413.6581949162101
 30
0.0
 11
403.6632656522384
 21
413.6581949162101
 31
0.0
  0
ARC
  5
333
330
1F
100
AcDbEntity
  8
0
 62
     7
 48
2.0
100
AcDbCircle
 10
415.9132656522391
 20
399.9230801158658
 30
0.0
 40
1.767766952514003
100
AcDbArc
 50
351.8698977648365
 51
98.13009961697581
  0
ARC
  5
334
330
1F
100
AcDbEntity
  8
0
 62
     7
 48
2.0
100
AcDbCircle
 10
420.4132656522393
 20
399.9230801158638
 30
0.0
 40
1.767766952515251
100
AcDbArc
 50
81.86989856185398
 51
188.1301057638625
  0
LINE
  5
335
330
1F
100
AcDbEntity
  8
0
 62
     7
 48
2.0
100
AcDbLine
 10
421.6632656522384
 20
402.1730801158642
 30
0.0
 11
421.6632656522384
 21
402.1730801158642
 31
0.0
  0
ARC
  5
338
330
1F
100
AcDbEntity
  8
0
 62
     7
 48
2.0
100
AcDbCircle
 10
415.9132656522391
 20
394.4230801158636
 30
0.0
 40
1.767766952514036
100
AcDbArc
 50
261.8699003830241
 51
8.130102235165097
  0
ARC
  5
339
330
1F
100
AcDbEntity
  8
0
 62
     7
 48
2.0
100
AcDbCircle
 10
415.9132656522391
 20
389.9230801158657
 30
0.0
 40
1.767766952514003
100
AcDbArc
 50
351.8698977648365
 51
98.13009961697581
  0
LINE
  5
33A
330
1F
100
AcDbEntity
  8
0
 62
     7
 48
2.0
100
AcDbLine
 10
421.6632656522384
 20
392.1730801158642
 30
0.0
 11
421.6632656522384
 21
392.1730801158642
 31
0.0
  0
LINE
  5
33D
330
1F
100
AcDbEntity
  8
0
 62
     7
 48
2.0
100
AcDbLine
 10
411.6632656522384
 20
397.9730801158643
 30
0.0
 11
424.6632656522383
 21
397.9730801158643
 31
0.0
  0
LINE
  5
33E
330
1F
100
AcDbEntity
  8
0
 62
     7
 48
2.0
100
AcDbLine
 10
411.6632656522384
 20
396.3730801158643
 30
0.0
 11
424.6632656522383
 21
396.3730801158643
 31
0.0
  0
LINE
  5
33F
330
1F
100
AcDbEntity
  8
0
 62
     7
 48
2.0
100
AcDbLine
 10
411.6632656522384
 20
387.9730801158643
 30
0.0
 11
424.6632656522383
 21
387.9730801158643
 31
0.0
  0
ARC
  5
340
330
1F
100
AcDbEntity
  8
0
 62
     7
 48
2.0
100
AcDbCircle
 10
420.4132656522393
 20
394.4230801158653
 30
0.0
 40
1.767766952515235
100
AcDbArc
 50
171.8698942361373
 51
278.130101438146
  0
ARC
  5
341
330
1F
100
AcDbEntity
  8
0
 62
     7
 48
2.0
100
AcDbCircle
 10
420.4132656522393
 20
389.9230801158638
 30
0.0
 40
1.767766952515253
100
AcDbArc
 50
81.86989856185398
 51
188.1301057638608
  0
LINE
  5
342
330
1F
100
AcDbEntity
  8
0
 62
     7
 48
2.0
100
AcDbLine
 10
411.6632656522384
 20
386.3730801158643
 30
0.0
 11
424.6632656522383
 21
386.3730801158643
 31
0.0
  0
ARC
  5
343
330
1F
100
AcDbEntity
  8
0
 62
     7
 48
2.0
100
AcDbCircle
 10
415.9132656522391
 20
384.4230801158636
 30
0.0
 40
1.767766952514036
100
AcDbArc
 50
261.8699003830241
 51
8.130102235165097
  0
ARC
  5
344
330
1F
100
AcDbEntity
  8
0
 62
     7
 48
2.0
100
AcDbCircle
 10
415.9132656522391
 20
379.9230801158658
 30
0.0
 40
1.767766952514003
100
AcDbArc
 50
351.8698977648365
 51
98.13009961697581
  0
LINE
  5
345
330
1F
100
AcDbEntity
  8
0
 62
     7
 48
2.0
100
AcDbLine
 10
421.6632656522384
 20
382.173080115864
 30
0.0
 11
421.6632656522384
 21
382.173080115864
 31
0.0
  0
ARC
  5
348
330
1F
100
AcDbEntity
  8
0
 62
     7
 48
2.0
100
AcDbCircle
 10
420.4132656522393
 20
384.4230801158655
 30
0.0
 40
1.767766952515235
100
AcDbArc
 50
171.8698942361373
 51
278.130101438146
  0
ARC
  5
349
330
1F
100
AcDbEntity
  8
0
 62
     7
 48
2.0
100
AcDbCircle
 10
420.4132656522393
 20
379.923080115864
 30
0.0
 40
1.767766952515253
100
AcDbArc
 50
81.86989856185398
 51
188.1301057638608
  0
LINE
  5
34B
330
1F
100
AcDbEntity
  8
0
 62
     7
 48
2.0
100
AcDbLine
 10
411.6632656522384
 20
408.673080115864
 30
0.0
 11
424.6632656522383
 21
408.673080115864
 31
0.0
  0
LINE
  5
34C
330
1F
100
AcDbEntity
  8
0
 62
     7
 48
2.0
100
AcDbLine
 10
411.6632656522384
 20
406.3730801158643
 30
0.0
 11
424.6632656522383
 21
406.3730801158643
 31
0.0
  0
LINE
  5
34D
330
1F
100
AcDbEntity
  8
0
 62
     7
 48
2.0
100
AcDbLine
 10
411.6632656522384
 20
407.9730801158643
 30
0.0
 11
424.6632656522383
 21
407.9730801158643
 31
0.0
  0
ARC
  5
34E
330
1F
100
AcDbEntity
  8
0
 62
     7
 48
2.0
100
AcDbCircle
 10
420.4132656522393
 20
404.4230801158653
 30
0.0
 40
1.767766952515235
100
AcDbArc
 50
171.8698942361373
 51
278.130101438146
  0
ARC
  5
34F
330
1F
100
AcDbEntity
  8
0
 62
     7
 48
2.0
100
AcDbCircle
 10
415.9132656522391
 20
404.4230801158633
 30
0.0
 40
1.767766952513984
100
AcDbArc
 50
261.8699003830241
 51
8.130102235163484
  0
LINE
  5
350
330
1F
100
AcDbEntity
  8
0
 62
     7
 48
2.0
100
AcDbLine
 10
424.1632656522384
 20
408.673080115864
 30
0.0
 11
424.1632656522384
 21
409.1730801158643
 31
0.0
  0
LINE
  5
351
330
1F
100
AcDbEntity
  8
0
 62
     7
 48
2.0
100
AcDbLine
 10
415.1632656522385
 20
409.1730801158643
 30
0.0
 11
412.1632656522383
 21
409.1730801158643
 31
0.0
  0
LINE
  5
352
330
1F
100
AcDbEntity
  8
0
 62
     7
 48
2.0
100
AcDbLine
 10
412.1632656522383
 20
408.673080115864
 30
0.0
 11
412.1632656522383
 21
409.1730801158643
 31
0.0
  0
LINE
  5
353
330
1F
100
AcDbEntity
  8
0
 62
     7
 48
2.0
100
AcDbLine
 10
421.1632656522384
 20
408.673080115864
 30
0.0
 11
421.1632656522384
 21
409.1730801158643
 31
0.0
  0
LINE
  5
354
330
1F
100
AcDbEntity
  8
0
 62
     7
 48
2.0
100
AcDbLine
 10
415.1632656522385
 20
408.673080115864
 30
0.0
 11
415.1632656522385
 21
409.1730801158643
 31
0.0
  0
LINE
  5
355
330
1F
100
AcDbEntity
  8
0
 62
     7
 48
2.0
100
AcDbLine
 10
411.1632656522385
 20
409.1730801158643
 30
0.0
 11
425.1632656522384
 21
409.1730801158643
 31
0.0
  0
LINE
  5
356
330
1F
100
AcDbEntity
  8
0
 62
     7
 48
2.0
100
AcDbLine
 10
421.1632656522384
 20
409.1730801158643
 30
0.0
 11
424.1632656522384
 21
409.1730801158643
 31
0.0
  0
LINE
  5
357
330
1F
100
AcDbEntity
  8
0
 62
     7
 48
2.0
100
AcDbLine
 10
423.1632656522386
 20
414.1730801158643
 30
0.0
 11
423.1632656522386
 21
413.6581949162101
 31
0.0
  0
LINE
  5
358
330
1F
100
AcDbEntity
  8
0
 62
     7
 48
2.0
100
AcDbLine
 10
429.6632656522384
 20
414.1730801158643
 30
0.0
 11
429.6632656522384
 21
413.6581949162101
 31
0.0
  0
LINE
  5
359
330
1F
100
AcDbEntity
  8
0
 62
     7
 48
2.0
100
AcDbLine
 10
426.1632656522384
 20
414.1730801158643
 30
0.0
 11
426.1632656522384
 21
413.6581949162101
 31
0.0
  0
LINE
  5
35A
330
1F
100
AcDbEntity
  8
0
 62
     7
 48
2.0
100
AcDbLine
 10
429.6632656522384
 20
413.6581949162101
 30
0.0
 11
426.1632656522384
 21
413.6581949162101
 31
0.0
  0
LINE
  5
35B
330
1F
100
AcDbEntity
  8
0
 62
     7
 48
2.0
100
AcDbLine
 10
419.6632656522385
 20
414.1730801158643
 30
0.0
 11
419.6632656522385
 21
413.6581949162101
 31
0.0
  0
LINE
  5
35C
330
1F
100
AcDbEntity
  8
0
 62
     7
 48
2.0
100
AcDbLine
 10
413.1632656522384
 20
413.6581949162101
 30
0.0
 11
416.6632656522384
 21
413.6581949162101
 31
0.0
  0
LINE
  5
35D
330
1F
100
AcDbEntity
  8
0
 62
     7
 48
2.0
100
AcDbLine
 10
416.6632656522384
 20
414.1730801158643
 30
0.0
 11
416.6632656522384
 21
413.6581949162101
 31
0.0
  0
LINE
  5
35E
330
1F
100
AcDbEntity
  8
0
 62
     7
 48
2.0
100
AcDbLine
 10
413.1632656522384
 20
414.1730801158643
 30
0.0
 11
413.1632656522384
 21
413.6581949162101
 31
0.0
  0
LINE
  5
35F
330
1F
100
AcDbEntity
  8
0
 62
     7
 48
2.0
100
AcDbLine
 10
410.1632656522384
 20
414.1730801158643
 30
0.0
 11
410.1632656522384
 21
413.6581949162101
 31
0.0
  0
LINE
  5
360
330
1F
100
AcDbEntity
  8
0
 62
     7
 48
2.0
100
AcDbLine
 10
423.1632656522386
 20
413.6581949162101
 30
0.0
 11
419.6632656522385
 21
413.6581949162101
 31
0.0
  0
ARC
  5
361
330
1F
100
AcDbEntity
  8
0
 62
     7
 48
2.0
100
AcDbCircle
 10
449.3516669476982
 20
411.4224171752169
 30
0.0
 40
1.999999999999158
100
AcDbArc
 50
359.9999999999754
 51
90.00000250447845
  0
LINE
  5
362
330
1F
100
AcDbEntity
  8
0
 62
     7
 48
2.0
100
AcDbLine
 10
436.1632656522385
 20
414.1730801158643
 30
0.0
 11
436.1632656522385
 21
413.6581949162101
 31
0.0
  0
LINE
  5
363
330
1F
100
AcDbEntity
  8
0
 62
     7
 48
2.0
100
AcDbLine
 10
432.6632656522384
 20
414.1730801158643
 30
0.0
 11
432.6632656522384
 21
413.6581949162101
 31
0.0
  0
LINE
  5
364
330
1F
100
AcDbEntity
  8
0
 62
     7
 48
2.0
100
AcDbLine
 10
436.1632656522385
 20
413.6581949162101
 30
0.0
 11
432.6632656522384
 21
413.6581949162101
 31
0.0
  0
ARC
  5
365
330
1F
100
AcDbEntity
  8
0
 62
     7
 48
2.0
100
AcDbCircle
 10
450.1632656522388
 20
412.1730801158646
 30
0.0
 40
1.999999999999649
100
AcDbArc
 50
359.9999999999901
 51
90.00000250449476
  0
LINE
  5
366
330
1F
100
AcDbEntity
  8
0
 62
     7
 48
2.0
100
AcDbLine
 10
386.1632656522384
 20
429.1730801158641
 30
0.0
 11
412.1632656522383
 21
429.1730801158641
 31
0.0
  0
LINE
  5
367
330
1F
100
AcDbEntity
  8
0
 62
     7
 48
2.0
100
AcDbLine
 10
424.1632656522384
 20
427.1730801158642
 30
0.0
 11
421.2632656522385
 21
427.1730801158642
 31
0.0
  0
ARC
  5
368
330
1F
100
AcDbEntity
  8
0
 62
     7
 48
2.0
100
AcDbCircle
 10
386.1632656522376
 20
427.173080115865
 30
0.0
 40
1.999999999999149
100
AcDbArc
 50
90.00000250445896
 51
180.000005008965
  0
LINE
  5
369
330
1F
100
AcDbEntity
  8
0
 62
     7
 48
2.0
100
AcDbLine
 10
450.1632656522384
 20
429.1730801158641
 30
0.0
 11
424.1632656522384
 21
429.1730801158641
 31
0.0
  0
LINE
  5
36A
330
1F
100
AcDbEntity
  8
0
 62
     7
 48
2.0
100
AcDbLine
 10
424.1632656522384
 20
429.1730801158641
 30
0.0
 11
424.1632656522384
 21
421.173080115864
 31
0.0
  0
LINE
  5
36B
330
1F
100
AcDbEntity
  8
0
 62
     7
 48
2.0
100
AcDbLine
 10
412.1632656522383
 20
429.1730801158641
 30
0.0
 11
412.1632656522383
 21
421.173080115864
 31
0.0
  0
LINE
  5
36C
330
1F
100
AcDbEntity
  8
0
 62
     7
 48
2.0
100
AcDbLine
 10
424.1632656522384
 20
421.173080115864
 30
0.0
 11
424.1632656522384
 21
427.1730801158642
 31
0.0
  0
LINE
  5
36D
330
1F
100
AcDbEntity
  8
0
 62
     7
 48
2.0
100
AcDbLine
 10
412.1632656522383
 20
421.173080115864
 30
0.0
 11
412.1632656522383
 21
427.1730801158642
 31
0.0
  0
ARC
  5
36E
330
1F
100
AcDbEntity
  8
0
 62
     7
 48
2.0
100
AcDbCircle
 10
450.1632656522388
 20
427.1730801158646
 30
0.0
 40
1.999999999999706
100
AcDbArc
 50
359.9999999999884
 51
90.00000250449152
  0
LINE
  5
36F
330
1F
100
AcDbEntity
  8
0
 62
     7
 48
2.0
100
AcDbLine
 10
437.9132656522385
 20
423.6730801158643
 30
0.0
 11
437.9132656522385
 21
427.1730801158642
 31
0.0
  0
LINE
  5
370
330
1F
100
AcDbEntity
  8
0
 62
     7
 48
2.0
100
AcDbLine
 10
431.4132656522384
 20
427.1730801158642
 30
0.0
 11
431.4132656522384
 21
423.6730801158643
 31
0.0
  0
LINE
  5
371
330
1F
100
AcDbEntity
  8
0
 62
     7
 48
2.0
100
AcDbLine
 10
437.9132656522385
 20
427.1730801158642
 30
0.0
 11
431.4132656522384
 21
427.1730801158642
 31
0.0
  0
LINE
  5
372
330
1F
100
AcDbEntity
  8
0
 62
     7
 48
2.0
100
AcDbLine
 10
431.4132656522384
 20
423.6730801158643
 30
0.0
 11
437.9132656522385
 21
423.6730801158643
 31
0.0
  0
LINE
  5
373
330
1F
100
AcDbEntity
  8
0
 62
     7
 48
2.0
100
AcDbLine
 10
585.6632656522385
 20
414.1730801158643
 30
0.0
 11
585.6632656522385
 21
429.1730801158641
 31
0.0
  0
LINE
  5
374
330
1F
100
AcDbEntity
  8
0
 62
     7
 48
2.0
100
AcDbLine
 10
491.1632656522384
 20
408.673080115864
 30
0.0
 11
491.1632656522384
 21
305.6730801158642
 31
0.0
  0
LINE
  5
375
330
1F
100
AcDbEntity
  8
0
 62
     7
 48
2.0
100
AcDbLine
 10
490.1632656522385
 20
336.3730801158642
 30
0.0
 11
490.1632656522385
 21
327.9730801158643
 31
0.0
  0
LINE
  5
376
330
1F
100
AcDbEntity
  8
0
 62
     7
 48
2.0
100
AcDbLine
 10
483.1632656522384
 20
408.673080115864
 30
0.0
 11
483.1632656522384
 21
305.6730801158642
 31
0.0
  0
LINE
  5
377
330
1F
100
AcDbEntity
  8
0
 62
     7
 48
2.0
100
AcDbLine
 10
481.6632656522386
 20
408.673080115864
 30
0.0
 11
481.6632656522386
 21
305.6730801158642
 31
0.0
  0
ARC
  5
378
330
1F
100
AcDbEntity
  8
0
 62
     7
 48
2.0
100
AcDbCircle
 10
1295.663265645313
 20
348.1730801158633
 30
0.0
 40
799.9999999930977
100
AcDbArc
 50
175.4536535124375
 51
184.6000864159511
  0
LINE
  5
379
330
1F
100
AcDbEntity
  8
0
 62
     7
 48
2.0
100
AcDbLine
 10
553.6632656522384
 20
268.1730801158642
 30
0.0
 11
572.6632656522386
 21
268.1730801158642
 31
0.0
  0
LINE
  5
37A
330
1F
100
AcDbEntity
  8
0
 62
     7
 48
2.0
100
AcDbLine
 10
553.6632656522384
 20
271.1730801158643
 30
0.0
 11
572.6632656522386
 21
271.1730801158643
 31
0.0
  0
LINE
  5
37B
330
1F
100
AcDbEntity
  8
0
 62
     7
 48
2.0
100
AcDbLine
 10
553.6632656522384
 20
288.1730801158642
 30
0.0
 11
572.6632656522386
 21
288.1730801158642
 31
0.0
  0
LINE
  5
37C
330
1F
100
AcDbEntity
  8
0
 62
     7
 48
2.0
100
AcDbLine
 10
553.6632656522384
 20
285.1730801158643
 30
0.0
 11
572.6632656522386
 21
285.1730801158643
 31
0.0
  0
LINE
  5
37D
330
1F
100
AcDbEntity
  8
0
 62
     7
 48
2.0
100
AcDbLine
 10
539.6632656522386
 20
302.9230801158643
 30
0.0
 11
588.6632656522383
 21
302.9230801158643
 31
0.0
  0
LINE
  5
37E
330
1F
100
AcDbEntity
  8
0
 62
     7
 48
2.0
100
AcDbLine
 10
496.4279991130944
 20
313.2018244892253
 30
0.0
 11
585.6632656522385
 21
312.4230801158643
 31
0.0
  0
LINE
  5
37F
330
1F
100
AcDbEntity
  8
0
 62
     7
 48
2.0
100
AcDbLine
 10
496.8210895237944
 20
305.1477661905483
 30
0.0
 11
585.6632656522385
 21
305.9230801158641
 31
0.0
  0
LINE
  5
380
330
1F
100
AcDbEntity
  8
0
 62
     7
 48
2.0
100
AcDbLine
 10
553.6632656522384
 20
253.1730801158643
 30
0.0
 11
588.6632656522383
 21
253.1730801158643
 31
0.0
  0
LINE
  5
381
330
1F
100
AcDbEntity
  8
0
 62
     7
 48
2.0
100
AcDbLine
 10
517.1632656522384
 20
284.1730801158643
 30
0.0
 11
539.6632656522386
 21
302.9230801158643
 31
0.0
  0
LINE
  5
382
330
1F
100
AcDbEntity
  8
0
 62
     7
 48
2.0
100
AcDbLine
 10
553.6632656522384
 20
302.9230801158643
 30
0.0
 11
553.6632656522384
 21
253.1730801158643
 31
0.0
  0
LINE
  5
383
330
1F
100
AcDbEntity
  8
0
 62
     7
 48
2.0
100
AcDbLine
 10
500.2338218924545
 20
282.1730801158643
 30
0.0
 11
517.1632656522384
 21
282.1730801158643
 31
0.0
  0
ARC
  5
384
330
1F
100
AcDbEntity
  8
0
 62
     7
 48
2.0
100
AcDbCircle
 10
500.2338218924548
 20
284.1730801158653
 30
0.0
 40
2.000000000001047
100
AcDbArc
 50
184.6000864159266
 51
269.9999974955018
  0
LINE
  5
385
330
1F
100
AcDbEntity
  8
0
 62
     7
 48
2.0
100
AcDbLine
 10
517.1632656522384
 20
284.1730801158643
 30
0.0
 11
517.1632656522384
 21
282.1730801158643
 31
0.0
  0
LINE
  5
386
330
1F
100
AcDbEntity
  8
0
 62
     7
 48
2.0
100
AcDbLine
 10
489.1632656522386
 20
315.6730801158642
 30
0.0
 11
489.1632656522386
 21
308.6730801158641
 31
0.0
  0
LINE
  5
387
330
1F
100
AcDbEntity
  8
0
 62
     7
 48
2.0
100
AcDbLine
 10
490.1632656522385
 20
316.3730801158641
 30
0.0
 11
490.1632656522385
 21
307.9730801158642
 31
0.0
  0
ARC
  5
388
330
1F
100
AcDbEntity
  8
0
 62
     7
 48
2.0
100
AcDbCircle
 10
490.7257656522376
 20
312.1730801158641
 30
0.0
 40
4.062499999999513
100
AcDbArc
 50
120.5102321306691
 51
239.4897678693308
  0
LINE
  5
389
330
1F
100
AcDbEntity
  8
0
 62
     7
 48
2.0
100
AcDbLine
 10
481.6632656522386
 20
305.6730801158642
 30
0.0
 11
496.7929695465445
 21
305.6730801158642
 31
0.0
  0
LINE
  5
38A
330
1F
100
AcDbEntity
  8
0
 62
     7
 48
2.0
100
AcDbLine
 10
490.1632656522385
 20
308.6730801158641
 30
0.0
 11
489.1632656522386
 21
308.6730801158641
 31
0.0
  0
LINE
  5
38B
330
1F
100
AcDbEntity
  8
0
 62
     7
 48
2.0
100
AcDbLine
 10
489.1632656522386
 20
311.1730801158642
 30
0.0
 11
490.1632656522385
 21
313.1730801158642
 31
0.0
  0
LINE
  5
38C
330
1F
100
AcDbEntity
  8
0
 62
     7
 48
2.0
100
AcDbLine
 10
488.6632656522386
 20
308.6730801158641
 30
0.0
 11
489.1632656522386
 21
308.6730801158641
 31
0.0
  0
LINE
  5
38D
330
1F
100
AcDbEntity
  8
0
 62
     7
 48
2.0
100
AcDbLine
 10
483.1632656522384
 20
307.9730801158642
 30
0.0
 11
491.1632656522384
 21
307.9730801158642
 31
0.0
  0
LINE
  5
38E
330
1F
100
AcDbEntity
  8
0
 62
     7
 48
2.0
100
AcDbLine
 10
483.1632656522384
 20
306.3730801158643
 30
0.0
 11
491.1632656522384
 21
306.3730801158643
 31
0.0
  0
LINE
  5
38F
330
1F
100
AcDbEntity
  8
0
 62
     7
 48
2.0
100
AcDbLine
 10
489.1632656522386
 20
331.1730801158641
 30
0.0
 11
490.1632656522385
 21
333.1730801158641
 31
0.0
  0
LINE
  5
390
330
1F
100
AcDbEntity
  8
0
 62
     7
 48
2.0
100
AcDbLine
 10
490.1632656522385
 20
335.6730801158641
 30
0.0
 11
489.1632656522386
 21
335.6730801158641
 31
0.0
  0
LINE
  5
391
330
1F
100
AcDbEntity
  8
0
 62
     7
 48
2.0
100
AcDbLine
 10
490.1632656522385
 20
328.6730801158642
 30
0.0
 11
489.1632656522386
 21
328.6730801158642
 31
0.0
  0
LINE
  5
392
330
1F
100
AcDbEntity
  8
0
 62
     7
 48
2.0
100
AcDbLine
 10
489.1632656522386
 20
325.6730801158642
 30
0.0
 11
489.1632656522386
 21
318.6730801158641
 31
0.0
  0
LINE
  5
393
330
1F
100
AcDbEntity
  8
0
 62
     7
 48
2.0
100
AcDbLine
 10
490.1632656522385
 20
326.3730801158641
 30
0.0
 11
490.1632656522385
 21
317.9730801158642
 31
0.0
  0
LINE
  5
394
330
1F
100
AcDbEntity
  8
0
 62
     7
 48
2.0
100
AcDbLine
 10
489.1632656522386
 20
321.1730801158641
 30
0.0
 11
490.1632656522385
 21
323.1730801158641
 31
0.0
  0
LINE
  5
395
330
1F
100
AcDbEntity
  8
0
 62
     7
 48
2.0
100
AcDbLine
 10
490.1632656522385
 20
318.6730801158641
 30
0.0
 11
489.1632656522386
 21
318.6730801158641
 31
0.0
  0
LINE
  5
396
330
1F
100
AcDbEntity
  8
0
 62
     7
 48
2.0
100
AcDbLine
 10
490.1632656522385
 20
325.6730801158642
 30
0.0
 11
489.1632656522386
 21
325.6730801158642
 31
0.0
  0
LINE
  5
397
330
1F
100
AcDbEntity
  8
0
 62
     7
 48
2.0
100
AcDbLine
 10
490.1632656522385
 20
315.6730801158642
 30
0.0
 11
489.1632656522386
 21
315.6730801158642
 31
0.0
  0
LINE
  5
398
330
1F
100
AcDbEntity
  8
0
 62
     7
 48
2.0
100
AcDbLine
 10
489.1632656522386
 20
335.6730801158641
 30
0.0
 11
489.1632656522386
 21
328.6730801158642
 31
0.0
  0
ARC
  5
399
330
1F
100
AcDbEntity
  8
0
 62
     7
 48
2.0
100
AcDbCircle
 10
490.7257656522376
 20
322.1730801158642
 30
0.0
 40
4.062499999999523
100
AcDbArc
 50
120.5102321306691
 51
239.4897678693308
  0
ARC
  5
39A
330
1F
100
AcDbEntity
  8
0
 62
     7
 48
2.0
100
AcDbCircle
 10
490.7257656522376
 20
332.1730801158642
 30
0.0
 40
4.062499999999501
100
AcDbArc
 50
120.5102321306691
 51
239.4897678693308
  0
LINE
  5
39B
330
1F
100
AcDbEntity
  8
0
 62
     7
 48
2.0
100
AcDbLine
 10
488.6632656522386
 20
328.6730801158642
 30
0.0
 11
489.1632656522386
 21
328.6730801158642
 31
0.0
  0
LINE
  5
39C
330
1F
100
AcDbEntity
  8
0
 62
     7
 48
2.0
100
AcDbLine
 10
488.6632656522386
 20
335.6730801158641
 30
0.0
 11
489.1632656522386
 21
335.6730801158641
 31
0.0
  0
LINE
  5
39D
330
1F
100
AcDbEntity
  8
0
 62
     7
 48
2.0
100
AcDbLine
 10
483.1632656522384
 20
327.9730801158643
 30
0.0
 11
491.1632656522384
 21
327.9730801158643
 31
0.0
  0
LINE
  5
39E
330
1F
100
AcDbEntity
  8
0
 62
     7
 48
2.0
100
AcDbLine
 10
483.1632656522384
 20
326.3730801158641
 30
0.0
 11
491.1632656522384
 21
326.3730801158641
 31
0.0
  0
LINE
  5
39F
330
1F
100
AcDbEntity
  8
0
 62
     7
 48
2.0
100
AcDbLine
 10
488.6632656522386
 20
318.6730801158641
 30
0.0
 11
489.1632656522386
 21
318.6730801158641
 31
0.0
  0
LINE
  5
3A0
330
1F
100
AcDbEntity
  8
0
 62
     7
 48
2.0
100
AcDbLine
 10
488.6632656522386
 20
325.6730801158642
 30
0.0
 11
489.1632656522386
 21
325.6730801158642
 31
0.0
  0
LINE
  5
3A1
330
1F
100
AcDbEntity
  8
0
 62
     7
 48
2.0
100
AcDbLine
 10
483.1632656522384
 20
317.9730801158642
 30
0.0
 11
491.1632656522384
 21
317.9730801158642
 31
0.0
  0
LINE
  5
3A2
330
1F
100
AcDbEntity
  8
0
 62
     7
 48
2.0
100
AcDbLine
 10
483.1632656522384
 20
316.3730801158641
 30
0.0
 11
491.1632656522384
 21
316.3730801158641
 31
0.0
  0
LINE
  5
3A3
330
1F
100
AcDbEntity
  8
0
 62
     7
 48
2.0
100
AcDbLine
 10
488.6632656522386
 20
315.6730801158642
 30
0.0
 11
489.1632656522386
 21
315.6730801158642
 31
0.0
  0
LINE
  5
3A5
330
1F
100
AcDbEntity
  8
0
 62
     7
 48
2.0
100
AcDbLine
 10
572.6632656522386
 20
288.1730801158642
 30
0.0
 11
572.6632656522386
 21
268.1730801158642
 31
0.0
  0
LINE
  5
3A6
330
1F
100
AcDbEntity
  8
0
 62
     7
 48
2.0
100
AcDbLine
 10
588.6632656522383
 20
280.6730801158643
 30
0.0
 11
572.6632656522386
 21
280.6730801158643
 31
0.0
  0
LINE
  5
3A7
330
1F
100
AcDbEntity
  8
0
 62
     7
 48
2.0
100
AcDbLine
 10
572.6632656522386
 20
275.6730801158643
 30
0.0
 11
588.6632656522383
 21
275.6730801158643
 31
0.0
  0
LINE
  5
3A8
330
1F
100
AcDbEntity
  8
0
 62
     7
 48
2.0
100
AcDbLine
 10
588.6632656522383
 20
276.1730801158643
 30
0.0
 11
572.6632656522386
 21
276.1730801158643
 31
0.0
  0
LINE
  5
3A9
330
1F
100
AcDbEntity
  8
0
 62
     7
 48
2.0
100
AcDbLine
 10
588.6632656522383
 20
280.1730801158642
 30
0.0
 11
572.6632656522386
 21
280.1730801158642
 31
0.0
  0
LINE
  5
3AA
330
1F
100
AcDbEntity
  8
0
 62
     7
 48
2.0
100
AcDbLine
 10
572.6632656522386
 20
275.4230801158643
 30
0.0
 11
588.6632656522383
 21
275.4230801158643
 31
0.0
  0
LINE
  5
3AB
330
1F
100
AcDbEntity
  8
0
 62
     7
 48
2.0
100
AcDbLine
 10
572.6632656522386
 20
280.9230801158643
 30
0.0
 11
588.6632656522383
 21
280.9230801158643
 31
0.0
  0
LINE
  5
3AC
330
1F
100
AcDbEntity
  8
0
 62
     7
 48
2.0
100
AcDbLine
 10
571.6632656522384
 20
283.1730801158643
 30
0.0
 11
572.6632656522386
 21
283.1730801158643
 31
0.0
  0
LINE
  5
3AD
330
1F
100
AcDbEntity
  8
0
 62
     7
 48
2.0
100
AcDbLine
 10
569.4632656522384
 20
282.6730801158642
 30
0.0
 11
570.3632656522385
 21
282.6730801158642
 31
0.0
  0
LINE
  5
3AE
330
1F
100
AcDbEntity
  8
0
 62
     7
 48
2.0
100
AcDbLine
 10
570.3632656522385
 20
282.7730801158642
 30
0.0
 11
571.6632656522384
 21
282.7730801158642
 31
0.0
  0
LINE
  5
3AF
330
1F
100
AcDbEntity
  8
0
 62
     7
 48
2.0
100
AcDbLine
 10
571.6632656522384
 20
273.1730801158643
 30
0.0
 11
572.6632656522386
 21
273.1730801158643
 31
0.0
  0
LINE
  5
3B0
330
1F
100
AcDbEntity
  8
0
 62
     7
 48
2.0
100
AcDbLine
 10
569.4632656522384
 20
273.6730801158643
 30
0.0
 11
570.3632656522385
 21
273.6730801158643
 31
0.0
  0
LINE
  5
3B1
330
1F
100
AcDbEntity
  8
0
 62
     7
 48
2.0
100
AcDbLine
 10
570.3632656522385
 20
273.5730801158641
 30
0.0
 11
571.6632656522384
 21
273.5730801158641
 31
0.0
  0
LINE
  5
3B2
330
1F
100
AcDbEntity
  8
0
 62
     7
 48
2.0
100
AcDbLine
 10
571.6632656522384
 20
279.6730801158643
 30
0.0
 11
570.3632656522385
 21
276.6730801158643
 31
0.0
  0
LINE
  5
3B3
330
1F
100
AcDbEntity
  8
0
 62
     7
 48
2.0
100
AcDbLine
 10
572.6632656522386
 20
283.1730801158643
 30
0.0
 11
572.6632656522386
 21
273.1730801158643
 31
0.0
  0
LINE
  5
3B4
330
1F
100
AcDbEntity
  8
0
 62
     7
 48
2.0
100
AcDbLine
 10
571.6632656522384
 20
283.1730801158643
 30
0.0
 11
571.6632656522384
 21
273.1730801158643
 31
0.0
  0
LINE
  5
3B5
330
1F
100
AcDbEntity
  8
0
 62
     7
 48
2.0
100
AcDbLine
 10
570.3632656522385
 20
282.7730801158642
 30
0.0
 11
570.3632656522385
 21
273.5730801158641
 31
0.0
  0
ARC
  5
3B6
330
1F
100
AcDbEntity
  8
0
 62
     7
 48
2.0
100
AcDbCircle
 10
572.4820156522404
 20
278.1730801158648
 30
0.0
 40
5.418749809266268
100
AcDbArc
 50
123.8550304087637
 51
236.144969591236
  0
ARC
  5
3B7
330
1F
100
AcDbEntity
  8
0
 62
     7
100
AcDbCircle
 10
582.2284132499081
 20
309.1730801158651
 30
0.0
 40
1.840933680533795
100
AcDbArc
 50
292.5650505508095
 51
67.43494944919047
  0
ARC
  5
3B8
330
1F
100
AcDbEntity
  8
0
 62
     7
100
AcDbCircle
 10
584.6024469756096
 20
310.1230801158656
 30
0.0
 40
1.799999952315543
100
AcDbArc
 50
94.43470772879562
 51
140.7033449024067
  0
ARC
  5
3B9
330
1F
100
AcDbEntity
  8
0
 62
     7
100
AcDbCircle
 10
584.6024469756096
 20
308.2230801158658
 30
0.0
 40
1.799999952317508
100
AcDbArc
 50
219.296477512751
 51
265.5652922712141
  0
ARC
  5
3BA
330
1F
100
AcDbEntity
  8
0
 62
     7
100
AcDbCircle
 10
585.763265652235
 20
309.1730801158644
 30
0.0
 40
3.29999995231383
100
AcDbArc
 50
140.7034268646059
 51
219.2964775127476
  0
LINE
  5
3BB
330
1F
100
AcDbEntity
  8
0
 62
     7
100
AcDbLine
 10
584.4632656522384
 20
311.9176910929903
 30
0.0
 11
584.4632656522384
 21
306.4284691387393
 31
0.0
  0
LINE
  5
3BC
330
1F
100
AcDbEntity
  8
0
 62
     7
 48
2.0
100
AcDbLine
 10
585.1632656522386
 20
312.1730801158641
 30
0.0
 11
585.6632656522385
 21
312.1730801158641
 31
0.0
  0
LINE
  5
3BD
330
1F
100
AcDbEntity
  8
0
 62
     7
 48
2.0
100
AcDbLine
 10
585.6632656522385
 20
312.1730801158641
 30
0.0
 11
585.6632656522385
 21
306.1730801158643
 31
0.0
  0
LINE
  5
3BE
330
1F
100
AcDbEntity
  8
0
 62
     7
 48
2.0
100
AcDbLine
 10
585.1632656522386
 20
306.1730801158643
 30
0.0
 11
585.1632656522386
 21
312.1730801158641
 31
0.0
  0
LINE
  5
3BF
330
1F
100
AcDbEntity
  8
0
 62
     7
 48
2.0
100
AcDbLine
 10
585.6632656522385
 20
306.1730801158643
 30
0.0
 11
585.1632656522386
 21
306.1730801158643
 31
0.0
  0
LINE
  5
3C0
330
1F
100
AcDbEntity
  8
0
 62
     7
 48
2.0
100
AcDbLine
 10
584.4632656522384
 20
312.1230801158641
 30
0.0
 11
585.1632656522386
 21
312.1230801158641
 31
0.0
  0
LINE
  5
3C1
330
1F
100
AcDbEntity
  8
0
 62
     7
 48
2.0
100
AcDbLine
 10
585.1632656522386
 20
312.1230801158641
 30
0.0
 11
585.1632656522386
 21
306.2230801158642
 31
0.0
  0
LINE
  5
3C2
330
1F
100
AcDbEntity
  8
0
 62
     7
 48
2.0
100
AcDbLine
 10
584.4632656522384
 20
306.2230801158642
 30
0.0
 11
584.4632656522384
 21
312.1230801158641
 31
0.0
  0
LINE
  5
3C3
330
1F
100
AcDbEntity
  8
0
 62
     7
 48
2.0
100
AcDbLine
 10
585.1632656522386
 20
306.2230801158642
 30
0.0
 11
584.4632656522384
 21
306.2230801158642
 31
0.0
  0
LINE
  5
3C4
330
1F
100
AcDbEntity
  8
0
 62
     7
100
AcDbLine
 10
585.6632656522385
 20
307.6730801158642
 30
0.0
 11
588.6632656522383
 21
307.6730801158642
 31
0.0
  0
LINE
  5
3C5
330
1F
100
AcDbEntity
  8
0
 62
     7
100
AcDbLine
 10
588.6632656522383
 20
310.6730801158641
 30
0.0
 11
585.6632656522385
 21
310.6730801158641
 31
0.0
  0
LINE
  5
3C6
330
1F
100
AcDbEntity
  8
0
 62
     7
100
AcDbLine
 10
588.6632656522383
 20
310.4230801158643
 30
0.0
 11
585.6632656522385
 21
310.4230801158643
 31
0.0
  0
LINE
  5
3C7
330
1F
100
AcDbEntity
  8
0
 62
     7
100
AcDbLine
 10
585.6632656522385
 20
307.9230801158642
 30
0.0
 11
588.6632656522383
 21
307.9230801158642
 31
0.0
  0
LINE
  5
3C8
330
1F
100
AcDbEntity
  8
0
 62
     7
 48
2.0
100
AcDbLine
 10
585.6632656522385
 20
310.9230801158641
 30
0.0
 11
588.6632656522383
 21
310.9230801158641
 31
0.0
  0
LINE
  5
3C9
330
1F
100
AcDbEntity
  8
0
 62
     7
 48
2.0
100
AcDbLine
 10
585.6632656522385
 20
307.4230801158642
 30
0.0
 11
588.6632656522383
 21
307.4230801158642
 31
0.0
  0
LINE
  5
3CA
330
1F
100
AcDbEntity
  8
0
 62
     7
 48
2.0
100
AcDbLine
 10
585.6632656522385
 20
312.4230801158643
 30
0.0
 11
585.6632656522385
 21
305.9230801158641
 31
0.0
  0
LINE
  5
3CB
330
1F
100
AcDbEntity
  8
0
 62
     7
 48
2.0
100
AcDbLine
 10
585.6632656522385
 20
414.1730801158643
 30
0.0
 11
500.1566877444985
 21
413.4268755152231
 31
0.0
  0
LINE
  5
3CC
330
1F
100
AcDbEntity
  8
0
 62
     7
 48
2.0
100
AcDbLine
 10
490.1632656522385
 20
386.3730801158643
 30
0.0
 11
490.1632656522385
 21
377.9730801158643
 31
0.0
  0
LINE
  5
3CD
330
1F
100
AcDbEntity
  8
0
 62
     7
 48
2.0
100
AcDbLine
 10
489.1632656522386
 20
351.1730801158642
 30
0.0
 11
490.1632656522385
 21
353.1730801158642
 31
0.0
  0
LINE
  5
3CE
330
1F
100
AcDbEntity
  8
0
 62
     7
 48
2.0
100
AcDbLine
 10
490.1632656522385
 20
355.6730801158642
 30
0.0
 11
489.1632656522386
 21
355.6730801158642
 31
0.0
  0
LINE
  5
3CF
330
1F
100
AcDbEntity
  8
0
 62
     7
 48
2.0
100
AcDbLine
 10
490.1632656522385
 20
348.6730801158642
 30
0.0
 11
489.1632656522386
 21
348.6730801158642
 31
0.0
  0
LINE
  5
3D0
330
1F
100
AcDbEntity
  8
0
 62
     7
 48
2.0
100
AcDbLine
 10
489.1632656522386
 20
345.6730801158641
 30
0.0
 11
489.1632656522386
 21
338.6730801158642
 31
0.0
  0
LINE
  5
3D1
330
1F
100
AcDbEntity
  8
0
 62
     7
 48
2.0
100
AcDbLine
 10
490.1632656522385
 20
346.3730801158642
 30
0.0
 11
490.1632656522385
 21
337.9730801158641
 31
0.0
  0
LINE
  5
3D2
330
1F
100
AcDbEntity
  8
0
 62
     7
 48
2.0
100
AcDbLine
 10
489.1632656522386
 20
341.1730801158642
 30
0.0
 11
490.1632656522385
 21
343.1730801158642
 31
0.0
  0
LINE
  5
3D3
330
1F
100
AcDbEntity
  8
0
 62
     7
 48
2.0
100
AcDbLine
 10
490.1632656522385
 20
338.6730801158642
 30
0.0
 11
489.1632656522386
 21
338.6730801158642
 31
0.0
  0
LINE
  5
3D4
330
1F
100
AcDbEntity
  8
0
 62
     7
 48
2.0
100
AcDbLine
 10
490.1632656522385
 20
345.6730801158641
 30
0.0
 11
489.1632656522386
 21
345.6730801158641
 31
0.0
  0
LINE
  5
3D5
330
1F
100
AcDbEntity
  8
0
 62
     7
 48
2.0
100
AcDbLine
 10
489.1632656522386
 20
355.6730801158642
 30
0.0
 11
489.1632656522386
 21
348.6730801158642
 31
0.0
  0
LINE
  5
3D6
330
1F
100
AcDbEntity
  8
0
 62
     7
 48
2.0
100
AcDbLine
 10
490.1632656522385
 20
356.3730801158641
 30
0.0
 11
490.1632656522385
 21
347.9730801158643
 31
0.0
  0
ARC
  5
3D7
330
1F
100
AcDbEntity
  8
0
 62
     7
 48
2.0
100
AcDbCircle
 10
490.7257656522376
 20
342.1730801158641
 30
0.0
 40
4.062499999999523
100
AcDbArc
 50
120.5102321306691
 51
239.4897678693308
  0
ARC
  5
3D8
330
1F
100
AcDbEntity
  8
0
 62
     7
 48
2.0
100
AcDbCircle
 10
490.7257656522376
 20
352.1730801158641
 30
0.0
 40
4.062499999999464
100
AcDbArc
 50
120.5102321306691
 51
239.4897678693308
  0
LINE
  5
3D9
330
1F
100
AcDbEntity
  8
0
 62
     7
 48
2.0
100
AcDbLine
 10
483.1632656522384
 20
356.3730801158641
 30
0.0
 11
491.1632656522384
 21
356.3730801158641
 31
0.0
  0
LINE
  5
3DA
330
1F
100
AcDbEntity
  8
0
 62
     7
 48
2.0
100
AcDbLine
 10
488.6632656522386
 20
348.6730801158642
 30
0.0
 11
489.1632656522386
 21
348.6730801158642
 31
0.0
  0
LINE
  5
3DB
330
1F
100
AcDbEntity
  8
0
 62
     7
 48
2.0
100
AcDbLine
 10
488.6632656522386
 20
355.6730801158642
 30
0.0
 11
489.1632656522386
 21
355.6730801158642
 31
0.0
  0
LINE
  5
3DC
330
1F
100
AcDbEntity
  8
0
 62
     7
 48
2.0
100
AcDbLine
 10
483.1632656522384
 20
347.9730801158643
 30
0.0
 11
491.1632656522384
 21
347.9730801158643
 31
0.0
  0
LINE
  5
3DD
330
1F
100
AcDbEntity
  8
0
 62
     7
 48
2.0
100
AcDbLine
 10
483.1632656522384
 20
346.3730801158642
 30
0.0
 11
491.1632656522384
 21
346.3730801158642
 31
0.0
  0
LINE
  5
3DE
330
1F
100
AcDbEntity
  8
0
 62
     7
 48
2.0
100
AcDbLine
 10
488.6632656522386
 20
338.6730801158642
 30
0.0
 11
489.1632656522386
 21
338.6730801158642
 31
0.0
  0
LINE
  5
3DF
330
1F
100
AcDbEntity
  8
0
 62
     7
 48
2.0
100
AcDbLine
 10
488.6632656522386
 20
345.6730801158641
 30
0.0
 11
489.1632656522386
 21
345.6730801158641
 31
0.0
  0
LINE
  5
3E0
330
1F
100
AcDbEntity
  8
0
 62
     7
 48
2.0
100
AcDbLine
 10
483.1632656522384
 20
337.9730801158641
 30
0.0
 11
491.1632656522384
 21
337.9730801158641
 31
0.0
  0
LINE
  5
3E1
330
1F
100
AcDbEntity
  8
0
 62
     7
 48
2.0
100
AcDbLine
 10
483.1632656522384
 20
336.3730801158642
 30
0.0
 11
491.1632656522384
 21
336.3730801158642
 31
0.0
  0
LINE
  5
3E2
330
1F
100
AcDbEntity
  8
0
 62
     7
 48
2.0
100
AcDbLine
 10
489.1632656522386
 20
375.6730801158643
 30
0.0
 11
489.1632656522386
 21
368.6730801158643
 31
0.0
  0
LINE
  5
3E3
330
1F
100
AcDbEntity
  8
0
 62
     7
 48
2.0
100
AcDbLine
 10
490.1632656522385
 20
376.3730801158643
 30
0.0
 11
490.1632656522385
 21
367.9730801158644
 31
0.0
  0
LINE
  5
3E4
330
1F
100
AcDbEntity
  8
0
 62
     7
 48
2.0
100
AcDbLine
 10
489.1632656522386
 20
371.1730801158643
 30
0.0
 11
490.1632656522385
 21
373.1730801158643
 31
0.0
  0
LINE
  5
3E5
330
1F
100
AcDbEntity
  8
0
 62
     7
 48
2.0
100
AcDbLine
 10
490.1632656522385
 20
368.6730801158643
 30
0.0
 11
489.1632656522386
 21
368.6730801158643
 31
0.0
  0
LINE
  5
3E6
330
1F
100
AcDbEntity
  8
0
 62
     7
 48
2.0
100
AcDbLine
 10
490.1632656522385
 20
375.6730801158643
 30
0.0
 11
489.1632656522386
 21
375.6730801158643
 31
0.0
  0
LINE
  5
3E7
330
1F
100
AcDbEntity
  8
0
 62
     7
 48
2.0
100
AcDbLine
 10
489.1632656522386
 20
365.673080115864
 30
0.0
 11
489.1632656522386
 21
358.6730801158643
 31
0.0
  0
LINE
  5
3E8
330
1F
100
AcDbEntity
  8
0
 62
     7
 48
2.0
100
AcDbLine
 10
490.1632656522385
 20
366.3730801158643
 30
0.0
 11
490.1632656522385
 21
357.9730801158643
 31
0.0
  0
LINE
  5
3E9
330
1F
100
AcDbEntity
  8
0
 62
     7
 48
2.0
100
AcDbLine
 10
489.1632656522386
 20
361.1730801158643
 30
0.0
 11
490.1632656522385
 21
363.1730801158643
 31
0.0
  0
LINE
  5
3EA
330
1F
100
AcDbEntity
  8
0
 62
     7
 48
2.0
100
AcDbLine
 10
490.1632656522385
 20
358.6730801158643
 30
0.0
 11
489.1632656522386
 21
358.6730801158643
 31
0.0
  0
LINE
  5
3EB
330
1F
100
AcDbEntity
  8
0
 62
     7
 48
2.0
100
AcDbLine
 10
490.1632656522385
 20
365.673080115864
 30
0.0
 11
489.1632656522386
 21
365.673080115864
 31
0.0
  0
ARC
  5
3EC
330
1F
100
AcDbEntity
  8
0
 62
     7
 48
2.0
100
AcDbCircle
 10
490.7257656522376
 20
372.1730801158642
 30
0.0
 40
4.062499999999596
100
AcDbArc
 50
120.5102321306691
 51
239.4897678693308
  0
ARC
  5
3ED
330
1F
100
AcDbEntity
  8
0
 62
     7
 48
2.0
100
AcDbCircle
 10
490.7257656522376
 20
362.1730801158641
 30
0.0
 40
4.062499999999596
100
AcDbArc
 50
120.5102321306691
 51
239.4897678693308
  0
LINE
  5
3EE
330
1F
100
AcDbEntity
  8
0
 62
     7
 48
2.0
100
AcDbLine
 10
483.1632656522384
 20
377.9730801158643
 30
0.0
 11
491.1632656522384
 21
377.9730801158643
 31
0.0
  0
LINE
  5
3EF
330
1F
100
AcDbEntity
  8
0
 62
     7
 48
2.0
100
AcDbLine
 10
483.1632656522384
 20
376.3730801158643
 30
0.0
 11
491.1632656522384
 21
376.3730801158643
 31
0.0
  0
LINE
  5
3F0
330
1F
100
AcDbEntity
  8
0
 62
     7
 48
2.0
100
AcDbLine
 10
488.6632656522386
 20
368.6730801158643
 30
0.0
 11
489.1632656522386
 21
368.6730801158643
 31
0.0
  0
LINE
  5
3F1
330
1F
100
AcDbEntity
  8
0
 62
     7
 48
2.0
100
AcDbLine
 10
488.6632656522386
 20
375.6730801158643
 30
0.0
 11
489.1632656522386
 21
375.6730801158643
 31
0.0
  0
LINE
  5
3F2
330
1F
100
AcDbEntity
  8
0
 62
     7
 48
2.0
100
AcDbLine
 10
483.1632656522384
 20
367.9730801158644
 30
0.0
 11
491.1632656522384
 21
367.9730801158644
 31
0.0
  0
LINE
  5
3F3
330
1F
100
AcDbEntity
  8
0
 62
     7
 48
2.0
100
AcDbLine
 10
483.1632656522384
 20
366.3730801158643
 30
0.0
 11
491.1632656522384
 21
366.3730801158643
 31
0.0
  0
LINE
  5
3F4
330
1F
100
AcDbEntity
  8
0
 62
     7
 48
2.0
100
AcDbLine
 10
488.6632656522386
 20
358.6730801158643
 30
0.0
 11
489.1632656522386
 21
358.6730801158643
 31
0.0
  0
LINE
  5
3F5
330
1F
100
AcDbEntity
  8
0
 62
     7
 48
2.0
100
AcDbLine
 10
488.6632656522386
 20
365.673080115864
 30
0.0
 11
489.1632656522386
 21
365.673080115864
 31
0.0
  0
LINE
  5
3F6
330
1F
100
AcDbEntity
  8
0
 62
     7
 48
2.0
100
AcDbLine
 10
483.1632656522384
 20
357.9730801158643
 30
0.0
 11
491.1632656522384
 21
357.9730801158643
 31
0.0
  0
LINE
  5
3F7
330
1F
100
AcDbEntity
  8
0
 62
     7
 48
2.0
100
AcDbLine
 10
490.1632656522385
 20
406.3730801158643
 30
0.0
 11
490.1632656522385
 21
397.9730801158643
 31
0.0
  0
LINE
  5
3F8
330
1F
100
AcDbEntity
  8
0
 62
     7
 48
2.0
100
AcDbLine
 10
489.1632656522386
 20
405.6730801158643
 30
0.0
 11
489.1632656522386
 21
398.6730801158643
 31
0.0
  0
ARC
  5
3F9
330
1F
100
AcDbEntity
  8
0
 62
     7
 48
2.0
100
AcDbCircle
 10
490.7257656522376
 20
402.1730801158642
 30
0.0
 40
4.062499999999596
100
AcDbArc
 50
120.5102321306691
 51
239.4897678693308
  0
LINE
  5
3FA
330
1F
100
AcDbEntity
  8
0
 62
     7
 48
2.0
100
AcDbLine
 10
490.1632656522385
 20
398.6730801158643
 30
0.0
 11
489.1632656522386
 21
398.6730801158643
 31
0.0
  0
LINE
  5
3FB
330
1F
100
AcDbEntity
  8
0
 62
     7
 48
2.0
100
AcDbLine
 10
489.1632656522386
 20
395.6730801158643
 30
0.0
 11
489.1632656522386
 21
388.6730801158643
 31
0.0
  0
LINE
  5
3FC
330
1F
100
AcDbEntity
  8
0
 62
     7
 48
2.0
100
AcDbLine
 10
490.1632656522385
 20
396.3730801158643
 30
0.0
 11
490.1632656522385
 21
387.9730801158643
 31
0.0
  0
LINE
  5
3FD
330
1F
100
AcDbEntity
  8
0
 62
     7
 48
2.0
100
AcDbLine
 10
489.1632656522386
 20
391.1730801158643
 30
0.0
 11
490.1632656522385
 21
393.1730801158643
 31
0.0
  0
LINE
  5
3FE
330
1F
100
AcDbEntity
  8
0
 62
     7
 48
2.0
100
AcDbLine
 10
490.1632656522385
 20
388.6730801158643
 30
0.0
 11
489.1632656522386
 21
388.6730801158643
 31
0.0
  0
LINE
  5
3FF
330
1F
100
AcDbEntity
  8
0
 62
     7
 48
2.0
100
AcDbLine
 10
490.1632656522385
 20
395.6730801158643
 30
0.0
 11
489.1632656522386
 21
395.6730801158643
 31
0.0
  0
LINE
  5
400
330
1F
100
AcDbEntity
  8
0
 62
     7
 48
2.0
100
AcDbLine
 10
489.1632656522386
 20
385.673080115864
 30
0.0
 11
489.1632656522386
 21
378.6730801158643
 31
0.0
  0
LINE
  5
401
330
1F
100
AcDbEntity
  8
0
 62
     7
 48
2.0
100
AcDbLine
 10
489.1632656522386
 20
381.1730801158643
 30
0.0
 11
490.1632656522385
 21
383.1730801158643
 31
0.0
  0
LINE
  5
402
330
1F
100
AcDbEntity
  8
0
 62
     7
 48
2.0
100
AcDbLine
 10
490.1632656522385
 20
378.6730801158643
 30
0.0
 11
489.1632656522386
 21
378.6730801158643
 31
0.0
  0
LINE
  5
403
330
1F
100
AcDbEntity
  8
0
 62
     7
 48
2.0
100
AcDbLine
 10
490.1632656522385
 20
385.673080115864
 30
0.0
 11
489.1632656522386
 21
385.673080115864
 31
0.0
  0
ARC
  5
404
330
1F
100
AcDbEntity
  8
0
 62
     7
 48
2.0
100
AcDbCircle
 10
490.7257656522376
 20
392.1730801158642
 30
0.0
 40
4.062499999999531
100
AcDbArc
 50
120.5102321306691
 51
239.4897678693308
  0
ARC
  5
405
330
1F
100
AcDbEntity
  8
0
 62
     7
 48
2.0
100
AcDbCircle
 10
490.7257656522376
 20
382.173080115864
 30
0.0
 40
4.062499999999531
100
AcDbArc
 50
120.5102321306691
 51
239.4897678693308
  0
LINE
  5
406
330
1F
100
AcDbEntity
  8
0
 62
     7
 48
2.0
100
AcDbLine
 10
483.1632656522384
 20
396.3730801158643
 30
0.0
 11
491.1632656522384
 21
396.3730801158643
 31
0.0
  0
LINE
  5
407
330
1F
100
AcDbEntity
  8
0
 62
     7
 48
2.0
100
AcDbLine
 10
483.1632656522384
 20
397.9730801158643
 30
0.0
 11
491.1632656522384
 21
397.9730801158643
 31
0.0
  0
LINE
  5
408
330
1F
100
AcDbEntity
  8
0
 62
     7
 48
2.0
100
AcDbLine
 10
488.6632656522386
 20
398.6730801158643
 30
0.0
 11
489.1632656522386
 21
398.6730801158643
 31
0.0
  0
LINE
  5
409
330
1F
100
AcDbEntity
  8
0
 62
     7
 48
2.0
100
AcDbLine
 10
488.6632656522386
 20
388.6730801158643
 30
0.0
 11
489.1632656522386
 21
388.6730801158643
 31
0.0
  0
LINE
  5
40A
330
1F
100
AcDbEntity
  8
0
 62
     7
 48
2.0
100
AcDbLine
 10
488.6632656522386
 20
395.6730801158643
 30
0.0
 11
489.1632656522386
 21
395.6730801158643
 31
0.0
  0
LINE
  5
40B
330
1F
100
AcDbEntity
  8
0
 62
     7
 48
2.0
100
AcDbLine
 10
483.1632656522384
 20
387.9730801158643
 30
0.0
 11
491.1632656522384
 21
387.9730801158643
 31
0.0
  0
LINE
  5
40C
330
1F
100
AcDbEntity
  8
0
 62
     7
 48
2.0
100
AcDbLine
 10
483.1632656522384
 20
386.3730801158643
 30
0.0
 11
491.1632656522384
 21
386.3730801158643
 31
0.0
  0
LINE
  5
40D
330
1F
100
AcDbEntity
  8
0
 62
     7
 48
2.0
100
AcDbLine
 10
488.6632656522386
 20
378.6730801158643
 30
0.0
 11
489.1632656522386
 21
378.6730801158643
 31
0.0
  0
LINE
  5
40E
330
1F
100
AcDbEntity
  8
0
 62
     7
 48
2.0
100
AcDbLine
 10
488.6632656522386
 20
385.673080115864
 30
0.0
 11
489.1632656522386
 21
385.673080115864
 31
0.0
  0
LINE
  5
40F
330
1F
100
AcDbEntity
  8
0
 62
     7
 48
2.0
100
AcDbLine
 10
481.6632656522386
 20
408.673080115864
 30
0.0
 11
497.9542021459995
 21
408.673080115864
 31
0.0
  0
LINE
  5
410
330
1F
100
AcDbEntity
  8
0
 62
     7
 48
2.0
100
AcDbLine
 10
490.1632656522385
 20
405.6730801158643
 30
0.0
 11
489.1632656522386
 21
405.6730801158643
 31
0.0
  0
LINE
  5
411
330
1F
100
AcDbEntity
  8
0
 62
     7
 48
2.0
100
AcDbLine
 10
489.1632656522386
 20
401.1730801158643
 30
0.0
 11
490.1632656522385
 21
403.1730801158643
 31
0.0
  0
LINE
  5
412
330
1F
100
AcDbEntity
  8
0
 62
     7
 48
2.0
100
AcDbLine
 10
483.1632656522384
 20
407.9730801158643
 30
0.0
 11
491.1632656522384
 21
407.9730801158643
 31
0.0
  0
LINE
  5
413
330
1F
100
AcDbEntity
  8
0
 62
     7
 48
2.0
100
AcDbLine
 10
483.1632656522384
 20
406.3730801158643
 30
0.0
 11
491.1632656522384
 21
406.3730801158643
 31
0.0
  0
LINE
  5
414
330
1F
100
AcDbEntity
  8
0
 62
     7
 48
2.0
100
AcDbLine
 10
488.6632656522386
 20
405.6730801158643
 30
0.0
 11
489.1632656522386
 21
405.6730801158643
 31
0.0
  0
ARC
  5
415
330
1F
100
AcDbEntity
  8
0
 62
     7
 48
2.0
100
AcDbCircle
 10
500.1741408154936
 20
411.4269516690965
 30
0.0
 40
1.99999999999854
100
AcDbArc
 50
90.4999996724371
 51
175.4536535124997
  0
LINE
  5
416
330
1F
100
AcDbEntity
  8
0
 62
     7
 48
2.0
100
AcDbLine
 10
588.6632656522383
 20
427.1730801158642
 30
0.0
 11
629.6632656522384
 21
427.1730801158642
 31
0.0
  0
LINE
  5
417
330
1F
100
AcDbEntity
  8
0
 62
     7
 48
2.0
100
AcDbLine
 10
597.6632656522386
 20
429.1730801158641
 30
0.0
 11
597.6632656522386
 21
427.1730801158642
 31
0.0
  0
LINE
  5
419
330
1F
100
AcDbEntity
  8
0
 62
     7
 48
2.0
100
AcDbLine
 10
597.6632656522386
 20
427.1730801158642
 30
0.0
 11
588.6632656522383
 21
427.1730801158642
 31
0.0
  0
LINE
  5
41A
330
1F
100
AcDbEntity
  8
0
 62
     7
 48
2.0
100
AcDbLine
 10
585.6632656522385
 20
429.1730801158641
 30
0.0
 11
597.6632656522386
 21
429.1730801158641
 31
0.0
  0
LINE
  5
41B
330
1F
100
AcDbEntity
  8
0
 62
     7
100
AcDbLine
 10
421.2632656522385
 20
421.173080115864
 30
0.0
 11
421.2632656522385
 21
427.1730801158642
 31
0.0
  0
LINE
  5
41C
330
1F
100
AcDbEntity
  8
0
 62
     7
100
AcDbLine
 10
415.0632656522384
 20
421.173080115864
 30
0.0
 11
415.0632656522384
 21
427.1730801158642
 31
0.0
  0
LINE
  5
41D
330
1F
100
AcDbEntity
  8
0
 62
     7
 48
2.0
100
AcDbLine
 10
415.0632656522384
 20
427.1730801158642
 30
0.0
 11
412.1632656522383
 21
427.1730801158642
 31
0.0
  0
LINE
  5
41E
330
1F
100
AcDbEntity
  8
0
 62
     7
 48
2.0
100
AcDbLine
 10
418.1632656522386
 20
273.1730801158643
 30
0.0
 11
405.1632656522384
 21
273.1730801158643
 31
0.0
  0
LINE
  5
41F
330
1F
100
AcDbEntity
  8
0
 62
     7
 48
2.0
100
AcDbLine
 10
434.1632656522384
 20
273.1730801158643
 30
0.0
 11
421.1632656522384
 21
273.1730801158643
 31
0.0
  0
LINE
  5
420
330
1F
100
AcDbEntity
  8
0
 62
     7
 48
2.0
100
AcDbLine
 10
391.1632656522384
 20
309.1730801158643
 30
0.0
 11
391.1632656522384
 21
309.1730801158643
 31
0.0
  0
LINE
  5
423
330
1F
100
AcDbEntity
  8
0
 62
     7
100
AcDbLine
 10
390.9132656522384
 20
309.1730801158643
 30
0.0
 11
390.9132656522384
 21
309.1730801158643
 31
0.0
  0
LINE
  5
426
330
1F
100
AcDbEntity
  8
0
 62
     7
100
AcDbLine
 10
389.8632656522384
 20
309.5730801158641
 30
0.0
 11
388.5632656522384
 21
309.5730801158641
 31
0.0
  0
LINE
  5
427
330
1F
100
AcDbEntity
  8
0
 62
     7
100
AcDbLine
 10
386.4632656522384
 20
309.5730801158641
 30
0.0
 11
386.4632656522384
 21
308.7730801158641
 31
0.0
  0
LINE
  5
428
330
1F
100
AcDbEntity
  8
0
 62
     7
100
AcDbLine
 10
386.4632656522384
 20
308.7730801158641
 30
0.0
 11
387.7632656522385
 21
308.7730801158641
 31
0.0
  0
LINE
  5
429
330
1F
100
AcDbEntity
  8
0
 62
     7
100
AcDbLine
 10
389.8632656522384
 20
308.7730801158641
 30
0.0
 11
389.8632656522384
 21
309.5730801158641
 31
0.0
  0
LINE
  5
42A
330
1F
100
AcDbEntity
  8
0
 62
     7
100
AcDbLine
 10
388.5632656522384
 20
310.8730801158642
 30
0.0
 11
387.7632656522385
 21
310.8730801158642
 31
0.0
  0
LINE
  5
42B
330
1F
100
AcDbEntity
  8
0
 62
     7
100
AcDbLine
 10
388.5632656522384
 20
307.4730801158642
 30
0.0
 11
388.5632656522384
 21
308.7730801158641
 31
0.0
  0
LINE
  5
42C
330
1F
100
AcDbEntity
  8
0
 62
     7
100
AcDbLine
 10
387.7632656522385
 20
307.4730801158642
 30
0.0
 11
388.5632656522384
 21
307.4730801158642
 31
0.0
  0
LINE
  5
42D
330
1F
100
AcDbEntity
  8
0
 62
     7
100
AcDbLine
 10
387.7632656522385
 20
310.8730801158642
 30
0.0
 11
387.7632656522385
 21
309.5730801158641
 31
0.0
  0
LINE
  5
42E
330
1F
100
AcDbEntity
  8
0
 62
     7
100
AcDbLine
 10
388.5632656522384
 20
309.5730801158641
 30
0.0
 11
388.5632656522384
 21
310.8730801158642
 31
0.0
  0
LINE
  5
42F
330
1F
100
AcDbEntity
  8
0
 62
     7
100
AcDbLine
 10
387.7632656522385
 20
308.7730801158641
 30
0.0
 11
387.7632656522385
 21
307.4730801158642
 31
0.0
  0
LINE
  5
430
330
1F
100
AcDbEntity
  8
0
 62
     7
100
AcDbLine
 10
387.7632656522385
 20
309.5730801158641
 30
0.0
 11
386.4632656522384
 21
309.5730801158641
 31
0.0
  0
LINE
  5
431
330
1F
100
AcDbEntity
  8
0
 62
     7
100
AcDbLine
 10
388.5632656522384
 20
308.7730801158641
 30
0.0
 11
389.8632656522384
 21
308.7730801158641
 31
0.0
  0
LINE
  5
432
330
1F
100
AcDbEntity
  8
0
 62
     7
100
AcDbLine
 10
446.4632656522384
 20
309.5730801158641
 30
0.0
 11
447.7632656522384
 21
309.5730801158641
 31
0.0
  0
LINE
  5
433
330
1F
100
AcDbEntity
  8
0
 62
     7
100
AcDbLine
 10
449.8632656522384
 20
309.5730801158641
 30
0.0
 11
449.8632656522384
 21
308.7730801158641
 31
0.0
  0
LINE
  5
434
330
1F
100
AcDbEntity
  8
0
 62
     7
100
AcDbLine
 10
449.8632656522384
 20
308.7730801158641
 30
0.0
 11
448.5632656522384
 21
308.7730801158641
 31
0.0
  0
LINE
  5
435
330
1F
100
AcDbEntity
  8
0
 62
     7
100
AcDbLine
 10
446.4632656522384
 20
308.7730801158641
 30
0.0
 11
446.4632656522384
 21
309.5730801158641
 31
0.0
  0
LINE
  5
436
330
1F
100
AcDbEntity
  8
0
 62
     7
100
AcDbLine
 10
447.7632656522384
 20
310.8730801158642
 30
0.0
 11
448.5632656522384
 21
310.8730801158642
 31
0.0
  0
LINE
  5
437
330
1F
100
AcDbEntity
  8
0
 62
     7
100
AcDbLine
 10
447.7632656522384
 20
307.4730801158642
 30
0.0
 11
447.7632656522384
 21
308.7730801158641
 31
0.0
  0
LINE
  5
438
330
1F
100
AcDbEntity
  8
0
 62
     7
100
AcDbLine
 10
448.5632656522384
 20
307.4730801158642
 30
0.0
 11
447.7632656522384
 21
307.4730801158642
 31
0.0
  0
LINE
  5
439
330
1F
100
AcDbEntity
  8
0
 62
     7
100
AcDbLine
 10
448.5632656522384
 20
310.8730801158642
 30
0.0
 11
448.5632656522384
 21
309.5730801158641
 31
0.0
  0
LINE
  5
43A
330
1F
100
AcDbEntity
  8
0
 62
     7
100
AcDbLine
 10
447.7632656522384
 20
309.5730801158641
 30
0.0
 11
447.7632656522384
 21
310.8730801158642
 31
0.0
  0
LINE
  5
43B
330
1F
100
AcDbEntity
  8
0
 62
     7
100
AcDbLine
 10
448.5632656522384
 20
308.7730801158641
 30
0.0
 11
448.5632656522384
 21
307.4730801158642
 31
0.0
  0
LINE
  5
43C
330
1F
100
AcDbEntity
  8
0
 62
     7
100
AcDbLine
 10
448.5632656522384
 20
309.5730801158641
 30
0.0
 11
449.8632656522384
 21
309.5730801158641
 31
0.0
  0
LINE
  5
43D
330
1F
100
AcDbEntity
  8
0
 62
     7
100
AcDbLine
 10
447.7632656522384
 20
308.7730801158641
 30
0.0
 11
446.4632656522384
 21
308.7730801158641
 31
0.0
  0
LINE
  5
43E
330
1F
100
AcDbEntity
  8
0
 62
     7
 48
2.0
100
AcDbLine
 10
451.1632656522386
 20
309.1730801158643
 30
0.0
 11
451.1632656522386
 21
309.1730801158643
 31
0.0
  0
LINE
  5
441
330
1F
100
AcDbEntity
  8
0
 62
     7
 48
2.0
100
AcDbLine
 10
429.4632656522384
 20
365.3730801158643
 30
0.0
 11
435.8632656522384
 21
365.3730801158643
 31
0.0
  0
LINE
  5
442
330
1F
100
AcDbEntity
  8
0
 62
     7
 48
2.0
100
AcDbLine
 10
429.4632656522384
 20
358.9730801158643
 30
0.0
 11
435.8632656522384
 21
358.9730801158643
 31
0.0
  0
LINE
  5
443
330
1F
100
AcDbEntity
  8
0
 62
     7
 48
2.0
100
AcDbLine
 10
431.6632656522385
 20
364.1430801158643
 30
0.0
 11
433.6632656522384
 21
364.1430801158643
 31
0.0
  0
LINE
  5
444
330
1F
100
AcDbEntity
  8
0
 62
     7
 48
2.0
100
AcDbLine
 10
431.6632656522385
 20
362.7430801158643
 30
0.0
 11
433.6632656522384
 21
362.7430801158643
 31
0.0
  0
LINE
  5
445
330
1F
100
AcDbEntity
  8
0
 62
     7
 48
2.0
100
AcDbLine
 10
431.6632656522385
 20
360.2030801158643
 30
0.0
 11
433.6632656522384
 21
360.2030801158643
 31
0.0
  0
LINE
  5
446
330
1F
100
AcDbEntity
  8
0
 62
     7
 48
2.0
100
AcDbLine
 10
431.6632656522385
 20
361.6030801158643
 30
0.0
 11
433.6632656522384
 21
361.6030801158643
 31
0.0
  0
LINE
  5
447
330
1F
100
AcDbEntity
  8
0
 62
     7
 48
2.0
100
AcDbLine
 10
431.6632656522385
 20
364.1430801158643
 30
0.0
 11
431.6632656522385
 21
362.7430801158643
 31
0.0
  0
ARC
  5
448
330
1F
100
AcDbEntity
  8
0
 62
     7
100
AcDbCircle
 10
431.6632656522381
 20
363.4430801158643
 30
0.0
 40
0.699999988079015
100
AcDbArc
 50
90.0000025044557
 51
269.9999974955443
  0
LINE
  5
449
330
1F
100
AcDbEntity
  8
0
 62
     7
 48
2.0
100
AcDbLine
 10
429.4632656522384
 20
365.3730801158643
 30
0.0
 11
429.4632656522384
 21
358.9730801158643
 31
0.0
  0
ARC
  5
44A
330
1F
100
AcDbEntity
  8
0
 62
     7
100
AcDbCircle
 10
431.6632656522381
 20
360.9030801158641
 30
0.0
 40
0.6999999880789865
100
AcDbArc
 50
90.0000025044557
 51
269.9999974955443
  0
LINE
  5
44B
330
1F
100
AcDbEntity
  8
0
 62
     7
 48
2.0
100
AcDbLine
 10
431.6632656522385
 20
361.6030801158643
 30
0.0
 11
431.6632656522385
 21
360.2030801158643
 31
0.0
  0
ARC
  5
44C
330
1F
100
AcDbEntity
  8
0
 62
     7
100
AcDbCircle
 10
433.6632656522382
 20
363.4430801158643
 30
0.0
 40
0.6999999880789865
100
AcDbArc
 50
269.9999974955443
 51
90.0000025044557
  0
LINE
  5
44D
330
1F
100
AcDbEntity
  8
0
 62
     7
 48
2.0
100
AcDbLine
 10
432.6632656522384
 20
364.1430801158643
 30
0.0
 11
432.6632656522384
 21
362.7430801158643
 31
0.0
  0
LINE
  5
44E
330
1F
100
AcDbEntity
  8
0
 62
     7
 48
2.0
100
AcDbLine
 10
435.8632656522384
 20
365.3730801158643
 30
0.0
 11
435.8632656522384
 21
358.9730801158643
 31
0.0
  0
ARC
  5
44F
330
1F
100
AcDbEntity
  8
0
 62
     7
100
AcDbCircle
 10
433.6632656522382
 20
360.9030801158641
 30
0.0
 40
0.699999988079015
100
AcDbArc
 50
269.9999974955443
 51
90.0000025044557
  0
LINE
  5
450
330
1F
100
AcDbEntity
  8
0
 62
     7
 48
2.0
100
AcDbLine
 10
432.6632656522384
 20
361.6030801158643
 30
0.0
 11
432.6632656522384
 21
360.2030801158643
 31
0.0
  0
ARC
  5
451
330
1F
100
AcDbEntity
  8
0
 62
     7
 48
2.0
100
AcDbCircle
 10
430.1632656522378
 20
359.6730801158637
 30
0.0
 40
1.999999999999403
100
AcDbArc
 50
180.0000050089242
 51
269.9999974955313
  0
ARC
  5
452
330
1F
100
AcDbEntity
  8
0
 62
     7
 48
2.0
100
AcDbCircle
 10
430.1632656522376
 20
364.6730801158649
 30
0.0
 40
1.99999999999912
100
AcDbArc
 50
90.00000250445896
 51
180.0000050089634
  0
LINE
  5
453
330
1F
100
AcDbEntity
  8
0
 62
     7
 48
2.0
100
AcDbLine
 10
428.1632656522385
 20
359.6730801158642
 30
0.0
 11
428.1632656522385
 21
364.6730801158641
 31
0.0
  0
ARC
  5
454
330
1F
100
AcDbEntity
  8
0
 62
     7
 48
2.0
100
AcDbCircle
 10
435.1632656522388
 20
359.6730801158638
 30
0.0
 40
1.99999999999966
100
AcDbArc
 50
269.9999974955051
 51
0.0000000000097707
  0
LINE
  5
455
330
1F
100
AcDbEntity
  8
0
 62
     7
 48
2.0
100
AcDbLine
 10
436.1632656522385
 20
359.6730801158642
 30
0.0
 11
436.1632656522385
 21
364.6730801158641
 31
0.0
  0
LINE
  5
456
330
1F
100
AcDbEntity
  8
0
 62
     7
 48
2.0
100
AcDbLine
 10
437.1632656522384
 20
359.6730801158642
 30
0.0
 11
437.1632656522384
 21
364.6730801158641
 31
0.0
  0
LINE
  5
457
330
1F
100
AcDbEntity
  8
0
 62
     7
 48
2.0
100
AcDbLine
 10
429.1632656522384
 20
359.6730801158642
 30
0.0
 11
429.1632656522384
 21
364.6730801158641
 31
0.0
  0
LINE
  5
458
330
1F
100
AcDbEntity
  8
0
 62
     7
 48
2.0
100
AcDbLine
 10
430.1632656522384
 20
358.6730801158643
 30
0.0
 11
435.1632656522386
 21
358.6730801158643
 31
0.0
  0
LINE
  5
459
330
1F
100
AcDbEntity
  8
0
 62
     7
 48
2.0
100
AcDbLine
 10
430.1632656522384
 20
357.6730801158642
 30
0.0
 11
435.1632656522386
 21
357.6730801158642
 31
0.0
  0
ARC
  5
45A
330
1F
100
AcDbEntity
  8
0
 62
     7
 48
2.0
100
AcDbCircle
 10
430.1632656522387
 20
359.6730801158644
 30
0.0
 40
1.000000000000165
100
AcDbArc
 50
180.0000050089276
 51
269.9999974955344
  0
ARC
  5
45B
330
1F
100
AcDbEntity
  8
0
 62
     7
 48
2.0
100
AcDbCircle
 10
435.1632656522388
 20
359.6730801158638
 30
0.0
 40
0.9999999999995743
100
AcDbArc
 50
269.9999974955181
 51
0.0000000000244267
  0
LINE
  5
45C
330
1F
100
AcDbEntity
  8
0
 62
     7
 48
2.0
100
AcDbLine
 10
435.1632656522386
 20
366.673080115864
 30
0.0
 11
430.1632656522384
 21
366.673080115864
 31
0.0
  0
LINE
  5
45D
330
1F
100
AcDbEntity
  8
0
 62
     7
 48
2.0
100
AcDbLine
 10
435.1632656522386
 20
365.673080115864
 30
0.0
 11
430.1632656522384
 21
365.673080115864
 31
0.0
  0
ARC
  5
45E
330
1F
100
AcDbEntity
  8
0
 62
     7
 48
2.0
100
AcDbCircle
 10
430.1632656522381
 20
364.6730801158646
 30
0.0
 40
0.9999999999995459
100
AcDbArc
 50
90.00000250442964
 51
180.0000050089325
  0
ARC
  5
45F
330
1F
100
AcDbEntity
  8
0
 62
     7
 48
2.0
100
AcDbCircle
 10
435.1632656522388
 20
364.6730801158646
 30
0.0
 40
0.9999999999995734
100
AcDbArc
 50
359.9999999999754
 51
90.00000250447845
  0
ARC
  5
460
330
1F
100
AcDbEntity
  8
0
 62
     7
 48
2.0
100
AcDbCircle
 10
435.1632656522388
 20
364.6730801158644
 30
0.0
 40
1.999999999999649
100
AcDbArc
 50
359.9999999999901
 51
90.00000250449476
  0
LINE
  5
461
330
1F
100
AcDbEntity
  8
0
 62
     7
 48
2.0
100
AcDbLine
 10
435.6632656522386
 20
405.1730801158643
 30
0.0
 11
435.6632656522386
 21
405.1730801158643
 31
0.0
  0
LINE
  5
464
330
1F
100
AcDbEntity
  8
0
 62
     7
 48
2.0
100
AcDbLine
 10
434.6632656522384
 20
405.1730801158643
 30
0.0
 11
434.6632656522384
 21
405.1730801158643
 31
0.0
  0
LINE
  5
467
330
1F
100
AcDbEntity
  8
0
 62
     7
 48
2.0
100
AcDbLine
 10
448.9132656522384
 20
427.1730801158642
 30
0.0
 11
442.4132656522385
 21
427.1730801158642
 31
0.0
  0
LINE
  5
468
330
1F
100
AcDbEntity
  8
0
 62
     7
 48
2.0
100
AcDbLine
 10
442.4132656522385
 20
423.6730801158643
 30
0.0
 11
448.9132656522384
 21
423.6730801158643
 31
0.0
  0
LINE
  5
469
330
1F
100
AcDbEntity
  8
0
 62
     7
 48
2.0
100
AcDbLine
 10
442.4132656522385
 20
427.1730801158642
 30
0.0
 11
442.4132656522385
 21
423.6730801158643
 31
0.0
  0
LINE
  5
46A
330
1F
100
AcDbEntity
  8
0
 62
     7
 48
2.0
100
AcDbLine
 10
448.9132656522384
 20
423.6730801158643
 30
0.0
 11
448.9132656522384
 21
427.1730801158642
 31
0.0
  0
LINE
  5
46B
330
1F
100
AcDbEntity
  8
0
 62
     7
 48
2.0
100
AcDbLine
 10
398.4132656522384
 20
427.1730801158642
 30
0.0
 11
404.9132656522385
 21
427.1730801158642
 31
0.0
  0
LINE
  5
46C
330
1F
100
AcDbEntity
  8
0
 62
     7
 48
2.0
100
AcDbLine
 10
404.9132656522385
 20
423.6730801158643
 30
0.0
 11
398.4132656522384
 21
423.6730801158643
 31
0.0
  0
LINE
  5
46D
330
1F
100
AcDbEntity
  8
0
 62
     7
 48
2.0
100
AcDbLine
 10
404.9132656522385
 20
427.1730801158642
 30
0.0
 11
404.9132656522385
 21
423.6730801158643
 31
0.0
  0
LINE
  5
46E
330
1F
100
AcDbEntity
  8
0
 62
     7
 48
2.0
100
AcDbLine
 10
393.9132656522384
 20
423.6730801158643
 30
0.0
 11
387.4132656522384
 21
423.6730801158643
 31
0.0
  0
LINE
  5
46F
330
1F
100
AcDbEntity
  8
0
 62
     7
 48
2.0
100
AcDbLine
 10
387.4132656522384
 20
427.1730801158642
 30
0.0
 11
393.9132656522384
 21
427.1730801158642
 31
0.0
  0
LINE
  5
470
330
1F
100
AcDbEntity
  8
0
 62
     7
 48
2.0
100
AcDbLine
 10
393.9132656522384
 20
427.1730801158642
 30
0.0
 11
393.9132656522384
 21
423.6730801158643
 31
0.0
  0
LINE
  5
471
330
1F
100
AcDbEntity
  8
0
 62
     7
 48
2.0
100
AcDbLine
 10
398.4132656522384
 20
423.6730801158643
 30
0.0
 11
398.4132656522384
 21
427.1730801158642
 31
0.0
  0
LINE
  5
472
330
1F
100
AcDbEntity
  8
0
 62
     7
 48
2.0
100
AcDbLine
 10
387.4132656522384
 20
423.6730801158643
 30
0.0
 11
387.4132656522384
 21
427.1730801158642
 31
0.0
  0
CIRCLE
  5
476
330
1F
100
AcDbEntity
  8
0
 62
     7
100
AcDbCircle
 10
443.1632656522382
 20
278.1730801158656
 30
0.0
 40
4.000000000000169
  0
CIRCLE
  5
477
330
1F
100
AcDbEntity
  8
0
 62
     7
100
AcDbCircle
 10
393.1632656522383
 20
278.1730801158656
 30
0.0
 40
4.000000000000169
  0
CIRCLE
  5
478
330
1F
100
AcDbEntity
  8
0
 62
     7
100
AcDbCircle
 10
411.6632656522376
 20
266.1730801158636
 30
0.0
 40
4.500000000000738
  0
CIRCLE
  5
479
330
1F
100
AcDbEntity
  8
0
 62
     7
100
AcDbCircle
 10
427.6632656522378
 20
266.1730801158636
 30
0.0
 40
4.500000000000738
  0
CIRCLE
  5
47B
330
1F
100
AcDbEntity
  8
0
 62
     7
100
AcDbCircle
 10
388.1632656522371
 20
309.1730801158642
 30
0.0
 40
3.00000000000125
  0
CIRCLE
  5
47C
330
1F
100
AcDbEntity
  8
0
 62
     7
100
AcDbCircle
 10
388.1632656522371
 20
309.1730801158642
 30
0.0
 40
2.75000000000125
  0
CIRCLE
  5
47D
330
1F
100
AcDbEntity
  8
0
 62
     7
100
AcDbCircle
 10
448.1632656522381
 20
309.1730801158636
 30
0.0
 40
2.75000000000125
  0
CIRCLE
  5
47E
330
1F
100
AcDbEntity
  8
0
 62
     7
100
AcDbCircle
 10
448.1632656522381
 20
309.1730801158636
 30
0.0
 40
3.00000000000125
  0
CIRCLE
  5
47F
330
1F
100
AcDbEntity
  8
0
 62
     7
100
AcDbCircle
 10
432.6632656522382
 20
377.1730801158638
 30
0.0
 40
1.500000000000284
  0
CIRCLE
  5
480
330
1F
100
AcDbEntity
  8
0
 62
     7
100
AcDbCircle
 10
432.6632656522382
 20
377.1730801158638
 30
0.0
 40
2.500000000000341
  0
CIRCLE
  5
481
330
1F
100
AcDbEntity
  8
0
 62
     7
100
AcDbCircle
 10
432.6632656522384
 20
387.1730801158638
 30
0.0
 40
1.500000000000226
  0
CIRCLE
  5
482
330
1F
100
AcDbEntity
  8
0
 62
     7
100
AcDbCircle
 10
432.6632656522384
 20
387.1730801158638
 30
0.0
 40
2.50000000000017
  0
CIRCLE
  5
483
330
1F
100
AcDbEntity
  8
0
 62
     7
100
AcDbCircle
 10
432.6632656522384
 20
397.173080115864
 30
0.0
 40
1.500000000000169
  0
CIRCLE
  5
484
330
1F
100
AcDbEntity
  8
0
 62
     7
100
AcDbCircle
 10
432.6632656522384
 20
397.173080115864
 30
0.0
 40
2.500000000000226
  0
CIRCLE
  5
485
330
1F
100
AcDbEntity
  8
0
 62
     7
100
AcDbCircle
 10
432.6632656522382
 20
405.1730801158639
 30
0.0
 40
2.000000000000284
  0
CIRCLE
  5
486
330
1F
100
AcDbEntity
  8
0
 62
     7
100
AcDbCircle
 10
432.663265652238
 20
405.1730801158639
 30
0.0
 40
3.000000000000511
  0
CIRCLE
  5
487
330
1F
100
AcDbEntity
  8
0
 62
     7
100
AcDbCircle
 10
418.163265652238
 20
312.1730801158636
 30
0.0
 40
3.500000000000511
  0
CIRCLE
  5
488
330
1F
100
AcDbEntity
  8
0
 62
     7
100
AcDbCircle
 10
418.163265652238
 20
322.1730801158636
 30
0.0
 40
3.500000000000511
  0
CIRCLE
  5
489
330
1F
100
AcDbEntity
  8
0
 62
     7
100
AcDbCircle
 10
418.163265652238
 20
332.1730801158635
 30
0.0
 40
3.500000000000511
  0
CIRCLE
  5
48A
330
1F
100
AcDbEntity
  8
0
 62
     7
100
AcDbCircle
 10
418.163265652238
 20
342.1730801158636
 30
0.0
 40
3.500000000000511
  0
CIRCLE
  5
48B
330
1F
100
AcDbEntity
  8
0
 62
     7
100
AcDbCircle
 10
418.163265652238
 20
352.1730801158635
 30
0.0
 40
3.500000000000511
  0
CIRCLE
  5
48C
330
1F
100
AcDbEntity
  8
0
 62
     7
100
AcDbCircle
 10
418.163265652238
 20
362.1730801158636
 30
0.0
 40
3.500000000000453
  0
CIRCLE
  5
48D
330
1F
100
AcDbEntity
  8
0
 62
     7
100
AcDbCircle
 10
418.163265652238
 20
372.1730801158637
 30
0.0
 40
3.500000000000511
  0
CIRCLE
  5
48E
330
1F
100
AcDbEntity
  8
0
 62
     7
100
AcDbCircle
 10
418.163265652238
 20
382.1730801158636
 30
0.0
 40
3.500000000000511
  0
CIRCLE
  5
48F
330
1F
100
AcDbEntity
  8
0
 62
     7
100
AcDbCircle
 10
418.1632656522378
 20
392.1730801158636
 30
0.0
 40
3.500000000000625
  0
CIRCLE
  5
490
330
1F
100
AcDbEntity
  8
0
 62
     7
100
AcDbCircle
 10
418.1632656522378
 20
402.1730801158636
 30
0.0
 40
3.500000000000625
  0
ENDSEC
  0
SECTION
  2
OBJECTS
  0
DICTIONARY
  5
C
330
0
100
AcDbDictionary
281
     1
  3
ACAD_GROUP
350
D
  3
ACAD_LAYOUT
350
1A
  3
ACAD_MLINESTYLE
350
17
  3
ACAD_PLOTSETTINGS
350
19
  3
ACAD_PLOTSTYLENAME
350
E
  0
DICTIONARY
  5
D
102
{ACAD_REACTORS
330
C
102
}
330
C
100
AcDbDictionary
281
     1
  0
DICTIONARY
  5
1A
102
{ACAD_REACTORS
330
C
102
}
330
C
100
AcDbDictionary
281
     1
  3
Model
350
22
  3
ﾚｲｱｳﾄ1
350
51
  0
DICTIONARY
  5
17
102
{ACAD_REACTORS
330
C
102
}
330
C
100
AcDbDictionary
281
     1
  3
Standard
350
18
  0
DICTIONARY
  5
19
102
{ACAD_REACTORS
330
C
102
}
330
C
100
AcDbDictionary
281
     1
  0
ACDBDICTIONARYWDFLT
  5
E
102
{ACAD_REACTORS
330
C
102
}
330
C
100
AcDbDictionary
281
     1
  3
Normal
350
F
100
AcDbDictionaryWithDefault
340
F
  0
LAYOUT
  5
22
102
{ACAD_REACTORS
330
1A
102
}
330
1A
100
AcDbPlotSettings
  1

  2
none_device
  4
ANSI_A_(8.50_x_11.00_Inches)
  6

 40
6.349999904632567
 41
19.04999923706053
 42
6.350006103515625
 43
19.04998779296875
 44
215.8999938964842
 45
279.3999938964843
 46
0.0
 47
0.0
 48
0.0
 49
0.0
140
0.0
141
0.0
142
1.0
143
78.436453180766
 70
 11952
 72
     0
 73
     1
 74
     0
  7

 75
     0
147
0.0127491741332998
148
0.0
149
0.0
100
AcDbLayout
  1
Model
 70
     1
 71
     0
 10
0.0
 20
0.0
 11
12.0
 21
9.0
 12
0.0
 22
0.0
 32
0.0
 14
0.0
 24
0.0
 34
0.0
 15
0.0
 25
0.0
 35
0.0
146
0.0
 13
0.0
 23
0.0
 33
0.0
 16
1.0
 26
0.0
 36
0.0
 17
0.0
 27
1.0
 37
0.0
 76
     0
330
1F
  0
LAYOUT
  5
51
102
{ACAD_REACTORS
330
1A
102
}
330
1A
100
AcDbPlotSettings
  1

  2
None
  4

  6

 40
0.0
 41
0.0
 42
0.0
 43
0.0
 44
0.0
 45
0.0
 46
0.0
 47
0.0
 48
0.0
 49
0.0
140
0.0
141
0.0
142
1.0
143
1.0
 70
   688
 72
     0
 73
     0
 74
     5
  7

 75
    16
147
1.0
148
0.0
149
0.0
100
AcDbLayout
  1
ﾚｲｱｳﾄ1
 70
     1
 71
     1
 10
0.0
 20
0.0
 11
12.0
 21
9.0
 12
0.0
 22
0.0
 32
0.0
 14
0.0
 24
0.0
 34
0.0
 15
0.0
 25
0.0
 35
0.0
146
0.0
 13
0.0
 23
0.0
 33
0.0
 16
1.0
 26
0.0
 36
0.0
 17
0.0
 27
1.0
 37
0.0
 76
     0
330
50
  0
MLINESTYLE
  5
18
102
{ACAD_REACTORS
330
17
102
}
330
17
100
AcDbMlineStyle
  2
STANDARD
 70
     0
  3

 62
   256
 51
90.0
 52
90.0
 71
     2
 49
0.5
 62
   256
  6
BYLAYER
 49
-0.5
 62
   256
  6
BYLAYER
  0
ACDBPLACEHOLDER
  5
F
102
{ACAD_REACTORS
330
E
102
}
330
E
  0
ENDSEC
  0
EOF
