  0
SECTION
  2
HEADER
  9
$ACADVER
  1
AC1015
  9
$ACADMAINTVER
 70
    10
  9
$DWGCODEPAGE
  3
ANSI_932
  9
$INSBASE
 10
0.0
 20
0.0
 30
0.0
  9
$EXTMIN
 10
434.8969524113396
 20
265.8757098069866
 30
0.0
  9
$EXTMAX
 10
724.8969524113396
 20
418.3609911812245
 30
0.0
  9
$LIMMIN
 10
0.0
 20
0.0
  9
$LIMMAX
 10
420.0
 20
297.0
  9
$ORTHOMODE
 70
     0
  9
$REGENMODE
 70
     1
  9
$FILLMODE
 70
     1
  9
$QTEXTMODE
 70
     0
  9
$MIRRTEXT
 70
     1
  9
$LTSCALE
 40
1.0
  9
$ATTMODE
 70
     1
  9
$TEXTSIZE
 40
2.5
  9
$TRACEWID
 40
1.0
  9
$TEXTSTYLE
  7
Standard
  9
$CLAYER
  8
0
  9
$CELTYPE
  6
ByLayer
  9
$CECOLOR
 62
   256
  9
$CELTSCALE
 40
1.0
  9
$DISPSILH
 70
     0
  9
$DIMSCALE
 40
1.0
  9
$DIMASZ
 40
2.5
  9
$DIMEXO
 40
0.625
  9
$DIMDLI
 40
3.75
  9
$DIMRND
 40
0.0
  9
$DIMDLE
 40
0.0
  9
$DIMEXE
 40
1.25
  9
$DIMTP
 40
0.0
  9
$DIMTM
 40
0.0
  9
$DIMTXT
 40
2.5
  9
$DIMCEN
 40
2.5
  9
$DIMTSZ
 40
0.0
  9
$DIMTOL
 70
     0
  9
$DIMLIM
 70
     0
  9
$DIMTIH
 70
     0
  9
$DIMTOH
 70
     0
  9
$DIMSE1
 70
     0
  9
$DIMSE2
 70
     0
  9
$DIMTAD
 70
     1
  9
$DIMZIN
 70
     8
  9
$DIMBLK
  1

  9
$DIMASO
 70
     1
  9
$DIMSHO
 70
     1
  9
$DIMPOST
  1

  9
$DIMAPOST
  1

  9
$DIMALT
 70
     0
  9
$DIMALTD
 70
     3
  9
$DIMALTF
 40
0.03937007874016
  9
$DIMLFAC
 40
1.0
  9
$DIMTOFL
 70
     1
  9
$DIMTVP
 40
0.0
  9
$DIMTIX
 70
     0
  9
$DIMSOXD
 70
     0
  9
$DIMSAH
 70
     0
  9
$DIMBLK1
  1

  9
$DIMBLK2
  1

  9
$DIMSTYLE
  2
ISO-25
  9
$DIMCLRD
 70
     0
  9
$DIMCLRE
 70
     0
  9
$DIMCLRT
 70
     0
  9
$DIMTFAC
 40
1.0
  9
$DIMGAP
 40
0.625
  9
$DIMJUST
 70
     0
  9
$DIMSD1
 70
     0
  9
$DIMSD2
 70
     0
  9
$DIMTOLJ
 70
     0
  9
$DIMTZIN
 70
     8
  9
$DIMALTZ
 70
     0
  9
$DIMALTTZ
 70
     0
  9
$DIMUPT
 70
     0
  9
$DIMDEC
 70
     2
  9
$DIMTDEC
 70
     2
  9
$DIMALTU
 70
     2
  9
$DIMALTTD
 70
     3
  9
$DIMTXSTY
  7
Standard
  9
$DIMAUNIT
 70
     0
  9
$DIMADEC
 70
     0
  9
$DIMALTRND
 40
0.0
  9
$DIMAZIN
 70
     0
  9
$DIMDSEP
 70
    44
  9
$DIMATFIT
 70
     3
  9
$DIMFRAC
 70
     0
  9
$DIMLDRBLK
  1

  9
$DIMLUNIT
 70
     2
  9
$DIMLWD
 70
    -2
  9
$DIMLWE
 70
    -2
  9
$DIMTMOVE
 70
     0
  9
$LUNITS
 70
     2
  9
$LUPREC
 70
     4
  9
$SKETCHINC
 40
1.0
  9
$FILLETRAD
 40
10.0
  9
$AUNITS
 70
     0
  9
$AUPREC
 70
     0
  9
$MENU
  1
.
  9
$ELEVATION
 40
0.0
  9
$PELEVATION
 40
0.0
  9
$THICKNESS
 40
0.0
  9
$LIMCHECK
 70
     0
  9
$CHAMFERA
 40
10.0
  9
$CHAMFERB
 40
10.0
  9
$CHAMFERC
 40
20.0
  9
$CHAMFERD
 40
0.0
  9
$SKPOLY
 70
     0
  9
$TDCREATE
 40
2456499.789724953
  9
$TDUCREATE
 40
2456499.414724953
  9
$TDUPDATE
 40
2456500.612208264
  9
$TDUUPDATE
 40
2456500.237208263
  9
$TDINDWG
 40
0.0009579745
  9
$TDUSRTIMER
 40
0.0009576273
  9
$USRTIMER
 70
     1
  9
$ANGBASE
 50
0.0
  9
$ANGDIR
 70
     0
  9
$PDMODE
 70
     0
  9
$PDSIZE
 40
0.0
  9
$PLINEWID
 40
0.0
  9
$SPLFRAME
 70
     0
  9
$SPLINETYPE
 70
     6
  9
$SPLINESEGS
 70
     8
  9
$HANDSEED
  5
731
  9
$SURFTAB1
 70
     6
  9
$SURFTAB2
 70
     6
  9
$SURFTYPE
 70
     6
  9
$SURFU
 70
     6
  9
$SURFV
 70
     6
  9
$UCSBASE
  2

  9
$UCSNAME
  2

  9
$UCSORG
 10
0.0
 20
0.0
 30
0.0
  9
$UCSXDIR
 10
1.0
 20
0.0
 30
0.0
  9
$UCSYDIR
 10
0.0
 20
1.0
 30
0.0
  9
$UCSORTHOREF
  2

  9
$UCSORTHOVIEW
 70
     0
  9
$UCSORGTOP
 10
0.0
 20
0.0
 30
0.0
  9
$UCSORGBOTTOM
 10
0.0
 20
0.0
 30
0.0
  9
$UCSORGLEFT
 10
0.0
 20
0.0
 30
0.0
  9
$UCSORGRIGHT
 10
0.0
 20
0.0
 30
0.0
  9
$UCSORGFRONT
 10
0.0
 20
0.0
 30
0.0
  9
$UCSORGBACK
 10
0.0
 20
0.0
 30
0.0
  9
$PUCSBASE
  2

  9
$PUCSNAME
  2

  9
$PUCSORG
 10
0.0
 20
0.0
 30
0.0
  9
$PUCSXDIR
 10
1.0
 20
0.0
 30
0.0
  9
$PUCSYDIR
 10
0.0
 20
1.0
 30
0.0
  9
$PUCSORTHOREF
  2

  9
$PUCSORTHOVIEW
 70
     0
  9
$PUCSORGTOP
 10
0.0
 20
0.0
 30
0.0
  9
$PUCSORGBOTTOM
 10
0.0
 20
0.0
 30
0.0
  9
$PUCSORGLEFT
 10
0.0
 20
0.0
 30
0.0
  9
$PUCSORGRIGHT
 10
0.0
 20
0.0
 30
0.0
  9
$PUCSORGFRONT
 10
0.0
 20
0.0
 30
0.0
  9
$PUCSORGBACK
 10
0.0
 20
0.0
 30
0.0
  9
$USERI1
 70
     0
  9
$USERI2
 70
     0
  9
$USERI3
 70
     0
  9
$USERI4
 70
     0
  9
$USERI5
 70
     0
  9
$USERR1
 40
0.0
  9
$USERR2
 40
0.0
  9
$USERR3
 40
0.0
  9
$USERR4
 40
0.0
  9
$USERR5
 40
0.0
  9
$WORLDVIEW
 70
     1
  9
$SHADEDGE
 70
     3
  9
$SHADEDIF
 70
    70
  9
$TILEMODE
 70
     1
  9
$MAXACTVP
 70
    64
  9
$PINSBASE
 10
0.0
 20
0.0
 30
0.0
  9
$PLIMCHECK
 70
     0
  9
$PEXTMIN
 10
0.0
 20
0.0
 30
0.0
  9
$PEXTMAX
 10
0.0
 20
0.0
 30
0.0
  9
$PLIMMIN
 10
0.0
 20
0.0
  9
$PLIMMAX
 10
12.0
 20
9.0
  9
$UNITMODE
 70
     0
  9
$VISRETAIN
 70
     1
  9
$PLINEGEN
 70
     0
  9
$PSLTSCALE
 70
     1
  9
$TREEDEPTH
 70
  3020
  9
$CMLSTYLE
  2
Standard
  9
$CMLJUST
 70
     0
  9
$CMLSCALE
 40
20.0
  9
$PROXYGRAPHICS
 70
     1
  9
$MEASUREMENT
 70
     1
  9
$CELWEIGHT
370
    -1
  9
$ENDCAPS
280
     0
  9
$JOINSTYLE
280
     0
  9
$LWDISPLAY
290
     0
  9
$INSUNITS
 70
     4
  9
$HYPERLINKBASE
  1

  9
$STYLESHEET
  1

  9
$XEDIT
290
     1
  9
$CEPSNTYPE
380
     0
  9
$PSTYLEMODE
290
     1
  9
$FINGERPRINTGUID
  2
{FDEAD578-A652-11D2-9A35-0060089B3A3F}
  9
$VERSIONGUID
  2
{2694DE3C-2B8F-4B67-9C6E-09C56D9F795B}
  9
$EXTNAMES
290
     1
  9
$PSVPSCALE
 40
0.0
  9
$OLESTARTUP
290
     0
  0
ENDSEC
  0
SECTION
  2
CLASSES
  0
CLASS
  1
ACDBDICTIONARYWDFLT
  2
AcDbDictionaryWithDefault
  3
AutoCAD 2000
 90
        0
280
     0
281
     0
  0
CLASS
  1
ACDBPLACEHOLDER
  2
AcDbPlaceHolder
  3
AutoCAD 2000
 90
        0
280
     0
281
     0
  0
CLASS
  1
LAYOUT
  2
AcDbLayout
  3
AutoCAD 2000
 90
        0
280
     0
281
     0
  0
ENDSEC
  0
SECTION
  2
TABLES
  0
TABLE
  2
VPORT
  5
8
330
0
100
AcDbSymbolTable
 70
     2
  0
VPORT
  5
730
330
8
100
AcDbSymbolTableRecord
100
AcDbViewportTableRecord
  2
*Active
 70
     0
 10
0.0
 20
0.0
 11
1.0
 21
1.0
 12
595.0893833978784
 22
334.2386655143119
 13
0.0
 23
0.0
 14
10.0
 24
10.0
 15
10.0
 25
10.0
 16
0.0
 26
0.0
 36
1.0
 17
0.0
 27
0.0
 37
0.0
 40
194.8585654989068
 41
1.781954887218045
 42
50.0
 43
0.0
 44
0.0
 50
0.0
 51
0.0
 71
     0
 72
   100
 73
     1
 74
     3
 75
     0
 76
     0
 77
     0
 78
     0
281
     0
 65
     1
110
0.0
120
0.0
130
0.0
111
1.0
121
0.0
131
0.0
112
0.0
122
1.0
132
0.0
 79
     0
146
0.0
  0
ENDTAB
  0
TABLE
  2
LTYPE
  5
5
330
0
100
AcDbSymbolTable
 70
     2
  0
LTYPE
  5
14
330
5
100
AcDbSymbolTableRecord
100
AcDbLinetypeTableRecord
  2
ByBlock
 70
     0
  3

 72
    65
 73
     0
 40
0.0
  0
LTYPE
  5
15
330
5
100
AcDbSymbolTableRecord
100
AcDbLinetypeTableRecord
  2
ByLayer
 70
     0
  3

 72
    65
 73
     0
 40
0.0
  0
LTYPE
  5
16
330
5
100
AcDbSymbolTableRecord
100
AcDbLinetypeTableRecord
  2
Continuous
 70
     0
  3
Solid line
 72
    65
 73
     0
 40
0.0
  0
LTYPE
  5
67
330
5
100
AcDbSymbolTableRecord
100
AcDbLinetypeTableRecord
  2
DASHED
 70
     0
  3
DASHED
 72
    65
 73
     2
 40
0.75
 49
0.5
 74
     0
 49
-0.25
 74
     0
  0
ENDTAB
  0
TABLE
  2
LAYER
  5
2
330
0
100
AcDbSymbolTable
 70
     1
  0
LAYER
  5
10
330
2
100
AcDbSymbolTableRecord
100
AcDbLayerTableRecord
  2
0
 70
     0
 62
     7
  6
Continuous
370
    -3
390
F
  0
ENDTAB
  0
TABLE
  2
STYLE
  5
3
330
0
100
AcDbSymbolTable
 70
     2
  0
STYLE
  5
11
330
3
100
AcDbSymbolTableRecord
100
AcDbTextStyleTableRecord
  2
Standard
 70
     0
 40
0.0
 41
1.0
 50
0.0
 71
     0
 42
2.5
  3
txt
  4

  0
STYLE
  5
68
330
3
100
AcDbSymbolTableRecord
100
AcDbTextStyleTableRecord
  2
_TCW_TXTSTY_1
 70
     0
 40
0.0
 41
1.0
 50
0.0
 71
     0
 42
0.6875
  3
MS PGothic.ttf
  4

1001
ACAD
1000
ＭＳ Ｐゴシック
1071
    32802
  0
ENDTAB
  0
TABLE
  2
VIEW
  5
6
330
0
100
AcDbSymbolTable
 70
     0
  0
ENDTAB
  0
TABLE
  2
UCS
  5
7
330
0
100
AcDbSymbolTable
 70
     0
  0
ENDTAB
  0
TABLE
  2
APPID
  5
9
330
0
100
AcDbSymbolTable
 70
     2
  0
APPID
  5
12
330
9
100
AcDbSymbolTableRecord
100
AcDbRegAppTableRecord
  2
ACAD
 70
     0
  0
APPID
  5
6A
330
9
100
AcDbSymbolTableRecord
100
AcDbRegAppTableRecord
  2
TCAD
 70
     0
  0
ENDTAB
  0
TABLE
  2
DIMSTYLE
  5
A
330
0
100
AcDbSymbolTable
 70
     2
100
AcDbDimStyleTable
 71
     1
340
27
  0
DIMSTYLE
105
27
330
A
100
AcDbSymbolTableRecord
100
AcDbDimStyleTableRecord
  2
ISO-25
 70
     0
 41
2.5
 42
0.625
 43
3.75
 44
1.25
 73
     0
 74
     0
 77
     1
 78
     8
140
2.5
141
2.5
143
0.03937007874016
147
0.625
171
     3
172
     1
271
     2
272
     2
274
     3
278
    44
283
     0
284
     8
340
11
  0
DIMSTYLE
105
69
330
A
100
AcDbSymbolTableRecord
100
AcDbDimStyleTableRecord
  2
STANDARD
 70
     0
 41
3.0
 42
1.0
 43
7.5
 44
2.0
 45
0.1
 73
     0
 74
     0
 77
     1
 78
     8
140
2.439393939393998
143
1.0
147
0.5
148
0.01
176
     7
177
     7
178
     7
179
     2
271
     2
272
     8
274
     8
286
     8
340
68
341
61
342
61
  0
ENDTAB
  0
TABLE
  2
BLOCK_RECORD
  5
1
330
0
100
AcDbSymbolTable
 70
     2
  0
BLOCK_RECORD
  5
1F
330
1
100
AcDbSymbolTableRecord
100
AcDbBlockTableRecord
  2
*Model_Space
340
22
  0
BLOCK_RECORD
  5
50
330
1
100
AcDbSymbolTableRecord
100
AcDbBlockTableRecord
  2
*Paper_Space
340
51
  0
BLOCK_RECORD
  5
55
330
1
100
AcDbSymbolTableRecord
100
AcDbBlockTableRecord
  2
*Paper_Space0
340
56
  0
BLOCK_RECORD
  5
61
330
1
100
AcDbSymbolTableRecord
100
AcDbBlockTableRecord
  2
_OPEN
340
0
  0
ENDTAB
  0
ENDSEC
  0
SECTION
  2
BLOCKS
  0
BLOCK
  5
20
330
1F
100
AcDbEntity
  8
0
100
AcDbBlockBegin
  2
*Model_Space
 70
     0
 10
0.0
 20
0.0
 30
0.0
  3
*Model_Space
  1

  0
ENDBLK
  5
21
330
1F
100
AcDbEntity
  8
0
100
AcDbBlockEnd
  0
BLOCK
  5
52
330
50
100
AcDbEntity
 67
     1
  8
0
100
AcDbBlockBegin
  2
*Paper_Space
 70
     0
 10
0.0
 20
0.0
 30
0.0
  3
*Paper_Space
  1

  0
ENDBLK
  5
53
330
50
100
AcDbEntity
 67
     1
  8
0
100
AcDbBlockEnd
  0
BLOCK
  5
57
330
55
100
AcDbEntity
  8
0
100
AcDbBlockBegin
  2
*Paper_Space0
 70
     0
 10
0.0
 20
0.0
 30
0.0
  3
*Paper_Space0
  1

  0
ENDBLK
  5
58
330
55
100
AcDbEntity
  8
0
100
AcDbBlockEnd
  0
BLOCK
  5
65
330
61
100
AcDbEntity
  8
0
100
AcDbBlockBegin
  2
_OPEN
 70
     0
 10
0.0
 20
0.0
 30
0.0
  3
_OPEN
  1

  0
LINE
  5
62
330
61
100
AcDbEntity
  8
0
  6
ByBlock
 62
     0
100
AcDbLine
 10
-1.0
 20
0.166667
 30
0.0
 11
0.0
 21
0.0
 31
0.0
  0
LINE
  5
63
330
61
100
AcDbEntity
  8
0
  6
ByBlock
 62
     0
100
AcDbLine
 10
0.0
 20
0.0
 30
0.0
 11
-1.0
 21
-0.166667
 31
0.0
  0
LINE
  5
64
330
61
100
AcDbEntity
  8
0
  6
ByBlock
 62
     0
100
AcDbLine
 10
0.0
 20
0.0
 30
0.0
 11
-1.0
 21
0.0
 31
0.0
  0
ENDBLK
  5
66
330
61
100
AcDbEntity
  8
0
100
AcDbBlockEnd
  0
ENDSEC
  0
SECTION
  2
ENTITIES
  0
LINE
  5
3CD
330
1F
100
AcDbEntity
  8
0
  6
Continuous
 62
     7
100
AcDbLine
 10
568.8969524113396
 20
403.1183504941057
 30
0.0
 11
598.3969524113396
 21
403.1183504941057
 31
0.0
  0
LINE
  5
3CE
330
1F
100
AcDbEntity
  8
0
  6
Continuous
 62
     7
100
AcDbLine
 10
578.8969524113396
 20
389.1183504941057
 30
0.0
 11
598.3969524113396
 21
389.1183504941057
 31
0.0
  0
LINE
  5
3CF
330
1F
100
AcDbEntity
  8
0
  6
Continuous
 62
     7
100
AcDbLine
 10
568.8969524113396
 20
281.1183504941057
 30
0.0
 11
598.3969524113396
 21
281.1183504941057
 31
0.0
  0
LINE
  5
3D0
330
1F
100
AcDbEntity
  8
0
  6
Continuous
 62
     7
100
AcDbLine
 10
578.8969524113396
 20
297.6183504941057
 30
0.0
 11
598.3969524113396
 21
297.6183504941057
 31
0.0
  0
LINE
  5
3D1
330
1F
100
AcDbEntity
  8
0
  6
Continuous
 62
     7
100
AcDbLine
 10
434.8969524113396
 20
404.6183504941057
 30
0.0
 11
598.8969524113396
 21
404.6183504941057
 31
0.0
  0
LINE
  5
3D2
330
1F
100
AcDbEntity
  8
0
  6
Continuous
 62
     7
100
AcDbLine
 10
434.8969524113396
 20
279.6183504941057
 30
0.0
 11
598.8969524113396
 21
279.6183504941057
 31
0.0
  0
LINE
  5
3D3
330
1F
100
AcDbEntity
  8
0
  6
Continuous
 62
     7
100
AcDbLine
 10
568.8969524113396
 20
280.8183504941057
 30
0.0
 11
598.6969524113394
 21
280.8183504941057
 31
0.0
  0
LINE
  5
3D4
330
1F
100
AcDbEntity
  8
0
  6
Continuous
 62
     7
100
AcDbLine
 10
568.8969524113396
 20
403.4183504941055
 30
0.0
 11
598.6969524113394
 21
403.4183504941055
 31
0.0
  0
LINE
  5
3D5
330
1F
100
AcDbEntity
  8
0
  6
Continuous
 62
     7
100
AcDbLine
 10
591.8969524113395
 20
386.5683504940166
 30
0.0
 11
583.8969524113394
 21
386.5683504939616
 31
0.0
  0
LINE
  5
3D6
330
1F
100
AcDbEntity
  8
0
  6
Continuous
 62
     7
100
AcDbLine
 10
591.8969524113395
 20
380.2683504940166
 30
0.0
 11
583.8969524113394
 21
380.2683504939616
 31
0.0
  0
LINE
  5
3D7
330
1F
100
AcDbEntity
  8
0
  6
Continuous
 62
     7
100
AcDbLine
 10
583.8969524113394
 20
378.9483504939366
 30
0.0
 11
591.8969524113395
 21
378.9483504939807
 31
0.0
  0
LINE
  5
3D8
330
1F
100
AcDbEntity
  8
0
  6
Continuous
 62
     7
100
AcDbLine
 10
591.8969524113395
 20
372.6483504939837
 30
0.0
 11
583.8969524113394
 21
372.6483504939626
 31
0.0
  0
LINE
  5
3D9
330
1F
100
AcDbEntity
  8
0
  6
Continuous
 62
     7
100
AcDbLine
 10
583.8969524113394
 20
371.3283504939366
 30
0.0
 11
591.8969524113395
 21
371.3283504939806
 31
0.0
  0
LINE
  5
3DA
330
1F
100
AcDbEntity
  8
0
  6
Continuous
 62
     7
100
AcDbLine
 10
591.8969524113395
 20
365.0283504940176
 30
0.0
 11
583.8969524113394
 21
365.0283504939706
 31
0.0
  0
LINE
  5
3DB
330
1F
100
AcDbEntity
  8
0
  6
Continuous
 62
     7
100
AcDbLine
 10
583.8969524113394
 20
363.7083504939627
 30
0.0
 11
591.8969524113395
 21
363.7083504939837
 31
0.0
  0
LINE
  5
3DC
330
1F
100
AcDbEntity
  8
0
  6
Continuous
 62
     7
100
AcDbLine
 10
591.8969524113395
 20
357.4083504939807
 30
0.0
 11
583.8969524113394
 21
357.4083504939366
 31
0.0
  0
LINE
  5
3DD
330
1F
100
AcDbEntity
  8
0
  6
Continuous
 62
     7
100
AcDbLine
 10
583.8969524113394
 20
356.0883504939616
 30
0.0
 11
591.8969524113395
 21
356.0883504940166
 31
0.0
  0
LINE
  5
3DE
330
1F
100
AcDbEntity
  8
0
  6
Continuous
 62
     7
100
AcDbLine
 10
591.8969524113395
 20
349.7883504939836
 30
0.0
 11
583.8969524113394
 21
349.7883504939626
 31
0.0
  0
LINE
  5
3DF
330
1F
100
AcDbEntity
  8
0
  6
Continuous
 62
     7
100
AcDbLine
 10
583.8969524113394
 20
348.4683504939616
 30
0.0
 11
591.8969524113395
 21
348.4683504940166
 31
0.0
  0
LINE
  5
3E0
330
1F
100
AcDbEntity
  8
0
  6
Continuous
 62
     7
100
AcDbLine
 10
591.8969524113395
 20
342.1683504940126
 30
0.0
 11
583.8969524113394
 21
342.1683504939356
 31
0.0
  0
LINE
  5
3E1
330
1F
100
AcDbEntity
  8
0
  6
Continuous
 62
     7
100
AcDbLine
 10
583.8969524113394
 20
340.8483504939366
 30
0.0
 11
591.8969524113395
 21
340.8483504939806
 31
0.0
  0
LINE
  5
3E2
330
1F
100
AcDbEntity
  8
0
  6
Continuous
 62
     7
100
AcDbLine
 10
591.8969524113395
 20
334.5483504939806
 30
0.0
 11
583.8969524113394
 21
334.5483504939366
 31
0.0
  0
LINE
  5
3E3
330
1F
100
AcDbEntity
  8
0
  6
Continuous
 62
     7
100
AcDbLine
 10
583.8969524113394
 20
333.2283504939616
 30
0.0
 11
591.8969524113395
 21
333.2283504940166
 31
0.0
  0
LINE
  5
3E4
330
1F
100
AcDbEntity
  8
0
  6
Continuous
 62
     7
100
AcDbLine
 10
591.8969524113395
 20
326.9283504940166
 30
0.0
 11
583.8969524113394
 21
326.9283504939616
 31
0.0
  0
LINE
  5
3E5
330
1F
100
AcDbEntity
  8
0
  6
Continuous
 62
     7
100
AcDbLine
 10
583.8969524113394
 20
325.6083504939366
 30
0.0
 11
591.8969524113395
 21
325.6083504939806
 31
0.0
  0
LINE
  5
3E6
330
1F
100
AcDbEntity
  8
0
  6
Continuous
 62
     7
100
AcDbLine
 10
591.8969524113395
 20
319.3083504940166
 30
0.0
 11
583.8969524113394
 21
319.3083504939616
 31
0.0
  0
LINE
  5
3E7
330
1F
100
AcDbEntity
  8
0
  6
Continuous
 62
     7
100
AcDbLine
 10
583.8969524113394
 20
317.9883504939367
 30
0.0
 11
591.8969524113395
 21
317.9883504939806
 31
0.0
  0
LINE
  5
3E8
330
1F
100
AcDbEntity
  8
0
  6
Continuous
 62
     7
100
AcDbLine
 10
591.8969524113395
 20
311.6883504940166
 30
0.0
 11
583.8969524113394
 21
311.6883504939616
 31
0.0
  0
LINE
  5
3E9
330
1F
100
AcDbEntity
  8
0
  6
Continuous
 62
     7
100
AcDbLine
 10
583.8969524113394
 20
302.7483504939616
 30
0.0
 11
591.8969524113395
 21
302.7483504940166
 31
0.0
  0
LINE
  5
3EA
330
1F
100
AcDbEntity
  8
0
  6
Continuous
 62
     7
100
AcDbLine
 10
597.8969524113396
 20
387.9283504940417
 30
0.0
 11
578.8969524113396
 21
387.9283504940417
 31
0.0
  0
LINE
  5
3EB
330
1F
100
AcDbEntity
  8
0
  6
Continuous
 62
     7
100
AcDbLine
 10
578.8969524113396
 20
299.1183504941055
 30
0.0
 11
597.8969524113396
 21
299.1183504941055
 31
0.0
  0
LINE
  5
3EC
330
1F
100
AcDbEntity
  8
0
  6
Continuous
 62
     7
100
AcDbLine
 10
434.8969524113396
 20
417.1183504941057
 30
0.0
 11
434.8969524113396
 21
267.1183504941057
 31
0.0
  0
LINE
  5
3ED
330
1F
100
AcDbEntity
  8
0
  6
Continuous
 62
     7
100
AcDbLine
 10
436.0969524113397
 20
279.6183504941057
 30
0.0
 11
436.0969524113397
 21
267.1183504941057
 31
0.0
  0
LINE
  5
3EE
330
1F
100
AcDbEntity
  8
0
  6
Continuous
 62
     7
100
AcDbLine
 10
434.8969524113396
 20
267.1183504941057
 30
0.0
 11
436.0969524113397
 21
267.1183504941057
 31
0.0
  0
LINE
  5
3EF
330
1F
100
AcDbEntity
  8
0
  6
Continuous
 62
     7
100
AcDbLine
 10
436.0969524113397
 20
417.1183504941057
 30
0.0
 11
436.0969524113397
 21
404.6183504941057
 31
0.0
  0
LINE
  5
3F0
330
1F
100
AcDbEntity
  8
0
  6
Continuous
 62
     7
100
AcDbLine
 10
434.8969524113396
 20
417.1183504941057
 30
0.0
 11
436.0969524113397
 21
417.1183504941057
 31
0.0
  0
CIRCLE
  5
3F1
330
1F
100
AcDbEntity
  8
0
  6
Continuous
 62
     7
370
     0
100
AcDbCircle
 10
459.8969524113392
 20
398.618350672919
 30
0.0
 40
4.500000000000428
  0
CIRCLE
  5
3F2
330
1F
100
AcDbEntity
  8
0
  6
Continuous
 62
     7
370
     0
100
AcDbCircle
 10
459.8969524113392
 20
398.618350672919
 30
0.0
 40
3.500000000000428
  0
CIRCLE
  5
3F3
330
1F
100
AcDbEntity
  8
0
  6
Continuous
 62
     7
370
     0
100
AcDbCircle
 10
459.8969524113392
 20
398.618350672919
 30
0.0
 40
2.750000000000444
  0
LINE
  5
3F4
330
1F
100
AcDbEntity
  8
0
  6
Continuous
 62
     7
100
AcDbLine
 10
460.2969524113396
 20
399.0183506729194
 30
0.0
 11
462.1111113938876
 21
399.0183506729194
 31
0.0
  0
LINE
  5
3F5
330
1F
100
AcDbEntity
  8
0
  6
Continuous
 62
     7
100
AcDbLine
 10
460.2969524113396
 20
398.2183506729196
 30
0.0
 11
462.1111113938876
 21
398.2183506729196
 31
0.0
  0
ARC
  5
3F6
330
1F
100
AcDbEntity
  8
0
  6
Continuous
 62
     7
100
AcDbCircle
 10
459.8969524113388
 20
398.6183506729151
 30
0.0
 40
2.250000000003922
100
AcDbArc
 50
79.75965167881532
 51
100.2403480326994
  0
ARC
  5
3F7
330
1F
100
AcDbEntity
  8
0
  6
Continuous
 62
     7
100
AcDbCircle
 10
459.8969524113418
 20
398.6183506729232
 30
0.0
 40
2.250000000003915
100
AcDbArc
 50
259.7596519672213
 51
280.2403483211081
  0
ARC
  5
3F8
330
1F
100
AcDbEntity
  8
0
  6
Continuous
 62
     7
100
AcDbCircle
 10
459.896952411339
 20
398.6183506729201
 30
0.0
 40
2.249999999999166
100
AcDbArc
 50
169.7596526505293
 51
190.2403483212044
  0
LINE
  5
3F9
330
1F
100
AcDbEntity
  8
0
  6
Continuous
 62
     7
100
AcDbLine
 10
459.4969524113396
 20
400.8325096554676
 30
0.0
 11
459.4969524113396
 21
399.0183506729194
 31
0.0
  0
LINE
  5
3FA
330
1F
100
AcDbEntity
  8
0
  6
Continuous
 62
     7
100
AcDbLine
 10
459.4969524113396
 20
398.2183506729196
 30
0.0
 11
459.4969524113396
 21
396.4041916903705
 31
0.0
  0
LINE
  5
3FB
330
1F
100
AcDbEntity
  8
0
  6
Continuous
 62
     7
100
AcDbLine
 10
460.2969524113396
 20
400.8325096554676
 30
0.0
 11
460.2969524113396
 21
399.0183506729194
 31
0.0
  0
LINE
  5
3FC
330
1F
100
AcDbEntity
  8
0
  6
Continuous
 62
     7
100
AcDbLine
 10
460.2969524113396
 20
398.2183506729196
 30
0.0
 11
460.2969524113396
 21
396.4041916903705
 31
0.0
  0
LINE
  5
3FD
330
1F
100
AcDbEntity
  8
0
  6
Continuous
 62
     7
100
AcDbLine
 10
457.6827934287917
 20
399.0183506729194
 30
0.0
 11
459.4969524113396
 21
399.0183506729194
 31
0.0
  0
LINE
  5
3FE
330
1F
100
AcDbEntity
  8
0
  6
Continuous
 62
     7
100
AcDbLine
 10
457.6827934287917
 20
398.2183506729196
 30
0.0
 11
459.4969524113396
 21
398.2183506729196
 31
0.0
  0
ARC
  5
3FF
330
1F
100
AcDbEntity
  8
0
  6
Continuous
 62
     7
100
AcDbCircle
 10
459.8969524113369
 20
398.6183506729196
 30
0.0
 40
2.250000000002184
100
AcDbArc
 50
349.7596519104451
 51
10.24034832117129
  0
LINE
  5
400
330
1F
100
AcDbEntity
  8
0
  6
Continuous
 62
     7
100
AcDbLine
 10
568.8969524113396
 20
403.1183504941057
 30
0.0
 11
568.8969524113396
 21
279.6183504941057
 31
0.0
  0
LINE
  5
401
330
1F
100
AcDbEntity
  8
0
  6
Continuous
 62
     7
100
AcDbLine
 10
578.8969524113396
 20
389.1183504941057
 30
0.0
 11
578.8969524113396
 21
297.6183504941057
 31
0.0
  0
LINE
  5
402
330
1F
100
AcDbEntity
  8
0
  6
Continuous
 62
     7
100
AcDbLine
 10
568.8969524113396
 20
361.2949633831916
 30
0.0
 11
568.8969524113396
 21
404.6183504941057
 31
0.0
  0
LINE
  5
403
330
1F
100
AcDbEntity
  8
0
  6
Continuous
 62
     7
100
AcDbLine
 10
583.8969524113394
 20
387.9283504940417
 30
0.0
 11
583.8969524113394
 21
299.1183504941055
 31
0.0
  0
CIRCLE
  5
404
330
1F
100
AcDbEntity
  8
0
  6
Continuous
 62
     7
370
     0
100
AcDbCircle
 10
482.896952411339
 20
285.6183504941051
 30
0.0
 40
4.500000000000428
  0
CIRCLE
  5
405
330
1F
100
AcDbEntity
  8
0
  6
Continuous
 62
     7
370
     0
100
AcDbCircle
 10
482.896952411339
 20
285.6183504941051
 30
0.0
 40
3.500000000000428
  0
CIRCLE
  5
406
330
1F
100
AcDbEntity
  8
0
  6
Continuous
 62
     7
370
     0
100
AcDbCircle
 10
482.896952411339
 20
285.6183504941051
 30
0.0
 40
2.750000000000444
  0
ARC
  5
407
330
1F
100
AcDbEntity
  8
0
  6
Continuous
 62
     7
100
AcDbCircle
 10
482.8969524113365
 20
285.6183504941057
 30
0.0
 40
2.250000000002446
100
AcDbArc
 50
349.7596519104481
 51
10.24034832117129
  0
ARC
  5
408
330
1F
100
AcDbEntity
  8
0
  6
Continuous
 62
     7
100
AcDbCircle
 10
482.8969524113388
 20
285.6183504941061
 30
0.0
 40
2.249999999998895
100
AcDbArc
 50
169.7596526505298
 51
190.2403483212044
  0
LINE
  5
409
330
1F
100
AcDbEntity
  8
0
  6
Continuous
 62
     7
100
AcDbLine
 10
483.2969524113394
 20
285.2183504941056
 30
0.0
 11
485.1111113938876
 21
285.2183504941056
 31
0.0
  0
ARC
  5
40A
330
1F
100
AcDbEntity
  8
0
  6
Continuous
 62
     7
100
AcDbCircle
 10
482.8969524113388
 20
285.61835049411
 30
0.0
 40
2.250000000003909
100
AcDbArc
 50
259.7596519672973
 51
280.2403483211847
  0
LINE
  5
40B
330
1F
100
AcDbEntity
  8
0
  6
Continuous
 62
     7
100
AcDbLine
 10
482.4969524113395
 20
285.2183504941056
 30
0.0
 11
482.4969524113395
 21
283.4041915115576
 31
0.0
  0
LINE
  5
40C
330
1F
100
AcDbEntity
  8
0
  6
Continuous
 62
     7
100
AcDbLine
 10
483.2969524113394
 20
285.2183504941056
 30
0.0
 11
483.2969524113394
 21
283.4041915115576
 31
0.0
  0
LINE
  5
40D
330
1F
100
AcDbEntity
  8
0
  6
Continuous
 62
     7
100
AcDbLine
 10
480.6827934287915
 20
285.2183504941056
 30
0.0
 11
482.4969524113395
 21
285.2183504941056
 31
0.0
  0
LINE
  5
40E
330
1F
100
AcDbEntity
  8
0
  6
Continuous
 62
     7
100
AcDbLine
 10
483.2969524113394
 20
286.0183504941056
 30
0.0
 11
485.1111113938876
 21
286.0183504941056
 31
0.0
  0
ARC
  5
40F
330
1F
100
AcDbEntity
  8
0
  6
Continuous
 62
     7
100
AcDbCircle
 10
482.8969524113388
 20
285.6183504941014
 30
0.0
 40
2.250000000003908
100
AcDbArc
 50
79.75965167881532
 51
100.2403480326994
  0
LINE
  5
410
330
1F
100
AcDbEntity
  8
0
  6
Continuous
 62
     7
100
AcDbLine
 10
482.4969524113395
 20
287.8325094766537
 30
0.0
 11
482.4969524113395
 21
286.0183504941056
 31
0.0
  0
LINE
  5
411
330
1F
100
AcDbEntity
  8
0
  6
Continuous
 62
     7
100
AcDbLine
 10
483.2969524113394
 20
287.8325094766537
 30
0.0
 11
483.2969524113394
 21
286.0183504941056
 31
0.0
  0
LINE
  5
412
330
1F
100
AcDbEntity
  8
0
  6
Continuous
 62
     7
100
AcDbLine
 10
480.6827934287915
 20
286.0183504941056
 30
0.0
 11
482.4969524113395
 21
286.0183504941056
 31
0.0
  0
LINE
  5
413
330
1F
100
AcDbEntity
  8
0
  6
Continuous
 62
     7
100
AcDbLine
 10
587.3969524113396
 20
315.8383504939216
 30
0.0
 11
587.3969524113396
 21
313.8383504939216
 31
0.0
  0
LINE
  5
414
330
1F
100
AcDbEntity
  8
0
  6
Continuous
 62
     7
100
AcDbLine
 10
584.8969524113396
 20
317.9883504939426
 30
0.0
 11
584.8969524113396
 21
311.6883504939687
 31
0.0
  0
LINE
  5
415
330
1F
100
AcDbEntity
  8
0
  6
DASHED
 62
     4
 48
3.0
100
AcDbLine
 10
534.3946376556336
 20
293.2390382268386
 30
0.0
 11
534.3946376556336
 21
285.6790382268696
 31
0.0
  0
LINE
  5
416
330
1F
100
AcDbEntity
  8
0
  6
DASHED
 62
     4
 48
4.0
100
AcDbLine
 10
533.8969524113394
 20
298.1183504953696
 30
0.0
 11
533.8969524113394
 21
281.4590391618875
 31
0.0
  0
LINE
  5
417
330
1F
100
AcDbEntity
  8
0
  6
DASHED
 62
     4
 48
4.0
100
AcDbLine
 10
530.8969524113396
 20
298.1183504953696
 30
0.0
 11
530.8969524113396
 21
281.4590391618875
 31
0.0
  0
LINE
  5
418
330
1F
100
AcDbEntity
  8
0
  6
DASHED
 62
     4
 48
4.0
100
AcDbLine
 10
530.8969524113396
 20
281.4590391618875
 30
0.0
 11
533.8969524113394
 21
281.4590391618875
 31
0.0
  0
ELLIPSE
  5
419
330
1F
100
AcDbEntity
  8
0
  6
DASHED
 62
     4
 48
3.0
100
AcDbEllipse
 10
535.3946376556335
 20
288.2590382268137
 30
0.0
 11
0.0000000000000001
 21
-1.799999999999999
 31
0.0
210
0.0
220
0.0
230
1.0
 40
0.8333333333329999
 41
0.0
 42
1.570796326794896
1001
ACAD
1000
TCW40_DEV_WIDTH
1002
{
1040
-3.0
1002
}
  0
ELLIPSE
  5
41A
330
1F
100
AcDbEntity
  8
0
  6
DASHED
 62
     4
 48
3.0
100
AcDbEllipse
 10
535.3946376556335
 20
290.6590382268136
 30
0.0
 11
0.0000000000000001
 21
-1.799999999999995
 31
0.0
210
0.0
220
0.0
230
1.0
 40
0.8333333333329997
 41
1.570796326794896
 42
3.141592653589792
1001
ACAD
1000
TCW40_DEV_WIDTH
1002
{
1040
-3.0
1002
}
  0
LINE
  5
41B
330
1F
100
AcDbEntity
  8
0
  6
DASHED
 62
     4
 48
3.0
100
AcDbLine
 10
534.3946376556336
 20
292.4590382268137
 30
0.0
 11
535.3946376556335
 21
292.4590382268137
 31
0.0
  0
LINE
  5
41C
330
1F
100
AcDbEntity
  8
0
  6
DASHED
 62
     4
 48
3.0
100
AcDbLine
 10
534.3946376556336
 20
286.4590382268136
 30
0.0
 11
535.3946376556335
 21
286.4590382268136
 31
0.0
  0
LINE
  5
41D
330
1F
100
AcDbEntity
  8
0
  6
DASHED
 62
     4
 48
3.0
100
AcDbLine
 10
533.8969524113394
 20
293.2390382268356
 30
0.0
 11
534.3946376556336
 21
293.2390382268386
 31
0.0
  0
LINE
  5
41E
330
1F
100
AcDbEntity
  8
0
  6
Continuous
 62
     4
100
AcDbLine
 10
536.8946376556334
 20
290.6590382268136
 30
0.0
 11
536.8946376556334
 21
288.2590382268137
 31
0.0
  0
LINE
  5
41F
330
1F
100
AcDbEntity
  8
0
  6
DASHED
 62
     4
 48
4.0
100
AcDbLine
 10
549.8969524113396
 20
311.4741255863876
 30
0.0
 11
549.8969524113396
 21
298.2776618275866
 31
0.0
  0
LINE
  5
420
330
1F
100
AcDbEntity
  8
0
  6
DASHED
 62
     4
 48
4.0
100
AcDbLine
 10
546.8969524113396
 20
312.7357852475057
 30
0.0
 11
546.8969524113396
 21
298.2776618275866
 31
0.0
  0
LINE
  5
421
330
1F
100
AcDbEntity
  8
0
  6
DASHED
 62
     4
 48
4.0
100
AcDbLine
 10
549.8969524113396
 20
298.2776618275866
 30
0.0
 11
546.8969524113396
 21
298.2776618275866
 31
0.0
  0
ELLIPSE
  5
422
330
1F
100
AcDbEntity
  8
0
  6
DASHED
 62
     4
 48
3.0
100
AcDbEllipse
 10
551.3946376556333
 20
303.1028066136046
 30
0.0
 11
0.0000000000000001
 21
-1.8
 31
0.0
210
0.0
220
0.0
230
1.0
 40
0.8333333333329997
 41
0.0
 42
1.570796326794896
1001
ACAD
1000
TCW40_DEV_WIDTH
1002
{
1040
-3.0
1002
}
  0
ELLIPSE
  5
423
330
1F
100
AcDbEntity
  8
0
  6
DASHED
 62
     4
 48
3.0
100
AcDbEllipse
 10
551.3946376556333
 20
305.5028066136046
 30
0.0
 11
0.0000000000000001
 21
-1.799999999999995
 31
0.0
210
0.0
220
0.0
230
1.0
 40
0.8333333333329997
 41
1.570796326794896
 42
3.141592653589792
1001
ACAD
1000
TCW40_DEV_WIDTH
1002
{
1040
-3.0
1002
}
  0
LINE
  5
424
330
1F
100
AcDbEntity
  8
0
  6
DASHED
 62
     4
 48
3.0
100
AcDbLine
 10
550.3946376556333
 20
308.0828066136296
 30
0.0
 11
550.3946376556333
 21
300.5228066136607
 31
0.0
  0
LINE
  5
425
330
1F
100
AcDbEntity
  8
0
  6
DASHED
 62
     4
 48
3.0
100
AcDbLine
 10
550.3946376556333
 20
307.3028066136046
 30
0.0
 11
551.3946376556333
 21
307.3028066136046
 31
0.0
  0
LINE
  5
426
330
1F
100
AcDbEntity
  8
0
  6
DASHED
 62
     4
 48
3.0
100
AcDbLine
 10
550.3946376556333
 20
301.3028066136046
 30
0.0
 11
551.3946376556333
 21
301.3028066136046
 31
0.0
  0
LINE
  5
427
330
1F
100
AcDbEntity
  8
0
  6
DASHED
 62
     4
 48
3.0
100
AcDbLine
 10
549.8969524113396
 20
308.0828066136266
 30
0.0
 11
550.3946376556333
 21
308.0828066136296
 31
0.0
  0
LINE
  5
428
330
1F
100
AcDbEntity
  8
0
  6
Continuous
 62
     4
100
AcDbLine
 10
552.8946376556333
 20
305.5028066136046
 30
0.0
 11
552.8946376556333
 21
303.1028066136046
 31
0.0
  0
LINE
  5
429
330
1F
100
AcDbEntity
  8
0
  6
DASHED
 62
     4
 48
4.0
100
AcDbLine
 10
563.8969524113396
 20
299.9598747090776
 30
0.0
 11
563.8969524113396
 21
283.0911708704596
 31
0.0
  0
LINE
  5
42A
330
1F
100
AcDbEntity
  8
0
  6
DASHED
 62
     4
 48
4.0
100
AcDbLine
 10
560.8969524113396
 20
299.1187682683317
 30
0.0
 11
560.8969524113396
 21
283.0911708704596
 31
0.0
  0
LINE
  5
42B
330
1F
100
AcDbEntity
  8
0
  6
DASHED
 62
     4
 48
4.0
100
AcDbLine
 10
560.8969524113396
 20
283.0911708704596
 30
0.0
 11
563.8969524113396
 21
283.0911708704596
 31
0.0
  0
ELLIPSE
  5
42C
330
1F
100
AcDbEntity
  8
0
  6
DASHED
 62
     4
 48
3.0
100
AcDbEllipse
 10
565.3946376556333
 20
288.4183495590317
 30
0.0
 11
0.0000000000000001
 21
-1.799999999999999
 31
0.0
210
0.0
220
0.0
230
1.0
 40
0.8333333333329999
 41
0.0
 42
1.570796326794896
1001
ACAD
1000
TCW40_DEV_WIDTH
1002
{
1040
-3.0
1002
}
  0
ELLIPSE
  5
42D
330
1F
100
AcDbEntity
  8
0
  6
DASHED
 62
     4
 48
3.0
100
AcDbEllipse
 10
565.3946376556333
 20
290.8183495590316
 30
0.0
 11
0.0000000000000001
 21
-1.799999999999995
 31
0.0
210
0.0
220
0.0
230
1.0
 40
0.8333333333329997
 41
1.570796326794896
 42
3.141592653589792
1001
ACAD
1000
TCW40_DEV_WIDTH
1002
{
1040
-3.0
1002
}
  0
LINE
  5
42E
330
1F
100
AcDbEntity
  8
0
  6
DASHED
 62
     4
 48
3.0
100
AcDbLine
 10
564.3946376556335
 20
293.3983495590566
 30
0.0
 11
564.3946376556335
 21
285.8383495590877
 31
0.0
  0
LINE
  5
42F
330
1F
100
AcDbEntity
  8
0
  6
DASHED
 62
     4
 48
3.0
100
AcDbLine
 10
564.3946376556335
 20
285.8383495590877
 30
0.0
 11
563.8969524113396
 21
285.8383495590836
 31
0.0
  0
LINE
  5
430
330
1F
100
AcDbEntity
  8
0
  6
DASHED
 62
     4
 48
3.0
100
AcDbLine
 10
564.3946376556335
 20
292.6183495590316
 30
0.0
 11
565.3946376556333
 21
292.6183495590316
 31
0.0
  0
LINE
  5
431
330
1F
100
AcDbEntity
  8
0
  6
DASHED
 62
     4
 48
3.0
100
AcDbLine
 10
564.3946376556335
 20
286.6183495590316
 30
0.0
 11
565.3946376556333
 21
286.6183495590316
 31
0.0
  0
LINE
  5
432
330
1F
100
AcDbEntity
  8
0
  6
DASHED
 62
     4
 48
3.0
100
AcDbLine
 10
563.8969524113396
 20
293.3983495590526
 30
0.0
 11
564.3946376556335
 21
293.3983495590566
 31
0.0
  0
LINE
  5
433
330
1F
100
AcDbEntity
  8
0
  6
Continuous
 62
     4
100
AcDbLine
 10
566.8946376556333
 20
290.8183495590316
 30
0.0
 11
566.8946376556333
 21
288.4183495590317
 31
0.0
  0
LINE
  5
434
330
1F
100
AcDbEntity
  8
0
  6
Continuous
 62
     7
100
AcDbLine
 10
584.8969524113396
 20
312.3383504939216
 30
0.0
 11
585.8969524113396
 21
312.3383504939216
 31
0.0
  0
ARC
  5
435
330
1F
100
AcDbEntity
  8
0
  6
Continuous
 62
     7
100
AcDbCircle
 10
585.8969524113391
 20
313.8383504939219
 30
0.0
 40
1.500000000000241
100
AcDbArc
 50
270.0000000000096
 51
359.9999999999901
  0
ARC
  5
436
330
1F
100
AcDbEntity
  8
0
  6
Continuous
 62
     7
100
AcDbCircle
 10
585.8969524113391
 20
344.3183504938958
 30
0.0
 40
1.500000000000244
100
AcDbArc
 50
270.0000000000096
 51
359.9999999999901
  0
LINE
  5
437
330
1F
100
AcDbEntity
  8
0
  6
Continuous
 62
     7
100
AcDbLine
 10
584.8969524113396
 20
348.4683504939166
 30
0.0
 11
584.8969524113396
 21
342.1683504939426
 31
0.0
  0
ARC
  5
438
330
1F
100
AcDbEntity
  8
0
  6
Continuous
 62
     7
100
AcDbCircle
 10
585.8969524113391
 20
329.0783504939219
 30
0.0
 40
1.500000000000244
100
AcDbArc
 50
270.0000000000096
 51
359.9999999999901
  0
LINE
  5
439
330
1F
100
AcDbEntity
  8
0
  6
Continuous
 62
     7
100
AcDbLine
 10
584.8969524113396
 20
333.2283504939427
 30
0.0
 11
584.8969524113396
 21
326.9283504939687
 31
0.0
  0
LINE
  5
43A
330
1F
100
AcDbEntity
  8
0
  6
Continuous
 62
     7
100
AcDbLine
 10
587.3969524113396
 20
323.4583504939216
 30
0.0
 11
587.3969524113396
 21
321.4583504939216
 31
0.0
  0
LINE
  5
43B
330
1F
100
AcDbEntity
  8
0
  6
Continuous
 62
     7
100
AcDbLine
 10
584.8969524113396
 20
325.6083504939426
 30
0.0
 11
584.8969524113396
 21
319.3083504939687
 31
0.0
  0
LINE
  5
43C
330
1F
100
AcDbEntity
  8
0
  6
Continuous
 62
     7
100
AcDbLine
 10
584.8969524113396
 20
317.3383504939216
 30
0.0
 11
585.8969524113396
 21
317.3383504939216
 31
0.0
  0
LINE
  5
43D
330
1F
100
AcDbEntity
  8
0
  6
Continuous
 62
     7
100
AcDbLine
 10
584.8969524113396
 20
319.9583504939216
 30
0.0
 11
585.8969524113396
 21
319.9583504939216
 31
0.0
  0
ARC
  5
43E
330
1F
100
AcDbEntity
  8
0
  6
Continuous
 62
     7
100
AcDbCircle
 10
585.8969524113391
 20
315.8383504939213
 30
0.0
 40
1.500000000000254
100
AcDbArc
 50
0.0000000000097707
 51
89.99999999999024
  0
ARC
  5
43F
330
1F
100
AcDbEntity
  8
0
  6
Continuous
 62
     7
100
AcDbCircle
 10
585.8969524113391
 20
321.4583504939219
 30
0.0
 40
1.500000000000241
100
AcDbArc
 50
270.0000000000096
 51
359.9999999999901
  0
LINE
  5
440
330
1F
100
AcDbEntity
  8
0
  6
Continuous
 62
     7
100
AcDbLine
 10
584.8969524113396
 20
324.9583504939216
 30
0.0
 11
585.8969524113396
 21
324.9583504939216
 31
0.0
  0
LINE
  5
441
330
1F
100
AcDbEntity
  8
0
  6
Continuous
 62
     7
100
AcDbLine
 10
584.8969524113396
 20
327.5783504939216
 30
0.0
 11
585.8969524113396
 21
327.5783504939216
 31
0.0
  0
ARC
  5
442
330
1F
100
AcDbEntity
  8
0
  6
Continuous
 62
     7
100
AcDbCircle
 10
585.8969524113391
 20
323.4583504939213
 30
0.0
 40
1.500000000000254
100
AcDbArc
 50
0.0000000000097707
 51
89.99999999999024
  0
ARC
  5
443
330
1F
100
AcDbEntity
  8
0
  6
Continuous
 62
     7
100
AcDbCircle
 10
585.8969524113391
 20
336.6983504938968
 30
0.0
 40
1.500000000000241
100
AcDbArc
 50
270.0000000000096
 51
359.9999999999901
  0
LINE
  5
444
330
1F
100
AcDbEntity
  8
0
  6
Continuous
 62
     7
100
AcDbLine
 10
584.8969524113396
 20
340.8483504939177
 30
0.0
 11
584.8969524113396
 21
334.5483504939436
 31
0.0
  0
LINE
  5
445
330
1F
100
AcDbEntity
  8
0
  6
Continuous
 62
     7
100
AcDbLine
 10
584.8969524113396
 20
332.5783504939217
 30
0.0
 11
585.8969524113396
 21
332.5783504939217
 31
0.0
  0
LINE
  5
446
330
1F
100
AcDbEntity
  8
0
  6
Continuous
 62
     7
100
AcDbLine
 10
584.8969524113396
 20
335.1983504938966
 30
0.0
 11
585.8969524113396
 21
335.1983504938966
 31
0.0
  0
ARC
  5
447
330
1F
100
AcDbEntity
  8
0
  6
Continuous
 62
     7
100
AcDbCircle
 10
585.8969524113391
 20
331.0783504939213
 30
0.0
 40
1.500000000000223
100
AcDbArc
 50
0.0000000000097707
 51
89.99999999999024
  0
LINE
  5
448
330
1F
100
AcDbEntity
  8
0
  6
Continuous
 62
     7
100
AcDbLine
 10
587.3969524113396
 20
331.0783504939216
 30
0.0
 11
587.3969524113396
 21
329.0783504939216
 31
0.0
  0
LINE
  5
449
330
1F
100
AcDbEntity
  8
0
  6
Continuous
 62
     7
100
AcDbLine
 10
584.8969524113396
 20
340.1983504938966
 30
0.0
 11
585.8969524113396
 21
340.1983504938966
 31
0.0
  0
LINE
  5
44A
330
1F
100
AcDbEntity
  8
0
  6
Continuous
 62
     7
100
AcDbLine
 10
584.8969524113396
 20
342.8183504938956
 30
0.0
 11
585.8969524113396
 21
342.8183504938956
 31
0.0
  0
ARC
  5
44B
330
1F
100
AcDbEntity
  8
0
  6
Continuous
 62
     7
100
AcDbCircle
 10
585.8969524113391
 20
338.6983504938963
 30
0.0
 40
1.500000000000254
100
AcDbArc
 50
0.0000000000097707
 51
89.99999999999024
  0
LINE
  5
44C
330
1F
100
AcDbEntity
  8
0
  6
Continuous
 62
     7
100
AcDbLine
 10
587.3969524113396
 20
338.6983504938966
 30
0.0
 11
587.3969524113396
 21
336.6983504938966
 31
0.0
  0
ARC
  5
44D
330
1F
100
AcDbEntity
  8
0
  6
Continuous
 62
     7
100
AcDbCircle
 10
585.8969524113391
 20
359.5583504938968
 30
0.0
 40
1.500000000000241
100
AcDbArc
 50
270.0000000000096
 51
359.9999999999901
  0
LINE
  5
44E
330
1F
100
AcDbEntity
  8
0
  6
Continuous
 62
     7
100
AcDbLine
 10
584.8969524113396
 20
363.7083504939177
 30
0.0
 11
584.8969524113396
 21
357.4083504939436
 31
0.0
  0
ARC
  5
44F
330
1F
100
AcDbEntity
  8
0
  6
Continuous
 62
     7
100
AcDbCircle
 10
585.8969524113391
 20
351.9383504939229
 30
0.0
 40
1.500000000000241
100
AcDbArc
 50
270.0000000000096
 51
359.9999999999901
  0
LINE
  5
450
330
1F
100
AcDbEntity
  8
0
  6
Continuous
 62
     7
100
AcDbLine
 10
584.8969524113396
 20
356.0883504939427
 30
0.0
 11
584.8969524113396
 21
349.7883504939686
 31
0.0
  0
LINE
  5
451
330
1F
100
AcDbEntity
  8
0
  6
Continuous
 62
     7
100
AcDbLine
 10
584.8969524113396
 20
347.8183504938956
 30
0.0
 11
585.8969524113396
 21
347.8183504938956
 31
0.0
  0
LINE
  5
452
330
1F
100
AcDbEntity
  8
0
  6
Continuous
 62
     7
100
AcDbLine
 10
584.8969524113396
 20
350.4383504939226
 30
0.0
 11
585.8969524113396
 21
350.4383504939226
 31
0.0
  0
ARC
  5
453
330
1F
100
AcDbEntity
  8
0
  6
Continuous
 62
     7
100
AcDbCircle
 10
585.8969524113391
 20
346.3183504938953
 30
0.0
 40
1.500000000000254
100
AcDbArc
 50
0.0000000000097707
 51
89.99999999999024
  0
LINE
  5
454
330
1F
100
AcDbEntity
  8
0
  6
Continuous
 62
     7
100
AcDbLine
 10
587.3969524113396
 20
346.3183504938956
 30
0.0
 11
587.3969524113396
 21
344.3183504938956
 31
0.0
  0
LINE
  5
455
330
1F
100
AcDbEntity
  8
0
  6
Continuous
 62
     7
100
AcDbLine
 10
584.8969524113396
 20
355.4383504939226
 30
0.0
 11
585.8969524113396
 21
355.4383504939226
 31
0.0
  0
ARC
  5
456
330
1F
100
AcDbEntity
  8
0
  6
Continuous
 62
     7
100
AcDbCircle
 10
585.8969524113391
 20
353.9383504939223
 30
0.0
 40
1.500000000000254
100
AcDbArc
 50
0.0000000000097707
 51
89.99999999999024
  0
LINE
  5
457
330
1F
100
AcDbEntity
  8
0
  6
Continuous
 62
     7
100
AcDbLine
 10
587.3969524113396
 20
353.9383504939226
 30
0.0
 11
587.3969524113396
 21
351.9383504939226
 31
0.0
  0
LINE
  5
458
330
1F
100
AcDbEntity
  8
0
  6
Continuous
 62
     7
100
AcDbLine
 10
584.8969524113396
 20
363.0583504938966
 30
0.0
 11
585.8969524113396
 21
363.0583504938966
 31
0.0
  0
LINE
  5
459
330
1F
100
AcDbEntity
  8
0
  6
Continuous
 62
     7
100
AcDbLine
 10
584.8969524113396
 20
358.0583504938966
 30
0.0
 11
585.8969524113396
 21
358.0583504938966
 31
0.0
  0
ARC
  5
45A
330
1F
100
AcDbEntity
  8
0
  6
Continuous
 62
     7
100
AcDbCircle
 10
585.8969524113391
 20
361.5583504938963
 30
0.0
 40
1.500000000000254
100
AcDbArc
 50
0.0000000000097707
 51
89.99999999999024
  0
LINE
  5
45B
330
1F
100
AcDbEntity
  8
0
  6
Continuous
 62
     7
100
AcDbLine
 10
587.3969524113396
 20
361.5583504938967
 30
0.0
 11
587.3969524113396
 21
359.5583504938967
 31
0.0
  0
LINE
  5
45C
330
1F
100
AcDbEntity
  8
0
  6
Continuous
 62
     7
100
AcDbLine
 10
584.8969524113396
 20
370.6783504939305
 30
0.0
 11
585.8969524113396
 21
370.6783504939305
 31
0.0
  0
LINE
  5
45D
330
1F
100
AcDbEntity
  8
0
  6
Continuous
 62
     7
100
AcDbLine
 10
584.8969524113396
 20
365.6783504939305
 30
0.0
 11
585.8969524113396
 21
365.6783504939305
 31
0.0
  0
LINE
  5
45E
330
1F
100
AcDbEntity
  8
0
  6
Continuous
 62
     7
100
AcDbLine
 10
584.8969524113396
 20
371.3283504939506
 30
0.0
 11
584.8969524113396
 21
365.0283504939765
 31
0.0
  0
ARC
  5
45F
330
1F
100
AcDbEntity
  8
0
  6
Continuous
 62
     7
100
AcDbCircle
 10
585.8969524113391
 20
369.1783504939303
 30
0.0
 40
1.500000000000223
100
AcDbArc
 50
0.0000000000097707
 51
89.99999999999024
  0
ARC
  5
460
330
1F
100
AcDbEntity
  8
0
  6
Continuous
 62
     7
100
AcDbCircle
 10
585.8969524113391
 20
367.1783504939309
 30
0.0
 40
1.500000000000241
100
AcDbArc
 50
270.0000000000096
 51
359.9999999999901
  0
LINE
  5
461
330
1F
100
AcDbEntity
  8
0
  6
Continuous
 62
     7
100
AcDbLine
 10
587.3969524113396
 20
369.1783504939305
 30
0.0
 11
587.3969524113396
 21
367.1783504939305
 31
0.0
  0
CIRCLE
  5
462
330
1F
100
AcDbEntity
  8
0
  6
Continuous
 62
     7
370
     0
100
AcDbCircle
 10
558.8969524113337
 20
398.6183506729151
 30
0.0
 40
2.750000000000444
  0
CIRCLE
  5
463
330
1F
100
AcDbEntity
  8
0
  6
Continuous
 62
     7
370
     0
100
AcDbCircle
 10
558.8969524113337
 20
398.6183506729151
 30
0.0
 40
3.500000000000428
  0
CIRCLE
  5
464
330
1F
100
AcDbEntity
  8
0
  6
Continuous
 62
     7
370
     0
100
AcDbCircle
 10
558.8969524113337
 20
398.6183506729151
 30
0.0
 40
4.500000000000428
  0
ARC
  5
465
330
1F
100
AcDbEntity
  8
0
  6
Continuous
 62
     7
100
AcDbCircle
 10
558.896952411339
 20
398.6183506729192
 30
0.0
 40
2.750000000000397
100
AcDbArc
 50
0.0000000000097707
 51
89.99999999999024
  0
ARC
  5
466
330
1F
100
AcDbEntity
  8
0
  6
Continuous
 62
     7
100
AcDbCircle
 10
558.8969524113386
 20
398.6183506729151
 30
0.0
 40
2.250000000003939
100
AcDbArc
 50
79.75965167881532
 51
100.2403480326994
  0
ARC
  5
467
330
1F
100
AcDbEntity
  8
0
  6
Continuous
 62
     7
100
AcDbCircle
 10
558.8969524113418
 20
398.6183506729232
 30
0.0
 40
2.250000000003929
100
AcDbArc
 50
259.7596519672213
 51
280.2403483211081
  0
ARC
  5
468
330
1F
100
AcDbEntity
  8
0
  6
Continuous
 62
     7
100
AcDbCircle
 10
558.896952411339
 20
398.6183506729201
 30
0.0
 40
2.249999999999163
100
AcDbArc
 50
169.7596526505298
 51
190.2403483212077
  0
LINE
  5
469
330
1F
100
AcDbEntity
  8
0
  6
Continuous
 62
     7
100
AcDbLine
 10
558.4969524113395
 20
400.8325096554676
 30
0.0
 11
558.4969524113395
 21
399.0183506729194
 31
0.0
  0
LINE
  5
46A
330
1F
100
AcDbEntity
  8
0
  6
Continuous
 62
     7
100
AcDbLine
 10
558.4969524113395
 20
398.2183506729196
 30
0.0
 11
558.4969524113395
 21
396.4041916903705
 31
0.0
  0
LINE
  5
46B
330
1F
100
AcDbEntity
  8
0
  6
Continuous
 62
     7
100
AcDbLine
 10
556.6827934287913
 20
399.0183506729194
 30
0.0
 11
558.4969524113395
 21
399.0183506729194
 31
0.0
  0
LINE
  5
46C
330
1F
100
AcDbEntity
  8
0
  6
Continuous
 62
     7
100
AcDbLine
 10
556.6827934287913
 20
398.2183506729196
 30
0.0
 11
558.4969524113395
 21
398.2183506729196
 31
0.0
  0
LINE
  5
46D
330
1F
100
AcDbEntity
  8
0
  6
Continuous
 62
     7
100
AcDbLine
 10
570.3969524113396
 20
393.1183504941057
 30
0.0
 11
570.3969524113396
 21
379.1183504941057
 31
0.0
  0
LINE
  5
46E
330
1F
100
AcDbEntity
  8
0
  6
Continuous
 62
     7
100
AcDbLine
 10
568.8969524113396
 20
379.1183504941057
 30
0.0
 11
570.3969524113396
 21
379.1183504941057
 31
0.0
  0
ARC
  5
46F
330
1F
100
AcDbEntity
  8
0
  6
Continuous
 62
     7
100
AcDbCircle
 10
558.8969524113365
 20
398.6183506729196
 30
0.0
 40
2.250000000002196
100
AcDbArc
 50
349.7596519104451
 51
10.24034832117129
  0
LINE
  5
470
330
1F
100
AcDbEntity
  8
0
  6
Continuous
 62
     7
100
AcDbLine
 10
559.2969524113396
 20
400.8325096554676
 30
0.0
 11
559.2969524113396
 21
399.0183506729194
 31
0.0
  0
LINE
  5
471
330
1F
100
AcDbEntity
  8
0
  6
Continuous
 62
     7
100
AcDbLine
 10
559.2969524113396
 20
398.2183506729196
 30
0.0
 11
559.2969524113396
 21
396.4041916903705
 31
0.0
  0
LINE
  5
472
330
1F
100
AcDbEntity
  8
0
  6
Continuous
 62
     7
100
AcDbLine
 10
559.2969524113396
 20
399.0183506729194
 30
0.0
 11
561.1111113938874
 21
399.0183506729194
 31
0.0
  0
LINE
  5
473
330
1F
100
AcDbEntity
  8
0
  6
Continuous
 62
     7
100
AcDbLine
 10
559.2969524113396
 20
398.2183506729196
 30
0.0
 11
561.1111113938874
 21
398.2183506729196
 31
0.0
  0
LINE
  5
474
330
1F
100
AcDbEntity
  8
0
  6
Continuous
 62
     7
100
AcDbLine
 10
568.8969524113396
 20
393.1183504941057
 30
0.0
 11
570.3969524113396
 21
393.1183504941057
 31
0.0
  0
LINE
  5
475
330
1F
100
AcDbEntity
  8
0
  6
Continuous
 62
     7
100
AcDbLine
 10
584.8969524113396
 20
378.2983504939226
 30
0.0
 11
585.8969524113396
 21
378.2983504939226
 31
0.0
  0
LINE
  5
476
330
1F
100
AcDbEntity
  8
0
  6
Continuous
 62
     7
100
AcDbLine
 10
584.8969524113396
 20
373.2983504939226
 30
0.0
 11
585.8969524113396
 21
373.2983504939226
 31
0.0
  0
LINE
  5
477
330
1F
100
AcDbEntity
  8
0
  6
Continuous
 62
     7
100
AcDbLine
 10
584.8969524113396
 20
378.9483504939427
 30
0.0
 11
584.8969524113396
 21
372.6483504939696
 31
0.0
  0
ARC
  5
478
330
1F
100
AcDbEntity
  8
0
  6
Continuous
 62
     7
100
AcDbCircle
 10
585.8969524113391
 20
376.7983504939223
 30
0.0
 40
1.500000000000254
100
AcDbArc
 50
0.0000000000097707
 51
89.99999999999024
  0
ARC
  5
479
330
1F
100
AcDbEntity
  8
0
  6
Continuous
 62
     7
100
AcDbCircle
 10
585.8969524113391
 20
374.7983504939229
 30
0.0
 40
1.500000000000241
100
AcDbArc
 50
270.0000000000096
 51
359.9999999999901
  0
LINE
  5
47A
330
1F
100
AcDbEntity
  8
0
  6
Continuous
 62
     7
100
AcDbLine
 10
587.3969524113396
 20
376.7983504939226
 30
0.0
 11
587.3969524113396
 21
374.7983504939226
 31
0.0
  0
LINE
  5
47B
330
1F
100
AcDbEntity
  8
0
  6
Continuous
 62
     7
100
AcDbLine
 10
584.8969524113396
 20
385.9183504939215
 30
0.0
 11
585.8969524113396
 21
385.9183504939215
 31
0.0
  0
LINE
  5
47C
330
1F
100
AcDbEntity
  8
0
  6
Continuous
 62
     7
100
AcDbLine
 10
584.8969524113396
 20
380.9183504939216
 30
0.0
 11
585.8969524113396
 21
380.9183504939216
 31
0.0
  0
LINE
  5
47D
330
1F
100
AcDbEntity
  8
0
  6
Continuous
 62
     7
100
AcDbLine
 10
584.8969524113396
 20
386.5683504939426
 30
0.0
 11
584.8969524113396
 21
380.2683504939686
 31
0.0
  0
ARC
  5
47E
330
1F
100
AcDbEntity
  8
0
  6
Continuous
 62
     7
100
AcDbCircle
 10
585.8969524113392
 20
384.4183504939212
 30
0.0
 40
1.500000000000198
100
AcDbArc
 50
0.0000000000097707
 51
89.99999999999348
  0
ARC
  5
47F
330
1F
100
AcDbEntity
  8
0
  6
Continuous
 62
     7
100
AcDbCircle
 10
585.8969524113391
 20
382.4183504939218
 30
0.0
 40
1.500000000000241
100
AcDbArc
 50
270.0000000000096
 51
359.9999999999901
  0
LINE
  5
480
330
1F
100
AcDbEntity
  8
0
  6
Continuous
 62
     7
100
AcDbLine
 10
587.3969524113396
 20
384.4183504939216
 30
0.0
 11
587.3969524113396
 21
382.4183504939216
 31
0.0
  0
CIRCLE
  5
481
330
1F
100
AcDbEntity
  8
0
  6
Continuous
 62
     7
370
     0
100
AcDbCircle
 10
710.4769524113391
 20
398.8183504941052
 30
0.0
 40
2.000000000000341
  0
LINE
  5
482
330
1F
100
AcDbEntity
  8
0
  6
Continuous
 62
     7
100
AcDbLine
 10
654.8969524113394
 20
279.6183504941057
 30
0.0
 11
724.8969524113396
 21
279.6183504941057
 31
0.0
  0
LINE
  5
483
330
1F
100
AcDbEntity
  8
0
  6
Continuous
 62
     7
100
AcDbLine
 10
654.8969524113394
 20
404.6183504941057
 30
0.0
 11
724.8969524113396
 21
404.6183504941057
 31
0.0
  0
ARC
  5
484
330
1F
100
AcDbEntity
  8
0
  6
Continuous
 62
     7
100
AcDbCircle
 10
708.8969524113386
 20
273.1183504941065
 30
0.0
 40
6.000000000000972
100
AcDbArc
 50
270.0000000000096
 51
359.9999999999901
  0
ARC
  5
485
330
1F
100
AcDbEntity
  8
0
  6
Continuous
 62
     7
100
AcDbCircle
 10
708.8969524113386
 20
411.1183504941045
 30
0.0
 40
6.000000000000964
100
AcDbArc
 50
0.0000000000097707
 51
89.99999999999024
  0
LINE
  5
486
330
1F
100
AcDbEntity
  8
0
  6
Continuous
 62
     7
100
AcDbLine
 10
696.8969524113396
 20
387.9183504941055
 30
0.0
 11
724.8969524113396
 21
387.9183504941055
 31
0.0
  0
LINE
  5
487
330
1F
100
AcDbEntity
  8
0
  6
Continuous
 62
     7
100
AcDbLine
 10
696.8969524113396
 20
298.9183504941057
 30
0.0
 11
724.8969524113396
 21
298.9183504941057
 31
0.0
  0
LINE
  5
488
330
1F
100
AcDbEntity
  8
0
  6
Continuous
 62
     7
100
AcDbLine
 10
699.0969523880566
 20
299.5983504939156
 30
0.0
 11
718.0969523875723
 21
299.5983504939156
 31
0.0
  0
LINE
  5
489
330
1F
100
AcDbEntity
  8
0
  6
Continuous
 62
     7
100
AcDbLine
 10
718.0969523875723
 20
387.8883504941295
 30
0.0
 11
699.0969523880566
 21
387.8883504941295
 31
0.0
  0
LINE
  5
48A
330
1F
100
AcDbEntity
  8
0
  6
Continuous
 62
     7
100
AcDbLine
 10
699.0969523875725
 20
387.8883504939626
 30
0.0
 11
718.0969523880564
 21
387.8883504939626
 31
0.0
  0
LINE
  5
48B
330
1F
100
AcDbEntity
  8
0
  6
Continuous
 62
     7
100
AcDbLine
 10
718.0969523880564
 20
299.5983504941506
 30
0.0
 11
699.0969523875725
 21
299.5983504941506
 31
0.0
  0
LINE
  5
48C
330
1F
100
AcDbEntity
  8
0
  6
Continuous
 62
     7
100
AcDbLine
 10
708.0969523880185
 20
306.5583504940626
 30
0.0
 11
718.0969523880564
 21
306.5583504940886
 31
0.0
  0
LINE
  5
48D
330
1F
100
AcDbEntity
  8
0
  6
Continuous
 62
     7
100
AcDbLine
 10
708.0969523880114
 20
307.8783504940626
 30
0.0
 11
718.0969523874973
 21
307.8783504940886
 31
0.0
  0
LINE
  5
48E
330
1F
100
AcDbEntity
  8
0
  6
Continuous
 62
     7
100
AcDbLine
 10
708.0969523879765
 20
314.1783504940626
 30
0.0
 11
718.0969523880564
 21
314.1783504941316
 31
0.0
  0
LINE
  5
48F
330
1F
100
AcDbEntity
  8
0
  6
Continuous
 62
     7
100
AcDbLine
 10
708.0969523879693
 20
315.4983504940626
 30
0.0
 11
718.0969523874973
 21
315.4983504941316
 31
0.0
  0
LINE
  5
490
330
1F
100
AcDbEntity
  8
0
  6
Continuous
 62
     7
100
AcDbLine
 10
708.0969523879356
 20
321.7983504940736
 30
0.0
 11
718.0969523874973
 21
321.7983504940866
 31
0.0
  0
LINE
  5
491
330
1F
100
AcDbEntity
  8
0
  6
Continuous
 62
     7
100
AcDbLine
 10
708.0969523879275
 20
323.1183504940626
 30
0.0
 11
718.0969523874973
 21
323.1183504940886
 31
0.0
  0
LINE
  5
492
330
1F
100
AcDbEntity
  8
0
  6
Continuous
 62
     7
100
AcDbLine
 10
708.0969523878935
 20
329.4183504940626
 30
0.0
 11
718.0969523880564
 21
329.4183504941317
 31
0.0
  0
LINE
  5
493
330
1F
100
AcDbEntity
  8
0
  6
Continuous
 62
     7
100
AcDbLine
 10
708.0969523878866
 20
330.7383504940377
 30
0.0
 11
718.0969523874973
 21
330.7383504940915
 31
0.0
  0
LINE
  5
494
330
1F
100
AcDbEntity
  8
0
  6
Continuous
 62
     7
100
AcDbLine
 10
708.0969523878516
 20
337.0383504940376
 30
0.0
 11
718.0969523874973
 21
337.0383504940916
 31
0.0
  0
LINE
  5
495
330
1F
100
AcDbEntity
  8
0
  6
Continuous
 62
     7
100
AcDbLine
 10
718.0969523874973
 20
338.3583504940886
 30
0.0
 11
708.0969523878446
 21
338.3583504940626
 31
0.0
  0
LINE
  5
496
330
1F
100
AcDbEntity
  8
0
  6
Continuous
 62
     7
100
AcDbLine
 10
708.0969523878096
 20
344.6583504940377
 30
0.0
 11
718.0969523874973
 21
344.6583504940917
 31
0.0
  0
LINE
  5
497
330
1F
100
AcDbEntity
  8
0
  6
Continuous
 62
     7
100
AcDbLine
 10
718.0969523874973
 20
345.9783504940916
 30
0.0
 11
708.0969523878024
 21
345.9783504940376
 31
0.0
  0
LINE
  5
498
330
1F
100
AcDbEntity
  8
0
  6
Continuous
 62
     7
100
AcDbLine
 10
708.0969523877675
 20
352.2783504940377
 30
0.0
 11
718.0969523874973
 21
352.2783504940917
 31
0.0
  0
LINE
  5
499
330
1F
100
AcDbEntity
  8
0
  6
Continuous
 62
     7
100
AcDbLine
 10
718.0969523880564
 20
353.5983504941317
 30
0.0
 11
708.0969523877604
 21
353.5983504940626
 31
0.0
  0
LINE
  5
49A
330
1F
100
AcDbEntity
  8
0
  6
Continuous
 62
     7
100
AcDbLine
 10
708.0969523877264
 20
359.8983504940377
 30
0.0
 11
718.0969523874973
 21
359.8983504941355
 31
0.0
  0
LINE
  5
49B
330
1F
100
AcDbEntity
  8
0
  6
Continuous
 62
     7
100
AcDbLine
 10
718.0969523874973
 20
361.2183504941355
 30
0.0
 11
708.0969523877181
 21
361.2183504940376
 31
0.0
  0
LINE
  5
49C
330
1F
100
AcDbEntity
  8
0
  6
Continuous
 62
     7
100
AcDbLine
 10
708.0969523876846
 20
367.5183504940377
 30
0.0
 11
718.0969523874973
 21
367.5183504941355
 31
0.0
  0
LINE
  5
49D
330
1F
100
AcDbEntity
  8
0
  6
Continuous
 62
     7
100
AcDbLine
 10
718.0969523880564
 20
368.8383504940917
 30
0.0
 11
708.0969523876766
 21
368.8383504940377
 31
0.0
  0
LINE
  5
49E
330
1F
100
AcDbEntity
  8
0
  6
Continuous
 62
     7
100
AcDbLine
 10
708.0969523876425
 20
375.1383504940626
 30
0.0
 11
718.0969523880564
 21
375.1383504941317
 31
0.0
  0
LINE
  5
49F
330
1F
100
AcDbEntity
  8
0
  6
Continuous
 62
     7
100
AcDbLine
 10
718.0969523880564
 20
376.4583504941316
 30
0.0
 11
708.0969523876355
 21
376.4583504940626
 31
0.0
  0
LINE
  5
4A0
330
1F
100
AcDbEntity
  8
0
  6
Continuous
 62
     7
100
AcDbLine
 10
708.0969523876006
 20
382.7583504940377
 30
0.0
 11
718.0969523874973
 21
382.7583504941356
 31
0.0
  0
LINE
  5
4A1
330
1F
100
AcDbEntity
  8
0
  6
Continuous
 62
     7
100
AcDbLine
 10
716.7769523875937
 20
384.0783504941224
 30
0.0
 11
708.0969523875934
 21
384.0783504940626
 31
0.0
  0
LINE
  5
4A2
330
1F
100
AcDbEntity
  8
0
  6
Continuous
 62
     7
100
AcDbLine
 10
690.8969524113396
 20
389.6183504941055
 30
0.0
 11
690.8969524113396
 21
326.6183504941057
 31
0.0
  0
LINE
  5
4A3
330
1F
100
AcDbEntity
  8
0
  6
Continuous
 62
     7
100
AcDbLine
 10
664.8969524113396
 20
326.6183504941057
 30
0.0
 11
664.8969524113396
 21
389.6183504941055
 31
0.0
  0
LINE
  5
4A4
330
1F
100
AcDbEntity
  8
0
  6
Continuous
 62
     7
100
AcDbLine
 10
659.8969524113396
 20
404.6183504941057
 30
0.0
 11
659.8969524113396
 21
279.6183504941057
 31
0.0
  0
LINE
  5
4A5
330
1F
100
AcDbEntity
  8
0
  6
Continuous
 62
     7
100
AcDbLine
 10
699.0969523880566
 20
387.8883504941295
 30
0.0
 11
699.0969523880566
 21
299.5983504939156
 31
0.0
  0
LINE
  5
4A6
330
1F
100
AcDbEntity
  8
0
  6
Continuous
 62
     7
100
AcDbLine
 10
708.0969523880565
 20
299.5983504940086
 30
0.0
 11
708.0969523875721
 21
387.8883504940247
 31
0.0
  0
LINE
  5
4A7
330
1F
100
AcDbEntity
  8
0
  6
Continuous
 62
     7
100
AcDbLine
 10
699.0969523875725
 20
299.5983504941506
 30
0.0
 11
699.0969523875725
 21
387.8883504939626
 31
0.0
  0
LINE
  5
4A8
330
1F
100
AcDbEntity
  8
0
  6
Continuous
 62
     7
100
AcDbLine
 10
654.8969524113394
 20
404.6183504941057
 30
0.0
 11
654.8969524113394
 21
279.6183504941057
 31
0.0
  0
LINE
  5
4A9
330
1F
100
AcDbEntity
  8
0
  6
Continuous
 62
     7
100
AcDbLine
 10
695.8969524113395
 20
388.9183504941056
 30
0.0
 11
695.8969524113395
 21
297.9183504941057
 31
0.0
  0
LINE
  5
4AA
330
1F
100
AcDbEntity
  8
0
  6
Continuous
 62
     7
100
AcDbLine
 10
697.0969524113395
 20
387.9183504941055
 30
0.0
 11
697.0969524113395
 21
298.9183504941057
 31
0.0
  0
LINE
  5
4AB
330
1F
100
AcDbEntity
  8
0
  6
Continuous
 62
     7
100
AcDbLine
 10
672.1469524121596
 20
369.6183504933206
 30
0.0
 11
672.1469524121596
 21
377.6183504932187
 31
0.0
  0
LINE
  5
4AC
330
1F
100
AcDbEntity
  8
0
  6
Continuous
 62
     7
100
AcDbLine
 10
683.6469524122305
 20
377.6183504932187
 30
0.0
 11
683.6469524122305
 21
369.6183504933206
 31
0.0
  0
LINE
  5
4AD
330
1F
100
AcDbEntity
  8
0
  6
Continuous
 62
     7
100
AcDbLine
 10
599.8969524113396
 20
403.6183504941057
 30
0.0
 11
599.8969524113396
 21
280.6183504941055
 31
0.0
  0
LINE
  5
4AE
330
1F
100
AcDbEntity
  8
0
  6
Continuous
 62
     7
100
AcDbLine
 10
598.6969524113394
 20
403.4183504941055
 30
0.0
 11
598.6969524113394
 21
280.8183504941057
 31
0.0
  0
LINE
  5
4AF
330
1F
100
AcDbEntity
  8
0
  6
Continuous
 62
     7
100
AcDbLine
 10
591.8969524113395
 20
387.9283504940966
 30
0.0
 11
591.8969524113395
 21
299.1183504941055
 31
0.0
  0
LINE
  5
4B0
330
1F
100
AcDbEntity
  8
0
  6
Continuous
 62
     7
100
AcDbLine
 10
597.8969524113396
 20
387.9283504940417
 30
0.0
 11
597.8969524113396
 21
299.1183504941055
 31
0.0
  0
LINE
  5
4B1
330
1F
100
AcDbEntity
  8
0
  6
Continuous
 62
     7
100
AcDbLine
 10
595.3969524113396
 20
372.9883504940277
 30
0.0
 11
595.3969524113396
 21
370.9883504940277
 31
0.0
  0
LINE
  5
4B2
330
1F
100
AcDbEntity
  8
0
  6
Continuous
 62
     7
100
AcDbLine
 10
592.8969524113396
 20
375.1383504940486
 30
0.0
 11
592.8969524113396
 21
368.8383504940746
 31
0.0
  0
LINE
  5
4B3
330
1F
100
AcDbEntity
  8
0
  6
Continuous
 62
     7
100
AcDbLine
 10
598.3969524113396
 20
297.6183504941057
 30
0.0
 11
598.3969524113396
 21
281.1183504941057
 31
0.0
  0
ARC
  5
4B4
330
1F
100
AcDbEntity
  8
0
  6
Continuous
 62
     7
100
AcDbCircle
 10
598.8969524113392
 20
280.6183504941058
 30
0.0
 40
1.00000000000016
100
AcDbArc
 50
270.0000000000096
 51
359.9999999999901
  0
LINE
  5
4B5
330
1F
100
AcDbEntity
  8
0
  6
Continuous
 62
     7
100
AcDbLine
 10
598.6969524113394
 20
298.6183504941056
 30
0.0
 11
599.8969524113396
 21
298.6183504941056
 31
0.0
  0
LINE
  5
4B6
330
1F
100
AcDbEntity
  8
0
  6
Continuous
 62
     7
100
AcDbLine
 10
598.6969524113394
 20
299.1183504941055
 30
0.0
 11
599.8969524113396
 21
299.1183504941055
 31
0.0
  0
LINE
  5
4B7
330
1F
100
AcDbEntity
  8
0
  6
Continuous
 62
     7
100
AcDbLine
 10
591.8969524113395
 20
314.1783504940537
 30
0.0
 11
597.8969524113396
 21
314.1783504940956
 31
0.0
  0
LINE
  5
4B8
330
1F
100
AcDbEntity
  8
0
  6
Continuous
 62
     7
100
AcDbLine
 10
591.8969524113395
 20
307.8783504940586
 30
0.0
 11
597.8969524113396
 21
307.8783504940746
 31
0.0
  0
LINE
  5
4B9
330
1F
100
AcDbEntity
  8
0
  6
Continuous
 62
     7
100
AcDbLine
 10
591.8969524113395
 20
306.5583504940586
 30
0.0
 11
597.8969524113396
 21
306.5583504940746
 31
0.0
  0
ARC
  5
4BA
330
1F
100
AcDbEntity
  8
0
  6
Continuous
 62
     7
100
AcDbCircle
 10
593.896952411339
 20
312.0283504940183
 30
0.0
 40
1.500000000000254
100
AcDbArc
 50
0.0000000000097707
 51
89.99999999999024
  0
ARC
  5
4BB
330
1F
100
AcDbEntity
  8
0
  6
Continuous
 62
     7
100
AcDbCircle
 10
593.896952411339
 20
310.0283504940188
 30
0.0
 40
1.500000000000244
100
AcDbArc
 50
270.0000000000096
 51
359.9999999999901
  0
LINE
  5
4BC
330
1F
100
AcDbEntity
  8
0
  6
Continuous
 62
     7
100
AcDbLine
 10
595.3969524113396
 20
312.0283504940187
 30
0.0
 11
595.3969524113396
 21
310.0283504940187
 31
0.0
  0
LINE
  5
4BD
330
1F
100
AcDbEntity
  8
0
  6
Continuous
 62
     7
100
AcDbLine
 10
592.8969524113396
 20
313.5283504940186
 30
0.0
 11
593.8969524113396
 21
313.5283504940186
 31
0.0
  0
LINE
  5
4BE
330
1F
100
AcDbEntity
  8
0
  6
Continuous
 62
     7
100
AcDbLine
 10
592.8969524113396
 20
308.5283504940186
 30
0.0
 11
593.8969524113396
 21
308.5283504940186
 31
0.0
  0
LINE
  5
4BF
330
1F
100
AcDbEntity
  8
0
  6
Continuous
 62
     7
100
AcDbLine
 10
592.8969524113396
 20
314.1783504940397
 30
0.0
 11
592.8969524113396
 21
307.8783504940656
 31
0.0
  0
ARC
  5
4C0
330
1F
100
AcDbEntity
  8
0
  6
Continuous
 62
     7
100
AcDbCircle
 10
593.896952411339
 20
342.5083504939943
 30
0.0
 40
1.500000000000254
100
AcDbArc
 50
0.0000000000097707
 51
89.99999999999024
  0
LINE
  5
4C1
330
1F
100
AcDbEntity
  8
0
  6
Continuous
 62
     7
100
AcDbLine
 10
592.8969524113396
 20
344.6583504940146
 30
0.0
 11
592.8969524113396
 21
338.3583504940416
 31
0.0
  0
ARC
  5
4C2
330
1F
100
AcDbEntity
  8
0
  6
Continuous
 62
     7
100
AcDbCircle
 10
593.896952411339
 20
327.2683504940183
 30
0.0
 40
1.500000000000254
100
AcDbArc
 50
0.0000000000097707
 51
89.99999999999024
  0
LINE
  5
4C3
330
1F
100
AcDbEntity
  8
0
  6
Continuous
 62
     7
100
AcDbLine
 10
592.8969524113396
 20
329.4183504940396
 30
0.0
 11
592.8969524113396
 21
323.1183504940656
 31
0.0
  0
LINE
  5
4C4
330
1F
100
AcDbEntity
  8
0
  6
Continuous
 62
     7
100
AcDbLine
 10
591.8969524113395
 20
323.1183504940586
 30
0.0
 11
597.8969524113396
 21
323.1183504940746
 31
0.0
  0
LINE
  5
4C5
330
1F
100
AcDbEntity
  8
0
  6
Continuous
 62
     7
100
AcDbLine
 10
591.8969524113395
 20
321.7983504940716
 30
0.0
 11
597.8969524113396
 21
321.7983504940796
 31
0.0
  0
LINE
  5
4C6
330
1F
100
AcDbEntity
  8
0
  6
Continuous
 62
     7
100
AcDbLine
 10
591.8969524113395
 20
315.4983504940537
 30
0.0
 11
597.8969524113396
 21
315.4983504940957
 31
0.0
  0
LINE
  5
4C7
330
1F
100
AcDbEntity
  8
0
  6
Continuous
 62
     7
100
AcDbLine
 10
592.8969524113396
 20
321.7983504940397
 30
0.0
 11
592.8969524113396
 21
315.4983504940656
 31
0.0
  0
ARC
  5
4C8
330
1F
100
AcDbEntity
  8
0
  6
Continuous
 62
     7
100
AcDbCircle
 10
593.896952411339
 20
319.6483504940183
 30
0.0
 40
1.500000000000254
100
AcDbArc
 50
0.0000000000097707
 51
89.99999999999024
  0
ARC
  5
4C9
330
1F
100
AcDbEntity
  8
0
  6
Continuous
 62
     7
100
AcDbCircle
 10
593.896952411339
 20
317.6483504940188
 30
0.0
 40
1.500000000000241
100
AcDbArc
 50
270.0000000000096
 51
359.9999999999901
  0
LINE
  5
4CA
330
1F
100
AcDbEntity
  8
0
  6
Continuous
 62
     7
100
AcDbLine
 10
595.3969524113396
 20
319.6483504940186
 30
0.0
 11
595.3969524113396
 21
317.6483504940186
 31
0.0
  0
LINE
  5
4CB
330
1F
100
AcDbEntity
  8
0
  6
Continuous
 62
     7
100
AcDbLine
 10
592.8969524113396
 20
321.1483504940186
 30
0.0
 11
593.8969524113396
 21
321.1483504940186
 31
0.0
  0
LINE
  5
4CC
330
1F
100
AcDbEntity
  8
0
  6
Continuous
 62
     7
100
AcDbLine
 10
592.8969524113396
 20
316.1483504940186
 30
0.0
 11
593.8969524113396
 21
316.1483504940186
 31
0.0
  0
ARC
  5
4CD
330
1F
100
AcDbEntity
  8
0
  6
Continuous
 62
     7
100
AcDbCircle
 10
593.896952411339
 20
325.2683504940188
 30
0.0
 40
1.500000000000244
100
AcDbArc
 50
270.0000000000096
 51
359.9999999999901
  0
LINE
  5
4CE
330
1F
100
AcDbEntity
  8
0
  6
Continuous
 62
     7
100
AcDbLine
 10
595.3969524113396
 20
327.2683504940186
 30
0.0
 11
595.3969524113396
 21
325.2683504940186
 31
0.0
  0
LINE
  5
4CF
330
1F
100
AcDbEntity
  8
0
  6
Continuous
 62
     7
100
AcDbLine
 10
592.8969524113396
 20
328.7683504940186
 30
0.0
 11
593.8969524113396
 21
328.7683504940186
 31
0.0
  0
LINE
  5
4D0
330
1F
100
AcDbEntity
  8
0
  6
Continuous
 62
     7
100
AcDbLine
 10
592.8969524113396
 20
323.7683504940186
 30
0.0
 11
593.8969524113396
 21
323.7683504940186
 31
0.0
  0
LINE
  5
4D1
330
1F
100
AcDbEntity
  8
0
  6
Continuous
 62
     7
100
AcDbLine
 10
597.8969524113396
 20
338.3583504940746
 30
0.0
 11
591.8969524113395
 21
338.3583504940586
 31
0.0
  0
LINE
  5
4D2
330
1F
100
AcDbEntity
  8
0
  6
Continuous
 62
     7
100
AcDbLine
 10
591.8969524113395
 20
337.0383504940306
 30
0.0
 11
597.8969524113396
 21
337.0383504940637
 31
0.0
  0
LINE
  5
4D3
330
1F
100
AcDbEntity
  8
0
  6
Continuous
 62
     7
100
AcDbLine
 10
591.8969524113395
 20
330.7383504940306
 30
0.0
 11
597.8969524113396
 21
330.7383504940637
 31
0.0
  0
LINE
  5
4D4
330
1F
100
AcDbEntity
  8
0
  6
Continuous
 62
     7
100
AcDbLine
 10
591.8969524113395
 20
329.4183504940537
 30
0.0
 11
597.8969524113396
 21
329.4183504940956
 31
0.0
  0
ARC
  5
4D5
330
1F
100
AcDbEntity
  8
0
  6
Continuous
 62
     7
100
AcDbCircle
 10
593.896952411339
 20
334.8883504940183
 30
0.0
 40
1.500000000000254
100
AcDbArc
 50
0.0000000000097707
 51
89.99999999999024
  0
LINE
  5
4D6
330
1F
100
AcDbEntity
  8
0
  6
Continuous
 62
     7
100
AcDbLine
 10
592.8969524113396
 20
337.0383504940396
 30
0.0
 11
592.8969524113396
 21
330.7383504940657
 31
0.0
  0
ARC
  5
4D7
330
1F
100
AcDbEntity
  8
0
  6
Continuous
 62
     7
100
AcDbCircle
 10
593.896952411339
 20
332.8883504940189
 30
0.0
 40
1.500000000000241
100
AcDbArc
 50
270.0000000000096
 51
359.9999999999901
  0
LINE
  5
4D8
330
1F
100
AcDbEntity
  8
0
  6
Continuous
 62
     7
100
AcDbLine
 10
595.3969524113396
 20
334.8883504940186
 30
0.0
 11
595.3969524113396
 21
332.8883504940186
 31
0.0
  0
LINE
  5
4D9
330
1F
100
AcDbEntity
  8
0
  6
Continuous
 62
     7
100
AcDbLine
 10
592.8969524113396
 20
331.3883504940186
 30
0.0
 11
593.8969524113396
 21
331.3883504940186
 31
0.0
  0
LINE
  5
4DA
330
1F
100
AcDbEntity
  8
0
  6
Continuous
 62
     7
100
AcDbLine
 10
592.8969524113396
 20
336.3883504940186
 30
0.0
 11
593.8969524113396
 21
336.3883504940186
 31
0.0
  0
ARC
  5
4DB
330
1F
100
AcDbEntity
  8
0
  6
Continuous
 62
     7
100
AcDbCircle
 10
593.896952411339
 20
340.5083504939948
 30
0.0
 40
1.500000000000241
100
AcDbArc
 50
270.0000000000096
 51
359.9999999999901
  0
LINE
  5
4DC
330
1F
100
AcDbEntity
  8
0
  6
Continuous
 62
     7
100
AcDbLine
 10
595.3969524113396
 20
342.5083504939946
 30
0.0
 11
595.3969524113396
 21
340.5083504939946
 31
0.0
  0
LINE
  5
4DD
330
1F
100
AcDbEntity
  8
0
  6
Continuous
 62
     7
100
AcDbLine
 10
592.8969524113396
 20
339.0083504939946
 30
0.0
 11
593.8969524113396
 21
339.0083504939946
 31
0.0
  0
ARC
  5
4DE
330
1F
100
AcDbEntity
  8
0
  6
Continuous
 62
     7
100
AcDbCircle
 10
593.896952411339
 20
357.7483504940194
 30
0.0
 40
1.500000000000254
100
AcDbArc
 50
0.0000000000097707
 51
89.99999999999024
  0
LINE
  5
4DF
330
1F
100
AcDbEntity
  8
0
  6
Continuous
 62
     7
100
AcDbLine
 10
592.8969524113396
 20
359.8983504940405
 30
0.0
 11
592.8969524113396
 21
353.5983504940667
 31
0.0
  0
LINE
  5
4E0
330
1F
100
AcDbEntity
  8
0
  6
Continuous
 62
     7
100
AcDbLine
 10
597.8969524113396
 20
353.5983504940957
 30
0.0
 11
591.8969524113395
 21
353.5983504940536
 31
0.0
  0
LINE
  5
4E1
330
1F
100
AcDbEntity
  8
0
  6
Continuous
 62
     7
100
AcDbLine
 10
591.8969524113395
 20
352.2783504940306
 30
0.0
 11
597.8969524113396
 21
352.2783504940637
 31
0.0
  0
LINE
  5
4E2
330
1F
100
AcDbEntity
  8
0
  6
Continuous
 62
     7
100
AcDbLine
 10
591.8969524113395
 20
344.6583504940306
 30
0.0
 11
597.8969524113396
 21
344.6583504940637
 31
0.0
  0
LINE
  5
4E3
330
1F
100
AcDbEntity
  8
0
  6
Continuous
 62
     7
100
AcDbLine
 10
597.8969524113396
 20
345.9783504940636
 30
0.0
 11
591.8969524113395
 21
345.9783504940306
 31
0.0
  0
ARC
  5
4E4
330
1F
100
AcDbEntity
  8
0
  6
Continuous
 62
     7
100
AcDbCircle
 10
593.896952411339
 20
350.1283504939933
 30
0.0
 40
1.500000000000254
100
AcDbArc
 50
0.0000000000097707
 51
89.99999999999024
  0
LINE
  5
4E5
330
1F
100
AcDbEntity
  8
0
  6
Continuous
 62
     7
100
AcDbLine
 10
592.8969524113396
 20
352.2783504940146
 30
0.0
 11
592.8969524113396
 21
345.9783504940407
 31
0.0
  0
LINE
  5
4E6
330
1F
100
AcDbEntity
  8
0
  6
Continuous
 62
     7
100
AcDbLine
 10
592.8969524113396
 20
344.0083504939946
 30
0.0
 11
593.8969524113396
 21
344.0083504939946
 31
0.0
  0
ARC
  5
4E7
330
1F
100
AcDbEntity
  8
0
  6
Continuous
 62
     7
100
AcDbCircle
 10
593.896952411339
 20
348.1283504939939
 30
0.0
 40
1.500000000000241
100
AcDbArc
 50
270.0000000000096
 51
359.9999999999901
  0
LINE
  5
4E8
330
1F
100
AcDbEntity
  8
0
  6
Continuous
 62
     7
100
AcDbLine
 10
595.3969524113396
 20
350.1283504939937
 30
0.0
 11
595.3969524113396
 21
348.1283504939937
 31
0.0
  0
LINE
  5
4E9
330
1F
100
AcDbEntity
  8
0
  6
Continuous
 62
     7
100
AcDbLine
 10
592.8969524113396
 20
346.6283504939937
 30
0.0
 11
593.8969524113396
 21
346.6283504939937
 31
0.0
  0
LINE
  5
4EA
330
1F
100
AcDbEntity
  8
0
  6
Continuous
 62
     7
100
AcDbLine
 10
592.8969524113396
 20
351.6283504939937
 30
0.0
 11
593.8969524113396
 21
351.6283504939937
 31
0.0
  0
ARC
  5
4EB
330
1F
100
AcDbEntity
  8
0
  6
Continuous
 62
     7
100
AcDbCircle
 10
593.896952411339
 20
355.7483504940198
 30
0.0
 40
1.500000000000241
100
AcDbArc
 50
270.0000000000096
 51
359.9999999999901
  0
LINE
  5
4EC
330
1F
100
AcDbEntity
  8
0
  6
Continuous
 62
     7
100
AcDbLine
 10
595.3969524113396
 20
357.7483504940197
 30
0.0
 11
595.3969524113396
 21
355.7483504940197
 31
0.0
  0
LINE
  5
4ED
330
1F
100
AcDbEntity
  8
0
  6
Continuous
 62
     7
100
AcDbLine
 10
592.8969524113396
 20
354.2483504940197
 30
0.0
 11
593.8969524113396
 21
354.2483504940197
 31
0.0
  0
LINE
  5
4EE
330
1F
100
AcDbEntity
  8
0
  6
Continuous
 62
     7
100
AcDbLine
 10
597.8969524113396
 20
368.8383504940637
 30
0.0
 11
591.8969524113395
 21
368.8383504940306
 31
0.0
  0
LINE
  5
4EF
330
1F
100
AcDbEntity
  8
0
  6
Continuous
 62
     7
100
AcDbLine
 10
591.8969524113395
 20
367.5183504940256
 30
0.0
 11
597.8969524113396
 21
367.5183504940847
 31
0.0
  0
LINE
  5
4F0
330
1F
100
AcDbEntity
  8
0
  6
Continuous
 62
     7
100
AcDbLine
 10
597.8969524113396
 20
361.2183504940846
 30
0.0
 11
591.8969524113395
 21
361.2183504940256
 31
0.0
  0
LINE
  5
4F1
330
1F
100
AcDbEntity
  8
0
  6
Continuous
 62
     7
100
AcDbLine
 10
591.8969524113395
 20
359.8983504940256
 30
0.0
 11
597.8969524113396
 21
359.8983504940846
 31
0.0
  0
LINE
  5
4F2
330
1F
100
AcDbEntity
  8
0
  6
Continuous
 62
     7
100
AcDbLine
 10
595.3969524113396
 20
365.3683504939946
 30
0.0
 11
595.3969524113396
 21
363.3683504939946
 31
0.0
  0
LINE
  5
4F3
330
1F
100
AcDbEntity
  8
0
  6
Continuous
 62
     7
100
AcDbLine
 10
592.8969524113396
 20
367.5183504940146
 30
0.0
 11
592.8969524113396
 21
361.2183504940416
 31
0.0
  0
LINE
  5
4F4
330
1F
100
AcDbEntity
  8
0
  6
Continuous
 62
     7
100
AcDbLine
 10
592.8969524113396
 20
359.2483504940196
 30
0.0
 11
593.8969524113396
 21
359.2483504940196
 31
0.0
  0
ARC
  5
4F5
330
1F
100
AcDbEntity
  8
0
  6
Continuous
 62
     7
100
AcDbCircle
 10
593.896952411339
 20
363.3683504939948
 30
0.0
 40
1.500000000000241
100
AcDbArc
 50
270.0000000000096
 51
359.9999999999901
  0
LINE
  5
4F6
330
1F
100
AcDbEntity
  8
0
  6
Continuous
 62
     7
100
AcDbLine
 10
592.8969524113396
 20
361.8683504939947
 30
0.0
 11
593.8969524113396
 21
361.8683504939947
 31
0.0
  0
ARC
  5
4F7
330
1F
100
AcDbEntity
  8
0
  6
Continuous
 62
     7
100
AcDbCircle
 10
593.896952411339
 20
365.3683504939943
 30
0.0
 40
1.500000000000254
100
AcDbArc
 50
0.0000000000097707
 51
89.99999999999024
  0
LINE
  5
4F8
330
1F
100
AcDbEntity
  8
0
  6
Continuous
 62
     7
100
AcDbLine
 10
592.8969524113396
 20
366.8683504939946
 30
0.0
 11
593.8969524113396
 21
366.8683504939946
 31
0.0
  0
ARC
  5
4F9
330
1F
100
AcDbEntity
  8
0
  6
Continuous
 62
     7
100
AcDbCircle
 10
593.896952411339
 20
370.9883504940278
 30
0.0
 40
1.500000000000241
100
AcDbArc
 50
270.0000000000096
 51
359.9999999999901
  0
LINE
  5
4FA
330
1F
100
AcDbEntity
  8
0
  6
Continuous
 62
     7
100
AcDbLine
 10
592.8969524113396
 20
369.4883504940277
 30
0.0
 11
593.8969524113396
 21
369.4883504940277
 31
0.0
  0
CIRCLE
  5
4FB
330
1F
100
AcDbEntity
  8
0
  6
Continuous
 62
     7
370
     0
100
AcDbCircle
 10
704.096952387973
 20
314.8383504939652
 30
0.0
 40
2.750000000000454
  0
LINE
  5
4FC
330
1F
100
AcDbEntity
  8
0
  6
Continuous
 62
     7
100
AcDbLine
 10
706.0969523879756
 20
314.3383504940006
 30
0.0
 11
706.0969523879705
 21
315.3383504939887
 31
0.0
  0
LINE
  5
4FD
330
1F
100
AcDbEntity
  8
0
  6
Continuous
 62
     7
100
AcDbLine
 10
702.0969523879705
 20
315.3383504939666
 30
0.0
 11
702.0969523879756
 21
314.3383504939786
 31
0.0
  0
CIRCLE
  5
4FE
330
1F
100
AcDbEntity
  8
0
  6
Continuous
 62
     7
370
     0
100
AcDbCircle
 10
677.8969545197337
 20
304.1434955804611
 30
0.0
 40
3.300000000000491
  0
LINE
  5
4FF
330
1F
100
AcDbEntity
  8
0
  6
Continuous
 62
     7
100
AcDbLine
 10
680.2969545197306
 20
304.7434955804896
 30
0.0
 11
678.4969545197306
 21
304.7434955804797
 31
0.0
  0
LINE
  5
500
330
1F
100
AcDbEntity
  8
0
  6
Continuous
 62
     7
100
AcDbLine
 10
678.4969545197376
 20
303.5434955804946
 30
0.0
 11
680.2969545197375
 21
303.5434955805037
 31
0.0
  0
LINE
  5
501
330
1F
100
AcDbEntity
  8
0
  6
Continuous
 62
     7
100
AcDbLine
 10
659.8969524113396
 20
309.6183504941055
 30
0.0
 11
692.0969524113395
 21
309.6183504941055
 31
0.0
  0
LINE
  5
502
330
1F
100
AcDbEntity
  8
0
  6
Continuous
 62
     7
100
AcDbLine
 10
670.8969524113395
 20
267.1183504941057
 30
0.0
 11
684.3969524113396
 21
267.1183504941057
 31
0.0
  0
LINE
  5
503
330
1F
100
AcDbEntity
  8
0
  6
Continuous
 62
     7
100
AcDbLine
 10
659.8969524113396
 20
280.8183504941057
 30
0.0
 11
692.6479528116597
 21
280.8183504941057
 31
0.0
  0
LINE
  5
504
330
1F
100
AcDbEntity
  8
0
  6
Continuous
 62
     7
100
AcDbLine
 10
687.8969524121187
 20
281.6183504931596
 30
0.0
 11
669.8969524121186
 21
281.6183504931596
 31
0.0
  0
LINE
  5
505
330
1F
100
AcDbEntity
  8
0
  6
Continuous
 62
     7
100
AcDbLine
 10
669.8969524121186
 20
297.6183504931506
 30
0.0
 11
687.8969524121187
 21
297.6183504931506
 31
0.0
  0
LINE
  5
506
330
1F
100
AcDbEntity
  8
0
  6
Continuous
 62
     7
100
AcDbLine
 10
671.9821378465326
 20
298.1183504953696
 30
0.0
 11
680.9821378465325
 21
298.1183504953696
 31
0.0
  0
LINE
  5
507
330
1F
100
AcDbEntity
  8
0
  6
Continuous
 62
     7
100
AcDbLine
 10
671.8969524145204
 20
293.0911708704596
 30
0.0
 11
671.8969524145204
 21
285.0911708704596
 31
0.0
  0
ARC
  5
508
330
1F
100
AcDbEntity
  8
0
  6
Continuous
 62
     7
100
AcDbCircle
 10
670.8969524113405
 20
273.1183504941065
 30
0.0
 40
6.000000000000964
100
AcDbArc
 50
180.0000000000096
 51
269.9999999999902
  0
LINE
  5
509
330
1F
100
AcDbEntity
  8
0
  6
Continuous
 62
     7
100
AcDbLine
 10
669.8969524145204
 20
283.0911708704596
 30
0.0
 11
659.8969524121184
 21
283.0911708704596
 31
0.0
  0
LINE
  5
50A
330
1F
100
AcDbEntity
  8
0
  6
Continuous
 62
     7
100
AcDbLine
 10
671.8969524145204
 20
285.0911708704596
 30
0.0
 11
669.8969524145204
 21
283.0911708704596
 31
0.0
  0
LINE
  5
50B
330
1F
100
AcDbEntity
  8
0
  6
Continuous
 62
     7
100
AcDbLine
 10
664.8969524113396
 20
279.6183504941057
 30
0.0
 11
664.8969524113396
 21
273.1183504941057
 31
0.0
  0
LINE
  5
50C
330
1F
100
AcDbEntity
  8
0
  6
Continuous
 62
     7
100
AcDbLine
 10
669.8969524121186
 20
281.6183504931596
 30
0.0
 11
669.8969524121186
 21
283.0911708704596
 31
0.0
  0
CIRCLE
  5
50D
330
1F
100
AcDbEntity
  8
0
  6
Continuous
 62
     7
370
     0
100
AcDbCircle
 10
666.8969499452129
 20
289.1183498594311
 30
0.0
 40
3.300000000000491
  0
LINE
  5
50E
330
1F
100
AcDbEntity
  8
0
  6
Continuous
 62
     7
100
AcDbLine
 10
659.8969524121184
 20
295.0911708704596
 30
0.0
 11
669.8969524145204
 21
295.0911708704596
 31
0.0
  0
LINE
  5
50F
330
1F
100
AcDbEntity
  8
0
  6
Continuous
 62
     7
100
AcDbLine
 10
669.9821378465326
 20
309.6183504941055
 30
0.0
 11
669.9821378465326
 21
300.1183504953696
 31
0.0
  0
LINE
  5
510
330
1F
100
AcDbEntity
  8
0
  6
Continuous
 62
     7
100
AcDbLine
 10
669.8969524145204
 20
295.0911708704596
 30
0.0
 11
671.8969524145204
 21
293.0911708704596
 31
0.0
  0
LINE
  5
511
330
1F
100
AcDbEntity
  8
0
  6
Continuous
 62
     7
100
AcDbLine
 10
669.9821378465326
 20
300.1183504953696
 30
0.0
 11
671.9821378465326
 21
298.1183504953696
 31
0.0
  0
LINE
  5
512
330
1F
100
AcDbEntity
  8
0
  6
Continuous
 62
     7
100
AcDbLine
 10
669.2969499452097
 20
289.7183498594596
 30
0.0
 11
667.4969499452096
 21
289.7183498594496
 31
0.0
  0
LINE
  5
513
330
1F
100
AcDbEntity
  8
0
  6
Continuous
 62
     7
100
AcDbLine
 10
667.4969499452165
 20
288.5183498594646
 30
0.0
 11
669.2969499452165
 21
288.5183498594737
 31
0.0
  0
LINE
  5
514
330
1F
100
AcDbEntity
  8
0
  6
Continuous
 62
     7
100
AcDbLine
 10
667.4969499451995
 20
291.5183498594636
 30
0.0
 11
667.4969499451995
 21
291.5183498594636
 31
0.0
  0
LINE
  5
515
330
1F
100
AcDbEntity
  8
0
  6
Continuous
 62
     7
100
AcDbLine
 10
667.4969499452096
 20
289.7183498594496
 30
0.0
 11
667.4969499451995
 21
291.5183498594636
 31
0.0
  0
LINE
  5
516
330
1F
100
AcDbEntity
  8
0
  6
Continuous
 62
     7
100
AcDbLine
 10
667.4969499452266
 20
286.7183498594636
 30
0.0
 11
667.4969499452165
 21
288.5183498594646
 31
0.0
  0
LINE
  5
517
330
1F
100
AcDbEntity
  8
0
  6
Continuous
 62
     7
100
AcDbLine
 10
666.2969499452265
 20
286.7183498594436
 30
0.0
 11
667.4969499452266
 21
286.7183498594636
 31
0.0
  0
LINE
  5
518
330
1F
100
AcDbEntity
  8
0
  6
Continuous
 62
     7
100
AcDbLine
 10
666.2969499452165
 20
288.5183498594587
 30
0.0
 11
666.2969499452265
 21
286.7183498594436
 31
0.0
  0
LINE
  5
519
330
1F
100
AcDbEntity
  8
0
  6
Continuous
 62
     7
100
AcDbLine
 10
664.4969499452165
 20
288.5183498594476
 30
0.0
 11
666.2969499452165
 21
288.5183498594587
 31
0.0
  0
LINE
  5
51A
330
1F
100
AcDbEntity
  8
0
  6
Continuous
 62
     7
100
AcDbLine
 10
664.4969499452096
 20
289.7183498594336
 30
0.0
 11
664.4969499452165
 21
288.5183498594476
 31
0.0
  0
LINE
  5
51B
330
1F
100
AcDbEntity
  8
0
  6
Continuous
 62
     7
100
AcDbLine
 10
666.2969499452096
 20
289.7183498594586
 30
0.0
 11
664.4969499452096
 21
289.7183498594336
 31
0.0
  0
LINE
  5
51C
330
1F
100
AcDbEntity
  8
0
  6
Continuous
 62
     7
100
AcDbLine
 10
666.2969499451994
 20
291.5183498594576
 30
0.0
 11
666.2969499452096
 21
289.7183498594586
 31
0.0
  0
LINE
  5
51D
330
1F
100
AcDbEntity
  8
0
  6
Continuous
 62
     7
100
AcDbLine
 10
667.4969499451995
 20
291.5183498594636
 30
0.0
 11
666.2969499451994
 21
291.5183498594576
 31
0.0
  0
LINE
  5
51E
330
1F
100
AcDbEntity
  8
0
  6
Continuous
 62
     7
100
AcDbLine
 10
669.2969499452165
 20
288.5183498594737
 30
0.0
 11
669.2969499452097
 21
289.7183498594596
 31
0.0
  0
LINE
  5
51F
330
1F
100
AcDbEntity
  8
0
  6
Continuous
 62
     7
100
AcDbLine
 10
669.8969524121186
 20
295.0911708704596
 30
0.0
 11
669.8969524121186
 21
297.6183504931506
 31
0.0
  0
LINE
  5
520
330
1F
100
AcDbEntity
  8
0
  6
Continuous
 62
     7
100
AcDbLine
 10
678.4969545197205
 20
306.5434955804937
 30
0.0
 11
678.4969545197205
 21
306.5434955804937
 31
0.0
  0
LINE
  5
521
330
1F
100
AcDbEntity
  8
0
  6
Continuous
 62
     7
100
AcDbLine
 10
678.4969545197306
 20
304.7434955804797
 30
0.0
 11
678.4969545197205
 21
306.5434955804937
 31
0.0
  0
LINE
  5
522
330
1F
100
AcDbEntity
  8
0
  6
Continuous
 62
     7
100
AcDbLine
 10
678.4969545197474
 20
301.7434955804937
 30
0.0
 11
678.4969545197376
 21
303.5434955804946
 31
0.0
  0
LINE
  5
523
330
1F
100
AcDbEntity
  8
0
  6
Continuous
 62
     7
100
AcDbLine
 10
677.2969545197476
 20
301.7434955804736
 30
0.0
 11
678.4969545197474
 21
301.7434955804937
 31
0.0
  0
LINE
  5
524
330
1F
100
AcDbEntity
  8
0
  6
Continuous
 62
     7
100
AcDbLine
 10
677.2969545197375
 20
303.5434955804887
 30
0.0
 11
677.2969545197476
 21
301.7434955804736
 31
0.0
  0
LINE
  5
525
330
1F
100
AcDbEntity
  8
0
  6
Continuous
 62
     7
100
AcDbLine
 10
675.4969545197376
 20
303.5434955804776
 30
0.0
 11
677.2969545197375
 21
303.5434955804887
 31
0.0
  0
LINE
  5
526
330
1F
100
AcDbEntity
  8
0
  6
Continuous
 62
     7
100
AcDbLine
 10
675.4969545197305
 20
304.7434955804636
 30
0.0
 11
675.4969545197376
 21
303.5434955804776
 31
0.0
  0
LINE
  5
527
330
1F
100
AcDbEntity
  8
0
  6
Continuous
 62
     7
100
AcDbLine
 10
677.2969545197305
 20
304.7434955804886
 30
0.0
 11
675.4969545197305
 21
304.7434955804636
 31
0.0
  0
LINE
  5
528
330
1F
100
AcDbEntity
  8
0
  6
Continuous
 62
     7
100
AcDbLine
 10
677.2969545197216
 20
306.5434955804876
 30
0.0
 11
677.2969545197305
 21
304.7434955804886
 31
0.0
  0
LINE
  5
529
330
1F
100
AcDbEntity
  8
0
  6
Continuous
 62
     7
100
AcDbLine
 10
678.4969545197205
 20
306.5434955804937
 30
0.0
 11
677.2969545197216
 21
306.5434955804876
 31
0.0
  0
CIRCLE
  5
52A
330
1F
100
AcDbEntity
  8
0
  6
Continuous
 62
     7
370
     0
100
AcDbCircle
 10
693.8969524113392
 20
284.6183504941053
 30
0.0
 40
1.500000000000224
  0
CIRCLE
  5
52B
330
1F
100
AcDbEntity
  8
0
  6
Continuous
 62
     7
370
     0
100
AcDbCircle
 10
693.8969524113392
 20
284.6183504941053
 30
0.0
 40
1.150000000000204
  0
ARC
  5
52C
330
1F
100
AcDbEntity
  8
0
  6
Continuous
 62
     7
100
AcDbCircle
 10
693.8969524113396
 20
284.6183504941055
 30
0.0
 40
4.0
100
AcDbArc
 50
90.0
 51
270.0
  0
LINE
  5
52D
330
1F
100
AcDbEntity
  8
0
  6
Continuous
 62
     7
100
AcDbLine
 10
689.8969524121183
 20
295.6183504931506
 30
0.0
 11
689.8969524121183
 21
283.6183504931596
 31
0.0
  0
ARC
  5
52E
330
1F
100
AcDbEntity
  8
0
  6
Continuous
 62
     7
100
AcDbCircle
 10
695.3969524113396
 20
269.1183504941059
 30
0.0
 40
2.000000000000311
100
AcDbArc
 50
180.0000000000096
 51
269.9999999999902
  0
LINE
  5
52F
330
1F
100
AcDbEntity
  8
0
  6
Continuous
 62
     7
100
AcDbLine
 10
693.8969524113396
 20
280.6183504941055
 30
0.0
 11
695.8969524113395
 21
280.6183504941055
 31
0.0
  0
LINE
  5
530
330
1F
100
AcDbEntity
  8
0
  6
Continuous
 62
     7
100
AcDbLine
 10
686.3969524113396
 20
273.1183504941057
 30
0.0
 11
686.3969524113396
 21
269.1183504941057
 31
0.0
  0
LINE
  5
531
330
1F
100
AcDbEntity
  8
0
  6
Continuous
 62
     7
100
AcDbLine
 10
693.3969524113392
 20
273.1183504941057
 30
0.0
 11
693.3969524113392
 21
269.1183504941057
 31
0.0
  0
ARC
  5
532
330
1F
100
AcDbEntity
  8
0
  6
Continuous
 62
     7
100
AcDbCircle
 10
684.396952411339
 20
269.1183504941059
 30
0.0
 40
2.000000000000323
100
AcDbArc
 50
270.0000000000096
 51
359.9999999999901
  0
ARC
  5
533
330
1F
100
AcDbEntity
  8
0
  6
Continuous
 62
     7
100
AcDbCircle
 10
689.8969524113396
 20
273.1183504941057
 30
0.0
 40
3.499999999999971
100
AcDbArc
 50
0.0
 51
180.0
  0
LINE
  5
534
330
1F
100
AcDbEntity
  8
0
  6
Continuous
 62
     7
100
AcDbLine
 10
689.8969524121183
 20
283.6183504931596
 30
0.0
 11
687.8969524121187
 21
281.6183504931596
 31
0.0
  0
LINE
  5
535
330
1F
100
AcDbEntity
  8
0
  6
Continuous
 62
     7
100
AcDbLine
 10
695.3969524113396
 20
267.1183504941057
 30
0.0
 11
708.8969524113395
 21
267.1183504941057
 31
0.0
  0
LINE
  5
536
330
1F
100
AcDbEntity
  8
0
  6
Continuous
 62
     7
100
AcDbLine
 10
695.8969524113395
 20
280.6183504941055
 30
0.0
 11
695.8969524113395
 21
279.6183504941057
 31
0.0
  0
LINE
  5
537
330
1F
100
AcDbEntity
  8
0
  6
Continuous
 62
     7
100
AcDbLine
 10
693.8969524113396
 20
288.6183504941056
 30
0.0
 11
695.8969524113395
 21
288.6183504941056
 31
0.0
  0
LINE
  5
538
330
1F
100
AcDbEntity
  8
0
  6
Continuous
 62
     7
100
AcDbLine
 10
692.0969524113395
 20
309.6183504941055
 30
0.0
 11
692.0969524113395
 21
288.1904647140036
 31
0.0
  0
LINE
  5
539
330
1F
100
AcDbEntity
  8
0
  6
Continuous
 62
     7
100
AcDbLine
 10
682.9821378465325
 20
300.1183504953696
 30
0.0
 11
682.9821378465325
 21
309.6183504941055
 31
0.0
  0
CIRCLE
  5
53A
330
1F
100
AcDbEntity
  8
0
  6
Continuous
 62
     7
370
     0
100
AcDbCircle
 10
684.896949942869
 20
289.618349858105
 30
0.0
 40
3.300000000000491
  0
LINE
  5
53B
330
1F
100
AcDbEntity
  8
0
  6
Continuous
 62
     7
100
AcDbLine
 10
687.2969499428664
 20
290.2183498581337
 30
0.0
 11
685.4969499428663
 21
290.2183498581237
 31
0.0
  0
LINE
  5
53C
330
1F
100
AcDbEntity
  8
0
  6
Continuous
 62
     7
100
AcDbLine
 10
685.4969499428736
 20
289.0183498581385
 30
0.0
 11
687.2969499428736
 21
289.0183498581476
 31
0.0
  0
LINE
  5
53D
330
1F
100
AcDbEntity
  8
0
  6
Continuous
 62
     7
100
AcDbLine
 10
682.4969499428735
 20
289.0183498581216
 30
0.0
 11
684.2969499428736
 21
289.0183498581326
 31
0.0
  0
LINE
  5
53E
330
1F
100
AcDbEntity
  8
0
  6
Continuous
 62
     7
100
AcDbLine
 10
684.2969499428662
 20
290.2183498581326
 30
0.0
 11
682.4969499428665
 21
290.2183498581076
 31
0.0
  0
LINE
  5
53F
330
1F
100
AcDbEntity
  8
0
  6
Continuous
 62
     7
100
AcDbLine
 10
682.4969499428665
 20
290.2183498581076
 30
0.0
 11
682.4969499428735
 21
289.0183498581216
 31
0.0
  0
LINE
  5
540
330
1F
100
AcDbEntity
  8
0
  6
Continuous
 62
     7
100
AcDbLine
 10
685.4969499428565
 20
292.0183498581376
 30
0.0
 11
685.4969499428565
 21
292.0183498581376
 31
0.0
  0
LINE
  5
541
330
1F
100
AcDbEntity
  8
0
  6
Continuous
 62
     7
100
AcDbLine
 10
685.4969499428663
 20
290.2183498581237
 30
0.0
 11
685.4969499428565
 21
292.0183498581376
 31
0.0
  0
LINE
  5
542
330
1F
100
AcDbEntity
  8
0
  6
Continuous
 62
     7
100
AcDbLine
 10
685.4969499428833
 20
287.2183498581376
 30
0.0
 11
685.4969499428736
 21
289.0183498581385
 31
0.0
  0
LINE
  5
543
330
1F
100
AcDbEntity
  8
0
  6
Continuous
 62
     7
100
AcDbLine
 10
684.2969499428835
 20
287.2183498581176
 30
0.0
 11
685.4969499428833
 21
287.2183498581376
 31
0.0
  0
LINE
  5
544
330
1F
100
AcDbEntity
  8
0
  6
Continuous
 62
     7
100
AcDbLine
 10
684.2969499428736
 20
289.0183498581326
 30
0.0
 11
684.2969499428835
 21
287.2183498581176
 31
0.0
  0
LINE
  5
545
330
1F
100
AcDbEntity
  8
0
  6
Continuous
 62
     7
100
AcDbLine
 10
684.2969499428565
 20
292.0183498581316
 30
0.0
 11
684.2969499428662
 21
290.2183498581326
 31
0.0
  0
LINE
  5
546
330
1F
100
AcDbEntity
  8
0
  6
Continuous
 62
     7
100
AcDbLine
 10
685.4969499428565
 20
292.0183498581376
 30
0.0
 11
684.2969499428565
 21
292.0183498581316
 31
0.0
  0
LINE
  5
547
330
1F
100
AcDbEntity
  8
0
  6
Continuous
 62
     7
100
AcDbLine
 10
680.9821378465325
 20
298.1183504953696
 30
0.0
 11
682.9821378465325
 21
300.1183504953696
 31
0.0
  0
LINE
  5
548
330
1F
100
AcDbEntity
  8
0
  6
Continuous
 62
     7
100
AcDbLine
 10
687.2969499428736
 20
289.0183498581476
 30
0.0
 11
687.2969499428664
 21
290.2183498581337
 31
0.0
  0
LINE
  5
549
330
1F
100
AcDbEntity
  8
0
  6
Continuous
 62
     7
100
AcDbLine
 10
687.8969524121187
 20
297.6183504931506
 30
0.0
 11
689.8969524121183
 21
295.6183504931506
 31
0.0
  0
LINE
  5
54A
330
1F
100
AcDbEntity
  8
0
  6
Continuous
 62
     7
100
AcDbLine
 10
680.2969545197375
 20
303.5434955805037
 30
0.0
 11
680.2969545197306
 21
304.7434955804896
 31
0.0
  0
LINE
  5
54B
330
1F
100
AcDbEntity
  8
0
  6
Continuous
 62
     7
100
AcDbLine
 10
700.0937026108206
 20
299.5983504939646
 30
0.0
 11
700.0937026108096
 21
301.6501460124457
 31
0.0
  0
LINE
  5
54C
330
1F
100
AcDbEntity
  8
0
  6
Continuous
 62
     7
100
AcDbLine
 10
707.1100596905046
 20
301.6501460124846
 30
0.0
 11
707.1100596905154
 21
299.5983504940036
 31
0.0
  0
LINE
  5
54D
330
1F
100
AcDbEntity
  8
0
  6
Continuous
 62
     7
100
AcDbLine
 10
695.8969524113395
 20
297.9183504941057
 30
0.0
 11
695.8969524113395
 21
288.6183504941056
 31
0.0
  0
ARC
  5
54E
330
1F
100
AcDbEntity
  8
0
  6
Continuous
 62
     7
100
AcDbCircle
 10
696.8969524113396
 20
297.9183504941054
 30
0.0
 40
1.00000000000016
100
AcDbArc
 50
90.00000000000978
 51
179.9999999999901
  0
CIRCLE
  5
54F
330
1F
100
AcDbEntity
  8
0
  6
Continuous
 62
     7
370
     0
100
AcDbCircle
 10
704.096952388015
 20
307.2183504939212
 30
0.0
 40
2.750000000000454
  0
LINE
  5
550
330
1F
100
AcDbEntity
  8
0
  6
Continuous
 62
     7
100
AcDbLine
 10
708.0969523879905
 20
311.6883504940247
 30
0.0
 11
699.0969523879905
 21
311.6883504939626
 31
0.0
  0
LINE
  5
551
330
1F
100
AcDbEntity
  8
0
  6
Continuous
 62
     7
100
AcDbLine
 10
699.0969523879972
 20
310.3683504939376
 30
0.0
 11
708.0969523879974
 21
310.3683504939866
 31
0.0
  0
LINE
  5
552
330
1F
100
AcDbEntity
  8
0
  6
Continuous
 62
     7
100
AcDbLine
 10
708.0969523880327
 20
304.0683504940246
 30
0.0
 11
699.0969523880323
 21
304.0683504939626
 31
0.0
  0
LINE
  5
553
330
1F
100
AcDbEntity
  8
0
  6
Continuous
 62
     7
100
AcDbLine
 10
699.0969523880394
 20
302.7483504939626
 30
0.0
 11
708.0969523880395
 21
302.7483504940246
 31
0.0
  0
LINE
  5
554
330
1F
100
AcDbEntity
  8
0
  6
Continuous
 62
     7
100
AcDbLine
 10
700.0937026108096
 20
301.6501460124457
 30
0.0
 11
707.1100596905046
 21
301.6501460125216
 31
0.0
  0
LINE
  5
555
330
1F
100
AcDbEntity
  8
0
  6
Continuous
 62
     7
100
AcDbLine
 10
706.0969523880173
 20
306.7183504939567
 30
0.0
 11
706.0969523880124
 21
307.7183504939446
 31
0.0
  0
LINE
  5
556
330
1F
100
AcDbEntity
  8
0
  6
Continuous
 62
     7
100
AcDbLine
 10
702.0969523880121
 20
307.7183504939227
 30
0.0
 11
702.0969523880173
 21
306.7183504939346
 31
0.0
  0
LINE
  5
557
330
1F
100
AcDbEntity
  8
0
  6
Continuous
 62
     7
100
AcDbLine
 10
704.5969523880174
 20
306.7183504939496
 30
0.0
 11
706.0969523880173
 21
306.7183504939567
 31
0.0
  0
LINE
  5
558
330
1F
100
AcDbEntity
  8
0
  6
Continuous
 62
     7
100
AcDbLine
 10
704.5969523880255
 20
305.2183504939486
 30
0.0
 11
704.5969523880174
 21
306.7183504939496
 31
0.0
  0
LINE
  5
559
330
1F
100
AcDbEntity
  8
0
  6
Continuous
 62
     7
100
AcDbLine
 10
703.5969523880255
 20
305.2183504939316
 30
0.0
 11
704.5969523880255
 21
305.2183504939486
 31
0.0
  0
LINE
  5
55A
330
1F
100
AcDbEntity
  8
0
  6
Continuous
 62
     7
100
AcDbLine
 10
703.5969523880176
 20
306.7183504939436
 30
0.0
 11
703.5969523880255
 21
305.2183504939316
 31
0.0
  0
LINE
  5
55B
330
1F
100
AcDbEntity
  8
0
  6
Continuous
 62
     7
100
AcDbLine
 10
702.0969523880173
 20
306.7183504939346
 30
0.0
 11
703.5969523880176
 21
306.7183504939436
 31
0.0
  0
LINE
  5
55C
330
1F
100
AcDbEntity
  8
0
  6
Continuous
 62
     7
100
AcDbLine
 10
704.5969523879756
 20
314.3383504939926
 30
0.0
 11
706.0969523879756
 21
314.3383504940006
 31
0.0
  0
LINE
  5
55D
330
1F
100
AcDbEntity
  8
0
  6
Continuous
 62
     7
100
AcDbLine
 10
706.0969523880124
 20
307.7183504939446
 30
0.0
 11
704.5969523880122
 21
307.7183504939366
 31
0.0
  0
LINE
  5
55E
330
1F
100
AcDbEntity
  8
0
  6
Continuous
 62
     7
100
AcDbLine
 10
704.5969523879846
 20
312.8383504939926
 30
0.0
 11
704.5969523879756
 21
314.3383504939926
 31
0.0
  0
LINE
  5
55F
330
1F
100
AcDbEntity
  8
0
  6
Continuous
 62
     7
100
AcDbLine
 10
703.5969523879846
 20
312.8383504939747
 30
0.0
 11
704.5969523879846
 21
312.8383504939926
 31
0.0
  0
LINE
  5
560
330
1F
100
AcDbEntity
  8
0
  6
Continuous
 62
     7
100
AcDbLine
 10
703.5969523879757
 20
314.3383504939876
 30
0.0
 11
703.5969523879846
 21
312.8383504939747
 31
0.0
  0
LINE
  5
561
330
1F
100
AcDbEntity
  8
0
  6
Continuous
 62
     7
100
AcDbLine
 10
702.0969523879756
 20
314.3383504939786
 30
0.0
 11
703.5969523879757
 21
314.3383504939876
 31
0.0
  0
LINE
  5
562
330
1F
100
AcDbEntity
  8
0
  6
Continuous
 62
     7
100
AcDbLine
 10
704.5969523880046
 20
309.2183504939486
 30
0.0
 11
704.5969523880046
 21
309.2183504939486
 31
0.0
  0
LINE
  5
563
330
1F
100
AcDbEntity
  8
0
  6
Continuous
 62
     7
100
AcDbLine
 10
704.5969523880122
 20
307.7183504939366
 30
0.0
 11
704.5969523880046
 21
309.2183504939486
 31
0.0
  0
LINE
  5
564
330
1F
100
AcDbEntity
  8
0
  6
Continuous
 62
     7
100
AcDbLine
 10
703.5969523880122
 20
307.7183504939436
 30
0.0
 11
702.0969523880121
 21
307.7183504939227
 31
0.0
  0
LINE
  5
565
330
1F
100
AcDbEntity
  8
0
  6
Continuous
 62
     7
100
AcDbLine
 10
703.5969523880046
 20
309.2183504939427
 30
0.0
 11
703.5969523880122
 21
307.7183504939436
 31
0.0
  0
LINE
  5
566
330
1F
100
AcDbEntity
  8
0
  6
Continuous
 62
     7
100
AcDbLine
 10
704.5969523880046
 20
309.2183504939486
 30
0.0
 11
703.5969523880046
 21
309.2183504939427
 31
0.0
  0
CIRCLE
  5
567
330
1F
100
AcDbEntity
  8
0
  6
Continuous
 62
     7
370
     0
100
AcDbCircle
 10
677.8969499433117
 20
333.1183498581221
 30
0.0
 40
3.300000000000491
  0
LINE
  5
568
330
1F
100
AcDbEntity
  8
0
  6
Continuous
 62
     7
100
AcDbLine
 10
680.2969499433096
 20
333.7183498581506
 30
0.0
 11
678.4969499433096
 21
333.7183498581406
 31
0.0
  0
LINE
  5
569
330
1F
100
AcDbEntity
  8
0
  6
Continuous
 62
     7
100
AcDbLine
 10
678.4969499433157
 20
332.5183498581556
 30
0.0
 11
680.2969499433157
 21
332.5183498581647
 31
0.0
  0
LINE
  5
56A
330
1F
100
AcDbEntity
  8
0
  6
Continuous
 62
     7
100
AcDbLine
 10
664.8969524113396
 20
326.6183504941057
 30
0.0
 11
690.8969524113396
 21
326.6183504941057
 31
0.0
  0
LINE
  5
56B
330
1F
100
AcDbEntity
  8
0
  6
Continuous
 62
     7
100
AcDbLine
 10
672.9173063407456
 20
338.6183504932527
 30
0.0
 11
682.8969524125945
 21
338.6183504932527
 31
0.0
  0
LINE
  5
56C
330
1F
100
AcDbEntity
  8
0
  6
Continuous
 62
     7
100
AcDbLine
 10
682.8969524125945
 20
328.6183504932547
 30
0.0
 11
672.9173063407456
 21
328.6183504932547
 31
0.0
  0
LINE
  5
56D
330
1F
100
AcDbEntity
  8
0
  6
Continuous
 62
     7
100
AcDbLine
 10
683.6469524125057
 20
338.6183504933207
 30
0.0
 11
672.1469524124344
 21
338.6183504933207
 31
0.0
  0
LINE
  5
56E
330
1F
100
AcDbEntity
  8
0
  6
Continuous
 62
     7
100
AcDbLine
 10
672.1469524124344
 20
346.6183504932187
 30
0.0
 11
683.6469524125057
 21
346.6183504932187
 31
0.0
  0
LINE
  5
56F
330
1F
100
AcDbEntity
  8
0
  6
Continuous
 62
     7
100
AcDbLine
 10
683.6469524122305
 20
369.6183504933206
 30
0.0
 11
672.1469524121596
 21
369.6183504933206
 31
0.0
  0
LINE
  5
570
330
1F
100
AcDbEntity
  8
0
  6
Continuous
 62
     7
100
AcDbLine
 10
682.6469524124344
 20
346.6183504933117
 30
0.0
 11
673.2065366524075
 21
346.6183504933117
 31
0.0
  0
LINE
  5
571
330
1F
100
AcDbEntity
  8
0
  6
Continuous
 62
     7
100
AcDbLine
 10
673.2065366524075
 20
369.6183504932356
 30
0.0
 11
682.6469524124344
 21
369.6183504932356
 31
0.0
  0
LINE
  5
572
330
1F
100
AcDbEntity
  8
0
  6
Continuous
 62
     7
100
AcDbLine
 10
672.1469524124344
 20
338.6183504933207
 30
0.0
 11
672.1469524124344
 21
346.6183504932187
 31
0.0
  0
LINE
  5
573
330
1F
100
AcDbEntity
  8
0
  6
Continuous
 62
     7
100
AcDbLine
 10
672.9173063407456
 20
328.6183504932547
 30
0.0
 11
672.9173063407456
 21
338.6183504932527
 31
0.0
  0
CIRCLE
  5
574
330
1F
100
AcDbEntity
  8
0
  6
Continuous
 62
     7
370
     0
100
AcDbCircle
 10
666.8969524113393
 20
322.6183504941053
 30
0.0
 40
1.200000000000159
  0
CIRCLE
  5
575
330
1F
100
AcDbEntity
  8
0
  6
Continuous
 62
     7
370
     0
100
AcDbCircle
 10
666.8969524113393
 20
322.6183504941053
 30
0.0
 40
1.60000000000025
  0
LINE
  5
576
330
1F
100
AcDbEntity
  8
0
  6
Continuous
 62
     7
100
AcDbLine
 10
678.4969499432994
 20
335.5183498581556
 30
0.0
 11
678.4969499432994
 21
335.5183498581556
 31
0.0
  0
LINE
  5
577
330
1F
100
AcDbEntity
  8
0
  6
Continuous
 62
     7
100
AcDbLine
 10
678.4969499433096
 20
333.7183498581406
 30
0.0
 11
678.4969499432994
 21
335.5183498581556
 31
0.0
  0
LINE
  5
578
330
1F
100
AcDbEntity
  8
0
  6
Continuous
 62
     7
100
AcDbLine
 10
678.4969499433255
 20
330.7183498581556
 30
0.0
 11
678.4969499433157
 21
332.5183498581556
 31
0.0
  0
LINE
  5
579
330
1F
100
AcDbEntity
  8
0
  6
Continuous
 62
     7
100
AcDbLine
 10
677.2969499433254
 20
330.7183498581346
 30
0.0
 11
678.4969499433255
 21
330.7183498581556
 31
0.0
  0
LINE
  5
57A
330
1F
100
AcDbEntity
  8
0
  6
Continuous
 62
     7
100
AcDbLine
 10
677.2969499433156
 20
332.5183498581496
 30
0.0
 11
677.2969499433254
 21
330.7183498581346
 31
0.0
  0
LINE
  5
57B
330
1F
100
AcDbEntity
  8
0
  6
Continuous
 62
     7
100
AcDbLine
 10
675.4969499433157
 20
332.5183498581385
 30
0.0
 11
677.2969499433156
 21
332.5183498581496
 31
0.0
  0
LINE
  5
57C
330
1F
100
AcDbEntity
  8
0
  6
Continuous
 62
     7
100
AcDbLine
 10
675.4969499433094
 20
333.7183498581246
 30
0.0
 11
675.4969499433157
 21
332.5183498581385
 31
0.0
  0
LINE
  5
57D
330
1F
100
AcDbEntity
  8
0
  6
Continuous
 62
     7
100
AcDbLine
 10
677.2969499433096
 20
333.7183498581496
 30
0.0
 11
675.4969499433094
 21
333.7183498581246
 31
0.0
  0
LINE
  5
57E
330
1F
100
AcDbEntity
  8
0
  6
Continuous
 62
     7
100
AcDbLine
 10
677.2969499432995
 20
335.5183498581486
 30
0.0
 11
677.2969499433096
 21
333.7183498581496
 31
0.0
  0
LINE
  5
57F
330
1F
100
AcDbEntity
  8
0
  6
Continuous
 62
     7
100
AcDbLine
 10
678.4969499432994
 20
335.5183498581556
 30
0.0
 11
677.2969499432995
 21
335.5183498581486
 31
0.0
  0
LINE
  5
580
330
1F
100
AcDbEntity
  8
0
  6
Continuous
 62
     7
100
AcDbLine
 10
673.2065366524075
 20
346.6183504933117
 30
0.0
 11
673.2065366524075
 21
369.6183504932356
 31
0.0
  0
CIRCLE
  5
581
330
1F
100
AcDbEntity
  8
0
  6
Continuous
 62
     7
370
     0
100
AcDbCircle
 10
704.0969523878048
 20
345.318350494008
 30
0.0
 40
2.750000000000454
  0
LINE
  5
582
330
1F
100
AcDbEntity
  8
0
  6
Continuous
 62
     7
100
AcDbLine
 10
704.5969523878162
 20
343.3183504940356
 30
0.0
 11
704.5969523878086
 21
344.8183504940367
 31
0.0
  0
LINE
  5
583
330
1F
100
AcDbEntity
  8
0
  6
Continuous
 62
     7
100
AcDbLine
 10
703.5969523878086
 20
344.8183504940316
 30
0.0
 11
703.5969523878166
 21
343.3183504940186
 31
0.0
  0
LINE
  5
584
330
1F
100
AcDbEntity
  8
0
  6
Continuous
 62
     7
100
AcDbLine
 10
683.6469524125057
 20
346.6183504932187
 30
0.0
 11
683.6469524125057
 21
338.6183504933207
 31
0.0
  0
LINE
  5
585
330
1F
100
AcDbEntity
  8
0
  6
Continuous
 62
     7
100
AcDbLine
 10
682.8969524125945
 20
338.6183504932527
 30
0.0
 11
682.8969524125945
 21
328.6183504932547
 31
0.0
  0
LINE
  5
586
330
1F
100
AcDbEntity
  8
0
  6
Continuous
 62
     7
100
AcDbLine
 10
680.2969499433157
 20
332.5183498581647
 30
0.0
 11
680.2969499433096
 21
333.7183498581506
 31
0.0
  0
CIRCLE
  5
587
330
1F
100
AcDbEntity
  8
0
  6
Continuous
 62
     7
370
     0
100
AcDbCircle
 10
704.0969523878889
 20
330.0783504940081
 30
0.0
 40
2.750000000000454
  0
LINE
  5
588
330
1F
100
AcDbEntity
  8
0
  6
Continuous
 62
     7
100
AcDbLine
 10
704.5969523879007
 20
328.0783504940357
 30
0.0
 11
704.5969523878924
 21
329.5783504940366
 31
0.0
  0
LINE
  5
589
330
1F
100
AcDbEntity
  8
0
  6
Continuous
 62
     7
100
AcDbLine
 10
703.5969523878924
 20
329.5783504940316
 30
0.0
 11
703.5969523879003
 21
328.0783504940186
 31
0.0
  0
CIRCLE
  5
58A
330
1F
100
AcDbEntity
  8
0
  6
Continuous
 62
     7
370
     0
100
AcDbCircle
 10
704.0969523879307
 20
322.4583504939652
 30
0.0
 40
2.750000000000508
  0
LINE
  5
58B
330
1F
100
AcDbEntity
  8
0
  6
Continuous
 62
     7
100
AcDbLine
 10
708.0969523879066
 20
326.9283504940247
 30
0.0
 11
699.0969523879065
 21
326.9283504939626
 31
0.0
  0
LINE
  5
58C
330
1F
100
AcDbEntity
  8
0
  6
Continuous
 62
     7
100
AcDbLine
 10
699.0969523879146
 20
325.6083504939376
 30
0.0
 11
708.0969523879145
 21
325.6083504939866
 31
0.0
  0
LINE
  5
58D
330
1F
100
AcDbEntity
  8
0
  6
Continuous
 62
     7
100
AcDbLine
 10
708.0969523879485
 20
319.3083504940247
 30
0.0
 11
699.0969523879486
 21
319.3083504939626
 31
0.0
  0
LINE
  5
58E
330
1F
100
AcDbEntity
  8
0
  6
Continuous
 62
     7
100
AcDbLine
 10
699.0969523879555
 20
317.9883504939376
 30
0.0
 11
708.0969523879555
 21
317.9883504939866
 31
0.0
  0
LINE
  5
58F
330
1F
100
AcDbEntity
  8
0
  6
Continuous
 62
     7
100
AcDbLine
 10
704.5969523879424
 20
320.4583504939926
 30
0.0
 11
704.5969523879343
 21
321.9583504939926
 31
0.0
  0
LINE
  5
590
330
1F
100
AcDbEntity
  8
0
  6
Continuous
 62
     7
100
AcDbLine
 10
703.5969523879345
 20
321.9583504939876
 30
0.0
 11
703.5969523879424
 21
320.4583504939747
 31
0.0
  0
LINE
  5
591
330
1F
100
AcDbEntity
  8
0
  6
Continuous
 62
     7
100
AcDbLine
 10
706.0969523879705
 20
315.3383504939887
 30
0.0
 11
704.5969523879705
 21
315.3383504939806
 31
0.0
  0
LINE
  5
592
330
1F
100
AcDbEntity
  8
0
  6
Continuous
 62
     7
100
AcDbLine
 10
703.5969523879424
 20
320.4583504939747
 30
0.0
 11
704.5969523879424
 21
320.4583504939926
 31
0.0
  0
LINE
  5
593
330
1F
100
AcDbEntity
  8
0
  6
Continuous
 62
     7
100
AcDbLine
 10
704.5969523879627
 20
316.8383504939926
 30
0.0
 11
704.5969523879627
 21
316.8383504939926
 31
0.0
  0
LINE
  5
594
330
1F
100
AcDbEntity
  8
0
  6
Continuous
 62
     7
100
AcDbLine
 10
704.5969523879705
 20
315.3383504939806
 30
0.0
 11
704.5969523879627
 21
316.8383504939926
 31
0.0
  0
LINE
  5
595
330
1F
100
AcDbEntity
  8
0
  6
Continuous
 62
     7
100
AcDbLine
 10
703.5969523879705
 20
315.3383504939875
 30
0.0
 11
702.0969523879705
 21
315.3383504939666
 31
0.0
  0
LINE
  5
596
330
1F
100
AcDbEntity
  8
0
  6
Continuous
 62
     7
100
AcDbLine
 10
703.5969523879624
 20
316.8383504939867
 30
0.0
 11
703.5969523879705
 21
315.3383504939875
 31
0.0
  0
LINE
  5
597
330
1F
100
AcDbEntity
  8
0
  6
Continuous
 62
     7
100
AcDbLine
 10
704.5969523879627
 20
316.8383504939926
 30
0.0
 11
703.5969523879624
 21
316.8383504939867
 31
0.0
  0
LINE
  5
598
330
1F
100
AcDbEntity
  8
0
  6
Continuous
 62
     7
100
AcDbLine
 10
706.0969523879284
 20
322.9583504939887
 30
0.0
 11
704.5969523879286
 21
322.9583504939806
 31
0.0
  0
LINE
  5
599
330
1F
100
AcDbEntity
  8
0
  6
Continuous
 62
     7
100
AcDbLine
 10
704.5969523879343
 20
321.9583504939926
 30
0.0
 11
706.0969523879346
 21
321.9583504940006
 31
0.0
  0
LINE
  5
59A
330
1F
100
AcDbEntity
  8
0
  6
Continuous
 62
     7
100
AcDbLine
 10
703.5969523879003
 20
328.0783504940186
 30
0.0
 11
704.5969523879007
 21
328.0783504940357
 31
0.0
  0
LINE
  5
59B
330
1F
100
AcDbEntity
  8
0
  6
Continuous
 62
     7
100
AcDbLine
 10
704.5969523879205
 20
324.4583504939926
 30
0.0
 11
704.5969523879205
 21
324.4583504939926
 31
0.0
  0
LINE
  5
59C
330
1F
100
AcDbEntity
  8
0
  6
Continuous
 62
     7
100
AcDbLine
 10
704.5969523879286
 20
322.9583504939806
 30
0.0
 11
704.5969523879205
 21
324.4583504939926
 31
0.0
  0
LINE
  5
59D
330
1F
100
AcDbEntity
  8
0
  6
Continuous
 62
     7
100
AcDbLine
 10
702.0969523879346
 20
321.9583504939786
 30
0.0
 11
703.5969523879345
 21
321.9583504939876
 31
0.0
  0
LINE
  5
59E
330
1F
100
AcDbEntity
  8
0
  6
Continuous
 62
     7
100
AcDbLine
 10
702.0969523879284
 20
322.9583504939666
 30
0.0
 11
702.0969523879346
 21
321.9583504939786
 31
0.0
  0
LINE
  5
59F
330
1F
100
AcDbEntity
  8
0
  6
Continuous
 62
     7
100
AcDbLine
 10
703.5969523879286
 20
322.9583504939876
 30
0.0
 11
702.0969523879284
 21
322.9583504939666
 31
0.0
  0
LINE
  5
5A0
330
1F
100
AcDbEntity
  8
0
  6
Continuous
 62
     7
100
AcDbLine
 10
703.5969523879207
 20
324.4583504939867
 30
0.0
 11
703.5969523879286
 21
322.9583504939876
 31
0.0
  0
LINE
  5
5A1
330
1F
100
AcDbEntity
  8
0
  6
Continuous
 62
     7
100
AcDbLine
 10
704.5969523879205
 20
324.4583504939926
 30
0.0
 11
703.5969523879207
 21
324.4583504939867
 31
0.0
  0
LINE
  5
5A2
330
1F
100
AcDbEntity
  8
0
  6
Continuous
 62
     7
100
AcDbLine
 10
706.0969523879346
 20
321.9583504940006
 30
0.0
 11
706.0969523879284
 21
322.9583504939887
 31
0.0
  0
CIRCLE
  5
5A3
330
1F
100
AcDbEntity
  8
0
  6
Continuous
 62
     7
370
     0
100
AcDbCircle
 10
704.0969523878468
 20
337.6983504939651
 30
0.0
 40
2.750000000000454
  0
LINE
  5
5A4
330
1F
100
AcDbEntity
  8
0
  6
Continuous
 62
     7
100
AcDbLine
 10
708.0969523878235
 20
342.1683504940247
 30
0.0
 11
699.0969523878235
 21
342.1683504939376
 31
0.0
  0
LINE
  5
5A5
330
1F
100
AcDbEntity
  8
0
  6
Continuous
 62
     7
100
AcDbLine
 10
699.0969523878304
 20
340.8483504939376
 30
0.0
 11
708.0969523878304
 21
340.8483504939866
 31
0.0
  0
LINE
  5
5A6
330
1F
100
AcDbEntity
  8
0
  6
Continuous
 62
     7
100
AcDbLine
 10
708.0969523878654
 20
334.5483504939867
 30
0.0
 11
699.0969523878654
 21
334.5483504939376
 31
0.0
  0
LINE
  5
5A7
330
1F
100
AcDbEntity
  8
0
  6
Continuous
 62
     7
100
AcDbLine
 10
699.0969523878724
 20
333.2283504939626
 30
0.0
 11
708.0969523878726
 21
333.2283504940245
 31
0.0
  0
LINE
  5
5A8
330
1F
100
AcDbEntity
  8
0
  6
Continuous
 62
     7
100
AcDbLine
 10
704.5969523878584
 20
335.6983504939926
 30
0.0
 11
704.5969523878503
 21
337.1983504939926
 31
0.0
  0
LINE
  5
5A9
330
1F
100
AcDbEntity
  8
0
  6
Continuous
 62
     7
100
AcDbLine
 10
703.5969523878503
 20
337.1983504939876
 30
0.0
 11
703.5969523878584
 21
335.6983504939746
 31
0.0
  0
LINE
  5
5AA
330
1F
100
AcDbEntity
  8
0
  6
Continuous
 62
     7
100
AcDbLine
 10
706.0969523878866
 20
330.5783504940326
 30
0.0
 11
704.5969523878866
 21
330.5783504940246
 31
0.0
  0
LINE
  5
5AB
330
1F
100
AcDbEntity
  8
0
  6
Continuous
 62
     7
100
AcDbLine
 10
704.5969523878924
 20
329.5783504940366
 30
0.0
 11
706.0969523878924
 21
329.5783504940446
 31
0.0
  0
LINE
  5
5AC
330
1F
100
AcDbEntity
  8
0
  6
Continuous
 62
     7
100
AcDbLine
 10
703.5969523878584
 20
335.6983504939746
 30
0.0
 11
704.5969523878584
 21
335.6983504939926
 31
0.0
  0
LINE
  5
5AD
330
1F
100
AcDbEntity
  8
0
  6
Continuous
 62
     7
100
AcDbLine
 10
704.5969523878786
 20
332.0783504940357
 30
0.0
 11
704.5969523878786
 21
332.0783504940357
 31
0.0
  0
LINE
  5
5AE
330
1F
100
AcDbEntity
  8
0
  6
Continuous
 62
     7
100
AcDbLine
 10
704.5969523878866
 20
330.5783504940246
 30
0.0
 11
704.5969523878786
 21
332.0783504940357
 31
0.0
  0
LINE
  5
5AF
330
1F
100
AcDbEntity
  8
0
  6
Continuous
 62
     7
100
AcDbLine
 10
702.0969523878924
 20
329.5783504940227
 30
0.0
 11
703.5969523878924
 21
329.5783504940316
 31
0.0
  0
LINE
  5
5B0
330
1F
100
AcDbEntity
  8
0
  6
Continuous
 62
     7
100
AcDbLine
 10
702.0969523878866
 20
330.5783504940106
 30
0.0
 11
702.0969523878924
 21
329.5783504940227
 31
0.0
  0
LINE
  5
5B1
330
1F
100
AcDbEntity
  8
0
  6
Continuous
 62
     7
100
AcDbLine
 10
703.5969523878866
 20
330.5783504940316
 30
0.0
 11
702.0969523878866
 21
330.5783504940106
 31
0.0
  0
LINE
  5
5B2
330
1F
100
AcDbEntity
  8
0
  6
Continuous
 62
     7
100
AcDbLine
 10
703.5969523878785
 20
332.0783504940306
 30
0.0
 11
703.5969523878866
 21
330.5783504940316
 31
0.0
  0
LINE
  5
5B3
330
1F
100
AcDbEntity
  8
0
  6
Continuous
 62
     7
100
AcDbLine
 10
704.5969523878786
 20
332.0783504940357
 30
0.0
 11
703.5969523878785
 21
332.0783504940306
 31
0.0
  0
LINE
  5
5B4
330
1F
100
AcDbEntity
  8
0
  6
Continuous
 62
     7
100
AcDbLine
 10
706.0969523878924
 20
329.5783504940446
 30
0.0
 11
706.0969523878866
 21
330.5783504940326
 31
0.0
  0
LINE
  5
5B5
330
1F
100
AcDbEntity
  8
0
  6
Continuous
 62
     7
100
AcDbLine
 10
706.0969523878456
 20
338.1983504939887
 30
0.0
 11
704.5969523878453
 21
338.1983504939806
 31
0.0
  0
LINE
  5
5B6
330
1F
100
AcDbEntity
  8
0
  6
Continuous
 62
     7
100
AcDbLine
 10
704.5969523878503
 20
337.1983504939926
 30
0.0
 11
706.0969523878505
 21
337.1983504940006
 31
0.0
  0
LINE
  5
5B7
330
1F
100
AcDbEntity
  8
0
  6
Continuous
 62
     7
100
AcDbLine
 10
703.5969523878166
 20
343.3183504940186
 30
0.0
 11
704.5969523878162
 21
343.3183504940356
 31
0.0
  0
LINE
  5
5B8
330
1F
100
AcDbEntity
  8
0
  6
Continuous
 62
     7
100
AcDbLine
 10
704.5969523878365
 20
339.6983504939926
 30
0.0
 11
704.5969523878365
 21
339.6983504939926
 31
0.0
  0
LINE
  5
5B9
330
1F
100
AcDbEntity
  8
0
  6
Continuous
 62
     7
100
AcDbLine
 10
704.5969523878453
 20
338.1983504939806
 30
0.0
 11
704.5969523878365
 21
339.6983504939926
 31
0.0
  0
LINE
  5
5BA
330
1F
100
AcDbEntity
  8
0
  6
Continuous
 62
     7
100
AcDbLine
 10
702.0969523878505
 20
337.1983504939786
 30
0.0
 11
703.5969523878503
 21
337.1983504939876
 31
0.0
  0
LINE
  5
5BB
330
1F
100
AcDbEntity
  8
0
  6
Continuous
 62
     7
100
AcDbLine
 10
702.0969523878453
 20
338.1983504939666
 30
0.0
 11
702.0969523878505
 21
337.1983504939786
 31
0.0
  0
LINE
  5
5BC
330
1F
100
AcDbEntity
  8
0
  6
Continuous
 62
     7
100
AcDbLine
 10
703.5969523878454
 20
338.1983504939876
 30
0.0
 11
702.0969523878453
 21
338.1983504939666
 31
0.0
  0
LINE
  5
5BD
330
1F
100
AcDbEntity
  8
0
  6
Continuous
 62
     7
100
AcDbLine
 10
703.5969523878365
 20
339.6983504939867
 30
0.0
 11
703.5969523878454
 21
338.1983504939876
 31
0.0
  0
LINE
  5
5BE
330
1F
100
AcDbEntity
  8
0
  6
Continuous
 62
     7
100
AcDbLine
 10
704.5969523878365
 20
339.6983504939926
 30
0.0
 11
703.5969523878365
 21
339.6983504939867
 31
0.0
  0
LINE
  5
5BF
330
1F
100
AcDbEntity
  8
0
  6
Continuous
 62
     7
100
AcDbLine
 10
706.0969523878505
 20
337.1983504940006
 30
0.0
 11
706.0969523878456
 21
338.1983504939887
 31
0.0
  0
LINE
  5
5C0
330
1F
100
AcDbEntity
  8
0
  6
Continuous
 62
     7
100
AcDbLine
 10
682.6469524124344
 20
369.6183504932356
 30
0.0
 11
682.6469524124344
 21
346.6183504933117
 31
0.0
  0
CIRCLE
  5
5C1
330
1F
100
AcDbEntity
  8
0
  6
Continuous
 62
     7
370
     0
100
AcDbCircle
 10
704.0969523877638
 20
352.9383504939652
 30
0.0
 40
2.750000000000454
  0
LINE
  5
5C2
330
1F
100
AcDbEntity
  8
0
  6
Continuous
 62
     7
100
AcDbLine
 10
708.0969523877395
 20
357.4083504939867
 30
0.0
 11
699.0969523877395
 21
357.4083504939376
 31
0.0
  0
LINE
  5
5C3
330
1F
100
AcDbEntity
  8
0
  6
Continuous
 62
     7
100
AcDbLine
 10
699.0969523877477
 20
356.0883504939626
 30
0.0
 11
708.0969523877464
 21
356.0883504940246
 31
0.0
  0
LINE
  5
5C4
330
1F
100
AcDbEntity
  8
0
  6
Continuous
 62
     7
100
AcDbLine
 10
708.0969523877813
 20
349.7883504939867
 30
0.0
 11
699.0969523877814
 21
349.7883504939626
 31
0.0
  0
LINE
  5
5C5
330
1F
100
AcDbEntity
  8
0
  6
Continuous
 62
     7
100
AcDbLine
 10
699.0969523877887
 20
348.4683504939626
 30
0.0
 11
708.0969523877887
 21
348.4683504940246
 31
0.0
  0
LINE
  5
5C6
330
1F
100
AcDbEntity
  8
0
  6
Continuous
 62
     7
100
AcDbLine
 10
706.0969523878036
 20
345.8183504940326
 30
0.0
 11
704.5969523878036
 21
345.8183504940246
 31
0.0
  0
LINE
  5
5C7
330
1F
100
AcDbEntity
  8
0
  6
Continuous
 62
     7
100
AcDbLine
 10
704.5969523878086
 20
344.8183504940367
 30
0.0
 11
706.0969523878086
 21
344.8183504940447
 31
0.0
  0
LINE
  5
5C8
330
1F
100
AcDbEntity
  8
0
  6
Continuous
 62
     7
100
AcDbLine
 10
704.5969523877945
 20
347.3183504940357
 30
0.0
 11
704.5969523877945
 21
347.3183504940357
 31
0.0
  0
LINE
  5
5C9
330
1F
100
AcDbEntity
  8
0
  6
Continuous
 62
     7
100
AcDbLine
 10
704.5969523878036
 20
345.8183504940246
 30
0.0
 11
704.5969523877945
 21
347.3183504940357
 31
0.0
  0
LINE
  5
5CA
330
1F
100
AcDbEntity
  8
0
  6
Continuous
 62
     7
100
AcDbLine
 10
702.0969523878086
 20
344.8183504940227
 30
0.0
 11
703.5969523878086
 21
344.8183504940316
 31
0.0
  0
LINE
  5
5CB
330
1F
100
AcDbEntity
  8
0
  6
Continuous
 62
     7
100
AcDbLine
 10
702.0969523878036
 20
345.8183504940107
 30
0.0
 11
702.0969523878086
 21
344.8183504940227
 31
0.0
  0
LINE
  5
5CC
330
1F
100
AcDbEntity
  8
0
  6
Continuous
 62
     7
100
AcDbLine
 10
703.5969523878036
 20
345.8183504940316
 30
0.0
 11
702.0969523878036
 21
345.8183504940107
 31
0.0
  0
LINE
  5
5CD
330
1F
100
AcDbEntity
  8
0
  6
Continuous
 62
     7
100
AcDbLine
 10
703.5969523877943
 20
347.3183504940307
 30
0.0
 11
703.5969523878036
 21
345.8183504940316
 31
0.0
  0
LINE
  5
5CE
330
1F
100
AcDbEntity
  8
0
  6
Continuous
 62
     7
100
AcDbLine
 10
704.5969523877945
 20
347.3183504940357
 30
0.0
 11
703.5969523877943
 21
347.3183504940307
 31
0.0
  0
LINE
  5
5CF
330
1F
100
AcDbEntity
  8
0
  6
Continuous
 62
     7
100
AcDbLine
 10
706.0969523878086
 20
344.8183504940447
 30
0.0
 11
706.0969523878036
 21
345.8183504940326
 31
0.0
  0
LINE
  5
5D0
330
1F
100
AcDbEntity
  8
0
  6
Continuous
 62
     7
100
AcDbLine
 10
706.0969523877616
 20
353.4383504939887
 30
0.0
 11
704.5969523877617
 21
353.4383504939806
 31
0.0
  0
LINE
  5
5D1
330
1F
100
AcDbEntity
  8
0
  6
Continuous
 62
     7
100
AcDbLine
 10
704.5969523877666
 20
352.4383504939927
 30
0.0
 11
706.0969523877665
 21
352.4383504940006
 31
0.0
  0
LINE
  5
5D2
330
1F
100
AcDbEntity
  8
0
  6
Continuous
 62
     7
100
AcDbLine
 10
704.5969523877536
 20
354.9383504939926
 30
0.0
 11
704.5969523877536
 21
354.9383504939926
 31
0.0
  0
LINE
  5
5D3
330
1F
100
AcDbEntity
  8
0
  6
Continuous
 62
     7
100
AcDbLine
 10
704.5969523877617
 20
353.4383504939806
 30
0.0
 11
704.5969523877536
 21
354.9383504939926
 31
0.0
  0
LINE
  5
5D4
330
1F
100
AcDbEntity
  8
0
  6
Continuous
 62
     7
100
AcDbLine
 10
704.5969523877755
 20
350.9383504939926
 30
0.0
 11
704.5969523877666
 21
352.4383504939927
 31
0.0
  0
LINE
  5
5D5
330
1F
100
AcDbEntity
  8
0
  6
Continuous
 62
     7
100
AcDbLine
 10
703.5969523877755
 20
350.9383504939746
 30
0.0
 11
704.5969523877755
 21
350.9383504939926
 31
0.0
  0
LINE
  5
5D6
330
1F
100
AcDbEntity
  8
0
  6
Continuous
 62
     7
100
AcDbLine
 10
703.5969523877666
 20
352.4383504939876
 30
0.0
 11
703.5969523877755
 21
350.9383504939746
 31
0.0
  0
LINE
  5
5D7
330
1F
100
AcDbEntity
  8
0
  6
Continuous
 62
     7
100
AcDbLine
 10
702.0969523877665
 20
352.4383504939786
 30
0.0
 11
703.5969523877666
 21
352.4383504939876
 31
0.0
  0
LINE
  5
5D8
330
1F
100
AcDbEntity
  8
0
  6
Continuous
 62
     7
100
AcDbLine
 10
702.0969523877615
 20
353.4383504939666
 30
0.0
 11
702.0969523877665
 21
352.4383504939786
 31
0.0
  0
LINE
  5
5D9
330
1F
100
AcDbEntity
  8
0
  6
Continuous
 62
     7
100
AcDbLine
 10
703.5969523877615
 20
353.4383504939876
 30
0.0
 11
702.0969523877615
 21
353.4383504939666
 31
0.0
  0
LINE
  5
5DA
330
1F
100
AcDbEntity
  8
0
  6
Continuous
 62
     7
100
AcDbLine
 10
703.5969523877534
 20
354.9383504939866
 30
0.0
 11
703.5969523877615
 21
353.4383504939876
 31
0.0
  0
LINE
  5
5DB
330
1F
100
AcDbEntity
  8
0
  6
Continuous
 62
     7
100
AcDbLine
 10
704.5969523877536
 20
354.9383504939926
 30
0.0
 11
703.5969523877534
 21
354.9383504939866
 31
0.0
  0
LINE
  5
5DC
330
1F
100
AcDbEntity
  8
0
  6
Continuous
 62
     7
100
AcDbLine
 10
706.0969523877665
 20
352.4383504940006
 30
0.0
 11
706.0969523877616
 21
353.4383504939887
 31
0.0
  0
CIRCLE
  5
5DD
330
1F
100
AcDbEntity
  8
0
  6
Continuous
 62
     7
370
     0
100
AcDbCircle
 10
704.0969523876801
 20
368.1783504939652
 30
0.0
 40
2.750000000000454
  0
CIRCLE
  5
5DE
330
1F
100
AcDbEntity
  8
0
  6
Continuous
 62
     7
370
     0
100
AcDbCircle
 10
704.096952387722
 20
360.5583504940081
 30
0.0
 40
2.750000000000454
  0
LINE
  5
5DF
330
1F
100
AcDbEntity
  8
0
  6
Continuous
 62
     7
100
AcDbLine
 10
699.0969523876632
 20
371.3283504939377
 30
0.0
 11
708.0969523876635
 21
371.3283504939876
 31
0.0
  0
LINE
  5
5E0
330
1F
100
AcDbEntity
  8
0
  6
Continuous
 62
     7
100
AcDbLine
 10
708.0969523876976
 20
365.0283504940246
 30
0.0
 11
699.6827388253243
 21
365.0283504939745
 31
0.0
  0
LINE
  5
5E1
330
1F
100
AcDbEntity
  8
0
  6
Continuous
 62
     7
100
AcDbLine
 10
699.0969523877054
 20
363.7083504939627
 30
0.0
 11
708.0969523877056
 21
363.7083504939865
 31
0.0
  0
LINE
  5
5E2
330
1F
100
AcDbEntity
  8
0
  6
Continuous
 62
     7
100
AcDbLine
 10
706.0969523877196
 20
361.0583504940326
 30
0.0
 11
704.5969523877196
 21
361.0583504940246
 31
0.0
  0
LINE
  5
5E3
330
1F
100
AcDbEntity
  8
0
  6
Continuous
 62
     7
100
AcDbLine
 10
704.5969523877255
 20
360.0583504940367
 30
0.0
 11
706.0969523877255
 21
360.0583504940447
 31
0.0
  0
LINE
  5
5E4
330
1F
100
AcDbEntity
  8
0
  6
Continuous
 62
     7
100
AcDbLine
 10
704.5969523877114
 20
362.5583504940356
 30
0.0
 11
704.5969523877114
 21
362.5583504940356
 31
0.0
  0
LINE
  5
5E5
330
1F
100
AcDbEntity
  8
0
  6
Continuous
 62
     7
100
AcDbLine
 10
704.5969523877196
 20
361.0583504940246
 30
0.0
 11
704.5969523877114
 21
362.5583504940356
 31
0.0
  0
LINE
  5
5E6
330
1F
100
AcDbEntity
  8
0
  6
Continuous
 62
     7
100
AcDbLine
 10
704.5969523877332
 20
358.5583504940356
 30
0.0
 11
704.5969523877255
 21
360.0583504940367
 31
0.0
  0
LINE
  5
5E7
330
1F
100
AcDbEntity
  8
0
  6
Continuous
 62
     7
100
AcDbLine
 10
703.5969523877334
 20
358.5583504940186
 30
0.0
 11
704.5969523877332
 21
358.5583504940356
 31
0.0
  0
LINE
  5
5E8
330
1F
100
AcDbEntity
  8
0
  6
Continuous
 62
     7
100
AcDbLine
 10
703.5969523877255
 20
360.0583504940316
 30
0.0
 11
703.5969523877334
 21
358.5583504940186
 31
0.0
  0
LINE
  5
5E9
330
1F
100
AcDbEntity
  8
0
  6
Continuous
 62
     7
100
AcDbLine
 10
702.0969523877255
 20
360.0583504940226
 30
0.0
 11
703.5969523877255
 21
360.0583504940316
 31
0.0
  0
LINE
  5
5EA
330
1F
100
AcDbEntity
  8
0
  6
Continuous
 62
     7
100
AcDbLine
 10
702.0969523877194
 20
361.0583504940107
 30
0.0
 11
702.0969523877255
 21
360.0583504940226
 31
0.0
  0
LINE
  5
5EB
330
1F
100
AcDbEntity
  8
0
  6
Continuous
 62
     7
100
AcDbLine
 10
703.5969523877192
 20
361.0583504940316
 30
0.0
 11
702.0969523877194
 21
361.0583504940107
 31
0.0
  0
LINE
  5
5EC
330
1F
100
AcDbEntity
  8
0
  6
Continuous
 62
     7
100
AcDbLine
 10
703.5969523877114
 20
362.5583504940306
 30
0.0
 11
703.5969523877192
 21
361.0583504940316
 31
0.0
  0
LINE
  5
5ED
330
1F
100
AcDbEntity
  8
0
  6
Continuous
 62
     7
100
AcDbLine
 10
704.5969523877114
 20
362.5583504940356
 30
0.0
 11
703.5969523877114
 21
362.5583504940306
 31
0.0
  0
LINE
  5
5EE
330
1F
100
AcDbEntity
  8
0
  6
Continuous
 62
     7
100
AcDbLine
 10
706.0969523877255
 20
360.0583504940447
 30
0.0
 11
706.0969523877196
 21
361.0583504940326
 31
0.0
  0
LINE
  5
5EF
330
1F
100
AcDbEntity
  8
0
  6
Continuous
 62
     7
100
AcDbLine
 10
706.0969523876774
 20
368.6783504939887
 30
0.0
 11
704.5969523876773
 21
368.6783504939806
 31
0.0
  0
LINE
  5
5F0
330
1F
100
AcDbEntity
  8
0
  6
Continuous
 62
     7
100
AcDbLine
 10
704.5969523876833
 20
367.6783504939926
 30
0.0
 11
706.0969523876836
 21
367.6783504940007
 31
0.0
  0
LINE
  5
5F1
330
1F
100
AcDbEntity
  8
0
  6
Continuous
 62
     7
100
AcDbLine
 10
704.5969523876695
 20
370.1783504939927
 30
0.0
 11
704.5969523876695
 21
370.1783504939927
 31
0.0
  0
LINE
  5
5F2
330
1F
100
AcDbEntity
  8
0
  6
Continuous
 62
     7
100
AcDbLine
 10
704.5969523876773
 20
368.6783504939806
 30
0.0
 11
704.5969523876695
 21
370.1783504939927
 31
0.0
  0
LINE
  5
5F3
330
1F
100
AcDbEntity
  8
0
  6
Continuous
 62
     7
100
AcDbLine
 10
704.5969523876912
 20
366.1783504939926
 30
0.0
 11
704.5969523876833
 21
367.6783504939926
 31
0.0
  0
LINE
  5
5F4
330
1F
100
AcDbEntity
  8
0
  6
Continuous
 62
     7
100
AcDbLine
 10
703.5969523876915
 20
366.1783504939746
 30
0.0
 11
704.5969523876912
 21
366.1783504939926
 31
0.0
  0
LINE
  5
5F5
330
1F
100
AcDbEntity
  8
0
  6
Continuous
 62
     7
100
AcDbLine
 10
703.5969523876834
 20
367.6783504939876
 30
0.0
 11
703.5969523876915
 21
366.1783504939746
 31
0.0
  0
LINE
  5
5F6
330
1F
100
AcDbEntity
  8
0
  6
Continuous
 62
     7
100
AcDbLine
 10
702.0969523876836
 20
367.6783504939786
 30
0.0
 11
703.5969523876834
 21
367.6783504939876
 31
0.0
  0
LINE
  5
5F7
330
1F
100
AcDbEntity
  8
0
  6
Continuous
 62
     7
100
AcDbLine
 10
702.0969523876774
 20
368.6783504939666
 30
0.0
 11
702.0969523876836
 21
367.6783504939786
 31
0.0
  0
LINE
  5
5F8
330
1F
100
AcDbEntity
  8
0
  6
Continuous
 62
     7
100
AcDbLine
 10
703.5969523876774
 20
368.6783504939876
 30
0.0
 11
702.0969523876774
 21
368.6783504939666
 31
0.0
  0
LINE
  5
5F9
330
1F
100
AcDbEntity
  8
0
  6
Continuous
 62
     7
100
AcDbLine
 10
703.5969523876693
 20
370.1783504939866
 30
0.0
 11
703.5969523876774
 21
368.6783504939876
 31
0.0
  0
LINE
  5
5FA
330
1F
100
AcDbEntity
  8
0
  6
Continuous
 62
     7
100
AcDbLine
 10
704.5969523876695
 20
370.1783504939927
 30
0.0
 11
703.5969523876693
 21
370.1783504939866
 31
0.0
  0
LINE
  5
5FB
330
1F
100
AcDbEntity
  8
0
  6
Continuous
 62
     7
100
AcDbLine
 10
706.0969523876836
 20
367.6783504940007
 30
0.0
 11
706.0969523876774
 21
368.6783504939887
 31
0.0
  0
LINE
  5
5FC
330
1F
100
AcDbEntity
  8
0
  6
Continuous
 62
     7
100
AcDbLine
 10
598.3969524113396
 20
403.1183504941057
 30
0.0
 11
598.3969524113396
 21
389.1183504941057
 31
0.0
  0
LINE
  5
5FD
330
1F
100
AcDbEntity
  8
0
  6
Continuous
 62
     7
100
AcDbLine
 10
591.8969524113395
 20
384.1183504941056
 30
0.0
 11
597.8969524113396
 21
384.1183504941056
 31
0.0
  0
LINE
  5
5FE
330
1F
100
AcDbEntity
  8
0
  6
Continuous
 62
     7
100
AcDbLine
 10
591.8969524113395
 20
382.7583504940254
 30
0.0
 11
597.8969524113396
 21
382.7583504940846
 31
0.0
  0
LINE
  5
5FF
330
1F
100
AcDbEntity
  8
0
  6
Continuous
 62
     7
100
AcDbLine
 10
597.8969524113396
 20
376.4583504940956
 30
0.0
 11
591.8969524113395
 21
376.4583504940536
 31
0.0
  0
LINE
  5
600
330
1F
100
AcDbEntity
  8
0
  6
Continuous
 62
     7
100
AcDbLine
 10
591.8969524113395
 20
375.1383504940536
 30
0.0
 11
597.8969524113396
 21
375.1383504940956
 31
0.0
  0
LINE
  5
601
330
1F
100
AcDbEntity
  8
0
  6
Continuous
 62
     7
100
AcDbLine
 10
595.3969524113396
 20
380.6083504940196
 30
0.0
 11
595.3969524113396
 21
378.6083504940196
 31
0.0
  0
LINE
  5
602
330
1F
100
AcDbEntity
  8
0
  6
Continuous
 62
     7
100
AcDbLine
 10
592.8969524113396
 20
382.7583504940406
 30
0.0
 11
592.8969524113396
 21
376.4583504940667
 31
0.0
  0
ARC
  5
603
330
1F
100
AcDbEntity
  8
0
  6
Continuous
 62
     7
100
AcDbCircle
 10
593.896952411339
 20
372.9883504940274
 30
0.0
 40
1.500000000000254
100
AcDbArc
 50
0.0000000000097707
 51
89.99999999999024
  0
LINE
  5
604
330
1F
100
AcDbEntity
  8
0
  6
Continuous
 62
     7
100
AcDbLine
 10
592.8969524113396
 20
374.4883504940277
 30
0.0
 11
593.8969524113396
 21
374.4883504940277
 31
0.0
  0
ARC
  5
605
330
1F
100
AcDbEntity
  8
0
  6
Continuous
 62
     7
100
AcDbCircle
 10
593.896952411339
 20
378.6083504940198
 30
0.0
 40
1.500000000000241
100
AcDbArc
 50
270.0000000000096
 51
359.9999999999901
  0
LINE
  5
606
330
1F
100
AcDbEntity
  8
0
  6
Continuous
 62
     7
100
AcDbLine
 10
592.8969524113396
 20
377.1083504940196
 30
0.0
 11
593.8969524113396
 21
377.1083504940196
 31
0.0
  0
ARC
  5
607
330
1F
100
AcDbEntity
  8
0
  6
Continuous
 62
     7
100
AcDbCircle
 10
593.896952411339
 20
380.6083504940194
 30
0.0
 40
1.500000000000254
100
AcDbArc
 50
0.0000000000097707
 51
89.99999999999024
  0
LINE
  5
608
330
1F
100
AcDbEntity
  8
0
  6
Continuous
 62
     7
100
AcDbLine
 10
592.8969524113396
 20
382.1083504940196
 30
0.0
 11
593.8969524113396
 21
382.1083504940196
 31
0.0
  0
LINE
  5
609
330
1F
100
AcDbEntity
  8
0
  6
Continuous
 62
     7
100
AcDbLine
 10
598.6969524113394
 20
388.1183504941057
 30
0.0
 11
599.8969524113396
 21
388.1183504941057
 31
0.0
  0
LINE
  5
60A
330
1F
100
AcDbEntity
  8
0
  6
Continuous
 62
     7
100
AcDbLine
 10
598.6969524113394
 20
387.6183504941055
 30
0.0
 11
599.8969524113396
 21
387.6183504941055
 31
0.0
  0
ARC
  5
60B
330
1F
100
AcDbEntity
  8
0
  6
Continuous
 62
     7
100
AcDbCircle
 10
598.8969524113392
 20
403.6183504941052
 30
0.0
 40
1.00000000000017
100
AcDbArc
 50
0.0000000000097707
 51
89.99999999999024
  0
CIRCLE
  5
60C
330
1F
100
AcDbEntity
  8
0
  6
Continuous
 62
     7
370
     0
100
AcDbCircle
 10
677.896949942869
 20
383.1183498581218
 30
0.0
 40
3.300000000000491
  0
LINE
  5
60D
330
1F
100
AcDbEntity
  8
0
  6
Continuous
 62
     7
100
AcDbLine
 10
680.2969499428655
 20
383.7183498581506
 30
0.0
 11
678.4969499428655
 21
383.7183498581406
 31
0.0
  0
LINE
  5
60E
330
1F
100
AcDbEntity
  8
0
  6
Continuous
 62
     7
100
AcDbLine
 10
678.4969499428724
 20
382.5183498581555
 30
0.0
 11
680.2969499428726
 21
382.5183498581645
 31
0.0
  0
LINE
  5
60F
330
1F
100
AcDbEntity
  8
0
  6
Continuous
 62
     7
100
AcDbLine
 10
664.8969524113396
 20
389.6183504941055
 30
0.0
 11
690.8969524113396
 21
389.6183504941055
 31
0.0
  0
LINE
  5
610
330
1F
100
AcDbEntity
  8
0
  6
Continuous
 62
     7
100
AcDbLine
 10
659.8969524113396
 20
403.1183504941057
 30
0.0
 11
687.9604607382368
 21
403.1183504941057
 31
0.0
  0
LINE
  5
611
330
1F
100
AcDbEntity
  8
0
  6
Continuous
 62
     7
100
AcDbLine
 10
670.8969524113395
 20
417.1183504941057
 30
0.0
 11
684.3969524113396
 21
417.1183504941057
 31
0.0
  0
LINE
  5
612
330
1F
100
AcDbEntity
  8
0
  6
Continuous
 62
     7
100
AcDbLine
 10
659.8969524113396
 20
403.4183504941055
 30
0.0
 11
688.6479528116597
 21
403.4183504941055
 31
0.0
  0
LINE
  5
613
330
1F
100
AcDbEntity
  8
0
  6
Continuous
 62
     7
100
AcDbLine
 10
672.9173063403995
 20
377.6183504931996
 30
0.0
 11
682.8969524120716
 21
377.6183504931996
 31
0.0
  0
LINE
  5
614
330
1F
100
AcDbEntity
  8
0
  6
Continuous
 62
     7
100
AcDbLine
 10
682.8969524120716
 20
387.6183504932467
 30
0.0
 11
672.9173063403995
 21
387.6183504932467
 31
0.0
  0
LINE
  5
615
330
1F
100
AcDbEntity
  8
0
  6
Continuous
 62
     7
100
AcDbLine
 10
672.1469524121596
 20
377.6183504932187
 30
0.0
 11
683.6469524122305
 21
377.6183504932187
 31
0.0
  0
LINE
  5
616
330
1F
100
AcDbEntity
  8
0
  6
Continuous
 62
     7
100
AcDbLine
 10
672.9173063403995
 20
387.6183504932467
 30
0.0
 11
672.9173063403995
 21
377.6183504931996
 31
0.0
  0
LINE
  5
617
330
1F
100
AcDbEntity
  8
0
  6
Continuous
 62
     7
100
AcDbLine
 10
678.4969499428556
 20
385.5183498581556
 30
0.0
 11
678.4969499428556
 21
385.5183498581556
 31
0.0
  0
LINE
  5
618
330
1F
100
AcDbEntity
  8
0
  6
Continuous
 62
     7
100
AcDbLine
 10
678.4969499428655
 20
383.7183498581406
 30
0.0
 11
678.4969499428556
 21
385.5183498581556
 31
0.0
  0
LINE
  5
619
330
1F
100
AcDbEntity
  8
0
  6
Continuous
 62
     7
100
AcDbLine
 10
678.4969499428825
 20
380.7183498581556
 30
0.0
 11
678.4969499428724
 21
382.5183498581555
 31
0.0
  0
LINE
  5
61A
330
1F
100
AcDbEntity
  8
0
  6
Continuous
 62
     7
100
AcDbLine
 10
677.2969499428825
 20
380.7183498581346
 30
0.0
 11
678.4969499428825
 21
380.7183498581556
 31
0.0
  0
LINE
  5
61B
330
1F
100
AcDbEntity
  8
0
  6
Continuous
 62
     7
100
AcDbLine
 10
677.2969499428726
 20
382.5183498581496
 30
0.0
 11
677.2969499428825
 21
380.7183498581346
 31
0.0
  0
LINE
  5
61C
330
1F
100
AcDbEntity
  8
0
  6
Continuous
 62
     7
100
AcDbLine
 10
675.4969499428725
 20
382.5183498581385
 30
0.0
 11
677.2969499428726
 21
382.5183498581496
 31
0.0
  0
LINE
  5
61D
330
1F
100
AcDbEntity
  8
0
  6
Continuous
 62
     7
100
AcDbLine
 10
675.4969499428653
 20
383.7183498581246
 30
0.0
 11
675.4969499428725
 21
382.5183498581385
 31
0.0
  0
LINE
  5
61E
330
1F
100
AcDbEntity
  8
0
  6
Continuous
 62
     7
100
AcDbLine
 10
677.2969499428653
 20
383.7183498581497
 30
0.0
 11
675.4969499428653
 21
383.7183498581246
 31
0.0
  0
LINE
  5
61F
330
1F
100
AcDbEntity
  8
0
  6
Continuous
 62
     7
100
AcDbLine
 10
677.2969499428556
 20
385.5183498581486
 30
0.0
 11
677.2969499428653
 21
383.7183498581497
 31
0.0
  0
LINE
  5
620
330
1F
100
AcDbEntity
  8
0
  6
Continuous
 62
     7
100
AcDbLine
 10
678.4969499428556
 20
385.5183498581556
 30
0.0
 11
677.2969499428556
 21
385.5183498581486
 31
0.0
  0
ARC
  5
621
330
1F
100
AcDbEntity
  8
0
  6
Continuous
 62
     7
100
AcDbCircle
 10
670.8969524113405
 20
411.1183504941045
 30
0.0
 40
6.000000000000964
100
AcDbArc
 50
90.00000000000978
 51
179.9999999999901
  0
LINE
  5
622
330
1F
100
AcDbEntity
  8
0
  6
Continuous
 62
     7
100
AcDbLine
 10
664.8969524113396
 20
411.1183504941057
 30
0.0
 11
664.8969524113396
 21
404.6183504941057
 31
0.0
  0
CIRCLE
  5
623
330
1F
100
AcDbEntity
  8
0
  6
Continuous
 62
     7
370
     0
100
AcDbCircle
 10
689.8969524113392
 20
399.6183504941053
 30
0.0
 40
1.500000000000224
  0
ARC
  5
624
330
1F
100
AcDbEntity
  8
0
  6
Continuous
 62
     7
100
AcDbCircle
 10
689.8969524113396
 20
399.6183504941057
 30
0.0
 40
4.0
100
AcDbArc
 50
90.0
 51
270.0
  0
LINE
  5
625
330
1F
100
AcDbEntity
  8
0
  6
Continuous
 62
     7
100
AcDbLine
 10
695.8969524113395
 20
395.6183504941057
 30
0.0
 11
689.8969524113396
 21
395.6183504941057
 31
0.0
  0
LINE
  5
626
330
1F
100
AcDbEntity
  8
0
  6
Continuous
 62
     7
100
AcDbLine
 10
682.8969524120716
 20
377.6183504931996
 30
0.0
 11
682.8969524120716
 21
387.6183504932467
 31
0.0
  0
LINE
  5
627
330
1F
100
AcDbEntity
  8
0
  6
Continuous
 62
     7
100
AcDbLine
 10
680.2969499428726
 20
382.5183498581645
 30
0.0
 11
680.2969499428655
 21
383.7183498581506
 31
0.0
  0
CIRCLE
  5
628
330
1F
100
AcDbEntity
  8
0
  6
Continuous
 62
     7
370
     0
100
AcDbCircle
 10
689.8969524113392
 20
399.6183504941053
 30
0.0
 40
1.150000000000204
  0
CIRCLE
  5
629
330
1F
100
AcDbEntity
  8
0
  6
Continuous
 62
     7
370
     0
100
AcDbCircle
 10
704.096952387597
 20
383.4183504939652
 30
0.0
 40
2.750000000000397
  0
CIRCLE
  5
62A
330
1F
100
AcDbEntity
  8
0
  6
Continuous
 62
     7
370
     0
100
AcDbCircle
 10
704.0969523876379
 20
375.7983504939653
 30
0.0
 40
2.750000000000397
  0
LINE
  5
62B
330
1F
100
AcDbEntity
  8
0
  6
Continuous
 62
     7
100
AcDbLine
 10
708.0969523875793
 20
386.5683504940245
 30
0.0
 11
699.0969523875794
 21
386.5683504939626
 31
0.0
  0
LINE
  5
62C
330
1F
100
AcDbEntity
  8
0
  6
Continuous
 62
     7
100
AcDbLine
 10
699.0969523875794
 20
386.5683504939376
 30
0.0
 11
708.0969523875793
 21
386.5683504939876
 31
0.0
  0
LINE
  5
62D
330
1F
100
AcDbEntity
  8
0
  6
Continuous
 62
     7
100
AcDbLine
 10
708.0969523876144
 20
380.2683504940246
 30
0.0
 11
699.0969523876144
 21
380.2683504939626
 31
0.0
  0
LINE
  5
62E
330
1F
100
AcDbEntity
  8
0
  6
Continuous
 62
     7
100
AcDbLine
 10
699.0969523876216
 20
378.9483504939377
 30
0.0
 11
708.0969523876216
 21
378.9483504939876
 31
0.0
  0
LINE
  5
62F
330
1F
100
AcDbEntity
  8
0
  6
Continuous
 62
     7
100
AcDbLine
 10
708.0969523876565
 20
372.6483504939866
 30
0.0
 11
699.0969523876565
 21
372.6483504939626
 31
0.0
  0
LINE
  5
630
330
1F
100
AcDbEntity
  8
0
  6
Continuous
 62
     7
 48
2.0
100
AcDbLine
 10
695.8969524113395
 20
379.1183504941057
 30
0.0
 11
697.0969524113395
 21
379.1183504941057
 31
0.0
  0
LINE
  5
631
330
1F
100
AcDbEntity
  8
0
  6
Continuous
 62
     7
100
AcDbLine
 10
706.0969523876365
 20
376.2983504939886
 30
0.0
 11
704.5969523876365
 21
376.2983504939807
 31
0.0
  0
LINE
  5
632
330
1F
100
AcDbEntity
  8
0
  6
Continuous
 62
     7
100
AcDbLine
 10
704.5969523876414
 20
375.2983504939927
 30
0.0
 11
706.0969523876414
 21
375.2983504940007
 31
0.0
  0
LINE
  5
633
330
1F
100
AcDbEntity
  8
0
  6
Continuous
 62
     7
100
AcDbLine
 10
704.5969523876275
 20
377.7983504939927
 30
0.0
 11
704.5969523876275
 21
377.7983504939927
 31
0.0
  0
LINE
  5
634
330
1F
100
AcDbEntity
  8
0
  6
Continuous
 62
     7
100
AcDbLine
 10
704.5969523876365
 20
376.2983504939807
 30
0.0
 11
704.5969523876275
 21
377.7983504939927
 31
0.0
  0
LINE
  5
635
330
1F
100
AcDbEntity
  8
0
  6
Continuous
 62
     7
100
AcDbLine
 10
704.5969523876492
 20
373.7983504939927
 30
0.0
 11
704.5969523876414
 21
375.2983504939927
 31
0.0
  0
LINE
  5
636
330
1F
100
AcDbEntity
  8
0
  6
Continuous
 62
     7
100
AcDbLine
 10
703.5969523876492
 20
373.7983504939746
 30
0.0
 11
704.5969523876492
 21
373.7983504939927
 31
0.0
  0
LINE
  5
637
330
1F
100
AcDbEntity
  8
0
  6
Continuous
 62
     7
100
AcDbLine
 10
703.5969523876413
 20
375.2983504939876
 30
0.0
 11
703.5969523876492
 21
373.7983504939746
 31
0.0
  0
LINE
  5
638
330
1F
100
AcDbEntity
  8
0
  6
Continuous
 62
     7
100
AcDbLine
 10
702.0969523876414
 20
375.2983504939786
 30
0.0
 11
703.5969523876413
 21
375.2983504939876
 31
0.0
  0
LINE
  5
639
330
1F
100
AcDbEntity
  8
0
  6
Continuous
 62
     7
100
AcDbLine
 10
702.0969523876365
 20
376.2983504939666
 30
0.0
 11
702.0969523876414
 21
375.2983504939786
 31
0.0
  0
LINE
  5
63A
330
1F
100
AcDbEntity
  8
0
  6
Continuous
 62
     7
100
AcDbLine
 10
703.5969523876365
 20
376.2983504939876
 30
0.0
 11
702.0969523876365
 21
376.2983504939666
 31
0.0
  0
LINE
  5
63B
330
1F
100
AcDbEntity
  8
0
  6
Continuous
 62
     7
100
AcDbLine
 10
703.5969523876275
 20
377.7983504939865
 30
0.0
 11
703.5969523876365
 21
376.2983504939876
 31
0.0
  0
LINE
  5
63C
330
1F
100
AcDbEntity
  8
0
  6
Continuous
 62
     7
100
AcDbLine
 10
704.5969523876275
 20
377.7983504939927
 30
0.0
 11
703.5969523876275
 21
377.7983504939865
 31
0.0
  0
LINE
  5
63D
330
1F
100
AcDbEntity
  8
0
  6
Continuous
 62
     7
100
AcDbLine
 10
706.0969523876414
 20
375.2983504940007
 30
0.0
 11
706.0969523876365
 21
376.2983504939886
 31
0.0
  0
LINE
  5
63E
330
1F
100
AcDbEntity
  8
0
  6
Continuous
 62
     7
100
AcDbLine
 10
706.0969523875946
 20
383.9183504939886
 30
0.0
 11
704.5969523875944
 21
383.9183504939806
 31
0.0
  0
LINE
  5
63F
330
1F
100
AcDbEntity
  8
0
  6
Continuous
 62
     7
100
AcDbLine
 10
704.5969523875997
 20
382.9183504939927
 30
0.0
 11
706.0969523875995
 21
382.9183504940007
 31
0.0
  0
LINE
  5
640
330
1F
100
AcDbEntity
  8
0
  6
Continuous
 62
     7
100
AcDbLine
 10
704.5969523875855
 20
385.4183504939927
 30
0.0
 11
704.5969523875855
 21
385.4183504939927
 31
0.0
  0
LINE
  5
641
330
1F
100
AcDbEntity
  8
0
  6
Continuous
 62
     7
100
AcDbLine
 10
704.5969523875944
 20
383.9183504939806
 30
0.0
 11
704.5969523875855
 21
385.4183504939927
 31
0.0
  0
LINE
  5
642
330
1F
100
AcDbEntity
  8
0
  6
Continuous
 62
     7
100
AcDbLine
 10
704.5969523876075
 20
381.4183504939927
 30
0.0
 11
704.5969523875997
 21
382.9183504939927
 31
0.0
  0
LINE
  5
643
330
1F
100
AcDbEntity
  8
0
  6
Continuous
 62
     7
100
AcDbLine
 10
703.5969523876075
 20
381.4183504939746
 30
0.0
 11
704.5969523876075
 21
381.4183504939927
 31
0.0
  0
LINE
  5
644
330
1F
100
AcDbEntity
  8
0
  6
Continuous
 62
     7
100
AcDbLine
 10
703.5969523875994
 20
382.9183504939873
 30
0.0
 11
703.5969523876075
 21
381.4183504939746
 31
0.0
  0
LINE
  5
645
330
1F
100
AcDbEntity
  8
0
  6
Continuous
 62
     7
100
AcDbLine
 10
702.0969523875995
 20
382.9183504939786
 30
0.0
 11
703.5969523875994
 21
382.9183504939873
 31
0.0
  0
LINE
  5
646
330
1F
100
AcDbEntity
  8
0
  6
Continuous
 62
     7
100
AcDbLine
 10
702.0969523875946
 20
383.9183504939666
 30
0.0
 11
702.0969523875995
 21
382.9183504939786
 31
0.0
  0
LINE
  5
647
330
1F
100
AcDbEntity
  8
0
  6
Continuous
 62
     7
100
AcDbLine
 10
703.5969523875944
 20
383.9183504939875
 30
0.0
 11
702.0969523875946
 21
383.9183504939666
 31
0.0
  0
LINE
  5
648
330
1F
100
AcDbEntity
  8
0
  6
Continuous
 62
     7
100
AcDbLine
 10
703.5969523875855
 20
385.4183504939865
 30
0.0
 11
703.5969523875944
 21
383.9183504939875
 31
0.0
  0
LINE
  5
649
330
1F
100
AcDbEntity
  8
0
  6
Continuous
 62
     7
100
AcDbLine
 10
704.5969523875855
 20
385.4183504939927
 30
0.0
 11
703.5969523875855
 21
385.4183504939865
 31
0.0
  0
LINE
  5
64A
330
1F
100
AcDbEntity
  8
0
  6
Continuous
 62
     7
100
AcDbLine
 10
706.0969523875995
 20
382.9183504940007
 30
0.0
 11
706.0969523875946
 21
383.9183504939886
 31
0.0
  0
CIRCLE
  5
64B
330
1F
100
AcDbEntity
  8
0
  6
Continuous
 62
     7
370
     0
100
AcDbCircle
 10
700.3169524113388
 20
398.8183504941052
 30
0.0
 40
2.000000000000341
  0
LINE
  5
64C
330
1F
100
AcDbEntity
  8
0
  6
Continuous
 62
     7
100
AcDbLine
 10
695.8969524113395
 20
395.6183504941057
 30
0.0
 11
695.8969524113395
 21
388.9183504941056
 31
0.0
  0
ARC
  5
64D
330
1F
100
AcDbEntity
  8
0
  6
Continuous
 62
     7
100
AcDbCircle
 10
696.8969524113396
 20
388.9183504941056
 30
0.0
 40
1.00000000000017
100
AcDbArc
 50
180.0000000000096
 51
269.9999999999902
  0
CIRCLE
  5
64E
330
1F
100
AcDbEntity
  8
0
  6
Continuous
 62
     7
370
     0
100
AcDbCircle
 10
705.3969524113389
 20
398.8183504941052
 30
0.0
 40
2.000000000000341
  0
ARC
  5
64F
330
1F
100
AcDbEntity
  8
0
  6
Continuous
 62
     7
100
AcDbCircle
 10
695.3969524113396
 20
415.1183504941053
 30
0.0
 40
2.000000000000341
100
AcDbArc
 50
90.00000000000978
 51
179.9999999999901
  0
LINE
  5
650
330
1F
100
AcDbEntity
  8
0
  6
Continuous
 62
     7
100
AcDbLine
 10
689.8969524113396
 20
403.6183504941057
 30
0.0
 11
695.8969524113395
 21
403.6183504941057
 31
0.0
  0
ARC
  5
651
330
1F
100
AcDbEntity
  8
0
  6
Continuous
 62
     7
100
AcDbCircle
 10
684.396952411339
 20
415.1183504941053
 30
0.0
 40
2.000000000000311
100
AcDbArc
 50
0.0000000000097707
 51
89.99999999999024
  0
ARC
  5
652
330
1F
100
AcDbEntity
  8
0
  6
Continuous
 62
     7
100
AcDbCircle
 10
689.8969524113396
 20
411.1183504941057
 30
0.0
 40
3.499999999999943
100
AcDbArc
 50
180.0
 51
0.0
  0
LINE
  5
653
330
1F
100
AcDbEntity
  8
0
  6
Continuous
 62
     7
100
AcDbLine
 10
686.3969524113396
 20
415.1183504941057
 30
0.0
 11
686.3969524113396
 21
411.1183504941057
 31
0.0
  0
LINE
  5
654
330
1F
100
AcDbEntity
  8
0
  6
Continuous
 62
     7
100
AcDbLine
 10
693.3969524113392
 20
415.1183504941057
 30
0.0
 11
693.3969524113392
 21
411.1183504941057
 31
0.0
  0
LINE
  5
655
330
1F
100
AcDbEntity
  8
0
  6
Continuous
 62
     7
100
AcDbLine
 10
695.8969524113395
 20
404.6183504941057
 30
0.0
 11
695.8969524113395
 21
403.6183504941057
 31
0.0
  0
LINE
  5
656
330
1F
100
AcDbEntity
  8
0
  6
Continuous
 62
     7
100
AcDbLine
 10
695.3969524113396
 20
417.1183504941057
 30
0.0
 11
708.8969524113395
 21
417.1183504941057
 31
0.0
  0
CIRCLE
  5
657
330
1F
100
AcDbEntity
  8
0
  6
Continuous
 62
     7
370
     0
100
AcDbCircle
 10
713.0969523876578
 20
371.9883504940142
 30
0.0
 40
2.750000000000397
  0
LINE
  5
658
330
1F
100
AcDbEntity
  8
0
  6
Continuous
 62
     7
100
AcDbLine
 10
724.8969524113396
 20
404.6183504941057
 30
0.0
 11
724.8969524113396
 21
279.6183504941057
 31
0.0
  0
LINE
  5
659
330
1F
100
AcDbEntity
  8
0
  6
Continuous
 62
     7
100
AcDbLine
 10
718.3969524113393
 20
387.4183504941056
 30
0.0
 11
718.3969524113393
 21
299.4183504941056
 31
0.0
  0
LINE
  5
65A
330
1F
100
AcDbEntity
  8
0
  6
Continuous
 62
     7
100
AcDbLine
 10
718.0969523875723
 20
299.5983504939156
 30
0.0
 11
718.0969523875723
 21
387.8883504941295
 31
0.0
  0
LINE
  5
65B
330
1F
100
AcDbEntity
  8
0
  6
Continuous
 62
     7
100
AcDbLine
 10
715.0969523876625
 20
371.4883504941436
 30
0.0
 11
715.0969523876565
 21
372.4883504941316
 31
0.0
  0
LINE
  5
65C
330
1F
100
AcDbEntity
  8
0
  6
Continuous
 62
     7
100
AcDbLine
 10
711.0969523876565
 20
372.4883504941096
 30
0.0
 11
711.0969523876625
 21
371.4883504941217
 31
0.0
  0
LINE
  5
65D
330
1F
100
AcDbEntity
  8
0
  6
Continuous
 62
     7
100
AcDbLine
 10
718.0969523880564
 20
387.8883504939626
 30
0.0
 11
718.0969523880564
 21
299.5983504941506
 31
0.0
  0
LINE
  5
65E
330
1F
100
AcDbEntity
  8
0
  6
Continuous
 62
     7
100
AcDbLine
 10
713.9969548337603
 20
285.5183511043666
 30
0.0
 11
713.9969548337536
 21
286.7183511043666
 31
0.0
  0
LINE
  5
65F
330
1F
100
AcDbEntity
  8
0
  6
Continuous
 62
     7
100
AcDbLine
 10
713.1969548337544
 20
286.7183511043626
 30
0.0
 11
713.1969548337606
 21
285.5183511043526
 31
0.0
  0
ARC
  5
660
330
1F
100
AcDbEntity
  8
0
  6
Continuous
 62
     7
100
AcDbCircle
 10
713.5969524113395
 20
287.1183504941057
 30
0.0
 40
3.0
100
AcDbArc
 50
180.0
 51
0.0
  0
LINE
  5
661
330
1F
100
AcDbEntity
  8
0
  6
Continuous
 62
     7
100
AcDbLine
 10
714.8969524113396
 20
279.6183504941057
 30
0.0
 11
714.8969524113396
 21
273.1183504941057
 31
0.0
  0
LINE
  5
662
330
1F
100
AcDbEntity
  8
0
  6
Continuous
 62
     7
100
AcDbLine
 10
713.1969548337606
 20
285.5183511043526
 30
0.0
 11
713.9969548337603
 21
285.5183511043666
 31
0.0
  0
LINE
  5
663
330
1F
100
AcDbEntity
  8
0
  6
Continuous
 62
     7
100
AcDbLine
 10
718.3969524113393
 20
299.4183504941056
 30
0.0
 11
724.8969524113396
 21
299.4183504941056
 31
0.0
  0
ARC
  5
664
330
1F
100
AcDbEntity
  8
0
  6
Continuous
 62
     7
100
AcDbCircle
 10
713.5969524113395
 20
294.7183504941055
 30
0.0
 40
3.0
100
AcDbArc
 50
0.0
 51
180.0
  0
LINE
  5
665
330
1F
100
AcDbEntity
  8
0
  6
Continuous
 62
     7
100
AcDbLine
 10
710.5969524113395
 20
294.7183504941055
 30
0.0
 11
710.5969524113395
 21
287.1183504941057
 31
0.0
  0
LINE
  5
666
330
1F
100
AcDbEntity
  8
0
  6
Continuous
 62
     7
100
AcDbLine
 10
711.9969548337536
 20
286.7183511043556
 30
0.0
 11
713.1969548337544
 21
286.7183511043626
 31
0.0
  0
LINE
  5
667
330
1F
100
AcDbEntity
  8
0
  6
Continuous
 62
     7
100
AcDbLine
 10
713.1969548337495
 20
287.5183511043626
 30
0.0
 11
711.9969548337494
 21
287.5183511043457
 31
0.0
  0
LINE
  5
668
330
1F
100
AcDbEntity
  8
0
  6
Continuous
 62
     7
100
AcDbLine
 10
711.9969548337494
 20
287.5183511043457
 30
0.0
 11
711.9969548337536
 21
286.7183511043556
 31
0.0
  0
LINE
  5
669
330
1F
100
AcDbEntity
  8
0
  6
Continuous
 62
     7
100
AcDbLine
 10
713.9969548337425
 20
288.7183511043665
 30
0.0
 11
713.9969548337425
 21
288.7183511043665
 31
0.0
  0
LINE
  5
66A
330
1F
100
AcDbEntity
  8
0
  6
Continuous
 62
     7
100
AcDbLine
 10
713.9969548337494
 20
287.5183511043566
 30
0.0
 11
713.9969548337425
 21
288.7183511043665
 31
0.0
  0
LINE
  5
66B
330
1F
100
AcDbEntity
  8
0
  6
Continuous
 62
     7
100
AcDbLine
 10
715.1969548337493
 20
287.5183511043636
 30
0.0
 11
713.9969548337494
 21
287.5183511043566
 31
0.0
  0
LINE
  5
66C
330
1F
100
AcDbEntity
  8
0
  6
Continuous
 62
     7
100
AcDbLine
 10
715.1969548337546
 20
286.7183511043737
 30
0.0
 11
715.1969548337493
 21
287.5183511043636
 31
0.0
  0
LINE
  5
66D
330
1F
100
AcDbEntity
  8
0
  6
Continuous
 62
     7
100
AcDbLine
 10
713.9969548337536
 20
286.7183511043666
 30
0.0
 11
715.1969548337546
 21
286.7183511043737
 31
0.0
  0
LINE
  5
66E
330
1F
100
AcDbEntity
  8
0
  6
Continuous
 62
     7
100
AcDbLine
 10
713.1969548337434
 20
288.7183511043626
 30
0.0
 11
713.1969548337495
 21
287.5183511043626
 31
0.0
  0
LINE
  5
66F
330
1F
100
AcDbEntity
  8
0
  6
Continuous
 62
     7
100
AcDbLine
 10
713.9969548337425
 20
288.7183511043665
 30
0.0
 11
713.1969548337434
 21
288.7183511043626
 31
0.0
  0
LINE
  5
670
330
1F
100
AcDbEntity
  8
0
  6
Continuous
 62
     7
100
AcDbLine
 10
711.9969548337536
 20
294.3183511043556
 30
0.0
 11
713.1969548337544
 21
294.3183511043627
 31
0.0
  0
LINE
  5
671
330
1F
100
AcDbEntity
  8
0
  6
Continuous
 62
     7
100
AcDbLine
 10
713.1969548337495
 20
295.1183511043626
 30
0.0
 11
711.9969548337494
 21
295.1183511043456
 31
0.0
  0
LINE
  5
672
330
1F
100
AcDbEntity
  8
0
  6
Continuous
 62
     7
100
AcDbLine
 10
711.9969548337494
 20
295.1183511043456
 30
0.0
 11
711.9969548337536
 21
294.3183511043556
 31
0.0
  0
LINE
  5
673
330
1F
100
AcDbEntity
  8
0
  6
Continuous
 62
     7
100
AcDbLine
 10
713.9969548337425
 20
296.3183511043666
 30
0.0
 11
713.9969548337425
 21
296.3183511043666
 31
0.0
  0
LINE
  5
674
330
1F
100
AcDbEntity
  8
0
  6
Continuous
 62
     7
100
AcDbLine
 10
713.9969548337494
 20
295.1183511043566
 30
0.0
 11
713.9969548337425
 21
296.3183511043666
 31
0.0
  0
LINE
  5
675
330
1F
100
AcDbEntity
  8
0
  6
Continuous
 62
     7
100
AcDbLine
 10
715.1969548337493
 20
295.1183511043637
 30
0.0
 11
713.9969548337494
 21
295.1183511043566
 31
0.0
  0
LINE
  5
676
330
1F
100
AcDbEntity
  8
0
  6
Continuous
 62
     7
100
AcDbLine
 10
715.1969548337546
 20
294.3183511043736
 30
0.0
 11
715.1969548337493
 21
295.1183511043637
 31
0.0
  0
LINE
  5
677
330
1F
100
AcDbEntity
  8
0
  6
Continuous
 62
     7
100
AcDbLine
 10
713.9969548337536
 20
294.3183511043666
 30
0.0
 11
715.1969548337546
 21
294.3183511043736
 31
0.0
  0
LINE
  5
678
330
1F
100
AcDbEntity
  8
0
  6
Continuous
 62
     7
100
AcDbLine
 10
713.9969548337603
 20
293.1183511043665
 30
0.0
 11
713.9969548337536
 21
294.3183511043666
 31
0.0
  0
LINE
  5
679
330
1F
100
AcDbEntity
  8
0
  6
Continuous
 62
     7
100
AcDbLine
 10
713.1969548337606
 20
293.1183511043526
 30
0.0
 11
713.9969548337603
 21
293.1183511043665
 31
0.0
  0
LINE
  5
67A
330
1F
100
AcDbEntity
  8
0
  6
Continuous
 62
     7
100
AcDbLine
 10
713.1969548337544
 20
294.3183511043627
 30
0.0
 11
713.1969548337606
 21
293.1183511043526
 31
0.0
  0
LINE
  5
67B
330
1F
100
AcDbEntity
  8
0
  6
Continuous
 62
     7
100
AcDbLine
 10
713.1969548337434
 20
296.3183511043627
 30
0.0
 11
713.1969548337495
 21
295.1183511043626
 31
0.0
  0
LINE
  5
67C
330
1F
100
AcDbEntity
  8
0
  6
Continuous
 62
     7
100
AcDbLine
 10
713.9969548337425
 20
296.3183511043666
 30
0.0
 11
713.1969548337434
 21
296.3183511043627
 31
0.0
  0
LINE
  5
67D
330
1F
100
AcDbEntity
  8
0
  6
Continuous
 62
     7
100
AcDbLine
 10
716.5969524113395
 20
287.1183504941057
 30
0.0
 11
716.5969524113395
 21
294.7183504941055
 31
0.0
  0
CIRCLE
  5
67E
330
1F
100
AcDbEntity
  8
0
  6
Continuous
 62
     7
370
     0
100
AcDbCircle
 10
713.0969523880347
 20
303.4083504939701
 30
0.0
 40
2.750000000000454
  0
LINE
  5
67F
330
1F
100
AcDbEntity
  8
0
  6
Continuous
 62
     7
100
AcDbLine
 10
712.5969523880463
 20
301.4083504939806
 30
0.0
 11
713.5969523880463
 21
301.4083504939975
 31
0.0
  0
LINE
  5
680
330
1F
100
AcDbEntity
  8
0
  6
Continuous
 62
     7
100
AcDbLine
 10
713.5969523880244
 20
305.4083504939975
 30
0.0
 11
712.5969523880244
 21
305.4083504939926
 31
0.0
  0
LINE
  5
681
330
1F
100
AcDbEntity
  8
0
  6
Continuous
 62
     7
100
AcDbLine
 10
712.5969523880385
 20
302.9083504939926
 30
0.0
 11
712.5969523880463
 21
301.4083504939806
 31
0.0
  0
LINE
  5
682
330
1F
100
AcDbEntity
  8
0
  6
Continuous
 62
     7
100
AcDbLine
 10
711.0969523880383
 20
302.9083504939847
 30
0.0
 11
712.5969523880385
 21
302.9083504939926
 31
0.0
  0
LINE
  5
683
330
1F
100
AcDbEntity
  8
0
  6
Continuous
 62
     7
100
AcDbLine
 10
711.0969523880336
 20
303.9083504939727
 30
0.0
 11
711.0969523880383
 21
302.9083504939847
 31
0.0
  0
LINE
  5
684
330
1F
100
AcDbEntity
  8
0
  6
Continuous
 62
     7
100
AcDbLine
 10
712.5969523880334
 20
303.9083504939926
 30
0.0
 11
711.0969523880336
 21
303.9083504939727
 31
0.0
  0
LINE
  5
685
330
1F
100
AcDbEntity
  8
0
  6
Continuous
 62
     7
100
AcDbLine
 10
712.5969523880244
 20
305.4083504939926
 30
0.0
 11
712.5969523880334
 21
303.9083504939926
 31
0.0
  0
LINE
  5
686
330
1F
100
AcDbEntity
  8
0
  6
Continuous
 62
     7
100
AcDbLine
 10
713.5969523880244
 20
305.4083504939975
 30
0.0
 11
713.5969523880244
 21
305.4083504939975
 31
0.0
  0
LINE
  5
687
330
1F
100
AcDbEntity
  8
0
  6
Continuous
 62
     7
100
AcDbLine
 10
713.5969523880336
 20
303.9083504939856
 30
0.0
 11
713.5969523880244
 21
305.4083504939975
 31
0.0
  0
LINE
  5
688
330
1F
100
AcDbEntity
  8
0
  6
Continuous
 62
     7
100
AcDbLine
 10
715.0969523880336
 20
303.9083504939946
 30
0.0
 11
713.5969523880336
 21
303.9083504939856
 31
0.0
  0
LINE
  5
689
330
1F
100
AcDbEntity
  8
0
  6
Continuous
 62
     7
100
AcDbLine
 10
715.0969523880385
 20
302.9083504940056
 30
0.0
 11
715.0969523880336
 21
303.9083504939946
 31
0.0
  0
LINE
  5
68A
330
1F
100
AcDbEntity
  8
0
  6
Continuous
 62
     7
100
AcDbLine
 10
713.5969523880381
 20
302.9083504939986
 30
0.0
 11
715.0969523880385
 21
302.9083504940056
 31
0.0
  0
LINE
  5
68B
330
1F
100
AcDbEntity
  8
0
  6
Continuous
 62
     7
100
AcDbLine
 10
713.5969523880463
 20
301.4083504939975
 30
0.0
 11
713.5969523880381
 21
302.9083504939986
 31
0.0
  0
CIRCLE
  5
68C
330
1F
100
AcDbEntity
  8
0
  6
Continuous
 62
     7
370
     0
100
AcDbCircle
 10
713.0969523879928
 20
311.0283504940142
 30
0.0
 40
2.750000000000454
  0
LINE
  5
68D
330
1F
100
AcDbEntity
  8
0
  6
Continuous
 62
     7
100
AcDbLine
 10
712.5969523880055
 20
309.0283504940306
 30
0.0
 11
713.5969523880056
 21
309.0283504940476
 31
0.0
  0
LINE
  5
68E
330
1F
100
AcDbEntity
  8
0
  6
Continuous
 62
     7
100
AcDbLine
 10
713.5969523879833
 20
313.0283504940476
 30
0.0
 11
712.5969523879835
 21
313.0283504940426
 31
0.0
  0
LINE
  5
68F
330
1F
100
AcDbEntity
  8
0
  6
Continuous
 62
     7
100
AcDbLine
 10
712.5969523879965
 20
310.5283504940426
 30
0.0
 11
712.5969523880055
 21
309.0283504940306
 31
0.0
  0
LINE
  5
690
330
1F
100
AcDbEntity
  8
0
  6
Continuous
 62
     7
100
AcDbLine
 10
711.0969523879965
 20
310.5283504940345
 30
0.0
 11
712.5969523879965
 21
310.5283504940426
 31
0.0
  0
LINE
  5
691
330
1F
100
AcDbEntity
  8
0
  6
Continuous
 62
     7
100
AcDbLine
 10
711.0969523879917
 20
311.5283504940226
 30
0.0
 11
711.0969523879965
 21
310.5283504940345
 31
0.0
  0
LINE
  5
692
330
1F
100
AcDbEntity
  8
0
  6
Continuous
 62
     7
100
AcDbLine
 10
712.5969523879915
 20
311.5283504940427
 30
0.0
 11
711.0969523879917
 21
311.5283504940226
 31
0.0
  0
LINE
  5
693
330
1F
100
AcDbEntity
  8
0
  6
Continuous
 62
     7
100
AcDbLine
 10
712.5969523879835
 20
313.0283504940426
 30
0.0
 11
712.5969523879915
 21
311.5283504940427
 31
0.0
  0
LINE
  5
694
330
1F
100
AcDbEntity
  8
0
  6
Continuous
 62
     7
100
AcDbLine
 10
713.5969523879833
 20
313.0283504940476
 30
0.0
 11
713.5969523879833
 21
313.0283504940476
 31
0.0
  0
LINE
  5
695
330
1F
100
AcDbEntity
  8
0
  6
Continuous
 62
     7
100
AcDbLine
 10
713.5969523879913
 20
311.5283504940355
 30
0.0
 11
713.5969523879833
 21
313.0283504940476
 31
0.0
  0
LINE
  5
696
330
1F
100
AcDbEntity
  8
0
  6
Continuous
 62
     7
100
AcDbLine
 10
715.0969523879914
 20
311.5283504940446
 30
0.0
 11
713.5969523879913
 21
311.5283504940355
 31
0.0
  0
LINE
  5
697
330
1F
100
AcDbEntity
  8
0
  6
Continuous
 62
     7
100
AcDbLine
 10
715.0969523879965
 20
310.5283504940556
 30
0.0
 11
715.0969523879914
 21
311.5283504940446
 31
0.0
  0
LINE
  5
698
330
1F
100
AcDbEntity
  8
0
  6
Continuous
 62
     7
100
AcDbLine
 10
713.5969523879965
 20
310.5283504940487
 30
0.0
 11
715.0969523879965
 21
310.5283504940556
 31
0.0
  0
LINE
  5
699
330
1F
100
AcDbEntity
  8
0
  6
Continuous
 62
     7
100
AcDbLine
 10
713.5969523880056
 20
309.0283504940476
 30
0.0
 11
713.5969523879965
 21
310.5283504940487
 31
0.0
  0
CIRCLE
  5
69A
330
1F
100
AcDbEntity
  8
0
  6
Continuous
 62
     7
370
     0
100
AcDbCircle
 10
713.0969523878246
 20
341.5083504940573
 30
0.0
 40
2.750000000000454
  0
LINE
  5
69B
330
1F
100
AcDbEntity
  8
0
  6
Continuous
 62
     7
100
AcDbLine
 10
713.5969523878245
 20
342.0083504940796
 30
0.0
 11
713.5969523878153
 21
343.5083504940917
 31
0.0
  0
LINE
  5
69C
330
1F
100
AcDbEntity
  8
0
  6
Continuous
 62
     7
100
AcDbLine
 10
712.5969523878153
 20
343.5083504940867
 30
0.0
 11
712.5969523878244
 21
342.0083504940865
 31
0.0
  0
CIRCLE
  5
69D
330
1F
100
AcDbEntity
  8
0
  6
Continuous
 62
     7
370
     0
100
AcDbCircle
 10
713.0969523879088
 20
326.2683504940572
 30
0.0
 40
2.750000000000454
  0
CIRCLE
  5
69E
330
1F
100
AcDbEntity
  8
0
  6
Continuous
 62
     7
370
     0
100
AcDbCircle
 10
713.0969523879506
 20
318.6483504940142
 30
0.0
 40
2.750000000000508
  0
LINE
  5
69F
330
1F
100
AcDbEntity
  8
0
  6
Continuous
 62
     7
100
AcDbLine
 10
712.5969523879636
 20
316.6483504940245
 30
0.0
 11
713.5969523879635
 21
316.6483504940416
 31
0.0
  0
LINE
  5
6A0
330
1F
100
AcDbEntity
  8
0
  6
Continuous
 62
     7
100
AcDbLine
 10
713.5969523879414
 20
320.6483504940416
 30
0.0
 11
712.5969523879414
 21
320.6483504940357
 31
0.0
  0
LINE
  5
6A1
330
1F
100
AcDbEntity
  8
0
  6
Continuous
 62
     7
100
AcDbLine
 10
712.5969523879555
 20
318.1483504940366
 30
0.0
 11
712.5969523879636
 21
316.6483504940245
 31
0.0
  0
LINE
  5
6A2
330
1F
100
AcDbEntity
  8
0
  6
Continuous
 62
     7
100
AcDbLine
 10
711.0969523879552
 20
318.1483504940276
 30
0.0
 11
712.5969523879555
 21
318.1483504940366
 31
0.0
  0
LINE
  5
6A3
330
1F
100
AcDbEntity
  8
0
  6
Continuous
 62
     7
100
AcDbLine
 10
711.0969523879495
 20
319.1483504940157
 30
0.0
 11
711.0969523879552
 21
318.1483504940276
 31
0.0
  0
LINE
  5
6A4
330
1F
100
AcDbEntity
  8
0
  6
Continuous
 62
     7
100
AcDbLine
 10
712.5969523879497
 20
319.1483504940366
 30
0.0
 11
711.0969523879495
 21
319.1483504940157
 31
0.0
  0
LINE
  5
6A5
330
1F
100
AcDbEntity
  8
0
  6
Continuous
 62
     7
100
AcDbLine
 10
712.5969523879414
 20
320.6483504940357
 30
0.0
 11
712.5969523879497
 21
319.1483504940366
 31
0.0
  0
LINE
  5
6A6
330
1F
100
AcDbEntity
  8
0
  6
Continuous
 62
     7
100
AcDbLine
 10
713.5969523879414
 20
320.6483504940416
 30
0.0
 11
713.5969523879414
 21
320.6483504940416
 31
0.0
  0
LINE
  5
6A7
330
1F
100
AcDbEntity
  8
0
  6
Continuous
 62
     7
100
AcDbLine
 10
713.5969523879497
 20
319.1483504940296
 30
0.0
 11
713.5969523879414
 21
320.6483504940416
 31
0.0
  0
LINE
  5
6A8
330
1F
100
AcDbEntity
  8
0
  6
Continuous
 62
     7
100
AcDbLine
 10
715.0969523879495
 20
319.1483504940376
 30
0.0
 11
713.5969523879497
 21
319.1483504940296
 31
0.0
  0
LINE
  5
6A9
330
1F
100
AcDbEntity
  8
0
  6
Continuous
 62
     7
100
AcDbLine
 10
715.0969523879555
 20
318.1483504940497
 30
0.0
 11
715.0969523879495
 21
319.1483504940376
 31
0.0
  0
LINE
  5
6AA
330
1F
100
AcDbEntity
  8
0
  6
Continuous
 62
     7
100
AcDbLine
 10
713.5969523879555
 20
318.1483504940426
 30
0.0
 11
715.0969523879555
 21
318.1483504940497
 31
0.0
  0
LINE
  5
6AB
330
1F
100
AcDbEntity
  8
0
  6
Continuous
 62
     7
100
AcDbLine
 10
713.5969523879635
 20
316.6483504940416
 30
0.0
 11
713.5969523879555
 21
318.1483504940426
 31
0.0
  0
LINE
  5
6AC
330
1F
100
AcDbEntity
  8
0
  6
Continuous
 62
     7
100
AcDbLine
 10
712.5969523879214
 20
324.2683504940746
 30
0.0
 11
713.5969523879214
 21
324.2683504940917
 31
0.0
  0
LINE
  5
6AD
330
1F
100
AcDbEntity
  8
0
  6
Continuous
 62
     7
100
AcDbLine
 10
713.5969523878996
 20
328.2683504940917
 30
0.0
 11
712.5969523878994
 21
328.2683504940856
 31
0.0
  0
LINE
  5
6AE
330
1F
100
AcDbEntity
  8
0
  6
Continuous
 62
     7
100
AcDbLine
 10
712.5969523879135
 20
325.7683504940867
 30
0.0
 11
712.5969523879214
 21
324.2683504940746
 31
0.0
  0
LINE
  5
6AF
330
1F
100
AcDbEntity
  8
0
  6
Continuous
 62
     7
100
AcDbLine
 10
711.0969523879133
 20
325.7683504940777
 30
0.0
 11
712.5969523879135
 21
325.7683504940867
 31
0.0
  0
LINE
  5
6B0
330
1F
100
AcDbEntity
  8
0
  6
Continuous
 62
     7
100
AcDbLine
 10
711.0969523879075
 20
326.7683504940656
 30
0.0
 11
711.0969523879133
 21
325.7683504940777
 31
0.0
  0
LINE
  5
6B1
330
1F
100
AcDbEntity
  8
0
  6
Continuous
 62
     7
100
AcDbLine
 10
712.5969523879075
 20
326.7683504940866
 30
0.0
 11
711.0969523879075
 21
326.7683504940656
 31
0.0
  0
LINE
  5
6B2
330
1F
100
AcDbEntity
  8
0
  6
Continuous
 62
     7
100
AcDbLine
 10
712.5969523878994
 20
328.2683504940856
 30
0.0
 11
712.5969523879075
 21
326.7683504940866
 31
0.0
  0
LINE
  5
6B3
330
1F
100
AcDbEntity
  8
0
  6
Continuous
 62
     7
100
AcDbLine
 10
713.5969523878996
 20
328.2683504940917
 30
0.0
 11
713.5969523878996
 21
328.2683504940917
 31
0.0
  0
LINE
  5
6B4
330
1F
100
AcDbEntity
  8
0
  6
Continuous
 62
     7
100
AcDbLine
 10
713.5969523879075
 20
326.7683504940797
 30
0.0
 11
713.5969523878996
 21
328.2683504940917
 31
0.0
  0
LINE
  5
6B5
330
1F
100
AcDbEntity
  8
0
  6
Continuous
 62
     7
100
AcDbLine
 10
715.0969523879076
 20
326.7683504940876
 30
0.0
 11
713.5969523879075
 21
326.7683504940797
 31
0.0
  0
LINE
  5
6B6
330
1F
100
AcDbEntity
  8
0
  6
Continuous
 62
     7
100
AcDbLine
 10
715.0969523879133
 20
325.7683504940997
 30
0.0
 11
715.0969523879076
 21
326.7683504940876
 31
0.0
  0
LINE
  5
6B7
330
1F
100
AcDbEntity
  8
0
  6
Continuous
 62
     7
100
AcDbLine
 10
713.5969523879133
 20
325.7683504940926
 30
0.0
 11
715.0969523879133
 21
325.7683504940997
 31
0.0
  0
LINE
  5
6B8
330
1F
100
AcDbEntity
  8
0
  6
Continuous
 62
     7
100
AcDbLine
 10
713.5969523879214
 20
324.2683504940917
 30
0.0
 11
713.5969523879133
 21
325.7683504940926
 31
0.0
  0
CIRCLE
  5
6B9
330
1F
100
AcDbEntity
  8
0
  6
Continuous
 62
     7
370
     0
100
AcDbCircle
 10
713.0969523878668
 20
333.8883504940142
 30
0.0
 40
2.750000000000454
  0
LINE
  5
6BA
330
1F
100
AcDbEntity
  8
0
  6
Continuous
 62
     7
100
AcDbLine
 10
712.5969523878795
 20
331.8883504940246
 30
0.0
 11
713.5969523878793
 21
331.8883504940416
 31
0.0
  0
LINE
  5
6BB
330
1F
100
AcDbEntity
  8
0
  6
Continuous
 62
     7
100
AcDbLine
 10
713.5969523878575
 20
335.8883504940416
 30
0.0
 11
712.5969523878572
 21
335.8883504940366
 31
0.0
  0
LINE
  5
6BC
330
1F
100
AcDbEntity
  8
0
  6
Continuous
 62
     7
100
AcDbLine
 10
712.5969523878714
 20
333.3883504940367
 30
0.0
 11
712.5969523878795
 21
331.8883504940246
 31
0.0
  0
LINE
  5
6BD
330
1F
100
AcDbEntity
  8
0
  6
Continuous
 62
     7
100
AcDbLine
 10
711.0969523878715
 20
333.3883504940276
 30
0.0
 11
712.5969523878714
 21
333.3883504940367
 31
0.0
  0
LINE
  5
6BE
330
1F
100
AcDbEntity
  8
0
  6
Continuous
 62
     7
100
AcDbLine
 10
711.0969523878654
 20
334.3883504940157
 30
0.0
 11
711.0969523878715
 21
333.3883504940276
 31
0.0
  0
LINE
  5
6BF
330
1F
100
AcDbEntity
  8
0
  6
Continuous
 62
     7
100
AcDbLine
 10
712.5969523878654
 20
334.3883504940366
 30
0.0
 11
711.0969523878654
 21
334.3883504940157
 31
0.0
  0
LINE
  5
6C0
330
1F
100
AcDbEntity
  8
0
  6
Continuous
 62
     7
100
AcDbLine
 10
712.5969523878572
 20
335.8883504940366
 30
0.0
 11
712.5969523878654
 21
334.3883504940366
 31
0.0
  0
LINE
  5
6C1
330
1F
100
AcDbEntity
  8
0
  6
Continuous
 62
     7
100
AcDbLine
 10
713.5969523878575
 20
335.8883504940416
 30
0.0
 11
713.5969523878575
 21
335.8883504940416
 31
0.0
  0
LINE
  5
6C2
330
1F
100
AcDbEntity
  8
0
  6
Continuous
 62
     7
100
AcDbLine
 10
713.5969523878656
 20
334.3883504940297
 30
0.0
 11
713.5969523878575
 21
335.8883504940416
 31
0.0
  0
LINE
  5
6C3
330
1F
100
AcDbEntity
  8
0
  6
Continuous
 62
     7
100
AcDbLine
 10
715.0969523878655
 20
334.3883504940377
 30
0.0
 11
713.5969523878656
 21
334.3883504940297
 31
0.0
  0
LINE
  5
6C4
330
1F
100
AcDbEntity
  8
0
  6
Continuous
 62
     7
100
AcDbLine
 10
715.0969523878715
 20
333.3883504940497
 30
0.0
 11
715.0969523878655
 21
334.3883504940377
 31
0.0
  0
LINE
  5
6C5
330
1F
100
AcDbEntity
  8
0
  6
Continuous
 62
     7
100
AcDbLine
 10
713.5969523878713
 20
333.3883504940426
 30
0.0
 11
715.0969523878715
 21
333.3883504940497
 31
0.0
  0
LINE
  5
6C6
330
1F
100
AcDbEntity
  8
0
  6
Continuous
 62
     7
100
AcDbLine
 10
713.5969523878793
 20
331.8883504940416
 30
0.0
 11
713.5969523878713
 21
333.3883504940426
 31
0.0
  0
LINE
  5
6C7
330
1F
100
AcDbEntity
  8
0
  6
Continuous
 62
     7
100
AcDbLine
 10
712.5969523878376
 20
339.5083504940746
 30
0.0
 11
713.5969523878376
 21
339.5083504940917
 31
0.0
  0
LINE
  5
6C8
330
1F
100
AcDbEntity
  8
0
  6
Continuous
 62
     7
100
AcDbLine
 10
712.5969523878294
 20
341.0083504940867
 30
0.0
 11
712.5969523878376
 21
339.5083504940746
 31
0.0
  0
LINE
  5
6C9
330
1F
100
AcDbEntity
  8
0
  6
Continuous
 62
     7
100
AcDbLine
 10
711.0969523878294
 20
341.0083504940776
 30
0.0
 11
712.5969523878294
 21
341.0083504940867
 31
0.0
  0
LINE
  5
6CA
330
1F
100
AcDbEntity
  8
0
  6
Continuous
 62
     7
100
AcDbLine
 10
711.0969523878245
 20
342.0083504940656
 30
0.0
 11
711.0969523878294
 21
341.0083504940776
 31
0.0
  0
LINE
  5
6CB
330
1F
100
AcDbEntity
  8
0
  6
Continuous
 62
     7
100
AcDbLine
 10
712.5969523878244
 20
342.0083504940865
 30
0.0
 11
711.0969523878245
 21
342.0083504940656
 31
0.0
  0
LINE
  5
6CC
330
1F
100
AcDbEntity
  8
0
  6
Continuous
 62
     7
100
AcDbLine
 10
715.0969523878245
 20
342.0083504940876
 30
0.0
 11
713.5969523878245
 21
342.0083504940796
 31
0.0
  0
LINE
  5
6CD
330
1F
100
AcDbEntity
  8
0
  6
Continuous
 62
     7
100
AcDbLine
 10
715.0969523878294
 20
341.0083504940995
 30
0.0
 11
715.0969523878245
 21
342.0083504940876
 31
0.0
  0
LINE
  5
6CE
330
1F
100
AcDbEntity
  8
0
  6
Continuous
 62
     7
100
AcDbLine
 10
713.5969523878294
 20
341.0083504940926
 30
0.0
 11
715.0969523878294
 21
341.0083504940995
 31
0.0
  0
LINE
  5
6CF
330
1F
100
AcDbEntity
  8
0
  6
Continuous
 62
     7
100
AcDbLine
 10
713.5969523878376
 20
339.5083504940917
 30
0.0
 11
713.5969523878294
 21
341.0083504940926
 31
0.0
  0
CIRCLE
  5
6D0
330
1F
100
AcDbEntity
  8
0
  6
Continuous
 62
     7
370
     0
100
AcDbCircle
 10
713.0969523877417
 20
356.7483504940573
 30
0.0
 40
2.750000000000454
  0
LINE
  5
6D1
330
1F
100
AcDbEntity
  8
0
  6
Continuous
 62
     7
100
AcDbLine
 10
713.5969523877404
 20
357.2483504940796
 30
0.0
 11
713.5969523877325
 21
358.7483504940917
 31
0.0
  0
LINE
  5
6D2
330
1F
100
AcDbEntity
  8
0
  6
Continuous
 62
     7
100
AcDbLine
 10
712.5969523877325
 20
358.7483504940867
 30
0.0
 11
712.5969523877404
 21
357.2483504940866
 31
0.0
  0
CIRCLE
  5
6D3
330
1F
100
AcDbEntity
  8
0
  6
Continuous
 62
     7
370
     0
100
AcDbCircle
 10
713.0969523877838
 20
349.1283504940142
 30
0.0
 40
2.750000000000454
  0
LINE
  5
6D4
330
1F
100
AcDbEntity
  8
0
  6
Continuous
 62
     7
100
AcDbLine
 10
713.5969523877824
 20
349.6283504940297
 30
0.0
 11
713.5969523877746
 21
351.1283504940415
 31
0.0
  0
LINE
  5
6D5
330
1F
100
AcDbEntity
  8
0
  6
Continuous
 62
     7
100
AcDbLine
 10
712.5969523877746
 20
351.1283504940367
 30
0.0
 11
712.5969523877819
 21
349.6283504940366
 31
0.0
  0
LINE
  5
6D6
330
1F
100
AcDbEntity
  8
0
  6
Continuous
 62
     7
100
AcDbLine
 10
712.5969523877963
 20
347.1283504940246
 30
0.0
 11
713.5969523877965
 21
347.1283504940415
 31
0.0
  0
LINE
  5
6D7
330
1F
100
AcDbEntity
  8
0
  6
Continuous
 62
     7
100
AcDbLine
 10
713.5969523878153
 20
343.5083504940917
 30
0.0
 11
712.5969523878153
 21
343.5083504940867
 31
0.0
  0
LINE
  5
6D8
330
1F
100
AcDbEntity
  8
0
  6
Continuous
 62
     7
100
AcDbLine
 10
712.5969523877873
 20
348.6283504940367
 30
0.0
 11
712.5969523877963
 21
347.1283504940246
 31
0.0
  0
LINE
  5
6D9
330
1F
100
AcDbEntity
  8
0
  6
Continuous
 62
     7
100
AcDbLine
 10
711.0969523877872
 20
348.6283504940276
 30
0.0
 11
712.5969523877873
 21
348.6283504940367
 31
0.0
  0
LINE
  5
6DA
330
1F
100
AcDbEntity
  8
0
  6
Continuous
 62
     7
100
AcDbLine
 10
711.0969523877826
 20
349.6283504940156
 30
0.0
 11
711.0969523877872
 21
348.6283504940276
 31
0.0
  0
LINE
  5
6DB
330
1F
100
AcDbEntity
  8
0
  6
Continuous
 62
     7
100
AcDbLine
 10
712.5969523877819
 20
349.6283504940366
 30
0.0
 11
711.0969523877826
 21
349.6283504940156
 31
0.0
  0
LINE
  5
6DC
330
1F
100
AcDbEntity
  8
0
  6
Continuous
 62
     7
100
AcDbLine
 10
715.0969523877826
 20
349.6283504940377
 30
0.0
 11
713.5969523877824
 21
349.6283504940297
 31
0.0
  0
LINE
  5
6DD
330
1F
100
AcDbEntity
  8
0
  6
Continuous
 62
     7
100
AcDbLine
 10
715.0969523877875
 20
348.6283504940497
 30
0.0
 11
715.0969523877826
 21
349.6283504940377
 31
0.0
  0
LINE
  5
6DE
330
1F
100
AcDbEntity
  8
0
  6
Continuous
 62
     7
100
AcDbLine
 10
713.5969523877876
 20
348.6283504940426
 30
0.0
 11
715.0969523877875
 21
348.6283504940497
 31
0.0
  0
LINE
  5
6DF
330
1F
100
AcDbEntity
  8
0
  6
Continuous
 62
     7
100
AcDbLine
 10
713.5969523877965
 20
347.1283504940415
 30
0.0
 11
713.5969523877876
 21
348.6283504940426
 31
0.0
  0
LINE
  5
6E0
330
1F
100
AcDbEntity
  8
0
  6
Continuous
 62
     7
100
AcDbLine
 10
713.5969523878153
 20
343.5083504940917
 30
0.0
 11
713.5969523878153
 21
343.5083504940917
 31
0.0
  0
LINE
  5
6E1
330
1F
100
AcDbEntity
  8
0
  6
Continuous
 62
     7
100
AcDbLine
 10
712.5969523877545
 20
354.7483504940746
 30
0.0
 11
713.5969523877545
 21
354.7483504940917
 31
0.0
  0
LINE
  5
6E2
330
1F
100
AcDbEntity
  8
0
  6
Continuous
 62
     7
100
AcDbLine
 10
713.5969523877746
 20
351.1283504940415
 30
0.0
 11
712.5969523877746
 21
351.1283504940367
 31
0.0
  0
LINE
  5
6E3
330
1F
100
AcDbEntity
  8
0
  6
Continuous
 62
     7
100
AcDbLine
 10
712.5969523877464
 20
356.2483504940867
 30
0.0
 11
712.5969523877545
 21
354.7483504940746
 31
0.0
  0
LINE
  5
6E4
330
1F
100
AcDbEntity
  8
0
  6
Continuous
 62
     7
100
AcDbLine
 10
711.0969523877464
 20
356.2483504940776
 30
0.0
 11
712.5969523877464
 21
356.2483504940867
 31
0.0
  0
LINE
  5
6E5
330
1F
100
AcDbEntity
  8
0
  6
Continuous
 62
     7
100
AcDbLine
 10
711.0969523877404
 20
357.2483504940656
 30
0.0
 11
711.0969523877464
 21
356.2483504940776
 31
0.0
  0
LINE
  5
6E6
330
1F
100
AcDbEntity
  8
0
  6
Continuous
 62
     7
100
AcDbLine
 10
712.5969523877404
 20
357.2483504940866
 30
0.0
 11
711.0969523877404
 21
357.2483504940656
 31
0.0
  0
LINE
  5
6E7
330
1F
100
AcDbEntity
  8
0
  6
Continuous
 62
     7
100
AcDbLine
 10
715.0969523877404
 20
357.2483504940876
 30
0.0
 11
713.5969523877404
 21
357.2483504940796
 31
0.0
  0
LINE
  5
6E8
330
1F
100
AcDbEntity
  8
0
  6
Continuous
 62
     7
100
AcDbLine
 10
715.0969523877464
 20
356.2483504940996
 30
0.0
 11
715.0969523877404
 21
357.2483504940876
 31
0.0
  0
LINE
  5
6E9
330
1F
100
AcDbEntity
  8
0
  6
Continuous
 62
     7
100
AcDbLine
 10
713.5969523877466
 20
356.2483504940926
 30
0.0
 11
715.0969523877464
 21
356.2483504940996
 31
0.0
  0
LINE
  5
6EA
330
1F
100
AcDbEntity
  8
0
  6
Continuous
 62
     7
100
AcDbLine
 10
713.5969523877545
 20
354.7483504940917
 30
0.0
 11
713.5969523877466
 21
356.2483504940926
 31
0.0
  0
LINE
  5
6EB
330
1F
100
AcDbEntity
  8
0
  6
Continuous
 62
     7
100
AcDbLine
 10
713.5969523877746
 20
351.1283504940415
 30
0.0
 11
713.5969523877746
 21
351.1283504940415
 31
0.0
  0
CIRCLE
  5
6EC
330
1F
100
AcDbEntity
  8
0
  6
Continuous
 62
     7
370
     0
100
AcDbCircle
 10
713.0969523876999
 20
364.3683504940141
 30
0.0
 40
2.750000000000454
  0
LINE
  5
6ED
330
1F
100
AcDbEntity
  8
0
  6
Continuous
 62
     7
100
AcDbLine
 10
713.5969523876983
 20
364.8683504941236
 30
0.0
 11
713.5969523876906
 21
366.3683504941356
 31
0.0
  0
LINE
  5
6EE
330
1F
100
AcDbEntity
  8
0
  6
Continuous
 62
     7
100
AcDbLine
 10
712.5969523876906
 20
366.3683504941297
 30
0.0
 11
712.5969523876984
 21
364.8683504941306
 31
0.0
  0
LINE
  5
6EF
330
1F
100
AcDbEntity
  8
0
  6
Continuous
 62
     7
100
AcDbLine
 10
712.5969523877123
 20
362.3683504941176
 30
0.0
 11
713.5969523877125
 21
362.3683504941356
 31
0.0
  0
LINE
  5
6F0
330
1F
100
AcDbEntity
  8
0
  6
Continuous
 62
     7
100
AcDbLine
 10
713.5969523877325
 20
358.7483504940917
 30
0.0
 11
712.5969523877325
 21
358.7483504940867
 31
0.0
  0
LINE
  5
6F1
330
1F
100
AcDbEntity
  8
0
  6
Continuous
 62
     7
100
AcDbLine
 10
712.5969523877045
 20
363.8683504941307
 30
0.0
 11
712.5969523877123
 21
362.3683504941176
 31
0.0
  0
LINE
  5
6F2
330
1F
100
AcDbEntity
  8
0
  6
Continuous
 62
     7
100
AcDbLine
 10
711.0969523877046
 20
363.8683504941217
 30
0.0
 11
712.5969523877045
 21
363.8683504941307
 31
0.0
  0
LINE
  5
6F3
330
1F
100
AcDbEntity
  8
0
  6
Continuous
 62
     7
100
AcDbLine
 10
711.0969523876985
 20
364.8683504941097
 30
0.0
 11
711.0969523877046
 21
363.8683504941217
 31
0.0
  0
LINE
  5
6F4
330
1F
100
AcDbEntity
  8
0
  6
Continuous
 62
     7
100
AcDbLine
 10
712.5969523876984
 20
364.8683504941306
 30
0.0
 11
711.0969523876985
 21
364.8683504941097
 31
0.0
  0
LINE
  5
6F5
330
1F
100
AcDbEntity
  8
0
  6
Continuous
 62
     7
100
AcDbLine
 10
715.0969523876985
 20
364.8683504941316
 30
0.0
 11
713.5969523876983
 21
364.8683504941236
 31
0.0
  0
LINE
  5
6F6
330
1F
100
AcDbEntity
  8
0
  6
Continuous
 62
     7
100
AcDbLine
 10
715.0969523877042
 20
363.8683504941436
 30
0.0
 11
715.0969523876985
 21
364.8683504941316
 31
0.0
  0
LINE
  5
6F7
330
1F
100
AcDbEntity
  8
0
  6
Continuous
 62
     7
100
AcDbLine
 10
713.5969523877045
 20
363.8683504941356
 30
0.0
 11
715.0969523877042
 21
363.8683504941436
 31
0.0
  0
LINE
  5
6F8
330
1F
100
AcDbEntity
  8
0
  6
Continuous
 62
     7
100
AcDbLine
 10
713.5969523877125
 20
362.3683504941356
 30
0.0
 11
713.5969523877045
 21
363.8683504941356
 31
0.0
  0
LINE
  5
6F9
330
1F
100
AcDbEntity
  8
0
  6
Continuous
 62
     7
100
AcDbLine
 10
713.5969523877325
 20
358.7483504940917
 30
0.0
 11
713.5969523877325
 21
358.7483504940917
 31
0.0
  0
LINE
  5
6FA
330
1F
100
AcDbEntity
  8
0
  6
Continuous
 62
     7
100
AcDbLine
 10
712.5969523876706
 20
369.9883504941176
 30
0.0
 11
713.5969523876706
 21
369.9883504941356
 31
0.0
  0
LINE
  5
6FB
330
1F
100
AcDbEntity
  8
0
  6
Continuous
 62
     7
100
AcDbLine
 10
713.5969523876906
 20
366.3683504941356
 30
0.0
 11
712.5969523876906
 21
366.3683504941297
 31
0.0
  0
LINE
  5
6FC
330
1F
100
AcDbEntity
  8
0
  6
Continuous
 62
     7
100
AcDbLine
 10
712.5969523876623
 20
371.4883504941307
 30
0.0
 11
712.5969523876706
 21
369.9883504941176
 31
0.0
  0
LINE
  5
6FD
330
1F
100
AcDbEntity
  8
0
  6
Continuous
 62
     7
100
AcDbLine
 10
711.0969523876625
 20
371.4883504941217
 30
0.0
 11
712.5969523876623
 21
371.4883504941307
 31
0.0
  0
LINE
  5
6FE
330
1F
100
AcDbEntity
  8
0
  6
Continuous
 62
     7
100
AcDbLine
 10
713.5969523876625
 20
371.4883504941366
 30
0.0
 11
715.0969523876625
 21
371.4883504941436
 31
0.0
  0
LINE
  5
6FF
330
1F
100
AcDbEntity
  8
0
  6
Continuous
 62
     7
100
AcDbLine
 10
713.5969523876706
 20
369.9883504941356
 30
0.0
 11
713.5969523876625
 21
371.4883504941366
 31
0.0
  0
LINE
  5
700
330
1F
100
AcDbEntity
  8
0
  6
Continuous
 62
     7
100
AcDbLine
 10
713.5969523876906
 20
366.3683504941356
 30
0.0
 11
713.5969523876906
 21
366.3683504941356
 31
0.0
  0
LINE
  5
701
330
1F
100
AcDbEntity
  8
0
  6
Continuous
 62
     7
100
AcDbLine
 10
718.3969524113393
 20
387.4183504941056
 30
0.0
 11
724.8969524113396
 21
387.4183504941056
 31
0.0
  0
LINE
  5
702
330
1F
100
AcDbEntity
  8
0
  6
Continuous
 62
     7
100
AcDbLine
 10
716.7769523875723
 20
387.8883504941224
 30
0.0
 11
716.7769523875937
 21
384.0783504941224
 31
0.0
  0
LINE
  5
703
330
1F
100
AcDbEntity
  8
0
  6
Continuous
 62
     7
100
AcDbLine
 10
709.3880645425046
 20
387.8883504939565
 30
0.0
 11
709.3880645425193
 21
385.1223705182096
 31
0.0
  0
LINE
  5
704
330
1F
100
AcDbEntity
  8
0
  6
Continuous
 62
     7
100
AcDbLine
 10
715.5492540847193
 20
385.1223705182436
 30
0.0
 11
715.5492540847046
 21
387.8883504939906
 31
0.0
  0
CIRCLE
  5
705
330
1F
100
AcDbEntity
  8
0
  6
Continuous
 62
     7
370
     0
100
AcDbCircle
 10
713.0969523876168
 20
379.6083504940142
 30
0.0
 40
2.750000000000397
  0
LINE
  5
706
330
1F
100
AcDbEntity
  8
0
  6
Continuous
 62
     7
100
AcDbLine
 10
715.0969523876207
 20
379.1083504940496
 30
0.0
 11
715.0969523876151
 21
380.1083504940375
 31
0.0
  0
LINE
  5
707
330
1F
100
AcDbEntity
  8
0
  6
Continuous
 62
     7
100
AcDbLine
 10
711.0969523876153
 20
380.1083504940166
 30
0.0
 11
711.0969523876207
 21
379.1083504940277
 31
0.0
  0
LINE
  5
708
330
1F
100
AcDbEntity
  8
0
  6
Continuous
 62
     7
100
AcDbLine
 10
712.5969523876285
 20
377.6083504940246
 30
0.0
 11
713.5969523876283
 21
377.6083504940416
 31
0.0
  0
LINE
  5
709
330
1F
100
AcDbEntity
  8
0
  6
Continuous
 62
     7
100
AcDbLine
 10
713.5969523876484
 20
373.9883504941356
 30
0.0
 11
712.5969523876483
 21
373.9883504941297
 31
0.0
  0
LINE
  5
70A
330
1F
100
AcDbEntity
  8
0
  6
Continuous
 62
     7
100
AcDbLine
 10
712.5969523876204
 20
379.1083504940367
 30
0.0
 11
712.5969523876285
 21
377.6083504940246
 31
0.0
  0
LINE
  5
70B
330
1F
100
AcDbEntity
  8
0
  6
Continuous
 62
     7
100
AcDbLine
 10
711.0969523876207
 20
379.1083504940277
 30
0.0
 11
712.5969523876204
 21
379.1083504940367
 31
0.0
  0
LINE
  5
70C
330
1F
100
AcDbEntity
  8
0
  6
Continuous
 62
     7
100
AcDbLine
 10
712.5969523876565
 20
372.4883504941307
 30
0.0
 11
711.0969523876565
 21
372.4883504941096
 31
0.0
  0
LINE
  5
70D
330
1F
100
AcDbEntity
  8
0
  6
Continuous
 62
     7
100
AcDbLine
 10
712.5969523876483
 20
373.9883504941297
 30
0.0
 11
712.5969523876565
 21
372.4883504941307
 31
0.0
  0
LINE
  5
70E
330
1F
100
AcDbEntity
  8
0
  6
Continuous
 62
     7
100
AcDbLine
 10
713.5969523876204
 20
379.1083504940426
 30
0.0
 11
715.0969523876207
 21
379.1083504940496
 31
0.0
  0
LINE
  5
70F
330
1F
100
AcDbEntity
  8
0
  6
Continuous
 62
     7
100
AcDbLine
 10
713.5969523876283
 20
377.6083504940416
 30
0.0
 11
713.5969523876204
 21
379.1083504940426
 31
0.0
  0
LINE
  5
710
330
1F
100
AcDbEntity
  8
0
  6
Continuous
 62
     7
100
AcDbLine
 10
713.5969523876484
 20
373.9883504941356
 30
0.0
 11
713.5969523876484
 21
373.9883504941356
 31
0.0
  0
LINE
  5
711
330
1F
100
AcDbEntity
  8
0
  6
Continuous
 62
     7
100
AcDbLine
 10
713.5969523876565
 20
372.4883504941236
 30
0.0
 11
713.5969523876484
 21
373.9883504941356
 31
0.0
  0
LINE
  5
712
330
1F
100
AcDbEntity
  8
0
  6
Continuous
 62
     7
100
AcDbLine
 10
715.0969523876565
 20
372.4883504941316
 30
0.0
 11
713.5969523876565
 21
372.4883504941236
 31
0.0
  0
LINE
  5
713
330
1F
100
AcDbEntity
  8
0
  6
Continuous
 62
     7
100
AcDbLine
 10
713.5969523876066
 20
381.6083504940416
 30
0.0
 11
712.5969523876066
 21
381.6083504940367
 31
0.0
  0
LINE
  5
714
330
1F
100
AcDbEntity
  8
0
  6
Continuous
 62
     7
100
AcDbLine
 10
709.3880645425193
 20
385.1223705182096
 30
0.0
 11
715.5492540847193
 21
385.1223705181567
 31
0.0
  0
LINE
  5
715
330
1F
100
AcDbEntity
  8
0
  6
Continuous
 62
     7
100
AcDbLine
 10
712.5969523876157
 20
380.1083504940367
 30
0.0
 11
711.0969523876153
 21
380.1083504940166
 31
0.0
  0
LINE
  5
716
330
1F
100
AcDbEntity
  8
0
  6
Continuous
 62
     7
100
AcDbLine
 10
712.5969523876066
 20
381.6083504940367
 30
0.0
 11
712.5969523876157
 21
380.1083504940367
 31
0.0
  0
LINE
  5
717
330
1F
100
AcDbEntity
  8
0
  6
Continuous
 62
     7
100
AcDbLine
 10
713.5969523876066
 20
381.6083504940416
 30
0.0
 11
713.5969523876066
 21
381.6083504940416
 31
0.0
  0
LINE
  5
718
330
1F
100
AcDbEntity
  8
0
  6
Continuous
 62
     7
100
AcDbLine
 10
713.5969523876154
 20
380.1083504940296
 30
0.0
 11
713.5969523876066
 21
381.6083504940416
 31
0.0
  0
LINE
  5
719
330
1F
100
AcDbEntity
  8
0
  6
Continuous
 62
     7
100
AcDbLine
 10
715.0969523876151
 20
380.1083504940375
 30
0.0
 11
713.5969523876154
 21
380.1083504940296
 31
0.0
  0
CIRCLE
  5
71A
330
1F
100
AcDbEntity
  8
0
  6
Continuous
 62
     7
370
     0
100
AcDbCircle
 10
713.5969524113388
 20
392.4183504941049
 30
0.0
 40
3.000000000000568
  0
CIRCLE
  5
71B
330
1F
100
AcDbEntity
  8
0
  6
Continuous
 62
     7
370
     0
100
AcDbCircle
 10
715.5569524113391
 20
398.8183504941052
 30
0.0
 40
2.000000000000341
  0
LINE
  5
71C
330
1F
100
AcDbEntity
  8
0
  6
Continuous
 62
     7
100
AcDbLine
 10
713.9969548337494
 20
392.8183511043566
 30
0.0
 11
713.9969548337425
 21
394.0183511043666
 31
0.0
  0
LINE
  5
71D
330
1F
100
AcDbEntity
  8
0
  6
Continuous
 62
     7
100
AcDbLine
 10
713.1969548337434
 20
394.0183511043624
 30
0.0
 11
713.1969548337495
 21
392.8183511043624
 31
0.0
  0
LINE
  5
71E
330
1F
100
AcDbEntity
  8
0
  6
Continuous
 62
     7
100
AcDbLine
 10
711.9969548337536
 20
392.0183511043556
 30
0.0
 11
713.1969548337544
 21
392.0183511043624
 31
0.0
  0
LINE
  5
71F
330
1F
100
AcDbEntity
  8
0
  6
Continuous
 62
     7
100
AcDbLine
 10
713.1969548337495
 20
392.8183511043624
 30
0.0
 11
711.9969548337494
 21
392.8183511043456
 31
0.0
  0
LINE
  5
720
330
1F
100
AcDbEntity
  8
0
  6
Continuous
 62
     7
100
AcDbLine
 10
711.9969548337494
 20
392.8183511043456
 30
0.0
 11
711.9969548337536
 21
392.0183511043556
 31
0.0
  0
LINE
  5
721
330
1F
100
AcDbEntity
  8
0
  6
Continuous
 62
     7
100
AcDbLine
 10
715.1969548337493
 20
392.8183511043636
 30
0.0
 11
713.9969548337494
 21
392.8183511043566
 31
0.0
  0
LINE
  5
722
330
1F
100
AcDbEntity
  8
0
  6
Continuous
 62
     7
100
AcDbLine
 10
715.1969548337546
 20
392.0183511043735
 30
0.0
 11
715.1969548337493
 21
392.8183511043636
 31
0.0
  0
LINE
  5
723
330
1F
100
AcDbEntity
  8
0
  6
Continuous
 62
     7
100
AcDbLine
 10
713.9969548337536
 20
392.0183511043666
 30
0.0
 11
715.1969548337546
 21
392.0183511043735
 31
0.0
  0
LINE
  5
724
330
1F
100
AcDbEntity
  8
0
  6
Continuous
 62
     7
100
AcDbLine
 10
713.9969548337603
 20
390.8183511043665
 30
0.0
 11
713.9969548337536
 21
392.0183511043666
 31
0.0
  0
LINE
  5
725
330
1F
100
AcDbEntity
  8
0
  6
Continuous
 62
     7
100
AcDbLine
 10
713.1969548337606
 20
390.8183511043527
 30
0.0
 11
713.9969548337603
 21
390.8183511043665
 31
0.0
  0
LINE
  5
726
330
1F
100
AcDbEntity
  8
0
  6
Continuous
 62
     7
100
AcDbLine
 10
713.1969548337544
 20
392.0183511043624
 30
0.0
 11
713.1969548337606
 21
390.8183511043527
 31
0.0
  0
LINE
  5
727
330
1F
100
AcDbEntity
  8
0
  6
Continuous
 62
     7
100
AcDbLine
 10
713.9969548337425
 20
394.0183511043666
 30
0.0
 11
713.9969548337425
 21
394.0183511043666
 31
0.0
  0
LINE
  5
728
330
1F
100
AcDbEntity
  8
0
  6
Continuous
 62
     7
100
AcDbLine
 10
713.9969548337425
 20
394.0183511043666
 30
0.0
 11
713.1969548337434
 21
394.0183511043624
 31
0.0
  0
LINE
  5
729
330
1F
100
AcDbEntity
  8
0
  6
Continuous
 62
     7
100
AcDbLine
 10
714.8969524113396
 20
411.1183504941057
 30
0.0
 11
714.8969524113396
 21
404.6183504941057
 31
0.0
  0
ENDSEC
  0
SECTION
  2
OBJECTS
  0
DICTIONARY
  5
C
330
0
100
AcDbDictionary
281
     1
  3
ACAD_GROUP
350
D
  3
ACAD_LAYOUT
350
1A
  3
ACAD_MLINESTYLE
350
17
  3
ACAD_PLOTSETTINGS
350
19
  3
ACAD_PLOTSTYLENAME
350
E
  0
DICTIONARY
  5
D
102
{ACAD_REACTORS
330
C
102
}
330
C
100
AcDbDictionary
281
     1
  0
DICTIONARY
  5
1A
102
{ACAD_REACTORS
330
C
102
}
330
C
100
AcDbDictionary
281
     1
  3
Model
350
22
  3
ﾚｲｱｳﾄ1
350
51
  3
ﾚｲｱｳﾄ2
350
56
  0
DICTIONARY
  5
17
102
{ACAD_REACTORS
330
C
102
}
330
C
100
AcDbDictionary
281
     1
  3
Standard
350
18
  0
DICTIONARY
  5
19
102
{ACAD_REACTORS
330
C
102
}
330
C
100
AcDbDictionary
281
     1
  0
ACDBDICTIONARYWDFLT
  5
E
102
{ACAD_REACTORS
330
C
102
}
330
C
100
AcDbDictionary
281
     1
  3
Normal
350
F
100
AcDbDictionaryWithDefault
340
F
  0
LAYOUT
  5
22
102
{ACAD_REACTORS
330
1A
102
}
330
1A
100
AcDbPlotSettings
  1

  2
none_device
  4
ANSI_A_(8.50_x_11.00_Inches)
  6

 40
6.349999904632567
 41
19.04999923706053
 42
6.350006103515625
 43
19.04998779296875
 44
215.8999938964842
 45
279.3999938964843
 46
0.0
 47
0.0
 48
0.0
 49
0.0
140
0.0
141
0.0
142
1.0
143
78.436453180766
 70
 11952
 72
     0
 73
     1
 74
     0
  7

 75
     0
147
0.0127491741332998
148
0.0
149
0.0
100
AcDbLayout
  1
Model
 70
     1
 71
     0
 10
0.0
 20
0.0
 11
12.0
 21
9.0
 12
0.0
 22
0.0
 32
0.0
 14
0.0
 24
0.0
 34
0.0
 15
0.0
 25
0.0
 35
0.0
146
0.0
 13
0.0
 23
0.0
 33
0.0
 16
1.0
 26
0.0
 36
0.0
 17
0.0
 27
1.0
 37
0.0
 76
     0
330
1F
  0
LAYOUT
  5
51
102
{ACAD_REACTORS
330
1A
102
}
330
1A
100
AcDbPlotSettings
  1

  2
None
  4

  6

 40
0.0
 41
0.0
 42
0.0
 43
0.0
 44
0.0
 45
0.0
 46
0.0
 47
0.0
 48
0.0
 49
0.0
140
0.0
141
0.0
142
1.0
143
1.0
 70
   688
 72
     0
 73
     0
 74
     5
  7

 75
    16
147
1.0
148
0.0
149
0.0
100
AcDbLayout
  1
ﾚｲｱｳﾄ1
 70
     1
 71
     1
 10
0.0
 20
0.0
 11
12.0
 21
9.0
 12
0.0
 22
0.0
 32
0.0
 14
0.0
 24
0.0
 34
0.0
 15
0.0
 25
0.0
 35
0.0
146
0.0
 13
0.0
 23
0.0
 33
0.0
 16
1.0
 26
0.0
 36
0.0
 17
0.0
 27
1.0
 37
0.0
 76
     0
330
50
  0
LAYOUT
  5
56
102
{ACAD_REACTORS
330
1A
102
}
330
1A
100
AcDbPlotSettings
  1

  2
None
  4

  6

 40
0.0
 41
0.0
 42
0.0
 43
0.0
 44
0.0
 45
0.0
 46
0.0
 47
0.0
 48
0.0
 49
0.0
140
0.0
141
0.0
142
1.0
143
1.0
 70
   688
 72
     0
 73
     0
 74
     5
  7

 75
    16
147
1.0
148
0.0
149
0.0
100
AcDbLayout
  1
ﾚｲｱｳﾄ2
 70
     1
 71
     2
 10
0.0
 20
0.0
 11
12.0
 21
9.0
 12
0.0
 22
0.0
 32
0.0
 14
0.0
 24
0.0
 34
0.0
 15
0.0
 25
0.0
 35
0.0
146
0.0
 13
0.0
 23
0.0
 33
0.0
 16
1.0
 26
0.0
 36
0.0
 17
0.0
 27
1.0
 37
0.0
 76
     0
330
55
  0
MLINESTYLE
  5
18
102
{ACAD_REACTORS
330
17
102
}
330
17
100
AcDbMlineStyle
  2
STANDARD
 70
     0
  3

 62
   256
 51
90.0
 52
90.0
 71
     2
 49
0.5
 62
   256
  6
BYLAYER
 49
-0.5
 62
   256
  6
BYLAYER
  0
ACDBPLACEHOLDER
  5
F
102
{ACAD_REACTORS
330
E
102
}
330
E
  0
ENDSEC
  0
EOF
