  0
SECTION
  2
HEADER
  9
$ACADVER
  1
AC1015
  9
$ACADMAINTVER
 70
    10
  9
$DWGCODEPAGE
  3
ANSI_932
  9
$INSBASE
 10
0.0
 20
0.0
 30
0.0
  9
$EXTMIN
 10
492.7761695373893
 20
244.854868050302
 30
0.0
  9
$EXTMAX
 10
876.7761695373891
 20
571.9259358621667
 30
0.0
  9
$LIMMIN
 10
0.0
 20
0.0
  9
$LIMMAX
 10
420.0
 20
297.0
  9
$ORTHOMODE
 70
     0
  9
$REGENMODE
 70
     1
  9
$FILLMODE
 70
     1
  9
$QTEXTMODE
 70
     0
  9
$MIRRTEXT
 70
     1
  9
$LTSCALE
 40
1.0
  9
$ATTMODE
 70
     1
  9
$TEXTSIZE
 40
2.5
  9
$TRACEWID
 40
1.0
  9
$TEXTSTYLE
  7
Standard
  9
$CLAYER
  8
0
  9
$CELTYPE
  6
ByLayer
  9
$CECOLOR
 62
   256
  9
$CELTSCALE
 40
1.0
  9
$DISPSILH
 70
     0
  9
$DIMSCALE
 40
1.0
  9
$DIMASZ
 40
2.5
  9
$DIMEXO
 40
0.625
  9
$DIMDLI
 40
3.75
  9
$DIMRND
 40
0.0
  9
$DIMDLE
 40
0.0
  9
$DIMEXE
 40
1.25
  9
$DIMTP
 40
0.0
  9
$DIMTM
 40
0.0
  9
$DIMTXT
 40
2.5
  9
$DIMCEN
 40
2.5
  9
$DIMTSZ
 40
0.0
  9
$DIMTOL
 70
     0
  9
$DIMLIM
 70
     0
  9
$DIMTIH
 70
     0
  9
$DIMTOH
 70
     0
  9
$DIMSE1
 70
     0
  9
$DIMSE2
 70
     0
  9
$DIMTAD
 70
     1
  9
$DIMZIN
 70
     8
  9
$DIMBLK
  1

  9
$DIMASO
 70
     1
  9
$DIMSHO
 70
     1
  9
$DIMPOST
  1

  9
$DIMAPOST
  1

  9
$DIMALT
 70
     0
  9
$DIMALTD
 70
     3
  9
$DIMALTF
 40
0.03937007874016
  9
$DIMLFAC
 40
1.0
  9
$DIMTOFL
 70
     1
  9
$DIMTVP
 40
0.0
  9
$DIMTIX
 70
     0
  9
$DIMSOXD
 70
     0
  9
$DIMSAH
 70
     0
  9
$DIMBLK1
  1

  9
$DIMBLK2
  1

  9
$DIMSTYLE
  2
ISO-25
  9
$DIMCLRD
 70
     0
  9
$DIMCLRE
 70
     0
  9
$DIMCLRT
 70
     0
  9
$DIMTFAC
 40
1.0
  9
$DIMGAP
 40
0.625
  9
$DIMJUST
 70
     0
  9
$DIMSD1
 70
     0
  9
$DIMSD2
 70
     0
  9
$DIMTOLJ
 70
     0
  9
$DIMTZIN
 70
     8
  9
$DIMALTZ
 70
     0
  9
$DIMALTTZ
 70
     0
  9
$DIMUPT
 70
     0
  9
$DIMDEC
 70
     2
  9
$DIMTDEC
 70
     2
  9
$DIMALTU
 70
     2
  9
$DIMALTTD
 70
     3
  9
$DIMTXSTY
  7
Standard
  9
$DIMAUNIT
 70
     0
  9
$DIMADEC
 70
     0
  9
$DIMALTRND
 40
0.0
  9
$DIMAZIN
 70
     0
  9
$DIMDSEP
 70
    44
  9
$DIMATFIT
 70
     3
  9
$DIMFRAC
 70
     0
  9
$DIMLDRBLK
  1

  9
$DIMLUNIT
 70
     2
  9
$DIMLWD
 70
    -2
  9
$DIMLWE
 70
    -2
  9
$DIMTMOVE
 70
     0
  9
$LUNITS
 70
     2
  9
$LUPREC
 70
     4
  9
$SKETCHINC
 40
1.0
  9
$FILLETRAD
 40
10.0
  9
$AUNITS
 70
     0
  9
$AUPREC
 70
     0
  9
$MENU
  1
.
  9
$ELEVATION
 40
0.0
  9
$PELEVATION
 40
0.0
  9
$THICKNESS
 40
0.0
  9
$LIMCHECK
 70
     0
  9
$CHAMFERA
 40
10.0
  9
$CHAMFERB
 40
10.0
  9
$CHAMFERC
 40
20.0
  9
$CHAMFERD
 40
0.0
  9
$SKPOLY
 70
     0
  9
$TDCREATE
 40
2456499.790473333
  9
$TDUCREATE
 40
2456499.415473333
  9
$TDUPDATE
 40
2456500.613642720
  9
$TDUUPDATE
 40
2456500.238642720
  9
$TDINDWG
 40
0.0016787269
  9
$TDUSRTIMER
 40
0.0016785417
  9
$USRTIMER
 70
     1
  9
$ANGBASE
 50
0.0
  9
$ANGDIR
 70
     0
  9
$PDMODE
 70
     0
  9
$PDSIZE
 40
0.0
  9
$PLINEWID
 40
0.0
  9
$SPLFRAME
 70
     0
  9
$SPLINETYPE
 70
     6
  9
$SPLINESEGS
 70
     8
  9
$HANDSEED
  5
701
  9
$SURFTAB1
 70
     6
  9
$SURFTAB2
 70
     6
  9
$SURFTYPE
 70
     6
  9
$SURFU
 70
     6
  9
$SURFV
 70
     6
  9
$UCSBASE
  2

  9
$UCSNAME
  2

  9
$UCSORG
 10
0.0
 20
0.0
 30
0.0
  9
$UCSXDIR
 10
1.0
 20
0.0
 30
0.0
  9
$UCSYDIR
 10
0.0
 20
1.0
 30
0.0
  9
$UCSORTHOREF
  2

  9
$UCSORTHOVIEW
 70
     0
  9
$UCSORGTOP
 10
0.0
 20
0.0
 30
0.0
  9
$UCSORGBOTTOM
 10
0.0
 20
0.0
 30
0.0
  9
$UCSORGLEFT
 10
0.0
 20
0.0
 30
0.0
  9
$UCSORGRIGHT
 10
0.0
 20
0.0
 30
0.0
  9
$UCSORGFRONT
 10
0.0
 20
0.0
 30
0.0
  9
$UCSORGBACK
 10
0.0
 20
0.0
 30
0.0
  9
$PUCSBASE
  2

  9
$PUCSNAME
  2

  9
$PUCSORG
 10
0.0
 20
0.0
 30
0.0
  9
$PUCSXDIR
 10
1.0
 20
0.0
 30
0.0
  9
$PUCSYDIR
 10
0.0
 20
1.0
 30
0.0
  9
$PUCSORTHOREF
  2

  9
$PUCSORTHOVIEW
 70
     0
  9
$PUCSORGTOP
 10
0.0
 20
0.0
 30
0.0
  9
$PUCSORGBOTTOM
 10
0.0
 20
0.0
 30
0.0
  9
$PUCSORGLEFT
 10
0.0
 20
0.0
 30
0.0
  9
$PUCSORGRIGHT
 10
0.0
 20
0.0
 30
0.0
  9
$PUCSORGFRONT
 10
0.0
 20
0.0
 30
0.0
  9
$PUCSORGBACK
 10
0.0
 20
0.0
 30
0.0
  9
$USERI1
 70
     0
  9
$USERI2
 70
     0
  9
$USERI3
 70
     0
  9
$USERI4
 70
     0
  9
$USERI5
 70
     0
  9
$USERR1
 40
0.0
  9
$USERR2
 40
0.0
  9
$USERR3
 40
0.0
  9
$USERR4
 40
0.0
  9
$USERR5
 40
0.0
  9
$WORLDVIEW
 70
     1
  9
$SHADEDGE
 70
     3
  9
$SHADEDIF
 70
    70
  9
$TILEMODE
 70
     1
  9
$MAXACTVP
 70
    64
  9
$PINSBASE
 10
0.0
 20
0.0
 30
0.0
  9
$PLIMCHECK
 70
     0
  9
$PEXTMIN
 10
0.0
 20
0.0
 30
0.0
  9
$PEXTMAX
 10
0.0
 20
0.0
 30
0.0
  9
$PLIMMIN
 10
0.0
 20
0.0
  9
$PLIMMAX
 10
12.0
 20
9.0
  9
$UNITMODE
 70
     0
  9
$VISRETAIN
 70
     1
  9
$PLINEGEN
 70
     0
  9
$PSLTSCALE
 70
     1
  9
$TREEDEPTH
 70
  3020
  9
$CMLSTYLE
  2
Standard
  9
$CMLJUST
 70
     0
  9
$CMLSCALE
 40
20.0
  9
$PROXYGRAPHICS
 70
     1
  9
$MEASUREMENT
 70
     1
  9
$CELWEIGHT
370
    -1
  9
$ENDCAPS
280
     0
  9
$JOINSTYLE
280
     0
  9
$LWDISPLAY
290
     0
  9
$INSUNITS
 70
     4
  9
$HYPERLINKBASE
  1

  9
$STYLESHEET
  1

  9
$XEDIT
290
     1
  9
$CEPSNTYPE
380
     0
  9
$PSTYLEMODE
290
     1
  9
$FINGERPRINTGUID
  2
{FDEAD578-A652-11D2-9A35-0060089B3A3F}
  9
$VERSIONGUID
  2
{C881763A-F5FC-4939-9775-23EB75D352F2}
  9
$EXTNAMES
290
     1
  9
$PSVPSCALE
 40
0.0
  9
$OLESTARTUP
290
     0
  0
ENDSEC
  0
SECTION
  2
CLASSES
  0
CLASS
  1
ACDBDICTIONARYWDFLT
  2
AcDbDictionaryWithDefault
  3
AutoCAD 2000
 90
        0
280
     0
281
     0
  0
CLASS
  1
ACDBPLACEHOLDER
  2
AcDbPlaceHolder
  3
AutoCAD 2000
 90
        0
280
     0
281
     0
  0
CLASS
  1
LAYOUT
  2
AcDbLayout
  3
AutoCAD 2000
 90
        0
280
     0
281
     0
  0
ENDSEC
  0
SECTION
  2
TABLES
  0
TABLE
  2
VPORT
  5
8
330
0
100
AcDbSymbolTable
 70
     2
  0
VPORT
  5
700
330
8
100
AcDbSymbolTableRecord
100
AcDbViewportTableRecord
  2
*Active
 70
     0
 10
0.0
 20
0.0
 11
1.0
 21
1.0
 12
697.824557125997
 22
404.5962756042165
 13
0.0
 23
0.0
 14
10.0
 24
10.0
 15
10.0
 25
10.0
 16
0.0
 26
0.0
 36
1.0
 17
0.0
 27
0.0
 37
0.0
 40
397.1220063172529
 41
1.781954887218045
 42
50.0
 43
0.0
 44
0.0
 50
0.0
 51
0.0
 71
     0
 72
   100
 73
     1
 74
     3
 75
     0
 76
     0
 77
     0
 78
     0
281
     0
 65
     1
110
0.0
120
0.0
130
0.0
111
1.0
121
0.0
131
0.0
112
0.0
122
1.0
132
0.0
 79
     0
146
0.0
  0
ENDTAB
  0
TABLE
  2
LTYPE
  5
5
330
0
100
AcDbSymbolTable
 70
     2
  0
LTYPE
  5
14
330
5
100
AcDbSymbolTableRecord
100
AcDbLinetypeTableRecord
  2
ByBlock
 70
     0
  3

 72
    65
 73
     0
 40
0.0
  0
LTYPE
  5
15
330
5
100
AcDbSymbolTableRecord
100
AcDbLinetypeTableRecord
  2
ByLayer
 70
     0
  3

 72
    65
 73
     0
 40
0.0
  0
LTYPE
  5
16
330
5
100
AcDbSymbolTableRecord
100
AcDbLinetypeTableRecord
  2
Continuous
 70
     0
  3
Solid line
 72
    65
 73
     0
 40
0.0
  0
LTYPE
  5
67
330
5
100
AcDbSymbolTableRecord
100
AcDbLinetypeTableRecord
  2
DASHED
 70
     0
  3
DASHED
 72
    65
 73
     2
 40
0.75
 49
0.5
 74
     0
 49
-0.25
 74
     0
  0
ENDTAB
  0
TABLE
  2
LAYER
  5
2
330
0
100
AcDbSymbolTable
 70
     1
  0
LAYER
  5
10
330
2
100
AcDbSymbolTableRecord
100
AcDbLayerTableRecord
  2
0
 70
     0
 62
     7
  6
Continuous
370
    -3
390
F
  0
ENDTAB
  0
TABLE
  2
STYLE
  5
3
330
0
100
AcDbSymbolTable
 70
     2
  0
STYLE
  5
11
330
3
100
AcDbSymbolTableRecord
100
AcDbTextStyleTableRecord
  2
Standard
 70
     0
 40
0.0
 41
1.0
 50
0.0
 71
     0
 42
2.5
  3
txt
  4

  0
STYLE
  5
68
330
3
100
AcDbSymbolTableRecord
100
AcDbTextStyleTableRecord
  2
_TCW_TXTSTY_1
 70
     0
 40
0.0
 41
1.0
 50
0.0
 71
     0
 42
0.696969687939
  3
MS PGothic.ttf
  4

1001
ACAD
1000
ＭＳ Ｐゴシック
1071
    32802
  0
ENDTAB
  0
TABLE
  2
VIEW
  5
6
330
0
100
AcDbSymbolTable
 70
     0
  0
ENDTAB
  0
TABLE
  2
UCS
  5
7
330
0
100
AcDbSymbolTable
 70
     0
  0
ENDTAB
  0
TABLE
  2
APPID
  5
9
330
0
100
AcDbSymbolTable
 70
     2
  0
APPID
  5
12
330
9
100
AcDbSymbolTableRecord
100
AcDbRegAppTableRecord
  2
ACAD
 70
     0
  0
APPID
  5
6A
330
9
100
AcDbSymbolTableRecord
100
AcDbRegAppTableRecord
  2
TCAD
 70
     0
  0
ENDTAB
  0
TABLE
  2
DIMSTYLE
  5
A
330
0
100
AcDbSymbolTable
 70
     2
100
AcDbDimStyleTable
 71
     1
340
27
  0
DIMSTYLE
105
27
330
A
100
AcDbSymbolTableRecord
100
AcDbDimStyleTableRecord
  2
ISO-25
 70
     0
 41
2.5
 42
0.625
 43
3.75
 44
1.25
 73
     0
 74
     0
 77
     1
 78
     8
140
2.5
141
2.5
143
0.03937007874016
147
0.625
171
     3
172
     1
271
     2
272
     2
274
     3
278
    44
283
     0
284
     8
340
11
  0
DIMSTYLE
105
69
330
A
100
AcDbSymbolTableRecord
100
AcDbDimStyleTableRecord
  2
STANDARD
 70
     0
 41
3.0
 42
1.0
 43
4.0
 44
1.0
 45
0.1
 73
     0
 74
     0
 77
     1
 78
     8
140
2.439393939393998
143
0.5
144
2.0
147
0.5
148
0.01
176
     7
177
     7
178
     7
179
     2
271
     2
272
     8
274
     8
286
     8
340
68
341
61
342
61
  0
ENDTAB
  0
TABLE
  2
BLOCK_RECORD
  5
1
330
0
100
AcDbSymbolTable
 70
     1
  0
BLOCK_RECORD
  5
1F
330
1
100
AcDbSymbolTableRecord
100
AcDbBlockTableRecord
  2
*Model_Space
340
22
  0
BLOCK_RECORD
  5
50
330
1
100
AcDbSymbolTableRecord
100
AcDbBlockTableRecord
  2
*Paper_Space
340
51
  0
BLOCK_RECORD
  5
61
330
1
100
AcDbSymbolTableRecord
100
AcDbBlockTableRecord
  2
_OPEN
340
0
  0
ENDTAB
  0
ENDSEC
  0
SECTION
  2
BLOCKS
  0
BLOCK
  5
20
330
1F
100
AcDbEntity
  8
0
100
AcDbBlockBegin
  2
*Model_Space
 70
     0
 10
0.0
 20
0.0
 30
0.0
  3
*Model_Space
  1

  0
ENDBLK
  5
21
330
1F
100
AcDbEntity
  8
0
100
AcDbBlockEnd
  0
BLOCK
  5
52
330
50
100
AcDbEntity
 67
     1
  8
0
100
AcDbBlockBegin
  2
*Paper_Space
 70
     0
 10
0.0
 20
0.0
 30
0.0
  3
*Paper_Space
  1

  0
ENDBLK
  5
53
330
50
100
AcDbEntity
 67
     1
  8
0
100
AcDbBlockEnd
  0
BLOCK
  5
65
330
61
100
AcDbEntity
  8
0
100
AcDbBlockBegin
  2
_OPEN
 70
     0
 10
0.0
 20
0.0
 30
0.0
  3
_OPEN
  1

  0
LINE
  5
62
330
61
100
AcDbEntity
  8
0
  6
ByBlock
 62
     0
100
AcDbLine
 10
-1.0
 20
0.166667
 30
0.0
 11
0.0
 21
0.0
 31
0.0
  0
LINE
  5
63
330
61
100
AcDbEntity
  8
0
  6
ByBlock
 62
     0
100
AcDbLine
 10
0.0
 20
0.0
 30
0.0
 11
-1.0
 21
-0.166667
 31
0.0
  0
LINE
  5
64
330
61
100
AcDbEntity
  8
0
  6
ByBlock
 62
     0
100
AcDbLine
 10
0.0
 20
0.0
 30
0.0
 11
-1.0
 21
0.0
 31
0.0
  0
ENDBLK
  5
66
330
61
100
AcDbEntity
  8
0
100
AcDbBlockEnd
  0
ENDSEC
  0
SECTION
  2
ENTITIES
  0
LINE
  5
3B5
330
1F
100
AcDbEntity
  8
0
  6
Continuous
 62
     7
100
AcDbLine
 10
492.7761695373893
 20
245.8904019562345
 30
0.0
 11
492.7761695373893
 21
570.8904019562344
 31
0.0
  0
LINE
  5
3B6
330
1F
100
AcDbEntity
  8
0
  6
Continuous
 62
     7
100
AcDbLine
 10
682.7761695373894
 20
540.8904019562341
 30
0.0
 11
682.7761695373894
 21
270.8904019562344
 31
0.0
  0
LINE
  5
3B7
330
1F
100
AcDbEntity
  8
0
  6
Continuous
 62
     7
100
AcDbLine
 10
682.7761695373894
 20
270.8904019562344
 30
0.0
 11
492.7761695373893
 21
270.8904019562344
 31
0.0
  0
LINE
  5
3B8
330
1F
100
AcDbEntity
  8
0
  6
Continuous
 62
     7
100
AcDbLine
 10
493.9761695373894
 20
270.8904019562344
 30
0.0
 11
493.9761695373894
 21
245.8904019562345
 31
0.0
  0
LINE
  5
3B9
330
1F
100
AcDbEntity
  8
0
  6
Continuous
 62
     7
100
AcDbLine
 10
493.9761695373894
 20
245.8904019562345
 30
0.0
 11
492.7761695373893
 21
245.8904019562345
 31
0.0
  0
LINE
  5
3BA
330
1F
100
AcDbEntity
  8
0
  6
DASHED
 62
     4
 48
4.0
100
AcDbLine
 10
591.7761695373894
 20
275.8904019562383
 30
0.0
 11
591.7761695373894
 21
300.5141609503804
 31
0.0
  0
LINE
  5
3BB
330
1F
100
AcDbEntity
  8
0
  6
DASHED
 62
     4
 48
4.0
100
AcDbLine
 10
594.7761695373891
 20
300.2232832772904
 30
0.0
 11
594.7761695373891
 21
275.8904019562383
 31
0.0
  0
LINE
  5
3BC
330
1F
100
AcDbEntity
  8
0
  6
DASHED
 62
     4
 48
4.0
100
AcDbLine
 10
594.7761695373891
 20
275.8904019562383
 30
0.0
 11
591.7761695373894
 21
275.8904019562383
 31
0.0
  0
LINE
  5
3BD
330
1F
100
AcDbEntity
  8
0
  6
DASHED
 62
     4
 48
4.0
100
AcDbLine
 10
598.7331140598577
 20
284.4744006200705
 30
0.0
 11
598.7331140598577
 21
281.3064006200724
 31
0.0
  0
LINE
  5
3BE
330
1F
100
AcDbEntity
  8
0
  6
DASHED
 62
     4
 48
4.0
100
AcDbLine
 10
595.4331140598577
 20
287.8800006201045
 30
0.0
 11
595.4331140598577
 21
277.9008006201467
 31
0.0
  0
LINE
  5
3BF
330
1F
100
AcDbEntity
  8
0
  6
DASHED
 62
     4
 48
4.0
100
AcDbLine
 10
595.4331140598577
 20
278.9304006200706
 30
0.0
 11
596.7531140598572
 21
278.9304006200706
 31
0.0
  0
ELLIPSE
  5
3C0
330
1F
100
AcDbEntity
  8
0
  6
DASHED
 62
     4
 48
4.0
100
AcDbEllipse
 10
596.7531140598572
 20
281.3064006200724
 30
0.0
 11
0.0000000000000002
 21
-2.375999999999998
 31
0.0
210
0.0
220
0.0
230
1.0
 40
0.8333333333329997
 41
0.0
 42
1.570796326794896
  0
LINE
  5
3C1
330
1F
100
AcDbEntity
  8
0
  6
DASHED
 62
     4
 48
4.0
100
AcDbLine
 10
594.7761695373891
 20
287.8800006201004
 30
0.0
 11
595.4331140598577
 21
287.8800006201045
 31
0.0
  0
LINE
  5
3C2
330
1F
100
AcDbEntity
  8
0
  6
DASHED
 62
     4
 48
4.0
100
AcDbLine
 10
595.4331140598577
 20
286.8504006200706
 30
0.0
 11
596.7531140598572
 21
286.8504006200706
 31
0.0
  0
ELLIPSE
  5
3C3
330
1F
100
AcDbEntity
  8
0
  6
DASHED
 62
     4
 48
4.0
100
AcDbEllipse
 10
596.7531140598572
 20
284.4744006200705
 30
0.0
 11
0.0000000000000002
 21
-2.375999999999996
 31
0.0
210
0.0
220
0.0
230
1.0
 40
0.8333333333329997
 41
1.570796326794896
 42
3.141592653589792
  0
LINE
  5
3C4
330
1F
100
AcDbEntity
  8
0
  6
DASHED
 62
     4
 48
4.0
100
AcDbLine
 10
649.7761695373957
 20
275.8904019562383
 30
0.0
 11
649.7761695373957
 21
301.9685493158346
 31
0.0
  0
LINE
  5
3C5
330
1F
100
AcDbEntity
  8
0
  6
DASHED
 62
     4
 48
4.0
100
AcDbLine
 10
652.7761695373957
 20
300.8050386234706
 30
0.0
 11
652.7761695373957
 21
275.8904019562383
 31
0.0
  0
LINE
  5
3C6
330
1F
100
AcDbEntity
  8
0
  6
DASHED
 62
     4
 48
4.0
100
AcDbLine
 10
656.7331140598634
 20
284.4744006200705
 30
0.0
 11
656.7331140598634
 21
281.3064006200706
 31
0.0
  0
LINE
  5
3C7
330
1F
100
AcDbEntity
  8
0
  6
DASHED
 62
     4
 48
4.0
100
AcDbLine
 10
653.4331140598636
 20
287.8800006201045
 30
0.0
 11
653.4331140598636
 21
277.9008006201467
 31
0.0
  0
LINE
  5
3C8
330
1F
100
AcDbEntity
  8
0
  6
DASHED
 62
     4
 48
4.0
100
AcDbLine
 10
652.7761695373957
 20
275.8904019562383
 30
0.0
 11
649.7761695373957
 21
275.8904019562383
 31
0.0
  0
LINE
  5
3C9
330
1F
100
AcDbEntity
  8
0
  6
DASHED
 62
     4
 48
4.0
100
AcDbLine
 10
653.4331140598636
 20
278.9304006200706
 30
0.0
 11
654.7531140598634
 21
278.9304006200706
 31
0.0
  0
ELLIPSE
  5
3CA
330
1F
100
AcDbEntity
  8
0
  6
DASHED
 62
     4
 48
4.0
100
AcDbEllipse
 10
654.7531140598634
 20
281.3064006200706
 30
0.0
 11
0.0000000000000002
 21
-2.375999999999998
 31
0.0
210
0.0
220
0.0
230
1.0
 40
0.8333333333329997
 41
0.0
 42
1.570796326794896
  0
LINE
  5
3CB
330
1F
100
AcDbEntity
  8
0
  6
DASHED
 62
     4
 48
4.0
100
AcDbLine
 10
652.7761695373957
 20
287.8800006201004
 30
0.0
 11
653.4331140598636
 21
287.8800006201045
 31
0.0
  0
LINE
  5
3CC
330
1F
100
AcDbEntity
  8
0
  6
DASHED
 62
     4
 48
4.0
100
AcDbLine
 10
653.4331140598636
 20
286.8504006200706
 30
0.0
 11
654.7531140598634
 21
286.8504006200706
 31
0.0
  0
ELLIPSE
  5
3CD
330
1F
100
AcDbEntity
  8
0
  6
DASHED
 62
     4
 48
4.0
100
AcDbEllipse
 10
654.7531140598634
 20
284.4744006200705
 30
0.0
 11
0.0000000000000002
 21
-2.375999999999996
 31
0.0
210
0.0
220
0.0
230
1.0
 40
0.8333333333329997
 41
1.570796326794896
 42
3.141592653589792
  0
LINE
  5
3CE
330
1F
100
AcDbEntity
  8
0
  6
DASHED
 62
     4
 48
4.0
100
AcDbLine
 10
673.5738547816094
 20
284.0904007157746
 30
0.0
 11
673.5738547816094
 21
281.6904007157747
 31
0.0
  0
LINE
  5
3CF
330
1F
100
AcDbEntity
  8
0
  6
DASHED
 62
     4
 48
4.0
100
AcDbLine
 10
671.0738547816092
 20
286.6704007158007
 30
0.0
 11
671.0738547816092
 21
279.1104007158306
 31
0.0
  0
LINE
  5
3D0
330
1F
100
AcDbEntity
  8
0
  6
DASHED
 62
     4
 48
4.0
100
AcDbLine
 10
668.9761695135834
 20
276.8904019561064
 30
0.0
 11
668.9761695135834
 21
288.8904019561346
 31
0.0
  0
LINE
  5
3D1
330
1F
100
AcDbEntity
  8
0
  6
DASHED
 62
     4
 48
4.0
100
AcDbLine
 10
670.576169537315
 20
288.8904019561346
 30
0.0
 11
670.576169537315
 21
276.8904019561064
 31
0.0
  0
LINE
  5
3D2
330
1F
100
AcDbEntity
  8
0
  6
DASHED
 62
     4
 48
4.0
100
AcDbLine
 10
671.0738547816092
 20
279.8904007157746
 30
0.0
 11
672.0738547816091
 21
279.8904007157746
 31
0.0
  0
LINE
  5
3D3
330
1F
100
AcDbEntity
  8
0
  6
DASHED
 62
     4
 48
4.0
100
AcDbLine
 10
670.576169537315
 20
276.8904019561064
 30
0.0
 11
668.9761695135834
 21
276.8904019561064
 31
0.0
  0
ELLIPSE
  5
3D4
330
1F
100
AcDbEntity
  8
0
  6
DASHED
 62
     4
 48
4.0
100
AcDbEllipse
 10
672.0738547816091
 20
281.6904007157747
 30
0.0
 11
0.0000000000000002
 21
-1.8
 31
0.0
210
0.0
220
0.0
230
1.0
 40
0.8333333333329996
 41
0.0
 42
1.570796326794896
  0
LINE
  5
3D5
330
1F
100
AcDbEntity
  8
0
  6
DASHED
 62
     4
 48
4.0
100
AcDbLine
 10
670.576169537315
 20
286.6704007157966
 30
0.0
 11
671.0738547816092
 21
286.6704007158007
 31
0.0
  0
LINE
  5
3D6
330
1F
100
AcDbEntity
  8
0
  6
DASHED
 62
     4
 48
4.0
100
AcDbLine
 10
671.0738547816092
 20
285.8904007157746
 30
0.0
 11
672.0738547816091
 21
285.8904007157746
 31
0.0
  0
LINE
  5
3D7
330
1F
100
AcDbEntity
  8
0
  6
DASHED
 62
     4
 48
4.0
100
AcDbLine
 10
668.9761695135834
 20
288.8904019561346
 30
0.0
 11
670.576169537315
 21
288.8904019561346
 31
0.0
  0
ELLIPSE
  5
3D8
330
1F
100
AcDbEntity
  8
0
  6
DASHED
 62
     4
 48
4.0
100
AcDbEllipse
 10
672.0738547816091
 20
284.0904007157746
 30
0.0
 11
0.0000000000000002
 21
-1.799999999999998
 31
0.0
210
0.0
220
0.0
230
1.0
 40
0.8333333333329997
 41
1.570796326794896
 42
3.141592653589792
  0
LINE
  5
3D9
330
1F
100
AcDbEntity
  8
0
  6
Continuous
 62
     7
100
AcDbLine
 10
493.9761695373894
 20
540.8904019562341
 30
0.0
 11
493.9761695373894
 21
570.8904019562344
 31
0.0
  0
LINE
  5
3DA
330
1F
100
AcDbEntity
  8
0
  6
Continuous
 62
     7
100
AcDbLine
 10
492.7761695373893
 20
540.8904019562341
 30
0.0
 11
682.7761695373894
 21
540.8904019562341
 31
0.0
  0
LINE
  5
3DB
330
1F
100
AcDbEntity
  8
0
  6
Continuous
 62
     7
100
AcDbLine
 10
681.5761695373893
 20
521.1904019562346
 30
0.0
 11
681.5761695373893
 21
432.1904019562347
 31
0.0
  0
LINE
  5
3DC
330
1F
100
AcDbEntity
  8
0
  6
Continuous
 62
     7
 48
5.0
100
AcDbLine
 10
661.7761695373891
 20
433.1904019562347
 30
0.0
 11
661.7761695373891
 21
520.1904019562345
 31
0.0
  0
LINE
  5
3DD
330
1F
100
AcDbEntity
  8
0
  6
Continuous
 62
     7
100
AcDbLine
 10
675.7761695373891
 20
462.6904019561703
 30
0.0
 11
675.7761695373891
 21
456.3904019561967
 31
0.0
  0
ARC
  5
3DE
330
1F
100
AcDbEntity
  8
0
  6
Continuous
 62
     7
100
AcDbCircle
 10
676.7761695373889
 20
458.5404019561488
 30
0.0
 40
1.500000000000369
100
AcDbArc
 50
270.0000000000096
 51
359.9999999999852
  0
LINE
  5
3DF
330
1F
100
AcDbEntity
  8
0
  6
Continuous
 62
     7
100
AcDbLine
 10
667.7761695373891
 20
458.8804019560724
 30
0.0
 11
667.7761695373891
 21
452.5804019560985
 31
0.0
  0
ARC
  5
3E0
330
1F
100
AcDbEntity
  8
0
  6
Continuous
 62
     7
100
AcDbCircle
 10
668.7761695373889
 20
456.7304019560501
 30
0.0
 40
1.500000000000454
100
AcDbArc
 50
0.000000000014656
 51
89.99999999999024
  0
LINE
  5
3E1
330
1F
100
AcDbEntity
  8
0
  6
Continuous
 62
     7
100
AcDbLine
 10
680.7761695373891
 20
521.2004019561707
 30
0.0
 11
680.7761695373891
 21
432.3904019562347
 31
0.0
  0
LINE
  5
3E2
330
1F
100
AcDbEntity
  8
0
  6
Continuous
 62
     7
100
AcDbLine
 10
674.7761695373894
 20
521.2004019562264
 30
0.0
 11
674.7761695373894
 21
432.3904019562347
 31
0.0
  0
LINE
  5
3E3
330
1F
100
AcDbEntity
  8
0
  6
Continuous
 62
     7
100
AcDbLine
 10
666.7761695373894
 20
521.2004019561707
 30
0.0
 11
666.7761695373894
 21
432.3904019562347
 31
0.0
  0
LINE
  5
3E4
330
1F
100
AcDbEntity
  8
0
  6
Continuous
 62
     7
100
AcDbLine
 10
674.7761695373894
 20
433.5304019561943
 30
0.0
 11
680.7761695373891
 21
433.5304019562106
 31
0.0
  0
LINE
  5
3E5
330
1F
100
AcDbEntity
  8
0
  6
Continuous
 62
     7
100
AcDbLine
 10
674.7761695373894
 20
432.2104019561947
 30
0.0
 11
680.7761695373891
 21
432.2104019562105
 31
0.0
  0
LINE
  5
3E6
330
1F
100
AcDbEntity
  8
0
  6
Continuous
 62
     7
100
AcDbLine
 10
675.7761695373891
 20
434.1804019561546
 30
0.0
 11
676.7761695373891
 21
434.1804019561546
 31
0.0
  0
LINE
  5
3E7
330
1F
100
AcDbEntity
  8
0
  6
Continuous
 62
     7
100
AcDbLine
 10
675.7761695373891
 20
439.1804019561546
 30
0.0
 11
676.7761695373891
 21
439.1804019561546
 31
0.0
  0
LINE
  5
3E8
330
1F
100
AcDbEntity
  8
0
  6
Continuous
 62
     7
100
AcDbLine
 10
660.5761695373892
 20
432.1904019562347
 30
0.0
 11
682.7761695373894
 21
432.1904019562347
 31
0.0
  0
LINE
  5
3E9
330
1F
100
AcDbEntity
  8
0
  6
Continuous
 62
     7
100
AcDbLine
 10
675.7761695373891
 20
449.4204019561486
 30
0.0
 11
676.7761695373891
 21
449.4204019561486
 31
0.0
  0
LINE
  5
3EA
330
1F
100
AcDbEntity
  8
0
  6
Continuous
 62
     7
100
AcDbLine
 10
675.7761695373891
 20
454.4204019561487
 30
0.0
 11
676.7761695373891
 21
454.4204019561487
 31
0.0
  0
LINE
  5
3EB
330
1F
100
AcDbEntity
  8
0
  6
Continuous
 62
     7
100
AcDbLine
 10
675.7761695373891
 20
441.8004019561486
 30
0.0
 11
676.7761695373891
 21
441.8004019561486
 31
0.0
  0
LINE
  5
3EC
330
1F
100
AcDbEntity
  8
0
  6
Continuous
 62
     7
100
AcDbLine
 10
675.7761695373891
 20
446.8004019561487
 30
0.0
 11
676.7761695373891
 21
446.8004019561487
 31
0.0
  0
LINE
  5
3ED
330
1F
100
AcDbEntity
  8
0
  6
Continuous
 62
     7
100
AcDbLine
 10
674.7761695373894
 20
439.8304019561884
 30
0.0
 11
680.7761695373891
 21
439.8304019562046
 31
0.0
  0
LINE
  5
3EE
330
1F
100
AcDbEntity
  8
0
  6
Continuous
 62
     7
100
AcDbLine
 10
674.7761695373894
 20
441.1504019561885
 30
0.0
 11
680.7761695373891
 21
441.1504019562047
 31
0.0
  0
LINE
  5
3EF
330
1F
100
AcDbEntity
  8
0
  6
Continuous
 62
     7
100
AcDbLine
 10
674.7761695373894
 20
447.4504019561846
 30
0.0
 11
680.7761695373891
 21
447.4504019562247
 31
0.0
  0
LINE
  5
3F0
330
1F
100
AcDbEntity
  8
0
  6
Continuous
 62
     7
100
AcDbLine
 10
674.7761695373894
 20
448.7704019561847
 30
0.0
 11
680.7761695373891
 21
448.7704019562244
 31
0.0
  0
LINE
  5
3F1
330
1F
100
AcDbEntity
  8
0
  6
Continuous
 62
     7
100
AcDbLine
 10
674.7761695373894
 20
455.0704019562024
 30
0.0
 11
680.7761695373891
 21
455.0704019562107
 31
0.0
  0
LINE
  5
3F2
330
1F
100
AcDbEntity
  8
0
  6
Continuous
 62
     7
100
AcDbLine
 10
674.7761695373894
 20
456.3904019561883
 30
0.0
 11
680.7761695373891
 21
456.3904019562047
 31
0.0
  0
LINE
  5
3F3
330
1F
100
AcDbEntity
  8
0
  6
Continuous
 62
     7
100
AcDbLine
 10
675.7761695373891
 20
439.8304019561748
 30
0.0
 11
675.7761695373891
 21
433.5304019562006
 31
0.0
  0
LINE
  5
3F4
330
1F
100
AcDbEntity
  8
0
  6
Continuous
 62
     7
100
AcDbLine
 10
660.5761695373892
 20
433.1904019562347
 30
0.0
 11
660.5761695373892
 21
432.1904019562347
 31
0.0
  0
LINE
  5
3F5
330
1F
100
AcDbEntity
  8
0
  6
Continuous
 62
     7
100
AcDbLine
 10
661.7761695373891
 20
433.1904019562347
 30
0.0
 11
660.5761695373892
 21
433.1904019562347
 31
0.0
  0
LINE
  5
3F6
330
1F
100
AcDbEntity
  8
0
  6
Continuous
 62
     7
100
AcDbLine
 10
667.7761695373891
 20
451.2604019560724
 30
0.0
 11
667.7761695373891
 21
444.9604019560985
 31
0.0
  0
LINE
  5
3F7
330
1F
100
AcDbEntity
  8
0
  6
Continuous
 62
     7
100
AcDbLine
 10
675.7761695373891
 20
447.4504019561703
 30
0.0
 11
675.7761695373891
 21
441.1504019561967
 31
0.0
  0
LINE
  5
3F8
330
1F
100
AcDbEntity
  8
0
  6
Continuous
 62
     7
100
AcDbLine
 10
674.7761695373894
 20
437.3404019561504
 30
0.0
 11
666.7761695373894
 21
437.3404019560964
 31
0.0
  0
LINE
  5
3F9
330
1F
100
AcDbEntity
  8
0
  6
Continuous
 62
     7
100
AcDbLine
 10
666.7761695373894
 20
443.6404019560724
 30
0.0
 11
674.7761695373894
 21
443.6404019561166
 31
0.0
  0
LINE
  5
3FA
330
1F
100
AcDbEntity
  8
0
  6
Continuous
 62
     7
100
AcDbLine
 10
667.7761695373891
 20
437.9904019560568
 30
0.0
 11
668.7761695373891
 21
437.9904019560568
 31
0.0
  0
LINE
  5
3FB
330
1F
100
AcDbEntity
  8
0
  6
Continuous
 62
     7
100
AcDbLine
 10
667.7761695373891
 20
442.9904019560567
 30
0.0
 11
668.7761695373891
 21
442.9904019560567
 31
0.0
  0
LINE
  5
3FC
330
1F
100
AcDbEntity
  8
0
  6
Continuous
 62
     7
100
AcDbLine
 10
666.7761695373894
 20
436.0204019560907
 30
0.0
 11
674.7761695373894
 21
436.0204019561463
 31
0.0
  0
LINE
  5
3FD
330
1F
100
AcDbEntity
  8
0
  6
Continuous
 62
     7
100
AcDbLine
 10
674.7761695373894
 20
444.9604019561467
 30
0.0
 11
666.7761695373894
 21
444.9604019560907
 31
0.0
  0
LINE
  5
3FE
330
1F
100
AcDbEntity
  8
0
  6
Continuous
 62
     7
100
AcDbLine
 10
667.7761695373891
 20
443.6404019560764
 30
0.0
 11
667.7761695373891
 21
437.3404019561027
 31
0.0
  0
LINE
  5
3FF
330
1F
100
AcDbEntity
  8
0
  6
Continuous
 62
     7
100
AcDbLine
 10
670.2761695373894
 20
441.4904019560567
 30
0.0
 11
670.2761695373894
 21
439.4904019560565
 31
0.0
  0
ARC
  5
400
330
1F
100
AcDbEntity
  8
0
  6
Continuous
 62
     7
100
AcDbCircle
 10
668.7761695373889
 20
439.4904019560568
 30
0.0
 40
1.500000000000341
100
AcDbArc
 50
270.0000000000096
 51
359.9999999999868
  0
ARC
  5
401
330
1F
100
AcDbEntity
  8
0
  6
Continuous
 62
     7
100
AcDbCircle
 10
668.7761695373889
 20
441.4904019560562
 30
0.0
 40
1.500000000000454
100
AcDbArc
 50
0.0000000000130276
 51
89.99999999999024
  0
LINE
  5
402
330
1F
100
AcDbEntity
  8
0
  6
Continuous
 62
     7
100
AcDbLine
 10
667.7761695373891
 20
453.2304019560507
 30
0.0
 11
668.7761695373891
 21
453.2304019560507
 31
0.0
  0
LINE
  5
403
330
1F
100
AcDbEntity
  8
0
  6
Continuous
 62
     7
100
AcDbLine
 10
667.7761695373891
 20
445.6104019560505
 30
0.0
 11
668.7761695373891
 21
445.6104019560505
 31
0.0
  0
LINE
  5
404
330
1F
100
AcDbEntity
  8
0
  6
Continuous
 62
     7
100
AcDbLine
 10
667.7761695373891
 20
450.6104019560504
 30
0.0
 11
668.7761695373891
 21
450.6104019560504
 31
0.0
  0
LINE
  5
405
330
1F
100
AcDbEntity
  8
0
  6
Continuous
 62
     7
100
AcDbLine
 10
666.7761695373894
 20
451.2604019560665
 30
0.0
 11
674.7761695373894
 21
451.2604019561107
 31
0.0
  0
LINE
  5
406
330
1F
100
AcDbEntity
  8
0
  6
Continuous
 62
     7
100
AcDbLine
 10
674.7761695373894
 20
452.5804019561465
 30
0.0
 11
666.7761695373894
 21
452.5804019560907
 31
0.0
  0
LINE
  5
407
330
1F
100
AcDbEntity
  8
0
  6
Continuous
 62
     7
100
AcDbLine
 10
670.2761695373894
 20
456.7304019560507
 30
0.0
 11
670.2761695373894
 21
454.7304019560507
 31
0.0
  0
ARC
  5
408
330
1F
100
AcDbEntity
  8
0
  6
Continuous
 62
     7
100
AcDbCircle
 10
668.7761695373889
 20
454.7304019560507
 30
0.0
 40
1.500000000000369
100
AcDbArc
 50
270.0000000000096
 51
359.9999999999852
  0
LINE
  5
409
330
1F
100
AcDbEntity
  8
0
  6
Continuous
 62
     7
100
AcDbLine
 10
675.7761695373891
 20
455.0704019561707
 30
0.0
 11
675.7761695373891
 21
448.7704019561967
 31
0.0
  0
LINE
  5
40A
330
1F
100
AcDbEntity
  8
0
  6
Continuous
 62
     7
100
AcDbLine
 10
670.2761695373894
 20
449.1104019560507
 30
0.0
 11
670.2761695373894
 21
447.1104019560505
 31
0.0
  0
ARC
  5
40B
330
1F
100
AcDbEntity
  8
0
  6
Continuous
 62
     7
100
AcDbCircle
 10
668.7761695373889
 20
447.110401956051
 30
0.0
 40
1.500000000000369
100
AcDbArc
 50
270.0000000000096
 51
359.9999999999852
  0
ARC
  5
40C
330
1F
100
AcDbEntity
  8
0
  6
Continuous
 62
     7
100
AcDbCircle
 10
668.7761695373889
 20
449.1104019560501
 30
0.0
 40
1.500000000000454
100
AcDbArc
 50
0.000000000014656
 51
89.99999999999024
  0
LINE
  5
40D
330
1F
100
AcDbEntity
  8
0
  6
Continuous
 62
     7
100
AcDbLine
 10
678.2761695373893
 20
445.3004019561486
 30
0.0
 11
678.2761695373893
 21
443.3004019561487
 31
0.0
  0
LINE
  5
40E
330
1F
100
AcDbEntity
  8
0
  6
Continuous
 62
     7
100
AcDbLine
 10
678.2761695373893
 20
437.6804019561546
 30
0.0
 11
678.2761695373893
 21
435.6804019561547
 31
0.0
  0
ARC
  5
40F
330
1F
100
AcDbEntity
  8
0
  6
Continuous
 62
     7
100
AcDbCircle
 10
676.7761695373889
 20
435.680401956155
 30
0.0
 40
1.500000000000341
100
AcDbArc
 50
270.0000000000096
 51
359.9999999999868
  0
ARC
  5
410
330
1F
100
AcDbEntity
  8
0
  6
Continuous
 62
     7
100
AcDbCircle
 10
676.7761695373889
 20
437.6804019561542
 30
0.0
 40
1.500000000000454
100
AcDbArc
 50
0.0000000000130276
 51
89.99999999999024
  0
ARC
  5
411
330
1F
100
AcDbEntity
  8
0
  6
Continuous
 62
     7
100
AcDbCircle
 10
676.7761695373889
 20
443.3004019561488
 30
0.0
 40
1.500000000000369
100
AcDbArc
 50
270.0000000000096
 51
359.9999999999852
  0
LINE
  5
412
330
1F
100
AcDbEntity
  8
0
  6
Continuous
 62
     7
100
AcDbLine
 10
678.2761695373893
 20
452.9204019561486
 30
0.0
 11
678.2761695373893
 21
450.9204019561487
 31
0.0
  0
ARC
  5
413
330
1F
100
AcDbEntity
  8
0
  6
Continuous
 62
     7
100
AcDbCircle
 10
676.7761695373889
 20
450.9204019561488
 30
0.0
 40
1.500000000000369
100
AcDbArc
 50
270.0000000000096
 51
359.9999999999852
  0
ARC
  5
414
330
1F
100
AcDbEntity
  8
0
  6
Continuous
 62
     7
100
AcDbCircle
 10
676.7761695373889
 20
452.9204019561482
 30
0.0
 40
1.500000000000454
100
AcDbArc
 50
0.000000000014656
 51
89.99999999999024
  0
ARC
  5
415
330
1F
100
AcDbEntity
  8
0
  6
Continuous
 62
     7
100
AcDbCircle
 10
676.7761695373889
 20
445.3004019561482
 30
0.0
 40
1.500000000000454
100
AcDbArc
 50
0.000000000014656
 51
89.99999999999024
  0
LINE
  5
416
330
1F
100
AcDbEntity
  8
0
  6
Continuous
 62
     7
100
AcDbLine
 10
675.7761695373891
 20
508.4104019561785
 30
0.0
 11
675.7761695373891
 21
502.1104019562048
 31
0.0
  0
ARC
  5
417
330
1F
100
AcDbEntity
  8
0
  6
Continuous
 62
     7
100
AcDbCircle
 10
676.7761695373889
 20
504.2604019561585
 30
0.0
 40
1.500000000000369
100
AcDbArc
 50
270.0000000000096
 51
359.9999999999852
  0
LINE
  5
418
330
1F
100
AcDbEntity
  8
0
  6
Continuous
 62
     7
100
AcDbLine
 10
667.7761695373891
 20
504.6004019560801
 30
0.0
 11
667.7761695373891
 21
498.3004019561064
 31
0.0
  0
ARC
  5
419
330
1F
100
AcDbEntity
  8
0
  6
Continuous
 62
     7
100
AcDbCircle
 10
668.7761695373889
 20
502.4504019560601
 30
0.0
 40
1.500000000000454
100
AcDbArc
 50
0.0000000000097707
 51
89.99999999999024
  0
LINE
  5
41A
330
1F
100
AcDbEntity
  8
0
  6
Continuous
 62
     7
100
AcDbLine
 10
675.7761695373891
 20
502.7604019561585
 30
0.0
 11
676.7761695373891
 21
502.7604019561585
 31
0.0
  0
LINE
  5
41B
330
1F
100
AcDbEntity
  8
0
  6
Continuous
 62
     7
100
AcDbLine
 10
675.7761695373891
 20
495.1404019561246
 30
0.0
 11
676.7761695373891
 21
495.1404019561246
 31
0.0
  0
LINE
  5
41C
330
1F
100
AcDbEntity
  8
0
  6
Continuous
 62
     7
100
AcDbLine
 10
675.7761695373891
 20
500.1404019561247
 30
0.0
 11
676.7761695373891
 21
500.1404019561247
 31
0.0
  0
LINE
  5
41D
330
1F
100
AcDbEntity
  8
0
  6
Continuous
 62
     7
100
AcDbLine
 10
675.7761695373891
 20
487.5204019561507
 30
0.0
 11
676.7761695373891
 21
487.5204019561507
 31
0.0
  0
LINE
  5
41E
330
1F
100
AcDbEntity
  8
0
  6
Continuous
 62
     7
100
AcDbLine
 10
675.7761695373891
 20
492.5204019561507
 30
0.0
 11
676.7761695373891
 21
492.5204019561507
 31
0.0
  0
LINE
  5
41F
330
1F
100
AcDbEntity
  8
0
  6
Continuous
 62
     7
100
AcDbLine
 10
675.7761695373891
 20
479.9004019561226
 30
0.0
 11
676.7761695373891
 21
479.9004019561226
 31
0.0
  0
LINE
  5
420
330
1F
100
AcDbEntity
  8
0
  6
Continuous
 62
     7
100
AcDbLine
 10
675.7761695373891
 20
484.9004019561227
 30
0.0
 11
676.7761695373891
 21
484.9004019561227
 31
0.0
  0
LINE
  5
421
330
1F
100
AcDbEntity
  8
0
  6
Continuous
 62
     7
100
AcDbLine
 10
675.7761695373891
 20
472.2804019561248
 30
0.0
 11
676.7761695373891
 21
472.2804019561248
 31
0.0
  0
LINE
  5
422
330
1F
100
AcDbEntity
  8
0
  6
Continuous
 62
     7
100
AcDbLine
 10
675.7761695373891
 20
477.2804019561248
 30
0.0
 11
676.7761695373891
 21
477.2804019561248
 31
0.0
  0
LINE
  5
423
330
1F
100
AcDbEntity
  8
0
  6
Continuous
 62
     7
100
AcDbLine
 10
675.7761695373891
 20
464.6604019561484
 30
0.0
 11
676.7761695373891
 21
464.6604019561484
 31
0.0
  0
LINE
  5
424
330
1F
100
AcDbEntity
  8
0
  6
Continuous
 62
     7
100
AcDbLine
 10
675.7761695373891
 20
469.6604019561484
 30
0.0
 11
676.7761695373891
 21
469.6604019561484
 31
0.0
  0
LINE
  5
425
330
1F
100
AcDbEntity
  8
0
  6
Continuous
 62
     7
100
AcDbLine
 10
675.7761695373891
 20
457.0404019561486
 30
0.0
 11
676.7761695373891
 21
457.0404019561486
 31
0.0
  0
LINE
  5
426
330
1F
100
AcDbEntity
  8
0
  6
Continuous
 62
     7
100
AcDbLine
 10
675.7761695373891
 20
462.0404019561487
 30
0.0
 11
676.7761695373891
 21
462.0404019561487
 31
0.0
  0
LINE
  5
427
330
1F
100
AcDbEntity
  8
0
  6
Continuous
 62
     7
100
AcDbLine
 10
674.7761695373894
 20
462.6904019561846
 30
0.0
 11
680.7761695373891
 21
462.6904019562247
 31
0.0
  0
LINE
  5
428
330
1F
100
AcDbEntity
  8
0
  6
Continuous
 62
     7
100
AcDbLine
 10
674.7761695373894
 20
464.0104019561607
 30
0.0
 11
680.7761695373891
 21
464.0104019561927
 31
0.0
  0
LINE
  5
429
330
1F
100
AcDbEntity
  8
0
  6
Continuous
 62
     7
100
AcDbLine
 10
674.7761695373894
 20
470.3104019561608
 30
0.0
 11
680.7761695373891
 21
470.3104019561926
 31
0.0
  0
LINE
  5
42A
330
1F
100
AcDbEntity
  8
0
  6
Continuous
 62
     7
100
AcDbLine
 10
680.7761695373891
 20
471.6304019562048
 30
0.0
 11
674.7761695373894
 21
471.6304019561887
 31
0.0
  0
LINE
  5
42B
330
1F
100
AcDbEntity
  8
0
  6
Continuous
 62
     7
100
AcDbLine
 10
680.7761695373891
 20
479.2504019561924
 30
0.0
 11
674.7761695373894
 21
479.2504019561603
 31
0.0
  0
LINE
  5
42C
330
1F
100
AcDbEntity
  8
0
  6
Continuous
 62
     7
100
AcDbLine
 10
674.7761695373894
 20
477.9304019561608
 30
0.0
 11
680.7761695373891
 21
477.9304019561926
 31
0.0
  0
LINE
  5
42D
330
1F
100
AcDbEntity
  8
0
  6
Continuous
 62
     7
100
AcDbLine
 10
674.7761695373894
 20
485.5504019561608
 30
0.0
 11
680.7761695373891
 21
485.5504019561927
 31
0.0
  0
LINE
  5
42E
330
1F
100
AcDbEntity
  8
0
  6
Continuous
 62
     7
100
AcDbLine
 10
680.7761695373891
 20
486.8704019562247
 30
0.0
 11
674.7761695373894
 21
486.8704019561847
 31
0.0
  0
LINE
  5
42F
330
1F
100
AcDbEntity
  8
0
  6
Continuous
 62
     7
100
AcDbLine
 10
674.7761695373894
 20
493.1704019561546
 30
0.0
 11
680.7761695373891
 21
493.1704019562146
 31
0.0
  0
LINE
  5
430
330
1F
100
AcDbEntity
  8
0
  6
Continuous
 62
     7
100
AcDbLine
 10
680.7761695373891
 20
494.4904019562144
 30
0.0
 11
674.7761695373894
 21
494.4904019561546
 31
0.0
  0
LINE
  5
431
330
1F
100
AcDbEntity
  8
0
  6
Continuous
 62
     7
100
AcDbLine
 10
674.7761695373894
 20
500.7904019561545
 30
0.0
 11
680.7761695373891
 21
500.7904019562145
 31
0.0
  0
LINE
  5
432
330
1F
100
AcDbEntity
  8
0
  6
Continuous
 62
     7
100
AcDbLine
 10
680.7761695373891
 20
502.1104019561922
 30
0.0
 11
674.7761695373894
 21
502.1104019561604
 31
0.0
  0
LINE
  5
433
330
1F
100
AcDbEntity
  8
0
  6
Continuous
 62
     7
100
AcDbLine
 10
675.7761695373891
 20
485.5504019561448
 30
0.0
 11
675.7761695373891
 21
479.2504019561707
 31
0.0
  0
LINE
  5
434
330
1F
100
AcDbEntity
  8
0
  6
Continuous
 62
     7
100
AcDbLine
 10
667.7761695373891
 20
481.7404019560465
 30
0.0
 11
667.7761695373891
 21
475.4404019560727
 31
0.0
  0
ARC
  5
435
330
1F
100
AcDbEntity
  8
0
  6
Continuous
 62
     7
100
AcDbCircle
 10
668.7761695373889
 20
479.5904019560262
 30
0.0
 40
1.500000000000454
100
AcDbArc
 50
0.0000000000130276
 51
89.99999999999024
  0
LINE
  5
436
330
1F
100
AcDbEntity
  8
0
  6
Continuous
 62
     7
100
AcDbLine
 10
667.7761695373891
 20
474.1204019560464
 30
0.0
 11
667.7761695373891
 21
467.8204019560727
 31
0.0
  0
ARC
  5
437
330
1F
100
AcDbEntity
  8
0
  6
Continuous
 62
     7
100
AcDbCircle
 10
668.7761695373889
 20
469.9704019560271
 30
0.0
 40
1.500000000000341
100
AcDbArc
 50
270.0000000000096
 51
359.9999999999852
  0
LINE
  5
438
330
1F
100
AcDbEntity
  8
0
  6
Continuous
 62
     7
100
AcDbLine
 10
675.7761695373891
 20
470.3104019561703
 30
0.0
 11
675.7761695373891
 21
464.0104019561967
 31
0.0
  0
LINE
  5
439
330
1F
100
AcDbEntity
  8
0
  6
Continuous
 62
     7
100
AcDbLine
 10
667.7761695373891
 20
460.8504019560505
 30
0.0
 11
668.7761695373891
 21
460.8504019560505
 31
0.0
  0
LINE
  5
43A
330
1F
100
AcDbEntity
  8
0
  6
Continuous
 62
     7
100
AcDbLine
 10
667.7761695373891
 20
465.8504019560504
 30
0.0
 11
668.7761695373891
 21
465.8504019560504
 31
0.0
  0
LINE
  5
43B
330
1F
100
AcDbEntity
  8
0
  6
Continuous
 62
     7
100
AcDbLine
 10
667.7761695373891
 20
458.2304019560507
 30
0.0
 11
668.7761695373891
 21
458.2304019560507
 31
0.0
  0
LINE
  5
43C
330
1F
100
AcDbEntity
  8
0
  6
Continuous
 62
     7
100
AcDbLine
 10
666.7761695373894
 20
458.8804019560665
 30
0.0
 11
674.7761695373894
 21
458.8804019561107
 31
0.0
  0
LINE
  5
43D
330
1F
100
AcDbEntity
  8
0
  6
Continuous
 62
     7
100
AcDbLine
 10
674.7761695373894
 20
460.2004019561465
 30
0.0
 11
666.7761695373894
 21
460.2004019560907
 31
0.0
  0
LINE
  5
43E
330
1F
100
AcDbEntity
  8
0
  6
Continuous
 62
     7
100
AcDbLine
 10
666.7761695373894
 20
466.5004019560907
 30
0.0
 11
674.7761695373894
 21
466.5004019561464
 31
0.0
  0
LINE
  5
43F
330
1F
100
AcDbEntity
  8
0
  6
Continuous
 62
     7
100
AcDbLine
 10
674.7761695373894
 20
467.8204019561106
 30
0.0
 11
666.7761695373894
 21
467.8204019560666
 31
0.0
  0
LINE
  5
440
330
1F
100
AcDbEntity
  8
0
  6
Continuous
 62
     7
100
AcDbLine
 10
667.7761695373891
 20
466.5004019560727
 30
0.0
 11
667.7761695373891
 21
460.2004019560985
 31
0.0
  0
LINE
  5
441
330
1F
100
AcDbEntity
  8
0
  6
Continuous
 62
     7
100
AcDbLine
 10
670.2761695373894
 20
464.3504019560507
 30
0.0
 11
670.2761695373894
 21
462.3504019560505
 31
0.0
  0
ARC
  5
442
330
1F
100
AcDbEntity
  8
0
  6
Continuous
 62
     7
100
AcDbCircle
 10
668.7761695373889
 20
462.3504019560511
 30
0.0
 40
1.500000000000341
100
AcDbArc
 50
270.0000000000096
 51
359.9999999999852
  0
ARC
  5
443
330
1F
100
AcDbEntity
  8
0
  6
Continuous
 62
     7
100
AcDbCircle
 10
668.7761695373889
 20
464.3504019560501
 30
0.0
 40
1.500000000000454
100
AcDbArc
 50
0.0000000000130276
 51
89.99999999999024
  0
LINE
  5
444
330
1F
100
AcDbEntity
  8
0
  6
Continuous
 62
     7
100
AcDbLine
 10
667.7761695373891
 20
476.0904019560266
 30
0.0
 11
668.7761695373891
 21
476.0904019560266
 31
0.0
  0
LINE
  5
445
330
1F
100
AcDbEntity
  8
0
  6
Continuous
 62
     7
100
AcDbLine
 10
667.7761695373891
 20
468.4704019560266
 30
0.0
 11
668.7761695373891
 21
468.4704019560266
 31
0.0
  0
LINE
  5
446
330
1F
100
AcDbEntity
  8
0
  6
Continuous
 62
     7
100
AcDbLine
 10
667.7761695373891
 20
473.4704019560266
 30
0.0
 11
668.7761695373891
 21
473.4704019560266
 31
0.0
  0
LINE
  5
447
330
1F
100
AcDbEntity
  8
0
  6
Continuous
 62
     7
100
AcDbLine
 10
666.7761695373894
 20
474.1204019560665
 30
0.0
 11
674.7761695373894
 21
474.1204019561108
 31
0.0
  0
LINE
  5
448
330
1F
100
AcDbEntity
  8
0
  6
Continuous
 62
     7
100
AcDbLine
 10
674.7761695373894
 20
475.4404019561427
 30
0.0
 11
666.7761695373894
 21
475.4404019560666
 31
0.0
  0
LINE
  5
449
330
1F
100
AcDbEntity
  8
0
  6
Continuous
 62
     7
100
AcDbLine
 10
670.2761695373894
 20
479.5904019560266
 30
0.0
 11
670.2761695373894
 21
477.5904019560265
 31
0.0
  0
ARC
  5
44A
330
1F
100
AcDbEntity
  8
0
  6
Continuous
 62
     7
100
AcDbCircle
 10
668.7761695373889
 20
477.5904019560267
 30
0.0
 40
1.500000000000341
100
AcDbArc
 50
270.0000000000096
 51
359.9999999999852
  0
LINE
  5
44B
330
1F
100
AcDbEntity
  8
0
  6
Continuous
 62
     7
100
AcDbLine
 10
675.7761695373891
 20
477.9304019561444
 30
0.0
 11
675.7761695373891
 21
471.6304019561706
 31
0.0
  0
LINE
  5
44C
330
1F
100
AcDbEntity
  8
0
  6
Continuous
 62
     7
100
AcDbLine
 10
670.2761695373894
 20
471.9704019560266
 30
0.0
 11
670.2761695373894
 21
469.9704019560265
 31
0.0
  0
ARC
  5
44D
330
1F
100
AcDbEntity
  8
0
  6
Continuous
 62
     7
100
AcDbCircle
 10
668.7761695373889
 20
471.9704019560261
 30
0.0
 40
1.500000000000454
100
AcDbArc
 50
0.0000000000130276
 51
89.99999999999024
  0
LINE
  5
44E
330
1F
100
AcDbEntity
  8
0
  6
Continuous
 62
     7
100
AcDbLine
 10
667.7761695373891
 20
496.9804019560465
 30
0.0
 11
667.7761695373891
 21
490.6804019560723
 31
0.0
  0
ARC
  5
44F
330
1F
100
AcDbEntity
  8
0
  6
Continuous
 62
     7
100
AcDbCircle
 10
668.7761695373889
 20
492.8304019560267
 30
0.0
 40
1.500000000000341
100
AcDbArc
 50
270.0000000000096
 51
359.9999999999852
  0
LINE
  5
450
330
1F
100
AcDbEntity
  8
0
  6
Continuous
 62
     7
100
AcDbLine
 10
675.7761695373891
 20
493.1704019561704
 30
0.0
 11
675.7761695373891
 21
486.8704019561966
 31
0.0
  0
LINE
  5
451
330
1F
100
AcDbEntity
  8
0
  6
Continuous
 62
     7
100
AcDbLine
 10
667.7761695373891
 20
491.3304019560266
 30
0.0
 11
668.7761695373891
 21
491.3304019560266
 31
0.0
  0
LINE
  5
452
330
1F
100
AcDbEntity
  8
0
  6
Continuous
 62
     7
100
AcDbLine
 10
667.7761695373891
 20
483.7104019560528
 30
0.0
 11
668.7761695373891
 21
483.7104019560528
 31
0.0
  0
LINE
  5
453
330
1F
100
AcDbEntity
  8
0
  6
Continuous
 62
     7
100
AcDbLine
 10
667.7761695373891
 20
488.7104019560528
 30
0.0
 11
668.7761695373891
 21
488.7104019560528
 31
0.0
  0
LINE
  5
454
330
1F
100
AcDbEntity
  8
0
  6
Continuous
 62
     7
100
AcDbLine
 10
667.7761695373891
 20
481.0904019560267
 30
0.0
 11
668.7761695373891
 21
481.0904019560267
 31
0.0
  0
LINE
  5
455
330
1F
100
AcDbEntity
  8
0
  6
Continuous
 62
     7
100
AcDbLine
 10
666.7761695373894
 20
481.7404019560903
 30
0.0
 11
674.7761695373894
 21
481.7404019561464
 31
0.0
  0
LINE
  5
456
330
1F
100
AcDbEntity
  8
0
  6
Continuous
 62
     7
100
AcDbLine
 10
674.7761695373894
 20
483.0604019561146
 30
0.0
 11
666.7761695373894
 21
483.0604019560927
 31
0.0
  0
LINE
  5
457
330
1F
100
AcDbEntity
  8
0
  6
Continuous
 62
     7
100
AcDbLine
 10
666.7761695373894
 20
489.3604019560903
 30
0.0
 11
674.7761695373894
 21
489.3604019561467
 31
0.0
  0
LINE
  5
458
330
1F
100
AcDbEntity
  8
0
  6
Continuous
 62
     7
100
AcDbLine
 10
674.7761695373894
 20
490.6804019561106
 30
0.0
 11
666.7761695373894
 21
490.6804019560666
 31
0.0
  0
LINE
  5
459
330
1F
100
AcDbEntity
  8
0
  6
Continuous
 62
     7
100
AcDbLine
 10
667.7761695373891
 20
489.3604019560727
 30
0.0
 11
667.7761695373891
 21
483.0604019560985
 31
0.0
  0
LINE
  5
45A
330
1F
100
AcDbEntity
  8
0
  6
Continuous
 62
     7
100
AcDbLine
 10
670.2761695373894
 20
487.2104019560528
 30
0.0
 11
670.2761695373894
 21
485.2104019560528
 31
0.0
  0
ARC
  5
45B
330
1F
100
AcDbEntity
  8
0
  6
Continuous
 62
     7
100
AcDbCircle
 10
668.7761695373889
 20
485.2104019560528
 30
0.0
 40
1.500000000000341
100
AcDbArc
 50
270.0000000000096
 51
359.9999999999868
  0
ARC
  5
45C
330
1F
100
AcDbEntity
  8
0
  6
Continuous
 62
     7
100
AcDbCircle
 10
668.7761695373889
 20
487.2104019560521
 30
0.0
 40
1.500000000000454
100
AcDbArc
 50
0.0000000000130276
 51
89.99999999999024
  0
LINE
  5
45D
330
1F
100
AcDbEntity
  8
0
  6
Continuous
 62
     7
100
AcDbLine
 10
667.7761695373891
 20
498.9504019560606
 30
0.0
 11
668.7761695373891
 21
498.9504019560606
 31
0.0
  0
LINE
  5
45E
330
1F
100
AcDbEntity
  8
0
  6
Continuous
 62
     7
100
AcDbLine
 10
667.7761695373891
 20
496.3304019560267
 30
0.0
 11
668.7761695373891
 21
496.3304019560267
 31
0.0
  0
LINE
  5
45F
330
1F
100
AcDbEntity
  8
0
  6
Continuous
 62
     7
100
AcDbLine
 10
666.7761695373894
 20
496.9804019560926
 30
0.0
 11
674.7761695373894
 21
496.9804019561147
 31
0.0
  0
LINE
  5
460
330
1F
100
AcDbEntity
  8
0
  6
Continuous
 62
     7
100
AcDbLine
 10
674.7761695373894
 20
498.3004019561463
 30
0.0
 11
666.7761695373894
 21
498.3004019561007
 31
0.0
  0
LINE
  5
461
330
1F
100
AcDbEntity
  8
0
  6
Continuous
 62
     7
100
AcDbLine
 10
670.2761695373894
 20
502.4504019560605
 30
0.0
 11
670.2761695373894
 21
500.4504019560605
 31
0.0
  0
ARC
  5
462
330
1F
100
AcDbEntity
  8
0
  6
Continuous
 62
     7
100
AcDbCircle
 10
668.7761695373889
 20
500.4504019560608
 30
0.0
 40
1.500000000000255
100
AcDbArc
 50
270.0000000000096
 51
359.9999999999837
  0
LINE
  5
463
330
1F
100
AcDbEntity
  8
0
  6
Continuous
 62
     7
100
AcDbLine
 10
675.7761695373891
 20
500.7904019561447
 30
0.0
 11
675.7761695373891
 21
494.4904019561707
 31
0.0
  0
LINE
  5
464
330
1F
100
AcDbEntity
  8
0
  6
Continuous
 62
     7
100
AcDbLine
 10
670.2761695373894
 20
494.8304019560266
 30
0.0
 11
670.2761695373894
 21
492.8304019560266
 31
0.0
  0
ARC
  5
465
330
1F
100
AcDbEntity
  8
0
  6
Continuous
 62
     7
100
AcDbCircle
 10
668.7761695373889
 20
494.8304019560262
 30
0.0
 40
1.500000000000454
100
AcDbArc
 50
0.0000000000130276
 51
89.99999999999024
  0
ARC
  5
466
330
1F
100
AcDbEntity
  8
0
  6
Continuous
 62
     7
100
AcDbCircle
 10
676.7761695373889
 20
481.4004019561227
 30
0.0
 40
1.500000000000369
100
AcDbArc
 50
270.0000000000096
 51
359.9999999999852
  0
ARC
  5
467
330
1F
100
AcDbEntity
  8
0
  6
Continuous
 62
     7
100
AcDbCircle
 10
676.7761695373889
 20
468.1604019561482
 30
0.0
 40
1.500000000000454
100
AcDbArc
 50
0.000000000014656
 51
89.99999999999024
  0
LINE
  5
468
330
1F
100
AcDbEntity
  8
0
  6
Continuous
 62
     7
100
AcDbLine
 10
678.2761695373893
 20
468.1604019561486
 30
0.0
 11
678.2761695373893
 21
466.1604019561487
 31
0.0
  0
ARC
  5
469
330
1F
100
AcDbEntity
  8
0
  6
Continuous
 62
     7
100
AcDbCircle
 10
676.7761695373889
 20
466.1604019561488
 30
0.0
 40
1.500000000000369
100
AcDbArc
 50
270.0000000000096
 51
359.9999999999868
  0
LINE
  5
46A
330
1F
100
AcDbEntity
  8
0
  6
Continuous
 62
     7
100
AcDbLine
 10
678.2761695373893
 20
460.5404019561486
 30
0.0
 11
678.2761695373893
 21
458.5404019561487
 31
0.0
  0
ARC
  5
46B
330
1F
100
AcDbEntity
  8
0
  6
Continuous
 62
     7
100
AcDbCircle
 10
676.7761695373889
 20
460.5404019561482
 30
0.0
 40
1.500000000000454
100
AcDbArc
 50
0.000000000014656
 51
89.99999999999024
  0
LINE
  5
46C
330
1F
100
AcDbEntity
  8
0
  6
Continuous
 62
     7
100
AcDbLine
 10
678.2761695373893
 20
475.7804019561247
 30
0.0
 11
678.2761695373893
 21
473.7804019561244
 31
0.0
  0
ARC
  5
46D
330
1F
100
AcDbEntity
  8
0
  6
Continuous
 62
     7
100
AcDbCircle
 10
676.7761695373889
 20
473.780401956125
 30
0.0
 40
1.500000000000341
100
AcDbArc
 50
270.0000000000096
 51
359.9999999999852
  0
ARC
  5
46E
330
1F
100
AcDbEntity
  8
0
  6
Continuous
 62
     7
100
AcDbCircle
 10
676.7761695373889
 20
475.7804019561241
 30
0.0
 40
1.500000000000454
100
AcDbArc
 50
0.000000000014656
 51
89.99999999999024
  0
ARC
  5
46F
330
1F
100
AcDbEntity
  8
0
  6
Continuous
 62
     7
100
AcDbCircle
 10
676.7761695373889
 20
491.0204019561502
 30
0.0
 40
1.500000000000454
100
AcDbArc
 50
0.0000000000130276
 51
89.99999999999024
  0
LINE
  5
470
330
1F
100
AcDbEntity
  8
0
  6
Continuous
 62
     7
100
AcDbLine
 10
678.2761695373893
 20
491.0204019561503
 30
0.0
 11
678.2761695373893
 21
489.0204019561504
 31
0.0
  0
ARC
  5
471
330
1F
100
AcDbEntity
  8
0
  6
Continuous
 62
     7
100
AcDbCircle
 10
676.7761695373889
 20
489.0204019561508
 30
0.0
 40
1.500000000000341
100
AcDbArc
 50
270.0000000000096
 51
359.9999999999868
  0
LINE
  5
472
330
1F
100
AcDbEntity
  8
0
  6
Continuous
 62
     7
100
AcDbLine
 10
678.2761695373893
 20
483.4004019561226
 30
0.0
 11
678.2761695373893
 21
481.4004019561227
 31
0.0
  0
ARC
  5
473
330
1F
100
AcDbEntity
  8
0
  6
Continuous
 62
     7
100
AcDbCircle
 10
676.7761695373889
 20
483.4004019561219
 30
0.0
 40
1.500000000000454
100
AcDbArc
 50
0.000000000014656
 51
89.99999999999024
  0
LINE
  5
474
330
1F
100
AcDbEntity
  8
0
  6
Continuous
 62
     7
100
AcDbLine
 10
678.2761695373893
 20
498.6404019561247
 30
0.0
 11
678.2761695373893
 21
496.6404019561247
 31
0.0
  0
ARC
  5
475
330
1F
100
AcDbEntity
  8
0
  6
Continuous
 62
     7
100
AcDbCircle
 10
676.7761695373889
 20
496.6404019561251
 30
0.0
 40
1.500000000000369
100
AcDbArc
 50
270.0000000000096
 51
359.9999999999868
  0
ARC
  5
476
330
1F
100
AcDbEntity
  8
0
  6
Continuous
 62
     7
100
AcDbCircle
 10
676.7761695373889
 20
498.6404019561241
 30
0.0
 40
1.500000000000454
100
AcDbArc
 50
0.000000000014656
 51
89.99999999999024
  0
LINE
  5
477
330
1F
100
AcDbEntity
  8
0
  6
Continuous
 62
     7
100
AcDbLine
 10
660.5761695373892
 20
521.1904019562346
 30
0.0
 11
682.7761695373894
 21
521.1904019562346
 31
0.0
  0
LINE
  5
478
330
1F
100
AcDbEntity
  8
0
  6
Continuous
 62
     7
100
AcDbLine
 10
675.7761695373891
 20
510.3804019561502
 30
0.0
 11
676.7761695373891
 21
510.3804019561502
 31
0.0
  0
LINE
  5
479
330
1F
100
AcDbEntity
  8
0
  6
Continuous
 62
     7
100
AcDbLine
 10
675.7761695373891
 20
515.3804019561503
 30
0.0
 11
676.7761695373891
 21
515.3804019561503
 31
0.0
  0
LINE
  5
47A
330
1F
100
AcDbEntity
  8
0
  6
Continuous
 62
     7
100
AcDbLine
 10
675.7761695373891
 20
507.7604019561586
 30
0.0
 11
676.7761695373891
 21
507.7604019561586
 31
0.0
  0
LINE
  5
47B
330
1F
100
AcDbEntity
  8
0
  6
Continuous
 62
     7
100
AcDbLine
 10
680.7761695373891
 20
521.2004019561707
 30
0.0
 11
661.7761695373891
 21
521.2004019561707
 31
0.0
  0
LINE
  5
47C
330
1F
100
AcDbEntity
  8
0
  6
Continuous
 62
     7
100
AcDbLine
 10
674.7761695373894
 20
508.4104019561843
 30
0.0
 11
680.7761695373891
 21
508.4104019562244
 31
0.0
  0
LINE
  5
47D
330
1F
100
AcDbEntity
  8
0
  6
Continuous
 62
     7
100
AcDbLine
 10
680.7761695373891
 20
509.7304019562244
 30
0.0
 11
674.7761695373894
 21
509.7304019561847
 31
0.0
  0
LINE
  5
47E
330
1F
100
AcDbEntity
  8
0
  6
Continuous
 62
     7
100
AcDbLine
 10
674.7761695373894
 20
516.0304019561545
 30
0.0
 11
680.7761695373891
 21
516.0304019562145
 31
0.0
  0
LINE
  5
47F
330
1F
100
AcDbEntity
  8
0
  6
Continuous
 62
     7
100
AcDbLine
 10
674.7761695373894
 20
517.3904019562342
 30
0.0
 11
680.7761695373891
 21
517.3904019562342
 31
0.0
  0
LINE
  5
480
330
1F
100
AcDbEntity
  8
0
  6
Continuous
 62
     7
100
AcDbLine
 10
667.7761695373891
 20
519.8404019560727
 30
0.0
 11
667.7761695373891
 21
513.5404019560986
 31
0.0
  0
ARC
  5
481
330
1F
100
AcDbEntity
  8
0
  6
Continuous
 62
     7
100
AcDbCircle
 10
668.7761695373889
 20
515.6904019560504
 30
0.0
 40
1.500000000000426
100
AcDbArc
 50
270.0000000000096
 51
359.9999999999901
  0
LINE
  5
482
330
1F
100
AcDbEntity
  8
0
  6
Continuous
 62
     7
100
AcDbLine
 10
675.7761695373891
 20
516.0304019561707
 30
0.0
 11
675.7761695373891
 21
509.7304019561966
 31
0.0
  0
LINE
  5
483
330
1F
100
AcDbEntity
  8
0
  6
Continuous
 62
     7
100
AcDbLine
 10
667.7761695373891
 20
514.1904019560504
 30
0.0
 11
668.7761695373891
 21
514.1904019560504
 31
0.0
  0
LINE
  5
484
330
1F
100
AcDbEntity
  8
0
  6
Continuous
 62
     7
100
AcDbLine
 10
667.7761695373891
 20
506.5704019560524
 30
0.0
 11
668.7761695373891
 21
506.5704019560524
 31
0.0
  0
LINE
  5
485
330
1F
100
AcDbEntity
  8
0
  6
Continuous
 62
     7
100
AcDbLine
 10
667.7761695373891
 20
511.5704019560521
 30
0.0
 11
668.7761695373891
 21
511.5704019560521
 31
0.0
  0
LINE
  5
486
330
1F
100
AcDbEntity
  8
0
  6
Continuous
 62
     7
100
AcDbLine
 10
667.7761695373891
 20
503.9504019560606
 30
0.0
 11
668.7761695373891
 21
503.9504019560606
 31
0.0
  0
LINE
  5
487
330
1F
100
AcDbEntity
  8
0
  6
Continuous
 62
     7
100
AcDbLine
 10
666.7761695373894
 20
504.6004019560664
 30
0.0
 11
674.7761695373894
 21
504.6004019561108
 31
0.0
  0
LINE
  5
488
330
1F
100
AcDbEntity
  8
0
  6
Continuous
 62
     7
100
AcDbLine
 10
674.7761695373894
 20
505.9204019561146
 30
0.0
 11
666.7761695373894
 21
505.9204019560923
 31
0.0
  0
LINE
  5
489
330
1F
100
AcDbEntity
  8
0
  6
Continuous
 62
     7
100
AcDbLine
 10
666.7761695373894
 20
512.2204019560664
 30
0.0
 11
674.7761695373894
 21
512.2204019561108
 31
0.0
  0
LINE
  5
48A
330
1F
100
AcDbEntity
  8
0
  6
Continuous
 62
     7
100
AcDbLine
 10
674.7761695373894
 20
513.5404019561463
 30
0.0
 11
666.7761695373894
 21
513.5404019560905
 31
0.0
  0
LINE
  5
48B
330
1F
100
AcDbEntity
  8
0
  6
Continuous
 62
     7
100
AcDbLine
 10
667.7761695373891
 20
512.2204019560727
 30
0.0
 11
667.7761695373891
 21
505.9204019560982
 31
0.0
  0
LINE
  5
48C
330
1F
100
AcDbEntity
  8
0
  6
Continuous
 62
     7
100
AcDbLine
 10
670.2761695373894
 20
510.0704019560525
 30
0.0
 11
670.2761695373894
 21
508.0704019560524
 31
0.0
  0
ARC
  5
48D
330
1F
100
AcDbEntity
  8
0
  6
Continuous
 62
     7
100
AcDbCircle
 10
668.7761695373889
 20
508.0704019560524
 30
0.0
 40
1.500000000000369
100
AcDbArc
 50
270.0000000000096
 51
359.9999999999852
  0
ARC
  5
48E
330
1F
100
AcDbEntity
  8
0
  6
Continuous
 62
     7
100
AcDbCircle
 10
668.7761695373889
 20
510.0704019560517
 30
0.0
 40
1.500000000000454
100
AcDbArc
 50
0.000000000014656
 51
89.99999999999024
  0
LINE
  5
48F
330
1F
100
AcDbEntity
  8
0
  6
Continuous
 62
     7
100
AcDbLine
 10
667.7761695373891
 20
519.1904019560507
 30
0.0
 11
668.7761695373891
 21
519.1904019560507
 31
0.0
  0
LINE
  5
490
330
1F
100
AcDbEntity
  8
0
  6
Continuous
 62
     7
100
AcDbLine
 10
674.7761695373894
 20
519.8404019561467
 30
0.0
 11
666.7761695373894
 21
519.8404019560904
 31
0.0
  0
LINE
  5
491
330
1F
100
AcDbEntity
  8
0
  6
Continuous
 62
     7
100
AcDbLine
 10
660.5761695373892
 20
521.1904019562346
 30
0.0
 11
660.5761695373892
 21
520.1904019562345
 31
0.0
  0
LINE
  5
492
330
1F
100
AcDbEntity
  8
0
  6
Continuous
 62
     7
100
AcDbLine
 10
661.7761695373891
 20
520.1904019562345
 30
0.0
 11
660.5761695373892
 21
520.1904019562345
 31
0.0
  0
LINE
  5
493
330
1F
100
AcDbEntity
  8
0
  6
Continuous
 62
     7
100
AcDbLine
 10
670.2761695373894
 20
517.6904019560508
 30
0.0
 11
670.2761695373894
 21
515.6904019560504
 31
0.0
  0
ARC
  5
494
330
1F
100
AcDbEntity
  8
0
  6
Continuous
 62
     7
100
AcDbCircle
 10
668.7761695373889
 20
517.6904019560502
 30
0.0
 40
1.500000000000454
100
AcDbArc
 50
0.000000000014656
 51
89.99999999999024
  0
ARC
  5
495
330
1F
100
AcDbEntity
  8
0
  6
Continuous
 62
     7
100
AcDbCircle
 10
676.7761695373889
 20
513.8804019561501
 30
0.0
 40
1.500000000000454
100
AcDbArc
 50
0.000000000014656
 51
89.99999999999024
  0
LINE
  5
496
330
1F
100
AcDbEntity
  8
0
  6
Continuous
 62
     7
100
AcDbLine
 10
678.2761695373893
 20
513.8804019561503
 30
0.0
 11
678.2761695373893
 21
511.8804019561503
 31
0.0
  0
ARC
  5
497
330
1F
100
AcDbEntity
  8
0
  6
Continuous
 62
     7
100
AcDbCircle
 10
676.7761695373889
 20
511.8804019561503
 30
0.0
 40
1.500000000000369
100
AcDbArc
 50
270.0000000000096
 51
359.9999999999852
  0
LINE
  5
498
330
1F
100
AcDbEntity
  8
0
  6
Continuous
 62
     7
100
AcDbLine
 10
678.2761695373893
 20
506.2604019561586
 30
0.0
 11
678.2761695373893
 21
504.2604019561585
 31
0.0
  0
ARC
  5
499
330
1F
100
AcDbEntity
  8
0
  6
Continuous
 62
     7
100
AcDbCircle
 10
676.7761695373889
 20
506.260401956158
 30
0.0
 40
1.500000000000454
100
AcDbArc
 50
0.000000000014656
 51
89.99999999999024
  0
LINE
  5
49A
330
1F
100
AcDbEntity
  8
0
  6
Continuous
 62
     7
100
AcDbLine
 10
492.7761695373893
 20
570.8904019562344
 30
0.0
 11
493.9761695373894
 21
570.8904019562344
 31
0.0
  0
LINE
  5
49B
330
1F
100
AcDbEntity
  8
0
  6
Continuous
 62
     7
100
AcDbLine
 10
836.9613408515514
 20
376.6632699683303
 30
0.0
 11
836.9613408515514
 21
362.8904019562344
 31
0.0
  0
LINE
  5
49C
330
1F
100
AcDbEntity
  8
0
  6
Continuous
 62
     7
100
AcDbLine
 10
836.0637130236515
 20
371.1943521832727
 30
0.0
 11
836.0637130236515
 21
333.8841400625547
 31
0.0
  0
LINE
  5
49D
330
1F
100
AcDbEntity
  8
0
  6
Continuous
 62
     7
100
AcDbLine
 10
829.8316792603531
 20
371.1943521832727
 30
0.0
 11
829.8316792603531
 21
333.8841400625547
 31
0.0
  0
LINE
  5
49E
330
1F
100
AcDbEntity
  8
0
  6
Continuous
 62
     7
100
AcDbLine
 10
838.0376931805555
 20
376.6632699683303
 30
0.0
 11
838.0376931805555
 21
362.8904019562344
 31
0.0
  0
LINE
  5
49F
330
1F
100
AcDbEntity
  8
0
  6
Continuous
 62
     7
100
AcDbLine
 10
855.7384155536116
 20
369.8904019562427
 30
0.0
 11
855.7384155536116
 21
362.8904019562344
 31
0.0
  0
LINE
  5
4A0
330
1F
100
AcDbEntity
  8
0
  6
Continuous
 62
     7
100
AcDbLine
 10
816.7761695373894
 20
270.8904019562344
 30
0.0
 11
816.7761695373894
 21
540.8904019562341
 31
0.0
  0
LINE
  5
4A1
330
1F
100
AcDbEntity
  8
0
  6
Continuous
 62
     7
100
AcDbLine
 10
871.7761695373891
 20
565.8904019562347
 30
0.0
 11
871.7761695373891
 21
250.8904019562345
 31
0.0
  0
LINE
  5
4A2
330
1F
100
AcDbEntity
  8
0
  6
Continuous
 62
     7
100
AcDbLine
 10
867.7761695373892
 20
394.8904019562347
 30
0.0
 11
867.7761695373892
 21
303.8904019562344
 31
0.0
  0
LINE
  5
4A3
330
1F
100
AcDbEntity
  8
0
  6
Continuous
 62
     7
100
AcDbLine
 10
820.7761695373891
 20
394.8904019562347
 30
0.0
 11
820.7761695373891
 21
303.8904019562344
 31
0.0
  0
LINE
  5
4A4
330
1F
100
AcDbEntity
  8
0
  6
Continuous
 62
     7
100
AcDbLine
 10
876.7761695373891
 20
540.8904019562341
 30
0.0
 11
876.7761695373891
 21
270.8904019562344
 31
0.0
  0
LINE
  5
4A5
330
1F
100
AcDbEntity
  8
0
  6
Continuous
 62
     7
100
AcDbLine
 10
841.7761695373894
 20
277.8904019562346
 30
0.0
 11
839.7761695373896
 21
275.8904019562344
 31
0.0
  0
LINE
  5
4A6
330
1F
100
AcDbEntity
  8
0
  6
Continuous
 62
     7
100
AcDbLine
 10
836.9613408515514
 20
362.8904019562344
 30
0.0
 11
855.7384155536116
 21
362.8904019562344
 31
0.0
  0
LINE
  5
4A7
330
1F
100
AcDbEntity
  8
0
  6
Continuous
 62
     7
100
AcDbLine
 10
837.0258911978094
 20
327.8904019562427
 30
0.0
 11
855.7384155536116
 21
327.8904019562427
 31
0.0
  0
LINE
  5
4A8
330
1F
100
AcDbEntity
  8
0
  6
Continuous
 62
     7
100
AcDbLine
 10
837.0258911978094
 20
334.8904019562427
 30
0.0
 11
855.7384155536116
 21
334.8904019562427
 31
0.0
  0
LINE
  5
4A9
330
1F
100
AcDbEntity
  8
0
  6
Continuous
 62
     7
100
AcDbLine
 10
820.7761695373891
 20
303.8904019562344
 30
0.0
 11
867.7761695373892
 21
303.8904019562344
 31
0.0
  0
ARC
  5
4AA
330
1F
100
AcDbEntity
  8
0
  6
Continuous
 62
     7
100
AcDbCircle
 10
840.2761695373891
 20
247.8904019562349
 30
0.0
 40
2.00000000000032
100
AcDbArc
 50
270.0000000000065
 51
359.9999999999901
  0
LINE
  5
4AB
330
1F
100
AcDbEntity
  8
0
  6
Continuous
 62
     7
100
AcDbLine
 10
866.7761695373894
 20
288.8904019562346
 30
0.0
 11
821.7761695373891
 21
288.8904019562346
 31
0.0
  0
ARC
  5
4AC
330
1F
100
AcDbEntity
  8
0
  6
Continuous
 62
     7
100
AcDbCircle
 10
819.7761695373891
 20
272.8904019562349
 30
0.0
 40
2.00000000000032
100
AcDbArc
 50
270.0000000000065
 51
359.9999999999901
  0
LINE
  5
4AD
330
1F
100
AcDbEntity
  8
0
  6
Continuous
 62
     7
100
AcDbLine
 10
821.7761695373891
 20
250.8904019562345
 30
0.0
 11
821.7761695373891
 21
272.8904019562346
 31
0.0
  0
ARC
  5
4AE
330
1F
100
AcDbEntity
  8
0
  6
Continuous
 62
     7
100
AcDbCircle
 10
826.77616953739
 20
250.8904019562354
 30
0.0
 40
5.000000000000908
100
AcDbArc
 50
180.0000000000081
 51
269.9999999999902
  0
LINE
  5
4AF
330
1F
100
AcDbEntity
  8
0
  6
Continuous
 62
     7
100
AcDbLine
 10
826.7761695373891
 20
245.8904019562345
 30
0.0
 11
840.2761695373891
 21
245.8904019562345
 31
0.0
  0
LINE
  5
4B0
330
1F
100
AcDbEntity
  8
0
  6
Continuous
 62
     7
100
AcDbLine
 10
816.7761695373894
 20
270.8904019562344
 30
0.0
 11
819.7761695373891
 21
270.8904019562344
 31
0.0
  0
LINE
  5
4B1
330
1F
100
AcDbEntity
  8
0
  6
Continuous
 62
     7
100
AcDbLine
 10
824.5385338275871
 20
303.8904019562344
 30
0.0
 11
824.5385338275871
 21
320.1348727812367
 31
0.0
  0
LINE
  5
4B2
330
1F
100
AcDbEntity
  8
0
  6
Continuous
 62
     7
100
AcDbLine
 10
837.1904410380356
 20
320.1348727812367
 30
0.0
 11
837.1904410380356
 21
303.8904019562344
 31
0.0
  0
LINE
  5
4B3
330
1F
100
AcDbEntity
  8
0
  6
Continuous
 62
     7
100
AcDbLine
 10
821.7761695373891
 20
272.8904019562346
 30
0.0
 11
821.7761695373891
 21
288.8904019562346
 31
0.0
  0
CIRCLE
  5
4B4
330
1F
100
AcDbEntity
  8
0
  6
Continuous
 62
     7
370
     0
100
AcDbCircle
 10
834.776174318479
 20
282.8904010148478
 30
0.0
 40
4.125000000000682
  0
LINE
  5
4B5
330
1F
100
AcDbEntity
  8
0
  6
Continuous
 62
     7
100
AcDbLine
 10
837.7761743184834
 20
282.1404010149025
 30
0.0
 11
837.7761743184757
 21
283.6404010148845
 31
0.0
  0
LINE
  5
4B6
330
1F
100
AcDbEntity
  8
0
  6
Continuous
 62
     7
100
AcDbLine
 10
831.7761743184751
 20
283.6404010148526
 30
0.0
 11
831.7761743184831
 21
282.1404010148684
 31
0.0
  0
LINE
  5
4B7
330
1F
100
AcDbEntity
  8
0
  6
Continuous
 62
     7
100
AcDbLine
 10
827.7761695373891
 20
277.8904019562346
 30
0.0
 11
827.7761695373891
 21
288.8904019562346
 31
0.0
  0
LINE
  5
4B8
330
1F
100
AcDbEntity
  8
0
  6
Continuous
 62
     7
100
AcDbLine
 10
831.7761743184831
 20
282.1404010148684
 30
0.0
 11
834.0261743184836
 21
282.1404010148825
 31
0.0
  0
LINE
  5
4B9
330
1F
100
AcDbEntity
  8
0
  6
Continuous
 62
     7
100
AcDbLine
 10
839.7761695373896
 20
275.8904019562344
 30
0.0
 11
829.7761695373891
 21
275.8904019562344
 31
0.0
  0
LINE
  5
4BA
330
1F
100
AcDbEntity
  8
0
  6
Continuous
 62
     7
100
AcDbLine
 10
829.7761695373891
 20
275.8904019562344
 30
0.0
 11
827.7761695373891
 21
277.8904019562346
 31
0.0
  0
LINE
  5
4BB
330
1F
100
AcDbEntity
  8
0
  6
Continuous
 62
     7
100
AcDbLine
 10
835.5261743184831
 20
282.1404010148905
 30
0.0
 11
837.7761743184834
 21
282.1404010149025
 31
0.0
  0
LINE
  5
4BC
330
1F
100
AcDbEntity
  8
0
  6
Continuous
 62
     7
100
AcDbLine
 10
835.5261743184977
 20
279.8904010148905
 30
0.0
 11
835.5261743184831
 21
282.1404010148905
 31
0.0
  0
LINE
  5
4BD
330
1F
100
AcDbEntity
  8
0
  6
Continuous
 62
     7
100
AcDbLine
 10
834.0261743184978
 20
279.8904010148646
 30
0.0
 11
835.5261743184977
 21
279.8904010148905
 31
0.0
  0
LINE
  5
4BE
330
1F
100
AcDbEntity
  8
0
  6
Continuous
 62
     7
100
AcDbLine
 10
834.0261743184836
 20
282.1404010148825
 30
0.0
 11
834.0261743184978
 21
279.8904010148646
 31
0.0
  0
LINE
  5
4BF
330
1F
100
AcDbEntity
  8
0
  6
Continuous
 62
     7
100
AcDbLine
 10
834.0261743184756
 20
283.6404010148825
 30
0.0
 11
831.7761743184751
 21
283.6404010148526
 31
0.0
  0
LINE
  5
4C0
330
1F
100
AcDbEntity
  8
0
  6
Continuous
 62
     7
100
AcDbLine
 10
835.5261743184634
 20
285.8904010148906
 30
0.0
 11
835.5261743184634
 21
285.8904010148906
 31
0.0
  0
LINE
  5
4C1
330
1F
100
AcDbEntity
  8
0
  6
Continuous
 62
     7
100
AcDbLine
 10
835.5261743184756
 20
283.6404010148726
 30
0.0
 11
835.5261743184634
 21
285.8904010148906
 31
0.0
  0
LINE
  5
4C2
330
1F
100
AcDbEntity
  8
0
  6
Continuous
 62
     7
100
AcDbLine
 10
837.7761743184757
 20
283.6404010148845
 30
0.0
 11
835.5261743184756
 21
283.6404010148726
 31
0.0
  0
LINE
  5
4C3
330
1F
100
AcDbEntity
  8
0
  6
Continuous
 62
     7
100
AcDbLine
 10
834.0261743184631
 20
285.8904010148825
 30
0.0
 11
834.0261743184756
 21
283.6404010148825
 31
0.0
  0
LINE
  5
4C4
330
1F
100
AcDbEntity
  8
0
  6
Continuous
 62
     7
100
AcDbLine
 10
835.5261743184634
 20
285.8904010148906
 30
0.0
 11
834.0261743184631
 21
285.8904010148825
 31
0.0
  0
LINE
  5
4C5
330
1F
100
AcDbEntity
  8
0
  6
Continuous
 62
     7
100
AcDbLine
 10
838.9011743184795
 20
282.8904010148486
 30
0.0
 11
838.9011743184795
 21
282.8904010148486
 31
0.0
  0
LINE
  5
4C6
330
1F
100
AcDbEntity
  8
0
  6
Continuous
 62
     7
100
AcDbLine
 10
828.7634207188956
 20
328.3327927095343
 30
0.0
 11
828.7634207188956
 21
333.8841400625547
 31
0.0
  0
LINE
  5
4C7
330
1F
100
AcDbEntity
  8
0
  6
Continuous
 62
     7
100
AcDbLine
 10
837.0258911978094
 20
334.8904019562427
 30
0.0
 11
837.0258911978094
 21
327.8904019562427
 31
0.0
  0
LINE
  5
4C8
330
1F
100
AcDbEntity
  8
0
  6
Continuous
 62
     7
100
AcDbLine
 10
838.0376931805555
 20
334.8904019562427
 30
0.0
 11
838.0376931805555
 21
327.8904019562427
 31
0.0
  0
LINE
  5
4C9
330
1F
100
AcDbEntity
  8
0
  6
Continuous
 62
     7
100
AcDbLine
 10
837.0258911978094
 20
328.3327927095343
 30
0.0
 11
828.7634207188956
 21
328.3327927095343
 31
0.0
  0
LINE
  5
4CA
330
1F
100
AcDbEntity
  8
0
  6
Continuous
 62
     7
100
AcDbLine
 10
824.5385338275871
 20
320.1348727812367
 30
0.0
 11
837.1904410380356
 21
320.1348727812367
 31
0.0
  0
LINE
  5
4CB
330
1F
100
AcDbEntity
  8
0
  6
Continuous
 62
     7
100
AcDbLine
 10
829.8316792603531
 20
328.3327927095343
 30
0.0
 11
829.8316792603531
 21
320.1348727812367
 31
0.0
  0
LINE
  5
4CC
330
1F
100
AcDbEntity
  8
0
  6
Continuous
 62
     7
100
AcDbLine
 10
836.0637130236515
 20
328.3327927095343
 30
0.0
 11
836.0637130236515
 21
320.1348727812367
 31
0.0
  0
LINE
  5
4CD
330
1F
100
AcDbEntity
  8
0
  6
Continuous
 62
     7
100
AcDbLine
 10
828.7634207188956
 20
333.8841400625547
 30
0.0
 11
837.0258911978094
 21
333.8841400625547
 31
0.0
  0
ARC
  5
4CE
330
1F
100
AcDbEntity
  8
0
  6
Continuous
 62
     7
100
AcDbCircle
 10
868.7761695373891
 20
272.8904019562349
 30
0.0
 40
2.0
100
AcDbArc
 50
180.0000000000064
 51
269.9999999999934
  0
LINE
  5
4CF
330
1F
100
AcDbEntity
  8
0
  6
Continuous
 62
     7
100
AcDbLine
 10
868.7761695373891
 20
270.8904019562344
 30
0.0
 11
876.7761695373891
 21
270.8904019562344
 31
0.0
  0
ARC
  5
4D0
330
1F
100
AcDbEntity
  8
0
  6
Continuous
 62
     7
100
AcDbCircle
 10
866.7761695373878
 20
250.8904019562352
 30
0.0
 40
5.000000000000696
100
AcDbArc
 50
270.000000000013
 51
359.9999999999918
  0
LINE
  5
4D1
330
1F
100
AcDbEntity
  8
0
  6
Continuous
 62
     7
100
AcDbLine
 10
851.2761695373891
 20
258.8904019562345
 30
0.0
 11
851.2761695373891
 21
247.8904019562346
 31
0.0
  0
LINE
  5
4D2
330
1F
100
AcDbEntity
  8
0
  6
Continuous
 62
     7
100
AcDbLine
 10
842.2761695373891
 20
258.8904019562345
 30
0.0
 11
842.2761695373891
 21
247.8904019562346
 31
0.0
  0
LINE
  5
4D3
330
1F
100
AcDbEntity
  8
0
  6
Continuous
 62
     7
100
AcDbLine
 10
853.2761695373894
 20
245.8904019562345
 30
0.0
 11
866.7761695373894
 21
245.8904019562345
 31
0.0
  0
ARC
  5
4D4
330
1F
100
AcDbEntity
  8
0
  6
Continuous
 62
     7
100
AcDbCircle
 10
853.2761695373894
 20
247.8904019562351
 30
0.0
 40
2.000000000000226
100
AcDbArc
 50
180.000000000013
 51
270.0
  0
ARC
  5
4D5
330
1F
100
AcDbEntity
  8
0
  6
Continuous
 62
     7
100
AcDbCircle
 10
846.7761695373891
 20
258.8904019562345
 30
0.0
 40
4.5
100
AcDbArc
 50
0.0
 51
180.0
  0
CIRCLE
  5
4D6
330
1F
100
AcDbEntity
  8
0
  6
Continuous
 62
     7
100
AcDbCircle
 10
846.7761616310484
 20
318.3222808909397
 30
0.0
 40
6.250000000000706
  0
CIRCLE
  5
4D7
330
1F
100
AcDbEntity
  8
0
  6
Continuous
 62
     7
100
AcDbCircle
 10
846.7761616310484
 20
318.3222808909397
 30
0.0
 40
5.0047001552889
  0
LINE
  5
4D8
330
1F
100
AcDbEntity
  8
0
  6
Continuous
 62
     7
100
AcDbLine
 10
841.7761616310491
 20
321.2090322368887
 30
0.0
 11
841.7761616310491
 21
315.4355295449925
 31
0.0
  0
LINE
  5
4D9
330
1F
100
AcDbEntity
  8
0
  6
Continuous
 62
     7
100
AcDbLine
 10
851.7761616310494
 20
315.4355295449925
 30
0.0
 11
851.7761616310494
 21
321.2090322368887
 31
0.0
  0
LINE
  5
4DA
330
1F
100
AcDbEntity
  8
0
  6
Continuous
 62
     7
100
AcDbLine
 10
857.7761695373991
 20
277.8904019562365
 30
0.0
 11
855.7761695373994
 21
275.8904019562365
 31
0.0
  0
CIRCLE
  5
4DB
330
1F
100
AcDbEntity
  8
0
  6
Continuous
 62
     7
370
     0
100
AcDbCircle
 10
850.776174318479
 20
282.8904010148497
 30
0.0
 40
4.125000000000682
  0
LINE
  5
4DC
330
1F
100
AcDbEntity
  8
0
  6
Continuous
 62
     7
100
AcDbLine
 10
853.7761743184834
 20
282.1404010149046
 30
0.0
 11
853.7761743184754
 21
283.6404010148867
 31
0.0
  0
LINE
  5
4DD
330
1F
100
AcDbEntity
  8
0
  6
Continuous
 62
     7
100
AcDbLine
 10
847.7761743184752
 20
283.6404010148526
 30
0.0
 11
847.7761743184831
 21
282.1404010148707
 31
0.0
  0
LINE
  5
4DE
330
1F
100
AcDbEntity
  8
0
  6
Continuous
 62
     7
100
AcDbLine
 10
843.7761695373991
 20
277.8904019562365
 30
0.0
 11
843.7761695373991
 21
288.8904019562346
 31
0.0
  0
LINE
  5
4DF
330
1F
100
AcDbEntity
  8
0
  6
Continuous
 62
     7
100
AcDbLine
 10
841.7761695373894
 20
288.8904019562346
 30
0.0
 11
841.7761695373894
 21
277.8904019562346
 31
0.0
  0
LINE
  5
4E0
330
1F
100
AcDbEntity
  8
0
  6
Continuous
 62
     7
100
AcDbLine
 10
847.7761743184831
 20
282.1404010148707
 30
0.0
 11
850.0261743184836
 21
282.1404010148845
 31
0.0
  0
LINE
  5
4E1
330
1F
100
AcDbEntity
  8
0
  6
Continuous
 62
     7
100
AcDbLine
 10
855.7761695373994
 20
275.8904019562365
 30
0.0
 11
845.7761695373996
 21
275.8904019562365
 31
0.0
  0
LINE
  5
4E2
330
1F
100
AcDbEntity
  8
0
  6
Continuous
 62
     7
100
AcDbLine
 10
843.7761695373991
 20
277.8904019562365
 30
0.0
 11
845.7761695373996
 21
275.8904019562365
 31
0.0
  0
LINE
  5
4E3
330
1F
100
AcDbEntity
  8
0
  6
Continuous
 62
     7
100
AcDbLine
 10
851.5261743184831
 20
282.1404010148924
 30
0.0
 11
853.7761743184834
 21
282.1404010149046
 31
0.0
  0
LINE
  5
4E4
330
1F
100
AcDbEntity
  8
0
  6
Continuous
 62
     7
100
AcDbLine
 10
851.5261743184957
 20
279.8904010148925
 30
0.0
 11
851.5261743184831
 21
282.1404010148924
 31
0.0
  0
LINE
  5
4E5
330
1F
100
AcDbEntity
  8
0
  6
Continuous
 62
     7
100
AcDbLine
 10
850.0261743184957
 20
279.8904010148666
 30
0.0
 11
851.5261743184957
 21
279.8904010148925
 31
0.0
  0
LINE
  5
4E6
330
1F
100
AcDbEntity
  8
0
  6
Continuous
 62
     7
100
AcDbLine
 10
850.0261743184836
 20
282.1404010148845
 30
0.0
 11
850.0261743184957
 21
279.8904010148666
 31
0.0
  0
LINE
  5
4E7
330
1F
100
AcDbEntity
  8
0
  6
Continuous
 62
     7
100
AcDbLine
 10
850.0261743184756
 20
283.6404010148845
 30
0.0
 11
847.7761743184752
 21
283.6404010148526
 31
0.0
  0
LINE
  5
4E8
330
1F
100
AcDbEntity
  8
0
  6
Continuous
 62
     7
100
AcDbLine
 10
851.5261743184636
 20
285.8904010148925
 30
0.0
 11
851.5261743184636
 21
285.8904010148925
 31
0.0
  0
LINE
  5
4E9
330
1F
100
AcDbEntity
  8
0
  6
Continuous
 62
     7
100
AcDbLine
 10
851.5261743184757
 20
283.6404010148746
 30
0.0
 11
851.5261743184636
 21
285.8904010148925
 31
0.0
  0
LINE
  5
4EA
330
1F
100
AcDbEntity
  8
0
  6
Continuous
 62
     7
100
AcDbLine
 10
853.7761743184754
 20
283.6404010148867
 30
0.0
 11
851.5261743184757
 21
283.6404010148746
 31
0.0
  0
LINE
  5
4EB
330
1F
100
AcDbEntity
  8
0
  6
Continuous
 62
     7
100
AcDbLine
 10
850.0261743184632
 20
285.8904010148825
 30
0.0
 11
850.0261743184756
 21
283.6404010148845
 31
0.0
  0
LINE
  5
4EC
330
1F
100
AcDbEntity
  8
0
  6
Continuous
 62
     7
100
AcDbLine
 10
851.5261743184636
 20
285.8904010148925
 30
0.0
 11
850.0261743184632
 21
285.8904010148825
 31
0.0
  0
LINE
  5
4ED
330
1F
100
AcDbEntity
  8
0
  6
Continuous
 62
     7
100
AcDbLine
 10
854.9011743184795
 20
282.8904010148507
 30
0.0
 11
854.9011743184795
 21
282.8904010148507
 31
0.0
  0
CIRCLE
  5
4EE
330
1F
100
AcDbEntity
  8
0
  6
Continuous
 62
     7
370
     0
100
AcDbCircle
 10
864.776170310661
 20
282.890398151204
 30
0.0
 40
3.300000000000408
  0
LINE
  5
4EF
330
1F
100
AcDbEntity
  8
0
  6
Continuous
 62
     7
100
AcDbLine
 10
867.1761703106655
 20
282.2903981512465
 30
0.0
 11
867.17617031066
 21
283.4903981512326
 31
0.0
  0
LINE
  5
4F0
330
1F
100
AcDbEntity
  8
0
  6
Continuous
 62
     7
100
AcDbLine
 10
862.3761703106591
 20
283.4903981512066
 30
0.0
 11
862.3761703106655
 21
282.2903981512204
 31
0.0
  0
LINE
  5
4F1
330
1F
100
AcDbEntity
  8
0
  6
Continuous
 62
     7
100
AcDbLine
 10
859.7761695375176
 20
278.8904019561026
 30
0.0
 11
859.7761695375176
 21
288.8904019562346
 31
0.0
  0
LINE
  5
4F2
330
1F
100
AcDbEntity
  8
0
  6
Continuous
 62
     7
100
AcDbLine
 10
857.7761695373991
 20
288.8904019562346
 30
0.0
 11
857.7761695373991
 21
277.8904019562365
 31
0.0
  0
ARC
  5
4F3
330
1F
100
AcDbEntity
  8
0
  6
Continuous
 62
     7
100
AcDbCircle
 10
864.776169537389
 20
282.8904019562356
 30
0.0
 40
4.499999999999856
100
AcDbArc
 50
296.3877999612476
 51
63.61220003875222
  0
LINE
  5
4F4
330
1F
100
AcDbEntity
  8
0
  6
Continuous
 62
     7
100
AcDbLine
 10
864.1761703106752
 20
280.4903981512166
 30
0.0
 11
865.3761703106757
 21
280.4903981512365
 31
0.0
  0
LINE
  5
4F5
330
1F
100
AcDbEntity
  8
0
  6
Continuous
 62
     7
100
AcDbLine
 10
866.7761695373894
 20
276.8904019561026
 30
0.0
 11
861.7761695375174
 21
276.8904019561026
 31
0.0
  0
LINE
  5
4F6
330
1F
100
AcDbEntity
  8
0
  6
Continuous
 62
     7
100
AcDbLine
 10
864.1761703106654
 20
282.2903981512306
 30
0.0
 11
864.1761703106752
 21
280.4903981512166
 31
0.0
  0
LINE
  5
4F7
330
1F
100
AcDbEntity
  8
0
  6
Continuous
 62
     7
100
AcDbLine
 10
862.3761703106655
 20
282.2903981512204
 30
0.0
 11
864.1761703106654
 21
282.2903981512306
 31
0.0
  0
LINE
  5
4F8
330
1F
100
AcDbEntity
  8
0
  6
Continuous
 62
     7
100
AcDbLine
 10
859.7761695375176
 20
278.8904019561026
 30
0.0
 11
861.7761695375174
 21
276.8904019561026
 31
0.0
  0
LINE
  5
4F9
330
1F
100
AcDbEntity
  8
0
  6
Continuous
 62
     7
100
AcDbLine
 10
865.376170310666
 20
282.2903981512387
 30
0.0
 11
867.1761703106655
 21
282.2903981512465
 31
0.0
  0
LINE
  5
4FA
330
1F
100
AcDbEntity
  8
0
  6
Continuous
 62
     7
100
AcDbLine
 10
865.3761703106757
 20
280.4903981512365
 30
0.0
 11
865.376170310666
 21
282.2903981512387
 31
0.0
  0
LINE
  5
4FB
330
1F
100
AcDbEntity
  8
0
  6
Continuous
 62
     7
100
AcDbLine
 10
866.7761695373894
 20
278.8592730820866
 30
0.0
 11
866.7761695373894
 21
272.8904019562346
 31
0.0
  0
LINE
  5
4FC
330
1F
100
AcDbEntity
  8
0
  6
Continuous
 62
     7
100
AcDbLine
 10
865.3761703106491
 20
285.2903981512364
 30
0.0
 11
864.1761703106491
 21
285.2903981512304
 31
0.0
  0
LINE
  5
4FD
330
1F
100
AcDbEntity
  8
0
  6
Continuous
 62
     7
100
AcDbLine
 10
864.1761703106595
 20
283.4903981512307
 30
0.0
 11
862.3761703106591
 21
283.4903981512066
 31
0.0
  0
LINE
  5
4FE
330
1F
100
AcDbEntity
  8
0
  6
Continuous
 62
     7
100
AcDbLine
 10
864.1761703106491
 20
285.2903981512304
 30
0.0
 11
864.1761703106595
 21
283.4903981512307
 31
0.0
  0
LINE
  5
4FF
330
1F
100
AcDbEntity
  8
0
  6
Continuous
 62
     7
100
AcDbLine
 10
865.3761703106491
 20
285.2903981512364
 30
0.0
 11
865.3761703106491
 21
285.2903981512364
 31
0.0
  0
LINE
  5
500
330
1F
100
AcDbEntity
  8
0
  6
Continuous
 62
     7
100
AcDbLine
 10
865.3761703106596
 20
283.4903981512224
 30
0.0
 11
865.3761703106491
 21
285.2903981512364
 31
0.0
  0
LINE
  5
501
330
1F
100
AcDbEntity
  8
0
  6
Continuous
 62
     7
100
AcDbLine
 10
867.17617031066
 20
283.4903981512326
 30
0.0
 11
865.3761703106596
 21
283.4903981512224
 31
0.0
  0
LINE
  5
502
330
1F
100
AcDbEntity
  8
0
  6
Continuous
 62
     7
100
AcDbLine
 10
868.0761703106616
 20
282.8903981512046
 30
0.0
 11
868.0761703106616
 21
282.8903981512046
 31
0.0
  0
LINE
  5
503
330
1F
100
AcDbEntity
  8
0
  6
Continuous
 62
     7
100
AcDbLine
 10
866.7761695373894
 20
288.8904019562346
 30
0.0
 11
866.7761695373894
 21
286.9215308303846
 31
0.0
  0
CIRCLE
  5
504
330
1F
100
AcDbEntity
  8
0
  6
Continuous
 62
     7
370
     0
100
AcDbCircle
 10
844.276169537389
 20
300.3904019562348
 30
0.0
 40
1.600000000000363
  0
CIRCLE
  5
505
330
1F
100
AcDbEntity
  8
0
  6
Continuous
 62
     7
370
     0
100
AcDbCircle
 10
844.276169537389
 20
300.3904019562348
 30
0.0
 40
1.100000000000136
  0
LINE
  5
506
330
1F
100
AcDbEntity
  8
0
  6
Continuous
 62
     7
100
AcDbLine
 10
846.7761616310491
 20
312.5487781990445
 30
0.0
 11
851.7761616310494
 21
315.4355295449925
 31
0.0
  0
LINE
  5
507
330
1F
100
AcDbEntity
  8
0
  6
Continuous
 62
     7
100
AcDbLine
 10
842.7761695373909
 20
310.8904019562365
 30
0.0
 11
850.7761695373892
 21
310.8904019562365
 31
0.0
  0
LINE
  5
508
330
1F
100
AcDbEntity
  8
0
  6
Continuous
 62
     7
100
AcDbLine
 10
840.776169537391
 20
316.5722537837146
 30
0.0
 11
840.776169537391
 21
312.8904019562365
 31
0.0
  0
LINE
  5
509
330
1F
100
AcDbEntity
  8
0
  6
Continuous
 62
     7
100
AcDbLine
 10
841.7761616310491
 20
315.4355295449925
 30
0.0
 11
846.7761616310491
 21
312.5487781990445
 31
0.0
  0
ARC
  5
50A
330
1F
100
AcDbEntity
  8
0
  6
Continuous
 62
     7
100
AcDbCircle
 10
842.7761695373909
 20
312.8904019562368
 30
0.0
 40
2.000000000000226
100
AcDbArc
 50
180.0000000000097
 51
269.9999999999934
  0
LINE
  5
50B
330
1F
100
AcDbEntity
  8
0
  6
Continuous
 62
     7
100
AcDbLine
 10
852.7761695373891
 20
316.5723079986164
 30
0.0
 11
852.7761695373891
 21
312.8904019562365
 31
0.0
  0
ARC
  5
50C
330
1F
100
AcDbEntity
  8
0
  6
Continuous
 62
     7
100
AcDbCircle
 10
850.7761695373892
 20
312.8904019562368
 30
0.0
 40
2.00000000000032
100
AcDbArc
 50
270.0000000000065
 51
359.9999999999901
  0
LINE
  5
50D
330
1F
100
AcDbEntity
  8
0
  6
Continuous
 62
     7
100
AcDbLine
 10
840.776169537391
 20
362.8904019562344
 30
0.0
 11
840.776169537391
 21
334.8904019562427
 31
0.0
  0
LINE
  5
50E
330
1F
100
AcDbEntity
  8
0
  6
Continuous
 62
     7
100
AcDbLine
 10
852.7761695373891
 20
362.8904019562344
 30
0.0
 11
852.7761695373891
 21
334.8904019562427
 31
0.0
  0
LINE
  5
50F
330
1F
100
AcDbEntity
  8
0
  6
Continuous
 62
     7
100
AcDbLine
 10
855.7384155536116
 20
334.8904019562427
 30
0.0
 11
855.7384155536116
 21
327.8904019562427
 31
0.0
  0
LINE
  5
510
330
1F
100
AcDbEntity
  8
0
  6
Continuous
 62
     7
100
AcDbLine
 10
851.7761616310494
 20
321.2090322368887
 30
0.0
 11
846.7761616310491
 21
324.0957835828367
 31
0.0
  0
LINE
  5
511
330
1F
100
AcDbEntity
  8
0
  6
Continuous
 62
     7
100
AcDbLine
 10
840.776169537391
 20
327.8904019562427
 30
0.0
 11
840.776169537391
 21
320.0723079981647
 31
0.0
  0
LINE
  5
512
330
1F
100
AcDbEntity
  8
0
  6
Continuous
 62
     7
100
AcDbLine
 10
846.7761616310491
 20
324.0957835828367
 30
0.0
 11
841.7761616310491
 21
321.2090322368887
 31
0.0
  0
LINE
  5
513
330
1F
100
AcDbEntity
  8
0
  6
Continuous
 62
     7
100
AcDbLine
 10
852.7761695373891
 20
327.8904019562427
 30
0.0
 11
852.7761695373891
 21
320.0722537832647
 31
0.0
  0
LINE
  5
514
330
1F
100
AcDbEntity
  8
0
  6
Continuous
 62
     7
100
AcDbLine
 10
851.7808617863371
 20
318.3222808909406
 30
0.0
 11
851.7808617863371
 21
318.3222808909406
 31
0.0
  0
LINE
  5
515
330
1F
100
AcDbEntity
  8
0
  6
Continuous
 62
     7
100
AcDbLine
 10
853.0261616310491
 20
318.3222808909406
 30
0.0
 11
853.0261616310491
 21
318.3222808909406
 31
0.0
  0
ARC
  5
516
330
1F
100
AcDbEntity
  8
0
  6
Continuous
 62
     7
100
AcDbCircle
 10
846.7761695373891
 20
549.8904019562339
 30
0.0
 40
9.000000000000245
100
AcDbArc
 50
119.9999999999997
 51
60.00000000000028
  0
LINE
  5
517
330
1F
100
AcDbEntity
  8
0
  6
Continuous
 62
     7
100
AcDbLine
 10
821.7761695373891
 20
540.8904019562341
 30
0.0
 11
821.7761695373891
 21
565.8904019562347
 31
0.0
  0
LINE
  5
518
330
1F
100
AcDbEntity
  8
0
  6
Continuous
 62
     7
100
AcDbLine
 10
838.0376931805555
 20
369.8904019562427
 30
0.0
 11
855.7384155536116
 21
369.8904019562427
 31
0.0
  0
LINE
  5
519
330
1F
100
AcDbEntity
  8
0
  6
Continuous
 62
     7
100
AcDbLine
 10
848.8961695136428
 20
517.3504019562525
 30
0.0
 11
840.2161695136436
 21
517.3504019561922
 31
0.0
  0
LINE
  5
51A
330
1F
100
AcDbEntity
  8
0
  6
Continuous
 62
     7
100
AcDbLine
 10
840.2161695136511
 20
516.0304019561664
 30
0.0
 11
850.2161695135477
 21
516.0304019562643
 31
0.0
  0
LINE
  5
51B
330
1F
100
AcDbEntity
  8
0
  6
Continuous
 62
     7
100
AcDbLine
 10
850.2161695141072
 20
509.7304019562604
 30
0.0
 11
840.2161695136857
 21
509.7304019561922
 31
0.0
  0
LINE
  5
51C
330
1F
100
AcDbEntity
  8
0
  6
Continuous
 62
     7
100
AcDbLine
 10
840.2161695136916
 20
508.4104019561926
 30
0.0
 11
850.2161695141072
 21
508.4104019562608
 31
0.0
  0
LINE
  5
51D
330
1F
100
AcDbEntity
  8
0
  6
Continuous
 62
     7
100
AcDbLine
 10
850.2161695141072
 20
502.1104019562227
 30
0.0
 11
840.2161695137271
 21
502.1104019561664
 31
0.0
  0
LINE
  5
51E
330
1F
100
AcDbEntity
  8
0
  6
Continuous
 62
     7
100
AcDbLine
 10
840.216169513733
 20
500.7904019561664
 30
0.0
 11
850.2161695135477
 21
500.7904019562643
 31
0.0
  0
LINE
  5
51F
330
1F
100
AcDbEntity
  8
0
  6
Continuous
 62
     7
100
AcDbLine
 10
850.2161695135477
 20
494.4904019562646
 30
0.0
 11
840.2161695137696
 21
494.4904019561667
 31
0.0
  0
LINE
  5
520
330
1F
100
AcDbEntity
  8
0
  6
Continuous
 62
     7
100
AcDbLine
 10
840.216169513776
 20
493.1704019561664
 30
0.0
 11
850.2161695135477
 21
493.1704019562643
 31
0.0
  0
LINE
  5
521
330
1F
100
AcDbEntity
  8
0
  6
Continuous
 62
     7
100
AcDbLine
 10
850.2161695141072
 20
486.8704019562606
 30
0.0
 11
840.2161695138111
 21
486.8704019561927
 31
0.0
  0
LINE
  5
522
330
1F
100
AcDbEntity
  8
0
  6
Continuous
 62
     7
100
AcDbLine
 10
840.2161695138174
 20
485.5504019561664
 30
0.0
 11
850.2161695135477
 21
485.5504019562227
 31
0.0
  0
LINE
  5
523
330
1F
100
AcDbEntity
  8
0
  6
Continuous
 62
     7
100
AcDbLine
 10
850.2161695135477
 20
479.2504019562227
 30
0.0
 11
840.2161695138516
 21
479.2504019561667
 31
0.0
  0
LINE
  5
524
330
1F
100
AcDbEntity
  8
0
  6
Continuous
 62
     7
100
AcDbLine
 10
840.2161695138596
 20
477.9304019561667
 30
0.0
 11
850.2161695135477
 21
477.9304019562227
 31
0.0
  0
LINE
  5
525
330
1F
100
AcDbEntity
  8
0
  6
Continuous
 62
     7
100
AcDbLine
 10
850.2161695135477
 20
471.6304019562183
 30
0.0
 11
840.2161695138939
 21
471.6304019561927
 31
0.0
  0
LINE
  5
526
330
1F
100
AcDbEntity
  8
0
  6
Continuous
 62
     7
100
AcDbLine
 10
840.2161695139017
 20
470.3104019561664
 30
0.0
 11
850.2161695135477
 21
470.3104019562228
 31
0.0
  0
LINE
  5
527
330
1F
100
AcDbEntity
  8
0
  6
Continuous
 62
     7
100
AcDbLine
 10
840.2161695139351
 20
464.0104019561667
 30
0.0
 11
850.2161695135477
 21
464.0104019562223
 31
0.0
  0
LINE
  5
528
330
1F
100
AcDbEntity
  8
0
  6
Continuous
 62
     7
100
AcDbLine
 10
840.2161695139435
 20
462.6904019561925
 30
0.0
 11
850.2161695141072
 21
462.6904019562608
 31
0.0
  0
LINE
  5
529
330
1F
100
AcDbEntity
  8
0
  6
Continuous
 62
     7
100
AcDbLine
 10
840.2161695139776
 20
456.3904019561927
 30
0.0
 11
850.2161695135477
 21
456.3904019562185
 31
0.0
  0
LINE
  5
52A
330
1F
100
AcDbEntity
  8
0
  6
Continuous
 62
     7
100
AcDbLine
 10
840.2161695139856
 20
455.0704019562024
 30
0.0
 11
850.2161695135477
 21
455.0704019562165
 31
0.0
  0
LINE
  5
52B
330
1F
100
AcDbEntity
  8
0
  6
Continuous
 62
     7
100
AcDbLine
 10
840.2161695140197
 20
448.7704019561927
 30
0.0
 11
850.2161695135477
 21
448.7704019562606
 31
0.0
  0
LINE
  5
52C
330
1F
100
AcDbEntity
  8
0
  6
Continuous
 62
     7
100
AcDbLine
 10
840.216169514027
 20
447.4504019561925
 30
0.0
 11
850.2161695141072
 21
447.4504019562608
 31
0.0
  0
LINE
  5
52D
330
1F
100
AcDbEntity
  8
0
  6
Continuous
 62
     7
100
AcDbLine
 10
840.2161695140611
 20
441.1504019561927
 30
0.0
 11
850.2161695135477
 21
441.1504019562185
 31
0.0
  0
LINE
  5
52E
330
1F
100
AcDbEntity
  8
0
  6
Continuous
 62
     7
100
AcDbLine
 10
840.2161695140677
 20
439.8304019561924
 30
0.0
 11
850.2161695141072
 21
439.8304019562186
 31
0.0
  0
LINE
  5
52F
330
1F
100
AcDbEntity
  8
0
  6
Continuous
 62
     7
100
AcDbLine
 10
831.2161695136236
 20
521.1604019560923
 30
0.0
 11
850.2161695141072
 21
521.1604019560923
 31
0.0
  0
LINE
  5
530
330
1F
100
AcDbEntity
  8
0
  6
Continuous
 62
     7
100
AcDbLine
 10
850.2161695141072
 20
432.8704019562807
 30
0.0
 11
831.2161695136236
 21
432.8704019562807
 31
0.0
  0
LINE
  5
531
330
1F
100
AcDbEntity
  8
0
  6
Continuous
 62
     7
100
AcDbLine
 10
831.2161695141073
 20
432.8704019560446
 30
0.0
 11
850.2161695136216
 21
432.8704019560446
 31
0.0
  0
LINE
  5
532
330
1F
100
AcDbEntity
  8
0
  6
Continuous
 62
     7
100
AcDbLine
 10
850.2161695136216
 20
521.1604019562583
 30
0.0
 11
831.2161695141073
 21
521.1604019562583
 31
0.0
  0
LINE
  5
533
330
1F
100
AcDbEntity
  8
0
  6
Continuous
 62
     7
100
AcDbLine
 10
820.7761695373891
 20
394.8904019562347
 30
0.0
 11
867.7761695373892
 21
394.8904019562347
 31
0.0
  0
LINE
  5
534
330
1F
100
AcDbEntity
  8
0
  6
Continuous
 62
     7
100
AcDbLine
 10
816.7761695373894
 20
540.8904019562341
 30
0.0
 11
876.7761695373891
 21
540.8904019562341
 31
0.0
  0
LINE
  5
535
330
1F
100
AcDbEntity
  8
0
  6
Continuous
 62
     7
100
AcDbLine
 10
816.7761695373894
 20
521.1904019562346
 30
0.0
 11
850.5161695373891
 21
521.1904019562346
 31
0.0
  0
LINE
  5
536
330
1F
100
AcDbEntity
  8
0
  6
Continuous
 62
     7
100
AcDbLine
 10
816.7761695373894
 20
432.1904019562347
 30
0.0
 11
850.5161695373891
 21
432.1904019562347
 31
0.0
  0
CIRCLE
  5
537
330
1F
100
AcDbEntity
  8
0
  6
Continuous
 62
     7
100
AcDbCircle
 10
836.2161695139811
 20
455.7304019560943
 30
0.0
 40
2.750000000000454
  0
LINE
  5
538
330
1F
100
AcDbEntity
  8
0
  6
Continuous
 62
     7
100
AcDbLine
 10
831.2161695136236
 20
432.8704019562807
 30
0.0
 11
831.2161695136236
 21
521.1604019560923
 31
0.0
  0
LINE
  5
539
330
1F
100
AcDbEntity
  8
0
  6
Continuous
 62
     7
100
AcDbLine
 10
836.7161695139792
 20
456.2304019561103
 30
0.0
 11
836.7161695139694
 21
457.7304019561226
 31
0.0
  0
LINE
  5
53A
330
1F
100
AcDbEntity
  8
0
  6
Continuous
 62
     7
100
AcDbLine
 10
835.7161695139694
 20
457.7304019561166
 30
0.0
 11
835.7161695139792
 21
456.2304019561167
 31
0.0
  0
LINE
  5
53B
330
1F
100
AcDbEntity
  8
0
  6
Continuous
 62
     7
100
AcDbLine
 10
840.2161695141073
 20
432.8704019561383
 30
0.0
 11
840.2161695136234
 21
521.1604019561547
 31
0.0
  0
LINE
  5
53C
330
1F
100
AcDbEntity
  8
0
  6
Continuous
 62
     7
100
AcDbLine
 10
831.2161695141073
 20
521.1604019562583
 30
0.0
 11
831.2161695141073
 21
432.8704019560446
 31
0.0
  0
LINE
  5
53D
330
1F
100
AcDbEntity
  8
0
  6
Continuous
 62
     7
100
AcDbLine
 10
829.7761695373891
 20
433.1904019562347
 30
0.0
 11
829.7761695373891
 21
520.1904019562345
 31
0.0
  0
LINE
  5
53E
330
1F
100
AcDbEntity
  8
0
  6
Continuous
 62
     7
100
AcDbLine
 10
829.039272963697
 20
371.1943521832727
 30
0.0
 11
829.039272963697
 21
376.6632699683303
 31
0.0
  0
LINE
  5
53F
330
1F
100
AcDbEntity
  8
0
  6
Continuous
 62
     7
100
AcDbLine
 10
836.9613408515514
 20
371.1943521832727
 30
0.0
 11
829.039272963697
 21
371.1943521832727
 31
0.0
  0
LINE
  5
540
330
1F
100
AcDbEntity
  8
0
  6
Continuous
 62
     7
100
AcDbLine
 10
829.039272963697
 20
376.6632699683303
 30
0.0
 11
838.0376931805555
 21
376.6632699683303
 31
0.0
  0
LINE
  5
541
330
1F
100
AcDbEntity
  8
0
  6
Continuous
 62
     7
100
AcDbLine
 10
829.8316792603531
 20
378.6632699683303
 30
0.0
 11
836.0637130236515
 21
378.6632699683303
 31
0.0
  0
LINE
  5
542
330
1F
100
AcDbEntity
  8
0
  6
Continuous
 62
     7
100
AcDbLine
 10
829.8316792603531
 20
378.6632699683303
 30
0.0
 11
829.8316792603531
 21
376.6632699683303
 31
0.0
  0
LINE
  5
543
330
1F
100
AcDbEntity
  8
0
  6
Continuous
 62
     7
100
AcDbLine
 10
836.0637130236515
 20
378.6632699683303
 30
0.0
 11
836.0637130236515
 21
376.6632699683303
 31
0.0
  0
LINE
  5
544
330
1F
100
AcDbEntity
  8
0
  6
Continuous
 62
     7
100
AcDbLine
 10
839.2292768165534
 20
434.9221974746144
 30
0.0
 11
839.2292768165658
 21
432.8704019561326
 31
0.0
  0
LINE
  5
545
330
1F
100
AcDbEntity
  8
0
  6
Continuous
 62
     7
100
AcDbLine
 10
832.2129197368711
 20
432.8704019560947
 30
0.0
 11
832.2129197368591
 21
434.9221974745766
 31
0.0
  0
LINE
  5
546
330
1F
100
AcDbEntity
  8
0
  6
Continuous
 62
     7
100
AcDbLine
 10
816.7761695373894
 20
433.1904019562347
 30
0.0
 11
829.7761695373891
 21
433.1904019562347
 31
0.0
  0
LINE
  5
547
330
1F
100
AcDbEntity
  8
0
  6
DASHED
 62
     7
 48
5.0
100
AcDbLine
 10
817.9761695373896
 20
432.1904019562347
 30
0.0
 11
817.9761695373896
 21
433.1904019562347
 31
0.0
  0
LINE
  5
548
330
1F
100
AcDbEntity
  8
0
  6
Continuous
 62
     7
100
AcDbLine
 10
831.2161695140893
 20
436.0204019560923
 30
0.0
 11
840.2161695140893
 21
436.0204019561544
 31
0.0
  0
LINE
  5
549
330
1F
100
AcDbEntity
  8
0
  6
Continuous
 62
     7
100
AcDbLine
 10
840.2161695140812
 20
437.3404019561544
 30
0.0
 11
831.2161695140812
 21
437.3404019560926
 31
0.0
  0
LINE
  5
54A
330
1F
100
AcDbEntity
  8
0
  6
Continuous
 62
     7
100
AcDbLine
 10
831.2161695140476
 20
443.6404019560666
 30
0.0
 11
840.2161695140476
 21
443.6404019561166
 31
0.0
  0
LINE
  5
54B
330
1F
100
AcDbEntity
  8
0
  6
Continuous
 62
     7
100
AcDbLine
 10
840.2161695140398
 20
444.9604019561546
 30
0.0
 11
831.21616951404
 21
444.9604019560926
 31
0.0
  0
CIRCLE
  5
54C
330
1F
100
AcDbEntity
  8
0
  6
Continuous
 62
     7
100
AcDbCircle
 10
836.2161695140652
 20
440.4904019560502
 30
0.0
 40
2.750000000000454
  0
LINE
  5
54D
330
1F
100
AcDbEntity
  8
0
  6
Continuous
 62
     7
100
AcDbLine
 10
832.2129197368591
 20
434.9221974745766
 30
0.0
 11
839.2292768165534
 21
434.9221974746526
 31
0.0
  0
LINE
  5
54E
330
1F
100
AcDbEntity
  8
0
  6
Continuous
 62
     7
100
AcDbLine
 10
836.7161695140531
 20
442.4904019560787
 30
0.0
 11
836.7161695140531
 21
442.4904019560787
 31
0.0
  0
LINE
  5
54F
330
1F
100
AcDbEntity
  8
0
  6
Continuous
 62
     7
100
AcDbLine
 10
836.7161695140611
 20
440.9904019560665
 30
0.0
 11
836.7161695140531
 21
442.4904019560787
 31
0.0
  0
LINE
  5
550
330
1F
100
AcDbEntity
  8
0
  6
Continuous
 62
     7
100
AcDbLine
 10
838.2161695140611
 20
440.9904019560745
 30
0.0
 11
836.7161695140611
 21
440.9904019560665
 31
0.0
  0
LINE
  5
551
330
1F
100
AcDbEntity
  8
0
  6
Continuous
 62
     7
100
AcDbLine
 10
838.2161695140675
 20
439.9904019560866
 30
0.0
 11
838.2161695140611
 21
440.9904019560745
 31
0.0
  0
LINE
  5
552
330
1F
100
AcDbEntity
  8
0
  6
Continuous
 62
     7
100
AcDbLine
 10
836.7161695140676
 20
439.9904019560787
 30
0.0
 11
838.2161695140675
 21
439.9904019560866
 31
0.0
  0
LINE
  5
553
330
1F
100
AcDbEntity
  8
0
  6
Continuous
 62
     7
100
AcDbLine
 10
836.7161695140756
 20
438.4904019560787
 30
0.0
 11
836.7161695140676
 21
439.9904019560787
 31
0.0
  0
LINE
  5
554
330
1F
100
AcDbEntity
  8
0
  6
Continuous
 62
     7
100
AcDbLine
 10
835.7161695140751
 20
438.4904019560607
 30
0.0
 11
836.7161695140756
 21
438.4904019560787
 31
0.0
  0
LINE
  5
555
330
1F
100
AcDbEntity
  8
0
  6
Continuous
 62
     7
100
AcDbLine
 10
835.7161695140677
 20
439.9904019560728
 30
0.0
 11
835.7161695140751
 21
438.4904019560607
 31
0.0
  0
LINE
  5
556
330
1F
100
AcDbEntity
  8
0
  6
Continuous
 62
     7
100
AcDbLine
 10
834.2161695140676
 20
439.9904019560647
 30
0.0
 11
835.7161695140677
 21
439.9904019560728
 31
0.0
  0
LINE
  5
557
330
1F
100
AcDbEntity
  8
0
  6
Continuous
 62
     7
100
AcDbLine
 10
834.216169514061
 20
440.9904019560526
 30
0.0
 11
834.2161695140676
 21
439.9904019560647
 31
0.0
  0
LINE
  5
558
330
1F
100
AcDbEntity
  8
0
  6
Continuous
 62
     7
100
AcDbLine
 10
835.7161695140611
 20
440.9904019560728
 30
0.0
 11
834.216169514061
 21
440.9904019560526
 31
0.0
  0
LINE
  5
559
330
1F
100
AcDbEntity
  8
0
  6
Continuous
 62
     7
100
AcDbLine
 10
835.7161695140531
 20
442.4904019560727
 30
0.0
 11
835.7161695140611
 21
440.9904019560728
 31
0.0
  0
LINE
  5
55A
330
1F
100
AcDbEntity
  8
0
  6
Continuous
 62
     7
100
AcDbLine
 10
836.7161695140531
 20
442.4904019560787
 30
0.0
 11
835.7161695140531
 21
442.4904019560727
 31
0.0
  0
LINE
  5
55B
330
1F
100
AcDbEntity
  8
0
  6
Continuous
 62
     7
100
AcDbLine
 10
838.9661695140658
 20
440.4904019560507
 30
0.0
 11
838.9661695140658
 21
440.4904019560507
 31
0.0
  0
LINE
  5
55C
330
1F
100
AcDbEntity
  8
0
  6
Continuous
 62
     7
100
AcDbLine
 10
831.2161695140051
 20
451.2604019560665
 30
0.0
 11
840.2161695140051
 21
451.2604019561166
 31
0.0
  0
LINE
  5
55D
330
1F
100
AcDbEntity
  8
0
  6
Continuous
 62
     7
100
AcDbLine
 10
840.2161695139996
 20
452.5804019561546
 30
0.0
 11
831.2161695139996
 21
452.5804019560927
 31
0.0
  0
CIRCLE
  5
55E
330
1F
100
AcDbEntity
  8
0
  6
Continuous
 62
     7
100
AcDbCircle
 10
836.2161695140228
 20
448.1104019560943
 30
0.0
 40
2.750000000000454
  0
LINE
  5
55F
330
1F
100
AcDbEntity
  8
0
  6
Continuous
 62
     7
100
AcDbLine
 10
836.7161695140113
 20
450.1104019561226
 30
0.0
 11
836.7161695140113
 21
450.1104019561226
 31
0.0
  0
LINE
  5
560
330
1F
100
AcDbEntity
  8
0
  6
Continuous
 62
     7
100
AcDbLine
 10
836.7161695140197
 20
448.6104019561103
 30
0.0
 11
836.7161695140113
 21
450.1104019561226
 31
0.0
  0
LINE
  5
561
330
1F
100
AcDbEntity
  8
0
  6
Continuous
 62
     7
100
AcDbLine
 10
838.2161695140197
 20
448.6104019561184
 30
0.0
 11
836.7161695140197
 21
448.6104019561103
 31
0.0
  0
LINE
  5
562
330
1F
100
AcDbEntity
  8
0
  6
Continuous
 62
     7
100
AcDbLine
 10
838.2161695140256
 20
447.6104019561303
 30
0.0
 11
838.2161695140197
 21
448.6104019561184
 31
0.0
  0
LINE
  5
563
330
1F
100
AcDbEntity
  8
0
  6
Continuous
 62
     7
100
AcDbLine
 10
836.7161695140254
 20
447.6104019561225
 30
0.0
 11
838.2161695140256
 21
447.6104019561303
 31
0.0
  0
LINE
  5
564
330
1F
100
AcDbEntity
  8
0
  6
Continuous
 62
     7
100
AcDbLine
 10
836.7161695140334
 20
446.1104019561226
 30
0.0
 11
836.7161695140254
 21
447.6104019561225
 31
0.0
  0
LINE
  5
565
330
1F
100
AcDbEntity
  8
0
  6
Continuous
 62
     7
100
AcDbLine
 10
835.7161695140334
 20
446.1104019561044
 30
0.0
 11
836.7161695140334
 21
446.1104019561226
 31
0.0
  0
LINE
  5
566
330
1F
100
AcDbEntity
  8
0
  6
Continuous
 62
     7
100
AcDbLine
 10
835.7161695140254
 20
447.6104019561167
 30
0.0
 11
835.7161695140334
 21
446.1104019561044
 31
0.0
  0
LINE
  5
567
330
1F
100
AcDbEntity
  8
0
  6
Continuous
 62
     7
100
AcDbLine
 10
834.2161695140251
 20
447.6104019561087
 30
0.0
 11
835.7161695140254
 21
447.6104019561167
 31
0.0
  0
LINE
  5
568
330
1F
100
AcDbEntity
  8
0
  6
Continuous
 62
     7
100
AcDbLine
 10
834.2161695140196
 20
448.6104019560967
 30
0.0
 11
834.2161695140251
 21
447.6104019561087
 31
0.0
  0
LINE
  5
569
330
1F
100
AcDbEntity
  8
0
  6
Continuous
 62
     7
100
AcDbLine
 10
835.7161695140197
 20
448.6104019561167
 30
0.0
 11
834.2161695140196
 21
448.6104019560967
 31
0.0
  0
LINE
  5
56A
330
1F
100
AcDbEntity
  8
0
  6
Continuous
 62
     7
100
AcDbLine
 10
835.7161695140113
 20
450.1104019561166
 30
0.0
 11
835.7161695140197
 21
448.6104019561167
 31
0.0
  0
LINE
  5
56B
330
1F
100
AcDbEntity
  8
0
  6
Continuous
 62
     7
100
AcDbLine
 10
836.7161695140113
 20
450.1104019561226
 30
0.0
 11
835.7161695140113
 21
450.1104019561166
 31
0.0
  0
LINE
  5
56C
330
1F
100
AcDbEntity
  8
0
  6
Continuous
 62
     7
100
AcDbLine
 10
838.9661695140231
 20
448.1104019560947
 30
0.0
 11
838.9661695140231
 21
448.1104019560947
 31
0.0
  0
LINE
  5
56D
330
1F
100
AcDbEntity
  8
0
  6
Continuous
 62
     7
100
AcDbLine
 10
838.2161695139792
 20
456.2304019561187
 30
0.0
 11
836.7161695139792
 21
456.2304019561103
 31
0.0
  0
LINE
  5
56E
330
1F
100
AcDbEntity
  8
0
  6
Continuous
 62
     7
100
AcDbLine
 10
838.2161695139835
 20
455.2304019561304
 30
0.0
 11
838.2161695139792
 21
456.2304019561187
 31
0.0
  0
LINE
  5
56F
330
1F
100
AcDbEntity
  8
0
  6
Continuous
 62
     7
100
AcDbLine
 10
836.716169513984
 20
455.2304019561225
 30
0.0
 11
838.2161695139835
 21
455.2304019561304
 31
0.0
  0
LINE
  5
570
330
1F
100
AcDbEntity
  8
0
  6
Continuous
 62
     7
100
AcDbLine
 10
836.7161695139904
 20
453.7304019561226
 30
0.0
 11
836.716169513984
 21
455.2304019561225
 31
0.0
  0
LINE
  5
571
330
1F
100
AcDbEntity
  8
0
  6
Continuous
 62
     7
100
AcDbLine
 10
835.7161695139906
 20
453.7304019561045
 30
0.0
 11
836.7161695139904
 21
453.7304019561226
 31
0.0
  0
LINE
  5
572
330
1F
100
AcDbEntity
  8
0
  6
Continuous
 62
     7
100
AcDbLine
 10
835.716169513984
 20
455.2304019561167
 30
0.0
 11
835.7161695139906
 21
453.7304019561045
 31
0.0
  0
LINE
  5
573
330
1F
100
AcDbEntity
  8
0
  6
Continuous
 62
     7
100
AcDbLine
 10
834.2161695139836
 20
455.2304019561087
 30
0.0
 11
835.716169513984
 21
455.2304019561167
 31
0.0
  0
LINE
  5
574
330
1F
100
AcDbEntity
  8
0
  6
Continuous
 62
     7
100
AcDbLine
 10
834.2161695139788
 20
456.2304019560967
 30
0.0
 11
834.2161695139836
 21
455.2304019561087
 31
0.0
  0
LINE
  5
575
330
1F
100
AcDbEntity
  8
0
  6
Continuous
 62
     7
100
AcDbLine
 10
835.7161695139792
 20
456.2304019561167
 30
0.0
 11
834.2161695139788
 21
456.2304019560967
 31
0.0
  0
LINE
  5
576
330
1F
100
AcDbEntity
  8
0
  6
Continuous
 62
     7
100
AcDbLine
 10
838.9661695139816
 20
455.7304019560944
 30
0.0
 11
838.9661695139816
 21
455.7304019560944
 31
0.0
  0
CIRCLE
  5
577
330
1F
100
AcDbEntity
  8
0
  6
Continuous
 62
     7
100
AcDbCircle
 10
836.2161695137311
 20
501.4504019560935
 30
0.0
 40
2.750000000000454
  0
LINE
  5
578
330
1F
100
AcDbEntity
  8
0
  6
Continuous
 62
     7
100
AcDbLine
 10
836.7161695137271
 20
501.9504019561104
 30
0.0
 11
836.71616951372
 21
503.4504019561224
 31
0.0
  0
LINE
  5
579
330
1F
100
AcDbEntity
  8
0
  6
Continuous
 62
     7
100
AcDbLine
 10
835.71616951372
 20
503.4504019561166
 30
0.0
 11
835.7161695137271
 21
501.9504019561164
 31
0.0
  0
CIRCLE
  5
57A
330
1F
100
AcDbEntity
  8
0
  6
Continuous
 62
     7
100
AcDbCircle
 10
836.2161695138551
 20
478.5904019561382
 30
0.0
 40
2.750000000000454
  0
LINE
  5
57B
330
1F
100
AcDbEntity
  8
0
  6
Continuous
 62
     7
100
AcDbLine
 10
836.7161695138534
 20
479.0904019561546
 30
0.0
 11
836.7161695138458
 21
480.5904019561666
 31
0.0
  0
LINE
  5
57C
330
1F
100
AcDbEntity
  8
0
  6
Continuous
 62
     7
100
AcDbLine
 10
835.7161695138453
 20
480.5904019561608
 30
0.0
 11
835.716169513854
 21
479.0904019561607
 31
0.0
  0
CIRCLE
  5
57D
330
1F
100
AcDbEntity
  8
0
  6
Continuous
 62
     7
100
AcDbCircle
 10
836.2161695138972
 20
470.970401956094
 30
0.0
 40
2.750000000000454
  0
LINE
  5
57E
330
1F
100
AcDbEntity
  8
0
  6
Continuous
 62
     7
100
AcDbLine
 10
831.2161695139636
 20
458.8804019560665
 30
0.0
 11
840.2161695139636
 21
458.8804019561166
 31
0.0
  0
LINE
  5
57F
330
1F
100
AcDbEntity
  8
0
  6
Continuous
 62
     7
100
AcDbLine
 10
840.216169513957
 20
460.2004019561547
 30
0.0
 11
831.2161695139574
 21
460.2004019560923
 31
0.0
  0
LINE
  5
580
330
1F
100
AcDbEntity
  8
0
  6
Continuous
 62
     7
100
AcDbLine
 10
831.2161695139213
 20
466.5004019560924
 30
0.0
 11
840.2161695139213
 21
466.5004019561544
 31
0.0
  0
LINE
  5
581
330
1F
100
AcDbEntity
  8
0
  6
Continuous
 62
     7
100
AcDbLine
 10
840.2161695139151
 20
467.8204019561165
 30
0.0
 11
831.2161695139151
 21
467.8204019560666
 31
0.0
  0
CIRCLE
  5
582
330
1F
100
AcDbEntity
  8
0
  6
Continuous
 62
     7
100
AcDbCircle
 10
836.216169513939
 20
463.350401956138
 30
0.0
 40
2.750000000000454
  0
LINE
  5
583
330
1F
100
AcDbEntity
  8
0
  6
Continuous
 62
     7
100
AcDbLine
 10
836.7161695139694
 20
457.7304019561226
 30
0.0
 11
836.7161695139694
 21
457.7304019561226
 31
0.0
  0
LINE
  5
584
330
1F
100
AcDbEntity
  8
0
  6
Continuous
 62
     7
100
AcDbLine
 10
836.7161695139694
 20
457.7304019561226
 30
0.0
 11
835.7161695139694
 21
457.7304019561166
 31
0.0
  0
LINE
  5
585
330
1F
100
AcDbEntity
  8
0
  6
Continuous
 62
     7
100
AcDbLine
 10
836.7161695139271
 20
465.3504019561666
 30
0.0
 11
836.7161695139271
 21
465.3504019561666
 31
0.0
  0
LINE
  5
586
330
1F
100
AcDbEntity
  8
0
  6
Continuous
 62
     7
100
AcDbLine
 10
836.7161695139376
 20
463.8504019561546
 30
0.0
 11
836.7161695139271
 21
465.3504019561666
 31
0.0
  0
LINE
  5
587
330
1F
100
AcDbEntity
  8
0
  6
Continuous
 62
     7
100
AcDbLine
 10
838.2161695139371
 20
463.8504019561625
 30
0.0
 11
836.7161695139376
 21
463.8504019561546
 31
0.0
  0
LINE
  5
588
330
1F
100
AcDbEntity
  8
0
  6
Continuous
 62
     7
100
AcDbLine
 10
838.2161695139412
 20
462.8504019561746
 30
0.0
 11
838.2161695139371
 21
463.8504019561625
 31
0.0
  0
LINE
  5
589
330
1F
100
AcDbEntity
  8
0
  6
Continuous
 62
     7
100
AcDbLine
 10
836.7161695139412
 20
462.8504019561667
 30
0.0
 11
838.2161695139412
 21
462.8504019561746
 31
0.0
  0
LINE
  5
58A
330
1F
100
AcDbEntity
  8
0
  6
Continuous
 62
     7
100
AcDbLine
 10
836.7161695139495
 20
461.3504019561666
 30
0.0
 11
836.7161695139412
 21
462.8504019561667
 31
0.0
  0
LINE
  5
58B
330
1F
100
AcDbEntity
  8
0
  6
Continuous
 62
     7
100
AcDbLine
 10
835.7161695139497
 20
461.3504019561483
 30
0.0
 11
836.7161695139495
 21
461.3504019561666
 31
0.0
  0
LINE
  5
58C
330
1F
100
AcDbEntity
  8
0
  6
Continuous
 62
     7
100
AcDbLine
 10
835.7161695139412
 20
462.8504019561607
 30
0.0
 11
835.7161695139497
 21
461.3504019561483
 31
0.0
  0
LINE
  5
58D
330
1F
100
AcDbEntity
  8
0
  6
Continuous
 62
     7
100
AcDbLine
 10
834.2161695139413
 20
462.8504019561527
 30
0.0
 11
835.7161695139412
 21
462.8504019561607
 31
0.0
  0
LINE
  5
58E
330
1F
100
AcDbEntity
  8
0
  6
Continuous
 62
     7
100
AcDbLine
 10
834.2161695139376
 20
463.8504019561404
 30
0.0
 11
834.2161695139413
 21
462.8504019561527
 31
0.0
  0
LINE
  5
58F
330
1F
100
AcDbEntity
  8
0
  6
Continuous
 62
     7
100
AcDbLine
 10
835.7161695139376
 20
463.8504019561607
 30
0.0
 11
834.2161695139376
 21
463.8504019561404
 31
0.0
  0
LINE
  5
590
330
1F
100
AcDbEntity
  8
0
  6
Continuous
 62
     7
100
AcDbLine
 10
835.7161695139271
 20
465.3504019561608
 30
0.0
 11
835.7161695139376
 21
463.8504019561607
 31
0.0
  0
LINE
  5
591
330
1F
100
AcDbEntity
  8
0
  6
Continuous
 62
     7
100
AcDbLine
 10
836.7161695139271
 20
465.3504019561666
 30
0.0
 11
835.7161695139271
 21
465.3504019561608
 31
0.0
  0
LINE
  5
592
330
1F
100
AcDbEntity
  8
0
  6
Continuous
 62
     7
100
AcDbLine
 10
838.9661695139396
 20
463.3504019561384
 30
0.0
 11
838.9661695139396
 21
463.3504019561384
 31
0.0
  0
LINE
  5
593
330
1F
100
AcDbEntity
  8
0
  6
Continuous
 62
     7
100
AcDbLine
 10
831.2161695138817
 20
474.1204019560665
 30
0.0
 11
840.2161695138817
 21
474.1204019561166
 31
0.0
  0
LINE
  5
594
330
1F
100
AcDbEntity
  8
0
  6
Continuous
 62
     7
100
AcDbLine
 10
840.2161695138735
 20
475.4404019561547
 30
0.0
 11
831.2161695138735
 21
475.4404019560666
 31
0.0
  0
LINE
  5
595
330
1F
100
AcDbEntity
  8
0
  6
Continuous
 62
     7
100
AcDbLine
 10
836.7161695138872
 20
472.9704019561224
 30
0.0
 11
836.7161695138872
 21
472.9704019561224
 31
0.0
  0
LINE
  5
596
330
1F
100
AcDbEntity
  8
0
  6
Continuous
 62
     7
100
AcDbLine
 10
836.7161695138952
 20
471.4704019561104
 30
0.0
 11
836.7161695138872
 21
472.9704019561224
 31
0.0
  0
LINE
  5
597
330
1F
100
AcDbEntity
  8
0
  6
Continuous
 62
     7
100
AcDbLine
 10
838.2161695138956
 20
471.4704019561186
 30
0.0
 11
836.7161695138952
 21
471.4704019561104
 31
0.0
  0
LINE
  5
598
330
1F
100
AcDbEntity
  8
0
  6
Continuous
 62
     7
100
AcDbLine
 10
838.2161695139016
 20
470.4704019561304
 30
0.0
 11
838.2161695138956
 21
471.4704019561186
 31
0.0
  0
LINE
  5
599
330
1F
100
AcDbEntity
  8
0
  6
Continuous
 62
     7
100
AcDbLine
 10
836.7161695139017
 20
470.4704019561225
 30
0.0
 11
838.2161695139016
 21
470.4704019561304
 31
0.0
  0
LINE
  5
59A
330
1F
100
AcDbEntity
  8
0
  6
Continuous
 62
     7
100
AcDbLine
 10
836.7161695139097
 20
468.9704019561226
 30
0.0
 11
836.7161695139017
 21
470.4704019561225
 31
0.0
  0
LINE
  5
59B
330
1F
100
AcDbEntity
  8
0
  6
Continuous
 62
     7
100
AcDbLine
 10
835.7161695139092
 20
468.9704019561045
 30
0.0
 11
836.7161695139097
 21
468.9704019561226
 31
0.0
  0
LINE
  5
59C
330
1F
100
AcDbEntity
  8
0
  6
Continuous
 62
     7
100
AcDbLine
 10
835.7161695139017
 20
470.4704019561167
 30
0.0
 11
835.7161695139092
 21
468.9704019561045
 31
0.0
  0
LINE
  5
59D
330
1F
100
AcDbEntity
  8
0
  6
Continuous
 62
     7
100
AcDbLine
 10
834.2161695139017
 20
470.4704019561087
 30
0.0
 11
835.7161695139017
 21
470.4704019561167
 31
0.0
  0
LINE
  5
59E
330
1F
100
AcDbEntity
  8
0
  6
Continuous
 62
     7
100
AcDbLine
 10
834.2161695138951
 20
471.4704019560967
 30
0.0
 11
834.2161695139017
 21
470.4704019561087
 31
0.0
  0
LINE
  5
59F
330
1F
100
AcDbEntity
  8
0
  6
Continuous
 62
     7
100
AcDbLine
 10
835.7161695138954
 20
471.4704019561166
 30
0.0
 11
834.2161695138951
 21
471.4704019560967
 31
0.0
  0
LINE
  5
5A0
330
1F
100
AcDbEntity
  8
0
  6
Continuous
 62
     7
100
AcDbLine
 10
835.7161695138874
 20
472.9704019561166
 30
0.0
 11
835.7161695138954
 21
471.4704019561166
 31
0.0
  0
LINE
  5
5A1
330
1F
100
AcDbEntity
  8
0
  6
Continuous
 62
     7
100
AcDbLine
 10
836.7161695138872
 20
472.9704019561224
 30
0.0
 11
835.7161695138874
 21
472.9704019561166
 31
0.0
  0
LINE
  5
5A2
330
1F
100
AcDbEntity
  8
0
  6
Continuous
 62
     7
100
AcDbLine
 10
838.9661695138974
 20
470.9704019560947
 30
0.0
 11
838.9661695138974
 21
470.9704019560947
 31
0.0
  0
LINE
  5
5A3
330
1F
100
AcDbEntity
  8
0
  6
Continuous
 62
     7
100
AcDbLine
 10
838.2161695138535
 20
479.0904019561627
 30
0.0
 11
836.7161695138534
 21
479.0904019561546
 31
0.0
  0
LINE
  5
5A4
330
1F
100
AcDbEntity
  8
0
  6
Continuous
 62
     7
100
AcDbLine
 10
838.2161695138591
 20
478.0904019561746
 30
0.0
 11
838.2161695138535
 21
479.0904019561627
 31
0.0
  0
LINE
  5
5A5
330
1F
100
AcDbEntity
  8
0
  6
Continuous
 62
     7
100
AcDbLine
 10
836.7161695138596
 20
478.0904019561667
 30
0.0
 11
838.2161695138591
 21
478.0904019561746
 31
0.0
  0
LINE
  5
5A6
330
1F
100
AcDbEntity
  8
0
  6
Continuous
 62
     7
100
AcDbLine
 10
836.7161695138671
 20
476.5904019561666
 30
0.0
 11
836.7161695138596
 21
478.0904019561667
 31
0.0
  0
LINE
  5
5A7
330
1F
100
AcDbEntity
  8
0
  6
Continuous
 62
     7
100
AcDbLine
 10
835.7161695138671
 20
476.5904019561483
 30
0.0
 11
836.7161695138671
 21
476.5904019561666
 31
0.0
  0
LINE
  5
5A8
330
1F
100
AcDbEntity
  8
0
  6
Continuous
 62
     7
100
AcDbLine
 10
835.7161695138591
 20
478.0904019561607
 30
0.0
 11
835.7161695138671
 21
476.5904019561483
 31
0.0
  0
LINE
  5
5A9
330
1F
100
AcDbEntity
  8
0
  6
Continuous
 62
     7
100
AcDbLine
 10
834.2161695138596
 20
478.0904019561527
 30
0.0
 11
835.7161695138591
 21
478.0904019561607
 31
0.0
  0
LINE
  5
5AA
330
1F
100
AcDbEntity
  8
0
  6
Continuous
 62
     7
100
AcDbLine
 10
834.2161695138536
 20
479.0904019561406
 30
0.0
 11
834.2161695138596
 21
478.0904019561527
 31
0.0
  0
LINE
  5
5AB
330
1F
100
AcDbEntity
  8
0
  6
Continuous
 62
     7
100
AcDbLine
 10
835.716169513854
 20
479.0904019561607
 30
0.0
 11
834.2161695138536
 21
479.0904019561406
 31
0.0
  0
LINE
  5
5AC
330
1F
100
AcDbEntity
  8
0
  6
Continuous
 62
     7
100
AcDbLine
 10
838.966169513856
 20
478.5904019561384
 30
0.0
 11
838.966169513856
 21
478.5904019561384
 31
0.0
  0
POINT
  5
5AD
330
1F
100
AcDbEntity
  8
0
  6
Continuous
 62
     7
100
AcDbPoint
 10
832.3125417032692
 20
470.7671870636966
 30
0.0
1001
TCAD
1000
TC25ExternalObject
1002
{
1000
TCW30POINT
1000

1070
     0
1071
        0
1040
1.0
1040
0.0
1000
Continuous
1000
0
1071
        1
1071
      242
1010
621.6360776136419
1020
85.383553747216
1030
0.0
1070
     3
1071
-2147483645
1070
     0
1000
$POINTSIZE
1070
     5
1040
0.5
1000
$POINTTYPE
1070
    18
1070
     4
1000
ExplodeScale
1070
     5
1040
1.0
1002
}
  0
CIRCLE
  5
5AE
330
1F
100
AcDbEntity
  8
0
  6
Continuous
 62
     7
100
AcDbCircle
 10
836.2161695137709
 20
493.830401956138
 30
0.0
 40
2.750000000000454
  0
LINE
  5
5AF
330
1F
100
AcDbEntity
  8
0
  6
Continuous
 62
     7
100
AcDbLine
 10
831.2161695138396
 20
481.7404019560924
 30
0.0
 11
840.2161695138396
 21
481.7404019561545
 31
0.0
  0
LINE
  5
5B0
330
1F
100
AcDbEntity
  8
0
  6
Continuous
 62
     7
100
AcDbLine
 10
840.2161695138316
 20
483.0604019561165
 30
0.0
 11
831.2161695138316
 21
483.0604019560927
 31
0.0
  0
LINE
  5
5B1
330
1F
100
AcDbEntity
  8
0
  6
Continuous
 62
     7
100
AcDbLine
 10
831.2161695137978
 20
489.3604019560924
 30
0.0
 11
840.2161695137978
 21
489.3604019561545
 31
0.0
  0
LINE
  5
5B2
330
1F
100
AcDbEntity
  8
0
  6
Continuous
 62
     7
100
AcDbLine
 10
840.2161695137891
 20
490.6804019561167
 30
0.0
 11
831.2161695137891
 21
490.6804019560666
 31
0.0
  0
CIRCLE
  5
5B3
330
1F
100
AcDbEntity
  8
0
  6
Continuous
 62
     7
100
AcDbCircle
 10
836.2161695138132
 20
486.210401956094
 30
0.0
 40
2.750000000000454
  0
LINE
  5
5B4
330
1F
100
AcDbEntity
  8
0
  6
Continuous
 62
     7
100
AcDbLine
 10
836.7161695138458
 20
480.5904019561666
 30
0.0
 11
836.7161695138458
 21
480.5904019561666
 31
0.0
  0
LINE
  5
5B5
330
1F
100
AcDbEntity
  8
0
  6
Continuous
 62
     7
100
AcDbLine
 10
836.7161695138458
 20
480.5904019561666
 30
0.0
 11
835.7161695138453
 21
480.5904019561608
 31
0.0
  0
LINE
  5
5B6
330
1F
100
AcDbEntity
  8
0
  6
Continuous
 62
     7
100
AcDbLine
 10
836.7161695138035
 20
488.2104019561224
 30
0.0
 11
836.7161695138035
 21
488.2104019561224
 31
0.0
  0
LINE
  5
5B7
330
1F
100
AcDbEntity
  8
0
  6
Continuous
 62
     7
100
AcDbLine
 10
836.7161695138117
 20
486.7104019561104
 30
0.0
 11
836.7161695138035
 21
488.2104019561224
 31
0.0
  0
LINE
  5
5B8
330
1F
100
AcDbEntity
  8
0
  6
Continuous
 62
     7
100
AcDbLine
 10
838.2161695138117
 20
486.7104019561184
 30
0.0
 11
836.7161695138117
 21
486.7104019561104
 31
0.0
  0
LINE
  5
5B9
330
1F
100
AcDbEntity
  8
0
  6
Continuous
 62
     7
100
AcDbLine
 10
838.216169513817
 20
485.7104019561304
 30
0.0
 11
838.2161695138117
 21
486.7104019561184
 31
0.0
  0
LINE
  5
5BA
330
1F
100
AcDbEntity
  8
0
  6
Continuous
 62
     7
100
AcDbLine
 10
836.7161695138172
 20
485.7104019561226
 30
0.0
 11
838.216169513817
 21
485.7104019561304
 31
0.0
  0
LINE
  5
5BB
330
1F
100
AcDbEntity
  8
0
  6
Continuous
 62
     7
100
AcDbLine
 10
836.7161695138253
 20
484.2104019561225
 30
0.0
 11
836.7161695138172
 21
485.7104019561226
 31
0.0
  0
LINE
  5
5BC
330
1F
100
AcDbEntity
  8
0
  6
Continuous
 62
     7
100
AcDbLine
 10
835.7161695138254
 20
484.2104019561047
 30
0.0
 11
836.7161695138253
 21
484.2104019561225
 31
0.0
  0
LINE
  5
5BD
330
1F
100
AcDbEntity
  8
0
  6
Continuous
 62
     7
100
AcDbLine
 10
835.7161695138174
 20
485.7104019561167
 30
0.0
 11
835.7161695138254
 21
484.2104019561047
 31
0.0
  0
LINE
  5
5BE
330
1F
100
AcDbEntity
  8
0
  6
Continuous
 62
     7
100
AcDbLine
 10
834.2161695138171
 20
485.7104019561083
 30
0.0
 11
835.7161695138174
 21
485.7104019561167
 31
0.0
  0
LINE
  5
5BF
330
1F
100
AcDbEntity
  8
0
  6
Continuous
 62
     7
100
AcDbLine
 10
834.2161695138116
 20
486.7104019560967
 30
0.0
 11
834.2161695138171
 21
485.7104019561083
 31
0.0
  0
LINE
  5
5C0
330
1F
100
AcDbEntity
  8
0
  6
Continuous
 62
     7
100
AcDbLine
 10
835.7161695138112
 20
486.7104019561167
 30
0.0
 11
834.2161695138116
 21
486.7104019560967
 31
0.0
  0
LINE
  5
5C1
330
1F
100
AcDbEntity
  8
0
  6
Continuous
 62
     7
100
AcDbLine
 10
835.7161695138035
 20
488.2104019561166
 30
0.0
 11
835.7161695138112
 21
486.7104019561167
 31
0.0
  0
LINE
  5
5C2
330
1F
100
AcDbEntity
  8
0
  6
Continuous
 62
     7
100
AcDbLine
 10
836.7161695138035
 20
488.2104019561224
 30
0.0
 11
835.7161695138035
 21
488.2104019561166
 31
0.0
  0
LINE
  5
5C3
330
1F
100
AcDbEntity
  8
0
  6
Continuous
 62
     7
100
AcDbLine
 10
838.9661695138137
 20
486.2104019560947
 30
0.0
 11
838.9661695138137
 21
486.2104019560947
 31
0.0
  0
LINE
  5
5C4
330
1F
100
AcDbEntity
  8
0
  6
Continuous
 62
     7
100
AcDbLine
 10
831.2161695137552
 20
496.9804019560926
 30
0.0
 11
840.2161695137552
 21
496.9804019561166
 31
0.0
  0
LINE
  5
5C5
330
1F
100
AcDbEntity
  8
0
  6
Continuous
 62
     7
100
AcDbLine
 10
840.216169513747
 20
498.3004019561547
 30
0.0
 11
831.8019559513754
 21
498.3004019561048
 31
0.0
  0
LINE
  5
5C6
330
1F
100
AcDbEntity
  8
0
  6
Continuous
 62
     7
100
AcDbLine
 10
836.7161695137616
 20
495.8304019561666
 30
0.0
 11
836.7161695137616
 21
495.8304019561666
 31
0.0
  0
LINE
  5
5C7
330
1F
100
AcDbEntity
  8
0
  6
Continuous
 62
     7
100
AcDbLine
 10
836.7161695137696
 20
494.3304019561546
 30
0.0
 11
836.7161695137616
 21
495.8304019561666
 31
0.0
  0
LINE
  5
5C8
330
1F
100
AcDbEntity
  8
0
  6
Continuous
 62
     7
100
AcDbLine
 10
838.2161695137691
 20
494.3304019561625
 30
0.0
 11
836.7161695137696
 21
494.3304019561546
 31
0.0
  0
LINE
  5
5C9
330
1F
100
AcDbEntity
  8
0
  6
Continuous
 62
     7
100
AcDbLine
 10
838.2161695137757
 20
493.3304019561746
 30
0.0
 11
838.2161695137691
 21
494.3304019561625
 31
0.0
  0
LINE
  5
5CA
330
1F
100
AcDbEntity
  8
0
  6
Continuous
 62
     7
100
AcDbLine
 10
836.716169513776
 20
493.3304019561663
 30
0.0
 11
838.2161695137757
 21
493.3304019561746
 31
0.0
  0
LINE
  5
5CB
330
1F
100
AcDbEntity
  8
0
  6
Continuous
 62
     7
100
AcDbLine
 10
836.7161695137834
 20
491.8304019561666
 30
0.0
 11
836.716169513776
 21
493.3304019561663
 31
0.0
  0
LINE
  5
5CC
330
1F
100
AcDbEntity
  8
0
  6
Continuous
 62
     7
100
AcDbLine
 10
835.7161695137834
 20
491.8304019561483
 30
0.0
 11
836.7161695137834
 21
491.8304019561666
 31
0.0
  0
LINE
  5
5CD
330
1F
100
AcDbEntity
  8
0
  6
Continuous
 62
     7
100
AcDbLine
 10
835.7161695137758
 20
493.3304019561608
 30
0.0
 11
835.7161695137834
 21
491.8304019561483
 31
0.0
  0
LINE
  5
5CE
330
1F
100
AcDbEntity
  8
0
  6
Continuous
 62
     7
100
AcDbLine
 10
834.2161695137757
 20
493.3304019561527
 30
0.0
 11
835.7161695137758
 21
493.3304019561608
 31
0.0
  0
LINE
  5
5CF
330
1F
100
AcDbEntity
  8
0
  6
Continuous
 62
     7
100
AcDbLine
 10
834.2161695137694
 20
494.3304019561407
 30
0.0
 11
834.2161695137757
 21
493.3304019561527
 31
0.0
  0
LINE
  5
5D0
330
1F
100
AcDbEntity
  8
0
  6
Continuous
 62
     7
100
AcDbLine
 10
835.7161695137696
 20
494.3304019561607
 30
0.0
 11
834.2161695137694
 21
494.3304019561407
 31
0.0
  0
LINE
  5
5D1
330
1F
100
AcDbEntity
  8
0
  6
Continuous
 62
     7
100
AcDbLine
 10
835.7161695137616
 20
495.8304019561608
 30
0.0
 11
835.7161695137696
 21
494.3304019561607
 31
0.0
  0
LINE
  5
5D2
330
1F
100
AcDbEntity
  8
0
  6
Continuous
 62
     7
100
AcDbLine
 10
836.7161695137616
 20
495.8304019561666
 30
0.0
 11
835.7161695137616
 21
495.8304019561608
 31
0.0
  0
LINE
  5
5D3
330
1F
100
AcDbEntity
  8
0
  6
Continuous
 62
     7
100
AcDbLine
 10
838.9661695137716
 20
493.8304019561384
 30
0.0
 11
838.9661695137716
 21
493.8304019561384
 31
0.0
  0
LINE
  5
5D4
330
1F
100
AcDbEntity
  8
0
  6
Continuous
 62
     7
100
AcDbLine
 10
838.216169513727
 20
501.9504019561185
 30
0.0
 11
836.7161695137271
 21
501.9504019561104
 31
0.0
  0
LINE
  5
5D5
330
1F
100
AcDbEntity
  8
0
  6
Continuous
 62
     7
100
AcDbLine
 10
838.2161695137334
 20
500.9504019561306
 30
0.0
 11
838.216169513727
 21
501.9504019561185
 31
0.0
  0
LINE
  5
5D6
330
1F
100
AcDbEntity
  8
0
  6
Continuous
 62
     7
100
AcDbLine
 10
836.716169513733
 20
500.9504019561221
 30
0.0
 11
838.2161695137334
 21
500.9504019561306
 31
0.0
  0
LINE
  5
5D7
330
1F
100
AcDbEntity
  8
0
  6
Continuous
 62
     7
100
AcDbLine
 10
836.7161695137411
 20
499.4504019561225
 30
0.0
 11
836.716169513733
 21
500.9504019561221
 31
0.0
  0
LINE
  5
5D8
330
1F
100
AcDbEntity
  8
0
  6
Continuous
 62
     7
100
AcDbLine
 10
835.7161695137412
 20
499.4504019561047
 30
0.0
 11
836.7161695137411
 21
499.4504019561225
 31
0.0
  0
LINE
  5
5D9
330
1F
100
AcDbEntity
  8
0
  6
Continuous
 62
     7
100
AcDbLine
 10
835.716169513733
 20
500.9504019561167
 30
0.0
 11
835.7161695137412
 21
499.4504019561047
 31
0.0
  0
LINE
  5
5DA
330
1F
100
AcDbEntity
  8
0
  6
Continuous
 62
     7
100
AcDbLine
 10
834.2161695137336
 20
500.9504019561084
 30
0.0
 11
835.716169513733
 21
500.9504019561167
 31
0.0
  0
LINE
  5
5DB
330
1F
100
AcDbEntity
  8
0
  6
Continuous
 62
     7
100
AcDbLine
 10
834.2161695137271
 20
501.9504019560967
 30
0.0
 11
834.2161695137336
 21
500.9504019561084
 31
0.0
  0
LINE
  5
5DC
330
1F
100
AcDbEntity
  8
0
  6
Continuous
 62
     7
100
AcDbLine
 10
835.7161695137271
 20
501.9504019561164
 30
0.0
 11
834.2161695137271
 21
501.9504019560967
 31
0.0
  0
LINE
  5
5DD
330
1F
100
AcDbEntity
  8
0
  6
Continuous
 62
     7
100
AcDbLine
 10
838.9661695137311
 20
501.4504019560943
 30
0.0
 11
838.9661695137311
 21
501.4504019560943
 31
0.0
  0
LINE
  5
5DE
330
1F
100
AcDbEntity
  8
0
  6
Continuous
 62
     7
100
AcDbLine
 10
816.7761695373894
 20
520.1904019562345
 30
0.0
 11
829.7761695373891
 21
520.1904019562345
 31
0.0
  0
LINE
  5
5DF
330
1F
100
AcDbEntity
  8
0
  6
DASHED
 62
     7
 48
5.0
100
AcDbLine
 10
817.9761695373896
 20
520.1904019562345
 30
0.0
 11
817.9761695373896
 21
521.1904019562346
 31
0.0
  0
CIRCLE
  5
5E0
330
1F
100
AcDbEntity
  8
0
  6
Continuous
 62
     7
100
AcDbCircle
 10
836.2161695136466
 20
516.6904019560935
 30
0.0
 40
2.750000000000454
  0
LINE
  5
5E1
330
1F
100
AcDbEntity
  8
0
  6
Continuous
 62
     7
100
AcDbLine
 10
836.7161695136573
 20
514.6904019561225
 30
0.0
 11
836.7161695136495
 21
516.1904019561221
 31
0.0
  0
LINE
  5
5E2
330
1F
100
AcDbEntity
  8
0
  6
Continuous
 62
     7
100
AcDbLine
 10
835.7161695136495
 20
516.1904019561164
 30
0.0
 11
835.7161695136573
 21
514.6904019561041
 31
0.0
  0
LINE
  5
5E3
330
1F
100
AcDbEntity
  8
0
  6
Continuous
 62
     7
100
AcDbLine
 10
831.2161695137136
 20
504.6004019560688
 30
0.0
 11
840.2161695137136
 21
504.6004019561165
 31
0.0
  0
LINE
  5
5E4
330
1F
100
AcDbEntity
  8
0
  6
Continuous
 62
     7
100
AcDbLine
 10
840.2161695137055
 20
505.9204019561167
 30
0.0
 11
831.2161695137055
 21
505.9204019560923
 31
0.0
  0
LINE
  5
5E5
330
1F
100
AcDbEntity
  8
0
  6
Continuous
 62
     7
100
AcDbLine
 10
831.2161695136714
 20
512.2204019560688
 30
0.0
 11
840.2161695136712
 21
512.2204019561166
 31
0.0
  0
LINE
  5
5E6
330
1F
100
AcDbEntity
  8
0
  6
Continuous
 62
     7
100
AcDbLine
 10
840.2161695136634
 20
513.5404019561544
 30
0.0
 11
831.2161695136634
 21
513.5404019560923
 31
0.0
  0
CIRCLE
  5
5E7
330
1F
100
AcDbEntity
  8
0
  6
Continuous
 62
     7
100
AcDbCircle
 10
836.216169513689
 20
509.0704019560935
 30
0.0
 40
2.750000000000454
  0
LINE
  5
5E8
330
1F
100
AcDbEntity
  8
0
  6
Continuous
 62
     7
100
AcDbLine
 10
836.71616951372
 20
503.4504019561224
 30
0.0
 11
836.71616951372
 21
503.4504019561224
 31
0.0
  0
LINE
  5
5E9
330
1F
100
AcDbEntity
  8
0
  6
Continuous
 62
     7
100
AcDbLine
 10
836.71616951372
 20
503.4504019561224
 30
0.0
 11
835.71616951372
 21
503.4504019561166
 31
0.0
  0
LINE
  5
5EA
330
1F
100
AcDbEntity
  8
0
  6
Continuous
 62
     7
100
AcDbLine
 10
836.7161695136772
 20
511.0704019561222
 30
0.0
 11
836.7161695136772
 21
511.0704019561222
 31
0.0
  0
LINE
  5
5EB
330
1F
100
AcDbEntity
  8
0
  6
Continuous
 62
     7
100
AcDbLine
 10
836.7161695136857
 20
509.5704019561106
 30
0.0
 11
836.7161695136772
 21
511.0704019561222
 31
0.0
  0
LINE
  5
5EC
330
1F
100
AcDbEntity
  8
0
  6
Continuous
 62
     7
100
AcDbLine
 10
838.2161695136856
 20
509.5704019561185
 30
0.0
 11
836.7161695136857
 21
509.5704019561106
 31
0.0
  0
LINE
  5
5ED
330
1F
100
AcDbEntity
  8
0
  6
Continuous
 62
     7
100
AcDbLine
 10
838.2161695136911
 20
508.5704019561307
 30
0.0
 11
838.2161695136856
 21
509.5704019561185
 31
0.0
  0
LINE
  5
5EE
330
1F
100
AcDbEntity
  8
0
  6
Continuous
 62
     7
100
AcDbLine
 10
836.7161695136916
 20
508.5704019561221
 30
0.0
 11
838.2161695136911
 21
508.5704019561307
 31
0.0
  0
LINE
  5
5EF
330
1F
100
AcDbEntity
  8
0
  6
Continuous
 62
     7
100
AcDbLine
 10
836.716169513699
 20
507.0704019561222
 30
0.0
 11
836.7161695136916
 21
508.5704019561221
 31
0.0
  0
LINE
  5
5F0
330
1F
100
AcDbEntity
  8
0
  6
Continuous
 62
     7
100
AcDbLine
 10
835.7161695136991
 20
507.0704019561044
 30
0.0
 11
836.716169513699
 21
507.0704019561222
 31
0.0
  0
LINE
  5
5F1
330
1F
100
AcDbEntity
  8
0
  6
Continuous
 62
     7
100
AcDbLine
 10
835.7161695136916
 20
508.5704019561162
 30
0.0
 11
835.7161695136991
 21
507.0704019561044
 31
0.0
  0
LINE
  5
5F2
330
1F
100
AcDbEntity
  8
0
  6
Continuous
 62
     7
100
AcDbLine
 10
834.2161695136914
 20
508.5704019561084
 30
0.0
 11
835.7161695136916
 21
508.5704019561162
 31
0.0
  0
LINE
  5
5F3
330
1F
100
AcDbEntity
  8
0
  6
Continuous
 62
     7
100
AcDbLine
 10
834.2161695136857
 20
509.5704019560967
 30
0.0
 11
834.2161695136914
 21
508.5704019561084
 31
0.0
  0
LINE
  5
5F4
330
1F
100
AcDbEntity
  8
0
  6
Continuous
 62
     7
100
AcDbLine
 10
835.7161695136857
 20
509.5704019561164
 30
0.0
 11
834.2161695136857
 21
509.5704019560967
 31
0.0
  0
LINE
  5
5F5
330
1F
100
AcDbEntity
  8
0
  6
Continuous
 62
     7
100
AcDbLine
 10
835.7161695136777
 20
511.0704019561165
 30
0.0
 11
835.7161695136857
 21
509.5704019561164
 31
0.0
  0
LINE
  5
5F6
330
1F
100
AcDbEntity
  8
0
  6
Continuous
 62
     7
100
AcDbLine
 10
836.7161695136772
 20
511.0704019561222
 30
0.0
 11
835.7161695136777
 21
511.0704019561165
 31
0.0
  0
LINE
  5
5F7
330
1F
100
AcDbEntity
  8
0
  6
Continuous
 62
     7
100
AcDbLine
 10
838.9661695136894
 20
509.0704019560941
 30
0.0
 11
838.9661695136894
 21
509.0704019560941
 31
0.0
  0
LINE
  5
5F8
330
1F
100
AcDbEntity
  8
0
  6
Continuous
 62
     7
100
AcDbLine
 10
835.7161695136573
 20
514.6904019561041
 30
0.0
 11
836.7161695136573
 21
514.6904019561225
 31
0.0
  0
LINE
  5
5F9
330
1F
100
AcDbEntity
  8
0
  6
Continuous
 62
     7
100
AcDbLine
 10
831.21616951363
 20
519.8404019560687
 30
0.0
 11
840.21616951363
 21
519.8404019561166
 31
0.0
  0
LINE
  5
5FA
330
1F
100
AcDbEntity
  8
0
  6
Continuous
 62
     7
100
AcDbLine
 10
840.21616951363
 20
519.8404019561547
 30
0.0
 11
831.21616951363
 21
519.8404019560927
 31
0.0
  0
LINE
  5
5FB
330
1F
100
AcDbEntity
  8
0
  6
Continuous
 62
     7
100
AcDbLine
 10
836.7161695136354
 20
518.6904019561222
 30
0.0
 11
836.7161695136354
 21
518.6904019561222
 31
0.0
  0
LINE
  5
5FC
330
1F
100
AcDbEntity
  8
0
  6
Continuous
 62
     7
100
AcDbLine
 10
836.7161695136436
 20
517.1904019561104
 30
0.0
 11
836.7161695136354
 21
518.6904019561222
 31
0.0
  0
LINE
  5
5FD
330
1F
100
AcDbEntity
  8
0
  6
Continuous
 62
     7
100
AcDbLine
 10
838.2161695136431
 20
517.1904019561185
 30
0.0
 11
836.7161695136436
 21
517.1904019561104
 31
0.0
  0
LINE
  5
5FE
330
1F
100
AcDbEntity
  8
0
  6
Continuous
 62
     7
100
AcDbLine
 10
838.2161695136495
 20
516.1904019561307
 30
0.0
 11
838.2161695136431
 21
517.1904019561185
 31
0.0
  0
LINE
  5
5FF
330
1F
100
AcDbEntity
  8
0
  6
Continuous
 62
     7
100
AcDbLine
 10
836.7161695136495
 20
516.1904019561221
 30
0.0
 11
838.2161695136495
 21
516.1904019561307
 31
0.0
  0
LINE
  5
600
330
1F
100
AcDbEntity
  8
0
  6
Continuous
 62
     7
100
AcDbLine
 10
834.21616951365
 20
516.1904019561084
 30
0.0
 11
835.7161695136495
 21
516.1904019561164
 31
0.0
  0
LINE
  5
601
330
1F
100
AcDbEntity
  8
0
  6
Continuous
 62
     7
100
AcDbLine
 10
834.2161695136436
 20
517.1904019560967
 30
0.0
 11
834.21616951365
 21
516.1904019561084
 31
0.0
  0
LINE
  5
602
330
1F
100
AcDbEntity
  8
0
  6
Continuous
 62
     7
100
AcDbLine
 10
835.7161695136431
 20
517.1904019561167
 30
0.0
 11
834.2161695136436
 21
517.1904019560967
 31
0.0
  0
LINE
  5
603
330
1F
100
AcDbEntity
  8
0
  6
Continuous
 62
     7
100
AcDbLine
 10
835.7161695136355
 20
518.6904019561165
 30
0.0
 11
835.7161695136431
 21
517.1904019561167
 31
0.0
  0
LINE
  5
604
330
1F
100
AcDbEntity
  8
0
  6
Continuous
 62
     7
100
AcDbLine
 10
836.7161695136354
 20
518.6904019561222
 30
0.0
 11
835.7161695136355
 21
518.6904019561165
 31
0.0
  0
LINE
  5
605
330
1F
100
AcDbEntity
  8
0
  6
Continuous
 62
     7
100
AcDbLine
 10
838.9661695136474
 20
516.6904019560941
 30
0.0
 11
838.9661695136474
 21
516.6904019560941
 31
0.0
  0
CIRCLE
  5
606
330
1F
100
AcDbEntity
  8
0
  6
Continuous
 62
     7
370
     0
100
AcDbCircle
 10
832.4361695373889
 20
532.090401956234
 30
0.0
 40
2.000000000000226
  0
CIRCLE
  5
607
330
1F
100
AcDbEntity
  8
0
  6
Continuous
 62
     7
370
     0
100
AcDbCircle
 10
837.5161695373892
 20
532.090401956234
 30
0.0
 40
2.0
  0
CIRCLE
  5
608
330
1F
100
AcDbEntity
  8
0
  6
Continuous
 62
     7
100
AcDbCircle
 10
845.2161695139588
 20
459.5404019561941
 30
0.0
 40
2.750000000000454
  0
LINE
  5
609
330
1F
100
AcDbEntity
  8
0
  6
Continuous
 62
     7
100
AcDbLine
 10
850.2161695141072
 20
521.1604019560923
 30
0.0
 11
850.2161695141072
 21
432.8704019562807
 31
0.0
  0
LINE
  5
60A
330
1F
100
AcDbEntity
  8
0
  6
Continuous
 62
     7
100
AcDbLine
 10
850.2161695136216
 20
432.8704019560446
 30
0.0
 11
850.2161695136216
 21
521.1604019562583
 31
0.0
  0
LINE
  5
60B
330
1F
100
AcDbEntity
  8
0
  6
Continuous
 62
     7
100
AcDbLine
 10
850.5161695373891
 20
521.1904019562346
 30
0.0
 11
850.5161695373891
 21
432.1904019562347
 31
0.0
  0
ARC
  5
60C
330
1F
100
AcDbEntity
  8
0
  6
Continuous
 62
     7
100
AcDbCircle
 10
850.7761695373892
 20
384.8904019562362
 30
0.0
 40
2.000000000000226
100
AcDbArc
 50
0.0000000000097707
 51
89.99999999999348
  0
ARC
  5
60D
330
1F
100
AcDbEntity
  8
0
  6
Continuous
 62
     7
100
AcDbCircle
 10
842.7761695373909
 20
384.8904019562362
 30
0.0
 40
2.00000000000032
100
AcDbArc
 50
90.00000000000653
 51
179.9999999999901
  0
CIRCLE
  5
60E
330
1F
100
AcDbEntity
  8
0
  6
Continuous
 62
     7
100
AcDbCircle
 10
846.7761616310484
 20
379.3740025252779
 30
0.0
 40
6.25000000000071
  0
CIRCLE
  5
60F
330
1F
100
AcDbEntity
  8
0
  6
Continuous
 62
     7
100
AcDbCircle
 10
846.7761616310484
 20
379.3740025252779
 30
0.0
 40
5.0047001552889
  0
LINE
  5
610
330
1F
100
AcDbEntity
  8
0
  6
Continuous
 62
     7
100
AcDbLine
 10
852.7761695373891
 20
377.6240296329544
 30
0.0
 11
852.7761695373891
 21
369.8904019562427
 31
0.0
  0
LINE
  5
611
330
1F
100
AcDbEntity
  8
0
  6
Continuous
 62
     7
100
AcDbLine
 10
840.776169537391
 20
377.6239754180527
 30
0.0
 11
840.776169537391
 21
369.8904019562427
 31
0.0
  0
LINE
  5
612
330
1F
100
AcDbEntity
  8
0
  6
Continuous
 62
     7
100
AcDbLine
 10
846.7761616310491
 20
373.6004998333825
 30
0.0
 11
851.7761616310494
 21
376.4872511793305
 31
0.0
  0
LINE
  5
613
330
1F
100
AcDbEntity
  8
0
  6
Continuous
 62
     7
100
AcDbLine
 10
841.7761616310491
 20
376.4872511793305
 30
0.0
 11
846.7761616310491
 21
373.6004998333825
 31
0.0
  0
LINE
  5
614
330
1F
100
AcDbEntity
  8
0
  6
Continuous
 62
     7
100
AcDbLine
 10
851.7761616310494
 20
382.2607538712267
 30
0.0
 11
846.7761616310491
 21
385.1475052171744
 31
0.0
  0
LINE
  5
615
330
1F
100
AcDbEntity
  8
0
  6
Continuous
 62
     7
100
AcDbLine
 10
842.7761695373909
 20
386.8904019562364
 30
0.0
 11
850.7761695373892
 21
386.8904019562364
 31
0.0
  0
LINE
  5
616
330
1F
100
AcDbEntity
  8
0
  6
Continuous
 62
     7
100
AcDbLine
 10
840.776169537391
 20
384.8904019562366
 30
0.0
 11
840.776169537391
 21
381.1240296325024
 31
0.0
  0
LINE
  5
617
330
1F
100
AcDbEntity
  8
0
  6
Continuous
 62
     7
100
AcDbLine
 10
841.7761616310491
 20
382.2607538712267
 30
0.0
 11
841.7761616310491
 21
376.4872511793305
 31
0.0
  0
LINE
  5
618
330
1F
100
AcDbEntity
  8
0
  6
Continuous
 62
     7
100
AcDbLine
 10
846.7761616310491
 20
385.1475052171744
 30
0.0
 11
841.7761616310491
 21
382.2607538712267
 31
0.0
  0
LINE
  5
619
330
1F
100
AcDbEntity
  8
0
  6
Continuous
 62
     7
100
AcDbLine
 10
852.7761695373891
 20
384.8904019562366
 30
0.0
 11
852.7761695373891
 21
381.1239754176027
 31
0.0
  0
LINE
  5
61A
330
1F
100
AcDbEntity
  8
0
  6
Continuous
 62
     7
100
AcDbLine
 10
851.7808617863371
 20
379.3740025252787
 30
0.0
 11
851.7808617863371
 21
379.3740025252787
 31
0.0
  0
LINE
  5
61B
330
1F
100
AcDbEntity
  8
0
  6
Continuous
 62
     7
100
AcDbLine
 10
853.0261616310491
 20
379.3740025252787
 30
0.0
 11
853.0261616310491
 21
379.3740025252787
 31
0.0
  0
LINE
  5
61C
330
1F
100
AcDbEntity
  8
0
  6
Continuous
 62
     7
100
AcDbLine
 10
851.7761616310494
 20
376.4872511793305
 30
0.0
 11
851.7761616310494
 21
382.2607538712267
 31
0.0
  0
LINE
  5
61D
330
1F
100
AcDbEntity
  8
0
  6
Continuous
 62
     7
100
AcDbLine
 10
842.7161695373889
 20
427.9904019562346
 30
0.0
 11
842.7161695373889
 21
420.3904019562344
 31
0.0
  0
LINE
  5
61E
330
1F
100
AcDbEntity
  8
0
  6
Continuous
 62
     7
100
AcDbLine
 10
848.716169537389
 20
420.3904019562344
 30
0.0
 11
848.716169537389
 21
427.9904019562346
 31
0.0
  0
ARC
  5
61F
330
1F
100
AcDbEntity
  8
0
  6
Continuous
 62
     7
100
AcDbCircle
 10
845.7161695373889
 20
420.3904019562344
 30
0.0
 40
3.0
100
AcDbArc
 50
180.0
 51
0.0
  0
LINE
  5
620
330
1F
100
AcDbEntity
  8
0
  6
Continuous
 62
     7
100
AcDbLine
 10
846.1161719597932
 20
421.9904025664964
 30
0.0
 11
845.3161719597936
 21
421.9904025664924
 31
0.0
  0
LINE
  5
621
330
1F
100
AcDbEntity
  8
0
  6
Continuous
 62
     7
100
AcDbLine
 10
845.3161719597936
 20
421.9904025664924
 30
0.0
 11
845.3161719597991
 21
420.7904025664923
 31
0.0
  0
LINE
  5
622
330
1F
100
AcDbEntity
  8
0
  6
Continuous
 62
     7
100
AcDbLine
 10
845.3161719597991
 20
420.7904025664923
 30
0.0
 11
844.1161719597992
 21
420.7904025664767
 31
0.0
  0
LINE
  5
623
330
1F
100
AcDbEntity
  8
0
  6
Continuous
 62
     7
100
AcDbLine
 10
844.1161719597992
 20
420.7904025664767
 30
0.0
 11
844.1161719598031
 21
419.9904025664847
 31
0.0
  0
LINE
  5
624
330
1F
100
AcDbEntity
  8
0
  6
Continuous
 62
     7
100
AcDbLine
 10
844.1161719598031
 20
419.9904025664847
 30
0.0
 11
845.3161719598037
 21
419.9904025664928
 31
0.0
  0
LINE
  5
625
330
1F
100
AcDbEntity
  8
0
  6
Continuous
 62
     7
100
AcDbLine
 10
845.3161719598037
 20
419.9904025664928
 30
0.0
 11
845.3161719598114
 21
418.7904025664823
 31
0.0
  0
LINE
  5
626
330
1F
100
AcDbEntity
  8
0
  6
Continuous
 62
     7
100
AcDbLine
 10
845.3161719598114
 20
418.7904025664823
 30
0.0
 11
846.1161719598111
 21
418.7904025664967
 31
0.0
  0
LINE
  5
627
330
1F
100
AcDbEntity
  8
0
  6
Continuous
 62
     7
100
AcDbLine
 10
846.1161719598111
 20
418.7904025664967
 30
0.0
 11
846.1161719598031
 21
419.9904025664968
 31
0.0
  0
LINE
  5
628
330
1F
100
AcDbEntity
  8
0
  6
Continuous
 62
     7
100
AcDbLine
 10
846.1161719598031
 20
419.9904025664968
 30
0.0
 11
847.3161719598031
 21
419.9904025665027
 31
0.0
  0
LINE
  5
629
330
1F
100
AcDbEntity
  8
0
  6
Continuous
 62
     7
100
AcDbLine
 10
847.3161719598031
 20
419.9904025665027
 30
0.0
 11
847.3161719597991
 21
420.7904025664923
 31
0.0
  0
LINE
  5
62A
330
1F
100
AcDbEntity
  8
0
  6
Continuous
 62
     7
100
AcDbLine
 10
847.3161719597991
 20
420.7904025664923
 30
0.0
 11
846.1161719597992
 21
420.7904025664866
 31
0.0
  0
LINE
  5
62B
330
1F
100
AcDbEntity
  8
0
  6
Continuous
 62
     7
100
AcDbLine
 10
846.1161719597992
 20
420.7904025664866
 30
0.0
 11
846.1161719597932
 21
421.9904025664964
 31
0.0
  0
LINE
  5
62C
330
1F
100
AcDbEntity
  8
0
  6
Continuous
 62
     7
100
AcDbLine
 10
846.1161719597932
 20
421.9904025664964
 30
0.0
 11
846.1161719597932
 21
421.9904025664964
 31
0.0
  0
ARC
  5
62D
330
1F
100
AcDbEntity
  8
0
  6
Continuous
 62
     7
100
AcDbCircle
 10
845.7161695373889
 20
427.9904019562346
 30
0.0
 40
3.0
100
AcDbArc
 50
0.0
 51
180.0
  0
LINE
  5
62E
330
1F
100
AcDbEntity
  8
0
  6
Continuous
 62
     7
100
AcDbLine
 10
846.1161719597932
 20
429.5904025664966
 30
0.0
 11
845.3161719597936
 21
429.5904025664927
 31
0.0
  0
LINE
  5
62F
330
1F
100
AcDbEntity
  8
0
  6
Continuous
 62
     7
100
AcDbLine
 10
845.3161719597936
 20
429.5904025664927
 30
0.0
 11
845.3161719597991
 21
428.3904025664924
 31
0.0
  0
LINE
  5
630
330
1F
100
AcDbEntity
  8
0
  6
Continuous
 62
     7
100
AcDbLine
 10
845.3161719597991
 20
428.3904025664924
 30
0.0
 11
844.1161719597992
 21
428.3904025664765
 31
0.0
  0
LINE
  5
631
330
1F
100
AcDbEntity
  8
0
  6
Continuous
 62
     7
100
AcDbLine
 10
844.1161719597992
 20
428.3904025664765
 30
0.0
 11
844.1161719598031
 21
427.5904025664844
 31
0.0
  0
LINE
  5
632
330
1F
100
AcDbEntity
  8
0
  6
Continuous
 62
     7
100
AcDbLine
 10
844.1161719598031
 20
427.5904025664844
 30
0.0
 11
845.3161719598037
 21
427.5904025664926
 31
0.0
  0
LINE
  5
633
330
1F
100
AcDbEntity
  8
0
  6
Continuous
 62
     7
100
AcDbLine
 10
845.3161719598037
 20
427.5904025664926
 30
0.0
 11
845.3161719598114
 21
426.3904025664824
 31
0.0
  0
LINE
  5
634
330
1F
100
AcDbEntity
  8
0
  6
Continuous
 62
     7
100
AcDbLine
 10
845.3161719598114
 20
426.3904025664824
 30
0.0
 11
846.1161719598111
 21
426.3904025664965
 31
0.0
  0
LINE
  5
635
330
1F
100
AcDbEntity
  8
0
  6
Continuous
 62
     7
100
AcDbLine
 10
846.1161719598111
 20
426.3904025664965
 30
0.0
 11
846.1161719598031
 21
427.5904025664964
 31
0.0
  0
LINE
  5
636
330
1F
100
AcDbEntity
  8
0
  6
Continuous
 62
     7
100
AcDbLine
 10
846.1161719598031
 20
427.5904025664964
 30
0.0
 11
847.3161719598031
 21
427.5904025665027
 31
0.0
  0
LINE
  5
637
330
1F
100
AcDbEntity
  8
0
  6
Continuous
 62
     7
100
AcDbLine
 10
847.3161719598031
 20
427.5904025665027
 30
0.0
 11
847.3161719597991
 21
428.3904025664924
 31
0.0
  0
LINE
  5
638
330
1F
100
AcDbEntity
  8
0
  6
Continuous
 62
     7
100
AcDbLine
 10
847.3161719597991
 20
428.3904025664924
 30
0.0
 11
846.1161719597992
 21
428.3904025664865
 31
0.0
  0
LINE
  5
639
330
1F
100
AcDbEntity
  8
0
  6
Continuous
 62
     7
100
AcDbLine
 10
846.1161719597992
 20
428.3904025664865
 30
0.0
 11
846.1161719597932
 21
429.5904025664966
 31
0.0
  0
LINE
  5
63A
330
1F
100
AcDbEntity
  8
0
  6
Continuous
 62
     7
100
AcDbLine
 10
846.1161719597932
 20
429.5904025664966
 30
0.0
 11
846.1161719597932
 21
429.5904025664966
 31
0.0
  0
CIRCLE
  5
63B
330
1F
100
AcDbEntity
  8
0
  6
Continuous
 62
     7
100
AcDbCircle
 10
845.216169514043
 20
444.3004019561501
 30
0.0
 40
2.750000000000454
  0
LINE
  5
63C
330
1F
100
AcDbEntity
  8
0
  6
Continuous
 62
     7
100
AcDbLine
 10
845.7161695140415
 20
444.8004019561667
 30
0.0
 11
845.7161695140332
 21
446.3004019561786
 31
0.0
  0
LINE
  5
63D
330
1F
100
AcDbEntity
  8
0
  6
Continuous
 62
     7
100
AcDbLine
 10
844.7161695140334
 20
446.3004019561727
 30
0.0
 11
844.7161695140415
 21
444.8004019561726
 31
0.0
  0
CIRCLE
  5
63E
330
1F
100
AcDbEntity
  8
0
  6
Continuous
 62
     7
100
AcDbCircle
 10
845.216169514085
 20
436.6804019561
 30
0.0
 40
2.750000000000678
  0
LINE
  5
63F
330
1F
100
AcDbEntity
  8
0
  6
Continuous
 62
     7
100
AcDbLine
 10
845.7161695140756
 20
438.6804019561288
 30
0.0
 11
845.7161695140756
 21
438.6804019561288
 31
0.0
  0
LINE
  5
640
330
1F
100
AcDbEntity
  8
0
  6
Continuous
 62
     7
100
AcDbLine
 10
845.7161695140831
 20
437.1804019561166
 30
0.0
 11
845.7161695140756
 21
438.6804019561288
 31
0.0
  0
LINE
  5
641
330
1F
100
AcDbEntity
  8
0
  6
Continuous
 62
     7
100
AcDbLine
 10
847.2161695140831
 20
437.1804019561246
 30
0.0
 11
845.7161695140831
 21
437.1804019561166
 31
0.0
  0
LINE
  5
642
330
1F
100
AcDbEntity
  8
0
  6
Continuous
 62
     7
100
AcDbLine
 10
847.2161695140878
 20
436.1804019561366
 30
0.0
 11
847.2161695140831
 21
437.1804019561246
 31
0.0
  0
LINE
  5
643
330
1F
100
AcDbEntity
  8
0
  6
Continuous
 62
     7
100
AcDbLine
 10
845.7161695140877
 20
436.1804019561287
 30
0.0
 11
847.2161695140878
 21
436.1804019561366
 31
0.0
  0
LINE
  5
644
330
1F
100
AcDbEntity
  8
0
  6
Continuous
 62
     7
100
AcDbLine
 10
845.7161695140976
 20
434.6804019561288
 30
0.0
 11
845.7161695140877
 21
436.1804019561287
 31
0.0
  0
LINE
  5
645
330
1F
100
AcDbEntity
  8
0
  6
Continuous
 62
     7
100
AcDbLine
 10
844.7161695140977
 20
434.6804019561107
 30
0.0
 11
845.7161695140976
 21
434.6804019561288
 31
0.0
  0
LINE
  5
646
330
1F
100
AcDbEntity
  8
0
  6
Continuous
 62
     7
100
AcDbLine
 10
844.7161695140877
 20
436.1804019561225
 30
0.0
 11
844.7161695140977
 21
434.6804019561107
 31
0.0
  0
LINE
  5
647
330
1F
100
AcDbEntity
  8
0
  6
Continuous
 62
     7
100
AcDbLine
 10
843.2161695140877
 20
436.1804019561146
 30
0.0
 11
844.7161695140877
 21
436.1804019561225
 31
0.0
  0
LINE
  5
648
330
1F
100
AcDbEntity
  8
0
  6
Continuous
 62
     7
100
AcDbLine
 10
843.2161695140836
 20
437.1804019561024
 30
0.0
 11
843.2161695140877
 21
436.1804019561146
 31
0.0
  0
LINE
  5
649
330
1F
100
AcDbEntity
  8
0
  6
Continuous
 62
     7
100
AcDbLine
 10
844.7161695140831
 20
437.1804019561225
 30
0.0
 11
843.2161695140836
 21
437.1804019561024
 31
0.0
  0
LINE
  5
64A
330
1F
100
AcDbEntity
  8
0
  6
Continuous
 62
     7
100
AcDbLine
 10
844.7161695140756
 20
438.6804019561227
 30
0.0
 11
844.7161695140831
 21
437.1804019561225
 31
0.0
  0
LINE
  5
64B
330
1F
100
AcDbEntity
  8
0
  6
Continuous
 62
     7
100
AcDbLine
 10
845.7161695140756
 20
438.6804019561288
 30
0.0
 11
844.7161695140756
 21
438.6804019561227
 31
0.0
  0
LINE
  5
64C
330
1F
100
AcDbEntity
  8
0
  6
Continuous
 62
     7
100
AcDbLine
 10
847.9661695140856
 20
436.6804019561007
 30
0.0
 11
847.9661695140856
 21
436.6804019561007
 31
0.0
  0
LINE
  5
64D
330
1F
100
AcDbEntity
  8
0
  6
Continuous
 62
     7
100
AcDbLine
 10
847.2161695140416
 20
444.8004019561746
 30
0.0
 11
845.7161695140415
 21
444.8004019561667
 31
0.0
  0
LINE
  5
64E
330
1F
100
AcDbEntity
  8
0
  6
Continuous
 62
     7
100
AcDbLine
 10
847.2161695140476
 20
443.8004019561867
 30
0.0
 11
847.2161695140416
 21
444.8004019561746
 31
0.0
  0
LINE
  5
64F
330
1F
100
AcDbEntity
  8
0
  6
Continuous
 62
     7
100
AcDbLine
 10
845.7161695140477
 20
443.8004019561787
 30
0.0
 11
847.2161695140476
 21
443.8004019561867
 31
0.0
  0
LINE
  5
650
330
1F
100
AcDbEntity
  8
0
  6
Continuous
 62
     7
100
AcDbLine
 10
845.7161695140554
 20
442.3004019561786
 30
0.0
 11
845.7161695140477
 21
443.8004019561787
 31
0.0
  0
LINE
  5
651
330
1F
100
AcDbEntity
  8
0
  6
Continuous
 62
     7
100
AcDbLine
 10
844.7161695140556
 20
442.3004019561608
 30
0.0
 11
845.7161695140554
 21
442.3004019561786
 31
0.0
  0
LINE
  5
652
330
1F
100
AcDbEntity
  8
0
  6
Continuous
 62
     7
100
AcDbLine
 10
844.7161695140476
 20
443.8004019561725
 30
0.0
 11
844.7161695140556
 21
442.3004019561608
 31
0.0
  0
LINE
  5
653
330
1F
100
AcDbEntity
  8
0
  6
Continuous
 62
     7
100
AcDbLine
 10
843.216169514047
 20
443.8004019561646
 30
0.0
 11
844.7161695140476
 21
443.8004019561725
 31
0.0
  0
LINE
  5
654
330
1F
100
AcDbEntity
  8
0
  6
Continuous
 62
     7
100
AcDbLine
 10
843.2161695140415
 20
444.8004019561524
 30
0.0
 11
843.216169514047
 21
443.8004019561646
 31
0.0
  0
LINE
  5
655
330
1F
100
AcDbEntity
  8
0
  6
Continuous
 62
     7
100
AcDbLine
 10
844.7161695140415
 20
444.8004019561726
 30
0.0
 11
843.2161695140415
 21
444.8004019561524
 31
0.0
  0
LINE
  5
656
330
1F
100
AcDbEntity
  8
0
  6
Continuous
 62
     7
100
AcDbLine
 10
847.9661695140434
 20
444.3004019561507
 30
0.0
 11
847.9661695140434
 21
444.3004019561507
 31
0.0
  0
CIRCLE
  5
657
330
1F
100
AcDbEntity
  8
0
  6
Continuous
 62
     7
100
AcDbCircle
 10
845.2161695140011
 20
451.9204019561441
 30
0.0
 40
2.750000000000454
  0
LINE
  5
658
330
1F
100
AcDbEntity
  8
0
  6
Continuous
 62
     7
100
AcDbLine
 10
845.7161695140332
 20
446.3004019561786
 30
0.0
 11
845.7161695140332
 21
446.3004019561786
 31
0.0
  0
LINE
  5
659
330
1F
100
AcDbEntity
  8
0
  6
Continuous
 62
     7
100
AcDbLine
 10
845.7161695140332
 20
446.3004019561786
 30
0.0
 11
844.7161695140334
 21
446.3004019561727
 31
0.0
  0
LINE
  5
65A
330
1F
100
AcDbEntity
  8
0
  6
Continuous
 62
     7
100
AcDbLine
 10
845.7161695139911
 20
453.9204019561704
 30
0.0
 11
845.7161695139911
 21
453.9204019561704
 31
0.0
  0
LINE
  5
65B
330
1F
100
AcDbEntity
  8
0
  6
Continuous
 62
     7
100
AcDbLine
 10
845.7161695139998
 20
452.4204019561604
 30
0.0
 11
845.7161695139911
 21
453.9204019561704
 31
0.0
  0
LINE
  5
65C
330
1F
100
AcDbEntity
  8
0
  6
Continuous
 62
     7
100
AcDbLine
 10
847.2161695139996
 20
452.4204019561684
 30
0.0
 11
845.7161695139998
 21
452.4204019561604
 31
0.0
  0
LINE
  5
65D
330
1F
100
AcDbEntity
  8
0
  6
Continuous
 62
     7
100
AcDbLine
 10
847.2161695140052
 20
451.4204019561804
 30
0.0
 11
847.2161695139996
 21
452.4204019561684
 31
0.0
  0
LINE
  5
65E
330
1F
100
AcDbEntity
  8
0
  6
Continuous
 62
     7
100
AcDbLine
 10
845.7161695140051
 20
451.4204019561725
 30
0.0
 11
847.2161695140052
 21
451.4204019561804
 31
0.0
  0
LINE
  5
65F
330
1F
100
AcDbEntity
  8
0
  6
Continuous
 62
     7
100
AcDbLine
 10
845.7161695140131
 20
449.9204019561704
 30
0.0
 11
845.7161695140051
 21
451.4204019561725
 31
0.0
  0
LINE
  5
660
330
1F
100
AcDbEntity
  8
0
  6
Continuous
 62
     7
100
AcDbLine
 10
844.7161695140131
 20
449.9204019561546
 30
0.0
 11
845.7161695140131
 21
449.9204019561704
 31
0.0
  0
LINE
  5
661
330
1F
100
AcDbEntity
  8
0
  6
Continuous
 62
     7
100
AcDbLine
 10
844.7161695140051
 20
451.4204019561667
 30
0.0
 11
844.7161695140131
 21
449.9204019561546
 31
0.0
  0
LINE
  5
662
330
1F
100
AcDbEntity
  8
0
  6
Continuous
 62
     7
100
AcDbLine
 10
843.2161695140056
 20
451.4204019561587
 30
0.0
 11
844.7161695140051
 21
451.4204019561667
 31
0.0
  0
LINE
  5
663
330
1F
100
AcDbEntity
  8
0
  6
Continuous
 62
     7
100
AcDbLine
 10
843.2161695139997
 20
452.4204019561467
 30
0.0
 11
843.2161695140056
 21
451.4204019561587
 31
0.0
  0
LINE
  5
664
330
1F
100
AcDbEntity
  8
0
  6
Continuous
 62
     7
100
AcDbLine
 10
844.7161695139996
 20
452.4204019561667
 30
0.0
 11
843.2161695139997
 21
452.4204019561467
 31
0.0
  0
LINE
  5
665
330
1F
100
AcDbEntity
  8
0
  6
Continuous
 62
     7
100
AcDbLine
 10
844.7161695139904
 20
453.9204019561664
 30
0.0
 11
844.7161695139996
 21
452.4204019561667
 31
0.0
  0
LINE
  5
666
330
1F
100
AcDbEntity
  8
0
  6
Continuous
 62
     7
100
AcDbLine
 10
845.7161695139911
 20
453.9204019561704
 30
0.0
 11
844.7161695139904
 21
453.9204019561664
 31
0.0
  0
LINE
  5
667
330
1F
100
AcDbEntity
  8
0
  6
Continuous
 62
     7
100
AcDbLine
 10
847.966169514002
 20
451.9204019561448
 30
0.0
 11
847.966169514002
 21
451.9204019561448
 31
0.0
  0
CIRCLE
  5
668
330
1F
100
AcDbEntity
  8
0
  6
Continuous
 62
     7
100
AcDbCircle
 10
845.2161695137087
 20
505.2604019562381
 30
0.0
 40
2.750000000000454
  0
CIRCLE
  5
669
330
1F
100
AcDbEntity
  8
0
  6
Continuous
 62
     7
100
AcDbCircle
 10
845.216169513835
 20
482.4004019561441
 30
0.0
 40
2.750000000000454
  0
CIRCLE
  5
66A
330
1F
100
AcDbEntity
  8
0
  6
Continuous
 62
     7
100
AcDbCircle
 10
845.216169513919
 20
467.1604019561441
 30
0.0
 40
2.750000000000454
  0
LINE
  5
66B
330
1F
100
AcDbEntity
  8
0
  6
Continuous
 62
     7
100
AcDbLine
 10
845.7161695139156
 20
467.6604019561604
 30
0.0
 11
845.7161695139076
 21
469.1604019561704
 31
0.0
  0
LINE
  5
66C
330
1F
100
AcDbEntity
  8
0
  6
Continuous
 62
     7
100
AcDbLine
 10
844.7161695139076
 20
469.1604019561667
 30
0.0
 11
844.7161695139151
 21
467.6604019561668
 31
0.0
  0
LINE
  5
66D
330
1F
100
AcDbEntity
  8
0
  6
Continuous
 62
     7
100
AcDbLine
 10
845.7161695139497
 20
461.5404019562207
 30
0.0
 11
845.7161695139497
 21
461.5404019562207
 31
0.0
  0
LINE
  5
66E
330
1F
100
AcDbEntity
  8
0
  6
Continuous
 62
     7
100
AcDbLine
 10
845.716169513957
 20
460.0404019562106
 30
0.0
 11
845.7161695139497
 21
461.5404019562207
 31
0.0
  0
LINE
  5
66F
330
1F
100
AcDbEntity
  8
0
  6
Continuous
 62
     7
100
AcDbLine
 10
847.2161695139574
 20
460.0404019562184
 30
0.0
 11
845.716169513957
 21
460.0404019562106
 31
0.0
  0
LINE
  5
670
330
1F
100
AcDbEntity
  8
0
  6
Continuous
 62
     7
100
AcDbLine
 10
847.2161695139636
 20
459.0404019562305
 30
0.0
 11
847.2161695139574
 21
460.0404019562184
 31
0.0
  0
LINE
  5
671
330
1F
100
AcDbEntity
  8
0
  6
Continuous
 62
     7
100
AcDbLine
 10
845.7161695139635
 20
459.0404019562225
 30
0.0
 11
847.2161695139636
 21
459.0404019562305
 31
0.0
  0
LINE
  5
672
330
1F
100
AcDbEntity
  8
0
  6
Continuous
 62
     7
100
AcDbLine
 10
845.7161695139715
 20
457.5404019562204
 30
0.0
 11
845.7161695139635
 21
459.0404019562225
 31
0.0
  0
LINE
  5
673
330
1F
100
AcDbEntity
  8
0
  6
Continuous
 62
     7
100
AcDbLine
 10
844.7161695139715
 20
457.5404019562044
 30
0.0
 11
845.7161695139715
 21
457.5404019562204
 31
0.0
  0
LINE
  5
674
330
1F
100
AcDbEntity
  8
0
  6
Continuous
 62
     7
100
AcDbLine
 10
844.7161695139635
 20
459.0404019562168
 30
0.0
 11
844.7161695139715
 21
457.5404019562044
 31
0.0
  0
LINE
  5
675
330
1F
100
AcDbEntity
  8
0
  6
Continuous
 62
     7
100
AcDbLine
 10
843.2161695139635
 20
459.0404019562087
 30
0.0
 11
844.7161695139635
 21
459.0404019562168
 31
0.0
  0
LINE
  5
676
330
1F
100
AcDbEntity
  8
0
  6
Continuous
 62
     7
100
AcDbLine
 10
843.2161695139576
 20
460.0404019561966
 30
0.0
 11
843.2161695139635
 21
459.0404019562087
 31
0.0
  0
LINE
  5
677
330
1F
100
AcDbEntity
  8
0
  6
Continuous
 62
     7
100
AcDbLine
 10
844.716169513957
 20
460.0404019562168
 30
0.0
 11
843.2161695139576
 21
460.0404019561966
 31
0.0
  0
LINE
  5
678
330
1F
100
AcDbEntity
  8
0
  6
Continuous
 62
     7
100
AcDbLine
 10
844.7161695139492
 20
461.5404019562164
 30
0.0
 11
844.716169513957
 21
460.0404019562168
 31
0.0
  0
LINE
  5
679
330
1F
100
AcDbEntity
  8
0
  6
Continuous
 62
     7
100
AcDbLine
 10
845.7161695139497
 20
461.5404019562207
 30
0.0
 11
844.7161695139492
 21
461.5404019562164
 31
0.0
  0
LINE
  5
67A
330
1F
100
AcDbEntity
  8
0
  6
Continuous
 62
     7
100
AcDbLine
 10
847.9661695139592
 20
459.5404019561946
 30
0.0
 11
847.9661695139592
 21
459.5404019561946
 31
0.0
  0
LINE
  5
67B
330
1F
100
AcDbEntity
  8
0
  6
Continuous
 62
     7
100
AcDbLine
 10
847.2161695139151
 20
467.6604019561684
 30
0.0
 11
845.7161695139156
 21
467.6604019561604
 31
0.0
  0
LINE
  5
67C
330
1F
100
AcDbEntity
  8
0
  6
Continuous
 62
     7
100
AcDbLine
 10
847.2161695139213
 20
466.6604019561805
 30
0.0
 11
847.2161695139151
 21
467.6604019561684
 31
0.0
  0
LINE
  5
67D
330
1F
100
AcDbEntity
  8
0
  6
Continuous
 62
     7
100
AcDbLine
 10
845.7161695139213
 20
466.6604019561725
 30
0.0
 11
847.2161695139213
 21
466.6604019561805
 31
0.0
  0
LINE
  5
67E
330
1F
100
AcDbEntity
  8
0
  6
Continuous
 62
     7
100
AcDbLine
 10
845.7161695139296
 20
465.1604019561704
 30
0.0
 11
845.7161695139213
 21
466.6604019561725
 31
0.0
  0
LINE
  5
67F
330
1F
100
AcDbEntity
  8
0
  6
Continuous
 62
     7
100
AcDbLine
 10
844.7161695139296
 20
465.1604019561546
 30
0.0
 11
845.7161695139296
 21
465.1604019561704
 31
0.0
  0
LINE
  5
680
330
1F
100
AcDbEntity
  8
0
  6
Continuous
 62
     7
100
AcDbLine
 10
844.7161695139213
 20
466.6604019561667
 30
0.0
 11
844.7161695139296
 21
465.1604019561546
 31
0.0
  0
LINE
  5
681
330
1F
100
AcDbEntity
  8
0
  6
Continuous
 62
     7
100
AcDbLine
 10
843.2161695139212
 20
466.6604019561587
 30
0.0
 11
844.7161695139213
 21
466.6604019561667
 31
0.0
  0
LINE
  5
682
330
1F
100
AcDbEntity
  8
0
  6
Continuous
 62
     7
100
AcDbLine
 10
843.2161695139154
 20
467.6604019561467
 30
0.0
 11
843.2161695139212
 21
466.6604019561587
 31
0.0
  0
LINE
  5
683
330
1F
100
AcDbEntity
  8
0
  6
Continuous
 62
     7
100
AcDbLine
 10
844.7161695139151
 20
467.6604019561668
 30
0.0
 11
843.2161695139154
 21
467.6604019561467
 31
0.0
  0
LINE
  5
684
330
1F
100
AcDbEntity
  8
0
  6
Continuous
 62
     7
100
AcDbLine
 10
847.9661695139194
 20
467.1604019561446
 30
0.0
 11
847.9661695139194
 21
467.1604019561446
 31
0.0
  0
CIRCLE
  5
685
330
1F
100
AcDbEntity
  8
0
  6
Continuous
 62
     7
100
AcDbCircle
 10
845.2161695138766
 20
474.780401956194
 30
0.0
 40
2.750000000000454
  0
LINE
  5
686
330
1F
100
AcDbEntity
  8
0
  6
Continuous
 62
     7
100
AcDbLine
 10
845.7161695139076
 20
469.1604019561704
 30
0.0
 11
845.7161695139076
 21
469.1604019561704
 31
0.0
  0
LINE
  5
687
330
1F
100
AcDbEntity
  8
0
  6
Continuous
 62
     7
100
AcDbLine
 10
845.7161695139076
 20
469.1604019561704
 30
0.0
 11
844.7161695139076
 21
469.1604019561667
 31
0.0
  0
LINE
  5
688
330
1F
100
AcDbEntity
  8
0
  6
Continuous
 62
     7
100
AcDbLine
 10
845.7161695138658
 20
476.7804019562204
 30
0.0
 11
845.7161695138658
 21
476.7804019562204
 31
0.0
  0
LINE
  5
689
330
1F
100
AcDbEntity
  8
0
  6
Continuous
 62
     7
100
AcDbLine
 10
845.7161695138735
 20
475.2804019562105
 30
0.0
 11
845.7161695138658
 21
476.7804019562204
 31
0.0
  0
LINE
  5
68A
330
1F
100
AcDbEntity
  8
0
  6
Continuous
 62
     7
100
AcDbLine
 10
847.2161695138735
 20
475.2804019562185
 30
0.0
 11
845.7161695138735
 21
475.2804019562105
 31
0.0
  0
LINE
  5
68B
330
1F
100
AcDbEntity
  8
0
  6
Continuous
 62
     7
100
AcDbLine
 10
847.2161695138794
 20
474.2804019562306
 30
0.0
 11
847.2161695138735
 21
475.2804019562185
 31
0.0
  0
LINE
  5
68C
330
1F
100
AcDbEntity
  8
0
  6
Continuous
 62
     7
100
AcDbLine
 10
845.7161695138792
 20
474.2804019562226
 30
0.0
 11
847.2161695138794
 21
474.2804019562306
 31
0.0
  0
LINE
  5
68D
330
1F
100
AcDbEntity
  8
0
  6
Continuous
 62
     7
100
AcDbLine
 10
845.7161695138871
 20
472.7804019562204
 30
0.0
 11
845.7161695138792
 21
474.2804019562226
 31
0.0
  0
LINE
  5
68E
330
1F
100
AcDbEntity
  8
0
  6
Continuous
 62
     7
100
AcDbLine
 10
844.7161695138872
 20
472.7804019562047
 30
0.0
 11
845.7161695138871
 21
472.7804019562204
 31
0.0
  0
LINE
  5
68F
330
1F
100
AcDbEntity
  8
0
  6
Continuous
 62
     7
100
AcDbLine
 10
844.7161695138792
 20
474.2804019562168
 30
0.0
 11
844.7161695138872
 21
472.7804019562047
 31
0.0
  0
LINE
  5
690
330
1F
100
AcDbEntity
  8
0
  6
Continuous
 62
     7
100
AcDbLine
 10
843.2161695138796
 20
474.2804019562087
 30
0.0
 11
844.7161695138792
 21
474.2804019562168
 31
0.0
  0
LINE
  5
691
330
1F
100
AcDbEntity
  8
0
  6
Continuous
 62
     7
100
AcDbLine
 10
843.216169513874
 20
475.2804019561966
 30
0.0
 11
843.2161695138796
 21
474.2804019562087
 31
0.0
  0
LINE
  5
692
330
1F
100
AcDbEntity
  8
0
  6
Continuous
 62
     7
100
AcDbLine
 10
844.7161695138735
 20
475.2804019562168
 30
0.0
 11
843.216169513874
 21
475.2804019561966
 31
0.0
  0
LINE
  5
693
330
1F
100
AcDbEntity
  8
0
  6
Continuous
 62
     7
100
AcDbLine
 10
844.7161695138655
 20
476.7804019562164
 30
0.0
 11
844.7161695138735
 21
475.2804019562168
 31
0.0
  0
LINE
  5
694
330
1F
100
AcDbEntity
  8
0
  6
Continuous
 62
     7
100
AcDbLine
 10
845.7161695138658
 20
476.7804019562204
 30
0.0
 11
844.7161695138655
 21
476.7804019562164
 31
0.0
  0
LINE
  5
695
330
1F
100
AcDbEntity
  8
0
  6
Continuous
 62
     7
100
AcDbLine
 10
847.9661695138771
 20
474.7804019561946
 30
0.0
 11
847.9661695138771
 21
474.7804019561946
 31
0.0
  0
CIRCLE
  5
696
330
1F
100
AcDbEntity
  8
0
  6
Continuous
 62
     7
100
AcDbCircle
 10
845.2161695137927
 20
490.0204019561941
 30
0.0
 40
2.750000000000454
  0
LINE
  5
697
330
1F
100
AcDbEntity
  8
0
  6
Continuous
 62
     7
100
AcDbLine
 10
845.7161695137916
 20
490.5204019562105
 30
0.0
 11
845.7161695137816
 21
492.0204019562207
 31
0.0
  0
LINE
  5
698
330
1F
100
AcDbEntity
  8
0
  6
Continuous
 62
     7
100
AcDbLine
 10
844.7161695137817
 20
492.0204019562167
 30
0.0
 11
844.7161695137916
 21
490.5204019562168
 31
0.0
  0
LINE
  5
699
330
1F
100
AcDbEntity
  8
0
  6
Continuous
 62
     7
100
AcDbLine
 10
845.7161695138237
 20
484.4004019561704
 30
0.0
 11
845.7161695138237
 21
484.4004019561704
 31
0.0
  0
LINE
  5
69A
330
1F
100
AcDbEntity
  8
0
  6
Continuous
 62
     7
100
AcDbLine
 10
845.7161695138317
 20
482.9004019561605
 30
0.0
 11
845.7161695138237
 21
484.4004019561704
 31
0.0
  0
LINE
  5
69B
330
1F
100
AcDbEntity
  8
0
  6
Continuous
 62
     7
100
AcDbLine
 10
847.2161695138316
 20
482.9004019561684
 30
0.0
 11
845.7161695138317
 21
482.9004019561605
 31
0.0
  0
LINE
  5
69C
330
1F
100
AcDbEntity
  8
0
  6
Continuous
 62
     7
100
AcDbLine
 10
847.2161695138371
 20
481.9004019561804
 30
0.0
 11
847.2161695138316
 21
482.9004019561684
 31
0.0
  0
LINE
  5
69D
330
1F
100
AcDbEntity
  8
0
  6
Continuous
 62
     7
100
AcDbLine
 10
845.7161695138376
 20
481.9004019561726
 30
0.0
 11
847.2161695138371
 21
481.9004019561804
 31
0.0
  0
LINE
  5
69E
330
1F
100
AcDbEntity
  8
0
  6
Continuous
 62
     7
100
AcDbLine
 10
845.7161695138458
 20
480.4004019561704
 30
0.0
 11
845.7161695138376
 21
481.9004019561726
 31
0.0
  0
LINE
  5
69F
330
1F
100
AcDbEntity
  8
0
  6
Continuous
 62
     7
100
AcDbLine
 10
844.7161695138458
 20
480.4004019561546
 30
0.0
 11
845.7161695138458
 21
480.4004019561704
 31
0.0
  0
LINE
  5
6A0
330
1F
100
AcDbEntity
  8
0
  6
Continuous
 62
     7
100
AcDbLine
 10
844.7161695138371
 20
481.9004019561667
 30
0.0
 11
844.7161695138458
 21
480.4004019561546
 31
0.0
  0
LINE
  5
6A1
330
1F
100
AcDbEntity
  8
0
  6
Continuous
 62
     7
100
AcDbLine
 10
843.2161695138374
 20
481.9004019561587
 30
0.0
 11
844.7161695138371
 21
481.9004019561667
 31
0.0
  0
LINE
  5
6A2
330
1F
100
AcDbEntity
  8
0
  6
Continuous
 62
     7
100
AcDbLine
 10
843.2161695138312
 20
482.9004019561467
 30
0.0
 11
843.2161695138374
 21
481.9004019561587
 31
0.0
  0
LINE
  5
6A3
330
1F
100
AcDbEntity
  8
0
  6
Continuous
 62
     7
100
AcDbLine
 10
844.7161695138316
 20
482.9004019561668
 30
0.0
 11
843.2161695138312
 21
482.9004019561467
 31
0.0
  0
LINE
  5
6A4
330
1F
100
AcDbEntity
  8
0
  6
Continuous
 62
     7
100
AcDbLine
 10
844.7161695138238
 20
484.4004019561667
 30
0.0
 11
844.7161695138316
 21
482.9004019561668
 31
0.0
  0
LINE
  5
6A5
330
1F
100
AcDbEntity
  8
0
  6
Continuous
 62
     7
100
AcDbLine
 10
845.7161695138237
 20
484.4004019561704
 30
0.0
 11
844.7161695138238
 21
484.4004019561667
 31
0.0
  0
LINE
  5
6A6
330
1F
100
AcDbEntity
  8
0
  6
Continuous
 62
     7
100
AcDbLine
 10
847.9661695138355
 20
482.4004019561447
 30
0.0
 11
847.9661695138355
 21
482.4004019561447
 31
0.0
  0
LINE
  5
6A7
330
1F
100
AcDbEntity
  8
0
  6
Continuous
 62
     7
100
AcDbLine
 10
847.2161695137916
 20
490.5204019562187
 30
0.0
 11
845.7161695137916
 21
490.5204019562105
 31
0.0
  0
LINE
  5
6A8
330
1F
100
AcDbEntity
  8
0
  6
Continuous
 62
     7
100
AcDbLine
 10
847.2161695137955
 20
489.5204019562306
 30
0.0
 11
847.2161695137916
 21
490.5204019562187
 31
0.0
  0
LINE
  5
6A9
330
1F
100
AcDbEntity
  8
0
  6
Continuous
 62
     7
100
AcDbLine
 10
845.7161695137955
 20
489.5204019562227
 30
0.0
 11
847.2161695137955
 21
489.5204019562306
 31
0.0
  0
LINE
  5
6AA
330
1F
100
AcDbEntity
  8
0
  6
Continuous
 62
     7
100
AcDbLine
 10
845.7161695138035
 20
488.0204019562207
 30
0.0
 11
845.7161695137955
 21
489.5204019562227
 31
0.0
  0
LINE
  5
6AB
330
1F
100
AcDbEntity
  8
0
  6
Continuous
 62
     7
100
AcDbLine
 10
844.7161695138035
 20
488.0204019562047
 30
0.0
 11
845.7161695138035
 21
488.0204019562207
 31
0.0
  0
LINE
  5
6AC
330
1F
100
AcDbEntity
  8
0
  6
Continuous
 62
     7
100
AcDbLine
 10
844.7161695137955
 20
489.5204019562168
 30
0.0
 11
844.7161695138035
 21
488.0204019562047
 31
0.0
  0
LINE
  5
6AD
330
1F
100
AcDbEntity
  8
0
  6
Continuous
 62
     7
100
AcDbLine
 10
843.216169513796
 20
489.5204019562087
 30
0.0
 11
844.7161695137955
 21
489.5204019562168
 31
0.0
  0
LINE
  5
6AE
330
1F
100
AcDbEntity
  8
0
  6
Continuous
 62
     7
100
AcDbLine
 10
843.2161695137914
 20
490.5204019561966
 30
0.0
 11
843.216169513796
 21
489.5204019562087
 31
0.0
  0
LINE
  5
6AF
330
1F
100
AcDbEntity
  8
0
  6
Continuous
 62
     7
100
AcDbLine
 10
844.7161695137916
 20
490.5204019562168
 30
0.0
 11
843.2161695137914
 21
490.5204019561966
 31
0.0
  0
LINE
  5
6B0
330
1F
100
AcDbEntity
  8
0
  6
Continuous
 62
     7
100
AcDbLine
 10
847.9661695137936
 20
490.0204019561946
 30
0.0
 11
847.9661695137936
 21
490.0204019561946
 31
0.0
  0
CIRCLE
  5
6B1
330
1F
100
AcDbEntity
  8
0
  6
Continuous
 62
     7
100
AcDbCircle
 10
845.216169513751
 20
497.6404019562381
 30
0.0
 40
2.750000000000226
  0
LINE
  5
6B2
330
1F
100
AcDbEntity
  8
0
  6
Continuous
 62
     7
100
AcDbLine
 10
845.7161695137816
 20
492.0204019562207
 30
0.0
 11
845.7161695137816
 21
492.0204019562207
 31
0.0
  0
LINE
  5
6B3
330
1F
100
AcDbEntity
  8
0
  6
Continuous
 62
     7
100
AcDbLine
 10
845.7161695137816
 20
492.0204019562207
 30
0.0
 11
844.7161695137817
 21
492.0204019562167
 31
0.0
  0
LINE
  5
6B4
330
1F
100
AcDbEntity
  8
0
  6
Continuous
 62
     7
100
AcDbLine
 10
845.7161695137411
 20
499.6404019562646
 30
0.0
 11
845.7161695137411
 21
499.6404019562646
 31
0.0
  0
LINE
  5
6B5
330
1F
100
AcDbEntity
  8
0
  6
Continuous
 62
     7
100
AcDbLine
 10
845.7161695137491
 20
498.1404019562526
 30
0.0
 11
845.7161695137411
 21
499.6404019562646
 31
0.0
  0
LINE
  5
6B6
330
1F
100
AcDbEntity
  8
0
  6
Continuous
 62
     7
100
AcDbLine
 10
847.2161695137494
 20
498.1404019562623
 30
0.0
 11
845.7161695137491
 21
498.1404019562526
 31
0.0
  0
LINE
  5
6B7
330
1F
100
AcDbEntity
  8
0
  6
Continuous
 62
     7
100
AcDbLine
 10
847.2161695137536
 20
497.1404019562727
 30
0.0
 11
847.2161695137494
 21
498.1404019562623
 31
0.0
  0
LINE
  5
6B8
330
1F
100
AcDbEntity
  8
0
  6
Continuous
 62
     7
100
AcDbLine
 10
845.7161695137537
 20
497.1404019562664
 30
0.0
 11
847.2161695137536
 21
497.1404019562727
 31
0.0
  0
LINE
  5
6B9
330
1F
100
AcDbEntity
  8
0
  6
Continuous
 62
     7
100
AcDbLine
 10
845.7161695137614
 20
495.6404019562646
 30
0.0
 11
845.7161695137537
 21
497.1404019562664
 31
0.0
  0
LINE
  5
6BA
330
1F
100
AcDbEntity
  8
0
  6
Continuous
 62
     7
100
AcDbLine
 10
844.7161695137616
 20
495.6404019562484
 30
0.0
 11
845.7161695137614
 21
495.6404019562646
 31
0.0
  0
LINE
  5
6BB
330
1F
100
AcDbEntity
  8
0
  6
Continuous
 62
     7
100
AcDbLine
 10
844.7161695137536
 20
497.1404019562607
 30
0.0
 11
844.7161695137616
 21
495.6404019562484
 31
0.0
  0
LINE
  5
6BC
330
1F
100
AcDbEntity
  8
0
  6
Continuous
 62
     7
100
AcDbLine
 10
843.216169513753
 20
497.1404019562506
 30
0.0
 11
844.7161695137536
 21
497.1404019562607
 31
0.0
  0
LINE
  5
6BD
330
1F
100
AcDbEntity
  8
0
  6
Continuous
 62
     7
100
AcDbLine
 10
843.2161695137491
 20
498.1404019562408
 30
0.0
 11
843.216169513753
 21
497.1404019562506
 31
0.0
  0
LINE
  5
6BE
330
1F
100
AcDbEntity
  8
0
  6
Continuous
 62
     7
100
AcDbLine
 10
844.7161695137491
 20
498.1404019562607
 30
0.0
 11
843.2161695137491
 21
498.1404019562408
 31
0.0
  0
LINE
  5
6BF
330
1F
100
AcDbEntity
  8
0
  6
Continuous
 62
     7
100
AcDbLine
 10
844.7161695137411
 20
499.6404019562606
 30
0.0
 11
844.7161695137491
 21
498.1404019562607
 31
0.0
  0
LINE
  5
6C0
330
1F
100
AcDbEntity
  8
0
  6
Continuous
 62
     7
100
AcDbLine
 10
845.7161695137411
 20
499.6404019562646
 30
0.0
 11
844.7161695137411
 21
499.6404019562606
 31
0.0
  0
LINE
  5
6C1
330
1F
100
AcDbEntity
  8
0
  6
Continuous
 62
     7
100
AcDbLine
 10
847.966169513751
 20
497.6404019562384
 30
0.0
 11
847.966169513751
 21
497.6404019562384
 31
0.0
  0
CIRCLE
  5
6C2
330
1F
100
AcDbEntity
  8
0
  6
Continuous
 62
     7
370
     0
100
AcDbCircle
 10
845.7161695373889
 20
525.6904019562339
 30
0.0
 40
3.000000000000449
  0
LINE
  5
6C3
330
1F
100
AcDbEntity
  8
0
  6
Continuous
 62
     7
100
AcDbLine
 10
846.1161719597992
 20
526.0904025664864
 30
0.0
 11
846.1161719597932
 21
527.2904025664968
 31
0.0
  0
LINE
  5
6C4
330
1F
100
AcDbEntity
  8
0
  6
Continuous
 62
     7
100
AcDbLine
 10
845.3161719597936
 20
527.2904025664924
 30
0.0
 11
845.3161719597991
 21
526.0904025664924
 31
0.0
  0
CIRCLE
  5
6C5
330
1F
100
AcDbEntity
  8
0
  6
Continuous
 62
     7
100
AcDbCircle
 10
845.216169513667
 20
512.8804019561441
 30
0.0
 40
2.750000000000454
  0
LINE
  5
6C6
330
1F
100
AcDbEntity
  8
0
  6
Continuous
 62
     7
100
AcDbLine
 10
845.7161695136656
 20
513.3804019561607
 30
0.0
 11
845.7161695136573
 21
514.8804019561707
 31
0.0
  0
LINE
  5
6C7
330
1F
100
AcDbEntity
  8
0
  6
Continuous
 62
     7
100
AcDbLine
 10
844.7161695136573
 20
514.8804019561667
 30
0.0
 11
844.7161695136657
 21
513.3804019561666
 31
0.0
  0
LINE
  5
6C8
330
1F
100
AcDbEntity
  8
0
  6
Continuous
 62
     7
100
AcDbLine
 10
845.7161695136994
 20
507.2604019562644
 30
0.0
 11
845.7161695136994
 21
507.2604019562644
 31
0.0
  0
LINE
  5
6C9
330
1F
100
AcDbEntity
  8
0
  6
Continuous
 62
     7
100
AcDbLine
 10
845.7161695137079
 20
505.7604019562525
 30
0.0
 11
845.7161695136994
 21
507.2604019562644
 31
0.0
  0
LINE
  5
6CA
330
1F
100
AcDbEntity
  8
0
  6
Continuous
 62
     7
100
AcDbLine
 10
847.216169513708
 20
505.7604019562623
 30
0.0
 11
845.7161695137079
 21
505.7604019562525
 31
0.0
  0
LINE
  5
6CB
330
1F
100
AcDbEntity
  8
0
  6
Continuous
 62
     7
100
AcDbLine
 10
847.2161695137112
 20
504.7604019562727
 30
0.0
 11
847.216169513708
 21
505.7604019562623
 31
0.0
  0
LINE
  5
6CC
330
1F
100
AcDbEntity
  8
0
  6
Continuous
 62
     7
100
AcDbLine
 10
845.7161695137111
 20
504.7604019562665
 30
0.0
 11
847.2161695137112
 21
504.7604019562727
 31
0.0
  0
LINE
  5
6CD
330
1F
100
AcDbEntity
  8
0
  6
Continuous
 62
     7
100
AcDbLine
 10
845.7161695137216
 20
503.2604019562646
 30
0.0
 11
845.7161695137111
 21
504.7604019562665
 31
0.0
  0
LINE
  5
6CE
330
1F
100
AcDbEntity
  8
0
  6
Continuous
 62
     7
100
AcDbLine
 10
844.7161695137216
 20
503.2604019562485
 30
0.0
 11
845.7161695137216
 21
503.2604019562646
 31
0.0
  0
LINE
  5
6CF
330
1F
100
AcDbEntity
  8
0
  6
Continuous
 62
     7
100
AcDbLine
 10
844.7161695137111
 20
504.7604019562604
 30
0.0
 11
844.7161695137216
 21
503.2604019562485
 31
0.0
  0
LINE
  5
6D0
330
1F
100
AcDbEntity
  8
0
  6
Continuous
 62
     7
100
AcDbLine
 10
843.2161695137116
 20
504.7604019562525
 30
0.0
 11
844.7161695137111
 21
504.7604019562604
 31
0.0
  0
LINE
  5
6D1
330
1F
100
AcDbEntity
  8
0
  6
Continuous
 62
     7
100
AcDbLine
 10
843.2161695137075
 20
505.7604019562407
 30
0.0
 11
843.2161695137116
 21
504.7604019562525
 31
0.0
  0
LINE
  5
6D2
330
1F
100
AcDbEntity
  8
0
  6
Continuous
 62
     7
100
AcDbLine
 10
844.7161695137081
 20
505.7604019562607
 30
0.0
 11
843.2161695137075
 21
505.7604019562407
 31
0.0
  0
LINE
  5
6D3
330
1F
100
AcDbEntity
  8
0
  6
Continuous
 62
     7
100
AcDbLine
 10
844.716169513699
 20
507.2604019562604
 30
0.0
 11
844.7161695137081
 21
505.7604019562607
 31
0.0
  0
LINE
  5
6D4
330
1F
100
AcDbEntity
  8
0
  6
Continuous
 62
     7
100
AcDbLine
 10
845.7161695136994
 20
507.2604019562644
 30
0.0
 11
844.716169513699
 21
507.2604019562604
 31
0.0
  0
LINE
  5
6D5
330
1F
100
AcDbEntity
  8
0
  6
Continuous
 62
     7
100
AcDbLine
 10
847.9661695137091
 20
505.2604019562384
 30
0.0
 11
847.9661695137091
 21
505.2604019562384
 31
0.0
  0
LINE
  5
6D6
330
1F
100
AcDbEntity
  8
0
  6
Continuous
 62
     7
100
AcDbLine
 10
847.2161695136657
 20
513.3804019561686
 30
0.0
 11
845.7161695136656
 21
513.3804019561607
 31
0.0
  0
LINE
  5
6D7
330
1F
100
AcDbEntity
  8
0
  6
Continuous
 62
     7
100
AcDbLine
 10
847.2161695136714
 20
512.3804019561807
 30
0.0
 11
847.2161695136657
 21
513.3804019561686
 31
0.0
  0
LINE
  5
6D8
330
1F
100
AcDbEntity
  8
0
  6
Continuous
 62
     7
100
AcDbLine
 10
845.7161695136711
 20
512.3804019561727
 30
0.0
 11
847.2161695136714
 21
512.3804019561807
 31
0.0
  0
LINE
  5
6D9
330
1F
100
AcDbEntity
  8
0
  6
Continuous
 62
     7
100
AcDbLine
 10
845.7161695136791
 20
510.8804019561707
 30
0.0
 11
845.7161695136711
 21
512.3804019561727
 31
0.0
  0
LINE
  5
6DA
330
1F
100
AcDbEntity
  8
0
  6
Continuous
 62
     7
100
AcDbLine
 10
844.7161695136792
 20
510.8804019561545
 30
0.0
 11
845.7161695136791
 21
510.8804019561707
 31
0.0
  0
LINE
  5
6DB
330
1F
100
AcDbEntity
  8
0
  6
Continuous
 62
     7
100
AcDbLine
 10
844.7161695136712
 20
512.3804019561666
 30
0.0
 11
844.7161695136792
 21
510.8804019561545
 31
0.0
  0
LINE
  5
6DC
330
1F
100
AcDbEntity
  8
0
  6
Continuous
 62
     7
100
AcDbLine
 10
843.2161695136711
 20
512.3804019561585
 30
0.0
 11
844.7161695136712
 21
512.3804019561666
 31
0.0
  0
LINE
  5
6DD
330
1F
100
AcDbEntity
  8
0
  6
Continuous
 62
     7
100
AcDbLine
 10
843.2161695136656
 20
513.3804019561467
 30
0.0
 11
843.2161695136711
 21
512.3804019561585
 31
0.0
  0
LINE
  5
6DE
330
1F
100
AcDbEntity
  8
0
  6
Continuous
 62
     7
100
AcDbLine
 10
844.7161695136657
 20
513.3804019561666
 30
0.0
 11
843.2161695136656
 21
513.3804019561467
 31
0.0
  0
LINE
  5
6DF
330
1F
100
AcDbEntity
  8
0
  6
Continuous
 62
     7
100
AcDbLine
 10
847.9661695136675
 20
512.8804019561445
 30
0.0
 11
847.9661695136675
 21
512.8804019561445
 31
0.0
  0
LINE
  5
6E0
330
1F
100
AcDbEntity
  8
0
  6
Continuous
 62
     7
100
AcDbLine
 10
847.3161719597991
 20
526.0904025664924
 30
0.0
 11
846.1161719597992
 21
526.0904025664864
 31
0.0
  0
LINE
  5
6E1
330
1F
100
AcDbEntity
  8
0
  6
Continuous
 62
     7
100
AcDbLine
 10
847.3161719598031
 20
525.2904025665023
 30
0.0
 11
847.3161719597991
 21
526.0904025664924
 31
0.0
  0
LINE
  5
6E2
330
1F
100
AcDbEntity
  8
0
  6
Continuous
 62
     7
100
AcDbLine
 10
846.1161719598031
 20
525.2904025664967
 30
0.0
 11
847.3161719598031
 21
525.2904025665023
 31
0.0
  0
LINE
  5
6E3
330
1F
100
AcDbEntity
  8
0
  6
Continuous
 62
     7
100
AcDbLine
 10
846.1161719598111
 20
524.0904025664967
 30
0.0
 11
846.1161719598031
 21
525.2904025664967
 31
0.0
  0
LINE
  5
6E4
330
1F
100
AcDbEntity
  8
0
  6
Continuous
 62
     7
100
AcDbLine
 10
845.3161719598114
 20
524.0904025664828
 30
0.0
 11
846.1161719598111
 21
524.0904025664967
 31
0.0
  0
LINE
  5
6E5
330
1F
100
AcDbEntity
  8
0
  6
Continuous
 62
     7
100
AcDbLine
 10
845.3161719598037
 20
525.2904025664926
 30
0.0
 11
845.3161719598114
 21
524.0904025664828
 31
0.0
  0
LINE
  5
6E6
330
1F
100
AcDbEntity
  8
0
  6
Continuous
 62
     7
100
AcDbLine
 10
844.1161719598031
 20
525.2904025664843
 30
0.0
 11
845.3161719598037
 21
525.2904025664926
 31
0.0
  0
LINE
  5
6E7
330
1F
100
AcDbEntity
  8
0
  6
Continuous
 62
     7
100
AcDbLine
 10
844.1161719597992
 20
526.0904025664761
 30
0.0
 11
844.1161719598031
 21
525.2904025664843
 31
0.0
  0
LINE
  5
6E8
330
1F
100
AcDbEntity
  8
0
  6
Continuous
 62
     7
100
AcDbLine
 10
845.3161719597991
 20
526.0904025664924
 30
0.0
 11
844.1161719597992
 21
526.0904025664761
 31
0.0
  0
LINE
  5
6E9
330
1F
100
AcDbEntity
  8
0
  6
Continuous
 62
     7
100
AcDbLine
 10
847.668471210769
 20
518.3944219803741
 30
0.0
 11
847.6684712107536
 21
521.1604019561205
 31
0.0
  0
LINE
  5
6EA
330
1F
100
AcDbEntity
  8
0
  6
Continuous
 62
     7
100
AcDbLine
 10
841.50728166857
 20
518.3944219803404
 30
0.0
 11
847.668471210769
 21
518.3944219802864
 31
0.0
  0
LINE
  5
6EB
330
1F
100
AcDbEntity
  8
0
  6
Continuous
 62
     7
100
AcDbLine
 10
841.5072816685531
 20
521.1604019560867
 30
0.0
 11
841.50728166857
 21
518.3944219803404
 31
0.0
  0
LINE
  5
6EC
330
1F
100
AcDbEntity
  8
0
  6
Continuous
 62
     7
100
AcDbLine
 10
845.7161695136573
 20
514.8804019561707
 30
0.0
 11
845.7161695136573
 21
514.8804019561707
 31
0.0
  0
LINE
  5
6ED
330
1F
100
AcDbEntity
  8
0
  6
Continuous
 62
     7
100
AcDbLine
 10
845.7161695136573
 20
514.8804019561707
 30
0.0
 11
844.7161695136573
 21
514.8804019561667
 31
0.0
  0
LINE
  5
6EE
330
1F
100
AcDbEntity
  8
0
  6
Continuous
 62
     7
100
AcDbLine
 10
848.8961695136236
 20
521.1604019562521
 30
0.0
 11
848.8961695136428
 21
517.3504019562525
 31
0.0
  0
LINE
  5
6EF
330
1F
100
AcDbEntity
  8
0
  6
Continuous
 62
     7
100
AcDbLine
 10
848.716169537389
 20
525.6904019562345
 30
0.0
 11
848.716169537389
 21
525.6904019562345
 31
0.0
  0
CIRCLE
  5
6F0
330
1F
100
AcDbEntity
  8
0
  6
Continuous
 62
     7
370
     0
100
AcDbCircle
 10
847.6761695373889
 20
532.090401956234
 30
0.0
 40
2.000000000000226
  0
CIRCLE
  5
6F1
330
1F
100
AcDbEntity
  8
0
  6
Continuous
 62
     7
370
     0
100
AcDbCircle
 10
842.596169537389
 20
532.090401956234
 30
0.0
 40
2.000000000000226
  0
LINE
  5
6F2
330
1F
100
AcDbEntity
  8
0
  6
Continuous
 62
     7
100
AcDbLine
 10
846.1161719597932
 20
527.2904025664968
 30
0.0
 11
846.1161719597932
 21
527.2904025664968
 31
0.0
  0
LINE
  5
6F3
330
1F
100
AcDbEntity
  8
0
  6
Continuous
 62
     7
100
AcDbLine
 10
846.1161719597932
 20
527.2904025664968
 30
0.0
 11
845.3161719597936
 21
527.2904025664924
 31
0.0
  0
LINE
  5
6F4
330
1F
100
AcDbEntity
  8
0
  6
Continuous
 62
     7
100
AcDbLine
 10
826.7761695373891
 20
570.8904019562344
 30
0.0
 11
866.7761695373894
 21
570.8904019562344
 31
0.0
  0
ARC
  5
6F5
330
1F
100
AcDbEntity
  8
0
  6
Continuous
 62
     7
100
AcDbCircle
 10
826.77616953739
 20
565.8904019562334
 30
0.0
 40
5.000000000000846
100
AcDbArc
 50
90.00000000000978
 51
179.9999999999901
  0
ARC
  5
6F6
330
1F
100
AcDbEntity
  8
0
  6
Continuous
 62
     7
100
AcDbCircle
 10
846.7761695373891
 20
558.8904019562346
 30
0.0
 40
4.5
100
AcDbArc
 50
0.0
 51
180.0
  0
LINE
  5
6F7
330
1F
100
AcDbEntity
  8
0
  6
Continuous
 62
     7
100
AcDbLine
 10
842.2761695373891
 20
558.8904019562346
 30
0.0
 11
842.2761695373891
 21
557.6846305902946
 31
0.0
  0
LINE
  5
6F8
330
1F
100
AcDbEntity
  8
0
  6
Continuous
 62
     7
100
AcDbLine
 10
851.2761695373891
 20
558.8904019562346
 30
0.0
 11
851.2761695373891
 21
557.6846305902946
 31
0.0
  0
ARC
  5
6F9
330
1F
100
AcDbEntity
  8
0
  6
Continuous
 62
     7
100
AcDbCircle
 10
866.7761695373878
 20
565.8904019562334
 30
0.0
 40
5.000000000000908
100
AcDbArc
 50
0.0000000000081422
 51
89.99999999998697
  0
ENDSEC
  0
SECTION
  2
OBJECTS
  0
DICTIONARY
  5
C
330
0
100
AcDbDictionary
281
     1
  3
ACAD_GROUP
350
D
  3
ACAD_LAYOUT
350
1A
  3
ACAD_MLINESTYLE
350
17
  3
ACAD_PLOTSETTINGS
350
19
  3
ACAD_PLOTSTYLENAME
350
E
  0
DICTIONARY
  5
D
102
{ACAD_REACTORS
330
C
102
}
330
C
100
AcDbDictionary
281
     1
  0
DICTIONARY
  5
1A
102
{ACAD_REACTORS
330
C
102
}
330
C
100
AcDbDictionary
281
     1
  3
Model
350
22
  3
ﾚｲｱｳﾄ1
350
51
  0
DICTIONARY
  5
17
102
{ACAD_REACTORS
330
C
102
}
330
C
100
AcDbDictionary
281
     1
  3
Standard
350
18
  0
DICTIONARY
  5
19
102
{ACAD_REACTORS
330
C
102
}
330
C
100
AcDbDictionary
281
     1
  0
ACDBDICTIONARYWDFLT
  5
E
102
{ACAD_REACTORS
330
C
102
}
330
C
100
AcDbDictionary
281
     1
  3
Normal
350
F
100
AcDbDictionaryWithDefault
340
F
  0
LAYOUT
  5
22
102
{ACAD_REACTORS
330
1A
102
}
330
1A
100
AcDbPlotSettings
  1

  2
none_device
  4
ANSI_A_(8.50_x_11.00_Inches)
  6

 40
6.349999904632567
 41
19.04999923706053
 42
6.350006103515625
 43
19.04998779296875
 44
215.8999938964842
 45
279.3999938964843
 46
0.0
 47
0.0
 48
0.0
 49
0.0
140
0.0
141
0.0
142
1.0
143
78.436453180766
 70
 11952
 72
     0
 73
     1
 74
     0
  7

 75
     0
147
0.0127491741332998
148
0.0
149
0.0
100
AcDbLayout
  1
Model
 70
     1
 71
     0
 10
0.0
 20
0.0
 11
12.0
 21
9.0
 12
0.0
 22
0.0
 32
0.0
 14
0.0
 24
0.0
 34
0.0
 15
0.0
 25
0.0
 35
0.0
146
0.0
 13
0.0
 23
0.0
 33
0.0
 16
1.0
 26
0.0
 36
0.0
 17
0.0
 27
1.0
 37
0.0
 76
     0
330
1F
  0
LAYOUT
  5
51
102
{ACAD_REACTORS
330
1A
102
}
330
1A
100
AcDbPlotSettings
  1

  2
None
  4

  6

 40
0.0
 41
0.0
 42
0.0
 43
0.0
 44
0.0
 45
0.0
 46
0.0
 47
0.0
 48
0.0
 49
0.0
140
0.0
141
0.0
142
1.0
143
1.0
 70
   688
 72
     0
 73
     0
 74
     5
  7

 75
    16
147
1.0
148
0.0
149
0.0
100
AcDbLayout
  1
ﾚｲｱｳﾄ1
 70
     1
 71
     1
 10
0.0
 20
0.0
 11
12.0
 21
9.0
 12
0.0
 22
0.0
 32
0.0
 14
0.0
 24
0.0
 34
0.0
 15
0.0
 25
0.0
 35
0.0
146
0.0
 13
0.0
 23
0.0
 33
0.0
 16
1.0
 26
0.0
 36
0.0
 17
0.0
 27
1.0
 37
0.0
 76
     0
330
50
  0
MLINESTYLE
  5
18
102
{ACAD_REACTORS
330
17
102
}
330
17
100
AcDbMlineStyle
  2
STANDARD
 70
     0
  3

 62
   256
 51
90.0
 52
90.0
 71
     2
 49
0.5
 62
   256
  6
BYLAYER
 49
-0.5
 62
   256
  6
BYLAYER
  0
ACDBPLACEHOLDER
  5
F
102
{ACAD_REACTORS
330
E
102
}
330
E
  0
ENDSEC
  0
EOF
