  0
SECTION
  2
HEADER
  9
$ACADVER
  1
AC1015
  9
$ACADMAINTVER
 70
    10
  9
$DWGCODEPAGE
  3
ANSI_932
  9
$INSBASE
 10
0.0
 20
0.0
 30
0.0
  9
$EXTMIN
 10
438.3165835517742
 20
220.296034984248
 30
0.0
  9
$EXTMAX
 10
663.3322689767232
 20
384.45288923374
 30
0.0
  9
$LIMMIN
 10
0.0
 20
0.0
  9
$LIMMAX
 10
420.0
 20
297.0
  9
$ORTHOMODE
 70
     0
  9
$REGENMODE
 70
     1
  9
$FILLMODE
 70
     1
  9
$QTEXTMODE
 70
     0
  9
$MIRRTEXT
 70
     1
  9
$LTSCALE
 40
1.0
  9
$ATTMODE
 70
     1
  9
$TEXTSIZE
 40
2.5
  9
$TRACEWID
 40
1.0
  9
$TEXTSTYLE
  7
Standard
  9
$CLAYER
  8
0
  9
$CELTYPE
  6
ByLayer
  9
$CECOLOR
 62
   256
  9
$CELTSCALE
 40
1.0
  9
$DISPSILH
 70
     0
  9
$DIMSCALE
 40
1.0
  9
$DIMASZ
 40
2.5
  9
$DIMEXO
 40
0.625
  9
$DIMDLI
 40
3.75
  9
$DIMRND
 40
0.0
  9
$DIMDLE
 40
0.0
  9
$DIMEXE
 40
1.25
  9
$DIMTP
 40
0.0
  9
$DIMTM
 40
0.0
  9
$DIMTXT
 40
2.5
  9
$DIMCEN
 40
2.5
  9
$DIMTSZ
 40
0.0
  9
$DIMTOL
 70
     0
  9
$DIMLIM
 70
     0
  9
$DIMTIH
 70
     0
  9
$DIMTOH
 70
     0
  9
$DIMSE1
 70
     0
  9
$DIMSE2
 70
     0
  9
$DIMTAD
 70
     1
  9
$DIMZIN
 70
     8
  9
$DIMBLK
  1

  9
$DIMASO
 70
     1
  9
$DIMSHO
 70
     1
  9
$DIMPOST
  1

  9
$DIMAPOST
  1

  9
$DIMALT
 70
     0
  9
$DIMALTD
 70
     3
  9
$DIMALTF
 40
0.03937007874016
  9
$DIMLFAC
 40
1.0
  9
$DIMTOFL
 70
     1
  9
$DIMTVP
 40
0.0
  9
$DIMTIX
 70
     0
  9
$DIMSOXD
 70
     0
  9
$DIMSAH
 70
     0
  9
$DIMBLK1
  1

  9
$DIMBLK2
  1

  9
$DIMSTYLE
  2
ISO-25
  9
$DIMCLRD
 70
     0
  9
$DIMCLRE
 70
     0
  9
$DIMCLRT
 70
     0
  9
$DIMTFAC
 40
1.0
  9
$DIMGAP
 40
0.625
  9
$DIMJUST
 70
     0
  9
$DIMSD1
 70
     0
  9
$DIMSD2
 70
     0
  9
$DIMTOLJ
 70
     0
  9
$DIMTZIN
 70
     8
  9
$DIMALTZ
 70
     0
  9
$DIMALTTZ
 70
     0
  9
$DIMUPT
 70
     0
  9
$DIMDEC
 70
     2
  9
$DIMTDEC
 70
     2
  9
$DIMALTU
 70
     2
  9
$DIMALTTD
 70
     3
  9
$DIMTXSTY
  7
Standard
  9
$DIMAUNIT
 70
     0
  9
$DIMADEC
 70
     0
  9
$DIMALTRND
 40
0.0
  9
$DIMAZIN
 70
     0
  9
$DIMDSEP
 70
    44
  9
$DIMATFIT
 70
     3
  9
$DIMFRAC
 70
     0
  9
$DIMLDRBLK
  1

  9
$DIMLUNIT
 70
     2
  9
$DIMLWD
 70
    -2
  9
$DIMLWE
 70
    -2
  9
$DIMTMOVE
 70
     0
  9
$LUNITS
 70
     2
  9
$LUPREC
 70
     4
  9
$SKETCHINC
 40
1.0
  9
$FILLETRAD
 40
10.0
  9
$AUNITS
 70
     0
  9
$AUPREC
 70
     0
  9
$MENU
  1
.
  9
$ELEVATION
 40
0.0
  9
$PELEVATION
 40
0.0
  9
$THICKNESS
 40
0.0
  9
$LIMCHECK
 70
     0
  9
$CHAMFERA
 40
10.0
  9
$CHAMFERB
 40
10.0
  9
$CHAMFERC
 40
20.0
  9
$CHAMFERD
 40
0.0
  9
$SKPOLY
 70
     0
  9
$TDCREATE
 40
2456499.791243044
  9
$TDUCREATE
 40
2456499.416243044
  9
$TDUPDATE
 40
2456499.791533969
  9
$TDUUPDATE
 40
2456499.416533969
  9
$TDINDWG
 40
0.0002909259
  9
$TDUSRTIMER
 40
0.0002909259
  9
$USRTIMER
 70
     1
  9
$ANGBASE
 50
0.0
  9
$ANGDIR
 70
     0
  9
$PDMODE
 70
     0
  9
$PDSIZE
 40
0.0
  9
$PLINEWID
 40
0.0
  9
$SPLFRAME
 70
     0
  9
$SPLINETYPE
 70
     6
  9
$SPLINESEGS
 70
     8
  9
$HANDSEED
  5
51D
  9
$SURFTAB1
 70
     6
  9
$SURFTAB2
 70
     6
  9
$SURFTYPE
 70
     6
  9
$SURFU
 70
     6
  9
$SURFV
 70
     6
  9
$UCSBASE
  2

  9
$UCSNAME
  2

  9
$UCSORG
 10
0.0
 20
0.0
 30
0.0
  9
$UCSXDIR
 10
1.0
 20
0.0
 30
0.0
  9
$UCSYDIR
 10
0.0
 20
1.0
 30
0.0
  9
$UCSORTHOREF
  2

  9
$UCSORTHOVIEW
 70
     0
  9
$UCSORGTOP
 10
0.0
 20
0.0
 30
0.0
  9
$UCSORGBOTTOM
 10
0.0
 20
0.0
 30
0.0
  9
$UCSORGLEFT
 10
0.0
 20
0.0
 30
0.0
  9
$UCSORGRIGHT
 10
0.0
 20
0.0
 30
0.0
  9
$UCSORGFRONT
 10
0.0
 20
0.0
 30
0.0
  9
$UCSORGBACK
 10
0.0
 20
0.0
 30
0.0
  9
$PUCSBASE
  2

  9
$PUCSNAME
  2

  9
$PUCSORG
 10
0.0
 20
0.0
 30
0.0
  9
$PUCSXDIR
 10
1.0
 20
0.0
 30
0.0
  9
$PUCSYDIR
 10
0.0
 20
1.0
 30
0.0
  9
$PUCSORTHOREF
  2

  9
$PUCSORTHOVIEW
 70
     0
  9
$PUCSORGTOP
 10
0.0
 20
0.0
 30
0.0
  9
$PUCSORGBOTTOM
 10
0.0
 20
0.0
 30
0.0
  9
$PUCSORGLEFT
 10
0.0
 20
0.0
 30
0.0
  9
$PUCSORGRIGHT
 10
0.0
 20
0.0
 30
0.0
  9
$PUCSORGFRONT
 10
0.0
 20
0.0
 30
0.0
  9
$PUCSORGBACK
 10
0.0
 20
0.0
 30
0.0
  9
$USERI1
 70
     0
  9
$USERI2
 70
     0
  9
$USERI3
 70
     0
  9
$USERI4
 70
     0
  9
$USERI5
 70
     0
  9
$USERR1
 40
0.0
  9
$USERR2
 40
0.0
  9
$USERR3
 40
0.0
  9
$USERR4
 40
0.0
  9
$USERR5
 40
0.0
  9
$WORLDVIEW
 70
     1
  9
$SHADEDGE
 70
     3
  9
$SHADEDIF
 70
    70
  9
$TILEMODE
 70
     1
  9
$MAXACTVP
 70
    64
  9
$PINSBASE
 10
0.0
 20
0.0
 30
0.0
  9
$PLIMCHECK
 70
     0
  9
$PEXTMIN
 10
0.0
 20
0.0
 30
0.0
  9
$PEXTMAX
 10
0.0
 20
0.0
 30
0.0
  9
$PLIMMIN
 10
0.0
 20
0.0
  9
$PLIMMAX
 10
12.0
 20
9.0
  9
$UNITMODE
 70
     0
  9
$VISRETAIN
 70
     1
  9
$PLINEGEN
 70
     0
  9
$PSLTSCALE
 70
     1
  9
$TREEDEPTH
 70
  3020
  9
$CMLSTYLE
  2
Standard
  9
$CMLJUST
 70
     0
  9
$CMLSCALE
 40
20.0
  9
$PROXYGRAPHICS
 70
     1
  9
$MEASUREMENT
 70
     1
  9
$CELWEIGHT
370
    -1
  9
$ENDCAPS
280
     0
  9
$JOINSTYLE
280
     0
  9
$LWDISPLAY
290
     0
  9
$INSUNITS
 70
     4
  9
$HYPERLINKBASE
  1

  9
$STYLESHEET
  1

  9
$XEDIT
290
     1
  9
$CEPSNTYPE
380
     0
  9
$PSTYLEMODE
290
     1
  9
$FINGERPRINTGUID
  2
{FDEAD578-A652-11D2-9A35-0060089B3A3F}
  9
$VERSIONGUID
  2
{FEC022ED-0E92-4609-850D-9DE21A5DC5F7}
  9
$EXTNAMES
290
     1
  9
$PSVPSCALE
 40
0.0
  9
$OLESTARTUP
290
     0
  0
ENDSEC
  0
SECTION
  2
CLASSES
  0
CLASS
  1
ACDBDICTIONARYWDFLT
  2
AcDbDictionaryWithDefault
  3
AutoCAD 2000
 90
        0
280
     0
281
     0
  0
CLASS
  1
ACDBPLACEHOLDER
  2
AcDbPlaceHolder
  3
AutoCAD 2000
 90
        0
280
     0
281
     0
  0
CLASS
  1
LAYOUT
  2
AcDbLayout
  3
AutoCAD 2000
 90
        0
280
     0
281
     0
  0
ENDSEC
  0
SECTION
  2
TABLES
  0
TABLE
  2
VPORT
  5
8
330
0
100
AcDbSymbolTable
 70
     2
  0
VPORT
  5
51C
330
8
100
AcDbSymbolTableRecord
100
AcDbViewportTableRecord
  2
*Active
 70
     0
 10
0.0
 20
0.0
 11
1.0
 21
1.0
 12
551.2880263516901
 22
300.5676868851839
 13
0.0
 23
0.0
 14
10.0
 24
10.0
 15
10.0
 25
10.0
 16
0.0
 26
0.0
 36
1.0
 17
0.0
 27
0.0
 37
0.0
 40
187.126242819065
 41
1.781954887218045
 42
50.0
 43
0.0
 44
0.0
 50
0.0
 51
0.0
 71
     0
 72
   100
 73
     1
 74
     3
 75
     0
 76
     0
 77
     0
 78
     0
281
     0
 65
     1
110
0.0
120
0.0
130
0.0
111
1.0
121
0.0
131
0.0
112
0.0
122
1.0
132
0.0
 79
     0
146
0.0
  0
ENDTAB
  0
TABLE
  2
LTYPE
  5
5
330
0
100
AcDbSymbolTable
 70
     2
  0
LTYPE
  5
14
330
5
100
AcDbSymbolTableRecord
100
AcDbLinetypeTableRecord
  2
ByBlock
 70
     0
  3

 72
    65
 73
     0
 40
0.0
  0
LTYPE
  5
15
330
5
100
AcDbSymbolTableRecord
100
AcDbLinetypeTableRecord
  2
ByLayer
 70
     0
  3

 72
    65
 73
     0
 40
0.0
  0
LTYPE
  5
16
330
5
100
AcDbSymbolTableRecord
100
AcDbLinetypeTableRecord
  2
Continuous
 70
     0
  3
Solid line
 72
    65
 73
     0
 40
0.0
  0
LTYPE
  5
67
330
5
100
AcDbSymbolTableRecord
100
AcDbLinetypeTableRecord
  2
DASHED
 70
     0
  3
DASHED
 72
    65
 73
     2
 40
0.75
 49
0.5
 74
     0
 49
-0.25
 74
     0
  0
ENDTAB
  0
TABLE
  2
LAYER
  5
2
330
0
100
AcDbSymbolTable
 70
     1
  0
LAYER
  5
10
330
2
100
AcDbSymbolTableRecord
100
AcDbLayerTableRecord
  2
0
 70
     0
 62
     7
  6
Continuous
370
    -3
390
F
  0
ENDTAB
  0
TABLE
  2
STYLE
  5
3
330
0
100
AcDbSymbolTable
 70
     2
  0
STYLE
  5
11
330
3
100
AcDbSymbolTableRecord
100
AcDbTextStyleTableRecord
  2
Standard
 70
     0
 40
0.0
 41
1.0
 50
0.0
 71
     0
 42
2.5
  3
txt
  4

  0
STYLE
  5
68
330
3
100
AcDbSymbolTableRecord
100
AcDbTextStyleTableRecord
  2
_TCW_TXTSTY_1
 70
     0
 40
0.0
 41
1.0
 50
0.0
 71
     0
 42
0.696969687939
  3
MS PGothic.ttf
  4

1001
ACAD
1000
ＭＳ Ｐゴシック
1071
    32802
  0
ENDTAB
  0
TABLE
  2
VIEW
  5
6
330
0
100
AcDbSymbolTable
 70
     0
  0
ENDTAB
  0
TABLE
  2
UCS
  5
7
330
0
100
AcDbSymbolTable
 70
     0
  0
ENDTAB
  0
TABLE
  2
APPID
  5
9
330
0
100
AcDbSymbolTable
 70
     2
  0
APPID
  5
12
330
9
100
AcDbSymbolTableRecord
100
AcDbRegAppTableRecord
  2
ACAD
 70
     0
  0
APPID
  5
6A
330
9
100
AcDbSymbolTableRecord
100
AcDbRegAppTableRecord
  2
TCAD
 70
     0
  0
ENDTAB
  0
TABLE
  2
DIMSTYLE
  5
A
330
0
100
AcDbSymbolTable
 70
     2
100
AcDbDimStyleTable
 71
     0
  0
DIMSTYLE
105
27
330
A
100
AcDbSymbolTableRecord
100
AcDbDimStyleTableRecord
  2
ISO-25
 70
     0
 41
2.5
 42
0.625
 43
3.75
 44
1.25
 73
     0
 74
     0
 77
     1
 78
     8
140
2.5
141
2.5
143
0.03937007874016
147
0.625
171
     3
172
     1
271
     2
272
     2
274
     3
278
    44
283
     0
284
     8
340
11
  0
DIMSTYLE
105
69
330
A
100
AcDbSymbolTableRecord
100
AcDbDimStyleTableRecord
  2
STANDARD
 70
     0
 41
3.0
 42
1.0
 43
7.5
 44
2.0
 45
0.1
 77
     1
 78
     8
140
2.439393939393998
143
0.5
144
2.0
147
0.5
148
0.01
176
     7
177
     7
178
     7
179
     2
271
     2
272
     8
274
     8
286
     8
340
68
341
61
342
61
  0
ENDTAB
  0
TABLE
  2
BLOCK_RECORD
  5
1
330
0
100
AcDbSymbolTable
 70
     3
  0
BLOCK_RECORD
  5
1F
330
1
100
AcDbSymbolTableRecord
100
AcDbBlockTableRecord
  2
*Model_Space
340
22
  0
BLOCK_RECORD
  5
50
330
1
100
AcDbSymbolTableRecord
100
AcDbBlockTableRecord
  2
*Paper_Space
340
51
  0
BLOCK_RECORD
  5
61
330
1
100
AcDbSymbolTableRecord
100
AcDbBlockTableRecord
  2
_OPEN
340
0
  0
ENDTAB
  0
ENDSEC
  0
SECTION
  2
BLOCKS
  0
BLOCK
  5
20
330
1F
100
AcDbEntity
  8
0
100
AcDbBlockBegin
  2
*Model_Space
 70
     0
 10
0.0
 20
0.0
 30
0.0
  3
*Model_Space
  1

  0
ENDBLK
  5
21
330
1F
100
AcDbEntity
  8
0
100
AcDbBlockEnd
  0
BLOCK
  5
52
330
50
100
AcDbEntity
 67
     1
  8
0
100
AcDbBlockBegin
  2
*Paper_Space
 70
     0
 10
0.0
 20
0.0
 30
0.0
  3
*Paper_Space
  1

  0
ENDBLK
  5
53
330
50
100
AcDbEntity
 67
     1
  8
0
100
AcDbBlockEnd
  0
BLOCK
  5
65
330
61
100
AcDbEntity
  8
0
100
AcDbBlockBegin
  2
_OPEN
 70
     0
 10
0.0
 20
0.0
 30
0.0
  3
_OPEN
  1

  0
LINE
  5
62
330
61
100
AcDbEntity
  8
0
  6
ByBlock
 62
     0
100
AcDbLine
 10
-1.0
 20
0.166667
 30
0.0
 11
0.0
 21
0.0
 31
0.0
  0
LINE
  5
63
330
61
100
AcDbEntity
  8
0
  6
ByBlock
 62
     0
100
AcDbLine
 10
0.0
 20
0.0
 30
0.0
 11
-1.0
 21
-0.166667
 31
0.0
  0
LINE
  5
64
330
61
100
AcDbEntity
  8
0
  6
ByBlock
 62
     0
100
AcDbLine
 10
0.0
 20
0.0
 30
0.0
 11
-1.0
 21
0.0
 31
0.0
  0
ENDBLK
  5
66
330
61
100
AcDbEntity
  8
0
100
AcDbBlockEnd
  0
ENDSEC
  0
SECTION
  2
ENTITIES
  0
CIRCLE
  5
2C6
330
1F
100
AcDbEntity
  8
0
  6
DASHED
 62
     4
100
AcDbCircle
 10
471.3322691282332
 20
239.1244623095557
 30
0.0
 40
2.117500000000359
  0
CIRCLE
  5
2C7
330
1F
100
AcDbEntity
  8
0
  6
DASHED
 62
     4
100
AcDbCircle
 10
471.3322691282332
 20
239.1244623095557
 30
0.0
 40
1.649999058563561
  0
CIRCLE
  5
2C8
330
1F
100
AcDbEntity
  8
0
  6
Continuous
 62
     7
100
AcDbCircle
 10
622.5822712655409
 20
244.1244637302395
 30
0.0
 40
2.500000000000423
  0
CIRCLE
  5
2C9
330
1F
100
AcDbEntity
  8
0
  6
Continuous
 62
     7
100
AcDbCircle
 10
622.5822712655409
 20
244.1244637302395
 30
0.0
 40
1.950000000000613
  0
CIRCLE
  5
2CA
330
1F
100
AcDbEntity
  8
0
  6
Continuous
 62
     7
100
AcDbCircle
 10
622.5822712655412
 20
344.1244637302395
 30
0.0
 40
2.500000000000113
  0
CIRCLE
  5
2CB
330
1F
100
AcDbEntity
  8
0
  6
Continuous
 62
     7
100
AcDbCircle
 10
622.5822712655412
 20
344.1244637302395
 30
0.0
 40
1.950000000000301
  0
CIRCLE
  5
2CC
330
1F
100
AcDbEntity
  8
0
  6
DASHED
 62
     4
100
AcDbCircle
 10
488.8322689522261
 20
242.6244621090182
 30
0.0
 40
2.500000000000454
  0
CIRCLE
  5
2CD
330
1F
100
AcDbEntity
  8
0
  6
DASHED
 62
     4
100
AcDbCircle
 10
453.8322689523002
 20
242.6244621093027
 30
0.0
 40
2.500000000000412
  0
CIRCLE
  5
2CE
330
1F
100
AcDbEntity
  8
0
  6
Continuous
 62
     7
100
AcDbCircle
 10
500.3322689767233
 20
248.6244630626675
 30
0.0
 40
1.500000000000241
  0
CIRCLE
  5
2CF
330
1F
100
AcDbEntity
  8
0
  6
Continuous
 62
     7
100
AcDbCircle
 10
442.3322689767233
 20
248.6244630626675
 30
0.0
 40
1.500000000000241
  0
CIRCLE
  5
2D0
330
1F
100
AcDbEntity
  8
0
  6
Continuous
 62
     7
100
AcDbCircle
 10
453.0697703922339
 20
364.2368920762997
 30
0.0
 40
1.374999999999715
  0
CIRCLE
  5
2D1
330
1F
100
AcDbEntity
  8
0
  6
Continuous
 62
     7
100
AcDbCircle
 10
456.8797703922554
 20
364.236892076319
 30
0.0
 40
1.375000000000227
  0
CIRCLE
  5
2D2
330
1F
100
AcDbEntity
  8
0
  6
Continuous
 62
     7
100
AcDbCircle
 10
460.6897703922559
 20
364.2368920763386
 30
0.0
 40
1.374999999999715
  0
CIRCLE
  5
2D3
330
1F
100
AcDbEntity
  8
0
  6
Continuous
 62
     7
100
AcDbCircle
 10
464.4997703922777
 20
364.2368920763586
 30
0.0
 40
1.374999999999829
  0
CIRCLE
  5
2D4
330
1F
100
AcDbEntity
  8
0
  6
Continuous
 62
     7
100
AcDbCircle
 10
468.3097703922554
 20
364.2368920763778
 30
0.0
 40
1.375000000000227
  0
CIRCLE
  5
2D5
330
1F
100
AcDbEntity
  8
0
  6
Continuous
 62
     7
100
AcDbCircle
 10
472.1197703922779
 20
364.2368920763976
 30
0.0
 40
1.374999999999656
  0
CIRCLE
  5
2D6
330
1F
100
AcDbEntity
  8
0
  6
Continuous
 62
     7
100
AcDbCircle
 10
475.9297703922553
 20
364.2368920764168
 30
0.0
 40
1.375000000000168
  0
CIRCLE
  5
2D7
330
1F
100
AcDbEntity
  8
0
  6
Continuous
 62
     7
100
AcDbCircle
 10
479.7397703922777
 20
364.2368920764365
 30
0.0
 40
1.374999999999771
  0
CIRCLE
  5
2D8
330
1F
100
AcDbEntity
  8
0
  6
Continuous
 62
     7
100
AcDbCircle
 10
483.5497703922555
 20
364.2368920764566
 30
0.0
 40
1.374999999999656
  0
CIRCLE
  5
2D9
330
1F
100
AcDbEntity
  8
0
  6
Continuous
 62
     7
100
AcDbCircle
 10
487.3597703922549
 20
364.2368920764762
 30
0.0
 40
1.375000000000227
  0
CIRCLE
  5
2DA
330
1F
100
AcDbEntity
  8
0
  6
Continuous
 62
     7
100
AcDbCircle
 10
491.1697703922556
 20
364.2368920764957
 30
0.0
 40
1.374999999999715
  0
CIRCLE
  5
2DB
330
1F
100
AcDbEntity
  8
0
  6
Continuous
 62
     7
100
AcDbCircle
 10
489.2647703922788
 20
359.7368920764858
 30
0.0
 40
1.374999999999771
  0
CIRCLE
  5
2DC
330
1F
100
AcDbEntity
  8
0
  6
Continuous
 62
     7
100
AcDbCircle
 10
485.4547703923251
 20
359.7368920764661
 30
0.0
 40
1.375000000000227
  0
CIRCLE
  5
2DD
330
1F
100
AcDbEntity
  8
0
  6
Continuous
 62
     7
100
AcDbCircle
 10
481.6447703923258
 20
359.7368920764466
 30
0.0
 40
1.374999999999715
  0
CIRCLE
  5
2DE
330
1F
100
AcDbEntity
  8
0
  6
Continuous
 62
     7
100
AcDbCircle
 10
477.8347703923032
 20
359.7368920764271
 30
0.0
 40
1.375000000000284
  0
CIRCLE
  5
2DF
330
1F
100
AcDbEntity
  8
0
  6
Continuous
 62
     7
100
AcDbCircle
 10
474.0247703922788
 20
359.7368920764075
 30
0.0
 40
1.374999999999715
  0
CIRCLE
  5
2E0
330
1F
100
AcDbEntity
  8
0
  6
Continuous
 62
     7
100
AcDbCircle
 10
470.2147703923038
 20
359.7368920763876
 30
0.0
 40
1.374999999999771
  0
CIRCLE
  5
2E1
330
1F
100
AcDbEntity
  8
0
  6
Continuous
 62
     7
100
AcDbCircle
 10
466.4047703922783
 20
359.7368920763681
 30
0.0
 40
1.375000000000227
  0
CIRCLE
  5
2E2
330
1F
100
AcDbEntity
  8
0
  6
Continuous
 62
     7
100
AcDbCircle
 10
462.5947703923039
 20
359.7368920763486
 30
0.0
 40
1.374999999999656
  0
CIRCLE
  5
2E3
330
1F
100
AcDbEntity
  8
0
  6
Continuous
 62
     7
100
AcDbCircle
 10
458.7847703922783
 20
359.7368920763291
 30
0.0
 40
1.375000000000227
  0
CIRCLE
  5
2E4
330
1F
100
AcDbEntity
  8
0
  6
Continuous
 62
     7
100
AcDbCircle
 10
454.9747703922819
 20
359.7368920763096
 30
0.0
 40
1.374999999999656
  0
CIRCLE
  5
2E5
330
1F
100
AcDbEntity
  8
0
  6
Continuous
 62
     7
100
AcDbCircle
 10
451.1647703922562
 20
359.7368920762901
 30
0.0
 40
1.375000000000227
  0
CIRCLE
  5
2E6
330
1F
100
AcDbEntity
  8
0
  6
Continuous
 62
     7
100
AcDbCircle
 10
500.3322689767233
 20
351.1244630626675
 30
0.0
 40
1.500000000000241
  0
CIRCLE
  5
2E7
330
1F
100
AcDbEntity
  8
0
  6
Continuous
 62
     7
100
AcDbCircle
 10
442.3322689767233
 20
351.1244621089936
 30
0.0
 40
1.500000000000241
  0
CIRCLE
  5
2E8
330
1F
100
AcDbEntity
  8
0
  6
Continuous
 62
     7
100
AcDbCircle
 10
459.8322689767234
 20
342.1244621089936
 30
0.0
 40
1.500000000000254
  0
CIRCLE
  5
2E9
330
1F
100
AcDbEntity
  8
0
  6
Continuous
 62
     7
100
AcDbCircle
 10
455.8322689767233
 20
342.1244621089936
 30
0.0
 40
1.500000000000241
  0
CIRCLE
  5
2EA
330
1F
100
AcDbEntity
  8
0
  6
Continuous
 62
     7
100
AcDbCircle
 10
451.8322689767233
 20
342.1244621089936
 30
0.0
 40
1.500000000000241
  0
CIRCLE
  5
2EB
330
1F
100
AcDbEntity
  8
0
  6
Continuous
 62
     7
100
AcDbCircle
 10
447.8322689767233
 20
342.1244621089937
 30
0.0
 40
1.500000000000224
  0
LINE
  5
2EC
330
1F
100
AcDbEntity
  8
0
  6
DASHED
 62
     4
 48
4.0
100
AcDbLine
 10
603.0822689997176
 20
252.6908216289519
 30
0.0
 11
603.0822689997176
 21
236.6244621091319
 31
0.0
  0
LINE
  5
2ED
330
1F
100
AcDbEntity
  8
0
  6
DASHED
 62
     4
 48
4.0
100
AcDbLine
 10
605.0822689998765
 20
236.6244621091319
 30
0.0
 11
605.0822689998765
 21
252.6908216289519
 31
0.0
  0
LINE
  5
2EE
330
1F
100
AcDbEntity
  8
0
  6
DASHED
 62
     4
 48
4.0
100
AcDbLine
 10
603.0822689997176
 20
236.6244621091319
 30
0.0
 11
605.0822689998765
 21
236.6244621091319
 31
0.0
  0
LINE
  5
2EF
330
1F
100
AcDbEntity
  8
0
  6
DASHED
 62
     4
 48
4.0
100
AcDbLine
 10
448.5822689522915
 20
236.6244621092918
 30
0.0
 11
447.5822689522916
 21
237.624462109292
 31
0.0
  0
LINE
  5
2F0
330
1F
100
AcDbEntity
  8
0
  6
DASHED
 62
     4
 48
4.0
100
AcDbLine
 10
447.5822689522916
 20
251.1244621093379
 30
0.0
 11
447.5822689522916
 21
237.624462109292
 31
0.0
  0
LINE
  5
2F1
330
1F
100
AcDbEntity
  8
0
  6
Continuous
 62
     7
100
AcDbLine
 10
501.3322689767235
 20
350.0064290739179
 30
0.0
 11
501.3322689767235
 21
333.1244621089938
 31
0.0
  0
LINE
  5
2F2
330
1F
100
AcDbEntity
  8
0
  6
Continuous
 62
     7
100
AcDbLine
 10
499.3322689767236
 20
350.0064290739179
 30
0.0
 11
499.3322689767236
 21
333.1244621089938
 31
0.0
  0
LINE
  5
2F3
330
1F
100
AcDbEntity
  8
0
  6
Continuous
 62
     7
 48
6.0
100
AcDbLine
 10
501.3322699345065
 20
350.8744634111339
 30
0.0
 11
501.3322699345065
 21
350.8744634111339
 31
0.0
  0
LINE
  5
2F4
330
1F
100
AcDbEntity
  8
0
  6
Continuous
 62
     7
 48
6.0
100
AcDbLine
 10
500.5822699345004
 20
350.8744634111299
 30
0.0
 11
501.3322699345065
 21
350.8744634111339
 31
0.0
  0
LINE
  5
2F5
330
1F
100
AcDbEntity
  8
0
  6
Continuous
 62
     7
 48
6.0
100
AcDbLine
 10
500.5822699345045
 20
350.1244634111297
 30
0.0
 11
500.5822699345004
 21
350.8744634111299
 31
0.0
  0
LINE
  5
2F6
330
1F
100
AcDbEntity
  8
0
  6
Continuous
 62
     7
 48
6.0
100
AcDbLine
 10
500.0822699345105
 20
350.1244634111279
 30
0.0
 11
500.5822699345045
 21
350.1244634111297
 31
0.0
  0
LINE
  5
2F7
330
1F
100
AcDbEntity
  8
0
  6
Continuous
 62
     7
 48
6.0
100
AcDbLine
 10
500.0822699345076
 20
350.8744634111279
 30
0.0
 11
500.0822699345105
 21
350.1244634111279
 31
0.0
  0
LINE
  5
2F8
330
1F
100
AcDbEntity
  8
0
  6
Continuous
 62
     7
 48
6.0
100
AcDbLine
 10
499.3322699345066
 20
350.8744634111237
 30
0.0
 11
500.0822699345076
 21
350.8744634111279
 31
0.0
  0
LINE
  5
2F9
330
1F
100
AcDbEntity
  8
0
  6
Continuous
 62
     7
 48
6.0
100
AcDbLine
 10
499.3322699344985
 20
351.3744634111239
 30
0.0
 11
499.3322699345066
 21
350.8744634111237
 31
0.0
  0
LINE
  5
2FA
330
1F
100
AcDbEntity
  8
0
  6
Continuous
 62
     7
 48
6.0
100
AcDbLine
 10
500.0822699345045
 20
351.3744634111279
 30
0.0
 11
499.3322699344985
 21
351.3744634111239
 31
0.0
  0
LINE
  5
2FB
330
1F
100
AcDbEntity
  8
0
  6
Continuous
 62
     7
 48
6.0
100
AcDbLine
 10
500.0822699345004
 20
352.1244634111279
 30
0.0
 11
500.0822699345045
 21
351.3744634111279
 31
0.0
  0
LINE
  5
2FC
330
1F
100
AcDbEntity
  8
0
  6
Continuous
 62
     7
 48
6.0
100
AcDbLine
 10
500.5822699344945
 20
352.1244634111299
 30
0.0
 11
500.0822699345004
 21
352.1244634111279
 31
0.0
  0
LINE
  5
2FD
330
1F
100
AcDbEntity
  8
0
  6
Continuous
 62
     7
 48
6.0
100
AcDbLine
 10
500.5822699345045
 20
351.3744634111299
 30
0.0
 11
500.5822699344945
 21
352.1244634111299
 31
0.0
  0
LINE
  5
2FE
330
1F
100
AcDbEntity
  8
0
  6
Continuous
 62
     7
 48
6.0
100
AcDbLine
 10
501.3322699345045
 20
351.374463411134
 30
0.0
 11
500.5822699345045
 21
351.3744634111299
 31
0.0
  0
LINE
  5
2FF
330
1F
100
AcDbEntity
  8
0
  6
Continuous
 62
     7
 48
6.0
100
AcDbLine
 10
501.3322699345065
 20
350.8744634111339
 30
0.0
 11
501.3322699345045
 21
351.374463411134
 31
0.0
  0
LINE
  5
300
330
1F
100
AcDbEntity
  8
0
  6
Continuous
 62
     7
100
AcDbLine
 10
501.8322689767235
 20
351.1244630626678
 30
0.0
 11
501.8322689767235
 21
351.1244630626678
 31
0.0
  0
LINE
  5
301
330
1F
100
AcDbEntity
  8
0
  6
Continuous
 62
     7
100
AcDbLine
 10
441.3322689767236
 20
350.006428120244
 30
0.0
 11
441.3322689767236
 21
333.1244621089938
 31
0.0
  0
LINE
  5
302
330
1F
100
AcDbEntity
  8
0
  6
Continuous
 62
     7
100
AcDbLine
 10
443.3322689767235
 20
350.006428120244
 30
0.0
 11
443.3322689767235
 21
333.1244621089938
 31
0.0
  0
LINE
  5
303
330
1F
100
AcDbEntity
  8
0
  6
Continuous
 62
     7
 48
6.0
100
AcDbLine
 10
443.3322699345065
 20
350.8744624574598
 30
0.0
 11
443.3322699345065
 21
350.8744624574598
 31
0.0
  0
LINE
  5
304
330
1F
100
AcDbEntity
  8
0
  6
Continuous
 62
     7
 48
6.0
100
AcDbLine
 10
442.5822699345006
 20
350.874462457456
 30
0.0
 11
443.3322699345065
 21
350.8744624574598
 31
0.0
  0
LINE
  5
305
330
1F
100
AcDbEntity
  8
0
  6
Continuous
 62
     7
 48
6.0
100
AcDbLine
 10
442.5822699345046
 20
350.124462457456
 30
0.0
 11
442.5822699345006
 21
350.874462457456
 31
0.0
  0
LINE
  5
306
330
1F
100
AcDbEntity
  8
0
  6
Continuous
 62
     7
 48
6.0
100
AcDbLine
 10
442.0822699345105
 20
350.1244624574529
 30
0.0
 11
442.5822699345046
 21
350.124462457456
 31
0.0
  0
LINE
  5
307
330
1F
100
AcDbEntity
  8
0
  6
Continuous
 62
     7
 48
6.0
100
AcDbLine
 10
442.0822699345075
 20
350.8744624574529
 30
0.0
 11
442.0822699345105
 21
350.1244624574529
 31
0.0
  0
LINE
  5
308
330
1F
100
AcDbEntity
  8
0
  6
Continuous
 62
     7
 48
6.0
100
AcDbLine
 10
441.3322699345066
 20
350.8744624574489
 30
0.0
 11
442.0822699345075
 21
350.8744624574529
 31
0.0
  0
LINE
  5
309
330
1F
100
AcDbEntity
  8
0
  6
Continuous
 62
     7
 48
6.0
100
AcDbLine
 10
441.3322699344986
 20
351.3744624574489
 30
0.0
 11
441.3322699345066
 21
350.8744624574489
 31
0.0
  0
LINE
  5
30A
330
1F
100
AcDbEntity
  8
0
  6
Continuous
 62
     7
 48
6.0
100
AcDbLine
 10
442.0822699345045
 20
351.3744624574529
 30
0.0
 11
441.3322699344986
 21
351.3744624574489
 31
0.0
  0
LINE
  5
30B
330
1F
100
AcDbEntity
  8
0
  6
Continuous
 62
     7
 48
6.0
100
AcDbLine
 10
442.0822699345006
 20
352.1244624574528
 30
0.0
 11
442.0822699345045
 21
351.3744624574529
 31
0.0
  0
LINE
  5
30C
330
1F
100
AcDbEntity
  8
0
  6
Continuous
 62
     7
 48
6.0
100
AcDbLine
 10
442.5822699344946
 20
352.124462457456
 30
0.0
 11
442.0822699345006
 21
352.1244624574528
 31
0.0
  0
LINE
  5
30D
330
1F
100
AcDbEntity
  8
0
  6
Continuous
 62
     7
 48
6.0
100
AcDbLine
 10
442.5822699345046
 20
351.374462457456
 30
0.0
 11
442.5822699344946
 21
352.124462457456
 31
0.0
  0
LINE
  5
30E
330
1F
100
AcDbEntity
  8
0
  6
Continuous
 62
     7
 48
6.0
100
AcDbLine
 10
443.3322699345045
 20
351.3744624574598
 30
0.0
 11
442.5822699345046
 21
351.374462457456
 31
0.0
  0
LINE
  5
30F
330
1F
100
AcDbEntity
  8
0
  6
Continuous
 62
     7
 48
6.0
100
AcDbLine
 10
443.3322699345065
 20
350.8744624574598
 30
0.0
 11
443.3322699345045
 21
351.3744624574598
 31
0.0
  0
LINE
  5
310
330
1F
100
AcDbEntity
  8
0
  6
Continuous
 62
     7
100
AcDbLine
 10
443.8322689767235
 20
351.1244621089939
 30
0.0
 11
443.8322689767235
 21
351.1244621089939
 31
0.0
  0
ARC
  5
311
330
1F
100
AcDbEntity
  8
0
  6
Continuous
 62
     7
100
AcDbCircle
 10
471.3322689767236
 20
373.1244621089938
 30
0.0
 40
4.500000000000074
100
AcDbArc
 50
119.9999999999997
 51
60.00000000000028
  0
ARC
  5
312
330
1F
100
AcDbEntity
  8
0
  6
Continuous
 62
     7
100
AcDbCircle
 10
471.3322689767236
 20
377.624462108994
 30
0.0
 40
2.25
100
AcDbArc
 50
0.0
 51
180.0
  0
LINE
  5
313
330
1F
100
AcDbEntity
  8
0
  6
Continuous
 62
     7
100
AcDbLine
 10
473.5822689767235
 20
369.227347791964
 30
0.0
 11
473.5822689767235
 21
369.227347791964
 31
0.0
  0
LINE
  5
314
330
1F
100
AcDbEntity
  8
0
  6
Continuous
 62
     7
100
AcDbLine
 10
469.0822689767236
 20
369.227347791964
 30
0.0
 11
469.0822689767236
 21
369.227347791964
 31
0.0
  0
LINE
  5
315
330
1F
100
AcDbEntity
  8
0
  6
Continuous
 62
     7
100
AcDbLine
 10
473.5822689767235
 20
377.021576426024
 30
0.0
 11
473.5822689767235
 21
377.624462108994
 31
0.0
  0
LINE
  5
316
330
1F
100
AcDbEntity
  8
0
  6
Continuous
 62
     7
100
AcDbLine
 10
469.0822689767236
 20
377.021576426024
 30
0.0
 11
469.0822689767236
 21
377.624462108994
 31
0.0
  0
LINE
  5
317
330
1F
100
AcDbEntity
  8
0
  6
Continuous
 62
     7
100
AcDbLine
 10
444.0822689767236
 20
383.624462108994
 30
0.0
 11
498.5822689767235
 21
383.624462108994
 31
0.0
  0
LINE
  5
318
330
1F
100
AcDbEntity
  8
0
  6
Continuous
 62
     7
100
AcDbLine
 10
439.4822689767236
 20
233.624462108994
 30
0.0
 11
439.4822689767236
 21
368.624462108994
 31
0.0
  0
ARC
  5
319
330
1F
100
AcDbEntity
  8
0
  6
Continuous
 62
     7
100
AcDbCircle
 10
444.0822689767242
 20
379.6244621089931
 30
0.0
 40
4.000000000000667
100
AcDbArc
 50
90.00000000000978
 51
179.9999999999902
  0
LINE
  5
31A
330
1F
100
AcDbEntity
  8
0
  6
Continuous
 62
     7
100
AcDbLine
 10
440.0822689767236
 20
368.624462108994
 30
0.0
 11
440.0822689767236
 21
379.624462108994
 31
0.0
  0
ARC
  5
31B
330
1F
100
AcDbEntity
  8
0
  6
Continuous
 62
     7
100
AcDbCircle
 10
498.5822689767227
 20
379.6244621089935
 30
0.0
 40
4.000000000000568
100
AcDbArc
 50
0.0000000000065138
 51
89.99999999999023
  0
LINE
  5
31C
330
1F
100
AcDbEntity
  8
0
  6
Continuous
 62
     7
100
AcDbLine
 10
502.5822689767235
 20
379.624462108994
 30
0.0
 11
502.5822689767235
 21
368.624462108994
 31
0.0
  0
LINE
  5
31D
330
1F
100
AcDbEntity
  8
0
  6
Continuous
 62
     7
 48
6.0
100
AcDbLine
 10
449.2597703922285
 20
357.2368920765221
 30
0.0
 11
493.4047703923355
 21
357.2368920765069
 31
0.0
  0
LINE
  5
31E
330
1F
100
AcDbEntity
  8
0
  6
Continuous
 62
     7
 48
6.0
100
AcDbLine
 10
449.2597703922315
 20
366.73689207628
 30
0.0
 11
449.2597703922285
 21
357.2368920765221
 31
0.0
  0
LINE
  5
31F
330
1F
100
AcDbEntity
  8
0
  6
Continuous
 62
     7
 48
6.0
100
AcDbLine
 10
493.4047703923385
 20
366.736892076265
 30
0.0
 11
449.2597703922315
 21
366.73689207628
 31
0.0
  0
LINE
  5
320
330
1F
100
AcDbEntity
  8
0
  6
Continuous
 62
     7
 48
6.0
100
AcDbLine
 10
493.4047703923355
 20
357.2368920765069
 30
0.0
 11
493.4047703923385
 21
366.736892076265
 31
0.0
  0
LINE
  5
321
330
1F
100
AcDbEntity
  8
0
  6
Continuous
 62
     7
 48
6.0
100
AcDbLine
 10
449.2597703922765
 20
362.23689207628
 30
0.0
 11
493.4047703922844
 21
362.2368920765068
 31
0.0
  0
LINE
  5
322
330
1F
100
AcDbEntity
  8
0
  6
Continuous
 62
     7
 48
6.0
100
AcDbLine
 10
492.1697703922696
 20
363.9868920765009
 30
0.0
 11
492.1697703922696
 21
363.9868920765009
 31
0.0
  0
LINE
  5
323
330
1F
100
AcDbEntity
  8
0
  6
Continuous
 62
     7
 48
6.0
100
AcDbLine
 10
491.4197703922635
 20
363.9868920764966
 30
0.0
 11
492.1697703922696
 21
363.9868920765009
 31
0.0
  0
LINE
  5
324
330
1F
100
AcDbEntity
  8
0
  6
Continuous
 62
     7
 48
6.0
100
AcDbLine
 10
491.4197703922676
 20
363.236892076497
 30
0.0
 11
491.4197703922635
 21
363.9868920764966
 31
0.0
  0
LINE
  5
325
330
1F
100
AcDbEntity
  8
0
  6
Continuous
 62
     7
 48
6.0
100
AcDbLine
 10
490.9197703922726
 20
363.236892076494
 30
0.0
 11
491.4197703922676
 21
363.236892076497
 31
0.0
  0
LINE
  5
326
330
1F
100
AcDbEntity
  8
0
  6
Continuous
 62
     7
 48
6.0
100
AcDbLine
 10
490.9197703922695
 20
363.986892076494
 30
0.0
 11
490.9197703922726
 21
363.236892076494
 31
0.0
  0
LINE
  5
327
330
1F
100
AcDbEntity
  8
0
  6
Continuous
 62
     7
 48
6.0
100
AcDbLine
 10
490.1697703922695
 20
363.9868920764909
 30
0.0
 11
490.9197703922695
 21
363.986892076494
 31
0.0
  0
LINE
  5
328
330
1F
100
AcDbEntity
  8
0
  6
Continuous
 62
     7
 48
6.0
100
AcDbLine
 10
490.1697703922605
 20
364.4868920764909
 30
0.0
 11
490.1697703922695
 21
363.9868920764909
 31
0.0
  0
LINE
  5
329
330
1F
100
AcDbEntity
  8
0
  6
Continuous
 62
     7
 48
6.0
100
AcDbLine
 10
490.9197703922665
 20
364.486892076494
 30
0.0
 11
490.1697703922605
 21
364.4868920764909
 31
0.0
  0
LINE
  5
32A
330
1F
100
AcDbEntity
  8
0
  6
Continuous
 62
     7
 48
6.0
100
AcDbLine
 10
490.9197703922625
 20
365.236892076494
 30
0.0
 11
490.9197703922665
 21
364.486892076494
 31
0.0
  0
LINE
  5
32B
330
1F
100
AcDbEntity
  8
0
  6
Continuous
 62
     7
 48
6.0
100
AcDbLine
 10
491.4197703922566
 20
365.2368920764967
 30
0.0
 11
490.9197703922625
 21
365.236892076494
 31
0.0
  0
LINE
  5
32C
330
1F
100
AcDbEntity
  8
0
  6
Continuous
 62
     7
 48
6.0
100
AcDbLine
 10
491.4197703922665
 20
364.4868920764969
 30
0.0
 11
491.4197703922566
 21
365.2368920764967
 31
0.0
  0
LINE
  5
32D
330
1F
100
AcDbEntity
  8
0
  6
Continuous
 62
     7
 48
6.0
100
AcDbLine
 10
492.1697703922665
 20
364.4868920765009
 30
0.0
 11
491.4197703922665
 21
364.4868920764969
 31
0.0
  0
LINE
  5
32E
330
1F
100
AcDbEntity
  8
0
  6
Continuous
 62
     7
 48
6.0
100
AcDbLine
 10
492.1697703922696
 20
363.9868920765009
 30
0.0
 11
492.1697703922665
 21
364.4868920765009
 31
0.0
  0
LINE
  5
32F
330
1F
100
AcDbEntity
  8
0
  6
Continuous
 62
     7
 48
6.0
100
AcDbLine
 10
492.7447703922846
 20
362.236892076504
 30
0.0
 11
492.7447703922555
 21
366.736892076504
 31
0.0
  0
LINE
  5
330
330
1F
100
AcDbEntity
  8
0
  6
Continuous
 62
     7
 48
6.0
100
AcDbLine
 10
490.2647703922926
 20
359.4868920764909
 30
0.0
 11
490.2647703922926
 21
359.4868920764909
 31
0.0
  0
LINE
  5
331
330
1F
100
AcDbEntity
  8
0
  6
Continuous
 62
     7
 48
6.0
100
AcDbLine
 10
489.5147703922866
 20
359.486892076487
 30
0.0
 11
490.2647703922926
 21
359.4868920764909
 31
0.0
  0
LINE
  5
332
330
1F
100
AcDbEntity
  8
0
  6
Continuous
 62
     7
 48
6.0
100
AcDbLine
 10
489.5147703922906
 20
358.736892076487
 30
0.0
 11
489.5147703922866
 21
359.486892076487
 31
0.0
  0
LINE
  5
333
330
1F
100
AcDbEntity
  8
0
  6
Continuous
 62
     7
 48
6.0
100
AcDbLine
 10
489.0147703922965
 20
358.736892076485
 30
0.0
 11
489.5147703922906
 21
358.736892076487
 31
0.0
  0
LINE
  5
334
330
1F
100
AcDbEntity
  8
0
  6
Continuous
 62
     7
 48
6.0
100
AcDbLine
 10
489.0147703922925
 20
359.486892076485
 30
0.0
 11
489.0147703922965
 21
358.736892076485
 31
0.0
  0
LINE
  5
335
330
1F
100
AcDbEntity
  8
0
  6
Continuous
 62
     7
 48
6.0
100
AcDbLine
 10
488.2647703922925
 20
359.486892076481
 30
0.0
 11
489.0147703922925
 21
359.486892076485
 31
0.0
  0
LINE
  5
336
330
1F
100
AcDbEntity
  8
0
  6
Continuous
 62
     7
 48
6.0
100
AcDbLine
 10
488.2647703922835
 20
359.986892076481
 30
0.0
 11
488.2647703922925
 21
359.486892076481
 31
0.0
  0
LINE
  5
337
330
1F
100
AcDbEntity
  8
0
  6
Continuous
 62
     7
 48
6.0
100
AcDbLine
 10
489.0147703922905
 20
359.986892076485
 30
0.0
 11
488.2647703922835
 21
359.986892076481
 31
0.0
  0
LINE
  5
338
330
1F
100
AcDbEntity
  8
0
  6
Continuous
 62
     7
 48
6.0
100
AcDbLine
 10
489.0147703922855
 20
360.736892076485
 30
0.0
 11
489.0147703922905
 21
359.986892076485
 31
0.0
  0
LINE
  5
339
330
1F
100
AcDbEntity
  8
0
  6
Continuous
 62
     7
 48
6.0
100
AcDbLine
 10
489.5147703922796
 20
360.736892076487
 30
0.0
 11
489.0147703922855
 21
360.736892076485
 31
0.0
  0
LINE
  5
33A
330
1F
100
AcDbEntity
  8
0
  6
Continuous
 62
     7
 48
6.0
100
AcDbLine
 10
489.5147703922906
 20
359.986892076487
 30
0.0
 11
489.5147703922796
 21
360.736892076487
 31
0.0
  0
LINE
  5
33B
330
1F
100
AcDbEntity
  8
0
  6
Continuous
 62
     7
 48
6.0
100
AcDbLine
 10
490.2647703922895
 20
359.9868920764909
 30
0.0
 11
489.5147703922906
 21
359.986892076487
 31
0.0
  0
LINE
  5
33C
330
1F
100
AcDbEntity
  8
0
  6
Continuous
 62
     7
 48
6.0
100
AcDbLine
 10
490.2647703922926
 20
359.4868920764909
 30
0.0
 11
490.2647703922895
 21
359.9868920764909
 31
0.0
  0
LINE
  5
33D
330
1F
100
AcDbEntity
  8
0
  6
Continuous
 62
     7
 48
6.0
100
AcDbLine
 10
488.3597703922696
 20
363.986892076481
 30
0.0
 11
488.3597703922696
 21
363.986892076481
 31
0.0
  0
LINE
  5
33E
330
1F
100
AcDbEntity
  8
0
  6
Continuous
 62
     7
 48
6.0
100
AcDbLine
 10
487.6097703922635
 20
363.986892076477
 30
0.0
 11
488.3597703922696
 21
363.986892076481
 31
0.0
  0
LINE
  5
33F
330
1F
100
AcDbEntity
  8
0
  6
Continuous
 62
     7
 48
6.0
100
AcDbLine
 10
487.6097703922676
 20
363.236892076477
 30
0.0
 11
487.6097703922635
 21
363.986892076477
 31
0.0
  0
LINE
  5
340
330
1F
100
AcDbEntity
  8
0
  6
Continuous
 62
     7
 48
6.0
100
AcDbLine
 10
487.1097703922726
 20
363.2368920764748
 30
0.0
 11
487.6097703922676
 21
363.236892076477
 31
0.0
  0
LINE
  5
341
330
1F
100
AcDbEntity
  8
0
  6
Continuous
 62
     7
 48
6.0
100
AcDbLine
 10
487.1097703922695
 20
363.9868920764748
 30
0.0
 11
487.1097703922726
 21
363.2368920764748
 31
0.0
  0
LINE
  5
342
330
1F
100
AcDbEntity
  8
0
  6
Continuous
 62
     7
 48
6.0
100
AcDbLine
 10
486.3597703922695
 20
363.986892076471
 30
0.0
 11
487.1097703922695
 21
363.9868920764748
 31
0.0
  0
LINE
  5
343
330
1F
100
AcDbEntity
  8
0
  6
Continuous
 62
     7
 48
6.0
100
AcDbLine
 10
486.3597703922605
 20
364.486892076471
 30
0.0
 11
486.3597703922695
 21
363.986892076471
 31
0.0
  0
LINE
  5
344
330
1F
100
AcDbEntity
  8
0
  6
Continuous
 62
     7
 48
6.0
100
AcDbLine
 10
487.1097703922665
 20
364.4868920764748
 30
0.0
 11
486.3597703922605
 21
364.486892076471
 31
0.0
  0
LINE
  5
345
330
1F
100
AcDbEntity
  8
0
  6
Continuous
 62
     7
 48
6.0
100
AcDbLine
 10
487.1097703922625
 20
365.2368920764748
 30
0.0
 11
487.1097703922665
 21
364.4868920764748
 31
0.0
  0
LINE
  5
346
330
1F
100
AcDbEntity
  8
0
  6
Continuous
 62
     7
 48
6.0
100
AcDbLine
 10
487.6097703922566
 20
365.236892076477
 30
0.0
 11
487.1097703922625
 21
365.2368920764748
 31
0.0
  0
LINE
  5
347
330
1F
100
AcDbEntity
  8
0
  6
Continuous
 62
     7
 48
6.0
100
AcDbLine
 10
487.6097703922665
 20
364.486892076477
 30
0.0
 11
487.6097703922566
 21
365.236892076477
 31
0.0
  0
LINE
  5
348
330
1F
100
AcDbEntity
  8
0
  6
Continuous
 62
     7
 48
6.0
100
AcDbLine
 10
488.3597703922665
 20
364.486892076481
 30
0.0
 11
487.6097703922665
 21
364.486892076477
 31
0.0
  0
LINE
  5
349
330
1F
100
AcDbEntity
  8
0
  6
Continuous
 62
     7
 48
6.0
100
AcDbLine
 10
488.3597703922696
 20
363.986892076481
 30
0.0
 11
488.3597703922665
 21
364.486892076481
 31
0.0
  0
LINE
  5
34A
330
1F
100
AcDbEntity
  8
0
  6
Continuous
 62
     7
 48
6.0
100
AcDbLine
 10
486.4547703923395
 20
359.486892076471
 30
0.0
 11
486.4547703923395
 21
359.486892076471
 31
0.0
  0
LINE
  5
34B
330
1F
100
AcDbEntity
  8
0
  6
Continuous
 62
     7
 48
6.0
100
AcDbLine
 10
485.7047703923335
 20
359.486892076468
 30
0.0
 11
486.4547703923395
 21
359.486892076471
 31
0.0
  0
LINE
  5
34C
330
1F
100
AcDbEntity
  8
0
  6
Continuous
 62
     7
 48
6.0
100
AcDbLine
 10
485.7047703923375
 20
358.7368920764677
 30
0.0
 11
485.7047703923335
 21
359.486892076468
 31
0.0
  0
LINE
  5
34D
330
1F
100
AcDbEntity
  8
0
  6
Continuous
 62
     7
 48
6.0
100
AcDbLine
 10
485.2047703923434
 20
358.7368920764646
 30
0.0
 11
485.7047703923375
 21
358.7368920764677
 31
0.0
  0
LINE
  5
34E
330
1F
100
AcDbEntity
  8
0
  6
Continuous
 62
     7
 48
6.0
100
AcDbLine
 10
485.2047703923395
 20
359.4868920764648
 30
0.0
 11
485.2047703923434
 21
358.7368920764646
 31
0.0
  0
LINE
  5
34F
330
1F
100
AcDbEntity
  8
0
  6
Continuous
 62
     7
 48
6.0
100
AcDbLine
 10
484.4547703923395
 20
359.4868920764608
 30
0.0
 11
485.2047703923395
 21
359.4868920764648
 31
0.0
  0
LINE
  5
350
330
1F
100
AcDbEntity
  8
0
  6
Continuous
 62
     7
 48
6.0
100
AcDbLine
 10
484.4547703923304
 20
359.9868920764608
 30
0.0
 11
484.4547703923395
 21
359.4868920764608
 31
0.0
  0
LINE
  5
351
330
1F
100
AcDbEntity
  8
0
  6
Continuous
 62
     7
 48
6.0
100
AcDbLine
 10
485.2047703923365
 20
359.9868920764648
 30
0.0
 11
484.4547703923304
 21
359.9868920764608
 31
0.0
  0
LINE
  5
352
330
1F
100
AcDbEntity
  8
0
  6
Continuous
 62
     7
 48
6.0
100
AcDbLine
 10
485.2047703923324
 20
360.7368920764649
 30
0.0
 11
485.2047703923365
 21
359.9868920764648
 31
0.0
  0
LINE
  5
353
330
1F
100
AcDbEntity
  8
0
  6
Continuous
 62
     7
 48
6.0
100
AcDbLine
 10
485.7047703923265
 20
360.736892076468
 30
0.0
 11
485.2047703923324
 21
360.7368920764649
 31
0.0
  0
LINE
  5
354
330
1F
100
AcDbEntity
  8
0
  6
Continuous
 62
     7
 48
6.0
100
AcDbLine
 10
485.7047703923365
 20
359.9868920764679
 30
0.0
 11
485.7047703923265
 21
360.736892076468
 31
0.0
  0
LINE
  5
355
330
1F
100
AcDbEntity
  8
0
  6
Continuous
 62
     7
 48
6.0
100
AcDbLine
 10
486.4547703923364
 20
359.986892076471
 30
0.0
 11
485.7047703923365
 21
359.9868920764679
 31
0.0
  0
LINE
  5
356
330
1F
100
AcDbEntity
  8
0
  6
Continuous
 62
     7
 48
6.0
100
AcDbLine
 10
486.4547703923395
 20
359.486892076471
 30
0.0
 11
486.4547703923364
 21
359.986892076471
 31
0.0
  0
LINE
  5
357
330
1F
100
AcDbEntity
  8
0
  6
Continuous
 62
     7
 48
6.0
100
AcDbLine
 10
484.5497703922696
 20
363.9868920764618
 30
0.0
 11
484.5497703922696
 21
363.9868920764618
 31
0.0
  0
LINE
  5
358
330
1F
100
AcDbEntity
  8
0
  6
Continuous
 62
     7
 48
6.0
100
AcDbLine
 10
483.7997703922635
 20
363.986892076458
 30
0.0
 11
484.5497703922696
 21
363.9868920764618
 31
0.0
  0
LINE
  5
359
330
1F
100
AcDbEntity
  8
0
  6
Continuous
 62
     7
 48
6.0
100
AcDbLine
 10
483.7997703922676
 20
363.236892076458
 30
0.0
 11
483.7997703922635
 21
363.986892076458
 31
0.0
  0
LINE
  5
35A
330
1F
100
AcDbEntity
  8
0
  6
Continuous
 62
     7
 48
6.0
100
AcDbLine
 10
483.2997703922725
 20
363.2368920764549
 30
0.0
 11
483.7997703922676
 21
363.236892076458
 31
0.0
  0
LINE
  5
35B
330
1F
100
AcDbEntity
  8
0
  6
Continuous
 62
     7
 48
6.0
100
AcDbLine
 10
483.2997703922695
 20
363.9868920764549
 30
0.0
 11
483.2997703922725
 21
363.2368920764549
 31
0.0
  0
LINE
  5
35C
330
1F
100
AcDbEntity
  8
0
  6
Continuous
 62
     7
 48
6.0
100
AcDbLine
 10
482.5497703922695
 20
363.9868920764509
 30
0.0
 11
483.2997703922695
 21
363.9868920764549
 31
0.0
  0
LINE
  5
35D
330
1F
100
AcDbEntity
  8
0
  6
Continuous
 62
     7
 48
6.0
100
AcDbLine
 10
482.5497703922605
 20
364.486892076451
 30
0.0
 11
482.5497703922695
 21
363.9868920764509
 31
0.0
  0
LINE
  5
35E
330
1F
100
AcDbEntity
  8
0
  6
Continuous
 62
     7
 48
6.0
100
AcDbLine
 10
483.2997703922665
 20
364.4868920764549
 30
0.0
 11
482.5497703922605
 21
364.486892076451
 31
0.0
  0
LINE
  5
35F
330
1F
100
AcDbEntity
  8
0
  6
Continuous
 62
     7
 48
6.0
100
AcDbLine
 10
483.2997703922625
 20
365.2368920764549
 30
0.0
 11
483.2997703922665
 21
364.4868920764549
 31
0.0
  0
LINE
  5
360
330
1F
100
AcDbEntity
  8
0
  6
Continuous
 62
     7
 48
6.0
100
AcDbLine
 10
483.7997703922566
 20
365.236892076458
 30
0.0
 11
483.2997703922625
 21
365.2368920764549
 31
0.0
  0
LINE
  5
361
330
1F
100
AcDbEntity
  8
0
  6
Continuous
 62
     7
 48
6.0
100
AcDbLine
 10
483.7997703922665
 20
364.486892076458
 30
0.0
 11
483.7997703922566
 21
365.236892076458
 31
0.0
  0
LINE
  5
362
330
1F
100
AcDbEntity
  8
0
  6
Continuous
 62
     7
 48
6.0
100
AcDbLine
 10
484.5497703922665
 20
364.4868920764618
 30
0.0
 11
483.7997703922665
 21
364.486892076458
 31
0.0
  0
LINE
  5
363
330
1F
100
AcDbEntity
  8
0
  6
Continuous
 62
     7
 48
6.0
100
AcDbLine
 10
484.5497703922696
 20
363.9868920764618
 30
0.0
 11
484.5497703922665
 21
364.4868920764618
 31
0.0
  0
LINE
  5
364
330
1F
100
AcDbEntity
  8
0
  6
Continuous
 62
     7
 48
6.0
100
AcDbLine
 10
482.6447703923395
 20
359.4868920764518
 30
0.0
 11
482.6447703923395
 21
359.4868920764518
 31
0.0
  0
LINE
  5
365
330
1F
100
AcDbEntity
  8
0
  6
Continuous
 62
     7
 48
6.0
100
AcDbLine
 10
481.8947703923336
 20
359.486892076448
 30
0.0
 11
482.6447703923395
 21
359.4868920764518
 31
0.0
  0
LINE
  5
366
330
1F
100
AcDbEntity
  8
0
  6
Continuous
 62
     7
 48
6.0
100
AcDbLine
 10
481.8947703923376
 20
358.736892076448
 30
0.0
 11
481.8947703923336
 21
359.486892076448
 31
0.0
  0
LINE
  5
367
330
1F
100
AcDbEntity
  8
0
  6
Continuous
 62
     7
 48
6.0
100
AcDbLine
 10
481.3947703923425
 20
358.7368920764447
 30
0.0
 11
481.8947703923376
 21
358.736892076448
 31
0.0
  0
LINE
  5
368
330
1F
100
AcDbEntity
  8
0
  6
Continuous
 62
     7
 48
6.0
100
AcDbLine
 10
481.3947703923395
 20
359.4868920764449
 30
0.0
 11
481.3947703923425
 21
358.7368920764447
 31
0.0
  0
LINE
  5
369
330
1F
100
AcDbEntity
  8
0
  6
Continuous
 62
     7
 48
6.0
100
AcDbLine
 10
480.6447703923395
 20
359.4868920764418
 30
0.0
 11
481.3947703923395
 21
359.4868920764449
 31
0.0
  0
LINE
  5
36A
330
1F
100
AcDbEntity
  8
0
  6
Continuous
 62
     7
 48
6.0
100
AcDbLine
 10
480.6447703923304
 20
359.986892076442
 30
0.0
 11
480.6447703923395
 21
359.4868920764418
 31
0.0
  0
LINE
  5
36B
330
1F
100
AcDbEntity
  8
0
  6
Continuous
 62
     7
 48
6.0
100
AcDbLine
 10
481.3947703923365
 20
359.9868920764449
 30
0.0
 11
480.6447703923304
 21
359.986892076442
 31
0.0
  0
LINE
  5
36C
330
1F
100
AcDbEntity
  8
0
  6
Continuous
 62
     7
 48
6.0
100
AcDbLine
 10
481.3947703923324
 20
360.7368920764449
 30
0.0
 11
481.3947703923365
 21
359.9868920764449
 31
0.0
  0
LINE
  5
36D
330
1F
100
AcDbEntity
  8
0
  6
Continuous
 62
     7
 48
6.0
100
AcDbLine
 10
481.8947703923265
 20
360.736892076448
 30
0.0
 11
481.3947703923324
 21
360.7368920764449
 31
0.0
  0
LINE
  5
36E
330
1F
100
AcDbEntity
  8
0
  6
Continuous
 62
     7
 48
6.0
100
AcDbLine
 10
481.8947703923365
 20
359.986892076448
 30
0.0
 11
481.8947703923265
 21
360.736892076448
 31
0.0
  0
LINE
  5
36F
330
1F
100
AcDbEntity
  8
0
  6
Continuous
 62
     7
 48
6.0
100
AcDbLine
 10
482.6447703923364
 20
359.9868920764519
 30
0.0
 11
481.8947703923365
 21
359.986892076448
 31
0.0
  0
LINE
  5
370
330
1F
100
AcDbEntity
  8
0
  6
Continuous
 62
     7
 48
6.0
100
AcDbLine
 10
482.6447703923395
 20
359.4868920764518
 30
0.0
 11
482.6447703923364
 21
359.9868920764519
 31
0.0
  0
LINE
  5
371
330
1F
100
AcDbEntity
  8
0
  6
Continuous
 62
     7
 48
6.0
100
AcDbLine
 10
480.7397703922906
 20
363.986892076442
 30
0.0
 11
480.7397703922906
 21
363.986892076442
 31
0.0
  0
LINE
  5
372
330
1F
100
AcDbEntity
  8
0
  6
Continuous
 62
     7
 48
6.0
100
AcDbLine
 10
479.9897703922854
 20
363.9868920764378
 30
0.0
 11
480.7397703922906
 21
363.986892076442
 31
0.0
  0
LINE
  5
373
330
1F
100
AcDbEntity
  8
0
  6
Continuous
 62
     7
 48
6.0
100
AcDbLine
 10
479.9897703922884
 20
363.2368920764378
 30
0.0
 11
479.9897703922854
 21
363.9868920764378
 31
0.0
  0
LINE
  5
374
330
1F
100
AcDbEntity
  8
0
  6
Continuous
 62
     7
 48
6.0
100
AcDbLine
 10
479.4897703922945
 20
363.2368920764359
 30
0.0
 11
479.9897703922884
 21
363.2368920764378
 31
0.0
  0
LINE
  5
375
330
1F
100
AcDbEntity
  8
0
  6
Continuous
 62
     7
 48
6.0
100
AcDbLine
 10
479.4897703922916
 20
363.986892076436
 30
0.0
 11
479.4897703922945
 21
363.2368920764359
 31
0.0
  0
LINE
  5
376
330
1F
100
AcDbEntity
  8
0
  6
Continuous
 62
     7
 48
6.0
100
AcDbLine
 10
478.7397703922905
 20
363.986892076432
 30
0.0
 11
479.4897703922916
 21
363.986892076436
 31
0.0
  0
LINE
  5
377
330
1F
100
AcDbEntity
  8
0
  6
Continuous
 62
     7
 48
6.0
100
AcDbLine
 10
478.7397703922826
 20
364.486892076432
 30
0.0
 11
478.7397703922905
 21
363.986892076432
 31
0.0
  0
LINE
  5
378
330
1F
100
AcDbEntity
  8
0
  6
Continuous
 62
     7
 48
6.0
100
AcDbLine
 10
479.4897703922885
 20
364.486892076436
 30
0.0
 11
478.7397703922826
 21
364.486892076432
 31
0.0
  0
LINE
  5
379
330
1F
100
AcDbEntity
  8
0
  6
Continuous
 62
     7
 48
6.0
100
AcDbLine
 10
479.4897703922843
 20
365.2368920764359
 30
0.0
 11
479.4897703922885
 21
364.486892076436
 31
0.0
  0
LINE
  5
37A
330
1F
100
AcDbEntity
  8
0
  6
Continuous
 62
     7
 48
6.0
100
AcDbLine
 10
479.9897703922786
 20
365.2368920764379
 30
0.0
 11
479.4897703922843
 21
365.2368920764359
 31
0.0
  0
LINE
  5
37B
330
1F
100
AcDbEntity
  8
0
  6
Continuous
 62
     7
 48
6.0
100
AcDbLine
 10
479.9897703922884
 20
364.4868920764376
 30
0.0
 11
479.9897703922786
 21
365.2368920764379
 31
0.0
  0
LINE
  5
37C
330
1F
100
AcDbEntity
  8
0
  6
Continuous
 62
     7
 48
6.0
100
AcDbLine
 10
480.7397703922886
 20
364.486892076442
 30
0.0
 11
479.9897703922884
 21
364.4868920764376
 31
0.0
  0
LINE
  5
37D
330
1F
100
AcDbEntity
  8
0
  6
Continuous
 62
     7
 48
6.0
100
AcDbLine
 10
480.7397703922906
 20
363.986892076442
 30
0.0
 11
480.7397703922886
 21
364.486892076442
 31
0.0
  0
LINE
  5
37E
330
1F
100
AcDbEntity
  8
0
  6
Continuous
 62
     7
 48
6.0
100
AcDbLine
 10
478.8347703923175
 20
359.486892076432
 30
0.0
 11
478.8347703923175
 21
359.486892076432
 31
0.0
  0
LINE
  5
37F
330
1F
100
AcDbEntity
  8
0
  6
Continuous
 62
     7
 48
6.0
100
AcDbLine
 10
478.0847703923115
 20
359.4868920764291
 30
0.0
 11
478.8347703923175
 21
359.486892076432
 31
0.0
  0
LINE
  5
380
330
1F
100
AcDbEntity
  8
0
  6
Continuous
 62
     7
 48
6.0
100
AcDbLine
 10
478.0847703923154
 20
358.736892076429
 30
0.0
 11
478.0847703923115
 21
359.4868920764291
 31
0.0
  0
LINE
  5
381
330
1F
100
AcDbEntity
  8
0
  6
Continuous
 62
     7
 48
6.0
100
AcDbLine
 10
477.5847703923216
 20
358.7368920764256
 30
0.0
 11
478.0847703923154
 21
358.736892076429
 31
0.0
  0
LINE
  5
382
330
1F
100
AcDbEntity
  8
0
  6
Continuous
 62
     7
 48
6.0
100
AcDbLine
 10
477.5847703923175
 20
359.4868920764259
 30
0.0
 11
477.5847703923216
 21
358.7368920764256
 31
0.0
  0
LINE
  5
383
330
1F
100
AcDbEntity
  8
0
  6
Continuous
 62
     7
 48
6.0
100
AcDbLine
 10
476.8347703923174
 20
359.486892076422
 30
0.0
 11
477.5847703923175
 21
359.4868920764259
 31
0.0
  0
LINE
  5
384
330
1F
100
AcDbEntity
  8
0
  6
Continuous
 62
     7
 48
6.0
100
AcDbLine
 10
476.8347703923086
 20
359.9868920764218
 30
0.0
 11
476.8347703923174
 21
359.486892076422
 31
0.0
  0
LINE
  5
385
330
1F
100
AcDbEntity
  8
0
  6
Continuous
 62
     7
 48
6.0
100
AcDbLine
 10
477.5847703923155
 20
359.9868920764258
 30
0.0
 11
476.8347703923086
 21
359.9868920764218
 31
0.0
  0
LINE
  5
386
330
1F
100
AcDbEntity
  8
0
  6
Continuous
 62
     7
 48
6.0
100
AcDbLine
 10
477.5847703923103
 20
360.736892076426
 30
0.0
 11
477.5847703923155
 21
359.9868920764258
 31
0.0
  0
LINE
  5
387
330
1F
100
AcDbEntity
  8
0
  6
Continuous
 62
     7
 48
6.0
100
AcDbLine
 10
478.0847703923045
 20
360.736892076429
 30
0.0
 11
477.5847703923103
 21
360.736892076426
 31
0.0
  0
LINE
  5
388
330
1F
100
AcDbEntity
  8
0
  6
Continuous
 62
     7
 48
6.0
100
AcDbLine
 10
478.0847703923154
 20
359.9868920764291
 30
0.0
 11
478.0847703923045
 21
360.736892076429
 31
0.0
  0
LINE
  5
389
330
1F
100
AcDbEntity
  8
0
  6
Continuous
 62
     7
 48
6.0
100
AcDbLine
 10
478.8347703923145
 20
359.986892076432
 30
0.0
 11
478.0847703923154
 21
359.9868920764291
 31
0.0
  0
LINE
  5
38A
330
1F
100
AcDbEntity
  8
0
  6
Continuous
 62
     7
 48
6.0
100
AcDbLine
 10
478.8347703923175
 20
359.486892076432
 30
0.0
 11
478.8347703923145
 21
359.986892076432
 31
0.0
  0
LINE
  5
38B
330
1F
100
AcDbEntity
  8
0
  6
Continuous
 62
     7
 48
6.0
100
AcDbLine
 10
476.9297703922695
 20
363.986892076422
 30
0.0
 11
476.9297703922695
 21
363.986892076422
 31
0.0
  0
LINE
  5
38C
330
1F
100
AcDbEntity
  8
0
  6
Continuous
 62
     7
 48
6.0
100
AcDbLine
 10
476.1797703922635
 20
363.9868920764188
 30
0.0
 11
476.9297703922695
 21
363.986892076422
 31
0.0
  0
LINE
  5
38D
330
1F
100
AcDbEntity
  8
0
  6
Continuous
 62
     7
 48
6.0
100
AcDbLine
 10
476.1797703922676
 20
363.2368920764188
 30
0.0
 11
476.1797703922635
 21
363.9868920764188
 31
0.0
  0
LINE
  5
38E
330
1F
100
AcDbEntity
  8
0
  6
Continuous
 62
     7
 48
6.0
100
AcDbLine
 10
475.6797703922725
 20
363.236892076416
 30
0.0
 11
476.1797703922676
 21
363.2368920764188
 31
0.0
  0
LINE
  5
38F
330
1F
100
AcDbEntity
  8
0
  6
Continuous
 62
     7
 48
6.0
100
AcDbLine
 10
475.6797703922694
 20
363.9868920764159
 30
0.0
 11
475.6797703922725
 21
363.236892076416
 31
0.0
  0
LINE
  5
390
330
1F
100
AcDbEntity
  8
0
  6
Continuous
 62
     7
 48
6.0
100
AcDbLine
 10
474.9297703922695
 20
363.9868920764115
 30
0.0
 11
475.6797703922694
 21
363.9868920764159
 31
0.0
  0
LINE
  5
391
330
1F
100
AcDbEntity
  8
0
  6
Continuous
 62
     7
 48
6.0
100
AcDbLine
 10
474.9297703922604
 20
364.4868920764117
 30
0.0
 11
474.9297703922695
 21
363.9868920764115
 31
0.0
  0
LINE
  5
392
330
1F
100
AcDbEntity
  8
0
  6
Continuous
 62
     7
 48
6.0
100
AcDbLine
 10
475.6797703922665
 20
364.4868920764159
 30
0.0
 11
474.9297703922604
 21
364.4868920764117
 31
0.0
  0
LINE
  5
393
330
1F
100
AcDbEntity
  8
0
  6
Continuous
 62
     7
 48
6.0
100
AcDbLine
 10
475.6797703922625
 20
365.2368920764159
 30
0.0
 11
475.6797703922665
 21
364.4868920764159
 31
0.0
  0
LINE
  5
394
330
1F
100
AcDbEntity
  8
0
  6
Continuous
 62
     7
 48
6.0
100
AcDbLine
 10
476.1797703922565
 20
365.2368920764188
 30
0.0
 11
475.6797703922625
 21
365.2368920764159
 31
0.0
  0
LINE
  5
395
330
1F
100
AcDbEntity
  8
0
  6
Continuous
 62
     7
 48
6.0
100
AcDbLine
 10
476.1797703922665
 20
364.4868920764188
 30
0.0
 11
476.1797703922565
 21
365.2368920764188
 31
0.0
  0
LINE
  5
396
330
1F
100
AcDbEntity
  8
0
  6
Continuous
 62
     7
 48
6.0
100
AcDbLine
 10
476.9297703922664
 20
364.4868920764217
 30
0.0
 11
476.1797703922665
 21
364.4868920764188
 31
0.0
  0
LINE
  5
397
330
1F
100
AcDbEntity
  8
0
  6
Continuous
 62
     7
 48
6.0
100
AcDbLine
 10
476.9297703922695
 20
363.986892076422
 30
0.0
 11
476.9297703922664
 21
364.4868920764217
 31
0.0
  0
LINE
  5
398
330
1F
100
AcDbEntity
  8
0
  6
Continuous
 62
     7
 48
6.0
100
AcDbLine
 10
475.0247703922926
 20
359.486892076413
 30
0.0
 11
475.0247703922926
 21
359.486892076413
 31
0.0
  0
LINE
  5
399
330
1F
100
AcDbEntity
  8
0
  6
Continuous
 62
     7
 48
6.0
100
AcDbLine
 10
474.2747703922866
 20
359.4868920764089
 30
0.0
 11
475.0247703922926
 21
359.486892076413
 31
0.0
  0
LINE
  5
39A
330
1F
100
AcDbEntity
  8
0
  6
Continuous
 62
     7
 48
6.0
100
AcDbLine
 10
474.2747703922906
 20
358.7368920764089
 30
0.0
 11
474.2747703922866
 21
359.4868920764089
 31
0.0
  0
LINE
  5
39B
330
1F
100
AcDbEntity
  8
0
  6
Continuous
 62
     7
 48
6.0
100
AcDbLine
 10
473.7747703922965
 20
358.7368920764058
 30
0.0
 11
474.2747703922906
 21
358.7368920764089
 31
0.0
  0
LINE
  5
39C
330
1F
100
AcDbEntity
  8
0
  6
Continuous
 62
     7
 48
6.0
100
AcDbLine
 10
473.7747703922925
 20
359.486892076406
 30
0.0
 11
473.7747703922965
 21
358.7368920764058
 31
0.0
  0
LINE
  5
39D
330
1F
100
AcDbEntity
  8
0
  6
Continuous
 62
     7
 48
6.0
100
AcDbLine
 10
473.0247703922925
 20
359.486892076402
 30
0.0
 11
473.7747703922925
 21
359.486892076406
 31
0.0
  0
LINE
  5
39E
330
1F
100
AcDbEntity
  8
0
  6
Continuous
 62
     7
 48
6.0
100
AcDbLine
 10
473.0247703922835
 20
359.9868920764019
 30
0.0
 11
473.0247703922925
 21
359.486892076402
 31
0.0
  0
LINE
  5
39F
330
1F
100
AcDbEntity
  8
0
  6
Continuous
 62
     7
 48
6.0
100
AcDbLine
 10
473.7747703922905
 20
359.9868920764059
 30
0.0
 11
473.0247703922835
 21
359.9868920764019
 31
0.0
  0
LINE
  5
3A0
330
1F
100
AcDbEntity
  8
0
  6
Continuous
 62
     7
 48
6.0
100
AcDbLine
 10
473.7747703922855
 20
360.7368920764059
 30
0.0
 11
473.7747703922905
 21
359.9868920764059
 31
0.0
  0
LINE
  5
3A1
330
1F
100
AcDbEntity
  8
0
  6
Continuous
 62
     7
 48
6.0
100
AcDbLine
 10
474.2747703922796
 20
360.7368920764088
 30
0.0
 11
473.7747703922855
 21
360.7368920764059
 31
0.0
  0
LINE
  5
3A2
330
1F
100
AcDbEntity
  8
0
  6
Continuous
 62
     7
 48
6.0
100
AcDbLine
 10
474.2747703922906
 20
359.986892076409
 30
0.0
 11
474.2747703922796
 21
360.7368920764088
 31
0.0
  0
LINE
  5
3A3
330
1F
100
AcDbEntity
  8
0
  6
Continuous
 62
     7
 48
6.0
100
AcDbLine
 10
475.0247703922893
 20
359.986892076413
 30
0.0
 11
474.2747703922906
 21
359.986892076409
 31
0.0
  0
LINE
  5
3A4
330
1F
100
AcDbEntity
  8
0
  6
Continuous
 62
     7
 48
6.0
100
AcDbLine
 10
475.0247703922926
 20
359.486892076413
 30
0.0
 11
475.0247703922893
 21
359.986892076413
 31
0.0
  0
LINE
  5
3A5
330
1F
100
AcDbEntity
  8
0
  6
Continuous
 62
     7
 48
6.0
100
AcDbLine
 10
473.1197703922906
 20
363.986892076403
 30
0.0
 11
473.1197703922906
 21
363.986892076403
 31
0.0
  0
LINE
  5
3A6
330
1F
100
AcDbEntity
  8
0
  6
Continuous
 62
     7
 48
6.0
100
AcDbLine
 10
472.3697703922856
 20
363.9868920763988
 30
0.0
 11
473.1197703922906
 21
363.986892076403
 31
0.0
  0
LINE
  5
3A7
330
1F
100
AcDbEntity
  8
0
  6
Continuous
 62
     7
 48
6.0
100
AcDbLine
 10
472.3697703922886
 20
363.2368920763986
 30
0.0
 11
472.3697703922856
 21
363.9868920763988
 31
0.0
  0
LINE
  5
3A8
330
1F
100
AcDbEntity
  8
0
  6
Continuous
 62
     7
 48
6.0
100
AcDbLine
 10
471.8697703922946
 20
363.2368920763958
 30
0.0
 11
472.3697703922886
 21
363.2368920763986
 31
0.0
  0
LINE
  5
3A9
330
1F
100
AcDbEntity
  8
0
  6
Continuous
 62
     7
 48
6.0
100
AcDbLine
 10
471.8697703922916
 20
363.9868920763958
 30
0.0
 11
471.8697703922946
 21
363.2368920763958
 31
0.0
  0
LINE
  5
3AA
330
1F
100
AcDbEntity
  8
0
  6
Continuous
 62
     7
 48
6.0
100
AcDbLine
 10
471.1197703922906
 20
363.986892076393
 30
0.0
 11
471.8697703922916
 21
363.9868920763958
 31
0.0
  0
LINE
  5
3AB
330
1F
100
AcDbEntity
  8
0
  6
Continuous
 62
     7
 48
6.0
100
AcDbLine
 10
471.1197703922826
 20
364.486892076393
 30
0.0
 11
471.1197703922906
 21
363.986892076393
 31
0.0
  0
LINE
  5
3AC
330
1F
100
AcDbEntity
  8
0
  6
Continuous
 62
     7
 48
6.0
100
AcDbLine
 10
471.8697703922885
 20
364.4868920763958
 30
0.0
 11
471.1197703922826
 21
364.486892076393
 31
0.0
  0
LINE
  5
3AD
330
1F
100
AcDbEntity
  8
0
  6
Continuous
 62
     7
 48
6.0
100
AcDbLine
 10
471.8697703922845
 20
365.2368920763958
 30
0.0
 11
471.8697703922885
 21
364.4868920763958
 31
0.0
  0
LINE
  5
3AE
330
1F
100
AcDbEntity
  8
0
  6
Continuous
 62
     7
 48
6.0
100
AcDbLine
 10
472.3697703922786
 20
365.236892076399
 30
0.0
 11
471.8697703922845
 21
365.2368920763958
 31
0.0
  0
LINE
  5
3AF
330
1F
100
AcDbEntity
  8
0
  6
Continuous
 62
     7
 48
6.0
100
AcDbLine
 10
472.3697703922886
 20
364.4868920763988
 30
0.0
 11
472.3697703922786
 21
365.236892076399
 31
0.0
  0
LINE
  5
3B0
330
1F
100
AcDbEntity
  8
0
  6
Continuous
 62
     7
 48
6.0
100
AcDbLine
 10
473.1197703922886
 20
364.486892076403
 30
0.0
 11
472.3697703922886
 21
364.4868920763988
 31
0.0
  0
LINE
  5
3B1
330
1F
100
AcDbEntity
  8
0
  6
Continuous
 62
     7
 48
6.0
100
AcDbLine
 10
473.1197703922906
 20
363.986892076403
 30
0.0
 11
473.1197703922886
 21
364.486892076403
 31
0.0
  0
LINE
  5
3B2
330
1F
100
AcDbEntity
  8
0
  6
Continuous
 62
     7
 48
6.0
100
AcDbLine
 10
471.2147703923175
 20
359.486892076393
 30
0.0
 11
471.2147703923175
 21
359.486892076393
 31
0.0
  0
LINE
  5
3B3
330
1F
100
AcDbEntity
  8
0
  6
Continuous
 62
     7
 48
6.0
100
AcDbLine
 10
470.4647703923115
 20
359.4868920763889
 30
0.0
 11
471.2147703923175
 21
359.486892076393
 31
0.0
  0
LINE
  5
3B4
330
1F
100
AcDbEntity
  8
0
  6
Continuous
 62
     7
 48
6.0
100
AcDbLine
 10
470.4647703923155
 20
358.7368920763889
 30
0.0
 11
470.4647703923115
 21
359.4868920763889
 31
0.0
  0
LINE
  5
3B5
330
1F
100
AcDbEntity
  8
0
  6
Continuous
 62
     7
 48
6.0
100
AcDbLine
 10
469.9647703923216
 20
358.7368920763868
 30
0.0
 11
470.4647703923155
 21
358.7368920763889
 31
0.0
  0
LINE
  5
3B6
330
1F
100
AcDbEntity
  8
0
  6
Continuous
 62
     7
 48
6.0
100
AcDbLine
 10
469.9647703923175
 20
359.4868920763869
 30
0.0
 11
469.9647703923216
 21
358.7368920763868
 31
0.0
  0
LINE
  5
3B7
330
1F
100
AcDbEntity
  8
0
  6
Continuous
 62
     7
 48
6.0
100
AcDbLine
 10
469.2147703923176
 20
359.486892076383
 30
0.0
 11
469.9647703923175
 21
359.4868920763869
 31
0.0
  0
LINE
  5
3B8
330
1F
100
AcDbEntity
  8
0
  6
Continuous
 62
     7
 48
6.0
100
AcDbLine
 10
469.2147703923086
 20
359.986892076383
 30
0.0
 11
469.2147703923176
 21
359.486892076383
 31
0.0
  0
LINE
  5
3B9
330
1F
100
AcDbEntity
  8
0
  6
Continuous
 62
     7
 48
6.0
100
AcDbLine
 10
469.9647703923155
 20
359.9868920763869
 30
0.0
 11
469.2147703923086
 21
359.986892076383
 31
0.0
  0
LINE
  5
3BA
330
1F
100
AcDbEntity
  8
0
  6
Continuous
 62
     7
 48
6.0
100
AcDbLine
 10
469.9647703923106
 20
360.736892076387
 30
0.0
 11
469.9647703923155
 21
359.9868920763869
 31
0.0
  0
LINE
  5
3BB
330
1F
100
AcDbEntity
  8
0
  6
Continuous
 62
     7
 48
6.0
100
AcDbLine
 10
470.4647703923045
 20
360.7368920763889
 30
0.0
 11
469.9647703923106
 21
360.736892076387
 31
0.0
  0
LINE
  5
3BC
330
1F
100
AcDbEntity
  8
0
  6
Continuous
 62
     7
 48
6.0
100
AcDbLine
 10
470.4647703923155
 20
359.9868920763889
 30
0.0
 11
470.4647703923045
 21
360.7368920763889
 31
0.0
  0
LINE
  5
3BD
330
1F
100
AcDbEntity
  8
0
  6
Continuous
 62
     7
 48
6.0
100
AcDbLine
 10
471.2147703923145
 20
359.986892076393
 30
0.0
 11
470.4647703923155
 21
359.9868920763889
 31
0.0
  0
LINE
  5
3BE
330
1F
100
AcDbEntity
  8
0
  6
Continuous
 62
     7
 48
6.0
100
AcDbLine
 10
471.2147703923175
 20
359.486892076393
 30
0.0
 11
471.2147703923145
 21
359.986892076393
 31
0.0
  0
LINE
  5
3BF
330
1F
100
AcDbEntity
  8
0
  6
Continuous
 62
     7
 48
6.0
100
AcDbLine
 10
469.3097703922695
 20
363.986892076383
 30
0.0
 11
469.3097703922695
 21
363.986892076383
 31
0.0
  0
LINE
  5
3C0
330
1F
100
AcDbEntity
  8
0
  6
Continuous
 62
     7
 48
6.0
100
AcDbLine
 10
468.5597703922636
 20
363.9868920763798
 30
0.0
 11
469.3097703922695
 21
363.986892076383
 31
0.0
  0
LINE
  5
3C1
330
1F
100
AcDbEntity
  8
0
  6
Continuous
 62
     7
 48
6.0
100
AcDbLine
 10
468.5597703922676
 20
363.2368920763798
 30
0.0
 11
468.5597703922636
 21
363.9868920763798
 31
0.0
  0
LINE
  5
3C2
330
1F
100
AcDbEntity
  8
0
  6
Continuous
 62
     7
 48
6.0
100
AcDbLine
 10
468.0597703922726
 20
363.236892076377
 30
0.0
 11
468.5597703922676
 21
363.2368920763798
 31
0.0
  0
LINE
  5
3C3
330
1F
100
AcDbEntity
  8
0
  6
Continuous
 62
     7
 48
6.0
100
AcDbLine
 10
468.0597703922695
 20
363.9868920763767
 30
0.0
 11
468.0597703922726
 21
363.236892076377
 31
0.0
  0
LINE
  5
3C4
330
1F
100
AcDbEntity
  8
0
  6
Continuous
 62
     7
 48
6.0
100
AcDbLine
 10
467.3097703922696
 20
363.986892076373
 30
0.0
 11
468.0597703922695
 21
363.9868920763767
 31
0.0
  0
LINE
  5
3C5
330
1F
100
AcDbEntity
  8
0
  6
Continuous
 62
     7
 48
6.0
100
AcDbLine
 10
467.3097703922605
 20
364.486892076373
 30
0.0
 11
467.3097703922696
 21
363.986892076373
 31
0.0
  0
LINE
  5
3C6
330
1F
100
AcDbEntity
  8
0
  6
Continuous
 62
     7
 48
6.0
100
AcDbLine
 10
468.0597703922665
 20
364.4868920763769
 30
0.0
 11
467.3097703922605
 21
364.486892076373
 31
0.0
  0
LINE
  5
3C7
330
1F
100
AcDbEntity
  8
0
  6
Continuous
 62
     7
 48
6.0
100
AcDbLine
 10
468.0597703922625
 20
365.2368920763768
 30
0.0
 11
468.0597703922665
 21
364.4868920763769
 31
0.0
  0
LINE
  5
3C8
330
1F
100
AcDbEntity
  8
0
  6
Continuous
 62
     7
 48
6.0
100
AcDbLine
 10
468.5597703922566
 20
365.2368920763799
 30
0.0
 11
468.0597703922625
 21
365.2368920763768
 31
0.0
  0
LINE
  5
3C9
330
1F
100
AcDbEntity
  8
0
  6
Continuous
 62
     7
 48
6.0
100
AcDbLine
 10
468.5597703922665
 20
364.4868920763798
 30
0.0
 11
468.5597703922566
 21
365.2368920763799
 31
0.0
  0
LINE
  5
3CA
330
1F
100
AcDbEntity
  8
0
  6
Continuous
 62
     7
 48
6.0
100
AcDbLine
 10
469.3097703922665
 20
364.4868920763828
 30
0.0
 11
468.5597703922665
 21
364.4868920763798
 31
0.0
  0
LINE
  5
3CB
330
1F
100
AcDbEntity
  8
0
  6
Continuous
 62
     7
 48
6.0
100
AcDbLine
 10
469.3097703922695
 20
363.986892076383
 30
0.0
 11
469.3097703922665
 21
364.4868920763828
 31
0.0
  0
LINE
  5
3CC
330
1F
100
AcDbEntity
  8
0
  6
Continuous
 62
     7
 48
6.0
100
AcDbLine
 10
467.4047703922926
 20
359.486892076374
 30
0.0
 11
467.4047703922926
 21
359.486892076374
 31
0.0
  0
LINE
  5
3CD
330
1F
100
AcDbEntity
  8
0
  6
Continuous
 62
     7
 48
6.0
100
AcDbLine
 10
466.6547703922866
 20
359.4868920763699
 30
0.0
 11
467.4047703922926
 21
359.486892076374
 31
0.0
  0
LINE
  5
3CE
330
1F
100
AcDbEntity
  8
0
  6
Continuous
 62
     7
 48
6.0
100
AcDbLine
 10
466.6547703922906
 20
358.73689207637
 30
0.0
 11
466.6547703922866
 21
359.4868920763699
 31
0.0
  0
LINE
  5
3CF
330
1F
100
AcDbEntity
  8
0
  6
Continuous
 62
     7
 48
6.0
100
AcDbLine
 10
466.1547703922965
 20
358.7368920763669
 30
0.0
 11
466.6547703922906
 21
358.73689207637
 31
0.0
  0
LINE
  5
3D0
330
1F
100
AcDbEntity
  8
0
  6
Continuous
 62
     7
 48
6.0
100
AcDbLine
 10
466.1547703922925
 20
359.4868920763669
 30
0.0
 11
466.1547703922965
 21
358.7368920763669
 31
0.0
  0
LINE
  5
3D1
330
1F
100
AcDbEntity
  8
0
  6
Continuous
 62
     7
 48
6.0
100
AcDbLine
 10
465.4047703922925
 20
359.4868920763628
 30
0.0
 11
466.1547703922925
 21
359.4868920763669
 31
0.0
  0
LINE
  5
3D2
330
1F
100
AcDbEntity
  8
0
  6
Continuous
 62
     7
 48
6.0
100
AcDbLine
 10
465.4047703922835
 20
359.9868920763629
 30
0.0
 11
465.4047703922925
 21
359.4868920763628
 31
0.0
  0
LINE
  5
3D3
330
1F
100
AcDbEntity
  8
0
  6
Continuous
 62
     7
 48
6.0
100
AcDbLine
 10
466.1547703922905
 20
359.986892076367
 30
0.0
 11
465.4047703922835
 21
359.9868920763629
 31
0.0
  0
LINE
  5
3D4
330
1F
100
AcDbEntity
  8
0
  6
Continuous
 62
     7
 48
6.0
100
AcDbLine
 10
466.1547703922856
 20
360.7368920763666
 30
0.0
 11
466.1547703922905
 21
359.986892076367
 31
0.0
  0
LINE
  5
3D5
330
1F
100
AcDbEntity
  8
0
  6
Continuous
 62
     7
 48
6.0
100
AcDbLine
 10
466.6547703922796
 20
360.7368920763698
 30
0.0
 11
466.1547703922856
 21
360.7368920763666
 31
0.0
  0
LINE
  5
3D6
330
1F
100
AcDbEntity
  8
0
  6
Continuous
 62
     7
 48
6.0
100
AcDbLine
 10
466.6547703922906
 20
359.98689207637
 30
0.0
 11
466.6547703922796
 21
360.7368920763698
 31
0.0
  0
LINE
  5
3D7
330
1F
100
AcDbEntity
  8
0
  6
Continuous
 62
     7
 48
6.0
100
AcDbLine
 10
467.4047703922895
 20
359.986892076374
 30
0.0
 11
466.6547703922906
 21
359.98689207637
 31
0.0
  0
LINE
  5
3D8
330
1F
100
AcDbEntity
  8
0
  6
Continuous
 62
     7
 48
6.0
100
AcDbLine
 10
467.4047703922926
 20
359.486892076374
 30
0.0
 11
467.4047703922895
 21
359.986892076374
 31
0.0
  0
LINE
  5
3D9
330
1F
100
AcDbEntity
  8
0
  6
Continuous
 62
     7
 48
6.0
100
AcDbLine
 10
465.4997703922906
 20
363.986892076364
 30
0.0
 11
465.4997703922906
 21
363.986892076364
 31
0.0
  0
LINE
  5
3DA
330
1F
100
AcDbEntity
  8
0
  6
Continuous
 62
     7
 48
6.0
100
AcDbLine
 10
464.7497703922856
 20
363.9868920763599
 30
0.0
 11
465.4997703922906
 21
363.986892076364
 31
0.0
  0
LINE
  5
3DB
330
1F
100
AcDbEntity
  8
0
  6
Continuous
 62
     7
 48
6.0
100
AcDbLine
 10
464.7497703922886
 20
363.2368920763596
 30
0.0
 11
464.7497703922856
 21
363.9868920763599
 31
0.0
  0
LINE
  5
3DC
330
1F
100
AcDbEntity
  8
0
  6
Continuous
 62
     7
 48
6.0
100
AcDbLine
 10
464.2497703922946
 20
363.2368920763566
 30
0.0
 11
464.7497703922886
 21
363.2368920763596
 31
0.0
  0
LINE
  5
3DD
330
1F
100
AcDbEntity
  8
0
  6
Continuous
 62
     7
 48
6.0
100
AcDbLine
 10
464.2497703922916
 20
363.9868920763567
 30
0.0
 11
464.2497703922946
 21
363.2368920763566
 31
0.0
  0
LINE
  5
3DE
330
1F
100
AcDbEntity
  8
0
  6
Continuous
 62
     7
 48
6.0
100
AcDbLine
 10
463.4997703922905
 20
363.9868920763528
 30
0.0
 11
464.2497703922916
 21
363.9868920763567
 31
0.0
  0
LINE
  5
3DF
330
1F
100
AcDbEntity
  8
0
  6
Continuous
 62
     7
 48
6.0
100
AcDbLine
 10
463.4997703922826
 20
364.4868920763528
 30
0.0
 11
463.4997703922905
 21
363.9868920763528
 31
0.0
  0
LINE
  5
3E0
330
1F
100
AcDbEntity
  8
0
  6
Continuous
 62
     7
 48
6.0
100
AcDbLine
 10
464.2497703922885
 20
364.4868920763566
 30
0.0
 11
463.4997703922826
 21
364.4868920763528
 31
0.0
  0
LINE
  5
3E1
330
1F
100
AcDbEntity
  8
0
  6
Continuous
 62
     7
 48
6.0
100
AcDbLine
 10
464.2497703922845
 20
365.2368920763569
 30
0.0
 11
464.2497703922885
 21
364.4868920763566
 31
0.0
  0
LINE
  5
3E2
330
1F
100
AcDbEntity
  8
0
  6
Continuous
 62
     7
 48
6.0
100
AcDbLine
 10
464.7497703922786
 20
365.23689207636
 30
0.0
 11
464.2497703922845
 21
365.2368920763569
 31
0.0
  0
LINE
  5
3E3
330
1F
100
AcDbEntity
  8
0
  6
Continuous
 62
     7
 48
6.0
100
AcDbLine
 10
464.7497703922886
 20
364.4868920763598
 30
0.0
 11
464.7497703922786
 21
365.23689207636
 31
0.0
  0
LINE
  5
3E4
330
1F
100
AcDbEntity
  8
0
  6
Continuous
 62
     7
 48
6.0
100
AcDbLine
 10
465.4997703922886
 20
364.486892076364
 30
0.0
 11
464.7497703922886
 21
364.4868920763598
 31
0.0
  0
LINE
  5
3E5
330
1F
100
AcDbEntity
  8
0
  6
Continuous
 62
     7
 48
6.0
100
AcDbLine
 10
465.4997703922906
 20
363.986892076364
 30
0.0
 11
465.4997703922886
 21
364.486892076364
 31
0.0
  0
LINE
  5
3E6
330
1F
100
AcDbEntity
  8
0
  6
Continuous
 62
     7
 48
6.0
100
AcDbLine
 10
463.5947703923175
 20
359.4868920763536
 30
0.0
 11
463.5947703923175
 21
359.4868920763536
 31
0.0
  0
LINE
  5
3E7
330
1F
100
AcDbEntity
  8
0
  6
Continuous
 62
     7
 48
6.0
100
AcDbLine
 10
462.8447703923115
 20
359.4868920763496
 30
0.0
 11
463.5947703923175
 21
359.4868920763536
 31
0.0
  0
LINE
  5
3E8
330
1F
100
AcDbEntity
  8
0
  6
Continuous
 62
     7
 48
6.0
100
AcDbLine
 10
462.8447703923155
 20
358.7368920763499
 30
0.0
 11
462.8447703923115
 21
359.4868920763496
 31
0.0
  0
LINE
  5
3E9
330
1F
100
AcDbEntity
  8
0
  6
Continuous
 62
     7
 48
6.0
100
AcDbLine
 10
462.3447703923216
 20
358.736892076347
 30
0.0
 11
462.8447703923155
 21
358.7368920763499
 31
0.0
  0
LINE
  5
3EA
330
1F
100
AcDbEntity
  8
0
  6
Continuous
 62
     7
 48
6.0
100
AcDbLine
 10
462.3447703923175
 20
359.486892076347
 30
0.0
 11
462.3447703923216
 21
358.736892076347
 31
0.0
  0
LINE
  5
3EB
330
1F
100
AcDbEntity
  8
0
  6
Continuous
 62
     7
 48
6.0
100
AcDbLine
 10
461.5947703923175
 20
359.4868920763439
 30
0.0
 11
462.3447703923175
 21
359.486892076347
 31
0.0
  0
LINE
  5
3EC
330
1F
100
AcDbEntity
  8
0
  6
Continuous
 62
     7
 48
6.0
100
AcDbLine
 10
461.5947703923086
 20
359.9868920763439
 30
0.0
 11
461.5947703923175
 21
359.4868920763439
 31
0.0
  0
LINE
  5
3ED
330
1F
100
AcDbEntity
  8
0
  6
Continuous
 62
     7
 48
6.0
100
AcDbLine
 10
462.3447703923155
 20
359.986892076347
 30
0.0
 11
461.5947703923086
 21
359.9868920763439
 31
0.0
  0
LINE
  5
3EE
330
1F
100
AcDbEntity
  8
0
  6
Continuous
 62
     7
 48
6.0
100
AcDbLine
 10
462.3447703923106
 20
360.736892076347
 30
0.0
 11
462.3447703923155
 21
359.986892076347
 31
0.0
  0
LINE
  5
3EF
330
1F
100
AcDbEntity
  8
0
  6
Continuous
 62
     7
 48
6.0
100
AcDbLine
 10
462.8447703923046
 20
360.7368920763498
 30
0.0
 11
462.3447703923106
 21
360.736892076347
 31
0.0
  0
LINE
  5
3F0
330
1F
100
AcDbEntity
  8
0
  6
Continuous
 62
     7
 48
6.0
100
AcDbLine
 10
462.8447703923155
 20
359.9868920763498
 30
0.0
 11
462.8447703923046
 21
360.7368920763498
 31
0.0
  0
LINE
  5
3F1
330
1F
100
AcDbEntity
  8
0
  6
Continuous
 62
     7
 48
6.0
100
AcDbLine
 10
463.5947703923145
 20
359.9868920763536
 30
0.0
 11
462.8447703923155
 21
359.9868920763498
 31
0.0
  0
LINE
  5
3F2
330
1F
100
AcDbEntity
  8
0
  6
Continuous
 62
     7
 48
6.0
100
AcDbLine
 10
463.5947703923175
 20
359.4868920763536
 30
0.0
 11
463.5947703923145
 21
359.9868920763536
 31
0.0
  0
LINE
  5
3F3
330
1F
100
AcDbEntity
  8
0
  6
Continuous
 62
     7
 48
6.0
100
AcDbLine
 10
461.6897703922695
 20
363.9868920763439
 30
0.0
 11
461.6897703922695
 21
363.9868920763439
 31
0.0
  0
LINE
  5
3F4
330
1F
100
AcDbEntity
  8
0
  6
Continuous
 62
     7
 48
6.0
100
AcDbLine
 10
460.9397703922635
 20
363.98689207634
 30
0.0
 11
461.6897703922695
 21
363.9868920763439
 31
0.0
  0
LINE
  5
3F5
330
1F
100
AcDbEntity
  8
0
  6
Continuous
 62
     7
 48
6.0
100
AcDbLine
 10
460.9397703922676
 20
363.2368920763398
 30
0.0
 11
460.9397703922635
 21
363.98689207634
 31
0.0
  0
LINE
  5
3F6
330
1F
100
AcDbEntity
  8
0
  6
Continuous
 62
     7
 48
6.0
100
AcDbLine
 10
460.4397703922726
 20
363.2368920763379
 30
0.0
 11
460.9397703922676
 21
363.2368920763398
 31
0.0
  0
LINE
  5
3F7
330
1F
100
AcDbEntity
  8
0
  6
Continuous
 62
     7
 48
6.0
100
AcDbLine
 10
460.4397703922696
 20
363.9868920763377
 30
0.0
 11
460.4397703922726
 21
363.2368920763379
 31
0.0
  0
LINE
  5
3F8
330
1F
100
AcDbEntity
  8
0
  6
Continuous
 62
     7
 48
6.0
100
AcDbLine
 10
459.6897703922695
 20
363.9868920763337
 30
0.0
 11
460.4397703922696
 21
363.9868920763377
 31
0.0
  0
LINE
  5
3F9
330
1F
100
AcDbEntity
  8
0
  6
Continuous
 62
     7
 48
6.0
100
AcDbLine
 10
459.6897703922605
 20
364.4868920763336
 30
0.0
 11
459.6897703922695
 21
363.9868920763337
 31
0.0
  0
LINE
  5
3FA
330
1F
100
AcDbEntity
  8
0
  6
Continuous
 62
     7
 48
6.0
100
AcDbLine
 10
460.4397703922666
 20
364.4868920763377
 30
0.0
 11
459.6897703922605
 21
364.4868920763336
 31
0.0
  0
LINE
  5
3FB
330
1F
100
AcDbEntity
  8
0
  6
Continuous
 62
     7
 48
6.0
100
AcDbLine
 10
460.4397703922626
 20
365.2368920763378
 30
0.0
 11
460.4397703922666
 21
364.4868920763377
 31
0.0
  0
LINE
  5
3FC
330
1F
100
AcDbEntity
  8
0
  6
Continuous
 62
     7
 48
6.0
100
AcDbLine
 10
460.9397703922565
 20
365.2368920763399
 30
0.0
 11
460.4397703922626
 21
365.2368920763378
 31
0.0
  0
LINE
  5
3FD
330
1F
100
AcDbEntity
  8
0
  6
Continuous
 62
     7
 48
6.0
100
AcDbLine
 10
460.9397703922666
 20
364.4868920763399
 30
0.0
 11
460.9397703922565
 21
365.2368920763399
 31
0.0
  0
LINE
  5
3FE
330
1F
100
AcDbEntity
  8
0
  6
Continuous
 62
     7
 48
6.0
100
AcDbLine
 10
461.6897703922666
 20
364.4868920763439
 30
0.0
 11
460.9397703922666
 21
364.4868920763399
 31
0.0
  0
LINE
  5
3FF
330
1F
100
AcDbEntity
  8
0
  6
Continuous
 62
     7
 48
6.0
100
AcDbLine
 10
461.6897703922695
 20
363.9868920763439
 30
0.0
 11
461.6897703922666
 21
364.4868920763439
 31
0.0
  0
LINE
  5
400
330
1F
100
AcDbEntity
  8
0
  6
Continuous
 62
     7
 48
6.0
100
AcDbLine
 10
459.7847703922925
 20
359.4868920763339
 30
0.0
 11
459.7847703922925
 21
359.4868920763339
 31
0.0
  0
LINE
  5
401
330
1F
100
AcDbEntity
  8
0
  6
Continuous
 62
     7
 48
6.0
100
AcDbLine
 10
459.0347703922865
 20
359.4868920763309
 30
0.0
 11
459.7847703922925
 21
359.4868920763339
 31
0.0
  0
LINE
  5
402
330
1F
100
AcDbEntity
  8
0
  6
Continuous
 62
     7
 48
6.0
100
AcDbLine
 10
459.0347703922906
 20
358.736892076331
 30
0.0
 11
459.0347703922865
 21
359.4868920763309
 31
0.0
  0
LINE
  5
403
330
1F
100
AcDbEntity
  8
0
  6
Continuous
 62
     7
 48
6.0
100
AcDbLine
 10
458.5347703922965
 20
358.7368920763279
 30
0.0
 11
459.0347703922906
 21
358.736892076331
 31
0.0
  0
LINE
  5
404
330
1F
100
AcDbEntity
  8
0
  6
Continuous
 62
     7
 48
6.0
100
AcDbLine
 10
458.5347703922925
 20
359.4868920763279
 30
0.0
 11
458.5347703922965
 21
358.7368920763279
 31
0.0
  0
LINE
  5
405
330
1F
100
AcDbEntity
  8
0
  6
Continuous
 62
     7
 48
6.0
100
AcDbLine
 10
457.7847703922925
 20
359.4868920763238
 30
0.0
 11
458.5347703922925
 21
359.4868920763279
 31
0.0
  0
LINE
  5
406
330
1F
100
AcDbEntity
  8
0
  6
Continuous
 62
     7
 48
6.0
100
AcDbLine
 10
457.7847703922835
 20
359.9868920763238
 30
0.0
 11
457.7847703922925
 21
359.4868920763238
 31
0.0
  0
LINE
  5
407
330
1F
100
AcDbEntity
  8
0
  6
Continuous
 62
     7
 48
6.0
100
AcDbLine
 10
458.5347703922896
 20
359.986892076328
 30
0.0
 11
457.7847703922835
 21
359.9868920763238
 31
0.0
  0
LINE
  5
408
330
1F
100
AcDbEntity
  8
0
  6
Continuous
 62
     7
 48
6.0
100
AcDbLine
 10
458.5347703922855
 20
360.7368920763277
 30
0.0
 11
458.5347703922896
 21
359.986892076328
 31
0.0
  0
LINE
  5
409
330
1F
100
AcDbEntity
  8
0
  6
Continuous
 62
     7
 48
6.0
100
AcDbLine
 10
459.0347703922796
 20
360.7368920763308
 30
0.0
 11
458.5347703922855
 21
360.7368920763277
 31
0.0
  0
LINE
  5
40A
330
1F
100
AcDbEntity
  8
0
  6
Continuous
 62
     7
 48
6.0
100
AcDbLine
 10
459.0347703922896
 20
359.9868920763309
 30
0.0
 11
459.0347703922796
 21
360.7368920763308
 31
0.0
  0
LINE
  5
40B
330
1F
100
AcDbEntity
  8
0
  6
Continuous
 62
     7
 48
6.0
100
AcDbLine
 10
459.7847703922895
 20
359.9868920763337
 30
0.0
 11
459.0347703922896
 21
359.9868920763309
 31
0.0
  0
LINE
  5
40C
330
1F
100
AcDbEntity
  8
0
  6
Continuous
 62
     7
 48
6.0
100
AcDbLine
 10
459.7847703922925
 20
359.4868920763339
 30
0.0
 11
459.7847703922895
 21
359.9868920763337
 31
0.0
  0
LINE
  5
40D
330
1F
100
AcDbEntity
  8
0
  6
Continuous
 62
     7
 48
6.0
100
AcDbLine
 10
457.8797703922695
 20
363.9868920763249
 30
0.0
 11
457.8797703922695
 21
363.9868920763249
 31
0.0
  0
LINE
  5
40E
330
1F
100
AcDbEntity
  8
0
  6
Continuous
 62
     7
 48
6.0
100
AcDbLine
 10
457.1297703922636
 20
363.986892076321
 30
0.0
 11
457.8797703922695
 21
363.9868920763249
 31
0.0
  0
LINE
  5
40F
330
1F
100
AcDbEntity
  8
0
  6
Continuous
 62
     7
 48
6.0
100
AcDbLine
 10
457.1297703922676
 20
363.2368920763207
 30
0.0
 11
457.1297703922636
 21
363.986892076321
 31
0.0
  0
LINE
  5
410
330
1F
100
AcDbEntity
  8
0
  6
Continuous
 62
     7
 48
6.0
100
AcDbLine
 10
456.6297703922725
 20
363.236892076318
 30
0.0
 11
457.1297703922676
 21
363.2368920763207
 31
0.0
  0
LINE
  5
411
330
1F
100
AcDbEntity
  8
0
  6
Continuous
 62
     7
 48
6.0
100
AcDbLine
 10
456.6297703922695
 20
363.986892076318
 30
0.0
 11
456.6297703922725
 21
363.236892076318
 31
0.0
  0
LINE
  5
412
330
1F
100
AcDbEntity
  8
0
  6
Continuous
 62
     7
 48
6.0
100
AcDbLine
 10
455.8797703922695
 20
363.9868920763138
 30
0.0
 11
456.6297703922695
 21
363.986892076318
 31
0.0
  0
LINE
  5
413
330
1F
100
AcDbEntity
  8
0
  6
Continuous
 62
     7
 48
6.0
100
AcDbLine
 10
455.8797703922605
 20
364.4868920763138
 30
0.0
 11
455.8797703922695
 21
363.9868920763138
 31
0.0
  0
LINE
  5
414
330
1F
100
AcDbEntity
  8
0
  6
Continuous
 62
     7
 48
6.0
100
AcDbLine
 10
456.6297703922666
 20
364.486892076318
 30
0.0
 11
455.8797703922605
 21
364.4868920763138
 31
0.0
  0
LINE
  5
415
330
1F
100
AcDbEntity
  8
0
  6
Continuous
 62
     7
 48
6.0
100
AcDbLine
 10
456.6297703922625
 20
365.236892076318
 30
0.0
 11
456.6297703922666
 21
364.486892076318
 31
0.0
  0
LINE
  5
416
330
1F
100
AcDbEntity
  8
0
  6
Continuous
 62
     7
 48
6.0
100
AcDbLine
 10
457.1297703922565
 20
365.236892076321
 30
0.0
 11
456.6297703922625
 21
365.236892076318
 31
0.0
  0
LINE
  5
417
330
1F
100
AcDbEntity
  8
0
  6
Continuous
 62
     7
 48
6.0
100
AcDbLine
 10
457.1297703922666
 20
364.4868920763209
 30
0.0
 11
457.1297703922565
 21
365.236892076321
 31
0.0
  0
LINE
  5
418
330
1F
100
AcDbEntity
  8
0
  6
Continuous
 62
     7
 48
6.0
100
AcDbLine
 10
457.8797703922666
 20
364.4868920763249
 30
0.0
 11
457.1297703922666
 21
364.4868920763209
 31
0.0
  0
LINE
  5
419
330
1F
100
AcDbEntity
  8
0
  6
Continuous
 62
     7
 48
6.0
100
AcDbLine
 10
457.8797703922695
 20
363.9868920763249
 30
0.0
 11
457.8797703922666
 21
364.4868920763249
 31
0.0
  0
LINE
  5
41A
330
1F
100
AcDbEntity
  8
0
  6
Continuous
 62
     7
 48
6.0
100
AcDbLine
 10
455.9747703922956
 20
359.4868920763147
 30
0.0
 11
455.9747703922956
 21
359.4868920763147
 31
0.0
  0
LINE
  5
41B
330
1F
100
AcDbEntity
  8
0
  6
Continuous
 62
     7
 48
6.0
100
AcDbLine
 10
455.2247703922895
 20
359.4868920763107
 30
0.0
 11
455.9747703922956
 21
359.4868920763147
 31
0.0
  0
LINE
  5
41C
330
1F
100
AcDbEntity
  8
0
  6
Continuous
 62
     7
 48
6.0
100
AcDbLine
 10
455.2247703922936
 20
358.7368920763109
 30
0.0
 11
455.2247703922895
 21
359.4868920763107
 31
0.0
  0
LINE
  5
41D
330
1F
100
AcDbEntity
  8
0
  6
Continuous
 62
     7
 48
6.0
100
AcDbLine
 10
454.7247703922995
 20
358.736892076308
 30
0.0
 11
455.2247703922936
 21
358.7368920763109
 31
0.0
  0
LINE
  5
41E
330
1F
100
AcDbEntity
  8
0
  6
Continuous
 62
     7
 48
6.0
100
AcDbLine
 10
454.7247703922955
 20
359.486892076308
 30
0.0
 11
454.7247703922995
 21
358.736892076308
 31
0.0
  0
LINE
  5
41F
330
1F
100
AcDbEntity
  8
0
  6
Continuous
 62
     7
 48
6.0
100
AcDbLine
 10
453.9747703922955
 20
359.4868920763039
 30
0.0
 11
454.7247703922955
 21
359.486892076308
 31
0.0
  0
LINE
  5
420
330
1F
100
AcDbEntity
  8
0
  6
Continuous
 62
     7
 48
6.0
100
AcDbLine
 10
453.9747703922865
 20
359.9868920763039
 30
0.0
 11
453.9747703922955
 21
359.4868920763039
 31
0.0
  0
LINE
  5
421
330
1F
100
AcDbEntity
  8
0
  6
Continuous
 62
     7
 48
6.0
100
AcDbLine
 10
454.7247703922935
 20
359.986892076308
 30
0.0
 11
453.9747703922865
 21
359.9868920763039
 31
0.0
  0
LINE
  5
422
330
1F
100
AcDbEntity
  8
0
  6
Continuous
 62
     7
 48
6.0
100
AcDbLine
 10
454.7247703922886
 20
360.736892076308
 30
0.0
 11
454.7247703922935
 21
359.986892076308
 31
0.0
  0
LINE
  5
423
330
1F
100
AcDbEntity
  8
0
  6
Continuous
 62
     7
 48
6.0
100
AcDbLine
 10
455.2247703922836
 20
360.7368920763109
 30
0.0
 11
454.7247703922886
 21
360.736892076308
 31
0.0
  0
LINE
  5
424
330
1F
100
AcDbEntity
  8
0
  6
Continuous
 62
     7
 48
6.0
100
AcDbLine
 10
455.2247703922936
 20
359.9868920763107
 30
0.0
 11
455.2247703922836
 21
360.7368920763109
 31
0.0
  0
LINE
  5
425
330
1F
100
AcDbEntity
  8
0
  6
Continuous
 62
     7
 48
6.0
100
AcDbLine
 10
455.9747703922925
 20
359.9868920763149
 30
0.0
 11
455.2247703922936
 21
359.9868920763107
 31
0.0
  0
LINE
  5
426
330
1F
100
AcDbEntity
  8
0
  6
Continuous
 62
     7
 48
6.0
100
AcDbLine
 10
455.9747703922956
 20
359.4868920763147
 30
0.0
 11
455.9747703922925
 21
359.9868920763149
 31
0.0
  0
LINE
  5
427
330
1F
100
AcDbEntity
  8
0
  6
Continuous
 62
     7
 48
6.0
100
AcDbLine
 10
454.0697703922476
 20
363.9868920763049
 30
0.0
 11
454.0697703922476
 21
363.9868920763049
 31
0.0
  0
LINE
  5
428
330
1F
100
AcDbEntity
  8
0
  6
Continuous
 62
     7
 48
6.0
100
AcDbLine
 10
453.3197703922415
 20
363.986892076301
 30
0.0
 11
454.0697703922476
 21
363.9868920763049
 31
0.0
  0
LINE
  5
429
330
1F
100
AcDbEntity
  8
0
  6
Continuous
 62
     7
 48
6.0
100
AcDbLine
 10
453.3197703922455
 20
363.2368920763009
 30
0.0
 11
453.3197703922415
 21
363.986892076301
 31
0.0
  0
LINE
  5
42A
330
1F
100
AcDbEntity
  8
0
  6
Continuous
 62
     7
 48
6.0
100
AcDbLine
 10
452.8197703922516
 20
363.2368920762978
 30
0.0
 11
453.3197703922455
 21
363.2368920763009
 31
0.0
  0
LINE
  5
42B
330
1F
100
AcDbEntity
  8
0
  6
Continuous
 62
     7
 48
6.0
100
AcDbLine
 10
452.8197703922476
 20
363.9868920762979
 30
0.0
 11
452.8197703922516
 21
363.2368920762978
 31
0.0
  0
LINE
  5
42C
330
1F
100
AcDbEntity
  8
0
  6
Continuous
 62
     7
 48
6.0
100
AcDbLine
 10
452.0697703922476
 20
363.9868920762949
 30
0.0
 11
452.8197703922476
 21
363.9868920762979
 31
0.0
  0
LINE
  5
42D
330
1F
100
AcDbEntity
  8
0
  6
Continuous
 62
     7
 48
6.0
100
AcDbLine
 10
452.0697703922386
 20
364.4868920762948
 30
0.0
 11
452.0697703922476
 21
363.9868920762949
 31
0.0
  0
LINE
  5
42E
330
1F
100
AcDbEntity
  8
0
  6
Continuous
 62
     7
 48
6.0
100
AcDbLine
 10
452.8197703922455
 20
364.4868920762979
 30
0.0
 11
452.0697703922386
 21
364.4868920762948
 31
0.0
  0
LINE
  5
42F
330
1F
100
AcDbEntity
  8
0
  6
Continuous
 62
     7
 48
6.0
100
AcDbLine
 10
452.8197703922406
 20
365.2368920762979
 30
0.0
 11
452.8197703922455
 21
364.4868920762979
 31
0.0
  0
LINE
  5
430
330
1F
100
AcDbEntity
  8
0
  6
Continuous
 62
     7
 48
6.0
100
AcDbLine
 10
453.3197703922346
 20
365.2368920763009
 30
0.0
 11
452.8197703922406
 21
365.2368920762979
 31
0.0
  0
LINE
  5
431
330
1F
100
AcDbEntity
  8
0
  6
Continuous
 62
     7
 48
6.0
100
AcDbLine
 10
453.3197703922455
 20
364.486892076301
 30
0.0
 11
453.3197703922346
 21
365.2368920763009
 31
0.0
  0
LINE
  5
432
330
1F
100
AcDbEntity
  8
0
  6
Continuous
 62
     7
 48
6.0
100
AcDbLine
 10
454.0697703922446
 20
364.4868920763049
 30
0.0
 11
453.3197703922455
 21
364.486892076301
 31
0.0
  0
LINE
  5
433
330
1F
100
AcDbEntity
  8
0
  6
Continuous
 62
     7
 48
6.0
100
AcDbLine
 10
454.0697703922476
 20
363.9868920763049
 30
0.0
 11
454.0697703922446
 21
364.4868920763049
 31
0.0
  0
LINE
  5
434
330
1F
100
AcDbEntity
  8
0
  6
Continuous
 62
     7
 48
6.0
100
AcDbLine
 10
452.1647703922705
 20
359.4868920762948
 30
0.0
 11
452.1647703922705
 21
359.4868920762948
 31
0.0
  0
LINE
  5
435
330
1F
100
AcDbEntity
  8
0
  6
Continuous
 62
     7
 48
6.0
100
AcDbLine
 10
451.4147703922645
 20
359.486892076291
 30
0.0
 11
452.1647703922705
 21
359.4868920762948
 31
0.0
  0
LINE
  5
436
330
1F
100
AcDbEntity
  8
0
  6
Continuous
 62
     7
 48
6.0
100
AcDbLine
 10
451.4147703922685
 20
358.736892076291
 30
0.0
 11
451.4147703922645
 21
359.486892076291
 31
0.0
  0
LINE
  5
437
330
1F
100
AcDbEntity
  8
0
  6
Continuous
 62
     7
 48
6.0
100
AcDbLine
 10
450.9147703922746
 20
358.7368920762891
 30
0.0
 11
451.4147703922685
 21
358.736892076291
 31
0.0
  0
LINE
  5
438
330
1F
100
AcDbEntity
  8
0
  6
Continuous
 62
     7
 48
6.0
100
AcDbLine
 10
450.9147703922705
 20
359.486892076289
 30
0.0
 11
450.9147703922746
 21
358.7368920762891
 31
0.0
  0
LINE
  5
439
330
1F
100
AcDbEntity
  8
0
  6
Continuous
 62
     7
 48
6.0
100
AcDbLine
 10
450.1647703922706
 20
359.4868920762848
 30
0.0
 11
450.9147703922705
 21
359.486892076289
 31
0.0
  0
LINE
  5
43A
330
1F
100
AcDbEntity
  8
0
  6
Continuous
 62
     7
 48
6.0
100
AcDbLine
 10
450.1647703922615
 20
359.9868920762848
 30
0.0
 11
450.1647703922706
 21
359.4868920762848
 31
0.0
  0
LINE
  5
43B
330
1F
100
AcDbEntity
  8
0
  6
Continuous
 62
     7
 48
6.0
100
AcDbLine
 10
450.9147703922685
 20
359.986892076289
 30
0.0
 11
450.1647703922615
 21
359.9868920762848
 31
0.0
  0
LINE
  5
43C
330
1F
100
AcDbEntity
  8
0
  6
Continuous
 62
     7
 48
6.0
100
AcDbLine
 10
450.9147703922635
 20
360.736892076289
 30
0.0
 11
450.9147703922685
 21
359.986892076289
 31
0.0
  0
LINE
  5
43D
330
1F
100
AcDbEntity
  8
0
  6
Continuous
 62
     7
 48
6.0
100
AcDbLine
 10
451.4147703922585
 20
360.736892076291
 30
0.0
 11
450.9147703922635
 21
360.736892076289
 31
0.0
  0
LINE
  5
43E
330
1F
100
AcDbEntity
  8
0
  6
Continuous
 62
     7
 48
6.0
100
AcDbLine
 10
451.4147703922685
 20
359.986892076291
 30
0.0
 11
451.4147703922585
 21
360.736892076291
 31
0.0
  0
LINE
  5
43F
330
1F
100
AcDbEntity
  8
0
  6
Continuous
 62
     7
 48
6.0
100
AcDbLine
 10
452.1647703922675
 20
359.9868920762948
 30
0.0
 11
451.4147703922685
 21
359.986892076291
 31
0.0
  0
LINE
  5
440
330
1F
100
AcDbEntity
  8
0
  6
Continuous
 62
     7
 48
6.0
100
AcDbLine
 10
452.1647703922705
 20
359.4868920762948
 30
0.0
 11
452.1647703922675
 21
359.9868920762948
 31
0.0
  0
LINE
  5
441
330
1F
100
AcDbEntity
  8
0
  6
Continuous
 62
     7
 48
6.0
100
AcDbLine
 10
492.7447703922424
 20
366.736892076504
 30
0.0
 11
492.7447703922656
 21
362.236892076504
 31
0.0
  0
LINE
  5
442
330
1F
100
AcDbEntity
  8
0
  6
Continuous
 62
     7
 48
6.0
100
AcDbLine
 10
489.5947703922844
 20
362.2368920764877
 30
0.0
 11
489.5947703922556
 21
366.7368920764877
 31
0.0
  0
LINE
  5
443
330
1F
100
AcDbEntity
  8
0
  6
Continuous
 62
     7
 48
6.0
100
AcDbLine
 10
488.9347703922425
 20
366.7368920764837
 30
0.0
 11
488.9347703922656
 21
362.2368920764837
 31
0.0
  0
LINE
  5
444
330
1F
100
AcDbEntity
  8
0
  6
Continuous
 62
     7
 48
6.0
100
AcDbLine
 10
485.7847703922656
 20
362.2368920764679
 30
0.0
 11
485.7847703922556
 21
366.7368920764678
 31
0.0
  0
LINE
  5
445
330
1F
100
AcDbEntity
  8
0
  6
Continuous
 62
     7
 48
6.0
100
AcDbLine
 10
485.1247703922424
 20
366.7368920764646
 30
0.0
 11
485.1247703922656
 21
362.2368920764648
 31
0.0
  0
LINE
  5
446
330
1F
100
AcDbEntity
  8
0
  6
Continuous
 62
     7
 48
6.0
100
AcDbLine
 10
481.9747703922844
 20
362.236892076448
 30
0.0
 11
481.9747703922613
 21
366.4439988576349
 31
0.0
  0
LINE
  5
447
330
1F
100
AcDbEntity
  8
0
  6
Continuous
 62
     7
 48
6.0
100
AcDbLine
 10
481.3147703922555
 20
366.7368920764449
 30
0.0
 11
481.3147703922656
 21
362.2368920764449
 31
0.0
  0
LINE
  5
448
330
1F
100
AcDbEntity
  8
0
  6
Continuous
 62
     7
 48
6.0
100
AcDbLine
 10
478.1647703922656
 20
362.236892076429
 30
0.0
 11
478.1647703922425
 21
366.736892076429
 31
0.0
  0
LINE
  5
449
330
1F
100
AcDbEntity
  8
0
  6
Continuous
 62
     7
 48
6.0
100
AcDbLine
 10
477.5047703922555
 20
366.7368920764249
 30
0.0
 11
477.5047703922845
 21
362.2368920764249
 31
0.0
  0
LINE
  5
44A
330
1F
100
AcDbEntity
  8
0
  6
Continuous
 62
     7
 48
6.0
100
AcDbLine
 10
474.3547703922656
 20
362.236892076409
 30
0.0
 11
474.3547703922556
 21
366.736892076409
 31
0.0
  0
LINE
  5
44B
330
1F
100
AcDbEntity
  8
0
  6
Continuous
 62
     7
 48
6.0
100
AcDbLine
 10
473.6947703922555
 20
366.7368920764058
 30
0.0
 11
473.6947703922846
 21
362.2368920764059
 31
0.0
  0
LINE
  5
44C
330
1F
100
AcDbEntity
  8
0
  6
Continuous
 62
     7
 48
6.0
100
AcDbLine
 10
470.5447703922845
 20
362.2368920763899
 30
0.0
 11
470.5447703922425
 21
366.7368920763899
 31
0.0
  0
LINE
  5
44D
330
1F
100
AcDbEntity
  8
0
  6
Continuous
 62
     7
 48
6.0
100
AcDbLine
 10
469.8847703922425
 20
366.736892076386
 30
0.0
 11
469.8847703922655
 21
362.236892076386
 31
0.0
  0
LINE
  5
44E
330
1F
100
AcDbEntity
  8
0
  6
Continuous
 62
     7
 48
6.0
100
AcDbLine
 10
466.7347703922656
 20
362.23689207637
 30
0.0
 11
466.7347703922425
 21
366.73689207637
 31
0.0
  0
LINE
  5
44F
330
1F
100
AcDbEntity
  8
0
  6
Continuous
 62
     7
 48
6.0
100
AcDbLine
 10
466.0747703922555
 20
366.7368920763669
 30
0.0
 11
466.0747703922845
 21
362.236892076367
 31
0.0
  0
LINE
  5
450
330
1F
100
AcDbEntity
  8
0
  6
Continuous
 62
     7
 48
6.0
100
AcDbLine
 10
462.9247703922845
 20
362.2368920763498
 30
0.0
 11
462.9247703922556
 21
366.7368920763499
 31
0.0
  0
LINE
  5
451
330
1F
100
AcDbEntity
  8
0
  6
Continuous
 62
     7
 48
6.0
100
AcDbLine
 10
462.2647703922425
 20
366.736892076347
 30
0.0
 11
462.2647703922655
 21
362.236892076347
 31
0.0
  0
LINE
  5
452
330
1F
100
AcDbEntity
  8
0
  6
Continuous
 62
     7
 48
6.0
100
AcDbLine
 10
459.1147703922845
 20
362.236892076331
 30
0.0
 11
459.1147703922556
 21
366.736892076331
 31
0.0
  0
LINE
  5
453
330
1F
100
AcDbEntity
  8
0
  6
Continuous
 62
     7
 48
6.0
100
AcDbLine
 10
458.4547703922425
 20
366.736892076327
 30
0.0
 11
458.4547703922655
 21
362.236892076327
 31
0.0
  0
LINE
  5
454
330
1F
100
AcDbEntity
  8
0
  6
Continuous
 62
     7
 48
6.0
100
AcDbLine
 10
455.3047703922845
 20
362.2368920763107
 30
0.0
 11
455.3047703922556
 21
366.7368920763109
 31
0.0
  0
LINE
  5
455
330
1F
100
AcDbEntity
  8
0
  6
Continuous
 62
     7
 48
6.0
100
AcDbLine
 10
454.6447703922425
 20
366.736892076308
 30
0.0
 11
454.6447703922655
 21
362.236892076308
 31
0.0
  0
LINE
  5
456
330
1F
100
AcDbEntity
  8
0
  6
Continuous
 62
     7
 48
6.0
100
AcDbLine
 10
451.4947703922845
 20
362.2368920762919
 30
0.0
 11
451.4947703922556
 21
366.736892076292
 31
0.0
  0
LINE
  5
457
330
1F
100
AcDbEntity
  8
0
  6
Continuous
 62
     7
 48
6.0
100
AcDbLine
 10
450.8347703922555
 20
366.7368920762876
 30
0.0
 11
450.8347703922845
 21
362.2368920762876
 31
0.0
  0
LINE
  5
458
330
1F
100
AcDbEntity
  8
0
  6
Continuous
 62
     7
 48
6.0
100
AcDbLine
 10
449.2597703922566
 20
366.2385169648978
 30
0.0
 11
450.2856681514965
 21
366.2385169649038
 31
0.0
  0
LINE
  5
459
330
1F
100
AcDbEntity
  8
0
  6
Continuous
 62
     7
 48
6.0
100
AcDbLine
 10
450.2856681514965
 20
366.2385169649038
 30
0.0
 11
450.2856681515336
 21
362.7303384250558
 31
0.0
  0
LINE
  5
45A
330
1F
100
AcDbEntity
  8
0
  6
Continuous
 62
     7
 48
6.0
100
AcDbLine
 10
450.2856681515146
 20
362.7303384250558
 30
0.0
 11
449.2597703922746
 21
362.730338425051
 31
0.0
  0
LINE
  5
45B
330
1F
100
AcDbEntity
  8
0
  6
Continuous
 62
     7
 48
6.0
100
AcDbLine
 10
452.7397703923035
 20
362.2368920762979
 30
0.0
 11
452.7397703923146
 21
357.2368920762788
 31
0.0
  0
LINE
  5
45C
330
1F
100
AcDbEntity
  8
0
  6
Continuous
 62
     7
 48
6.0
100
AcDbLine
 10
453.3997703923035
 20
362.236892076301
 30
0.0
 11
453.3997703923146
 21
357.2368920765578
 31
0.0
  0
LINE
  5
45D
330
1F
100
AcDbEntity
  8
0
  6
Continuous
 62
     7
 48
6.0
100
AcDbLine
 10
456.5497703923035
 20
362.236892076318
 30
0.0
 11
456.5497703923366
 21
357.2368920762779
 31
0.0
  0
LINE
  5
45E
330
1F
100
AcDbEntity
  8
0
  6
Continuous
 62
     7
 48
6.0
100
AcDbLine
 10
457.2097703923035
 20
362.2368920763209
 30
0.0
 11
457.2097703923366
 21
357.2368920765569
 31
0.0
  0
LINE
  5
45F
330
1F
100
AcDbEntity
  8
0
  6
Continuous
 62
     7
 48
6.0
100
AcDbLine
 10
460.3597703923096
 20
362.236892076337
 30
0.0
 11
460.3597703923135
 21
357.2368920765559
 31
0.0
  0
LINE
  5
460
330
1F
100
AcDbEntity
  8
0
  6
Continuous
 62
     7
 48
6.0
100
AcDbLine
 10
461.0197703923035
 20
362.2368920763408
 30
0.0
 11
461.0197703923145
 21
357.2368920765559
 31
0.0
  0
LINE
  5
461
330
1F
100
AcDbEntity
  8
0
  6
Continuous
 62
     7
 48
6.0
100
AcDbLine
 10
464.1697703923036
 20
362.2368920763567
 30
0.0
 11
464.1697703923365
 21
357.236892076275
 31
0.0
  0
LINE
  5
462
330
1F
100
AcDbEntity
  8
0
  6
Continuous
 62
     7
 48
6.0
100
AcDbLine
 10
464.8297703922906
 20
362.2368920763598
 30
0.0
 11
464.8297703923166
 21
357.2368920765537
 31
0.0
  0
LINE
  5
463
330
1F
100
AcDbEntity
  8
0
  6
Continuous
 62
     7
 48
6.0
100
AcDbLine
 10
467.9797703922905
 20
362.236892076376
 30
0.0
 11
467.9797703923165
 21
357.236892076553
 31
0.0
  0
LINE
  5
464
330
1F
100
AcDbEntity
  8
0
  6
Continuous
 62
     7
 48
6.0
100
AcDbLine
 10
468.6397703923145
 20
357.236892076553
 30
0.0
 11
468.6397703923035
 21
362.2368920763798
 31
0.0
  0
LINE
  5
465
330
1F
100
AcDbEntity
  8
0
  6
Continuous
 62
     7
 48
6.0
100
AcDbLine
 10
471.7897703922906
 20
362.2368920763958
 30
0.0
 11
471.7897703923165
 21
357.236892076552
 31
0.0
  0
LINE
  5
466
330
1F
100
AcDbEntity
  8
0
  6
Continuous
 62
     7
 48
6.0
100
AcDbLine
 10
472.4497703923166
 20
357.236892076552
 30
0.0
 11
472.4497703922906
 21
362.2368920763996
 31
0.0
  0
LINE
  5
467
330
1F
100
AcDbEntity
  8
0
  6
Continuous
 62
     7
 48
6.0
100
AcDbLine
 10
475.5997703922905
 20
362.2368920764159
 30
0.0
 11
475.5997703923164
 21
357.236892076551
 31
0.0
  0
LINE
  5
468
330
1F
100
AcDbEntity
  8
0
  6
Continuous
 62
     7
 48
6.0
100
AcDbLine
 10
476.2597703923365
 20
357.236892076271
 30
0.0
 11
476.2597703923034
 21
362.2368920764188
 31
0.0
  0
LINE
  5
469
330
1F
100
AcDbEntity
  8
0
  6
Continuous
 62
     7
 48
6.0
100
AcDbLine
 10
479.4097703922906
 20
362.2368920764349
 30
0.0
 11
479.4097703923385
 21
357.2368920765488
 31
0.0
  0
LINE
  5
46A
330
1F
100
AcDbEntity
  8
0
  6
Continuous
 62
     7
 48
6.0
100
AcDbLine
 10
480.0697703923384
 20
357.2368920765488
 30
0.0
 11
480.0697703922906
 21
362.236892076439
 31
0.0
  0
LINE
  5
46B
330
1F
100
AcDbEntity
  8
0
  6
Continuous
 62
     7
 48
6.0
100
AcDbLine
 10
483.2197703922905
 20
362.2368920764549
 30
0.0
 11
483.2197703923385
 21
357.2368920765479
 31
0.0
  0
LINE
  5
46C
330
1F
100
AcDbEntity
  8
0
  6
Continuous
 62
     7
 48
6.0
100
AcDbLine
 10
483.8797703923165
 20
357.2368920762679
 30
0.0
 11
483.8797703922906
 21
362.236892076458
 31
0.0
  0
LINE
  5
46D
330
1F
100
AcDbEntity
  8
0
  6
Continuous
 62
     7
 48
6.0
100
AcDbLine
 10
487.0297703923033
 20
362.2368920764738
 30
0.0
 11
487.0297703923364
 21
357.236892076267
 31
0.0
  0
LINE
  5
46E
330
1F
100
AcDbEntity
  8
0
  6
Continuous
 62
     7
 48
6.0
100
AcDbLine
 10
487.6897703923365
 20
357.236892076267
 30
0.0
 11
487.6897703923035
 21
362.236892076478
 31
0.0
  0
LINE
  5
46F
330
1F
100
AcDbEntity
  8
0
  6
Continuous
 62
     7
 48
6.0
100
AcDbLine
 10
490.8397703922905
 20
362.236892076494
 30
0.0
 11
490.8397703923385
 21
357.2368920765459
 31
0.0
  0
LINE
  5
470
330
1F
100
AcDbEntity
  8
0
  6
Continuous
 62
     7
 48
6.0
100
AcDbLine
 10
493.4047703923325
 20
357.896892076507
 30
0.0
 11
491.4997703923326
 21
357.896892076497
 31
0.0
  0
LINE
  5
471
330
1F
100
AcDbEntity
  8
0
  6
Continuous
 62
     7
 48
6.0
100
AcDbLine
 10
491.4997703923326
 20
357.896892076497
 30
0.0
 11
491.4997703923035
 21
362.2368920764969
 31
0.0
  0
LINE
  5
472
330
1F
100
AcDbEntity
  8
0
  6
Continuous
 62
     7
 48
6.0
100
AcDbLine
 10
493.4047703922506
 20
361.591335999041
 30
0.0
 11
492.0217804043775
 21
361.591335999034
 31
0.0
  0
LINE
  5
473
330
1F
100
AcDbEntity
  8
0
  6
Continuous
 62
     7
 48
6.0
100
AcDbLine
 10
492.0217804043775
 20
361.591335999034
 30
0.0
 11
492.0217804043495
 21
358.5107412279338
 31
0.0
  0
LINE
  5
474
330
1F
100
AcDbEntity
  8
0
  6
Continuous
 62
     7
 48
6.0
100
AcDbLine
 10
492.0217804043925
 20
358.5107412279338
 30
0.0
 11
493.4047703922665
 21
358.510741227941
 31
0.0
  0
LINE
  5
475
330
1F
100
AcDbEntity
  8
0
  6
Continuous
 62
     7
100
AcDbLine
 10
503.1822689767236
 20
368.624462108994
 30
0.0
 11
439.4822689767236
 21
368.624462108994
 31
0.0
  0
LINE
  5
476
330
1F
100
AcDbEntity
  8
0
  6
Continuous
 62
     7
100
AcDbLine
 10
441.3322689767236
 20
233.624462108994
 30
0.0
 11
439.4822689767236
 21
233.624462108994
 31
0.0
  0
ARC
  5
477
330
1F
100
AcDbEntity
  8
0
  6
Continuous
 62
     7
100
AcDbCircle
 10
442.3322689767235
 20
233.624462108994
 30
0.0
 40
1.0
100
AcDbArc
 50
0.0
 51
180.0
  0
ARC
  5
478
330
1F
100
AcDbEntity
  8
0
  6
Continuous
 62
     7
100
AcDbCircle
 10
442.3322689767233
 20
246.1244621089936
 30
0.0
 40
1.999999999999331
100
AcDbArc
 50
126.8698812533848
 51
53.13011885528127
  0
LINE
  5
479
330
1F
100
AcDbEntity
  8
0
  6
Continuous
 62
     7
100
AcDbLine
 10
468.0822689767236
 20
221.124462108994
 30
0.0
 11
444.0822689767236
 21
221.124462108994
 31
0.0
  0
ARC
  5
47A
330
1F
100
AcDbEntity
  8
0
  6
Continuous
 62
     7
100
AcDbCircle
 10
498.5822689767227
 20
225.1244621089946
 30
0.0
 40
4.000000000000595
100
AcDbArc
 50
270.0000000000097
 51
359.9999999999902
  0
LINE
  5
47B
330
1F
100
AcDbEntity
  8
0
  6
Continuous
 62
     7
100
AcDbLine
 10
440.0822689767236
 20
225.124462108994
 30
0.0
 11
440.0822689767236
 21
233.624462108994
 31
0.0
  0
ARC
  5
47C
330
1F
100
AcDbEntity
  8
0
  6
Continuous
 62
     7
100
AcDbCircle
 10
444.0822689767242
 20
225.1244621089946
 30
0.0
 40
4.000000000000625
100
AcDbArc
 50
180.0000000000097
 51
269.9999999999902
  0
LINE
  5
47D
330
1F
100
AcDbEntity
  8
0
  6
Continuous
 62
     7
100
AcDbLine
 10
498.5822689767235
 20
221.124462108994
 30
0.0
 11
474.5822689767235
 21
221.124462108994
 31
0.0
  0
LINE
  5
47E
330
1F
100
AcDbEntity
  8
0
  6
Continuous
 62
     7
100
AcDbLine
 10
469.0822689767236
 20
222.124462108994
 30
0.0
 11
469.0822689767236
 21
227.624462108994
 31
0.0
  0
ARC
  5
47F
330
1F
100
AcDbEntity
  8
0
  6
Continuous
 62
     7
100
AcDbCircle
 10
468.0822689767234
 20
222.1244621089941
 30
0.0
 40
1.00000000000017
100
AcDbArc
 50
270.0000000000097
 51
359.9999999999902
  0
LINE
  5
480
330
1F
100
AcDbEntity
  8
0
  6
Continuous
 62
     7
100
AcDbLine
 10
473.5822689767235
 20
222.124462108994
 30
0.0
 11
473.5822689767235
 21
227.624462108994
 31
0.0
  0
ARC
  5
481
330
1F
100
AcDbEntity
  8
0
  6
Continuous
 62
     7
100
AcDbCircle
 10
474.5822689767236
 20
222.1244621089941
 30
0.0
 40
1.000000000000154
100
AcDbArc
 50
180.0000000000097
 51
269.9999999999902
  0
ARC
  5
482
330
1F
100
AcDbEntity
  8
0
  6
Continuous
 62
     7
100
AcDbCircle
 10
471.3322689767236
 20
227.624462108994
 30
0.0
 40
2.25
100
AcDbArc
 50
0.0
 51
180.0
  0
LINE
  5
483
330
1F
100
AcDbEntity
  8
0
  6
Continuous
 62
     7
100
AcDbLine
 10
443.8322689767235
 20
248.6244630626679
 30
0.0
 11
443.8322689767235
 21
248.6244630626679
 31
0.0
  0
LINE
  5
484
330
1F
100
AcDbEntity
  8
0
  6
Continuous
 62
     7
 48
6.0
100
AcDbLine
 10
443.3322699345065
 20
248.374463411134
 30
0.0
 11
443.3322699345065
 21
248.374463411134
 31
0.0
  0
LINE
  5
485
330
1F
100
AcDbEntity
  8
0
  6
Continuous
 62
     7
 48
6.0
100
AcDbLine
 10
442.5822699345006
 20
248.3744634111299
 30
0.0
 11
443.3322699345065
 21
248.374463411134
 31
0.0
  0
LINE
  5
486
330
1F
100
AcDbEntity
  8
0
  6
Continuous
 62
     7
 48
6.0
100
AcDbLine
 10
442.5822699345046
 20
247.6244634111299
 30
0.0
 11
442.5822699345006
 21
248.3744634111299
 31
0.0
  0
LINE
  5
487
330
1F
100
AcDbEntity
  8
0
  6
Continuous
 62
     7
 48
6.0
100
AcDbLine
 10
442.0822699345105
 20
247.6244634111279
 30
0.0
 11
442.5822699345046
 21
247.6244634111299
 31
0.0
  0
LINE
  5
488
330
1F
100
AcDbEntity
  8
0
  6
Continuous
 62
     7
 48
6.0
100
AcDbLine
 10
442.0822699345075
 20
248.3744634111279
 30
0.0
 11
442.0822699345105
 21
247.6244634111279
 31
0.0
  0
LINE
  5
489
330
1F
100
AcDbEntity
  8
0
  6
Continuous
 62
     7
 48
6.0
100
AcDbLine
 10
441.3322699345066
 20
248.374463411124
 30
0.0
 11
442.0822699345075
 21
248.3744634111279
 31
0.0
  0
LINE
  5
48A
330
1F
100
AcDbEntity
  8
0
  6
Continuous
 62
     7
 48
6.0
100
AcDbLine
 10
441.3322699344986
 20
248.874463411124
 30
0.0
 11
441.3322699345066
 21
248.374463411124
 31
0.0
  0
LINE
  5
48B
330
1F
100
AcDbEntity
  8
0
  6
Continuous
 62
     7
 48
6.0
100
AcDbLine
 10
442.0822699345045
 20
248.8744634111279
 30
0.0
 11
441.3322699344986
 21
248.874463411124
 31
0.0
  0
LINE
  5
48C
330
1F
100
AcDbEntity
  8
0
  6
Continuous
 62
     7
 48
6.0
100
AcDbLine
 10
442.0822699345006
 20
249.6244634111279
 30
0.0
 11
442.0822699345045
 21
248.8744634111279
 31
0.0
  0
LINE
  5
48D
330
1F
100
AcDbEntity
  8
0
  6
Continuous
 62
     7
 48
6.0
100
AcDbLine
 10
442.5822699344946
 20
249.6244634111298
 30
0.0
 11
442.0822699345006
 21
249.6244634111279
 31
0.0
  0
LINE
  5
48E
330
1F
100
AcDbEntity
  8
0
  6
Continuous
 62
     7
 48
6.0
100
AcDbLine
 10
442.5822699345046
 20
248.8744634111299
 30
0.0
 11
442.5822699344946
 21
249.6244634111298
 31
0.0
  0
LINE
  5
48F
330
1F
100
AcDbEntity
  8
0
  6
Continuous
 62
     7
 48
6.0
100
AcDbLine
 10
443.3322699345045
 20
248.8744634111339
 30
0.0
 11
442.5822699345046
 21
248.8744634111299
 31
0.0
  0
LINE
  5
490
330
1F
100
AcDbEntity
  8
0
  6
Continuous
 62
     7
 48
6.0
100
AcDbLine
 10
443.3322699345065
 20
248.374463411134
 30
0.0
 11
443.3322699345045
 21
248.8744634111339
 31
0.0
  0
ARC
  5
491
330
1F
100
AcDbEntity
  8
0
  6
Continuous
 62
     7
100
AcDbCircle
 10
503.3822689767233
 20
344.8244637302396
 30
0.0
 40
0.8000000000001532
100
AcDbArc
 50
0.0000000000065138
 51
89.99999999999023
  0
LINE
  5
492
330
1F
100
AcDbEntity
  8
0
  6
Continuous
 62
     7
100
AcDbLine
 10
503.3822689767236
 20
345.6244637302397
 30
0.0
 11
503.1822689767236
 21
345.6244637302397
 31
0.0
  0
LINE
  5
493
330
1F
100
AcDbEntity
  8
0
  6
Continuous
 62
     7
100
AcDbLine
 10
503.3822689767236
 20
342.6244637302399
 30
0.0
 11
503.1822689767236
 21
342.6244637302399
 31
0.0
  0
LINE
  5
494
330
1F
100
AcDbEntity
  8
0
  6
Continuous
 62
     7
100
AcDbLine
 10
439.4822689767236
 20
345.6244637302397
 30
0.0
 11
439.2822689767235
 21
345.6244637302397
 31
0.0
  0
LINE
  5
495
330
1F
100
AcDbEntity
  8
0
  6
Continuous
 62
     7
100
AcDbLine
 10
439.4822689767236
 20
342.6244637302399
 30
0.0
 11
439.2822689767235
 21
342.6244637302399
 31
0.0
  0
ARC
  5
496
330
1F
100
AcDbEntity
  8
0
  6
Continuous
 62
     7
100
AcDbCircle
 10
503.3822689767233
 20
343.4244637302402
 30
0.0
 40
0.8000000000001817
100
AcDbArc
 50
270.0000000000097
 51
359.9999999999869
  0
LINE
  5
497
330
1F
100
AcDbEntity
  8
0
  6
Continuous
 62
     7
100
AcDbLine
 10
504.1822689767236
 20
344.8244637302396
 30
0.0
 11
504.1822689767236
 21
343.42446373024
 31
0.0
  0
ARC
  5
498
330
1F
100
AcDbEntity
  8
0
  6
Continuous
 62
     7
100
AcDbCircle
 10
439.2822689767236
 20
344.8244637302396
 30
0.0
 40
0.800000000000125
100
AcDbArc
 50
90.00000000000978
 51
179.9999999999902
  0
ARC
  5
499
330
1F
100
AcDbEntity
  8
0
  6
Continuous
 62
     7
100
AcDbCircle
 10
439.2822689767236
 20
343.4244637302401
 30
0.0
 40
0.800000000000125
100
AcDbArc
 50
180.0000000000065
 51
269.9999999999902
  0
LINE
  5
49A
330
1F
100
AcDbEntity
  8
0
  6
Continuous
 62
     7
100
AcDbLine
 10
438.4822689767235
 20
343.42446373024
 30
0.0
 11
438.4822689767235
 21
344.8244637302396
 31
0.0
  0
LINE
  5
49B
330
1F
100
AcDbEntity
  8
0
  6
Continuous
 62
     7
100
AcDbLine
 10
439.4822689767236
 20
245.62446373024
 30
0.0
 11
439.2822689767235
 21
245.62446373024
 31
0.0
  0
LINE
  5
49C
330
1F
100
AcDbEntity
  8
0
  6
Continuous
 62
     7
100
AcDbLine
 10
439.4822689767236
 20
242.6244637302398
 30
0.0
 11
439.2822689767235
 21
242.6244637302398
 31
0.0
  0
ARC
  5
49D
330
1F
100
AcDbEntity
  8
0
  6
Continuous
 62
     7
100
AcDbCircle
 10
439.2822689767236
 20
244.8244637302398
 30
0.0
 40
0.800000000000125
100
AcDbArc
 50
90.00000000000978
 51
179.9999999999902
  0
ARC
  5
49E
330
1F
100
AcDbEntity
  8
0
  6
Continuous
 62
     7
100
AcDbCircle
 10
439.2822689767237
 20
243.42446373024
 30
0.0
 40
0.8000000000002103
100
AcDbArc
 50
180.0000000000032
 51
269.9999999999837
  0
LINE
  5
49F
330
1F
100
AcDbEntity
  8
0
  6
Continuous
 62
     7
100
AcDbLine
 10
438.4822689767235
 20
243.42446373024
 30
0.0
 11
438.4822689767235
 21
244.82446373024
 31
0.0
  0
LINE
  5
4A0
330
1F
100
AcDbEntity
  8
0
  6
Continuous
 62
     7
100
AcDbLine
 10
584.7322689767236
 20
289.124462108994
 30
0.0
 11
584.7322689767236
 21
288.124462108994
 31
0.0
  0
LINE
  5
4A1
330
1F
100
AcDbEntity
  8
0
  6
Continuous
 62
     7
100
AcDbLine
 10
584.7322689767236
 20
294.124462108994
 30
0.0
 11
584.7322689767236
 21
293.124462108994
 31
0.0
  0
LINE
  5
4A2
330
1F
100
AcDbEntity
  8
0
  6
Continuous
 62
     7
100
AcDbLine
 10
584.1322689767236
 20
289.124462108994
 30
0.0
 11
584.1322689767236
 21
293.124462108994
 31
0.0
  0
ARC
  5
4A3
330
1F
100
AcDbEntity
  8
0
  6
Continuous
 62
     7
100
AcDbCircle
 10
579.6822689767234
 20
291.124462108994
 30
0.0
 40
3.0
100
AcDbArc
 50
90.0
 51
270.0
  0
LINE
  5
4A4
330
1F
100
AcDbEntity
  8
0
  6
Continuous
 62
     7
100
AcDbLine
 10
584.7322689767236
 20
293.124462108994
 30
0.0
 11
584.1322689767236
 21
293.124462108994
 31
0.0
  0
LINE
  5
4A5
330
1F
100
AcDbEntity
  8
0
  6
Continuous
 62
     7
100
AcDbLine
 10
584.7322689767236
 20
289.124462108994
 30
0.0
 11
584.1322689767236
 21
289.124462108994
 31
0.0
  0
LINE
  5
4A6
330
1F
100
AcDbEntity
  8
0
  6
Continuous
 62
     7
100
AcDbLine
 10
584.7322689767236
 20
288.124462108994
 30
0.0
 11
579.6822689767234
 21
288.124462108994
 31
0.0
  0
LINE
  5
4A7
330
1F
100
AcDbEntity
  8
0
  6
Continuous
 62
     7
100
AcDbLine
 10
584.7322689767236
 20
294.124462108994
 30
0.0
 11
579.6822689767234
 21
294.124462108994
 31
0.0
  0
LINE
  5
4A8
330
1F
100
AcDbEntity
  8
0
  6
Continuous
 62
     7
100
AcDbLine
 10
584.7322689767236
 20
354.1244621089938
 30
0.0
 11
584.7322689767236
 21
353.1244621089939
 31
0.0
  0
LINE
  5
4A9
330
1F
100
AcDbEntity
  8
0
  6
Continuous
 62
     7
100
AcDbLine
 10
584.7322689767236
 20
359.124462108994
 30
0.0
 11
584.7322689767236
 21
358.1244621089938
 31
0.0
  0
LINE
  5
4AA
330
1F
100
AcDbEntity
  8
0
  6
Continuous
 62
     7
100
AcDbLine
 10
584.1322689767236
 20
354.1244621089938
 30
0.0
 11
584.1322689767236
 21
358.1244621089938
 31
0.0
  0
ARC
  5
4AB
330
1F
100
AcDbEntity
  8
0
  6
Continuous
 62
     7
100
AcDbCircle
 10
579.6822689767234
 20
356.124462108994
 30
0.0
 40
3.0
100
AcDbArc
 50
90.0
 51
270.0
  0
LINE
  5
4AC
330
1F
100
AcDbEntity
  8
0
  6
Continuous
 62
     7
100
AcDbLine
 10
584.7322689767236
 20
358.1244621089938
 30
0.0
 11
584.1322689767236
 21
358.1244621089938
 31
0.0
  0
LINE
  5
4AD
330
1F
100
AcDbEntity
  8
0
  6
Continuous
 62
     7
100
AcDbLine
 10
584.7322689767236
 20
354.1244621089938
 30
0.0
 11
584.1322689767236
 21
354.1244621089938
 31
0.0
  0
LINE
  5
4AE
330
1F
100
AcDbEntity
  8
0
  6
Continuous
 62
     7
100
AcDbLine
 10
584.7322689767236
 20
353.1244621089939
 30
0.0
 11
579.6822689767234
 21
353.1244621089939
 31
0.0
  0
LINE
  5
4AF
330
1F
100
AcDbEntity
  8
0
  6
Continuous
 62
     7
100
AcDbLine
 10
584.7322689767236
 20
359.124462108994
 30
0.0
 11
579.6822689767234
 21
359.124462108994
 31
0.0
  0
LINE
  5
4B0
330
1F
100
AcDbEntity
  8
0
  6
Continuous
 62
     7
100
AcDbLine
 10
568.8322689767235
 20
368.624462108994
 30
0.0
 11
568.8322689767235
 21
233.624462108994
 31
0.0
  0
LINE
  5
4B1
330
1F
100
AcDbEntity
  8
0
  6
Continuous
 62
     7
100
AcDbLine
 10
568.2322689767235
 20
233.624462108994
 30
0.0
 11
663.3322689767232
 21
233.624462108994
 31
0.0
  0
LINE
  5
4B2
330
1F
100
AcDbEntity
  8
0
  6
Continuous
 62
     7
100
AcDbLine
 10
663.3322689767232
 20
368.624462108994
 30
0.0
 11
568.2322689767235
 21
368.624462108994
 31
0.0
  0
LINE
  5
4B3
330
1F
100
AcDbEntity
  8
0
  6
Continuous
 62
     7
100
AcDbLine
 10
663.3322689767232
 20
383.624462108994
 30
0.0
 11
662.7322689767236
 21
383.624462108994
 31
0.0
  0
LINE
  5
4B4
330
1F
100
AcDbEntity
  8
0
  6
Continuous
 62
     7
100
AcDbLine
 10
663.3322689767232
 20
221.124462108994
 30
0.0
 11
663.3322689767232
 21
383.624462108994
 31
0.0
  0
LINE
  5
4B5
330
1F
100
AcDbEntity
  8
0
  6
Continuous
 62
     7
100
AcDbLine
 10
662.7322689767236
 20
221.124462108994
 30
0.0
 11
663.3322689767232
 21
221.124462108994
 31
0.0
  0
LINE
  5
4B6
330
1F
100
AcDbEntity
  8
0
  6
Continuous
 62
     7
100
AcDbLine
 10
662.7322689767236
 20
368.624462108994
 30
0.0
 11
662.7322689767236
 21
383.624462108994
 31
0.0
  0
LINE
  5
4B7
330
1F
100
AcDbEntity
  8
0
  6
Continuous
 62
     7
100
AcDbLine
 10
662.7322689767236
 20
221.124462108994
 30
0.0
 11
662.7322689767236
 21
233.624462108994
 31
0.0
  0
LINE
  5
4B8
330
1F
100
AcDbEntity
  8
0
  6
Continuous
 62
     7
100
AcDbLine
 10
568.2322689767235
 20
368.624462108994
 30
0.0
 11
568.2322689767235
 21
233.624462108994
 31
0.0
  0
ARC
  5
4B9
330
1F
100
AcDbEntity
  8
0
  6
Continuous
 62
     7
100
AcDbCircle
 10
567.9822689767237
 20
249.1244621089936
 30
0.0
 40
1.00000000000017
100
AcDbArc
 50
90.00000000000651
 51
179.9999999999902
  0
ARC
  5
4BA
330
1F
100
AcDbEntity
  8
0
  6
Continuous
 62
     7
100
AcDbCircle
 10
567.9822689767237
 20
248.1244621089941
 30
0.0
 40
1.000000000000198
100
AcDbArc
 50
180.0000000000097
 51
269.9999999999934
  0
LINE
  5
4BB
330
1F
100
AcDbEntity
  8
0
  6
Continuous
 62
     7
100
AcDbLine
 10
566.9822689767235
 20
249.1244621089939
 30
0.0
 11
566.9822689767235
 21
248.124462108994
 31
0.0
  0
ARC
  5
4BC
330
1F
100
AcDbEntity
  8
0
  6
Continuous
 62
     7
100
AcDbCircle
 10
567.9822689767237
 20
350.6244621089941
 30
0.0
 40
1.000000000000254
100
AcDbArc
 50
180.0000000000097
 51
269.9999999999902
  0
LINE
  5
4BD
330
1F
100
AcDbEntity
  8
0
  6
Continuous
 62
     7
100
AcDbLine
 10
568.2322689767235
 20
247.124462108994
 30
0.0
 11
567.9822689767235
 21
247.124462108994
 31
0.0
  0
LINE
  5
4BE
330
1F
100
AcDbEntity
  8
0
  6
Continuous
 62
     7
100
AcDbLine
 10
568.2322689767235
 20
250.124462108994
 30
0.0
 11
567.9822689767235
 21
250.124462108994
 31
0.0
  0
ARC
  5
4BF
330
1F
100
AcDbEntity
  8
0
  6
Continuous
 62
     7
100
AcDbCircle
 10
567.9822689767237
 20
351.6244621089936
 30
0.0
 40
1.00000000000017
100
AcDbArc
 50
90.00000000000651
 51
179.9999999999902
  0
ARC
  5
4C0
330
1F
100
AcDbEntity
  8
0
  6
Continuous
 62
     7
100
AcDbCircle
 10
567.9822689767237
 20
350.6244621089941
 30
0.0
 40
1.000000000000254
100
AcDbArc
 50
180.0000000000097
 51
269.9999999999902
  0
LINE
  5
4C1
330
1F
100
AcDbEntity
  8
0
  6
Continuous
 62
     7
100
AcDbLine
 10
566.9822689767235
 20
351.624462108994
 30
0.0
 11
566.9822689767235
 21
350.624462108994
 31
0.0
  0
LINE
  5
4C2
330
1F
100
AcDbEntity
  8
0
  6
Continuous
 62
     7
100
AcDbLine
 10
568.2322689767235
 20
349.6244621089938
 30
0.0
 11
567.9822689767235
 21
349.6244621089938
 31
0.0
  0
LINE
  5
4C3
330
1F
100
AcDbEntity
  8
0
  6
Continuous
 62
     7
100
AcDbLine
 10
568.2322689767235
 20
352.624462108994
 30
0.0
 11
567.9822689767235
 21
352.624462108994
 31
0.0
  0
LINE
  5
4C4
330
1F
100
AcDbEntity
  8
0
  6
Continuous
 62
     7
100
AcDbLine
 10
624.5322712655415
 20
344.1244637302399
 30
0.0
 11
624.5322712655415
 21
344.1244637302399
 31
0.0
  0
LINE
  5
4C5
330
1F
100
AcDbEntity
  8
0
  6
Continuous
 62
     7
 48
6.0
100
AcDbLine
 10
623.8822725106606
 20
343.7994641832458
 30
0.0
 11
623.8822725106606
 21
343.7994641832458
 31
0.0
  0
LINE
  5
4C6
330
1F
100
AcDbEntity
  8
0
  6
Continuous
 62
     7
 48
6.0
100
AcDbLine
 10
622.9072725106525
 20
343.799464183241
 30
0.0
 11
623.8822725106606
 21
343.7994641832458
 31
0.0
  0
LINE
  5
4C7
330
1F
100
AcDbEntity
  8
0
  6
Continuous
 62
     7
 48
6.0
100
AcDbLine
 10
622.9072725106576
 20
342.824464183241
 30
0.0
 11
622.9072725106525
 21
343.799464183241
 31
0.0
  0
LINE
  5
4C8
330
1F
100
AcDbEntity
  8
0
  6
Continuous
 62
     7
 48
6.0
100
AcDbLine
 10
622.2572725106655
 20
342.8244641832368
 30
0.0
 11
622.9072725106576
 21
342.824464183241
 31
0.0
  0
LINE
  5
4C9
330
1F
100
AcDbEntity
  8
0
  6
Continuous
 62
     7
 48
6.0
100
AcDbLine
 10
622.2572725106606
 20
343.7994641832368
 30
0.0
 11
622.2572725106655
 21
342.8244641832368
 31
0.0
  0
LINE
  5
4CA
330
1F
100
AcDbEntity
  8
0
  6
Continuous
 62
     7
 48
6.0
100
AcDbLine
 10
621.2822725106605
 20
343.799464183232
 30
0.0
 11
622.2572725106606
 21
343.7994641832368
 31
0.0
  0
LINE
  5
4CB
330
1F
100
AcDbEntity
  8
0
  6
Continuous
 62
     7
 48
6.0
100
AcDbLine
 10
621.2822725106495
 20
344.449464183232
 30
0.0
 11
621.2822725106605
 21
343.799464183232
 31
0.0
  0
LINE
  5
4CC
330
1F
100
AcDbEntity
  8
0
  6
Continuous
 62
     7
 48
6.0
100
AcDbLine
 10
622.2572725106576
 20
344.4494641832368
 30
0.0
 11
621.2822725106495
 21
344.449464183232
 31
0.0
  0
LINE
  5
4CD
330
1F
100
AcDbEntity
  8
0
  6
Continuous
 62
     7
 48
6.0
100
AcDbLine
 10
622.2572725106515
 20
345.424464183237
 30
0.0
 11
622.2572725106576
 21
344.4494641832368
 31
0.0
  0
LINE
  5
4CE
330
1F
100
AcDbEntity
  8
0
  6
Continuous
 62
     7
 48
6.0
100
AcDbLine
 10
622.9072725106435
 20
345.424464183241
 30
0.0
 11
622.2572725106515
 21
345.424464183237
 31
0.0
  0
LINE
  5
4CF
330
1F
100
AcDbEntity
  8
0
  6
Continuous
 62
     7
 48
6.0
100
AcDbLine
 10
622.9072725106576
 20
344.4494641832406
 30
0.0
 11
622.9072725106435
 21
345.424464183241
 31
0.0
  0
LINE
  5
4D0
330
1F
100
AcDbEntity
  8
0
  6
Continuous
 62
     7
 48
6.0
100
AcDbLine
 10
623.8822725106565
 20
344.4494641832459
 30
0.0
 11
622.9072725106576
 21
344.4494641832406
 31
0.0
  0
LINE
  5
4D1
330
1F
100
AcDbEntity
  8
0
  6
Continuous
 62
     7
 48
6.0
100
AcDbLine
 10
623.8822725106606
 20
343.7994641832458
 30
0.0
 11
623.8822725106565
 21
344.4494641832459
 31
0.0
  0
LINE
  5
4D2
330
1F
100
AcDbEntity
  8
0
  6
Continuous
 62
     7
100
AcDbLine
 10
625.0822712655414
 20
344.1244637302399
 30
0.0
 11
625.0822712655414
 21
344.1244637302399
 31
0.0
  0
LINE
  5
4D3
330
1F
100
AcDbEntity
  8
0
  6
Continuous
 62
     7
100
AcDbLine
 10
624.5322712655415
 20
244.1244637302399
 30
0.0
 11
624.5322712655415
 21
244.1244637302399
 31
0.0
  0
LINE
  5
4D4
330
1F
100
AcDbEntity
  8
0
  6
Continuous
 62
     7
 48
6.0
100
AcDbLine
 10
623.8822725106606
 20
243.7994641832458
 30
0.0
 11
623.8822725106606
 21
243.7994641832458
 31
0.0
  0
LINE
  5
4D5
330
1F
100
AcDbEntity
  8
0
  6
Continuous
 62
     7
 48
6.0
100
AcDbLine
 10
622.9072725106525
 20
243.799464183241
 30
0.0
 11
623.8822725106606
 21
243.7994641832458
 31
0.0
  0
LINE
  5
4D6
330
1F
100
AcDbEntity
  8
0
  6
Continuous
 62
     7
 48
6.0
100
AcDbLine
 10
622.9072725106576
 20
242.8244641832407
 30
0.0
 11
622.9072725106525
 21
243.799464183241
 31
0.0
  0
LINE
  5
4D7
330
1F
100
AcDbEntity
  8
0
  6
Continuous
 62
     7
 48
6.0
100
AcDbLine
 10
622.2572725106655
 20
242.8244641832368
 30
0.0
 11
622.9072725106576
 21
242.8244641832407
 31
0.0
  0
LINE
  5
4D8
330
1F
100
AcDbEntity
  8
0
  6
Continuous
 62
     7
 48
6.0
100
AcDbLine
 10
622.2572725106606
 20
243.7994641832367
 30
0.0
 11
622.2572725106655
 21
242.8244641832368
 31
0.0
  0
LINE
  5
4D9
330
1F
100
AcDbEntity
  8
0
  6
Continuous
 62
     7
 48
6.0
100
AcDbLine
 10
621.2822725106605
 20
243.799464183232
 30
0.0
 11
622.2572725106606
 21
243.7994641832367
 31
0.0
  0
LINE
  5
4DA
330
1F
100
AcDbEntity
  8
0
  6
Continuous
 62
     7
 48
6.0
100
AcDbLine
 10
621.2822725106495
 20
244.449464183232
 30
0.0
 11
621.2822725106605
 21
243.799464183232
 31
0.0
  0
LINE
  5
4DB
330
1F
100
AcDbEntity
  8
0
  6
Continuous
 62
     7
 48
6.0
100
AcDbLine
 10
622.2572725106576
 20
244.4494641832368
 30
0.0
 11
621.2822725106495
 21
244.449464183232
 31
0.0
  0
LINE
  5
4DC
330
1F
100
AcDbEntity
  8
0
  6
Continuous
 62
     7
 48
6.0
100
AcDbLine
 10
622.2572725106515
 20
245.4244641832368
 30
0.0
 11
622.2572725106576
 21
244.4494641832368
 31
0.0
  0
LINE
  5
4DD
330
1F
100
AcDbEntity
  8
0
  6
Continuous
 62
     7
 48
6.0
100
AcDbLine
 10
622.9072725106446
 20
245.4244641832409
 30
0.0
 11
622.2572725106515
 21
245.4244641832368
 31
0.0
  0
LINE
  5
4DE
330
1F
100
AcDbEntity
  8
0
  6
Continuous
 62
     7
 48
6.0
100
AcDbLine
 10
622.9072725106576
 20
244.449464183241
 30
0.0
 11
622.9072725106446
 21
245.4244641832409
 31
0.0
  0
LINE
  5
4DF
330
1F
100
AcDbEntity
  8
0
  6
Continuous
 62
     7
 48
6.0
100
AcDbLine
 10
623.8822725106565
 20
244.4494641832458
 30
0.0
 11
622.9072725106576
 21
244.449464183241
 31
0.0
  0
LINE
  5
4E0
330
1F
100
AcDbEntity
  8
0
  6
Continuous
 62
     7
 48
6.0
100
AcDbLine
 10
623.8822725106606
 20
243.7994641832458
 30
0.0
 11
623.8822725106565
 21
244.4494641832458
 31
0.0
  0
LINE
  5
4E1
330
1F
100
AcDbEntity
  8
0
  6
Continuous
 62
     7
100
AcDbLine
 10
625.0822712655414
 20
244.1244637302399
 30
0.0
 11
625.0822712655414
 21
244.1244637302399
 31
0.0
  0
LINE
  5
4E2
330
1F
100
AcDbEntity
  8
0
  6
DASHED
 62
     4
 48
4.0
100
AcDbLine
 10
491.3322689522265
 20
242.6244621090189
 30
0.0
 11
491.3322689522265
 21
242.6244621090189
 31
0.0
  0
LINE
  5
4E3
330
1F
100
AcDbEntity
  8
0
  6
DASHED
 62
     4
 48
4.0
100
AcDbLine
 10
456.3322689523005
 20
242.6244621093029
 30
0.0
 11
456.3322689523005
 21
242.6244621093029
 31
0.0
  0
LINE
  5
4E4
330
1F
100
AcDbEntity
  8
0
  6
DASHED
 62
     4
 48
3.0
100
AcDbLine
 10
472.9822681867956
 20
239.1244643027087
 30
0.0
 11
472.9822681867956
 21
239.1244643027087
 31
0.0
  0
LINE
  5
4E5
330
1F
100
AcDbEntity
  8
0
  6
DASHED
 62
     4
 48
3.0
100
AcDbLine
 10
472.4322692403565
 20
238.8494646860209
 30
0.0
 11
472.4322692403565
 21
238.8494646860209
 31
0.0
  0
LINE
  5
4E6
330
1F
100
AcDbEntity
  8
0
  6
DASHED
 62
     4
 48
3.0
100
AcDbLine
 10
471.6072692403506
 20
238.8494646860169
 30
0.0
 11
472.4322692403565
 21
238.8494646860209
 31
0.0
  0
LINE
  5
4E7
330
1F
100
AcDbEntity
  8
0
  6
DASHED
 62
     4
 48
3.0
100
AcDbLine
 10
471.6072692403545
 20
238.0244646860168
 30
0.0
 11
471.6072692403506
 21
238.8494646860169
 31
0.0
  0
LINE
  5
4E8
330
1F
100
AcDbEntity
  8
0
  6
DASHED
 62
     4
 48
3.0
100
AcDbLine
 10
471.0572692403616
 20
238.0244646860138
 30
0.0
 11
471.6072692403545
 21
238.0244646860168
 31
0.0
  0
LINE
  5
4E9
330
1F
100
AcDbEntity
  8
0
  6
DASHED
 62
     4
 48
3.0
100
AcDbLine
 10
471.0572692403576
 20
238.849464686014
 30
0.0
 11
471.0572692403616
 21
238.0244646860138
 31
0.0
  0
LINE
  5
4EA
330
1F
100
AcDbEntity
  8
0
  6
DASHED
 62
     4
 48
3.0
100
AcDbLine
 10
470.2322692403566
 20
238.84946468601
 30
0.0
 11
471.0572692403576
 21
238.849464686014
 31
0.0
  0
LINE
  5
4EB
330
1F
100
AcDbEntity
  8
0
  6
DASHED
 62
     4
 48
3.0
100
AcDbLine
 10
470.2322692403476
 20
239.39946468601
 30
0.0
 11
470.2322692403566
 21
238.84946468601
 31
0.0
  0
LINE
  5
4EC
330
1F
100
AcDbEntity
  8
0
  6
DASHED
 62
     4
 48
3.0
100
AcDbLine
 10
471.0572692403546
 20
239.3994646860138
 30
0.0
 11
470.2322692403476
 21
239.39946468601
 31
0.0
  0
LINE
  5
4ED
330
1F
100
AcDbEntity
  8
0
  6
DASHED
 62
     4
 48
3.0
100
AcDbLine
 10
471.0572692403495
 20
240.224464686014
 30
0.0
 11
471.0572692403546
 21
239.3994646860138
 31
0.0
  0
LINE
  5
4EE
330
1F
100
AcDbEntity
  8
0
  6
DASHED
 62
     4
 48
3.0
100
AcDbLine
 10
471.6072692403436
 20
240.2244646860169
 30
0.0
 11
471.0572692403495
 21
240.224464686014
 31
0.0
  0
LINE
  5
4EF
330
1F
100
AcDbEntity
  8
0
  6
DASHED
 62
     4
 48
3.0
100
AcDbLine
 10
471.6072692403545
 20
239.3994646860168
 30
0.0
 11
471.6072692403436
 21
240.2244646860169
 31
0.0
  0
LINE
  5
4F0
330
1F
100
AcDbEntity
  8
0
  6
DASHED
 62
     4
 48
3.0
100
AcDbLine
 10
472.4322692403545
 20
239.399464686021
 30
0.0
 11
471.6072692403545
 21
239.3994646860168
 31
0.0
  0
LINE
  5
4F1
330
1F
100
AcDbEntity
  8
0
  6
DASHED
 62
     4
 48
3.0
100
AcDbLine
 10
472.4322692403565
 20
238.8494646860209
 30
0.0
 11
472.4322692403545
 21
239.399464686021
 31
0.0
  0
LINE
  5
4F2
330
1F
100
AcDbEntity
  8
0
  6
DASHED
 62
     4
 48
4.0
100
AcDbLine
 10
460.0822689522916
 20
237.624462109292
 30
0.0
 11
460.0822689522916
 21
251.1244621093379
 31
0.0
  0
LINE
  5
4F3
330
1F
100
AcDbEntity
  8
0
  6
DASHED
 62
     4
 48
4.0
100
AcDbLine
 10
460.0822689522916
 20
237.624462109292
 30
0.0
 11
459.0822689522916
 21
236.6244621092918
 31
0.0
  0
LINE
  5
4F4
330
1F
100
AcDbEntity
  8
0
  6
DASHED
 62
     4
 48
4.0
100
AcDbLine
 10
448.5822689522915
 20
236.6244621092918
 30
0.0
 11
459.0822689522916
 21
236.6244621092918
 31
0.0
  0
LINE
  5
4F5
330
1F
100
AcDbEntity
  8
0
  6
DASHED
 62
     4
 48
4.0
100
AcDbLine
 10
482.5822689522175
 20
237.624462109008
 30
0.0
 11
482.5822689522175
 21
250.1244621091219
 31
0.0
  0
LINE
  5
4F6
330
1F
100
AcDbEntity
  8
0
  6
DASHED
 62
     4
 48
4.0
100
AcDbLine
 10
482.5822689522175
 20
237.624462109008
 30
0.0
 11
483.5822689522175
 21
236.6244621090078
 31
0.0
  0
LINE
  5
4F7
330
1F
100
AcDbEntity
  8
0
  6
DASHED
 62
     4
 48
4.0
100
AcDbLine
 10
494.0822689522175
 20
236.6244621090078
 30
0.0
 11
483.5822689522175
 21
236.6244621090078
 31
0.0
  0
LINE
  5
4F8
330
1F
100
AcDbEntity
  8
0
  6
DASHED
 62
     4
 48
4.0
100
AcDbLine
 10
494.0822689522175
 20
236.6244621090078
 30
0.0
 11
495.0822689522175
 21
237.624462109008
 31
0.0
  0
LINE
  5
4F9
330
1F
100
AcDbEntity
  8
0
  6
DASHED
 62
     4
 48
4.0
100
AcDbLine
 10
495.0822689522175
 20
250.1244621091219
 30
0.0
 11
495.0822689522175
 21
237.624462109008
 31
0.0
  0
LINE
  5
4FA
330
1F
100
AcDbEntity
  8
0
  6
DASHED
 62
     4
 48
3.0
100
AcDbLine
 10
473.4497691282335
 20
239.1244623095559
 30
0.0
 11
473.4497691282335
 21
239.1244623095559
 31
0.0
  0
LINE
  5
4FB
330
1F
100
AcDbEntity
  8
0
  6
Continuous
 62
     7
100
AcDbLine
 10
503.1822689767236
 20
368.624462108994
 30
0.0
 11
503.1822689767236
 21
233.624462108994
 31
0.0
  0
LINE
  5
4FC
330
1F
100
AcDbEntity
  8
0
  6
Continuous
 62
     7
100
AcDbLine
 10
499.3322689767236
 20
233.624462108994
 30
0.0
 11
443.3322689767235
 21
233.624462108994
 31
0.0
  0
LINE
  5
4FD
330
1F
100
AcDbEntity
  8
0
  6
Continuous
 62
     7
100
AcDbLine
 10
503.1822689767236
 20
233.624462108994
 30
0.0
 11
501.3322689767235
 21
233.624462108994
 31
0.0
  0
ARC
  5
4FE
330
1F
100
AcDbEntity
  8
0
  6
Continuous
 62
     7
100
AcDbCircle
 10
500.3322689767236
 20
233.624462108994
 30
0.0
 40
1.0
100
AcDbArc
 50
0.0
 51
180.0
  0
ARC
  5
4FF
330
1F
100
AcDbEntity
  8
0
  6
Continuous
 62
     7
100
AcDbCircle
 10
500.332268976723
 20
246.1244621089936
 30
0.0
 40
1.999999999999379
100
AcDbArc
 50
126.8698812533838
 51
53.13011885528127
  0
LINE
  5
500
330
1F
100
AcDbEntity
  8
0
  6
Continuous
 62
     7
100
AcDbLine
 10
502.5822689767235
 20
233.624462108994
 30
0.0
 11
502.5822689767235
 21
225.124462108994
 31
0.0
  0
LINE
  5
501
330
1F
100
AcDbEntity
  8
0
  6
Continuous
 62
     7
100
AcDbLine
 10
501.8322689767235
 20
248.6244630626679
 30
0.0
 11
501.8322689767235
 21
248.6244630626679
 31
0.0
  0
LINE
  5
502
330
1F
100
AcDbEntity
  8
0
  6
Continuous
 62
     7
 48
6.0
100
AcDbLine
 10
501.3322699345065
 20
248.374463411134
 30
0.0
 11
501.3322699345065
 21
248.374463411134
 31
0.0
  0
LINE
  5
503
330
1F
100
AcDbEntity
  8
0
  6
Continuous
 62
     7
 48
6.0
100
AcDbLine
 10
500.5822699345004
 20
248.3744634111299
 30
0.0
 11
501.3322699345065
 21
248.374463411134
 31
0.0
  0
LINE
  5
504
330
1F
100
AcDbEntity
  8
0
  6
Continuous
 62
     7
 48
6.0
100
AcDbLine
 10
500.5822699345045
 20
247.6244634111299
 30
0.0
 11
500.5822699345004
 21
248.3744634111299
 31
0.0
  0
LINE
  5
505
330
1F
100
AcDbEntity
  8
0
  6
Continuous
 62
     7
 48
6.0
100
AcDbLine
 10
500.0822699345105
 20
247.6244634111279
 30
0.0
 11
500.5822699345045
 21
247.6244634111299
 31
0.0
  0
LINE
  5
506
330
1F
100
AcDbEntity
  8
0
  6
Continuous
 62
     7
 48
6.0
100
AcDbLine
 10
500.0822699345076
 20
248.3744634111279
 30
0.0
 11
500.0822699345105
 21
247.6244634111279
 31
0.0
  0
LINE
  5
507
330
1F
100
AcDbEntity
  8
0
  6
Continuous
 62
     7
 48
6.0
100
AcDbLine
 10
499.3322699345066
 20
248.374463411124
 30
0.0
 11
500.0822699345076
 21
248.3744634111279
 31
0.0
  0
LINE
  5
508
330
1F
100
AcDbEntity
  8
0
  6
Continuous
 62
     7
 48
6.0
100
AcDbLine
 10
499.3322699344985
 20
248.874463411124
 30
0.0
 11
499.3322699345066
 21
248.374463411124
 31
0.0
  0
LINE
  5
509
330
1F
100
AcDbEntity
  8
0
  6
Continuous
 62
     7
 48
6.0
100
AcDbLine
 10
500.0822699345045
 20
248.8744634111279
 30
0.0
 11
499.3322699344985
 21
248.874463411124
 31
0.0
  0
LINE
  5
50A
330
1F
100
AcDbEntity
  8
0
  6
Continuous
 62
     7
 48
6.0
100
AcDbLine
 10
500.0822699345004
 20
249.6244634111279
 30
0.0
 11
500.0822699345045
 21
248.8744634111279
 31
0.0
  0
LINE
  5
50B
330
1F
100
AcDbEntity
  8
0
  6
Continuous
 62
     7
 48
6.0
100
AcDbLine
 10
500.5822699344945
 20
249.6244634111298
 30
0.0
 11
500.0822699345004
 21
249.6244634111279
 31
0.0
  0
LINE
  5
50C
330
1F
100
AcDbEntity
  8
0
  6
Continuous
 62
     7
 48
6.0
100
AcDbLine
 10
500.5822699345045
 20
248.8744634111299
 30
0.0
 11
500.5822699344945
 21
249.6244634111298
 31
0.0
  0
LINE
  5
50D
330
1F
100
AcDbEntity
  8
0
  6
Continuous
 62
     7
 48
6.0
100
AcDbLine
 10
501.3322699345045
 20
248.8744634111339
 30
0.0
 11
500.5822699345045
 21
248.8744634111299
 31
0.0
  0
LINE
  5
50E
330
1F
100
AcDbEntity
  8
0
  6
Continuous
 62
     7
 48
6.0
100
AcDbLine
 10
501.3322699345065
 20
248.374463411134
 30
0.0
 11
501.3322699345045
 21
248.8744634111339
 31
0.0
  0
ARC
  5
50F
330
1F
100
AcDbEntity
  8
0
  6
Continuous
 62
     7
100
AcDbCircle
 10
503.3822689767233
 20
244.8244637302398
 30
0.0
 40
0.8000000000001532
100
AcDbArc
 50
0.0000000000130276
 51
89.99999999999023
  0
LINE
  5
510
330
1F
100
AcDbEntity
  8
0
  6
Continuous
 62
     7
100
AcDbLine
 10
503.3822689767236
 20
245.62446373024
 30
0.0
 11
503.1822689767236
 21
245.62446373024
 31
0.0
  0
LINE
  5
511
330
1F
100
AcDbEntity
  8
0
  6
Continuous
 62
     7
100
AcDbLine
 10
503.3822689767236
 20
242.6244637302398
 30
0.0
 11
503.1822689767236
 21
242.6244637302398
 31
0.0
  0
ARC
  5
512
330
1F
100
AcDbEntity
  8
0
  6
Continuous
 62
     7
100
AcDbCircle
 10
503.3822689767232
 20
243.42446373024
 30
0.0
 40
0.8000000000002387
100
AcDbArc
 50
270.0000000000162
 51
359.9999999999967
  0
LINE
  5
513
330
1F
100
AcDbEntity
  8
0
  6
Continuous
 62
     7
100
AcDbLine
 10
504.1822689767236
 20
244.82446373024
 30
0.0
 11
504.1822689767236
 21
243.42446373024
 31
0.0
  0
ARC
  5
514
330
1F
100
AcDbEntity
  8
0
  6
Continuous
 62
     7
100
AcDbCircle
 10
442.3322689767235
 20
364.1244621089936
 30
0.0
 40
2.000000000000063
100
AcDbArc
 50
299.9999999999997
 51
240.0000000000002
  0
ARC
  5
515
330
1F
100
AcDbEntity
  8
0
  6
Continuous
 62
     7
100
AcDbCircle
 10
500.3322689767236
 20
364.1244621089936
 30
0.0
 40
2.000000000000063
100
AcDbArc
 50
299.9999999999997
 51
240.0000000000002
  0
ARC
  5
516
330
1F
100
AcDbEntity
  8
0
  6
Continuous
 62
     7
100
AcDbCircle
 10
500.3322689767236
 20
333.1244621089938
 30
0.0
 40
1.0
100
AcDbArc
 50
180.0
 51
0.0
  0
ARC
  5
517
330
1F
100
AcDbEntity
  8
0
  6
Continuous
 62
     7
100
AcDbCircle
 10
442.3322689767235
 20
333.1244621089938
 30
0.0
 40
1.000000000000011
100
AcDbArc
 50
180.0
 51
0.0
  0
LINE
  5
518
330
1F
100
AcDbEntity
  8
0
  6
Continuous
 62
     7
100
AcDbLine
 10
441.3322689767236
 20
362.3924113014248
 30
0.0
 11
441.3322689767236
 21
352.2424960977427
 31
0.0
  0
LINE
  5
519
330
1F
100
AcDbEntity
  8
0
  6
Continuous
 62
     7
100
AcDbLine
 10
443.3322689767235
 20
362.3924113014248
 30
0.0
 11
443.3322689767235
 21
352.2424960977427
 31
0.0
  0
LINE
  5
51A
330
1F
100
AcDbEntity
  8
0
  6
Continuous
 62
     7
100
AcDbLine
 10
501.3322689767235
 20
362.3924113014248
 30
0.0
 11
501.3322689767235
 21
352.2424970514178
 31
0.0
  0
LINE
  5
51B
330
1F
100
AcDbEntity
  8
0
  6
Continuous
 62
     7
100
AcDbLine
 10
499.3322689767236
 20
362.3924113014248
 30
0.0
 11
499.3322689767236
 21
352.2424970514178
 31
0.0
  0
ENDSEC
  0
SECTION
  2
OBJECTS
  0
DICTIONARY
  5
C
330
0
100
AcDbDictionary
281
     1
  3
ACAD_GROUP
350
D
  3
ACAD_LAYOUT
350
1A
  3
ACAD_MLINESTYLE
350
17
  3
ACAD_PLOTSETTINGS
350
19
  3
ACAD_PLOTSTYLENAME
350
E
  0
DICTIONARY
  5
D
102
{ACAD_REACTORS
330
C
102
}
330
C
100
AcDbDictionary
281
     1
  0
DICTIONARY
  5
1A
102
{ACAD_REACTORS
330
C
102
}
330
C
100
AcDbDictionary
281
     1
  3
Model
350
22
  3
ﾚｲｱｳﾄ1
350
51
  0
DICTIONARY
  5
17
102
{ACAD_REACTORS
330
C
102
}
330
C
100
AcDbDictionary
281
     1
  3
Standard
350
18
  0
DICTIONARY
  5
19
102
{ACAD_REACTORS
330
C
102
}
330
C
100
AcDbDictionary
281
     1
  0
ACDBDICTIONARYWDFLT
  5
E
102
{ACAD_REACTORS
330
C
102
}
330
C
100
AcDbDictionary
281
     1
  3
Normal
350
F
100
AcDbDictionaryWithDefault
340
F
  0
LAYOUT
  5
22
102
{ACAD_REACTORS
330
1A
102
}
330
1A
100
AcDbPlotSettings
  1

  2
none_device
  4
ANSI_A_(8.50_x_11.00_Inches)
  6

 40
6.349999904632568
 41
19.04999923706054
 42
6.350006103515625
 43
19.04998779296875
 44
215.8999938964843
 45
279.3999938964843
 46
0.0
 47
0.0
 48
0.0
 49
0.0
140
0.0
141
0.0
142
1.0
143
78.436453180766
 70
 11952
 72
     0
 73
     1
 74
     0
  7

 75
     0
147
0.0127491741332998
148
0.0
149
0.0
100
AcDbLayout
  1
Model
 70
     1
 71
     0
 10
0.0
 20
0.0
 11
12.0
 21
9.0
 12
0.0
 22
0.0
 32
0.0
 14
0.0
 24
0.0
 34
0.0
 15
0.0
 25
0.0
 35
0.0
146
0.0
 13
0.0
 23
0.0
 33
0.0
 16
1.0
 26
0.0
 36
0.0
 17
0.0
 27
1.0
 37
0.0
 76
     0
330
1F
  0
LAYOUT
  5
51
102
{ACAD_REACTORS
330
1A
102
}
330
1A
100
AcDbPlotSettings
  1

  2
None
  4

  6

 40
0.0
 41
0.0
 42
0.0
 43
0.0
 44
0.0
 45
0.0
 46
0.0
 47
0.0
 48
0.0
 49
0.0
140
0.0
141
0.0
142
1.0
143
1.0
 70
   688
 72
     0
 73
     0
 74
     5
  7

 75
    16
147
1.0
148
0.0
149
0.0
100
AcDbLayout
  1
ﾚｲｱｳﾄ1
 70
     1
 71
     1
 10
0.0
 20
0.0
 11
12.0
 21
9.0
 12
0.0
 22
0.0
 32
0.0
 14
0.0
 24
0.0
 34
0.0
 15
0.0
 25
0.0
 35
0.0
146
0.0
 13
0.0
 23
0.0
 33
0.0
 16
1.0
 26
0.0
 36
0.0
 17
0.0
 27
1.0
 37
0.0
 76
     0
330
50
  0
MLINESTYLE
  5
18
102
{ACAD_REACTORS
330
17
102
}
330
17
100
AcDbMlineStyle
  2
STANDARD
 70
     0
  3

 62
   256
 51
90.0
 52
90.0
 71
     2
 49
0.5
 62
   256
  6
BYLAYER
 49
-0.5
 62
   256
  6
BYLAYER
  0
ACDBPLACEHOLDER
  5
F
102
{ACAD_REACTORS
330
E
102
}
330
E
  0
ENDSEC
  0
EOF
