  0
SECTION
  2
HEADER
  9
$ACADVER
  1
AC1015
  9
$ACADMAINTVER
 70
    10
  9
$DWGCODEPAGE
  3
ANSI_932
  9
$INSBASE
 10
0.0
 20
0.0
 30
0.0
  9
$EXTMIN
 10
410.0833174060467
 20
279.610041142834
 30
0.0
  9
$EXTMAX
 10
860.1146882568977
 20
607.9237496425138
 30
0.0
  9
$LIMMIN
 10
0.0
 20
0.0
  9
$LIMMAX
 10
420.0
 20
297.0
  9
$ORTHOMODE
 70
     1
  9
$REGENMODE
 70
     1
  9
$FILLMODE
 70
     1
  9
$QTEXTMODE
 70
     0
  9
$MIRRTEXT
 70
     1
  9
$LTSCALE
 40
1.0
  9
$ATTMODE
 70
     1
  9
$TEXTSIZE
 40
2.5
  9
$TRACEWID
 40
1.0
  9
$TEXTSTYLE
  7
Standard
  9
$CLAYER
  8
0
  9
$CELTYPE
  6
ByLayer
  9
$CECOLOR
 62
   256
  9
$CELTSCALE
 40
1.0
  9
$DISPSILH
 70
     0
  9
$DIMSCALE
 40
1.0
  9
$DIMASZ
 40
2.5
  9
$DIMEXO
 40
0.625
  9
$DIMDLI
 40
3.75
  9
$DIMRND
 40
0.0
  9
$DIMDLE
 40
0.0
  9
$DIMEXE
 40
1.25
  9
$DIMTP
 40
0.0
  9
$DIMTM
 40
0.0
  9
$DIMTXT
 40
2.5
  9
$DIMCEN
 40
2.5
  9
$DIMTSZ
 40
0.0
  9
$DIMTOL
 70
     0
  9
$DIMLIM
 70
     0
  9
$DIMTIH
 70
     0
  9
$DIMTOH
 70
     0
  9
$DIMSE1
 70
     0
  9
$DIMSE2
 70
     0
  9
$DIMTAD
 70
     1
  9
$DIMZIN
 70
     8
  9
$DIMBLK
  1

  9
$DIMASO
 70
     1
  9
$DIMSHO
 70
     1
  9
$DIMPOST
  1

  9
$DIMAPOST
  1

  9
$DIMALT
 70
     0
  9
$DIMALTD
 70
     3
  9
$DIMALTF
 40
0.03937007874016
  9
$DIMLFAC
 40
1.0
  9
$DIMTOFL
 70
     1
  9
$DIMTVP
 40
0.0
  9
$DIMTIX
 70
     0
  9
$DIMSOXD
 70
     0
  9
$DIMSAH
 70
     0
  9
$DIMBLK1
  1

  9
$DIMBLK2
  1

  9
$DIMSTYLE
  2
ISO-25
  9
$DIMCLRD
 70
     0
  9
$DIMCLRE
 70
     0
  9
$DIMCLRT
 70
     0
  9
$DIMTFAC
 40
1.0
  9
$DIMGAP
 40
0.625
  9
$DIMJUST
 70
     0
  9
$DIMSD1
 70
     0
  9
$DIMSD2
 70
     0
  9
$DIMTOLJ
 70
     0
  9
$DIMTZIN
 70
     8
  9
$DIMALTZ
 70
     0
  9
$DIMALTTZ
 70
     0
  9
$DIMUPT
 70
     0
  9
$DIMDEC
 70
     2
  9
$DIMTDEC
 70
     2
  9
$DIMALTU
 70
     2
  9
$DIMALTTD
 70
     3
  9
$DIMTXSTY
  7
Standard
  9
$DIMAUNIT
 70
     0
  9
$DIMADEC
 70
     0
  9
$DIMALTRND
 40
0.0
  9
$DIMAZIN
 70
     0
  9
$DIMDSEP
 70
    44
  9
$DIMATFIT
 70
     3
  9
$DIMFRAC
 70
     0
  9
$DIMLDRBLK
  1

  9
$DIMLUNIT
 70
     2
  9
$DIMLWD
 70
    -2
  9
$DIMLWE
 70
    -2
  9
$DIMTMOVE
 70
     0
  9
$LUNITS
 70
     2
  9
$LUPREC
 70
     4
  9
$SKETCHINC
 40
1.0
  9
$FILLETRAD
 40
10.0
  9
$AUNITS
 70
     0
  9
$AUPREC
 70
     0
  9
$MENU
  1
.
  9
$ELEVATION
 40
0.0
  9
$PELEVATION
 40
0.0
  9
$THICKNESS
 40
0.0
  9
$LIMCHECK
 70
     0
  9
$CHAMFERA
 40
10.0
  9
$CHAMFERB
 40
10.0
  9
$CHAMFERC
 40
20.0
  9
$CHAMFERD
 40
0.0
  9
$SKPOLY
 70
     0
  9
$TDCREATE
 40
2456497.746105127
  9
$TDUCREATE
 40
2456497.371105127
  9
$TDUPDATE
 40
2456500.618911921
  9
$TDUUPDATE
 40
2456500.243911921
  9
$TDINDWG
 40
0.0312243866
  9
$TDUSRTIMER
 40
0.0312242130
  9
$USRTIMER
 70
     1
  9
$ANGBASE
 50
0.0
  9
$ANGDIR
 70
     0
  9
$PDMODE
 70
     0
  9
$PDSIZE
 40
0.0
  9
$PLINEWID
 40
0.0
  9
$SPLFRAME
 70
     0
  9
$SPLINETYPE
 70
     6
  9
$SPLINESEGS
 70
     8
  9
$HANDSEED
  5
906
  9
$SURFTAB1
 70
     6
  9
$SURFTAB2
 70
     6
  9
$SURFTYPE
 70
     6
  9
$SURFU
 70
     6
  9
$SURFV
 70
     6
  9
$UCSBASE
  2

  9
$UCSNAME
  2

  9
$UCSORG
 10
0.0
 20
0.0
 30
0.0
  9
$UCSXDIR
 10
1.0
 20
0.0
 30
0.0
  9
$UCSYDIR
 10
0.0
 20
1.0
 30
0.0
  9
$UCSORTHOREF
  2

  9
$UCSORTHOVIEW
 70
     0
  9
$UCSORGTOP
 10
0.0
 20
0.0
 30
0.0
  9
$UCSORGBOTTOM
 10
0.0
 20
0.0
 30
0.0
  9
$UCSORGLEFT
 10
0.0
 20
0.0
 30
0.0
  9
$UCSORGRIGHT
 10
0.0
 20
0.0
 30
0.0
  9
$UCSORGFRONT
 10
0.0
 20
0.0
 30
0.0
  9
$UCSORGBACK
 10
0.0
 20
0.0
 30
0.0
  9
$PUCSBASE
  2

  9
$PUCSNAME
  2

  9
$PUCSORG
 10
0.0
 20
0.0
 30
0.0
  9
$PUCSXDIR
 10
1.0
 20
0.0
 30
0.0
  9
$PUCSYDIR
 10
0.0
 20
1.0
 30
0.0
  9
$PUCSORTHOREF
  2

  9
$PUCSORTHOVIEW
 70
     0
  9
$PUCSORGTOP
 10
0.0
 20
0.0
 30
0.0
  9
$PUCSORGBOTTOM
 10
0.0
 20
0.0
 30
0.0
  9
$PUCSORGLEFT
 10
0.0
 20
0.0
 30
0.0
  9
$PUCSORGRIGHT
 10
0.0
 20
0.0
 30
0.0
  9
$PUCSORGFRONT
 10
0.0
 20
0.0
 30
0.0
  9
$PUCSORGBACK
 10
0.0
 20
0.0
 30
0.0
  9
$USERI1
 70
     0
  9
$USERI2
 70
     0
  9
$USERI3
 70
     0
  9
$USERI4
 70
     0
  9
$USERI5
 70
     0
  9
$USERR1
 40
0.0
  9
$USERR2
 40
0.0
  9
$USERR3
 40
0.0
  9
$USERR4
 40
0.0
  9
$USERR5
 40
0.0
  9
$WORLDVIEW
 70
     1
  9
$SHADEDGE
 70
     3
  9
$SHADEDIF
 70
    70
  9
$TILEMODE
 70
     1
  9
$MAXACTVP
 70
    64
  9
$PINSBASE
 10
0.0
 20
0.0
 30
0.0
  9
$PLIMCHECK
 70
     0
  9
$PEXTMIN
 10
0.0
 20
0.0
 30
0.0
  9
$PEXTMAX
 10
0.0
 20
0.0
 30
0.0
  9
$PLIMMIN
 10
0.0
 20
0.0
  9
$PLIMMAX
 10
12.0
 20
9.0
  9
$UNITMODE
 70
     0
  9
$VISRETAIN
 70
     1
  9
$PLINEGEN
 70
     0
  9
$PSLTSCALE
 70
     1
  9
$TREEDEPTH
 70
  3020
  9
$CMLSTYLE
  2
Standard
  9
$CMLJUST
 70
     0
  9
$CMLSCALE
 40
20.0
  9
$PROXYGRAPHICS
 70
     1
  9
$MEASUREMENT
 70
     1
  9
$CELWEIGHT
370
    -1
  9
$ENDCAPS
280
     0
  9
$JOINSTYLE
280
     0
  9
$LWDISPLAY
290
     0
  9
$INSUNITS
 70
     4
  9
$HYPERLINKBASE
  1

  9
$STYLESHEET
  1

  9
$XEDIT
290
     1
  9
$CEPSNTYPE
380
     0
  9
$PSTYLEMODE
290
     1
  9
$FINGERPRINTGUID
  2
{FDEAD578-A652-11D2-9A35-0060089B3A3F}
  9
$VERSIONGUID
  2
{A6F4F30F-A945-43A8-81DA-F61F28820C26}
  9
$EXTNAMES
290
     1
  9
$PSVPSCALE
 40
0.0
  9
$OLESTARTUP
290
     0
  0
ENDSEC
  0
SECTION
  2
CLASSES
  0
CLASS
  1
ACDBDICTIONARYWDFLT
  2
AcDbDictionaryWithDefault
  3
AutoCAD 2000
 90
        0
280
     0
281
     0
  0
CLASS
  1
ACDBPLACEHOLDER
  2
AcDbPlaceHolder
  3
AutoCAD 2000
 90
        0
280
     0
281
     0
  0
CLASS
  1
LAYOUT
  2
AcDbLayout
  3
AutoCAD 2000
 90
        0
280
     0
281
     0
  0
ENDSEC
  0
SECTION
  2
TABLES
  0
TABLE
  2
VPORT
  5
8
330
0
100
AcDbSymbolTable
 70
     2
  0
VPORT
  5
905
330
8
100
AcDbSymbolTableRecord
100
AcDbViewportTableRecord
  2
*Active
 70
     0
 10
0.0
 20
0.0
 11
1.0
 21
1.0
 12
635.0404247923441
 22
441.6068926325555
 13
0.0
 23
0.0
 14
10.0
 24
10.0
 15
10.0
 25
10.0
 16
0.0
 26
0.0
 36
1.0
 17
0.0
 27
0.0
 37
0.0
 40
355.2268521492706
 41
1.781954887218045
 42
50.0
 43
0.0
 44
0.0
 50
0.0
 51
0.0
 71
     0
 72
   100
 73
     1
 74
     3
 75
     0
 76
     0
 77
     0
 78
     0
281
     0
 65
     1
110
0.0
120
0.0
130
0.0
111
1.0
121
0.0
131
0.0
112
0.0
122
1.0
132
0.0
 79
     0
146
0.0
  0
ENDTAB
  0
TABLE
  2
LTYPE
  5
5
330
0
100
AcDbSymbolTable
 70
     2
  0
LTYPE
  5
14
330
5
100
AcDbSymbolTableRecord
100
AcDbLinetypeTableRecord
  2
ByBlock
 70
     0
  3

 72
    65
 73
     0
 40
0.0
  0
LTYPE
  5
15
330
5
100
AcDbSymbolTableRecord
100
AcDbLinetypeTableRecord
  2
ByLayer
 70
     0
  3

 72
    65
 73
     0
 40
0.0
  0
LTYPE
  5
16
330
5
100
AcDbSymbolTableRecord
100
AcDbLinetypeTableRecord
  2
Continuous
 70
     0
  3
Solid line
 72
    65
 73
     0
 40
0.0
  0
LTYPE
  5
67
330
5
100
AcDbSymbolTableRecord
100
AcDbLinetypeTableRecord
  2
DASHED
 70
     0
  3
DASHED
 72
    65
 73
     2
 40
0.75
 49
0.5
 74
     0
 49
-0.25
 74
     0
  0
ENDTAB
  0
TABLE
  2
LAYER
  5
2
330
0
100
AcDbSymbolTable
 70
     1
  0
LAYER
  5
10
330
2
100
AcDbSymbolTableRecord
100
AcDbLayerTableRecord
  2
0
 70
     0
 62
     7
  6
Continuous
370
    -3
390
F
  0
ENDTAB
  0
TABLE
  2
STYLE
  5
3
330
0
100
AcDbSymbolTable
 70
     2
  0
STYLE
  5
11
330
3
100
AcDbSymbolTableRecord
100
AcDbTextStyleTableRecord
  2
Standard
 70
     0
 40
0.0
 41
1.0
 50
0.0
 71
     0
 42
2.5
  3
txt
  4

  0
STYLE
  5
68
330
3
100
AcDbSymbolTableRecord
100
AcDbTextStyleTableRecord
  2
_TCW_TXTSTY_1
 70
     0
 40
0.0
 41
1.0
 50
0.0
 71
     0
 42
0.696969687939
  3
MS PGothic.ttf
  4

1001
ACAD
1000
ＭＳ Ｐゴシック
1071
    32802
  0
ENDTAB
  0
TABLE
  2
VIEW
  5
6
330
0
100
AcDbSymbolTable
 70
     0
  0
ENDTAB
  0
TABLE
  2
UCS
  5
7
330
0
100
AcDbSymbolTable
 70
     0
  0
ENDTAB
  0
TABLE
  2
APPID
  5
9
330
0
100
AcDbSymbolTable
 70
     2
  0
APPID
  5
12
330
9
100
AcDbSymbolTableRecord
100
AcDbRegAppTableRecord
  2
ACAD
 70
     0
  0
APPID
  5
6A
330
9
100
AcDbSymbolTableRecord
100
AcDbRegAppTableRecord
  2
TCAD
 70
     0
  0
ENDTAB
  0
TABLE
  2
DIMSTYLE
  5
A
330
0
100
AcDbSymbolTable
 70
     2
100
AcDbDimStyleTable
 71
     1
340
27
  0
DIMSTYLE
105
27
330
A
100
AcDbSymbolTableRecord
100
AcDbDimStyleTableRecord
  2
ISO-25
 70
     0
 41
2.5
 42
0.625
 43
3.75
 44
1.25
 73
     0
 74
     0
 77
     1
 78
     8
140
2.5
141
2.5
143
0.03937007874016
147
0.625
171
     3
172
     1
271
     2
272
     2
274
     3
278
    44
283
     0
284
     8
340
11
  0
DIMSTYLE
105
69
330
A
100
AcDbSymbolTableRecord
100
AcDbDimStyleTableRecord
  2
STANDARD
 70
     0
 41
3.0
 42
1.0
 43
7.5
 44
2.0
 45
0.1
 77
     1
 78
     8
140
2.439393939393998
143
0.5
144
2.0
147
0.5
148
0.01
176
     7
177
     7
178
     7
179
     2
271
     2
272
     8
274
     8
286
     8
340
68
341
61
342
61
  0
ENDTAB
  0
TABLE
  2
BLOCK_RECORD
  5
1
330
0
100
AcDbSymbolTable
 70
     1
  0
BLOCK_RECORD
  5
1F
330
1
100
AcDbSymbolTableRecord
100
AcDbBlockTableRecord
  2
*Model_Space
340
22
  0
BLOCK_RECORD
  5
50
330
1
100
AcDbSymbolTableRecord
100
AcDbBlockTableRecord
  2
*Paper_Space
340
51
  0
BLOCK_RECORD
  5
61
330
1
100
AcDbSymbolTableRecord
100
AcDbBlockTableRecord
  2
_OPEN
340
0
  0
ENDTAB
  0
ENDSEC
  0
SECTION
  2
BLOCKS
  0
BLOCK
  5
20
330
1F
100
AcDbEntity
  8
0
100
AcDbBlockBegin
  2
*Model_Space
 70
     0
 10
0.0
 20
0.0
 30
0.0
  3
*Model_Space
  1

  0
ENDBLK
  5
21
330
1F
100
AcDbEntity
  8
0
100
AcDbBlockEnd
  0
BLOCK
  5
52
330
50
100
AcDbEntity
 67
     1
  8
0
100
AcDbBlockBegin
  2
*Paper_Space
 70
     0
 10
0.0
 20
0.0
 30
0.0
  3
*Paper_Space
  1

  0
ENDBLK
  5
53
330
50
100
AcDbEntity
 67
     1
  8
0
100
AcDbBlockEnd
  0
BLOCK
  5
65
330
61
100
AcDbEntity
  8
0
100
AcDbBlockBegin
  2
_OPEN
 70
     0
 10
0.0
 20
0.0
 30
0.0
  3
_OPEN
  1

  0
LINE
  5
62
330
61
100
AcDbEntity
  8
0
  6
ByBlock
 62
     0
100
AcDbLine
 10
-1.0
 20
0.166667
 30
0.0
 11
0.0
 21
0.0
 31
0.0
  0
LINE
  5
63
330
61
100
AcDbEntity
  8
0
  6
ByBlock
 62
     0
100
AcDbLine
 10
0.0
 20
0.0
 30
0.0
 11
-1.0
 21
-0.166667
 31
0.0
  0
LINE
  5
64
330
61
100
AcDbEntity
  8
0
  6
ByBlock
 62
     0
100
AcDbLine
 10
0.0
 20
0.0
 30
0.0
 11
-1.0
 21
0.0
 31
0.0
  0
ENDBLK
  5
66
330
61
100
AcDbEntity
  8
0
100
AcDbBlockEnd
  0
ENDSEC
  0
SECTION
  2
ENTITIES
  0
LINE
  5
2C6
330
1F
100
AcDbEntity
  8
0
  6
Continuous
 62
     7
100
AcDbLine
 10
413.6146882559528
 20
289.2668953923467
 30
0.0
 11
413.6146882559528
 21
306.2668953923828
 31
0.0
  0
ARC
  5
2C7
330
1F
100
AcDbEntity
  8
0
  6
Continuous
 62
     7
100
AcDbCircle
 10
476.1146882560852
 20
294.2668953923573
 30
0.0
 40
4.500000000009531
100
AcDbArc
 50
0.0
 51
180.0
  0
LINE
  5
2C8
330
1F
100
AcDbEntity
  8
0
  6
Continuous
 62
     7
100
AcDbLine
 10
860.1146882568977
 20
281.2668953923298
 30
0.0
 11
860.1146882568977
 21
606.2668953930181
 31
0.0
  0
LINE
  5
2C9
330
1F
100
AcDbEntity
  8
0
  6
Continuous
 62
     7
100
AcDbLine
 10
858.9146882568961
 20
281.2668953923298
 30
0.0
 11
858.9146882568961
 21
306.2668953923828
 31
0.0
  0
LINE
  5
2CA
330
1F
100
AcDbEntity
  8
0
  6
Continuous
 62
     7
100
AcDbLine
 10
538.6146882562175
 20
306.2668953923828
 30
0.0
 11
538.6146882562175
 21
289.2668953923467
 31
0.0
  0
LINE
  5
2CB
330
1F
100
AcDbEntity
  8
0
  6
Continuous
 62
     7
100
AcDbLine
 10
530.6146882562006
 20
281.2668953923298
 30
0.0
 11
482.6146882560991
 21
281.2668953923298
 31
0.0
  0
ARC
  5
2CC
330
1F
100
AcDbEntity
  8
0
  6
Continuous
 62
     7
100
AcDbCircle
 10
421.6146882559707
 20
289.2668953923477
 30
0.0
 40
8.000000000018195
100
AcDbArc
 50
180.0000000000094
 51
269.9999999999902
  0
ARC
  5
2CD
330
1F
100
AcDbEntity
  8
0
  6
Continuous
 62
     7
100
AcDbCircle
 10
469.6146882560707
 20
283.2668953923341
 30
0.0
 40
2.000000000004575
100
AcDbArc
 50
270.0000000000094
 51
359.9999999999901
  0
LINE
  5
2CE
330
1F
100
AcDbEntity
  8
0
  6
Continuous
 62
     7
100
AcDbLine
 10
469.6146882560714
 20
281.2668953923298
 30
0.0
 11
421.6146882559698
 21
281.2668953923298
 31
0.0
  0
LINE
  5
2CF
330
1F
100
AcDbEntity
  8
0
  6
Continuous
 62
     7
100
AcDbLine
 10
471.6146882560757
 20
283.2668953923338
 30
0.0
 11
471.6146882560757
 21
294.2668953923573
 31
0.0
  0
LINE
  5
2D0
330
1F
100
AcDbEntity
  8
0
  6
Continuous
 62
     7
100
AcDbLine
 10
480.6146882560948
 20
283.2668953923338
 30
0.0
 11
480.6146882560948
 21
294.2668953923573
 31
0.0
  0
ARC
  5
2D1
330
1F
100
AcDbEntity
  8
0
  6
Continuous
 62
     7
100
AcDbCircle
 10
482.6146882560991
 20
283.2668953923341
 30
0.0
 40
2.000000000004543
100
AcDbArc
 50
180.0000000000094
 51
269.9999999999902
  0
ARC
  5
2D2
330
1F
100
AcDbEntity
  8
0
  6
Continuous
 62
     7
100
AcDbCircle
 10
530.6146882561988
 20
289.2668953923477
 30
0.0
 40
8.000000000018134
100
AcDbArc
 50
270.0000000000094
 51
359.9999999999901
  0
LINE
  5
2D3
330
1F
100
AcDbEntity
  8
0
  6
Continuous
 62
     7
100
AcDbLine
 10
858.9146882568961
 20
281.2668953923298
 30
0.0
 11
860.1146882568977
 21
281.2668953923298
 31
0.0
  0
LINE
  5
2D4
330
1F
100
AcDbEntity
  8
0
  6
Continuous
 62
     7
100
AcDbLine
 10
669.9146882564955
 20
306.2668953923828
 30
0.0
 11
860.1146882568977
 21
306.2668953923828
 31
0.0
  0
LINE
  5
2D5
330
1F
100
AcDbEntity
  8
0
  6
Continuous
 62
     7
100
AcDbLine
 10
860.1146882568977
 20
576.2668953929544
 30
0.0
 11
669.9146882564955
 21
576.2668953929544
 31
0.0
  0
LINE
  5
2D6
330
1F
100
AcDbEntity
  8
0
  6
Continuous
 62
     7
100
AcDbLine
 10
412.4146882559504
 20
306.2668953923828
 30
0.0
 11
412.4146882559504
 21
576.2668953929544
 31
0.0
  0
LINE
  5
2D7
330
1F
100
AcDbEntity
  8
0
  6
Continuous
 62
     7
100
AcDbLine
 10
671.1146882564983
 20
576.2668953929544
 30
0.0
 11
671.1146882564983
 21
306.2668953923828
 31
0.0
  0
LINE
  5
2D8
330
1F
100
AcDbEntity
  8
0
  6
Continuous
 62
     7
100
AcDbLine
 10
669.9146882564955
 20
576.2668953929544
 30
0.0
 11
669.9146882564955
 21
306.2668953923828
 31
0.0
  0
LINE
  5
2D9
330
1F
100
AcDbEntity
  8
0
  6
Continuous
 62
     7
100
AcDbLine
 10
539.81468825622
 20
576.2668953929544
 30
0.0
 11
539.81468825622
 21
306.2668953923828
 31
0.0
  0
LINE
  5
2DA
330
1F
100
AcDbEntity
  8
0
  6
Continuous
 62
     7
100
AcDbLine
 10
532.114688256204
 20
306.2668953923828
 30
0.0
 11
420.1146882559666
 21
306.2668953923828
 31
0.0
  0
LINE
  5
2DB
330
1F
100
AcDbEntity
  8
0
  6
Continuous
 62
     7
100
AcDbLine
 10
416.1146882559582
 20
306.2668953923828
 30
0.0
 11
412.4146882559504
 21
306.2668953923828
 31
0.0
  0
ARC
  5
2DC
330
1F
100
AcDbEntity
  8
0
  6
Continuous
 62
     7
100
AcDbCircle
 10
418.1146882559615
 20
331.2668953924351
 30
0.0
 40
4.000000000007133
100
AcDbArc
 50
126.8698812533848
 51
53.13011885528127
  0
LINE
  5
2DD
330
1F
100
AcDbEntity
  8
0
  6
Continuous
 62
     7
100
AcDbLine
 10
412.4146882559504
 20
330.2668986349256
 30
0.0
 11
412.0146882559494
 21
330.2668986349256
 31
0.0
  0
LINE
  5
2DE
330
1F
100
AcDbEntity
  8
0
  6
Continuous
 62
     7
100
AcDbLine
 10
412.4146882559504
 20
324.2668986349126
 30
0.0
 11
412.0146882559494
 21
324.2668986349126
 31
0.0
  0
ARC
  5
2DF
330
1F
100
AcDbEntity
  8
0
  6
Continuous
 62
     7
100
AcDbCircle
 10
412.0146882559494
 20
328.6668986349218
 30
0.0
 40
1.600000000003639
100
AcDbArc
 50
90.00000000000978
 51
179.9999999999899
  0
ARC
  5
2E0
330
1F
100
AcDbEntity
  8
0
  6
Continuous
 62
     7
100
AcDbCircle
 10
412.01468825595
 20
325.8668986349163
 30
0.0
 40
1.600000000003809
100
AcDbArc
 50
180.0000000000032
 51
269.9999999999837
  0
LINE
  5
2E1
330
1F
100
AcDbEntity
  8
0
  6
Continuous
 62
     7
100
AcDbLine
 10
410.4146882559461
 20
325.8668986349163
 30
0.0
 11
410.4146882559461
 21
328.6668986349221
 31
0.0
  0
LINE
  5
2E2
330
1F
100
AcDbEntity
  8
0
  6
DASHED
 62
     4
 48
4.0
100
AcDbLine
 10
428.6146882071204
 20
341.2668953931444
 30
0.0
 11
428.6146882071204
 21
314.2668953929957
 31
0.0
  0
LINE
  5
2E3
330
1F
100
AcDbEntity
  8
0
  6
DASHED
 62
     4
 48
4.0
100
AcDbLine
 10
453.6146882071734
 20
314.2668953929957
 30
0.0
 11
453.6146882071734
 21
341.2668953931444
 31
0.0
  0
CIRCLE
  5
2E4
330
1F
100
AcDbEntity
  8
0
  6
DASHED
 62
     4
100
AcDbCircle
 10
441.1146882071642
 20
324.2668953930381
 30
0.0
 40
5.000000000011413
  0
CIRCLE
  5
2E5
330
1F
100
AcDbEntity
  8
0
  6
Continuous
 62
     7
100
AcDbCircle
 10
418.1146882559615
 20
336.2668972997935
 30
0.0
 40
3.000000000006836
  0
LINE
  5
2E6
330
1F
100
AcDbEntity
  8
0
  6
DASHED
 62
     4
 48
4.0
100
AcDbLine
 10
430.6146882071247
 20
312.2668953929911
 30
0.0
 11
428.6146882071204
 21
314.2668953929957
 31
0.0
  0
ARC
  5
2E7
330
1F
100
AcDbEntity
  8
0
  6
Continuous
 62
     7
100
AcDbCircle
 10
418.1146882559623
 20
306.2668953923828
 30
0.0
 40
2.000000000004235
100
AcDbArc
 50
0.0
 51
180.0
  0
LINE
  5
2E8
330
1F
100
AcDbEntity
  8
0
  6
Continuous
 62
     7
100
AcDbLine
 10
421.1146882559686
 20
336.2668972997941
 30
0.0
 11
421.1146882559686
 21
336.2668972997941
 31
0.0
  0
LINE
  5
2E9
330
1F
100
AcDbEntity
  8
0
  6
Continuous
 62
     7
 48
6.0
100
AcDbLine
 10
420.1146901715326
 20
335.7668979967253
 30
0.0
 11
420.1146901715326
 21
335.7668979967253
 31
0.0
  0
LINE
  5
2EA
330
1F
100
AcDbEntity
  8
0
  6
Continuous
 62
     7
 48
6.0
100
AcDbLine
 10
418.6146901715171
 20
335.7668979967168
 30
0.0
 11
420.1146901715326
 21
335.7668979967253
 31
0.0
  0
LINE
  5
2EB
330
1F
100
AcDbEntity
  8
0
  6
Continuous
 62
     7
 48
6.0
100
AcDbLine
 10
418.6146901715253
 20
334.2668979967136
 30
0.0
 11
418.6146901715171
 21
335.7668979967168
 31
0.0
  0
LINE
  5
2EC
330
1F
100
AcDbEntity
  8
0
  6
Continuous
 62
     7
 48
6.0
100
AcDbLine
 10
417.6146901715352
 20
334.2668979967096
 30
0.0
 11
418.6146901715253
 21
334.2668979967136
 31
0.0
  0
LINE
  5
2ED
330
1F
100
AcDbEntity
  8
0
  6
Continuous
 62
     7
 48
6.0
100
AcDbLine
 10
417.6146901715291
 20
335.7668979967127
 30
0.0
 11
417.6146901715352
 21
334.2668979967096
 31
0.0
  0
LINE
  5
2EE
330
1F
100
AcDbEntity
  8
0
  6
Continuous
 62
     7
 48
6.0
100
AcDbLine
 10
416.1146901715238
 20
335.7668979967051
 30
0.0
 11
417.6146901715291
 21
335.7668979967127
 31
0.0
  0
LINE
  5
2EF
330
1F
100
AcDbEntity
  8
0
  6
Continuous
 62
     7
 48
6.0
100
AcDbLine
 10
416.1146901715078
 20
336.7668979967072
 30
0.0
 11
416.1146901715238
 21
335.7668979967051
 31
0.0
  0
LINE
  5
2F0
330
1F
100
AcDbEntity
  8
0
  6
Continuous
 62
     7
 48
6.0
100
AcDbLine
 10
417.6146901715233
 20
336.7668979967151
 30
0.0
 11
416.1146901715078
 21
336.7668979967072
 31
0.0
  0
LINE
  5
2F1
330
1F
100
AcDbEntity
  8
0
  6
Continuous
 62
     7
 48
6.0
100
AcDbLine
 10
417.6146901715151
 20
338.2668979967181
 30
0.0
 11
417.6146901715233
 21
336.7668979967151
 31
0.0
  0
LINE
  5
2F2
330
1F
100
AcDbEntity
  8
0
  6
Continuous
 62
     7
 48
6.0
100
AcDbLine
 10
418.6146901715053
 20
338.2668979967222
 30
0.0
 11
417.6146901715151
 21
338.2668979967181
 31
0.0
  0
LINE
  5
2F3
330
1F
100
AcDbEntity
  8
0
  6
Continuous
 62
     7
 48
6.0
100
AcDbLine
 10
418.6146901715253
 20
336.7668979967191
 30
0.0
 11
418.6146901715053
 21
338.2668979967222
 31
0.0
  0
LINE
  5
2F4
330
1F
100
AcDbEntity
  8
0
  6
Continuous
 62
     7
 48
6.0
100
AcDbLine
 10
420.1146901715285
 20
336.7668979967273
 30
0.0
 11
418.6146901715253
 21
336.7668979967191
 31
0.0
  0
LINE
  5
2F5
330
1F
100
AcDbEntity
  8
0
  6
Continuous
 62
     7
 48
6.0
100
AcDbLine
 10
420.1146901715326
 20
335.7668979967253
 30
0.0
 11
420.1146901715285
 21
336.7668979967273
 31
0.0
  0
LINE
  5
2F6
330
1F
100
AcDbEntity
  8
0
  6
DASHED
 62
     4
 48
4.0
100
AcDbLine
 10
446.1146882071756
 20
324.2668953930388
 30
0.0
 11
446.1146882071756
 21
324.2668953930388
 31
0.0
  0
LINE
  5
2F7
330
1F
100
AcDbEntity
  8
0
  6
DASHED
 62
     4
 48
4.0
100
AcDbLine
 10
453.6146882071734
 20
314.2668953929957
 30
0.0
 11
451.6146882071693
 21
312.2668953929911
 31
0.0
  0
LINE
  5
2F8
330
1F
100
AcDbEntity
  8
0
  6
DASHED
 62
     4
 48
4.0
100
AcDbLine
 10
430.6146882071247
 20
312.2668953929911
 30
0.0
 11
451.6146882071693
 21
312.2668953929911
 31
0.0
  0
CIRCLE
  5
2F9
330
1F
100
AcDbEntity
  8
0
  6
DASHED
 62
     4
100
AcDbCircle
 10
476.1146885591045
 20
317.2668957935294
 30
0.0
 40
4.235000000009688
  0
CIRCLE
  5
2FA
330
1F
100
AcDbEntity
  8
0
  6
DASHED
 62
     4
100
AcDbCircle
 10
476.1146885591045
 20
317.2668957935294
 30
0.0
 40
3.299998117134111
  0
CIRCLE
  5
2FB
330
1F
100
AcDbEntity
  8
0
  6
DASHED
 62
     4
100
AcDbCircle
 10
511.1146882071643
 20
324.2668953924695
 30
0.0
 40
5.0000000000115
  0
LINE
  5
2FC
330
1F
100
AcDbEntity
  8
0
  6
DASHED
 62
     4
 48
4.0
100
AcDbLine
 10
516.114688207176
 20
324.2668953924708
 30
0.0
 11
516.114688207176
 21
324.2668953924708
 31
0.0
  0
LINE
  5
2FD
330
1F
100
AcDbEntity
  8
0
  6
DASHED
 62
     4
 48
3.0
100
AcDbLine
 10
479.4146866762361
 20
317.2668997798353
 30
0.0
 11
479.4146866762361
 21
317.2668997798353
 31
0.0
  0
LINE
  5
2FE
330
1F
100
AcDbEntity
  8
0
  6
DASHED
 62
     4
 48
3.0
100
AcDbLine
 10
478.3146887833557
 20
316.7169005464586
 30
0.0
 11
478.3146887833557
 21
316.7169005464586
 31
0.0
  0
LINE
  5
2FF
330
1F
100
AcDbEntity
  8
0
  6
DASHED
 62
     4
 48
3.0
100
AcDbLine
 10
476.6646887833402
 20
316.7169005464508
 30
0.0
 11
478.3146887833557
 21
316.7169005464586
 31
0.0
  0
LINE
  5
300
330
1F
100
AcDbEntity
  8
0
  6
DASHED
 62
     4
 48
3.0
100
AcDbLine
 10
476.6646887833482
 20
315.0669005464471
 30
0.0
 11
476.6646887833402
 21
316.7169005464508
 31
0.0
  0
LINE
  5
301
330
1F
100
AcDbEntity
  8
0
  6
DASHED
 62
     4
 48
3.0
100
AcDbLine
 10
475.56468878336
 20
315.0669005464412
 30
0.0
 11
476.6646887833482
 21
315.0669005464471
 31
0.0
  0
LINE
  5
302
330
1F
100
AcDbEntity
  8
0
  6
DASHED
 62
     4
 48
3.0
100
AcDbLine
 10
475.5646887833519
 20
316.716900546445
 30
0.0
 11
475.56468878336
 21
315.0669005464412
 31
0.0
  0
LINE
  5
303
330
1F
100
AcDbEntity
  8
0
  6
DASHED
 62
     4
 48
3.0
100
AcDbLine
 10
473.9146887833463
 20
316.7169005464368
 30
0.0
 11
475.5646887833519
 21
316.716900546445
 31
0.0
  0
LINE
  5
304
330
1F
100
AcDbEntity
  8
0
  6
DASHED
 62
     4
 48
3.0
100
AcDbLine
 10
473.9146887833283
 20
317.8169005464391
 30
0.0
 11
473.9146887833463
 21
316.7169005464368
 31
0.0
  0
LINE
  5
305
330
1F
100
AcDbEntity
  8
0
  6
DASHED
 62
     4
 48
3.0
100
AcDbLine
 10
475.5646887833461
 20
317.8169005464468
 30
0.0
 11
473.9146887833283
 21
317.8169005464391
 31
0.0
  0
LINE
  5
306
330
1F
100
AcDbEntity
  8
0
  6
DASHED
 62
     4
 48
3.0
100
AcDbLine
 10
475.5646887833359
 20
319.4669005464508
 30
0.0
 11
475.5646887833461
 21
317.8169005464468
 31
0.0
  0
LINE
  5
307
330
1F
100
AcDbEntity
  8
0
  6
DASHED
 62
     4
 48
3.0
100
AcDbLine
 10
476.6646887833263
 20
319.4669005464566
 30
0.0
 11
475.5646887833359
 21
319.4669005464508
 31
0.0
  0
LINE
  5
308
330
1F
100
AcDbEntity
  8
0
  6
DASHED
 62
     4
 48
3.0
100
AcDbLine
 10
476.6646887833482
 20
317.8169005464528
 30
0.0
 11
476.6646887833263
 21
319.4669005464566
 31
0.0
  0
LINE
  5
309
330
1F
100
AcDbEntity
  8
0
  6
DASHED
 62
     4
 48
3.0
100
AcDbLine
 10
478.3146887833519
 20
317.8169005464611
 30
0.0
 11
476.6646887833482
 21
317.8169005464528
 31
0.0
  0
LINE
  5
30A
330
1F
100
AcDbEntity
  8
0
  6
DASHED
 62
     4
 48
3.0
100
AcDbLine
 10
478.3146887833557
 20
316.7169005464586
 30
0.0
 11
478.3146887833519
 21
317.8169005464611
 31
0.0
  0
LINE
  5
30B
330
1F
100
AcDbEntity
  8
0
  6
DASHED
 62
     4
 48
4.0
100
AcDbLine
 10
498.6146882071208
 20
314.2668953924276
 30
0.0
 11
498.6146882071208
 21
339.2668953927085
 31
0.0
  0
LINE
  5
30C
330
1F
100
AcDbEntity
  8
0
  6
DASHED
 62
     4
 48
4.0
100
AcDbLine
 10
498.6146882071208
 20
314.2668953924276
 30
0.0
 11
500.614688207125
 21
312.2668953924232
 31
0.0
  0
LINE
  5
30D
330
1F
100
AcDbEntity
  8
0
  6
DASHED
 62
     4
 48
4.0
100
AcDbLine
 10
521.6146882071694
 20
312.2668953924232
 30
0.0
 11
500.614688207125
 21
312.2668953924232
 31
0.0
  0
LINE
  5
30E
330
1F
100
AcDbEntity
  8
0
  6
DASHED
 62
     4
 48
4.0
100
AcDbLine
 10
521.6146882071694
 20
312.2668953924232
 30
0.0
 11
523.6146882071738
 21
314.2668953924276
 31
0.0
  0
LINE
  5
30F
330
1F
100
AcDbEntity
  8
0
  6
DASHED
 62
     4
 48
4.0
100
AcDbLine
 10
523.6146882071738
 20
339.2668953927085
 30
0.0
 11
523.6146882071738
 21
314.2668953924276
 31
0.0
  0
LINE
  5
310
330
1F
100
AcDbEntity
  8
0
  6
DASHED
 62
     4
 48
3.0
100
AcDbLine
 10
480.3496885591139
 20
317.2668957935298
 30
0.0
 11
480.3496885591139
 21
317.2668957935298
 31
0.0
  0
CIRCLE
  5
311
330
1F
100
AcDbEntity
  8
0
  6
Continuous
 62
     7
100
AcDbCircle
 10
534.1146882562071
 20
336.2668972997935
 30
0.0
 40
3.000000000006836
  0
LINE
  5
312
330
1F
100
AcDbEntity
  8
0
  6
Continuous
 62
     7
100
AcDbLine
 10
539.81468825622
 20
306.2668953923828
 30
0.0
 11
536.1146882562122
 21
306.2668953923828
 31
0.0
  0
ARC
  5
313
330
1F
100
AcDbEntity
  8
0
  6
Continuous
 62
     7
100
AcDbCircle
 10
534.1146882562082
 20
306.2668953923828
 30
0.0
 40
2.000000000004235
100
AcDbArc
 50
0.0
 51
180.0
  0
ARC
  5
314
330
1F
100
AcDbEntity
  8
0
  6
Continuous
 62
     7
100
AcDbCircle
 10
534.1146882562069
 20
331.2668953924351
 30
0.0
 40
4.000000000007229
100
AcDbArc
 50
126.8698812533838
 51
53.13011885528127
  0
LINE
  5
315
330
1F
100
AcDbEntity
  8
0
  6
Continuous
 62
     7
100
AcDbLine
 10
537.1146882562142
 20
336.2668972997941
 30
0.0
 11
537.1146882562142
 21
336.2668972997941
 31
0.0
  0
LINE
  5
316
330
1F
100
AcDbEntity
  8
0
  6
Continuous
 62
     7
 48
6.0
100
AcDbLine
 10
536.1146901717781
 20
335.7668979967253
 30
0.0
 11
536.1146901717781
 21
335.7668979967253
 31
0.0
  0
LINE
  5
317
330
1F
100
AcDbEntity
  8
0
  6
Continuous
 62
     7
 48
6.0
100
AcDbLine
 10
534.6146901717628
 20
335.7668979967168
 30
0.0
 11
536.1146901717781
 21
335.7668979967253
 31
0.0
  0
LINE
  5
318
330
1F
100
AcDbEntity
  8
0
  6
Continuous
 62
     7
 48
6.0
100
AcDbLine
 10
534.6146901717708
 20
334.2668979967136
 30
0.0
 11
534.6146901717628
 21
335.7668979967168
 31
0.0
  0
LINE
  5
319
330
1F
100
AcDbEntity
  8
0
  6
Continuous
 62
     7
 48
6.0
100
AcDbLine
 10
533.614690171781
 20
334.2668979967096
 30
0.0
 11
534.6146901717708
 21
334.2668979967136
 31
0.0
  0
LINE
  5
31A
330
1F
100
AcDbEntity
  8
0
  6
Continuous
 62
     7
 48
6.0
100
AcDbLine
 10
533.6146901717746
 20
335.7668979967127
 30
0.0
 11
533.614690171781
 21
334.2668979967096
 31
0.0
  0
LINE
  5
31B
330
1F
100
AcDbEntity
  8
0
  6
Continuous
 62
     7
 48
6.0
100
AcDbLine
 10
532.1146901717696
 20
335.7668979967051
 30
0.0
 11
533.6146901717746
 21
335.7668979967127
 31
0.0
  0
LINE
  5
31C
330
1F
100
AcDbEntity
  8
0
  6
Continuous
 62
     7
 48
6.0
100
AcDbLine
 10
532.1146901717536
 20
336.7668979967072
 30
0.0
 11
532.1146901717696
 21
335.7668979967051
 31
0.0
  0
LINE
  5
31D
330
1F
100
AcDbEntity
  8
0
  6
Continuous
 62
     7
 48
6.0
100
AcDbLine
 10
533.6146901717689
 20
336.7668979967151
 30
0.0
 11
532.1146901717536
 21
336.7668979967072
 31
0.0
  0
LINE
  5
31E
330
1F
100
AcDbEntity
  8
0
  6
Continuous
 62
     7
 48
6.0
100
AcDbLine
 10
533.6146901717604
 20
338.2668979967181
 30
0.0
 11
533.6146901717689
 21
336.7668979967151
 31
0.0
  0
LINE
  5
31F
330
1F
100
AcDbEntity
  8
0
  6
Continuous
 62
     7
 48
6.0
100
AcDbLine
 10
534.6146901717514
 20
338.2668979967222
 30
0.0
 11
533.6146901717604
 21
338.2668979967181
 31
0.0
  0
LINE
  5
320
330
1F
100
AcDbEntity
  8
0
  6
Continuous
 62
     7
 48
6.0
100
AcDbLine
 10
534.6146901717708
 20
336.7668979967191
 30
0.0
 11
534.6146901717514
 21
338.2668979967222
 31
0.0
  0
LINE
  5
321
330
1F
100
AcDbEntity
  8
0
  6
Continuous
 62
     7
 48
6.0
100
AcDbLine
 10
536.1146901717741
 20
336.7668979967273
 30
0.0
 11
534.6146901717708
 21
336.7668979967191
 31
0.0
  0
LINE
  5
322
330
1F
100
AcDbEntity
  8
0
  6
Continuous
 62
     7
 48
6.0
100
AcDbLine
 10
536.1146901717781
 20
335.7668979967253
 30
0.0
 11
536.1146901717741
 21
336.7668979967273
 31
0.0
  0
ARC
  5
323
330
1F
100
AcDbEntity
  8
0
  6
Continuous
 62
     7
100
AcDbCircle
 10
540.2146882562203
 20
328.6668986349218
 30
0.0
 40
1.600000000003695
100
AcDbArc
 50
0.0000000000130276
 51
89.99999999999024
  0
LINE
  5
324
330
1F
100
AcDbEntity
  8
0
  6
Continuous
 62
     7
100
AcDbLine
 10
540.2146882562208
 20
330.2668986349256
 30
0.0
 11
539.81468825622
 21
330.2668986349256
 31
0.0
  0
LINE
  5
325
330
1F
100
AcDbEntity
  8
0
  6
Continuous
 62
     7
100
AcDbLine
 10
540.2146882562208
 20
324.2668986349126
 30
0.0
 11
539.81468825622
 21
324.2668986349126
 31
0.0
  0
ARC
  5
326
330
1F
100
AcDbEntity
  8
0
  6
Continuous
 62
     7
100
AcDbCircle
 10
540.2146882562201
 20
325.8668986349163
 30
0.0
 40
1.600000000003865
100
AcDbArc
 50
270.0000000000162
 51
359.9999999999967
  0
LINE
  5
327
330
1F
100
AcDbEntity
  8
0
  6
Continuous
 62
     7
100
AcDbLine
 10
541.8146882562242
 20
328.6668986349221
 30
0.0
 11
541.8146882562242
 21
325.8668986349163
 31
0.0
  0
LINE
  5
328
330
1F
100
AcDbEntity
  8
0
  6
DASHED
 62
     4
 48
4.0
100
AcDbLine
 10
739.6146883026315
 20
344.3996144323796
 30
0.0
 11
739.6146883026315
 21
312.2668953926713
 31
0.0
  0
LINE
  5
329
330
1F
100
AcDbEntity
  8
0
  6
DASHED
 62
     4
 48
4.0
100
AcDbLine
 10
743.6146883029578
 20
312.2668953926713
 30
0.0
 11
743.6146883029578
 21
344.3996144323796
 31
0.0
  0
ARC
  5
32A
330
1F
100
AcDbEntity
  8
0
  6
Continuous
 62
     7
100
AcDbCircle
 10
669.4146882564949
 20
337.2668953924473
 30
0.0
 40
2.000000000004575
100
AcDbArc
 50
90.00000000000651
 51
179.9999999999899
  0
ARC
  5
32B
330
1F
100
AcDbEntity
  8
0
  6
Continuous
 62
     7
100
AcDbCircle
 10
669.4146882564949
 20
335.2668953924443
 30
0.0
 40
2.000000000004631
100
AcDbArc
 50
180.0000000000094
 51
269.9999999999934
  0
LINE
  5
32C
330
1F
100
AcDbEntity
  8
0
  6
Continuous
 62
     7
100
AcDbLine
 10
667.4146882564902
 20
337.2668953924482
 30
0.0
 11
667.4146882564902
 21
335.2668953924438
 31
0.0
  0
LINE
  5
32D
330
1F
100
AcDbEntity
  8
0
  6
Continuous
 62
     7
100
AcDbLine
 10
669.9146882564955
 20
333.2668953924396
 30
0.0
 11
669.4146882564949
 21
333.2668953924396
 31
0.0
  0
LINE
  5
32E
330
1F
100
AcDbEntity
  8
0
  6
Continuous
 62
     7
100
AcDbLine
 10
669.9146882564955
 20
339.2668953924523
 30
0.0
 11
669.4146882564949
 21
339.2668953924523
 31
0.0
  0
LINE
  5
32F
330
1F
100
AcDbEntity
  8
0
  6
DASHED
 62
     4
 48
4.0
100
AcDbLine
 10
739.6146883026315
 20
312.2668953926713
 30
0.0
 11
743.6146883029578
 21
312.2668953926713
 31
0.0
  0
ARC
  5
330
330
1F
100
AcDbEntity
  8
0
  6
Continuous
 62
     7
100
AcDbCircle
 10
692.8146882565441
 20
421.2668953926261
 30
0.0
 40
6.000000000012706
100
AcDbArc
 50
90.0
 51
270.0
  0
LINE
  5
331
330
1F
100
AcDbEntity
  8
0
  6
Continuous
 62
     7
100
AcDbLine
 10
702.9146882565656
 20
417.2668953926176
 30
0.0
 11
702.9146882565656
 21
415.2668953926136
 31
0.0
  0
LINE
  5
332
330
1F
100
AcDbEntity
  8
0
  6
Continuous
 62
     7
100
AcDbLine
 10
702.9146882565656
 20
427.2668953926388
 30
0.0
 11
702.9146882565656
 21
425.2668953926344
 31
0.0
  0
LINE
  5
333
330
1F
100
AcDbEntity
  8
0
  6
Continuous
 62
     7
100
AcDbLine
 10
701.7146882565632
 20
417.2668953926176
 30
0.0
 11
701.7146882565632
 21
425.2668953926344
 31
0.0
  0
LINE
  5
334
330
1F
100
AcDbEntity
  8
0
  6
Continuous
 62
     7
100
AcDbLine
 10
702.9146882565656
 20
425.2668953926344
 30
0.0
 11
701.7146882565632
 21
425.2668953926344
 31
0.0
  0
LINE
  5
335
330
1F
100
AcDbEntity
  8
0
  6
Continuous
 62
     7
100
AcDbLine
 10
702.9146882565656
 20
417.2668953926176
 30
0.0
 11
701.7146882565632
 21
417.2668953926176
 31
0.0
  0
LINE
  5
336
330
1F
100
AcDbEntity
  8
0
  6
Continuous
 62
     7
100
AcDbLine
 10
702.9146882565656
 20
415.2668953926136
 30
0.0
 11
692.8146882565441
 21
415.2668953926136
 31
0.0
  0
LINE
  5
337
330
1F
100
AcDbEntity
  8
0
  6
Continuous
 62
     7
100
AcDbLine
 10
702.9146882565656
 20
427.2668953926388
 30
0.0
 11
692.8146882565441
 21
427.2668953926388
 31
0.0
  0
LINE
  5
338
330
1F
100
AcDbEntity
  8
0
  6
Continuous
 62
     7
100
AcDbLine
 10
421.6146882559698
 20
606.2668953930181
 30
0.0
 11
530.6146882562006
 21
606.2668953930181
 31
0.0
  0
LINE
  5
339
330
1F
100
AcDbEntity
  8
0
  6
Continuous
 62
     7
100
AcDbLine
 10
539.81468825622
 20
576.2668953929544
 30
0.0
 11
412.4146882559504
 21
576.2668953929544
 31
0.0
  0
CIRCLE
  5
33A
330
1F
100
AcDbEntity
  8
0
  6
DASHED
 62
     4
100
AcDbCircle
 10
439.5896910870281
 20
567.4917553275474
 30
0.0
 40
2.750000000005254
  0
CIRCLE
  5
33B
330
1F
100
AcDbEntity
  8
0
  6
DASHED
 62
     4
100
AcDbCircle
 10
447.2096910870876
 20
567.4917553275862
 30
0.0
 40
2.750000000006279
  0
CIRCLE
  5
33C
330
1F
100
AcDbEntity
  8
0
  6
DASHED
 62
     4
100
AcDbCircle
 10
454.8296910871043
 20
567.4917553276254
 30
0.0
 40
2.750000000005254
  0
CIRCLE
  5
33D
330
1F
100
AcDbEntity
  8
0
  6
DASHED
 62
     4
100
AcDbCircle
 10
462.4496910871648
 20
567.4917553276652
 30
0.0
 40
2.750000000005483
  0
CIRCLE
  5
33E
330
1F
100
AcDbEntity
  8
0
  6
DASHED
 62
     4
100
AcDbCircle
 10
470.069691087136
 20
567.4917553277034
 30
0.0
 40
2.750000000006279
  0
CIRCLE
  5
33F
330
1F
100
AcDbEntity
  8
0
  6
DASHED
 62
     4
100
AcDbCircle
 10
477.6896910871973
 20
567.4917553277432
 30
0.0
 40
2.750000000005136
  0
CIRCLE
  5
340
330
1F
100
AcDbEntity
  8
0
  6
DASHED
 62
     4
100
AcDbCircle
 10
485.3096910871679
 20
567.4917553277817
 30
0.0
 40
2.750000000006161
  0
CIRCLE
  5
341
330
1F
100
AcDbEntity
  8
0
  6
DASHED
 62
     4
100
AcDbCircle
 10
492.9296910872293
 20
567.4917553278211
 30
0.0
 40
2.750000000005366
  0
CIRCLE
  5
342
330
1F
100
AcDbEntity
  8
0
  6
DASHED
 62
     4
100
AcDbCircle
 10
500.5496910872008
 20
567.4917553278612
 30
0.0
 40
2.750000000005136
  0
CIRCLE
  5
343
330
1F
100
AcDbEntity
  8
0
  6
DASHED
 62
     4
100
AcDbCircle
 10
508.1696910872159
 20
567.4917553279006
 30
0.0
 40
2.750000000006279
  0
CIRCLE
  5
344
330
1F
100
AcDbEntity
  8
0
  6
DASHED
 62
     4
100
AcDbCircle
 10
515.7896910872336
 20
567.4917553279393
 30
0.0
 40
2.750000000005254
  0
LINE
  5
345
330
1F
100
AcDbEntity
  8
0
  6
DASHED
 62
     4
 48
6.0
100
AcDbLine
 10
431.9696910870076
 20
572.4917553275186
 30
0.0
 11
431.9696910870018
 21
553.4917553279627
 31
0.0
  0
LINE
  5
346
330
1F
100
AcDbEntity
  8
0
  6
DASHED
 62
     4
 48
6.0
100
AcDbLine
 10
520.2596910874027
 20
553.4917553279325
 30
0.0
 11
520.2596910874087
 21
572.4917553274888
 31
0.0
  0
LINE
  5
347
330
1F
100
AcDbEntity
  8
0
  6
DASHED
 62
     4
 48
6.0
100
AcDbLine
 10
516.2896910872582
 20
565.4917553279378
 30
0.0
 11
516.2896910872501
 21
566.9917553279402
 31
0.0
  0
LINE
  5
348
330
1F
100
AcDbEntity
  8
0
  6
DASHED
 62
     4
 48
6.0
100
AcDbLine
 10
515.2896910872601
 20
566.9917553279349
 30
0.0
 11
515.289691087266
 21
565.4917553279317
 31
0.0
  0
LINE
  5
349
330
1F
100
AcDbEntity
  8
0
  6
DASHED
 62
     4
 48
6.0
100
AcDbLine
 10
518.939691087298
 20
563.4917553279474
 30
0.0
 11
518.9396910872398
 21
572.4917553279665
 31
0.0
  0
LINE
  5
34A
330
1F
100
AcDbEntity
  8
0
  6
DASHED
 62
     4
 48
6.0
100
AcDbLine
 10
508.669691087242
 20
565.4917553278977
 30
0.0
 11
508.669691087234
 21
566.9917553279008
 31
0.0
  0
LINE
  5
34B
330
1F
100
AcDbEntity
  8
0
  6
DASHED
 62
     4
 48
6.0
100
AcDbLine
 10
507.669691087244
 20
566.9917553278967
 30
0.0
 11
507.6696910872499
 21
565.4917553278935
 31
0.0
  0
LINE
  5
34C
330
1F
100
AcDbEntity
  8
0
  6
DASHED
 62
     4
 48
6.0
100
AcDbLine
 10
501.0496910872259
 20
565.4917553278599
 30
0.0
 11
501.0496910872178
 21
566.9917553278631
 31
0.0
  0
LINE
  5
34D
330
1F
100
AcDbEntity
  8
0
  6
DASHED
 62
     4
 48
6.0
100
AcDbLine
 10
500.0496910872278
 20
566.9917553278565
 30
0.0
 11
500.0496910872336
 21
565.4917553278536
 31
0.0
  0
LINE
  5
34E
330
1F
100
AcDbEntity
  8
0
  6
DASHED
 62
     4
 48
6.0
100
AcDbLine
 10
493.4296910872516
 20
565.4917553278195
 30
0.0
 11
493.4296910872458
 21
566.9917553278227
 31
0.0
  0
LINE
  5
34F
330
1F
100
AcDbEntity
  8
0
  6
DASHED
 62
     4
 48
6.0
100
AcDbLine
 10
492.4296910872556
 20
566.9917553278187
 30
0.0
 11
492.4296910872612
 21
565.4917553278156
 31
0.0
  0
LINE
  5
350
330
1F
100
AcDbEntity
  8
0
  6
DASHED
 62
     4
 48
6.0
100
AcDbLine
 10
485.8096910871935
 20
565.4917553277813
 30
0.0
 11
485.8096910871855
 21
566.9917553277842
 31
0.0
  0
LINE
  5
351
330
1F
100
AcDbEntity
  8
0
  6
DASHED
 62
     4
 48
6.0
100
AcDbLine
 10
484.8096910871955
 20
566.9917553277788
 30
0.0
 11
484.8096910872015
 21
565.4917553277758
 31
0.0
  0
LINE
  5
352
330
1F
100
AcDbEntity
  8
0
  6
DASHED
 62
     4
 48
6.0
100
AcDbLine
 10
478.1896910872198
 20
565.4917553277412
 30
0.0
 11
478.1896910872135
 21
566.9917553277447
 31
0.0
  0
LINE
  5
353
330
1F
100
AcDbEntity
  8
0
  6
DASHED
 62
     4
 48
6.0
100
AcDbLine
 10
477.1896910872233
 20
566.9917553277383
 30
0.0
 11
477.1896910872293
 21
565.4917553277355
 31
0.0
  0
LINE
  5
354
330
1F
100
AcDbEntity
  8
0
  6
DASHED
 62
     4
 48
6.0
100
AcDbLine
 10
470.5696910871613
 20
565.4917553277035
 30
0.0
 11
470.5696910871534
 21
566.9917553277067
 31
0.0
  0
LINE
  5
355
330
1F
100
AcDbEntity
  8
0
  6
DASHED
 62
     4
 48
6.0
100
AcDbLine
 10
469.5696910871633
 20
566.9917553277005
 30
0.0
 11
469.5696910871693
 21
565.4917553276979
 31
0.0
  0
LINE
  5
356
330
1F
100
AcDbEntity
  8
0
  6
DASHED
 62
     4
 48
6.0
100
AcDbLine
 10
462.9496910871877
 20
565.491755327663
 30
0.0
 11
462.9496910871812
 21
566.9917553276669
 31
0.0
  0
LINE
  5
357
330
1F
100
AcDbEntity
  8
0
  6
DASHED
 62
     4
 48
6.0
100
AcDbLine
 10
461.9496910871911
 20
566.9917553276603
 30
0.0
 11
461.949691087197
 21
565.4917553276572
 31
0.0
  0
LINE
  5
358
330
1F
100
AcDbEntity
  8
0
  6
DASHED
 62
     4
 48
6.0
100
AcDbLine
 10
455.3296910871295
 20
565.4917553276232
 30
0.0
 11
455.329691087121
 21
566.991755327627
 31
0.0
  0
LINE
  5
359
330
1F
100
AcDbEntity
  8
0
  6
DASHED
 62
     4
 48
6.0
100
AcDbLine
 10
454.3296910871313
 20
566.9917553276226
 30
0.0
 11
454.3296910871372
 21
565.49175532762
 31
0.0
  0
LINE
  5
35A
330
1F
100
AcDbEntity
  8
0
  6
DASHED
 62
     4
 48
6.0
100
AcDbLine
 10
447.7096910871129
 20
565.4917553275851
 30
0.0
 11
447.7096910871049
 21
566.991755327589
 31
0.0
  0
LINE
  5
35B
330
1F
100
AcDbEntity
  8
0
  6
DASHED
 62
     4
 48
6.0
100
AcDbLine
 10
446.7096910871148
 20
566.9917553275828
 30
0.0
 11
446.7096910871208
 21
565.4917553275797
 31
0.0
  0
LINE
  5
35C
330
1F
100
AcDbEntity
  8
0
  6
DASHED
 62
     4
 48
6.0
100
AcDbLine
 10
440.0896910870527
 20
565.4917553275459
 30
0.0
 11
440.0896910870449
 21
566.9917553275491
 31
0.0
  0
LINE
  5
35D
330
1F
100
AcDbEntity
  8
0
  6
DASHED
 62
     4
 48
6.0
100
AcDbLine
 10
439.0896910870544
 20
566.9917553275427
 30
0.0
 11
439.0896910870625
 21
565.4917553275395
 31
0.0
  0
LINE
  5
35E
330
1F
100
AcDbEntity
  8
0
  6
DASHED
 62
     4
 48
6.0
100
AcDbLine
 10
518.9396910872138
 20
572.4917553279665
 30
0.0
 11
518.9396910872597
 21
563.4917553279474
 31
0.0
  0
LINE
  5
35F
330
1F
100
AcDbEntity
  8
0
  6
DASHED
 62
     4
 48
6.0
100
AcDbLine
 10
512.6396910872844
 20
563.4917553279151
 30
0.0
 11
512.6396910872265
 21
572.4917553279342
 31
0.0
  0
LINE
  5
360
330
1F
100
AcDbEntity
  8
0
  6
DASHED
 62
     4
 48
6.0
100
AcDbLine
 10
511.3196910871976
 20
572.4917553279262
 30
0.0
 11
511.3196910872436
 21
563.4917553279072
 31
0.0
  0
LINE
  5
361
330
1F
100
AcDbEntity
  8
0
  6
DASHED
 62
     4
 48
6.0
100
AcDbLine
 10
505.0196910872306
 20
563.4917553278755
 30
0.0
 11
505.0196910872103
 21
572.4917553278943
 31
0.0
  0
LINE
  5
362
330
1F
100
AcDbEntity
  8
0
  6
DASHED
 62
     4
 48
6.0
100
AcDbLine
 10
503.6996910871813
 20
572.4917553278877
 30
0.0
 11
503.6996910872273
 21
563.4917553278693
 31
0.0
  0
LINE
  5
363
330
1F
100
AcDbEntity
  8
0
  6
DASHED
 62
     4
 48
6.0
100
AcDbLine
 10
497.3996910872521
 20
563.4917553278353
 30
0.0
 11
497.3996910872059
 21
571.9059688902275
 31
0.0
  0
LINE
  5
364
330
1F
100
AcDbEntity
  8
0
  6
DASHED
 62
     4
 48
6.0
100
AcDbLine
 10
496.0796910871914
 20
572.4917553278483
 30
0.0
 11
496.0796910872113
 21
563.4917553278293
 31
0.0
  0
LINE
  5
365
330
1F
100
AcDbEntity
  8
0
  6
DASHED
 62
     4
 48
6.0
100
AcDbLine
 10
489.779691087198
 20
563.4917553277975
 30
0.0
 11
489.779691087152
 21
572.4917553278165
 31
0.0
  0
LINE
  5
366
330
1F
100
AcDbEntity
  8
0
  6
DASHED
 62
     4
 48
6.0
100
AcDbLine
 10
488.4596910871754
 20
572.4917553278084
 30
0.0
 11
488.4596910872331
 21
563.4917553277897
 31
0.0
  0
LINE
  5
367
330
1F
100
AcDbEntity
  8
0
  6
DASHED
 62
     4
 48
6.0
100
AcDbLine
 10
482.159691087182
 20
563.4917553277573
 30
0.0
 11
482.1596910871618
 21
572.4917553277764
 31
0.0
  0
LINE
  5
368
330
1F
100
AcDbEntity
  8
0
  6
DASHED
 62
     4
 48
6.0
100
AcDbLine
 10
480.8396910871591
 20
572.4917553277702
 30
0.0
 11
480.8396910872173
 21
563.4917553277512
 31
0.0
  0
LINE
  5
369
330
1F
100
AcDbEntity
  8
0
  6
DASHED
 62
     4
 48
6.0
100
AcDbLine
 10
474.5396910872038
 20
563.4917553277196
 30
0.0
 11
474.5396910871199
 21
572.4917553277385
 31
0.0
  0
LINE
  5
36A
330
1F
100
AcDbEntity
  8
0
  6
DASHED
 62
     4
 48
6.0
100
AcDbLine
 10
473.2196910871167
 20
572.4917553277307
 30
0.0
 11
473.2196910871631
 21
563.4917553277116
 31
0.0
  0
LINE
  5
36B
330
1F
100
AcDbEntity
  8
0
  6
DASHED
 62
     4
 48
6.0
100
AcDbLine
 10
466.9196910871496
 20
563.4917553276792
 30
0.0
 11
466.9196910871036
 21
572.4917553276983
 31
0.0
  0
LINE
  5
36C
330
1F
100
AcDbEntity
  8
0
  6
DASHED
 62
     4
 48
6.0
100
AcDbLine
 10
465.5996910871269
 20
572.4917553276927
 30
0.0
 11
465.5996910871849
 21
563.4917553276737
 31
0.0
  0
LINE
  5
36D
330
1F
100
AcDbEntity
  8
0
  6
DASHED
 62
     4
 48
6.0
100
AcDbLine
 10
459.2996910871717
 20
563.4917553276392
 30
0.0
 11
459.2996910871135
 21
572.4917553276586
 31
0.0
  0
LINE
  5
36E
330
1F
100
AcDbEntity
  8
0
  6
DASHED
 62
     4
 48
6.0
100
AcDbLine
 10
457.9796910870846
 20
572.4917553276527
 30
0.0
 11
457.9796910871308
 21
563.4917553276335
 31
0.0
  0
LINE
  5
36F
330
1F
100
AcDbEntity
  8
0
  6
DASHED
 62
     4
 48
6.0
100
AcDbLine
 10
451.6796910871554
 20
563.4917553276014
 30
0.0
 11
451.6796910870971
 21
572.4917553276208
 31
0.0
  0
LINE
  5
370
330
1F
100
AcDbEntity
  8
0
  6
DASHED
 62
     4
 48
6.0
100
AcDbLine
 10
450.3596910870689
 20
572.4917553276124
 30
0.0
 11
450.3596910871147
 21
563.4917553275935
 31
0.0
  0
LINE
  5
371
330
1F
100
AcDbEntity
  8
0
  6
DASHED
 62
     4
 48
6.0
100
AcDbLine
 10
444.0596910871391
 20
563.4917553275611
 30
0.0
 11
444.0596910870811
 21
572.4917553275806
 31
0.0
  0
LINE
  5
372
330
1F
100
AcDbEntity
  8
0
  6
DASHED
 62
     4
 48
6.0
100
AcDbLine
 10
442.7396910870522
 20
572.4917553275742
 30
0.0
 11
442.7396910870986
 21
563.4917553275554
 31
0.0
  0
LINE
  5
373
330
1F
100
AcDbEntity
  8
0
  6
DASHED
 62
     4
 48
6.0
100
AcDbLine
 10
436.4396910871231
 20
563.4917553275236
 30
0.0
 11
436.4396910870649
 21
572.4917553275425
 31
0.0
  0
LINE
  5
374
330
1F
100
AcDbEntity
  8
0
  6
DASHED
 62
     4
 48
6.0
100
AcDbLine
 10
435.1196910870623
 20
572.4917553275337
 30
0.0
 11
435.1196910871204
 21
563.4917553275147
 31
0.0
  0
LINE
  5
375
330
1F
100
AcDbEntity
  8
0
  6
DASHED
 62
     4
 48
6.0
100
AcDbLine
 10
434.0214866055418
 20
571.4950051047638
 30
0.0
 11
434.0214866056158
 21
564.4786480250536
 31
0.0
  0
ARC
  5
376
330
1F
100
AcDbEntity
  8
0
  6
Continuous
 62
     7
100
AcDbCircle
 10
418.1146882559623
 20
567.2668953929347
 30
0.0
 40
4.000000000008598
100
AcDbArc
 50
299.9999999999997
 51
240.0000000000002
  0
LINE
  5
377
330
1F
100
AcDbEntity
  8
0
  6
Continuous
 62
     7
100
AcDbLine
 10
412.4146882559504
 20
530.2668986353485
 30
0.0
 11
412.0146882559494
 21
530.2668986353485
 31
0.0
  0
LINE
  5
378
330
1F
100
AcDbEntity
  8
0
  6
Continuous
 62
     7
100
AcDbLine
 10
412.4146882559504
 20
524.2668986353366
 30
0.0
 11
412.0146882559494
 21
524.2668986353366
 31
0.0
  0
ARC
  5
379
330
1F
100
AcDbEntity
  8
0
  6
Continuous
 62
     7
100
AcDbCircle
 10
412.0146882559494
 20
528.6668986353451
 30
0.0
 40
1.600000000003639
100
AcDbArc
 50
90.00000000000978
 51
179.9999999999899
  0
ARC
  5
37A
330
1F
100
AcDbEntity
  8
0
  6
Continuous
 62
     7
100
AcDbCircle
 10
412.0146882559494
 20
525.8668986353402
 30
0.0
 40
1.600000000003639
100
AcDbArc
 50
180.0000000000062
 51
269.9999999999902
  0
LINE
  5
37B
330
1F
100
AcDbEntity
  8
0
  6
Continuous
 62
     7
100
AcDbLine
 10
410.4146882559461
 20
525.8668986353397
 30
0.0
 11
410.4146882559461
 21
528.6668986353451
 31
0.0
  0
CIRCLE
  5
37C
330
1F
100
AcDbEntity
  8
0
  6
Continuous
 62
     7
100
AcDbCircle
 10
453.1146882560362
 20
523.2668953928416
 30
0.0
 40
3.000000000006861
  0
CIRCLE
  5
37D
330
1F
100
AcDbEntity
  8
0
  6
Continuous
 62
     7
100
AcDbCircle
 10
445.1146882560188
 20
523.2668953928416
 30
0.0
 40
3.000000000006836
  0
CIRCLE
  5
37E
330
1F
100
AcDbEntity
  8
0
  6
Continuous
 62
     7
100
AcDbCircle
 10
437.1146882560021
 20
523.2668953928416
 30
0.0
 40
3.000000000006836
  0
CIRCLE
  5
37F
330
1F
100
AcDbEntity
  8
0
  6
Continuous
 62
     7
100
AcDbCircle
 10
429.1146882559853
 20
523.2668953928421
 30
0.0
 40
3.000000000006801
  0
LINE
  5
380
330
1F
100
AcDbEntity
  8
0
  6
Continuous
 62
     7
100
AcDbLine
 10
416.1146882559582
 20
539.0308274153754
 30
0.0
 11
416.1146882559582
 21
505.266895392804
 31
0.0
  0
LINE
  5
381
330
1F
100
AcDbEntity
  8
0
  6
Continuous
 62
     7
100
AcDbLine
 10
420.1146882559666
 20
539.0308274153754
 30
0.0
 11
420.1146882559666
 21
505.266895392804
 31
0.0
  0
ARC
  5
382
330
1F
100
AcDbEntity
  8
0
  6
Continuous
 62
     7
100
AcDbCircle
 10
418.1146882559623
 20
505.266895392804
 30
0.0
 40
2.000000000004258
100
AcDbArc
 50
180.0
 51
0.0
  0
LINE
  5
383
330
1F
100
AcDbEntity
  8
0
  6
DASHED
 62
     4
 48
6.0
100
AcDbLine
 10
431.9696910870018
 20
553.4917553279627
 30
0.0
 11
520.2596910874027
 21
553.4917553279325
 31
0.0
  0
LINE
  5
384
330
1F
100
AcDbEntity
  8
0
  6
DASHED
 62
     4
 48
6.0
100
AcDbLine
 10
431.9696910870971
 20
563.4917553274996
 30
0.0
 11
520.2596910873007
 21
563.4917553279532
 31
0.0
  0
LINE
  5
385
330
1F
100
AcDbEntity
  8
0
  6
DASHED
 62
     4
 48
6.0
100
AcDbLine
 10
469.5696910871693
 20
565.4917553276979
 30
0.0
 11
470.5696910871613
 21
565.4917553277035
 31
0.0
  0
CIRCLE
  5
386
330
1F
100
AcDbEntity
  8
0
  6
DASHED
 62
     4
100
AcDbCircle
 10
466.2596910871738
 20
558.4917553276653
 30
0.0
 40
2.750000000006279
  0
CIRCLE
  5
387
330
1F
100
AcDbEntity
  8
0
  6
DASHED
 62
     4
100
AcDbCircle
 10
458.6396910872091
 20
558.4917553276263
 30
0.0
 40
2.750000000005136
  0
CIRCLE
  5
388
330
1F
100
AcDbEntity
  8
0
  6
DASHED
 62
     4
100
AcDbCircle
 10
451.0196910871417
 20
558.4917553275873
 30
0.0
 40
2.750000000006279
  0
CIRCLE
  5
389
330
1F
100
AcDbEntity
  8
0
  6
DASHED
 62
     4
100
AcDbCircle
 10
443.3996910871325
 20
558.4917553275484
 30
0.0
 40
2.750000000005136
  0
CIRCLE
  5
38A
330
1F
100
AcDbEntity
  8
0
  6
DASHED
 62
     4
100
AcDbCircle
 10
435.7796910870651
 20
558.4917553275094
 30
0.0
 40
2.750000000006279
  0
CIRCLE
  5
38B
330
1F
100
AcDbEntity
  8
0
  6
Continuous
 62
     7
100
AcDbCircle
 10
418.1146882559615
 20
541.2668953928796
 30
0.0
 40
3.000000000006836
  0
LINE
  5
38C
330
1F
100
AcDbEntity
  8
0
  6
Continuous
 62
     7
 48
6.0
100
AcDbLine
 10
420.1146901715326
 20
540.7668960898108
 30
0.0
 11
420.1146901715326
 21
540.7668960898108
 31
0.0
  0
LINE
  5
38D
330
1F
100
AcDbEntity
  8
0
  6
Continuous
 62
     7
 48
6.0
100
AcDbLine
 10
418.6146901715171
 20
540.7668960898035
 30
0.0
 11
420.1146901715326
 21
540.7668960898108
 31
0.0
  0
LINE
  5
38E
330
1F
100
AcDbEntity
  8
0
  6
Continuous
 62
     7
 48
6.0
100
AcDbLine
 10
418.6146901715253
 20
539.2668960898003
 30
0.0
 11
418.6146901715171
 21
540.7668960898035
 31
0.0
  0
LINE
  5
38F
330
1F
100
AcDbEntity
  8
0
  6
Continuous
 62
     7
 48
6.0
100
AcDbLine
 10
417.6146901715352
 20
539.2668960897943
 30
0.0
 11
418.6146901715253
 21
539.2668960898003
 31
0.0
  0
LINE
  5
390
330
1F
100
AcDbEntity
  8
0
  6
Continuous
 62
     7
 48
6.0
100
AcDbLine
 10
417.6146901715291
 20
540.7668960897971
 30
0.0
 11
417.6146901715352
 21
539.2668960897943
 31
0.0
  0
LINE
  5
391
330
1F
100
AcDbEntity
  8
0
  6
Continuous
 62
     7
 48
6.0
100
AcDbLine
 10
416.1146901715238
 20
540.7668960897896
 30
0.0
 11
417.6146901715291
 21
540.7668960897971
 31
0.0
  0
LINE
  5
392
330
1F
100
AcDbEntity
  8
0
  6
Continuous
 62
     7
 48
6.0
100
AcDbLine
 10
416.1146901715078
 20
541.7668960897916
 30
0.0
 11
416.1146901715238
 21
540.7668960897896
 31
0.0
  0
LINE
  5
393
330
1F
100
AcDbEntity
  8
0
  6
Continuous
 62
     7
 48
6.0
100
AcDbLine
 10
417.6146901715233
 20
541.7668960897993
 30
0.0
 11
416.1146901715078
 21
541.7668960897916
 31
0.0
  0
LINE
  5
394
330
1F
100
AcDbEntity
  8
0
  6
Continuous
 62
     7
 48
6.0
100
AcDbLine
 10
417.6146901715151
 20
543.2668960898023
 30
0.0
 11
417.6146901715233
 21
541.7668960897993
 31
0.0
  0
LINE
  5
395
330
1F
100
AcDbEntity
  8
0
  6
Continuous
 62
     7
 48
6.0
100
AcDbLine
 10
418.6146901715053
 20
543.2668960898088
 30
0.0
 11
417.6146901715151
 21
543.2668960898023
 31
0.0
  0
LINE
  5
396
330
1F
100
AcDbEntity
  8
0
  6
Continuous
 62
     7
 48
6.0
100
AcDbLine
 10
418.6146901715253
 20
541.7668960898056
 30
0.0
 11
418.6146901715053
 21
543.2668960898088
 31
0.0
  0
LINE
  5
397
330
1F
100
AcDbEntity
  8
0
  6
Continuous
 62
     7
 48
6.0
100
AcDbLine
 10
420.1146901715285
 20
541.766896089813
 30
0.0
 11
418.6146901715253
 21
541.7668960898056
 31
0.0
  0
LINE
  5
398
330
1F
100
AcDbEntity
  8
0
  6
Continuous
 62
     7
 48
6.0
100
AcDbLine
 10
420.1146901715326
 20
540.7668960898108
 30
0.0
 11
420.1146901715285
 21
541.766896089813
 31
0.0
  0
LINE
  5
399
330
1F
100
AcDbEntity
  8
0
  6
Continuous
 62
     7
100
AcDbLine
 10
421.1146882559686
 20
541.2668953928803
 30
0.0
 11
421.1146882559686
 21
541.2668953928803
 31
0.0
  0
LINE
  5
39A
330
1F
100
AcDbEntity
  8
0
  6
DASHED
 62
     4
 48
6.0
100
AcDbLine
 10
468.2596910872066
 20
557.991755327676
 30
0.0
 11
468.2596910872066
 21
557.991755327676
 31
0.0
  0
LINE
  5
39B
330
1F
100
AcDbEntity
  8
0
  6
DASHED
 62
     4
 48
6.0
100
AcDbLine
 10
466.7596910871913
 20
557.9917553276676
 30
0.0
 11
468.2596910872066
 21
557.991755327676
 31
0.0
  0
LINE
  5
39C
330
1F
100
AcDbEntity
  8
0
  6
DASHED
 62
     4
 48
6.0
100
AcDbLine
 10
466.7596910871993
 20
556.4917553276643
 30
0.0
 11
466.7596910871913
 21
557.9917553276676
 31
0.0
  0
LINE
  5
39D
330
1F
100
AcDbEntity
  8
0
  6
DASHED
 62
     4
 48
6.0
100
AcDbLine
 10
465.7596910872093
 20
556.4917553276589
 30
0.0
 11
466.7596910871993
 21
556.4917553276643
 31
0.0
  0
LINE
  5
39E
330
1F
100
AcDbEntity
  8
0
  6
DASHED
 62
     4
 48
6.0
100
AcDbLine
 10
465.7596910872013
 20
557.991755327662
 30
0.0
 11
465.7596910872093
 21
556.4917553276589
 31
0.0
  0
LINE
  5
39F
330
1F
100
AcDbEntity
  8
0
  6
DASHED
 62
     4
 48
6.0
100
AcDbLine
 10
464.2596910871978
 20
557.9917553276539
 30
0.0
 11
465.7596910872013
 21
557.991755327662
 31
0.0
  0
LINE
  5
3A0
330
1F
100
AcDbEntity
  8
0
  6
DASHED
 62
     4
 48
6.0
100
AcDbLine
 10
464.2596910871801
 20
558.9917553276558
 30
0.0
 11
464.2596910871978
 21
557.9917553276539
 31
0.0
  0
LINE
  5
3A1
330
1F
100
AcDbEntity
  8
0
  6
DASHED
 62
     4
 48
6.0
100
AcDbLine
 10
465.7596910871972
 20
558.9917553276641
 30
0.0
 11
464.2596910871801
 21
558.9917553276558
 31
0.0
  0
LINE
  5
3A2
330
1F
100
AcDbEntity
  8
0
  6
DASHED
 62
     4
 48
6.0
100
AcDbLine
 10
465.7596910871872
 20
560.4917553276663
 30
0.0
 11
465.7596910871972
 21
558.9917553276641
 31
0.0
  0
LINE
  5
3A3
330
1F
100
AcDbEntity
  8
0
  6
DASHED
 62
     4
 48
6.0
100
AcDbLine
 10
466.7596910871774
 20
560.4917553276728
 30
0.0
 11
465.7596910871872
 21
560.4917553276663
 31
0.0
  0
LINE
  5
3A4
330
1F
100
AcDbEntity
  8
0
  6
DASHED
 62
     4
 48
6.0
100
AcDbLine
 10
466.7596910871993
 20
558.9917553276698
 30
0.0
 11
466.7596910871774
 21
560.4917553276728
 31
0.0
  0
LINE
  5
3A5
330
1F
100
AcDbEntity
  8
0
  6
DASHED
 62
     4
 48
6.0
100
AcDbLine
 10
468.2596910872008
 20
558.9917553276782
 30
0.0
 11
466.7596910871993
 21
558.9917553276698
 31
0.0
  0
LINE
  5
3A6
330
1F
100
AcDbEntity
  8
0
  6
DASHED
 62
     4
 48
6.0
100
AcDbLine
 10
468.2596910872066
 20
557.991755327676
 30
0.0
 11
468.2596910872008
 21
558.9917553276782
 31
0.0
  0
LINE
  5
3A7
330
1F
100
AcDbEntity
  8
0
  6
DASHED
 62
     4
 48
6.0
100
AcDbLine
 10
461.949691087197
 20
565.4917553276572
 30
0.0
 11
462.9496910871877
 21
565.491755327663
 31
0.0
  0
LINE
  5
3A8
330
1F
100
AcDbEntity
  8
0
  6
DASHED
 62
     4
 48
6.0
100
AcDbLine
 10
460.6396910872402
 20
557.9917553276351
 30
0.0
 11
460.6396910872402
 21
557.9917553276351
 31
0.0
  0
LINE
  5
3A9
330
1F
100
AcDbEntity
  8
0
  6
DASHED
 62
     4
 48
6.0
100
AcDbLine
 10
459.1396910872253
 20
557.9917553276271
 30
0.0
 11
460.6396910872402
 21
557.9917553276351
 31
0.0
  0
LINE
  5
3AA
330
1F
100
AcDbEntity
  8
0
  6
DASHED
 62
     4
 48
6.0
100
AcDbLine
 10
459.1396910872331
 20
556.4917553276249
 30
0.0
 11
459.1396910872253
 21
557.9917553276271
 31
0.0
  0
LINE
  5
3AB
330
1F
100
AcDbEntity
  8
0
  6
DASHED
 62
     4
 48
6.0
100
AcDbLine
 10
458.1396910872429
 20
556.4917553276187
 30
0.0
 11
459.1396910872331
 21
556.4917553276249
 31
0.0
  0
LINE
  5
3AC
330
1F
100
AcDbEntity
  8
0
  6
DASHED
 62
     4
 48
6.0
100
AcDbLine
 10
458.1396910872348
 20
557.9917553276219
 30
0.0
 11
458.1396910872429
 21
556.4917553276187
 31
0.0
  0
LINE
  5
3AD
330
1F
100
AcDbEntity
  8
0
  6
DASHED
 62
     4
 48
6.0
100
AcDbLine
 10
456.6396910872318
 20
557.9917553276157
 30
0.0
 11
458.1396910872348
 21
557.9917553276219
 31
0.0
  0
LINE
  5
3AE
330
1F
100
AcDbEntity
  8
0
  6
DASHED
 62
     4
 48
6.0
100
AcDbLine
 10
456.6396910872136
 20
558.9917553276181
 30
0.0
 11
456.6396910872318
 21
557.9917553276157
 31
0.0
  0
LINE
  5
3AF
330
1F
100
AcDbEntity
  8
0
  6
DASHED
 62
     4
 48
6.0
100
AcDbLine
 10
458.1396910872309
 20
558.9917553276241
 30
0.0
 11
456.6396910872136
 21
558.9917553276181
 31
0.0
  0
LINE
  5
3B0
330
1F
100
AcDbEntity
  8
0
  6
DASHED
 62
     4
 48
6.0
100
AcDbLine
 10
458.1396910872212
 20
560.4917553276273
 30
0.0
 11
458.1396910872309
 21
558.9917553276241
 31
0.0
  0
LINE
  5
3B1
330
1F
100
AcDbEntity
  8
0
  6
DASHED
 62
     4
 48
6.0
100
AcDbLine
 10
459.1396910872113
 20
560.4917553276329
 30
0.0
 11
458.1396910872212
 21
560.4917553276273
 31
0.0
  0
LINE
  5
3B2
330
1F
100
AcDbEntity
  8
0
  6
DASHED
 62
     4
 48
6.0
100
AcDbLine
 10
459.1396910872331
 20
558.9917553276294
 30
0.0
 11
459.1396910872113
 21
560.4917553276329
 31
0.0
  0
LINE
  5
3B3
330
1F
100
AcDbEntity
  8
0
  6
DASHED
 62
     4
 48
6.0
100
AcDbLine
 10
460.6396910872343
 20
558.9917553276372
 30
0.0
 11
459.1396910872331
 21
558.9917553276294
 31
0.0
  0
LINE
  5
3B4
330
1F
100
AcDbEntity
  8
0
  6
DASHED
 62
     4
 48
6.0
100
AcDbLine
 10
460.6396910872402
 20
557.9917553276351
 30
0.0
 11
460.6396910872343
 21
558.9917553276372
 31
0.0
  0
LINE
  5
3B5
330
1F
100
AcDbEntity
  8
0
  6
DASHED
 62
     4
 48
6.0
100
AcDbLine
 10
454.3296910871372
 20
565.49175532762
 30
0.0
 11
455.3296910871295
 21
565.4917553276232
 31
0.0
  0
LINE
  5
3B6
330
1F
100
AcDbEntity
  8
0
  6
DASHED
 62
     4
 48
6.0
100
AcDbLine
 10
453.0196910871743
 20
557.9917553275959
 30
0.0
 11
453.0196910871743
 21
557.9917553275959
 31
0.0
  0
LINE
  5
3B7
330
1F
100
AcDbEntity
  8
0
  6
DASHED
 62
     4
 48
6.0
100
AcDbLine
 10
451.5196910871589
 20
557.9917553275901
 30
0.0
 11
453.0196910871743
 21
557.9917553275959
 31
0.0
  0
LINE
  5
3B8
330
1F
100
AcDbEntity
  8
0
  6
DASHED
 62
     4
 48
6.0
100
AcDbLine
 10
451.519691087167
 20
556.4917553275868
 30
0.0
 11
451.5196910871589
 21
557.9917553275901
 31
0.0
  0
LINE
  5
3B9
330
1F
100
AcDbEntity
  8
0
  6
DASHED
 62
     4
 48
6.0
100
AcDbLine
 10
450.5196910871768
 20
556.4917553275809
 30
0.0
 11
451.519691087167
 21
556.4917553275868
 31
0.0
  0
LINE
  5
3BA
330
1F
100
AcDbEntity
  8
0
  6
DASHED
 62
     4
 48
6.0
100
AcDbLine
 10
450.519691087169
 20
557.991755327584
 30
0.0
 11
450.5196910871768
 21
556.4917553275809
 31
0.0
  0
LINE
  5
3BB
330
1F
100
AcDbEntity
  8
0
  6
DASHED
 62
     4
 48
6.0
100
AcDbLine
 10
449.0196910871658
 20
557.9917553275759
 30
0.0
 11
450.519691087169
 21
557.991755327584
 31
0.0
  0
LINE
  5
3BC
330
1F
100
AcDbEntity
  8
0
  6
DASHED
 62
     4
 48
6.0
100
AcDbLine
 10
449.0196910871477
 20
558.9917553275779
 30
0.0
 11
449.0196910871658
 21
557.9917553275759
 31
0.0
  0
LINE
  5
3BD
330
1F
100
AcDbEntity
  8
0
  6
DASHED
 62
     4
 48
6.0
100
AcDbLine
 10
450.5196910871626
 20
558.9917553275861
 30
0.0
 11
449.0196910871477
 21
558.9917553275779
 31
0.0
  0
LINE
  5
3BE
330
1F
100
AcDbEntity
  8
0
  6
DASHED
 62
     4
 48
6.0
100
AcDbLine
 10
450.5196910871551
 20
560.4917553275886
 30
0.0
 11
450.5196910871626
 21
558.9917553275861
 31
0.0
  0
LINE
  5
3BF
330
1F
100
AcDbEntity
  8
0
  6
DASHED
 62
     4
 48
6.0
100
AcDbLine
 10
451.519691087145
 20
560.4917553275948
 30
0.0
 11
450.5196910871551
 21
560.4917553275886
 31
0.0
  0
LINE
  5
3C0
330
1F
100
AcDbEntity
  8
0
  6
DASHED
 62
     4
 48
6.0
100
AcDbLine
 10
451.5196910871648
 20
558.9917553275921
 30
0.0
 11
451.519691087145
 21
560.4917553275948
 31
0.0
  0
LINE
  5
3C1
330
1F
100
AcDbEntity
  8
0
  6
DASHED
 62
     4
 48
6.0
100
AcDbLine
 10
453.0196910871684
 20
558.9917553275978
 30
0.0
 11
451.5196910871648
 21
558.9917553275921
 31
0.0
  0
LINE
  5
3C2
330
1F
100
AcDbEntity
  8
0
  6
DASHED
 62
     4
 48
6.0
100
AcDbLine
 10
453.0196910871743
 20
557.9917553275959
 30
0.0
 11
453.0196910871684
 21
558.9917553275978
 31
0.0
  0
LINE
  5
3C3
330
1F
100
AcDbEntity
  8
0
  6
DASHED
 62
     4
 48
6.0
100
AcDbLine
 10
446.7096910871208
 20
565.4917553275797
 30
0.0
 11
447.7096910871129
 21
565.4917553275851
 31
0.0
  0
LINE
  5
3C4
330
1F
100
AcDbEntity
  8
0
  6
DASHED
 62
     4
 48
6.0
100
AcDbLine
 10
445.3996910871638
 20
557.9917553275577
 30
0.0
 11
445.3996910871638
 21
557.9917553275577
 31
0.0
  0
LINE
  5
3C5
330
1F
100
AcDbEntity
  8
0
  6
DASHED
 62
     4
 48
6.0
100
AcDbLine
 10
443.8996910871486
 20
557.9917553275495
 30
0.0
 11
445.3996910871638
 21
557.9917553275577
 31
0.0
  0
LINE
  5
3C6
330
1F
100
AcDbEntity
  8
0
  6
DASHED
 62
     4
 48
6.0
100
AcDbLine
 10
443.899691087157
 20
556.4917553275468
 30
0.0
 11
443.8996910871486
 21
557.9917553275495
 31
0.0
  0
LINE
  5
3C7
330
1F
100
AcDbEntity
  8
0
  6
DASHED
 62
     4
 48
6.0
100
AcDbLine
 10
442.8996910871666
 20
556.4917553275405
 30
0.0
 11
443.899691087157
 21
556.4917553275468
 31
0.0
  0
LINE
  5
3C8
330
1F
100
AcDbEntity
  8
0
  6
DASHED
 62
     4
 48
6.0
100
AcDbLine
 10
442.8996910871586
 20
557.9917553275438
 30
0.0
 11
442.8996910871666
 21
556.4917553275405
 31
0.0
  0
LINE
  5
3C9
330
1F
100
AcDbEntity
  8
0
  6
DASHED
 62
     4
 48
6.0
100
AcDbLine
 10
441.3996910871555
 20
557.9917553275358
 30
0.0
 11
442.8996910871586
 21
557.9917553275438
 31
0.0
  0
LINE
  5
3CA
330
1F
100
AcDbEntity
  8
0
  6
DASHED
 62
     4
 48
6.0
100
AcDbLine
 10
441.3996910871376
 20
558.9917553275378
 30
0.0
 11
441.3996910871555
 21
557.9917553275358
 31
0.0
  0
LINE
  5
3CB
330
1F
100
AcDbEntity
  8
0
  6
DASHED
 62
     4
 48
6.0
100
AcDbLine
 10
442.8996910871548
 20
558.9917553275459
 30
0.0
 11
441.3996910871376
 21
558.9917553275378
 31
0.0
  0
LINE
  5
3CC
330
1F
100
AcDbEntity
  8
0
  6
DASHED
 62
     4
 48
6.0
100
AcDbLine
 10
442.8996910871451
 20
560.4917553275489
 30
0.0
 11
442.8996910871548
 21
558.9917553275459
 31
0.0
  0
LINE
  5
3CD
330
1F
100
AcDbEntity
  8
0
  6
DASHED
 62
     4
 48
6.0
100
AcDbLine
 10
443.8996910871371
 20
560.4917553275553
 30
0.0
 11
442.8996910871451
 21
560.4917553275489
 31
0.0
  0
LINE
  5
3CE
330
1F
100
AcDbEntity
  8
0
  6
DASHED
 62
     4
 48
6.0
100
AcDbLine
 10
443.899691087157
 20
558.9917553275516
 30
0.0
 11
443.8996910871371
 21
560.4917553275553
 31
0.0
  0
LINE
  5
3CF
330
1F
100
AcDbEntity
  8
0
  6
DASHED
 62
     4
 48
6.0
100
AcDbLine
 10
445.3996910871581
 20
558.99175532756
 30
0.0
 11
443.899691087157
 21
558.9917553275516
 31
0.0
  0
LINE
  5
3D0
330
1F
100
AcDbEntity
  8
0
  6
DASHED
 62
     4
 48
6.0
100
AcDbLine
 10
445.3996910871638
 20
557.9917553275577
 30
0.0
 11
445.3996910871581
 21
558.99175532756
 31
0.0
  0
LINE
  5
3D1
330
1F
100
AcDbEntity
  8
0
  6
DASHED
 62
     4
 48
6.0
100
AcDbLine
 10
439.0896910870625
 20
565.4917553275395
 30
0.0
 11
440.0896910870527
 21
565.4917553275459
 31
0.0
  0
LINE
  5
3D2
330
1F
100
AcDbEntity
  8
0
  6
DASHED
 62
     4
 48
6.0
100
AcDbLine
 10
437.7796910870978
 20
557.9917553275175
 30
0.0
 11
437.7796910870978
 21
557.9917553275175
 31
0.0
  0
LINE
  5
3D3
330
1F
100
AcDbEntity
  8
0
  6
DASHED
 62
     4
 48
6.0
100
AcDbLine
 10
436.2796910870828
 20
557.9917553275098
 30
0.0
 11
437.7796910870978
 21
557.9917553275175
 31
0.0
  0
LINE
  5
3D4
330
1F
100
AcDbEntity
  8
0
  6
DASHED
 62
     4
 48
6.0
100
AcDbLine
 10
436.2796910870906
 20
556.4917553275067
 30
0.0
 11
436.2796910870828
 21
557.9917553275098
 31
0.0
  0
LINE
  5
3D5
330
1F
100
AcDbEntity
  8
0
  6
DASHED
 62
     4
 48
6.0
100
AcDbLine
 10
435.2796910871004
 20
556.4917553275031
 30
0.0
 11
436.2796910870906
 21
556.4917553275067
 31
0.0
  0
LINE
  5
3D6
330
1F
100
AcDbEntity
  8
0
  6
DASHED
 62
     4
 48
6.0
100
AcDbLine
 10
435.2796910870924
 20
557.9917553275057
 30
0.0
 11
435.2796910871004
 21
556.4917553275031
 31
0.0
  0
LINE
  5
3D7
330
1F
100
AcDbEntity
  8
0
  6
DASHED
 62
     4
 48
6.0
100
AcDbLine
 10
433.7796910870893
 20
557.9917553274976
 30
0.0
 11
435.2796910870924
 21
557.9917553275057
 31
0.0
  0
LINE
  5
3D8
330
1F
100
AcDbEntity
  8
0
  6
DASHED
 62
     4
 48
6.0
100
AcDbLine
 10
433.7796910870713
 20
558.9917553274998
 30
0.0
 11
433.7796910870893
 21
557.9917553274976
 31
0.0
  0
LINE
  5
3D9
330
1F
100
AcDbEntity
  8
0
  6
DASHED
 62
     4
 48
6.0
100
AcDbLine
 10
435.2796910870885
 20
558.9917553275077
 30
0.0
 11
433.7796910870713
 21
558.9917553274998
 31
0.0
  0
LINE
  5
3DA
330
1F
100
AcDbEntity
  8
0
  6
DASHED
 62
     4
 48
6.0
100
AcDbLine
 10
435.2796910870786
 20
560.4917553275111
 30
0.0
 11
435.2796910870885
 21
558.9917553275077
 31
0.0
  0
LINE
  5
3DB
330
1F
100
AcDbEntity
  8
0
  6
DASHED
 62
     4
 48
6.0
100
AcDbLine
 10
436.2796910870705
 20
560.4917553275153
 30
0.0
 11
435.2796910870786
 21
560.4917553275111
 31
0.0
  0
LINE
  5
3DC
330
1F
100
AcDbEntity
  8
0
  6
DASHED
 62
     4
 48
6.0
100
AcDbLine
 10
436.2796910870906
 20
558.9917553275122
 30
0.0
 11
436.2796910870705
 21
560.4917553275153
 31
0.0
  0
LINE
  5
3DD
330
1F
100
AcDbEntity
  8
0
  6
DASHED
 62
     4
 48
6.0
100
AcDbLine
 10
437.7796910870919
 20
558.9917553275197
 30
0.0
 11
436.2796910870906
 21
558.9917553275122
 31
0.0
  0
LINE
  5
3DE
330
1F
100
AcDbEntity
  8
0
  6
DASHED
 62
     4
 48
6.0
100
AcDbLine
 10
437.7796910870978
 20
557.9917553275175
 30
0.0
 11
437.7796910870919
 21
558.9917553275197
 31
0.0
  0
LINE
  5
3DF
330
1F
100
AcDbEntity
  8
0
  6
DASHED
 62
     4
 48
6.0
100
AcDbLine
 10
434.0214866055776
 20
564.4786480250536
 30
0.0
 11
431.9696910870938
 21
564.4786480250437
 31
0.0
  0
LINE
  5
3E0
330
1F
100
AcDbEntity
  8
0
  6
DASHED
 62
     4
 48
6.0
100
AcDbLine
 10
438.9296910871665
 20
563.4917553275354
 30
0.0
 11
438.9296910871883
 21
553.4917553274762
 31
0.0
  0
LINE
  5
3E1
330
1F
100
AcDbEntity
  8
0
  6
DASHED
 62
     4
 48
6.0
100
AcDbLine
 10
440.2496910871692
 20
563.4917553275417
 30
0.0
 11
440.2496910871914
 21
553.4917553280341
 31
0.0
  0
LINE
  5
3E2
330
1F
100
AcDbEntity
  8
0
  6
DASHED
 62
     4
 48
6.0
100
AcDbLine
 10
446.5496910871826
 20
563.4917553275755
 30
0.0
 11
446.5496910872484
 21
553.4917553274741
 31
0.0
  0
LINE
  5
3E3
330
1F
100
AcDbEntity
  8
0
  6
DASHED
 62
     4
 48
6.0
100
AcDbLine
 10
447.8696910871855
 20
563.4917553275816
 30
0.0
 11
447.8696910872512
 21
553.4917553280323
 31
0.0
  0
LINE
  5
3E4
330
1F
100
AcDbEntity
  8
0
  6
DASHED
 62
     4
 48
6.0
100
AcDbLine
 10
454.1696910872105
 20
563.4917553276137
 30
0.0
 11
454.1696910872184
 21
553.4917553280304
 31
0.0
  0
LINE
  5
3E5
330
1F
100
AcDbEntity
  8
0
  6
DASHED
 62
     4
 48
6.0
100
AcDbLine
 10
455.4896910872016
 20
563.4917553276213
 30
0.0
 11
455.4896910872233
 21
553.4917553280304
 31
0.0
  0
LINE
  5
3E6
330
1F
100
AcDbEntity
  8
0
  6
DASHED
 62
     4
 48
6.0
100
AcDbLine
 10
461.7896910872148
 20
563.491755327653
 30
0.0
 11
461.7896910872806
 21
553.4917553274683
 31
0.0
  0
LINE
  5
3E7
330
1F
100
AcDbEntity
  8
0
  6
DASHED
 62
     4
 48
6.0
100
AcDbLine
 10
463.1096910871915
 20
563.4917553276592
 30
0.0
 11
463.1096910872433
 21
553.4917553280259
 31
0.0
  0
LINE
  5
3E8
330
1F
100
AcDbEntity
  8
0
  6
DASHED
 62
     4
 48
6.0
100
AcDbLine
 10
469.4096910872048
 20
563.4917553276917
 30
0.0
 11
469.4096910872572
 21
553.4917553280243
 31
0.0
  0
LINE
  5
3E9
330
1F
100
AcDbEntity
  8
0
  6
Continuous
 62
     7
100
AcDbLine
 10
416.1146882559582
 20
563.80279377779
 30
0.0
 11
416.1146882559582
 21
543.5029633703829
 31
0.0
  0
LINE
  5
3EA
330
1F
100
AcDbEntity
  8
0
  6
Continuous
 62
     7
100
AcDbLine
 10
420.1146882559666
 20
563.80279377779
 30
0.0
 11
420.1146882559666
 21
543.5029633703829
 31
0.0
  0
CIRCLE
  5
3EB
330
1F
100
AcDbEntity
  8
0
  6
DASHED
 62
     4
100
AcDbCircle
 10
511.9796910872716
 20
558.4917553279007
 30
0.0
 40
2.750000000005366
  0
CIRCLE
  5
3EC
330
1F
100
AcDbEntity
  8
0
  6
DASHED
 62
     4
100
AcDbCircle
 10
504.3596910873481
 20
558.4917553278613
 30
0.0
 40
2.750000000006279
  0
CIRCLE
  5
3ED
330
1F
100
AcDbEntity
  8
0
  6
DASHED
 62
     4
100
AcDbCircle
 10
496.7396910873334
 20
558.4917553278224
 30
0.0
 40
2.750000000005254
  0
CIRCLE
  5
3EE
330
1F
100
AcDbEntity
  8
0
  6
DASHED
 62
     4
100
AcDbCircle
 10
489.1196910872722
 20
558.4917553277834
 30
0.0
 40
2.750000000006393
  0
CIRCLE
  5
3EF
330
1F
100
AcDbEntity
  8
0
  6
DASHED
 62
     4
100
AcDbCircle
 10
481.499691087207
 20
558.4917553277442
 30
0.0
 40
2.750000000005254
  0
CIRCLE
  5
3F0
330
1F
100
AcDbEntity
  8
0
  6
DASHED
 62
     4
100
AcDbCircle
 10
473.8796910872405
 20
558.4917553277041
 30
0.0
 40
2.750000000005366
  0
LINE
  5
3F1
330
1F
100
AcDbEntity
  8
0
  6
DASHED
 62
     4
 48
6.0
100
AcDbLine
 10
515.289691087266
 20
565.4917553279317
 30
0.0
 11
516.2896910872582
 21
565.4917553279378
 31
0.0
  0
LINE
  5
3F2
330
1F
100
AcDbEntity
  8
0
  6
DASHED
 62
     4
 48
6.0
100
AcDbLine
 10
513.9796910873034
 20
557.9917553279098
 30
0.0
 11
513.9796910873034
 21
557.9917553279098
 31
0.0
  0
LINE
  5
3F3
330
1F
100
AcDbEntity
  8
0
  6
DASHED
 62
     4
 48
6.0
100
AcDbLine
 10
512.479691087288
 20
557.9917553279018
 30
0.0
 11
513.9796910873034
 21
557.9917553279098
 31
0.0
  0
LINE
  5
3F4
330
1F
100
AcDbEntity
  8
0
  6
DASHED
 62
     4
 48
6.0
100
AcDbLine
 10
512.4796910872962
 20
556.4917553278986
 30
0.0
 11
512.479691087288
 21
557.9917553279018
 31
0.0
  0
LINE
  5
3F5
330
1F
100
AcDbEntity
  8
0
  6
DASHED
 62
     4
 48
6.0
100
AcDbLine
 10
511.4796910873061
 20
556.4917553278945
 30
0.0
 11
512.4796910872962
 21
556.4917553278986
 31
0.0
  0
LINE
  5
3F6
330
1F
100
AcDbEntity
  8
0
  6
DASHED
 62
     4
 48
6.0
100
AcDbLine
 10
511.4796910872981
 20
557.9917553278979
 30
0.0
 11
511.4796910873061
 21
556.4917553278945
 31
0.0
  0
LINE
  5
3F7
330
1F
100
AcDbEntity
  8
0
  6
DASHED
 62
     4
 48
6.0
100
AcDbLine
 10
509.9796910872948
 20
557.9917553278896
 30
0.0
 11
511.4796910872981
 21
557.9917553278979
 31
0.0
  0
LINE
  5
3F8
330
1F
100
AcDbEntity
  8
0
  6
DASHED
 62
     4
 48
6.0
100
AcDbLine
 10
509.9796910872767
 20
558.9917553278922
 30
0.0
 11
509.9796910872948
 21
557.9917553278896
 31
0.0
  0
LINE
  5
3F9
330
1F
100
AcDbEntity
  8
0
  6
DASHED
 62
     4
 48
6.0
100
AcDbLine
 10
511.4796910872939
 20
558.9917553278999
 30
0.0
 11
509.9796910872767
 21
558.9917553278922
 31
0.0
  0
LINE
  5
3FA
330
1F
100
AcDbEntity
  8
0
  6
DASHED
 62
     4
 48
6.0
100
AcDbLine
 10
511.4796910872841
 20
560.491755327903
 30
0.0
 11
511.4796910872939
 21
558.9917553278999
 31
0.0
  0
LINE
  5
3FB
330
1F
100
AcDbEntity
  8
0
  6
DASHED
 62
     4
 48
6.0
100
AcDbLine
 10
512.4796910872739
 20
560.4917553279071
 30
0.0
 11
511.4796910872841
 21
560.491755327903
 31
0.0
  0
LINE
  5
3FC
330
1F
100
AcDbEntity
  8
0
  6
DASHED
 62
     4
 48
6.0
100
AcDbLine
 10
512.4796910872962
 20
558.9917553279039
 30
0.0
 11
512.4796910872739
 21
560.4917553279071
 31
0.0
  0
LINE
  5
3FD
330
1F
100
AcDbEntity
  8
0
  6
DASHED
 62
     4
 48
6.0
100
AcDbLine
 10
513.9796910872972
 20
558.9917553279117
 30
0.0
 11
512.4796910872962
 21
558.9917553279039
 31
0.0
  0
LINE
  5
3FE
330
1F
100
AcDbEntity
  8
0
  6
DASHED
 62
     4
 48
6.0
100
AcDbLine
 10
513.9796910873034
 20
557.9917553279098
 30
0.0
 11
513.9796910872972
 21
558.9917553279117
 31
0.0
  0
LINE
  5
3FF
330
1F
100
AcDbEntity
  8
0
  6
DASHED
 62
     4
 48
6.0
100
AcDbLine
 10
507.6696910872499
 20
565.4917553278935
 30
0.0
 11
508.669691087242
 21
565.4917553278977
 31
0.0
  0
LINE
  5
400
330
1F
100
AcDbEntity
  8
0
  6
DASHED
 62
     4
 48
6.0
100
AcDbLine
 10
506.3596910873813
 20
557.9917553278696
 30
0.0
 11
506.3596910873813
 21
557.9917553278696
 31
0.0
  0
LINE
  5
401
330
1F
100
AcDbEntity
  8
0
  6
DASHED
 62
     4
 48
6.0
100
AcDbLine
 10
504.8596910873661
 20
557.9917553278638
 30
0.0
 11
506.3596910873813
 21
557.9917553278696
 31
0.0
  0
LINE
  5
402
330
1F
100
AcDbEntity
  8
0
  6
DASHED
 62
     4
 48
6.0
100
AcDbLine
 10
504.8596910873738
 20
556.4917553278602
 30
0.0
 11
504.8596910873661
 21
557.9917553278638
 31
0.0
  0
LINE
  5
403
330
1F
100
AcDbEntity
  8
0
  6
DASHED
 62
     4
 48
6.0
100
AcDbLine
 10
503.8596910873835
 20
556.4917553278537
 30
0.0
 11
504.8596910873738
 21
556.4917553278602
 31
0.0
  0
LINE
  5
404
330
1F
100
AcDbEntity
  8
0
  6
DASHED
 62
     4
 48
6.0
100
AcDbLine
 10
503.859691087376
 20
557.9917553278575
 30
0.0
 11
503.8596910873835
 21
556.4917553278537
 31
0.0
  0
LINE
  5
405
330
1F
100
AcDbEntity
  8
0
  6
DASHED
 62
     4
 48
6.0
100
AcDbLine
 10
502.3596910873727
 20
557.9917553278496
 30
0.0
 11
503.859691087376
 21
557.9917553278575
 31
0.0
  0
LINE
  5
406
330
1F
100
AcDbEntity
  8
0
  6
DASHED
 62
     4
 48
6.0
100
AcDbLine
 10
502.3596910873546
 20
558.9917553278515
 30
0.0
 11
502.3596910873727
 21
557.9917553278496
 31
0.0
  0
LINE
  5
407
330
1F
100
AcDbEntity
  8
0
  6
DASHED
 62
     4
 48
6.0
100
AcDbLine
 10
503.8596910873699
 20
558.9917553278596
 30
0.0
 11
502.3596910873546
 21
558.9917553278515
 31
0.0
  0
LINE
  5
408
330
1F
100
AcDbEntity
  8
0
  6
DASHED
 62
     4
 48
6.0
100
AcDbLine
 10
503.8596910873618
 20
560.4917553278632
 30
0.0
 11
503.8596910873699
 21
558.9917553278596
 31
0.0
  0
LINE
  5
409
330
1F
100
AcDbEntity
  8
0
  6
DASHED
 62
     4
 48
6.0
100
AcDbLine
 10
504.8596910873518
 20
560.4917553278693
 30
0.0
 11
503.8596910873618
 21
560.4917553278632
 31
0.0
  0
LINE
  5
40A
330
1F
100
AcDbEntity
  8
0
  6
DASHED
 62
     4
 48
6.0
100
AcDbLine
 10
504.8596910873719
 20
558.9917553278662
 30
0.0
 11
504.8596910873518
 21
560.4917553278693
 31
0.0
  0
LINE
  5
40B
330
1F
100
AcDbEntity
  8
0
  6
DASHED
 62
     4
 48
6.0
100
AcDbLine
 10
506.3596910873751
 20
558.9917553278718
 30
0.0
 11
504.8596910873719
 21
558.9917553278662
 31
0.0
  0
LINE
  5
40C
330
1F
100
AcDbEntity
  8
0
  6
DASHED
 62
     4
 48
6.0
100
AcDbLine
 10
506.3596910873813
 20
557.9917553278696
 30
0.0
 11
506.3596910873751
 21
558.9917553278718
 31
0.0
  0
LINE
  5
40D
330
1F
100
AcDbEntity
  8
0
  6
DASHED
 62
     4
 48
6.0
100
AcDbLine
 10
500.0496910872336
 20
565.4917553278536
 30
0.0
 11
501.0496910872259
 21
565.4917553278599
 31
0.0
  0
LINE
  5
40E
330
1F
100
AcDbEntity
  8
0
  6
DASHED
 62
     4
 48
6.0
100
AcDbLine
 10
498.7396910873652
 20
557.9917553278313
 30
0.0
 11
498.7396910873652
 21
557.9917553278313
 31
0.0
  0
LINE
  5
40F
330
1F
100
AcDbEntity
  8
0
  6
DASHED
 62
     4
 48
6.0
100
AcDbLine
 10
497.2396910873498
 20
557.9917553278237
 30
0.0
 11
498.7396910873652
 21
557.9917553278313
 31
0.0
  0
LINE
  5
410
330
1F
100
AcDbEntity
  8
0
  6
DASHED
 62
     4
 48
6.0
100
AcDbLine
 10
497.2396910873578
 20
556.4917553278205
 30
0.0
 11
497.2396910873498
 21
557.9917553278237
 31
0.0
  0
LINE
  5
411
330
1F
100
AcDbEntity
  8
0
  6
DASHED
 62
     4
 48
6.0
100
AcDbLine
 10
496.2396910873658
 20
556.4917553278145
 30
0.0
 11
497.2396910873578
 21
556.4917553278205
 31
0.0
  0
LINE
  5
412
330
1F
100
AcDbEntity
  8
0
  6
DASHED
 62
     4
 48
6.0
100
AcDbLine
 10
496.2396910873598
 20
557.9917553278176
 30
0.0
 11
496.2396910873658
 21
556.4917553278145
 31
0.0
  0
LINE
  5
413
330
1F
100
AcDbEntity
  8
0
  6
DASHED
 62
     4
 48
6.0
100
AcDbLine
 10
494.7396910873567
 20
557.9917553278114
 30
0.0
 11
496.2396910873598
 21
557.9917553278176
 31
0.0
  0
LINE
  5
414
330
1F
100
AcDbEntity
  8
0
  6
DASHED
 62
     4
 48
6.0
100
AcDbLine
 10
494.7396910873385
 20
558.9917553278142
 30
0.0
 11
494.7396910873567
 21
557.9917553278114
 31
0.0
  0
LINE
  5
415
330
1F
100
AcDbEntity
  8
0
  6
DASHED
 62
     4
 48
6.0
100
AcDbLine
 10
496.2396910873536
 20
558.9917553278199
 30
0.0
 11
494.7396910873385
 21
558.9917553278142
 31
0.0
  0
LINE
  5
416
330
1F
100
AcDbEntity
  8
0
  6
DASHED
 62
     4
 48
6.0
100
AcDbLine
 10
496.2396910873456
 20
560.4917553278233
 30
0.0
 11
496.2396910873536
 21
558.9917553278199
 31
0.0
  0
LINE
  5
417
330
1F
100
AcDbEntity
  8
0
  6
DASHED
 62
     4
 48
6.0
100
AcDbLine
 10
497.2396910873356
 20
560.4917553278291
 30
0.0
 11
496.2396910873456
 21
560.4917553278233
 31
0.0
  0
LINE
  5
418
330
1F
100
AcDbEntity
  8
0
  6
DASHED
 62
     4
 48
6.0
100
AcDbLine
 10
497.2396910873558
 20
558.991755327826
 30
0.0
 11
497.2396910873356
 21
560.4917553278291
 31
0.0
  0
LINE
  5
419
330
1F
100
AcDbEntity
  8
0
  6
DASHED
 62
     4
 48
6.0
100
AcDbLine
 10
498.7396910873592
 20
558.9917553278341
 30
0.0
 11
497.2396910873558
 21
558.991755327826
 31
0.0
  0
LINE
  5
41A
330
1F
100
AcDbEntity
  8
0
  6
DASHED
 62
     4
 48
6.0
100
AcDbLine
 10
498.7396910873652
 20
557.9917553278313
 30
0.0
 11
498.7396910873592
 21
558.9917553278341
 31
0.0
  0
LINE
  5
41B
330
1F
100
AcDbEntity
  8
0
  6
DASHED
 62
     4
 48
6.0
100
AcDbLine
 10
492.4296910872612
 20
565.4917553278156
 30
0.0
 11
493.4296910872516
 21
565.4917553278195
 31
0.0
  0
LINE
  5
41C
330
1F
100
AcDbEntity
  8
0
  6
DASHED
 62
     4
 48
6.0
100
AcDbLine
 10
491.1196910873048
 20
557.9917553277921
 30
0.0
 11
491.1196910873048
 21
557.9917553277921
 31
0.0
  0
LINE
  5
41D
330
1F
100
AcDbEntity
  8
0
  6
DASHED
 62
     4
 48
6.0
100
AcDbLine
 10
489.6196910872898
 20
557.9917553277863
 30
0.0
 11
491.1196910873048
 21
557.9917553277921
 31
0.0
  0
LINE
  5
41E
330
1F
100
AcDbEntity
  8
0
  6
DASHED
 62
     4
 48
6.0
100
AcDbLine
 10
489.6196910872976
 20
556.4917553277824
 30
0.0
 11
489.6196910872898
 21
557.9917553277863
 31
0.0
  0
LINE
  5
41F
330
1F
100
AcDbEntity
  8
0
  6
DASHED
 62
     4
 48
6.0
100
AcDbLine
 10
488.6196910873076
 20
556.4917553277759
 30
0.0
 11
489.6196910872976
 21
556.4917553277824
 31
0.0
  0
LINE
  5
420
330
1F
100
AcDbEntity
  8
0
  6
DASHED
 62
     4
 48
6.0
100
AcDbLine
 10
488.6196910872993
 20
557.9917553277798
 30
0.0
 11
488.6196910873076
 21
556.4917553277759
 31
0.0
  0
LINE
  5
421
330
1F
100
AcDbEntity
  8
0
  6
DASHED
 62
     4
 48
6.0
100
AcDbLine
 10
487.1196910872956
 20
557.991755327772
 30
0.0
 11
488.6196910872993
 21
557.9917553277798
 31
0.0
  0
LINE
  5
422
330
1F
100
AcDbEntity
  8
0
  6
DASHED
 62
     4
 48
6.0
100
AcDbLine
 10
487.1196910872781
 20
558.9917553277737
 30
0.0
 11
487.1196910872956
 21
557.991755327772
 31
0.0
  0
LINE
  5
423
330
1F
100
AcDbEntity
  8
0
  6
DASHED
 62
     4
 48
6.0
100
AcDbLine
 10
488.6196910872954
 20
558.9917553277818
 30
0.0
 11
487.1196910872781
 21
558.9917553277737
 31
0.0
  0
LINE
  5
424
330
1F
100
AcDbEntity
  8
0
  6
DASHED
 62
     4
 48
6.0
100
AcDbLine
 10
488.619691087285
 20
560.4917553277853
 30
0.0
 11
488.6196910872954
 21
558.9917553277818
 31
0.0
  0
LINE
  5
425
330
1F
100
AcDbEntity
  8
0
  6
DASHED
 62
     4
 48
6.0
100
AcDbLine
 10
489.6196910872758
 20
560.4917553277912
 30
0.0
 11
488.619691087285
 21
560.4917553277853
 31
0.0
  0
LINE
  5
426
330
1F
100
AcDbEntity
  8
0
  6
DASHED
 62
     4
 48
6.0
100
AcDbLine
 10
489.6196910872976
 20
558.9917553277882
 30
0.0
 11
489.6196910872758
 21
560.4917553277912
 31
0.0
  0
LINE
  5
427
330
1F
100
AcDbEntity
  8
0
  6
DASHED
 62
     4
 48
6.0
100
AcDbLine
 10
491.1196910872988
 20
558.9917553277943
 30
0.0
 11
489.6196910872976
 21
558.9917553277882
 31
0.0
  0
LINE
  5
428
330
1F
100
AcDbEntity
  8
0
  6
DASHED
 62
     4
 48
6.0
100
AcDbLine
 10
491.1196910873048
 20
557.9917553277921
 30
0.0
 11
491.1196910872988
 21
558.9917553277943
 31
0.0
  0
LINE
  5
429
330
1F
100
AcDbEntity
  8
0
  6
DASHED
 62
     4
 48
6.0
100
AcDbLine
 10
484.8096910872015
 20
565.4917553277758
 30
0.0
 11
485.8096910871935
 21
565.4917553277813
 31
0.0
  0
LINE
  5
42A
330
1F
100
AcDbEntity
  8
0
  6
DASHED
 62
     4
 48
6.0
100
AcDbLine
 10
483.4996910872388
 20
557.9917553277539
 30
0.0
 11
483.4996910872388
 21
557.9917553277539
 31
0.0
  0
LINE
  5
42B
330
1F
100
AcDbEntity
  8
0
  6
DASHED
 62
     4
 48
6.0
100
AcDbLine
 10
481.9996910872236
 20
557.9917553277456
 30
0.0
 11
483.4996910872388
 21
557.9917553277539
 31
0.0
  0
LINE
  5
42C
330
1F
100
AcDbEntity
  8
0
  6
DASHED
 62
     4
 48
6.0
100
AcDbLine
 10
481.9996910872315
 20
556.4917553277425
 30
0.0
 11
481.9996910872236
 21
557.9917553277456
 31
0.0
  0
LINE
  5
42D
330
1F
100
AcDbEntity
  8
0
  6
DASHED
 62
     4
 48
6.0
100
AcDbLine
 10
480.9996910872416
 20
556.4917553277362
 30
0.0
 11
481.9996910872315
 21
556.4917553277425
 31
0.0
  0
LINE
  5
42E
330
1F
100
AcDbEntity
  8
0
  6
DASHED
 62
     4
 48
6.0
100
AcDbLine
 10
480.9996910872334
 20
557.99175532774
 30
0.0
 11
480.9996910872416
 21
556.4917553277362
 31
0.0
  0
LINE
  5
42F
330
1F
100
AcDbEntity
  8
0
  6
DASHED
 62
     4
 48
6.0
100
AcDbLine
 10
479.4996910872304
 20
557.9917553277319
 30
0.0
 11
480.9996910872334
 21
557.99175532774
 31
0.0
  0
LINE
  5
430
330
1F
100
AcDbEntity
  8
0
  6
DASHED
 62
     4
 48
6.0
100
AcDbLine
 10
479.4996910872123
 20
558.9917553277341
 30
0.0
 11
479.4996910872304
 21
557.9917553277319
 31
0.0
  0
LINE
  5
431
330
1F
100
AcDbEntity
  8
0
  6
DASHED
 62
     4
 48
6.0
100
AcDbLine
 10
480.9996910872295
 20
558.9917553277416
 30
0.0
 11
479.4996910872123
 21
558.9917553277341
 31
0.0
  0
LINE
  5
432
330
1F
100
AcDbEntity
  8
0
  6
DASHED
 62
     4
 48
6.0
100
AcDbLine
 10
480.9996910872194
 20
560.4917553277451
 30
0.0
 11
480.9996910872295
 21
558.9917553277416
 31
0.0
  0
LINE
  5
433
330
1F
100
AcDbEntity
  8
0
  6
DASHED
 62
     4
 48
6.0
100
AcDbLine
 10
481.9996910872093
 20
560.4917553277508
 30
0.0
 11
480.9996910872194
 21
560.4917553277451
 31
0.0
  0
LINE
  5
434
330
1F
100
AcDbEntity
  8
0
  6
DASHED
 62
     4
 48
6.0
100
AcDbLine
 10
481.9996910872315
 20
558.9917553277479
 30
0.0
 11
481.9996910872093
 21
560.4917553277508
 31
0.0
  0
LINE
  5
435
330
1F
100
AcDbEntity
  8
0
  6
DASHED
 62
     4
 48
6.0
100
AcDbLine
 10
483.4996910872319
 20
558.9917553277561
 30
0.0
 11
481.9996910872315
 21
558.9917553277479
 31
0.0
  0
LINE
  5
436
330
1F
100
AcDbEntity
  8
0
  6
DASHED
 62
     4
 48
6.0
100
AcDbLine
 10
483.4996910872388
 20
557.9917553277539
 30
0.0
 11
483.4996910872319
 21
558.9917553277561
 31
0.0
  0
LINE
  5
437
330
1F
100
AcDbEntity
  8
0
  6
DASHED
 62
     4
 48
6.0
100
AcDbLine
 10
477.1896910872293
 20
565.4917553277355
 30
0.0
 11
478.1896910872198
 21
565.4917553277412
 31
0.0
  0
LINE
  5
438
330
1F
100
AcDbEntity
  8
0
  6
DASHED
 62
     4
 48
6.0
100
AcDbLine
 10
475.8796910872726
 20
557.9917553277141
 30
0.0
 11
475.8796910872726
 21
557.9917553277141
 31
0.0
  0
LINE
  5
439
330
1F
100
AcDbEntity
  8
0
  6
DASHED
 62
     4
 48
6.0
100
AcDbLine
 10
474.3796910872577
 20
557.9917553277057
 30
0.0
 11
475.8796910872726
 21
557.9917553277141
 31
0.0
  0
LINE
  5
43A
330
1F
100
AcDbEntity
  8
0
  6
DASHED
 62
     4
 48
6.0
100
AcDbLine
 10
474.3796910872655
 20
556.4917553277028
 30
0.0
 11
474.3796910872577
 21
557.9917553277057
 31
0.0
  0
LINE
  5
43B
330
1F
100
AcDbEntity
  8
0
  6
DASHED
 62
     4
 48
6.0
100
AcDbLine
 10
473.3796910872753
 20
556.4917553276982
 30
0.0
 11
474.3796910872655
 21
556.4917553277028
 31
0.0
  0
LINE
  5
43C
330
1F
100
AcDbEntity
  8
0
  6
DASHED
 62
     4
 48
6.0
100
AcDbLine
 10
473.3796910872671
 20
557.9917553277019
 30
0.0
 11
473.3796910872753
 21
556.4917553276982
 31
0.0
  0
LINE
  5
43D
330
1F
100
AcDbEntity
  8
0
  6
DASHED
 62
     4
 48
6.0
100
AcDbLine
 10
471.8796910872641
 20
557.9917553276938
 30
0.0
 11
473.3796910872671
 21
557.9917553277019
 31
0.0
  0
LINE
  5
43E
330
1F
100
AcDbEntity
  8
0
  6
DASHED
 62
     4
 48
6.0
100
AcDbLine
 10
471.879691087246
 20
558.9917553276958
 30
0.0
 11
471.8796910872641
 21
557.9917553276938
 31
0.0
  0
LINE
  5
43F
330
1F
100
AcDbEntity
  8
0
  6
DASHED
 62
     4
 48
6.0
100
AcDbLine
 10
473.3796910872634
 20
558.9917553277041
 30
0.0
 11
471.879691087246
 21
558.9917553276958
 31
0.0
  0
LINE
  5
440
330
1F
100
AcDbEntity
  8
0
  6
DASHED
 62
     4
 48
6.0
100
AcDbLine
 10
473.3796910872533
 20
560.4917553277073
 30
0.0
 11
473.3796910872634
 21
558.9917553277041
 31
0.0
  0
LINE
  5
441
330
1F
100
AcDbEntity
  8
0
  6
DASHED
 62
     4
 48
6.0
100
AcDbLine
 10
474.3796910872434
 20
560.491755327711
 30
0.0
 11
473.3796910872533
 21
560.4917553277073
 31
0.0
  0
LINE
  5
442
330
1F
100
AcDbEntity
  8
0
  6
DASHED
 62
     4
 48
6.0
100
AcDbLine
 10
474.3796910872655
 20
558.9917553277078
 30
0.0
 11
474.3796910872434
 21
560.491755327711
 31
0.0
  0
LINE
  5
443
330
1F
100
AcDbEntity
  8
0
  6
DASHED
 62
     4
 48
6.0
100
AcDbLine
 10
475.8796910872668
 20
558.9917553277161
 30
0.0
 11
474.3796910872655
 21
558.9917553277078
 31
0.0
  0
LINE
  5
444
330
1F
100
AcDbEntity
  8
0
  6
DASHED
 62
     4
 48
6.0
100
AcDbLine
 10
475.8796910872726
 20
557.9917553277141
 30
0.0
 11
475.8796910872668
 21
558.9917553277161
 31
0.0
  0
LINE
  5
445
330
1F
100
AcDbEntity
  8
0
  6
DASHED
 62
     4
 48
6.0
100
AcDbLine
 10
470.7296910872556
 20
553.4917553280243
 30
0.0
 11
470.7296910872338
 21
563.4917553276992
 31
0.0
  0
LINE
  5
446
330
1F
100
AcDbEntity
  8
0
  6
DASHED
 62
     4
 48
6.0
100
AcDbLine
 10
477.029691087221
 20
563.491755327731
 30
0.0
 11
477.0296910872734
 21
553.4917553280226
 31
0.0
  0
LINE
  5
447
330
1F
100
AcDbEntity
  8
0
  6
DASHED
 62
     4
 48
6.0
100
AcDbLine
 10
478.3496910872757
 20
553.4917553280226
 30
0.0
 11
478.3496910872236
 21
563.4917553277387
 31
0.0
  0
LINE
  5
448
330
1F
100
AcDbEntity
  8
0
  6
DASHED
 62
     4
 48
6.0
100
AcDbLine
 10
484.6496910872371
 20
563.4917553277715
 30
0.0
 11
484.6496910872891
 21
553.4917553280205
 31
0.0
  0
LINE
  5
449
330
1F
100
AcDbEntity
  8
0
  6
DASHED
 62
     4
 48
6.0
100
AcDbLine
 10
485.969691087332
 20
553.4917553274602
 30
0.0
 11
485.9696910872655
 21
563.4917553277769
 31
0.0
  0
LINE
  5
44A
330
1F
100
AcDbEntity
  8
0
  6
DASHED
 62
     4
 48
6.0
100
AcDbLine
 10
492.2696910872534
 20
563.4917553278092
 30
0.0
 11
492.2696910873493
 21
553.4917553280163
 31
0.0
  0
LINE
  5
44B
330
1F
100
AcDbEntity
  8
0
  6
DASHED
 62
     4
 48
6.0
100
AcDbLine
 10
493.5896910873522
 20
553.4917553280163
 30
0.0
 11
493.589691087256
 21
563.4917553278174
 31
0.0
  0
LINE
  5
44C
330
1F
100
AcDbEntity
  8
0
  6
DASHED
 62
     4
 48
6.0
100
AcDbLine
 10
499.8896910872693
 20
563.4917553278496
 30
0.0
 11
499.8896910873654
 21
553.4917553280141
 31
0.0
  0
LINE
  5
44D
330
1F
100
AcDbEntity
  8
0
  6
DASHED
 62
     4
 48
6.0
100
AcDbLine
 10
501.2096910873242
 20
553.4917553274542
 30
0.0
 11
501.2096910872721
 21
563.4917553278556
 31
0.0
  0
LINE
  5
44E
330
1F
100
AcDbEntity
  8
0
  6
DASHED
 62
     4
 48
6.0
100
AcDbLine
 10
507.509691087311
 20
563.4917553278873
 30
0.0
 11
507.5096910873776
 21
553.4917553274522
 31
0.0
  0
LINE
  5
44F
330
1F
100
AcDbEntity
  8
0
  6
DASHED
 62
     4
 48
6.0
100
AcDbLine
 10
508.8296910873805
 20
553.4917553274522
 30
0.0
 11
508.8296910873145
 21
563.4917553278957
 31
0.0
  0
LINE
  5
450
330
1F
100
AcDbEntity
  8
0
  6
DASHED
 62
     4
 48
6.0
100
AcDbLine
 10
515.1296910873018
 20
563.4917553279274
 30
0.0
 11
515.129691087398
 21
553.4917553280105
 31
0.0
  0
LINE
  5
451
330
1F
100
AcDbEntity
  8
0
  6
DASHED
 62
     4
 48
6.0
100
AcDbLine
 10
520.2596910873965
 20
554.8117553279354
 30
0.0
 11
516.4496910873882
 21
554.8117553279153
 31
0.0
  0
LINE
  5
452
330
1F
100
AcDbEntity
  8
0
  6
DASHED
 62
     4
 48
6.0
100
AcDbLine
 10
516.4496910873882
 20
554.8117553279153
 30
0.0
 11
516.4496910873305
 21
563.4917553279336
 31
0.0
  0
LINE
  5
453
330
1F
100
AcDbEntity
  8
0
  6
DASHED
 62
     4
 48
6.0
100
AcDbLine
 10
520.2596910872325
 20
562.2006431730187
 30
0.0
 11
517.4937111114807
 21
562.2006431730048
 31
0.0
  0
LINE
  5
454
330
1F
100
AcDbEntity
  8
0
  6
DASHED
 62
     4
 48
6.0
100
AcDbLine
 10
517.4937111114807
 20
562.2006431730048
 30
0.0
 11
517.4937111114251
 21
556.0394536307913
 31
0.0
  0
LINE
  5
455
330
1F
100
AcDbEntity
  8
0
  6
DASHED
 62
     4
 48
6.0
100
AcDbLine
 10
517.4937111115108
 20
556.0394536307913
 30
0.0
 11
520.2596910872646
 21
556.0394536308059
 31
0.0
  0
ARC
  5
456
330
1F
100
AcDbEntity
  8
0
  6
Continuous
 62
     7
100
AcDbCircle
 10
421.6146882559707
 20
598.2668953929996
 30
0.0
 40
8.00000000001828
100
AcDbArc
 50
90.00000000000978
 51
179.9999999999899
  0
LINE
  5
457
330
1F
100
AcDbEntity
  8
0
  6
Continuous
 62
     7
100
AcDbLine
 10
413.6146882559528
 20
576.2668953929544
 30
0.0
 11
413.6146882559528
 21
598.2668953930015
 31
0.0
  0
ARC
  5
458
330
1F
100
AcDbEntity
  8
0
  6
Continuous
 62
     7
100
AcDbCircle
 10
476.1146882560852
 20
585.2668953929734
 30
0.0
 40
9.000000000019213
100
AcDbArc
 50
119.9999999999997
 51
60.00000000000028
  0
LINE
  5
459
330
1F
100
AcDbEntity
  8
0
  6
DASHED
 62
     4
 48
6.0
100
AcDbLine
 10
520.2596910874087
 20
572.4917553274888
 30
0.0
 11
431.9696910870076
 21
572.4917553275186
 31
0.0
  0
LINE
  5
45A
330
1F
100
AcDbEntity
  8
0
  6
DASHED
 62
     4
 48
6.0
100
AcDbLine
 10
470.5696910871393
 20
569.4917553277121
 30
0.0
 11
469.5696910871491
 21
569.4917553277057
 31
0.0
  0
LINE
  5
45B
330
1F
100
AcDbEntity
  8
0
  6
DASHED
 62
     4
 48
6.0
100
AcDbLine
 10
468.0696910871598
 20
566.9917553276929
 30
0.0
 11
469.5696910871633
 21
566.9917553277005
 31
0.0
  0
LINE
  5
45C
330
1F
100
AcDbEntity
  8
0
  6
DASHED
 62
     4
 48
6.0
100
AcDbLine
 10
468.0696910871422
 20
567.9917553276948
 30
0.0
 11
468.0696910871598
 21
566.9917553276929
 31
0.0
  0
LINE
  5
45D
330
1F
100
AcDbEntity
  8
0
  6
DASHED
 62
     4
 48
6.0
100
AcDbLine
 10
469.5696910871573
 20
567.9917553277032
 30
0.0
 11
468.0696910871422
 21
567.9917553276948
 31
0.0
  0
LINE
  5
45E
330
1F
100
AcDbEntity
  8
0
  6
DASHED
 62
     4
 48
6.0
100
AcDbLine
 10
469.5696910871491
 20
569.4917553277057
 30
0.0
 11
469.5696910871573
 21
567.9917553277032
 31
0.0
  0
LINE
  5
45F
330
1F
100
AcDbEntity
  8
0
  6
DASHED
 62
     4
 48
6.0
100
AcDbLine
 10
464.4496910871943
 20
566.9917553276747
 30
0.0
 11
464.4496910871943
 21
566.9917553276747
 31
0.0
  0
LINE
  5
460
330
1F
100
AcDbEntity
  8
0
  6
DASHED
 62
     4
 48
6.0
100
AcDbLine
 10
462.9496910871812
 20
566.9917553276669
 30
0.0
 11
464.4496910871943
 21
566.9917553276747
 31
0.0
  0
LINE
  5
461
330
1F
100
AcDbEntity
  8
0
  6
DASHED
 62
     4
 48
6.0
100
AcDbLine
 10
460.4496910871858
 20
566.991755327653
 30
0.0
 11
461.9496910871911
 21
566.9917553276603
 31
0.0
  0
LINE
  5
462
330
1F
100
AcDbEntity
  8
0
  6
DASHED
 62
     4
 48
6.0
100
AcDbLine
 10
460.44969108717
 20
567.9917553276546
 30
0.0
 11
460.4496910871858
 21
566.991755327653
 31
0.0
  0
LINE
  5
463
330
1F
100
AcDbEntity
  8
0
  6
DASHED
 62
     4
 48
6.0
100
AcDbLine
 10
461.9496910871854
 20
567.9917553276627
 30
0.0
 11
460.44969108717
 21
567.9917553276546
 31
0.0
  0
LINE
  5
464
330
1F
100
AcDbEntity
  8
0
  6
DASHED
 62
     4
 48
6.0
100
AcDbLine
 10
461.9496910871772
 20
569.4917553276662
 30
0.0
 11
461.9496910871854
 21
567.9917553276627
 31
0.0
  0
LINE
  5
465
330
1F
100
AcDbEntity
  8
0
  6
DASHED
 62
     4
 48
6.0
100
AcDbLine
 10
462.9496910871671
 20
569.4917553276723
 30
0.0
 11
461.9496910871772
 21
569.4917553276662
 31
0.0
  0
LINE
  5
466
330
1F
100
AcDbEntity
  8
0
  6
DASHED
 62
     4
 48
6.0
100
AcDbLine
 10
462.9496910871877
 20
567.9917553276688
 30
0.0
 11
462.9496910871671
 21
569.4917553276723
 31
0.0
  0
LINE
  5
467
330
1F
100
AcDbEntity
  8
0
  6
DASHED
 62
     4
 48
6.0
100
AcDbLine
 10
464.4496910871903
 20
567.9917553276768
 30
0.0
 11
462.9496910871877
 21
567.9917553276688
 31
0.0
  0
LINE
  5
468
330
1F
100
AcDbEntity
  8
0
  6
DASHED
 62
     4
 48
6.0
100
AcDbLine
 10
464.4496910871943
 20
566.9917553276747
 30
0.0
 11
464.4496910871903
 21
567.9917553276768
 31
0.0
  0
LINE
  5
469
330
1F
100
AcDbEntity
  8
0
  6
DASHED
 62
     4
 48
6.0
100
AcDbLine
 10
456.8296910871366
 20
566.9917553276349
 30
0.0
 11
456.8296910871366
 21
566.9917553276349
 31
0.0
  0
LINE
  5
46A
330
1F
100
AcDbEntity
  8
0
  6
DASHED
 62
     4
 48
6.0
100
AcDbLine
 10
455.329691087121
 20
566.991755327627
 30
0.0
 11
456.8296910871366
 21
566.9917553276349
 31
0.0
  0
LINE
  5
46B
330
1F
100
AcDbEntity
  8
0
  6
DASHED
 62
     4
 48
6.0
100
AcDbLine
 10
452.8296910871275
 20
566.9917553276145
 30
0.0
 11
454.3296910871313
 21
566.9917553276226
 31
0.0
  0
LINE
  5
46C
330
1F
100
AcDbEntity
  8
0
  6
DASHED
 62
     4
 48
6.0
100
AcDbLine
 10
452.8296910871098
 20
567.9917553276164
 30
0.0
 11
452.8296910871275
 21
566.9917553276145
 31
0.0
  0
LINE
  5
46D
330
1F
100
AcDbEntity
  8
0
  6
DASHED
 62
     4
 48
6.0
100
AcDbLine
 10
454.329691087125
 20
567.9917553276245
 30
0.0
 11
452.8296910871098
 21
567.9917553276164
 31
0.0
  0
LINE
  5
46E
330
1F
100
AcDbEntity
  8
0
  6
DASHED
 62
     4
 48
6.0
100
AcDbLine
 10
454.329691087117
 20
569.491755327628
 30
0.0
 11
454.329691087125
 21
567.9917553276245
 31
0.0
  0
LINE
  5
46F
330
1F
100
AcDbEntity
  8
0
  6
DASHED
 62
     4
 48
6.0
100
AcDbLine
 10
455.3296910871071
 20
569.4917553276325
 30
0.0
 11
454.329691087117
 21
569.491755327628
 31
0.0
  0
LINE
  5
470
330
1F
100
AcDbEntity
  8
0
  6
DASHED
 62
     4
 48
6.0
100
AcDbLine
 10
455.329691087127
 20
567.9917553276287
 30
0.0
 11
455.3296910871071
 21
569.4917553276325
 31
0.0
  0
LINE
  5
471
330
1F
100
AcDbEntity
  8
0
  6
DASHED
 62
     4
 48
6.0
100
AcDbLine
 10
456.8296910871303
 20
567.9917553276368
 30
0.0
 11
455.329691087127
 21
567.9917553276287
 31
0.0
  0
LINE
  5
472
330
1F
100
AcDbEntity
  8
0
  6
DASHED
 62
     4
 48
6.0
100
AcDbLine
 10
456.8296910871366
 20
566.9917553276349
 30
0.0
 11
456.8296910871303
 21
567.9917553276368
 31
0.0
  0
LINE
  5
473
330
1F
100
AcDbEntity
  8
0
  6
DASHED
 62
     4
 48
6.0
100
AcDbLine
 10
449.2096910871199
 20
566.9917553275967
 30
0.0
 11
449.2096910871199
 21
566.9917553275967
 31
0.0
  0
LINE
  5
474
330
1F
100
AcDbEntity
  8
0
  6
DASHED
 62
     4
 48
6.0
100
AcDbLine
 10
447.7096910871049
 20
566.991755327589
 30
0.0
 11
449.2096910871199
 21
566.9917553275967
 31
0.0
  0
LINE
  5
475
330
1F
100
AcDbEntity
  8
0
  6
DASHED
 62
     4
 48
6.0
100
AcDbLine
 10
445.2096910871113
 20
566.9917553275747
 30
0.0
 11
446.7096910871148
 21
566.9917553275828
 31
0.0
  0
LINE
  5
476
330
1F
100
AcDbEntity
  8
0
  6
DASHED
 62
     4
 48
6.0
100
AcDbLine
 10
445.2096910870936
 20
567.9917553275769
 30
0.0
 11
445.2096910871113
 21
566.9917553275747
 31
0.0
  0
LINE
  5
477
330
1F
100
AcDbEntity
  8
0
  6
DASHED
 62
     4
 48
6.0
100
AcDbLine
 10
446.7096910871088
 20
567.9917553275852
 30
0.0
 11
445.2096910870936
 21
567.9917553275769
 31
0.0
  0
LINE
  5
478
330
1F
100
AcDbEntity
  8
0
  6
DASHED
 62
     4
 48
6.0
100
AcDbLine
 10
446.7096910871009
 20
569.4917553275883
 30
0.0
 11
446.7096910871088
 21
567.9917553275852
 31
0.0
  0
LINE
  5
479
330
1F
100
AcDbEntity
  8
0
  6
DASHED
 62
     4
 48
6.0
100
AcDbLine
 10
447.709691087091
 20
569.4917553275943
 30
0.0
 11
446.7096910871009
 21
569.4917553275883
 31
0.0
  0
LINE
  5
47A
330
1F
100
AcDbEntity
  8
0
  6
DASHED
 62
     4
 48
6.0
100
AcDbLine
 10
447.7096910871109
 20
567.9917553275912
 30
0.0
 11
447.709691087091
 21
569.4917553275943
 31
0.0
  0
LINE
  5
47B
330
1F
100
AcDbEntity
  8
0
  6
DASHED
 62
     4
 48
6.0
100
AcDbLine
 10
449.2096910871143
 20
567.991755327599
 30
0.0
 11
447.7096910871109
 21
567.9917553275912
 31
0.0
  0
LINE
  5
47C
330
1F
100
AcDbEntity
  8
0
  6
DASHED
 62
     4
 48
6.0
100
AcDbLine
 10
449.2096910871199
 20
566.9917553275967
 30
0.0
 11
449.2096910871143
 21
567.991755327599
 31
0.0
  0
LINE
  5
47D
330
1F
100
AcDbEntity
  8
0
  6
DASHED
 62
     4
 48
6.0
100
AcDbLine
 10
441.5896910870601
 20
566.991755327557
 30
0.0
 11
441.5896910870601
 21
566.991755327557
 31
0.0
  0
LINE
  5
47E
330
1F
100
AcDbEntity
  8
0
  6
DASHED
 62
     4
 48
6.0
100
AcDbLine
 10
440.0896910870449
 20
566.9917553275491
 30
0.0
 11
441.5896910870601
 21
566.991755327557
 31
0.0
  0
LINE
  5
47F
330
1F
100
AcDbEntity
  8
0
  6
DASHED
 62
     4
 48
6.0
100
AcDbLine
 10
437.5896910870515
 20
566.9917553275367
 30
0.0
 11
439.0896910870544
 21
566.9917553275427
 31
0.0
  0
LINE
  5
480
330
1F
100
AcDbEntity
  8
0
  6
DASHED
 62
     4
 48
6.0
100
AcDbLine
 10
437.5896910870333
 20
567.9917553275386
 30
0.0
 11
437.5896910870515
 21
566.9917553275367
 31
0.0
  0
LINE
  5
481
330
1F
100
AcDbEntity
  8
0
  6
DASHED
 62
     4
 48
6.0
100
AcDbLine
 10
439.0896910870507
 20
567.991755327545
 30
0.0
 11
437.5896910870333
 21
567.9917553275386
 31
0.0
  0
LINE
  5
482
330
1F
100
AcDbEntity
  8
0
  6
DASHED
 62
     4
 48
6.0
100
AcDbLine
 10
439.0896910870406
 20
569.4917553275481
 30
0.0
 11
439.0896910870507
 21
567.991755327545
 31
0.0
  0
LINE
  5
483
330
1F
100
AcDbEntity
  8
0
  6
DASHED
 62
     4
 48
6.0
100
AcDbLine
 10
440.0896910870308
 20
569.4917553275542
 30
0.0
 11
439.0896910870406
 21
569.4917553275481
 31
0.0
  0
LINE
  5
484
330
1F
100
AcDbEntity
  8
0
  6
DASHED
 62
     4
 48
6.0
100
AcDbLine
 10
440.0896910870527
 20
567.9917553275511
 30
0.0
 11
440.0896910870308
 21
569.4917553275542
 31
0.0
  0
LINE
  5
485
330
1F
100
AcDbEntity
  8
0
  6
DASHED
 62
     4
 48
6.0
100
AcDbLine
 10
441.5896910870539
 20
567.9917553275593
 30
0.0
 11
440.0896910870527
 21
567.9917553275511
 31
0.0
  0
LINE
  5
486
330
1F
100
AcDbEntity
  8
0
  6
DASHED
 62
     4
 48
6.0
100
AcDbLine
 10
441.5896910870601
 20
566.991755327557
 30
0.0
 11
441.5896910870539
 21
567.9917553275593
 31
0.0
  0
LINE
  5
487
330
1F
100
AcDbEntity
  8
0
  6
DASHED
 62
     4
 48
6.0
100
AcDbLine
 10
431.9696910870574
 20
571.4950051047518
 30
0.0
 11
434.0214866055418
 21
571.4950051047638
 31
0.0
  0
ARC
  5
488
330
1F
100
AcDbEntity
  8
0
  6
Continuous
 62
     7
100
AcDbCircle
 10
476.1146882560852
 20
594.2668953929929
 30
0.0
 40
4.500000000009531
100
AcDbArc
 50
0.0
 51
180.0
  0
LINE
  5
489
330
1F
100
AcDbEntity
  8
0
  6
Continuous
 62
     7
100
AcDbLine
 10
480.6146882560948
 20
577.4726667588972
 30
0.0
 11
480.6146882560948
 21
577.4726667588972
 31
0.0
  0
LINE
  5
48A
330
1F
100
AcDbEntity
  8
0
  6
Continuous
 62
     7
100
AcDbLine
 10
471.6146882560757
 20
577.4726667588972
 30
0.0
 11
471.6146882560757
 21
577.4726667588972
 31
0.0
  0
LINE
  5
48B
330
1F
100
AcDbEntity
  8
0
  6
Continuous
 62
     7
100
AcDbLine
 10
480.6146882560948
 20
593.06112402705
 30
0.0
 11
480.6146882560948
 21
594.2668953929929
 31
0.0
  0
LINE
  5
48C
330
1F
100
AcDbEntity
  8
0
  6
Continuous
 62
     7
100
AcDbLine
 10
471.6146882560757
 20
593.06112402705
 30
0.0
 11
471.6146882560757
 21
594.2668953929929
 31
0.0
  0
LINE
  5
48D
330
1F
100
AcDbEntity
  8
0
  6
DASHED
 62
     4
 48
6.0
100
AcDbLine
 10
517.7896910872654
 20
566.991755327949
 30
0.0
 11
517.7896910872654
 21
566.991755327949
 31
0.0
  0
LINE
  5
48E
330
1F
100
AcDbEntity
  8
0
  6
DASHED
 62
     4
 48
6.0
100
AcDbLine
 10
516.2896910872501
 20
566.9917553279402
 30
0.0
 11
517.7896910872654
 21
566.991755327949
 31
0.0
  0
LINE
  5
48F
330
1F
100
AcDbEntity
  8
0
  6
DASHED
 62
     4
 48
6.0
100
AcDbLine
 10
513.7896910872568
 20
566.9917553279288
 30
0.0
 11
515.2896910872601
 21
566.9917553279349
 31
0.0
  0
LINE
  5
490
330
1F
100
AcDbEntity
  8
0
  6
DASHED
 62
     4
 48
6.0
100
AcDbLine
 10
513.7896910872391
 20
567.9917553279307
 30
0.0
 11
513.7896910872568
 21
566.9917553279288
 31
0.0
  0
LINE
  5
491
330
1F
100
AcDbEntity
  8
0
  6
DASHED
 62
     4
 48
6.0
100
AcDbLine
 10
515.2896910872543
 20
567.9917553279368
 30
0.0
 11
513.7896910872391
 21
567.9917553279307
 31
0.0
  0
LINE
  5
492
330
1F
100
AcDbEntity
  8
0
  6
DASHED
 62
     4
 48
6.0
100
AcDbLine
 10
515.2896910872461
 20
569.4917553279402
 30
0.0
 11
515.2896910872543
 21
567.9917553279368
 31
0.0
  0
LINE
  5
493
330
1F
100
AcDbEntity
  8
0
  6
DASHED
 62
     4
 48
6.0
100
AcDbLine
 10
516.2896910872364
 20
569.4917553279458
 30
0.0
 11
515.2896910872461
 21
569.4917553279402
 31
0.0
  0
LINE
  5
494
330
1F
100
AcDbEntity
  8
0
  6
DASHED
 62
     4
 48
6.0
100
AcDbLine
 10
516.2896910872563
 20
567.9917553279432
 30
0.0
 11
516.2896910872364
 21
569.4917553279458
 31
0.0
  0
LINE
  5
495
330
1F
100
AcDbEntity
  8
0
  6
DASHED
 62
     4
 48
6.0
100
AcDbLine
 10
517.7896910872593
 20
567.9917553279509
 30
0.0
 11
516.2896910872563
 21
567.9917553279432
 31
0.0
  0
LINE
  5
496
330
1F
100
AcDbEntity
  8
0
  6
DASHED
 62
     4
 48
6.0
100
AcDbLine
 10
517.7896910872654
 20
566.991755327949
 30
0.0
 11
517.7896910872593
 21
567.9917553279509
 31
0.0
  0
LINE
  5
497
330
1F
100
AcDbEntity
  8
0
  6
DASHED
 62
     4
 48
6.0
100
AcDbLine
 10
510.1696910872491
 20
566.9917553279089
 30
0.0
 11
510.1696910872491
 21
566.9917553279089
 31
0.0
  0
LINE
  5
498
330
1F
100
AcDbEntity
  8
0
  6
DASHED
 62
     4
 48
6.0
100
AcDbLine
 10
508.669691087234
 20
566.9917553279008
 30
0.0
 11
510.1696910872491
 21
566.9917553279089
 31
0.0
  0
LINE
  5
499
330
1F
100
AcDbEntity
  8
0
  6
DASHED
 62
     4
 48
6.0
100
AcDbLine
 10
506.1696910872408
 20
566.9917553278887
 30
0.0
 11
507.669691087244
 21
566.9917553278967
 31
0.0
  0
LINE
  5
49A
330
1F
100
AcDbEntity
  8
0
  6
DASHED
 62
     4
 48
6.0
100
AcDbLine
 10
506.1696910872227
 20
567.991755327891
 30
0.0
 11
506.1696910872408
 21
566.9917553278887
 31
0.0
  0
LINE
  5
49B
330
1F
100
AcDbEntity
  8
0
  6
DASHED
 62
     4
 48
6.0
100
AcDbLine
 10
507.6696910872382
 20
567.991755327899
 30
0.0
 11
506.1696910872227
 21
567.991755327891
 31
0.0
  0
LINE
  5
49C
330
1F
100
AcDbEntity
  8
0
  6
DASHED
 62
     4
 48
6.0
100
AcDbLine
 10
507.6696910872298
 20
569.4917553279018
 30
0.0
 11
507.6696910872382
 21
567.991755327899
 31
0.0
  0
LINE
  5
49D
330
1F
100
AcDbEntity
  8
0
  6
DASHED
 62
     4
 48
6.0
100
AcDbLine
 10
508.6696910872201
 20
569.4917553279061
 30
0.0
 11
507.6696910872298
 21
569.4917553279018
 31
0.0
  0
LINE
  5
49E
330
1F
100
AcDbEntity
  8
0
  6
DASHED
 62
     4
 48
6.0
100
AcDbLine
 10
508.6696910872402
 20
567.991755327903
 30
0.0
 11
508.6696910872201
 21
569.4917553279061
 31
0.0
  0
LINE
  5
49F
330
1F
100
AcDbEntity
  8
0
  6
DASHED
 62
     4
 48
6.0
100
AcDbLine
 10
510.1696910872433
 20
567.991755327911
 30
0.0
 11
508.6696910872402
 21
567.991755327903
 31
0.0
  0
LINE
  5
4A0
330
1F
100
AcDbEntity
  8
0
  6
DASHED
 62
     4
 48
6.0
100
AcDbLine
 10
510.1696910872491
 20
566.9917553279089
 30
0.0
 11
510.1696910872433
 21
567.991755327911
 31
0.0
  0
LINE
  5
4A1
330
1F
100
AcDbEntity
  8
0
  6
DASHED
 62
     4
 48
6.0
100
AcDbLine
 10
502.5496910872329
 20
566.9917553278707
 30
0.0
 11
502.5496910872329
 21
566.9917553278707
 31
0.0
  0
LINE
  5
4A2
330
1F
100
AcDbEntity
  8
0
  6
DASHED
 62
     4
 48
6.0
100
AcDbLine
 10
501.0496910872178
 20
566.9917553278631
 30
0.0
 11
502.5496910872329
 21
566.9917553278707
 31
0.0
  0
LINE
  5
4A3
330
1F
100
AcDbEntity
  8
0
  6
DASHED
 62
     4
 48
6.0
100
AcDbLine
 10
498.5496910872246
 20
566.9917553278493
 30
0.0
 11
500.0496910872278
 21
566.9917553278565
 31
0.0
  0
LINE
  5
4A4
330
1F
100
AcDbEntity
  8
0
  6
DASHED
 62
     4
 48
6.0
100
AcDbLine
 10
498.5496910872067
 20
567.9917553278512
 30
0.0
 11
498.5496910872246
 21
566.9917553278493
 31
0.0
  0
LINE
  5
4A5
330
1F
100
AcDbEntity
  8
0
  6
DASHED
 62
     4
 48
6.0
100
AcDbLine
 10
500.0496910872219
 20
567.9917553278593
 30
0.0
 11
498.5496910872067
 21
567.9917553278512
 31
0.0
  0
LINE
  5
4A6
330
1F
100
AcDbEntity
  8
0
  6
DASHED
 62
     4
 48
6.0
100
AcDbLine
 10
500.0496910872138
 20
569.491755327862
 30
0.0
 11
500.0496910872219
 21
567.9917553278593
 31
0.0
  0
LINE
  5
4A7
330
1F
100
AcDbEntity
  8
0
  6
DASHED
 62
     4
 48
6.0
100
AcDbLine
 10
501.0496910872039
 20
569.4917553278683
 30
0.0
 11
500.0496910872138
 21
569.491755327862
 31
0.0
  0
LINE
  5
4A8
330
1F
100
AcDbEntity
  8
0
  6
DASHED
 62
     4
 48
6.0
100
AcDbLine
 10
501.0496910872239
 20
567.9917553278652
 30
0.0
 11
501.0496910872039
 21
569.4917553278683
 31
0.0
  0
LINE
  5
4A9
330
1F
100
AcDbEntity
  8
0
  6
DASHED
 62
     4
 48
6.0
100
AcDbLine
 10
502.5496910872273
 20
567.9917553278727
 30
0.0
 11
501.0496910872239
 21
567.9917553278652
 31
0.0
  0
LINE
  5
4AA
330
1F
100
AcDbEntity
  8
0
  6
DASHED
 62
     4
 48
6.0
100
AcDbLine
 10
502.5496910872329
 20
566.9917553278707
 30
0.0
 11
502.5496910872273
 21
567.9917553278727
 31
0.0
  0
LINE
  5
4AB
330
1F
100
AcDbEntity
  8
0
  6
DASHED
 62
     4
 48
6.0
100
AcDbLine
 10
494.9296910872589
 20
566.991755327831
 30
0.0
 11
494.9296910872589
 21
566.991755327831
 31
0.0
  0
LINE
  5
4AC
330
1F
100
AcDbEntity
  8
0
  6
DASHED
 62
     4
 48
6.0
100
AcDbLine
 10
493.4296910872458
 20
566.9917553278227
 30
0.0
 11
494.9296910872589
 21
566.991755327831
 31
0.0
  0
LINE
  5
4AD
330
1F
100
AcDbEntity
  8
0
  6
DASHED
 62
     4
 48
6.0
100
AcDbLine
 10
490.9296910872503
 20
566.9917553278111
 30
0.0
 11
492.4296910872556
 21
566.9917553278187
 31
0.0
  0
LINE
  5
4AE
330
1F
100
AcDbEntity
  8
0
  6
DASHED
 62
     4
 48
6.0
100
AcDbLine
 10
490.9296910872346
 20
567.9917553278133
 30
0.0
 11
490.9296910872503
 21
566.9917553278111
 31
0.0
  0
LINE
  5
4AF
330
1F
100
AcDbEntity
  8
0
  6
DASHED
 62
     4
 48
6.0
100
AcDbLine
 10
492.42969108725
 20
567.991755327821
 30
0.0
 11
490.9296910872346
 21
567.9917553278133
 31
0.0
  0
LINE
  5
4B0
330
1F
100
AcDbEntity
  8
0
  6
DASHED
 62
     4
 48
6.0
100
AcDbLine
 10
492.429691087241
 20
569.4917553278242
 30
0.0
 11
492.42969108725
 21
567.991755327821
 31
0.0
  0
LINE
  5
4B1
330
1F
100
AcDbEntity
  8
0
  6
DASHED
 62
     4
 48
6.0
100
AcDbLine
 10
493.4296910872316
 20
569.4917553278282
 30
0.0
 11
492.429691087241
 21
569.4917553278242
 31
0.0
  0
LINE
  5
4B2
330
1F
100
AcDbEntity
  8
0
  6
DASHED
 62
     4
 48
6.0
100
AcDbLine
 10
493.4296910872516
 20
567.9917553278244
 30
0.0
 11
493.4296910872316
 21
569.4917553278282
 31
0.0
  0
LINE
  5
4B3
330
1F
100
AcDbEntity
  8
0
  6
DASHED
 62
     4
 48
6.0
100
AcDbLine
 10
494.9296910872548
 20
567.991755327833
 30
0.0
 11
493.4296910872516
 21
567.9917553278244
 31
0.0
  0
LINE
  5
4B4
330
1F
100
AcDbEntity
  8
0
  6
DASHED
 62
     4
 48
6.0
100
AcDbLine
 10
494.9296910872589
 20
566.991755327831
 30
0.0
 11
494.9296910872548
 21
567.991755327833
 31
0.0
  0
LINE
  5
4B5
330
1F
100
AcDbEntity
  8
0
  6
DASHED
 62
     4
 48
6.0
100
AcDbLine
 10
487.3096910872006
 20
566.9917553277912
 30
0.0
 11
487.3096910872006
 21
566.9917553277912
 31
0.0
  0
LINE
  5
4B6
330
1F
100
AcDbEntity
  8
0
  6
DASHED
 62
     4
 48
6.0
100
AcDbLine
 10
485.8096910871855
 20
566.9917553277842
 30
0.0
 11
487.3096910872006
 21
566.9917553277912
 31
0.0
  0
LINE
  5
4B7
330
1F
100
AcDbEntity
  8
0
  6
DASHED
 62
     4
 48
6.0
100
AcDbLine
 10
483.3096910871923
 20
566.9917553277704
 30
0.0
 11
484.8096910871955
 21
566.9917553277788
 31
0.0
  0
LINE
  5
4B8
330
1F
100
AcDbEntity
  8
0
  6
DASHED
 62
     4
 48
6.0
100
AcDbLine
 10
483.309691087174
 20
567.9917553277728
 30
0.0
 11
483.3096910871923
 21
566.9917553277704
 31
0.0
  0
LINE
  5
4B9
330
1F
100
AcDbEntity
  8
0
  6
DASHED
 62
     4
 48
6.0
100
AcDbLine
 10
484.8096910871896
 20
567.9917553277812
 30
0.0
 11
483.309691087174
 21
567.9917553277728
 31
0.0
  0
LINE
  5
4BA
330
1F
100
AcDbEntity
  8
0
  6
DASHED
 62
     4
 48
6.0
100
AcDbLine
 10
484.8096910871816
 20
569.4917553277839
 30
0.0
 11
484.8096910871896
 21
567.9917553277812
 31
0.0
  0
LINE
  5
4BB
330
1F
100
AcDbEntity
  8
0
  6
DASHED
 62
     4
 48
6.0
100
AcDbLine
 10
485.8096910871717
 20
569.4917553277901
 30
0.0
 11
484.8096910871816
 21
569.4917553277839
 31
0.0
  0
LINE
  5
4BC
330
1F
100
AcDbEntity
  8
0
  6
DASHED
 62
     4
 48
6.0
100
AcDbLine
 10
485.8096910871916
 20
567.9917553277866
 30
0.0
 11
485.8096910871717
 21
569.4917553277901
 31
0.0
  0
LINE
  5
4BD
330
1F
100
AcDbEntity
  8
0
  6
DASHED
 62
     4
 48
6.0
100
AcDbLine
 10
487.3096910871947
 20
567.9917553277926
 30
0.0
 11
485.8096910871916
 21
567.9917553277866
 31
0.0
  0
LINE
  5
4BE
330
1F
100
AcDbEntity
  8
0
  6
DASHED
 62
     4
 48
6.0
100
AcDbLine
 10
487.3096910872006
 20
566.9917553277912
 30
0.0
 11
487.3096910871947
 21
567.9917553277926
 31
0.0
  0
LINE
  5
4BF
330
1F
100
AcDbEntity
  8
0
  6
DASHED
 62
     4
 48
6.0
100
AcDbLine
 10
479.6896910872266
 20
566.9917553277532
 30
0.0
 11
479.6896910872266
 21
566.9917553277532
 31
0.0
  0
LINE
  5
4C0
330
1F
100
AcDbEntity
  8
0
  6
DASHED
 62
     4
 48
6.0
100
AcDbLine
 10
478.1896910872135
 20
566.9917553277447
 30
0.0
 11
479.6896910872266
 21
566.9917553277532
 31
0.0
  0
LINE
  5
4C1
330
1F
100
AcDbEntity
  8
0
  6
DASHED
 62
     4
 48
6.0
100
AcDbLine
 10
475.6896910872182
 20
566.9917553277331
 30
0.0
 11
477.1896910872233
 21
566.9917553277383
 31
0.0
  0
LINE
  5
4C2
330
1F
100
AcDbEntity
  8
0
  6
DASHED
 62
     4
 48
6.0
100
AcDbLine
 10
475.6896910872024
 20
567.9917553277354
 30
0.0
 11
475.6896910872182
 21
566.9917553277331
 31
0.0
  0
LINE
  5
4C3
330
1F
100
AcDbEntity
  8
0
  6
DASHED
 62
     4
 48
6.0
100
AcDbLine
 10
477.1896910872177
 20
567.9917553277407
 30
0.0
 11
475.6896910872024
 21
567.9917553277354
 31
0.0
  0
LINE
  5
4C4
330
1F
100
AcDbEntity
  8
0
  6
DASHED
 62
     4
 48
6.0
100
AcDbLine
 10
477.1896910872094
 20
569.4917553277439
 30
0.0
 11
477.1896910872177
 21
567.9917553277407
 31
0.0
  0
LINE
  5
4C5
330
1F
100
AcDbEntity
  8
0
  6
DASHED
 62
     4
 48
6.0
100
AcDbLine
 10
478.1896910871993
 20
569.4917553277503
 30
0.0
 11
477.1896910872094
 21
569.4917553277439
 31
0.0
  0
LINE
  5
4C6
330
1F
100
AcDbEntity
  8
0
  6
DASHED
 62
     4
 48
6.0
100
AcDbLine
 10
478.1896910872198
 20
567.9917553277467
 30
0.0
 11
478.1896910871993
 21
569.4917553277503
 31
0.0
  0
LINE
  5
4C7
330
1F
100
AcDbEntity
  8
0
  6
DASHED
 62
     4
 48
6.0
100
AcDbLine
 10
479.6896910872225
 20
567.9917553277553
 30
0.0
 11
478.1896910872198
 21
567.9917553277467
 31
0.0
  0
LINE
  5
4C8
330
1F
100
AcDbEntity
  8
0
  6
DASHED
 62
     4
 48
6.0
100
AcDbLine
 10
479.6896910872266
 20
566.9917553277532
 30
0.0
 11
479.6896910872225
 21
567.9917553277553
 31
0.0
  0
LINE
  5
4C9
330
1F
100
AcDbEntity
  8
0
  6
DASHED
 62
     4
 48
6.0
100
AcDbLine
 10
472.0696910871683
 20
566.9917553277127
 30
0.0
 11
472.0696910871683
 21
566.9917553277127
 31
0.0
  0
LINE
  5
4CA
330
1F
100
AcDbEntity
  8
0
  6
DASHED
 62
     4
 48
6.0
100
AcDbLine
 10
470.5696910871534
 20
566.9917553277067
 30
0.0
 11
472.0696910871683
 21
566.9917553277127
 31
0.0
  0
LINE
  5
4CB
330
1F
100
AcDbEntity
  8
0
  6
DASHED
 62
     4
 48
6.0
100
AcDbLine
 10
470.5696910871592
 20
567.9917553277089
 30
0.0
 11
470.5696910871393
 21
569.4917553277121
 31
0.0
  0
LINE
  5
4CC
330
1F
100
AcDbEntity
  8
0
  6
DASHED
 62
     4
 48
6.0
100
AcDbLine
 10
472.0696910871627
 20
567.9917553277147
 30
0.0
 11
470.5696910871592
 21
567.9917553277089
 31
0.0
  0
LINE
  5
4CD
330
1F
100
AcDbEntity
  8
0
  6
DASHED
 62
     4
 48
6.0
100
AcDbLine
 10
472.0696910871683
 20
566.9917553277127
 30
0.0
 11
472.0696910871627
 21
567.9917553277147
 31
0.0
  0
ARC
  5
4CE
330
1F
100
AcDbEntity
  8
0
  6
Continuous
 62
     7
100
AcDbCircle
 10
534.1146882562082
 20
567.2668953929347
 30
0.0
 40
4.000000000008598
100
AcDbArc
 50
299.9999999999997
 51
240.0000000000002
  0
LINE
  5
4CF
330
1F
100
AcDbEntity
  8
0
  6
Continuous
 62
     7
100
AcDbLine
 10
536.1146882562122
 20
539.0308293227236
 30
0.0
 11
536.1146882562122
 21
505.266895392804
 31
0.0
  0
LINE
  5
4D0
330
1F
100
AcDbEntity
  8
0
  6
Continuous
 62
     7
100
AcDbLine
 10
532.114688256204
 20
539.0308293227236
 30
0.0
 11
532.114688256204
 21
505.266895392804
 31
0.0
  0
ARC
  5
4D1
330
1F
100
AcDbEntity
  8
0
  6
Continuous
 62
     7
100
AcDbCircle
 10
534.1146882562082
 20
505.266895392804
 30
0.0
 40
2.000000000004235
100
AcDbArc
 50
180.0
 51
0.0
  0
CIRCLE
  5
4D2
330
1F
100
AcDbEntity
  8
0
  6
Continuous
 62
     7
100
AcDbCircle
 10
534.1146882562071
 20
541.2668973002279
 30
0.0
 40
3.000000000006836
  0
LINE
  5
4D3
330
1F
100
AcDbEntity
  8
0
  6
Continuous
 62
     7
 48
6.0
100
AcDbLine
 10
536.1146901717781
 20
540.7668979971595
 30
0.0
 11
536.1146901717781
 21
540.7668979971595
 31
0.0
  0
LINE
  5
4D4
330
1F
100
AcDbEntity
  8
0
  6
Continuous
 62
     7
 48
6.0
100
AcDbLine
 10
534.6146901717628
 20
540.7668979971515
 30
0.0
 11
536.1146901717781
 21
540.7668979971595
 31
0.0
  0
LINE
  5
4D5
330
1F
100
AcDbEntity
  8
0
  6
Continuous
 62
     7
 48
6.0
100
AcDbLine
 10
534.6146901717708
 20
539.266897997148
 30
0.0
 11
534.6146901717628
 21
540.7668979971515
 31
0.0
  0
LINE
  5
4D6
330
1F
100
AcDbEntity
  8
0
  6
Continuous
 62
     7
 48
6.0
100
AcDbLine
 10
533.614690171781
 20
539.2668979971443
 30
0.0
 11
534.6146901717708
 21
539.266897997148
 31
0.0
  0
LINE
  5
4D7
330
1F
100
AcDbEntity
  8
0
  6
Continuous
 62
     7
 48
6.0
100
AcDbLine
 10
533.6146901717746
 20
540.7668979971472
 30
0.0
 11
533.614690171781
 21
539.2668979971443
 31
0.0
  0
LINE
  5
4D8
330
1F
100
AcDbEntity
  8
0
  6
Continuous
 62
     7
 48
6.0
100
AcDbLine
 10
532.1146901717696
 20
540.7668979971389
 30
0.0
 11
533.6146901717746
 21
540.7668979971472
 31
0.0
  0
LINE
  5
4D9
330
1F
100
AcDbEntity
  8
0
  6
Continuous
 62
     7
 48
6.0
100
AcDbLine
 10
532.1146901717536
 20
541.7668979971415
 30
0.0
 11
532.1146901717696
 21
540.7668979971389
 31
0.0
  0
LINE
  5
4DA
330
1F
100
AcDbEntity
  8
0
  6
Continuous
 62
     7
 48
6.0
100
AcDbLine
 10
533.6146901717689
 20
541.7668979971494
 30
0.0
 11
532.1146901717536
 21
541.7668979971415
 31
0.0
  0
LINE
  5
4DB
330
1F
100
AcDbEntity
  8
0
  6
Continuous
 62
     7
 48
6.0
100
AcDbLine
 10
533.6146901717604
 20
543.2668979971524
 30
0.0
 11
533.6146901717689
 21
541.7668979971494
 31
0.0
  0
LINE
  5
4DC
330
1F
100
AcDbEntity
  8
0
  6
Continuous
 62
     7
 48
6.0
100
AcDbLine
 10
534.6146901717514
 20
543.2668979971563
 30
0.0
 11
533.6146901717604
 21
543.2668979971524
 31
0.0
  0
LINE
  5
4DD
330
1F
100
AcDbEntity
  8
0
  6
Continuous
 62
     7
 48
6.0
100
AcDbLine
 10
534.6146901717708
 20
541.7668979971534
 30
0.0
 11
534.6146901717514
 21
543.2668979971563
 31
0.0
  0
LINE
  5
4DE
330
1F
100
AcDbEntity
  8
0
  6
Continuous
 62
     7
 48
6.0
100
AcDbLine
 10
536.1146901717741
 20
541.7668979971616
 30
0.0
 11
534.6146901717708
 21
541.7668979971534
 31
0.0
  0
LINE
  5
4DF
330
1F
100
AcDbEntity
  8
0
  6
Continuous
 62
     7
 48
6.0
100
AcDbLine
 10
536.1146901717781
 20
540.7668979971595
 30
0.0
 11
536.1146901717741
 21
541.7668979971616
 31
0.0
  0
LINE
  5
4E0
330
1F
100
AcDbEntity
  8
0
  6
Continuous
 62
     7
100
AcDbLine
 10
537.1146882562142
 20
541.2668973002284
 30
0.0
 11
537.1146882562142
 21
541.2668973002284
 31
0.0
  0
ARC
  5
4E1
330
1F
100
AcDbEntity
  8
0
  6
Continuous
 62
     7
100
AcDbCircle
 10
540.2146882562203
 20
528.6668986353451
 30
0.0
 40
1.600000000003695
100
AcDbArc
 50
0.0000000000065138
 51
89.99999999999024
  0
LINE
  5
4E2
330
1F
100
AcDbEntity
  8
0
  6
Continuous
 62
     7
100
AcDbLine
 10
540.2146882562208
 20
530.2668986353485
 30
0.0
 11
539.81468825622
 21
530.2668986353485
 31
0.0
  0
LINE
  5
4E3
330
1F
100
AcDbEntity
  8
0
  6
Continuous
 62
     7
100
AcDbLine
 10
540.2146882562208
 20
524.2668986353366
 30
0.0
 11
539.81468825622
 21
524.2668986353366
 31
0.0
  0
ARC
  5
4E4
330
1F
100
AcDbEntity
  8
0
  6
Continuous
 62
     7
100
AcDbCircle
 10
540.2146882562203
 20
525.8668986353402
 30
0.0
 40
1.600000000003751
100
AcDbArc
 50
270.0000000000094
 51
359.9999999999868
  0
LINE
  5
4E5
330
1F
100
AcDbEntity
  8
0
  6
Continuous
 62
     7
100
AcDbLine
 10
541.8146882562242
 20
528.6668986353451
 30
0.0
 11
541.8146882562242
 21
525.8668986353397
 31
0.0
  0
LINE
  5
4E6
330
1F
100
AcDbEntity
  8
0
  6
Continuous
 62
     7
100
AcDbLine
 10
536.1146882562122
 20
563.80279377779
 30
0.0
 11
536.1146882562122
 21
543.502965277733
 31
0.0
  0
LINE
  5
4E7
330
1F
100
AcDbEntity
  8
0
  6
Continuous
 62
     7
100
AcDbLine
 10
532.114688256204
 20
563.80279377779
 30
0.0
 11
532.114688256204
 21
543.502965277733
 31
0.0
  0
ARC
  5
4E8
330
1F
100
AcDbEntity
  8
0
  6
Continuous
 62
     7
100
AcDbCircle
 10
692.8146882565441
 20
551.2668953929013
 30
0.0
 40
6.000000000012706
100
AcDbArc
 50
90.0
 51
270.0
  0
ARC
  5
4E9
330
1F
100
AcDbEntity
  8
0
  6
Continuous
 62
     7
100
AcDbCircle
 10
669.4146882564949
 20
540.2668953928785
 30
0.0
 40
2.000000000004744
100
AcDbArc
 50
180.0000000000094
 51
269.9999999999902
  0
ARC
  5
4EA
330
1F
100
AcDbEntity
  8
0
  6
Continuous
 62
     7
100
AcDbCircle
 10
669.4146882564949
 20
542.2668953928819
 30
0.0
 40
2.000000000004575
100
AcDbArc
 50
90.00000000000651
 51
179.9999999999899
  0
ARC
  5
4EB
330
1F
100
AcDbEntity
  8
0
  6
Continuous
 62
     7
100
AcDbCircle
 10
669.4146882564949
 20
540.2668953928785
 30
0.0
 40
2.000000000004744
100
AcDbArc
 50
180.0000000000094
 51
269.9999999999902
  0
LINE
  5
4EC
330
1F
100
AcDbEntity
  8
0
  6
Continuous
 62
     7
100
AcDbLine
 10
667.4146882564902
 20
542.2668953928823
 30
0.0
 11
667.4146882564902
 21
540.2668953928785
 31
0.0
  0
LINE
  5
4ED
330
1F
100
AcDbEntity
  8
0
  6
Continuous
 62
     7
100
AcDbLine
 10
669.9146882564955
 20
538.2668953928738
 30
0.0
 11
669.4146882564949
 21
538.2668953928738
 31
0.0
  0
LINE
  5
4EE
330
1F
100
AcDbEntity
  8
0
  6
Continuous
 62
     7
100
AcDbLine
 10
669.9146882564955
 20
544.2668953928869
 30
0.0
 11
669.4146882564949
 21
544.2668953928869
 31
0.0
  0
LINE
  5
4EF
330
1F
100
AcDbEntity
  8
0
  6
Continuous
 62
     7
100
AcDbLine
 10
702.9146882565656
 20
547.2668953928928
 30
0.0
 11
702.9146882565656
 21
545.2668953928887
 31
0.0
  0
LINE
  5
4F0
330
1F
100
AcDbEntity
  8
0
  6
Continuous
 62
     7
100
AcDbLine
 10
702.9146882565656
 20
557.2668953929142
 30
0.0
 11
702.9146882565656
 21
555.2668953929098
 31
0.0
  0
LINE
  5
4F1
330
1F
100
AcDbEntity
  8
0
  6
Continuous
 62
     7
100
AcDbLine
 10
701.7146882565632
 20
547.2668953928928
 30
0.0
 11
701.7146882565632
 21
555.2668953929098
 31
0.0
  0
LINE
  5
4F2
330
1F
100
AcDbEntity
  8
0
  6
Continuous
 62
     7
100
AcDbLine
 10
702.9146882565656
 20
555.2668953929098
 30
0.0
 11
701.7146882565632
 21
555.2668953929098
 31
0.0
  0
LINE
  5
4F3
330
1F
100
AcDbEntity
  8
0
  6
Continuous
 62
     7
100
AcDbLine
 10
702.9146882565656
 20
547.2668953928928
 30
0.0
 11
701.7146882565632
 21
547.2668953928928
 31
0.0
  0
LINE
  5
4F4
330
1F
100
AcDbEntity
  8
0
  6
Continuous
 62
     7
100
AcDbLine
 10
702.9146882565656
 20
545.2668953928887
 30
0.0
 11
692.8146882565441
 21
545.2668953928887
 31
0.0
  0
LINE
  5
4F5
330
1F
100
AcDbEntity
  8
0
  6
Continuous
 62
     7
100
AcDbLine
 10
702.9146882565656
 20
557.2668953929142
 30
0.0
 11
692.8146882565441
 21
557.2668953929142
 31
0.0
  0
ARC
  5
4F6
330
1F
100
AcDbEntity
  8
0
  6
Continuous
 62
     7
100
AcDbCircle
 10
530.6146882561988
 20
598.2668953930002
 30
0.0
 40
8.000000000018079
100
AcDbArc
 50
0.0000000000065138
 51
89.99999999999024
  0
LINE
  5
4F7
330
1F
100
AcDbEntity
  8
0
  6
Continuous
 62
     7
100
AcDbLine
 10
538.6146882562175
 20
598.2668953930015
 30
0.0
 11
538.6146882562175
 21
576.2668953929544
 31
0.0
  0
CIRCLE
  5
4F8
330
1F
100
AcDbEntity
  8
0
  6
Continuous
 62
     7
100
AcDbCircle
 10
778.6146928343607
 20
327.2668986349183
 30
0.0
 40
5.000000000011436
  0
CIRCLE
  5
4F9
330
1F
100
AcDbEntity
  8
0
  6
Continuous
 62
     7
100
AcDbCircle
 10
778.6146928343607
 20
327.2668986349183
 30
0.0
 40
3.900000000009486
  0
LINE
  5
4FA
330
1F
100
AcDbEntity
  8
0
  6
Continuous
 62
     7
100
AcDbLine
 10
782.51469283437
 20
327.2668986349191
 30
0.0
 11
782.51469283437
 21
327.2668986349191
 31
0.0
  0
LINE
  5
4FB
330
1F
100
AcDbEntity
  8
0
  6
Continuous
 62
     7
 48
6.0
100
AcDbLine
 10
781.2146953246053
 20
326.6168995409294
 30
0.0
 11
781.2146953246053
 21
326.6168995409294
 31
0.0
  0
LINE
  5
4FC
330
1F
100
AcDbEntity
  8
0
  6
Continuous
 62
     7
 48
6.0
100
AcDbLine
 10
779.2646953245848
 20
326.6168995409198
 30
0.0
 11
781.2146953246053
 21
326.6168995409294
 31
0.0
  0
LINE
  5
4FD
330
1F
100
AcDbEntity
  8
0
  6
Continuous
 62
     7
 48
6.0
100
AcDbLine
 10
779.2646953245951
 20
324.6668995409149
 30
0.0
 11
779.2646953245848
 21
326.6168995409198
 31
0.0
  0
LINE
  5
4FE
330
1F
100
AcDbEntity
  8
0
  6
Continuous
 62
     7
 48
6.0
100
AcDbLine
 10
777.9646953246083
 20
324.6668995409075
 30
0.0
 11
779.2646953245951
 21
324.6668995409149
 31
0.0
  0
LINE
  5
4FF
330
1F
100
AcDbEntity
  8
0
  6
Continuous
 62
     7
 48
6.0
100
AcDbLine
 10
777.9646953245985
 20
326.6168995409116
 30
0.0
 11
777.9646953246083
 21
324.6668995409075
 31
0.0
  0
LINE
  5
500
330
1F
100
AcDbEntity
  8
0
  6
Continuous
 62
     7
 48
6.0
100
AcDbLine
 10
776.0146953245944
 20
326.6168995409016
 30
0.0
 11
777.9646953245985
 21
326.6168995409116
 31
0.0
  0
LINE
  5
501
330
1F
100
AcDbEntity
  8
0
  6
Continuous
 62
     7
 48
6.0
100
AcDbLine
 10
776.0146953245724
 20
327.9168995409044
 30
0.0
 11
776.0146953245944
 21
326.6168995409016
 31
0.0
  0
LINE
  5
502
330
1F
100
AcDbEntity
  8
0
  6
Continuous
 62
     7
 48
6.0
100
AcDbLine
 10
777.9646953245926
 20
327.9168995409143
 30
0.0
 11
776.0146953245724
 21
327.9168995409044
 31
0.0
  0
LINE
  5
503
330
1F
100
AcDbEntity
  8
0
  6
Continuous
 62
     7
 48
6.0
100
AcDbLine
 10
777.9646953245807
 20
329.8668995409185
 30
0.0
 11
777.9646953245926
 21
327.9168995409143
 31
0.0
  0
LINE
  5
504
330
1F
100
AcDbEntity
  8
0
  6
Continuous
 62
     7
 48
6.0
100
AcDbLine
 10
779.2646953245694
 20
329.8668995409266
 30
0.0
 11
777.9646953245807
 21
329.8668995409185
 31
0.0
  0
LINE
  5
505
330
1F
100
AcDbEntity
  8
0
  6
Continuous
 62
     7
 48
6.0
100
AcDbLine
 10
779.2646953245951
 20
327.9168995409227
 30
0.0
 11
779.2646953245694
 21
329.8668995409266
 31
0.0
  0
LINE
  5
506
330
1F
100
AcDbEntity
  8
0
  6
Continuous
 62
     7
 48
6.0
100
AcDbLine
 10
781.2146953245973
 20
327.9168995409321
 30
0.0
 11
779.2646953245951
 21
327.9168995409227
 31
0.0
  0
LINE
  5
507
330
1F
100
AcDbEntity
  8
0
  6
Continuous
 62
     7
 48
6.0
100
AcDbLine
 10
781.2146953246053
 20
326.6168995409294
 30
0.0
 11
781.2146953245973
 21
327.9168995409321
 31
0.0
  0
LINE
  5
508
330
1F
100
AcDbEntity
  8
0
  6
Continuous
 62
     7
100
AcDbLine
 10
783.6146928343719
 20
327.2668986349191
 30
0.0
 11
783.6146928343719
 21
327.2668986349191
 31
0.0
  0
CIRCLE
  5
509
330
1F
100
AcDbEntity
  8
0
  6
Continuous
 62
     7
100
AcDbCircle
 10
778.614692834361
 20
527.2668986353417
 30
0.0
 40
5.000000000010816
  0
CIRCLE
  5
50A
330
1F
100
AcDbEntity
  8
0
  6
Continuous
 62
     7
100
AcDbCircle
 10
778.614692834361
 20
527.2668986353417
 30
0.0
 40
3.900000000008862
  0
LINE
  5
50B
330
1F
100
AcDbEntity
  8
0
  6
Continuous
 62
     7
100
AcDbLine
 10
782.51469283437
 20
527.2668986353428
 30
0.0
 11
782.51469283437
 21
527.2668986353428
 31
0.0
  0
LINE
  5
50C
330
1F
100
AcDbEntity
  8
0
  6
Continuous
 62
     7
 48
6.0
100
AcDbLine
 10
781.2146953246053
 20
526.6168995413535
 30
0.0
 11
781.2146953246053
 21
526.6168995413535
 31
0.0
  0
LINE
  5
50D
330
1F
100
AcDbEntity
  8
0
  6
Continuous
 62
     7
 48
6.0
100
AcDbLine
 10
779.2646953245848
 20
526.6168995413436
 30
0.0
 11
781.2146953246053
 21
526.6168995413535
 31
0.0
  0
LINE
  5
50E
330
1F
100
AcDbEntity
  8
0
  6
Continuous
 62
     7
 48
6.0
100
AcDbLine
 10
779.2646953245951
 20
524.6668995413394
 30
0.0
 11
779.2646953245848
 21
526.6168995413436
 31
0.0
  0
LINE
  5
50F
330
1F
100
AcDbEntity
  8
0
  6
Continuous
 62
     7
 48
6.0
100
AcDbLine
 10
777.9646953246083
 20
524.6668995413313
 30
0.0
 11
779.2646953245951
 21
524.6668995413394
 31
0.0
  0
LINE
  5
510
330
1F
100
AcDbEntity
  8
0
  6
Continuous
 62
     7
 48
6.0
100
AcDbLine
 10
777.9646953245985
 20
526.6168995413352
 30
0.0
 11
777.9646953246083
 21
524.6668995413313
 31
0.0
  0
LINE
  5
511
330
1F
100
AcDbEntity
  8
0
  6
Continuous
 62
     7
 48
6.0
100
AcDbLine
 10
776.0146953245944
 20
526.6168995413253
 30
0.0
 11
777.9646953245985
 21
526.6168995413352
 31
0.0
  0
LINE
  5
512
330
1F
100
AcDbEntity
  8
0
  6
Continuous
 62
     7
 48
6.0
100
AcDbLine
 10
776.0146953245724
 20
527.9168995413282
 30
0.0
 11
776.0146953245944
 21
526.6168995413253
 31
0.0
  0
LINE
  5
513
330
1F
100
AcDbEntity
  8
0
  6
Continuous
 62
     7
 48
6.0
100
AcDbLine
 10
777.9646953245926
 20
527.9168995413377
 30
0.0
 11
776.0146953245724
 21
527.9168995413282
 31
0.0
  0
LINE
  5
514
330
1F
100
AcDbEntity
  8
0
  6
Continuous
 62
     7
 48
6.0
100
AcDbLine
 10
777.9646953245807
 20
529.8668995413422
 30
0.0
 11
777.9646953245926
 21
527.9168995413377
 31
0.0
  0
LINE
  5
515
330
1F
100
AcDbEntity
  8
0
  6
Continuous
 62
     7
 48
6.0
100
AcDbLine
 10
779.2646953245673
 20
529.8668995413504
 30
0.0
 11
777.9646953245807
 21
529.8668995413422
 31
0.0
  0
LINE
  5
516
330
1F
100
AcDbEntity
  8
0
  6
Continuous
 62
     7
 48
6.0
100
AcDbLine
 10
779.2646953245951
 20
527.9168995413455
 30
0.0
 11
779.2646953245673
 21
529.8668995413504
 31
0.0
  0
LINE
  5
517
330
1F
100
AcDbEntity
  8
0
  6
Continuous
 62
     7
 48
6.0
100
AcDbLine
 10
781.2146953245973
 20
527.9168995413562
 30
0.0
 11
779.2646953245951
 21
527.9168995413455
 31
0.0
  0
LINE
  5
518
330
1F
100
AcDbEntity
  8
0
  6
Continuous
 62
     7
 48
6.0
100
AcDbLine
 10
781.2146953246053
 20
526.6168995413535
 30
0.0
 11
781.2146953245973
 21
527.9168995413562
 31
0.0
  0
LINE
  5
519
330
1F
100
AcDbEntity
  8
0
  6
Continuous
 62
     7
100
AcDbLine
 10
783.6146928343719
 20
527.2668986353428
 30
0.0
 11
783.6146928343719
 21
527.2668986353428
 31
0.0
  0
LINE
  5
51A
330
1F
100
AcDbEntity
  8
0
  6
Continuous
 62
     7
100
AcDbLine
 10
860.1146882568977
 20
606.2668953930181
 30
0.0
 11
858.9146882568961
 21
606.2668953930181
 31
0.0
  0
LINE
  5
51B
330
1F
100
AcDbEntity
  8
0
  6
Continuous
 62
     7
100
AcDbLine
 10
858.9146882568961
 20
576.2668953929544
 30
0.0
 11
858.9146882568961
 21
606.2668953930181
 31
0.0
  0
LINE
  5
6F3
330
1F
100
AcDbEntity
  8
0
  6
Continuous
 62
     7
100
AcDbLine
 10
422.614688255972
 20
490.2668953927725
 30
0.0
 11
422.614688255972
 21
390.2668953925606
 31
0.0
  0
LINE
  5
6F4
330
1F
100
AcDbEntity
  8
0
  6
Continuous
 62
     7
100
AcDbLine
 10
472.6146882560779
 20
490.2668953927725
 30
0.0
 11
472.6146882560779
 21
390.2668953925606
 31
0.0
  0
LINE
  5
6F5
330
1F
100
AcDbEntity
  8
0
  6
Continuous
 62
     7
100
AcDbLine
 10
425.6146882559782
 20
482.2668953927554
 30
0.0
 11
425.6146882559782
 21
419.7668953926231
 31
0.0
  0
LINE
  5
6F6
330
1F
100
AcDbEntity
  8
0
  6
Continuous
 62
     7
100
AcDbLine
 10
469.6146882560714
 20
482.2668953927554
 30
0.0
 11
469.6146882560714
 21
419.7668953926231
 31
0.0
  0
LINE
  5
6F7
330
1F
100
AcDbEntity
  8
0
  6
Continuous
 62
     7
100
AcDbLine
 10
469.6146882560714
 20
482.2668953927554
 30
0.0
 11
469.6146882560714
 21
419.7668953926231
 31
0.0
  0
LINE
  5
6F8
330
1F
100
AcDbEntity
  8
0
  6
Continuous
 62
     7
100
AcDbLine
 10
425.6146882559782
 20
482.2668953927554
 30
0.0
 11
425.6146882559782
 21
419.7668953926231
 31
0.0
  0
LINE
  5
6F9
330
1F
100
AcDbEntity
  8
0
  6
Continuous
 62
     7
100
AcDbLine
 10
428.6146882559846
 20
431.7668953926484
 30
0.0
 11
428.6146882559846
 21
428.7668953926419
 31
0.0
  0
LINE
  5
6FA
330
1F
100
AcDbEntity
  8
0
  6
Continuous
 62
     7
100
AcDbLine
 10
436.6146882560014
 20
431.7668953926484
 30
0.0
 11
436.6146882560014
 21
428.7668953926419
 31
0.0
  0
LINE
  5
6FB
330
1F
100
AcDbEntity
  8
0
  6
Continuous
 62
     7
100
AcDbLine
 10
438.6146882560058
 20
431.7668953926484
 30
0.0
 11
438.6146882560058
 21
428.7668953926419
 31
0.0
  0
LINE
  5
6FC
330
1F
100
AcDbEntity
  8
0
  6
Continuous
 62
     7
100
AcDbLine
 10
446.6146882560228
 20
431.7668953926484
 30
0.0
 11
446.6146882560228
 21
428.7668953926419
 31
0.0
  0
LINE
  5
6FD
330
1F
100
AcDbEntity
  8
0
  6
Continuous
 62
     7
100
AcDbLine
 10
448.6146882560269
 20
431.7668953926484
 30
0.0
 11
448.6146882560269
 21
428.7668953926419
 31
0.0
  0
LINE
  5
6FE
330
1F
100
AcDbEntity
  8
0
  6
Continuous
 62
     7
100
AcDbLine
 10
456.6146882560438
 20
431.7668953926484
 30
0.0
 11
456.6146882560438
 21
428.7668953926419
 31
0.0
  0
LINE
  5
6FF
330
1F
100
AcDbEntity
  8
0
  6
Continuous
 62
     7
100
AcDbLine
 10
458.6146882560482
 20
431.7668953926484
 30
0.0
 11
458.6146882560482
 21
428.7668953926419
 31
0.0
  0
LINE
  5
700
330
1F
100
AcDbEntity
  8
0
  6
Continuous
 62
     7
100
AcDbLine
 10
466.6146882560651
 20
431.7668953926484
 30
0.0
 11
466.6146882560651
 21
428.7668953926419
 31
0.0
  0
LINE
  5
709
330
1F
100
AcDbEntity
  8
0
  6
Continuous
 62
     7
100
AcDbLine
 10
424.614688255976
 20
388.2668953925561
 30
0.0
 11
470.6146882560736
 21
388.2668953925561
 31
0.0
  0
ARC
  5
70A
330
1F
100
AcDbEntity
  8
0
  6
Continuous
 62
     7
100
AcDbCircle
 10
424.6146882559763
 20
390.2668953925606
 30
0.0
 40
2.000000000004662
100
AcDbArc
 50
180.0000000000032
 51
269.999999999987
  0
ARC
  5
70B
330
1F
100
AcDbEntity
  8
0
  6
Continuous
 62
     7
100
AcDbCircle
 10
447.6146882560248
 20
391.2668953925626
 30
0.0
 40
4.000000000008471
100
AcDbArc
 50
0.0
 51
180.0
  0
ARC
  5
70C
330
1F
100
AcDbEntity
  8
0
  6
Continuous
 62
     7
100
AcDbCircle
 10
426.6146882559803
 20
419.7668953926231
 30
0.0
 40
1.00000000000243
100
AcDbArc
 50
180.0000000000062
 51
269.9999999999837
  0
LINE
  5
70D
330
1F
100
AcDbEntity
  8
0
  6
Continuous
 62
     7
100
AcDbLine
 10
451.6146882560334
 20
391.2668953925626
 30
0.0
 11
451.6146882560334
 21
388.2668953925561
 31
0.0
  0
LINE
  5
70E
330
1F
100
AcDbEntity
  8
0
  6
Continuous
 62
     7
100
AcDbLine
 10
443.6146882560164
 20
391.2668953925626
 30
0.0
 11
443.6146882560164
 21
388.2668953925561
 31
0.0
  0
ARC
  5
70F
330
1F
100
AcDbEntity
  8
0
  6
Continuous
 62
     7
100
AcDbCircle
 10
468.6146882560688
 20
419.7668953926231
 30
0.0
 40
1.000000000002459
100
AcDbArc
 50
270.0000000000162
 51
359.9999999999933
  0
LINE
  5
710
330
1F
100
AcDbEntity
  8
0
  6
Continuous
 62
     7
100
AcDbLine
 10
426.6146882559803
 20
418.7668953926206
 30
0.0
 11
468.6146882560692
 21
418.7668953926206
 31
0.0
  0
LINE
  5
711
330
1F
100
AcDbEntity
  8
0
  6
Continuous
 62
     7
100
AcDbLine
 10
430.8646882559894
 20
414.266895392611
 30
0.0
 11
464.3646882560603
 21
414.266895392611
 31
0.0
  0
LINE
  5
712
330
1F
100
AcDbEntity
  8
0
  6
Continuous
 62
     7
100
AcDbLine
 10
430.8646882559894
 20
414.266895392611
 30
0.0
 11
430.8646882559894
 21
399.2668953925798
 31
0.0
  0
LINE
  5
713
330
1F
100
AcDbEntity
  8
0
  6
Continuous
 62
     7
100
AcDbLine
 10
430.8646882559894
 20
399.2668953925798
 30
0.0
 11
464.3646882560603
 21
399.2668953925798
 31
0.0
  0
LINE
  5
714
330
1F
100
AcDbEntity
  8
0
  6
Continuous
 62
     7
100
AcDbLine
 10
464.3646882560603
 20
414.266895392611
 30
0.0
 11
464.3646882560603
 21
399.2668953925798
 31
0.0
  0
LINE
  5
715
330
1F
100
AcDbEntity
  8
0
  6
Continuous
 62
     7
100
AcDbLine
 10
463.8646882560593
 20
413.7668953926102
 30
0.0
 11
464.3646882560603
 21
414.266895392611
 31
0.0
  0
LINE
  5
716
330
1F
100
AcDbEntity
  8
0
  6
Continuous
 62
     7
100
AcDbLine
 10
463.5646882560584
 20
413.4668953926097
 30
0.0
 11
462.6646882560565
 21
412.566895392608
 31
0.0
  0
LINE
  5
717
330
1F
100
AcDbEntity
  8
0
  6
Continuous
 62
     7
100
AcDbLine
 10
463.8646882560593
 20
399.7668953925804
 30
0.0
 11
464.3646882560603
 21
399.2668953925798
 31
0.0
  0
LINE
  5
718
330
1F
100
AcDbEntity
  8
0
  6
Continuous
 62
     7
100
AcDbLine
 10
463.5646882560584
 20
400.0668953925814
 30
0.0
 11
462.6646882560565
 21
400.9668953925833
 31
0.0
  0
LINE
  5
719
330
1F
100
AcDbEntity
  8
0
  6
Continuous
 62
     7
100
AcDbLine
 10
432.5646882559929
 20
400.9668953925833
 30
0.0
 11
431.664688255991
 21
400.0668953925814
 31
0.0
  0
LINE
  5
71A
330
1F
100
AcDbEntity
  8
0
  6
Continuous
 62
     7
100
AcDbLine
 10
431.3646882559903
 20
399.7668953925804
 30
0.0
 11
430.8646882559894
 21
399.2668953925798
 31
0.0
  0
LINE
  5
71B
330
1F
100
AcDbEntity
  8
0
  6
Continuous
 62
     7
100
AcDbLine
 10
432.5646882559929
 20
412.566895392608
 30
0.0
 11
431.664688255991
 21
413.4668953926097
 31
0.0
  0
LINE
  5
71C
330
1F
100
AcDbEntity
  8
0
  6
Continuous
 62
     7
100
AcDbLine
 10
431.3646882559903
 20
413.7668953926102
 30
0.0
 11
430.8646882559894
 21
414.266895392611
 31
0.0
  0
LINE
  5
71D
330
1F
100
AcDbEntity
  8
0
  6
Continuous
 62
     7
100
AcDbLine
 10
432.5646882559929
 20
412.566895392608
 30
0.0
 11
462.6646882560565
 21
412.566895392608
 31
0.0
  0
LINE
  5
71E
330
1F
100
AcDbEntity
  8
0
  6
Continuous
 62
     7
100
AcDbLine
 10
432.5646882559929
 20
400.9668953925833
 30
0.0
 11
462.6646882560565
 21
400.9668953925833
 31
0.0
  0
LINE
  5
71F
330
1F
100
AcDbEntity
  8
0
  6
Continuous
 62
     7
100
AcDbLine
 10
432.5646882559929
 20
412.566895392608
 30
0.0
 11
432.5646882559929
 21
400.9668953925833
 31
0.0
  0
LINE
  5
720
330
1F
100
AcDbEntity
  8
0
  6
Continuous
 62
     7
100
AcDbLine
 10
462.6646882560565
 20
412.566895392608
 30
0.0
 11
462.6646882560565
 21
400.9668953925833
 31
0.0
  0
LINE
  5
721
330
1F
100
AcDbEntity
  8
0
  6
Continuous
 62
     7
100
AcDbLine
 10
456.6146882560438
 20
400.2668953925816
 30
0.0
 11
456.6146882560438
 21
399.7668953925804
 31
0.0
  0
LINE
  5
722
330
1F
100
AcDbEntity
  8
0
  6
Continuous
 62
     7
100
AcDbLine
 10
458.6146882560482
 20
400.2668953925816
 30
0.0
 11
458.6146882560482
 21
399.7668953925804
 31
0.0
  0
LINE
  5
723
330
1F
100
AcDbEntity
  8
0
  6
Continuous
 62
     7
100
AcDbLine
 10
446.6146882560228
 20
400.2668953925816
 30
0.0
 11
446.6146882560228
 21
399.7668953925804
 31
0.0
  0
LINE
  5
724
330
1F
100
AcDbEntity
  8
0
  6
Continuous
 62
     7
100
AcDbLine
 10
448.6146882560269
 20
400.2668953925816
 30
0.0
 11
448.6146882560269
 21
399.7668953925804
 31
0.0
  0
LINE
  5
725
330
1F
100
AcDbEntity
  8
0
  6
Continuous
 62
     7
100
AcDbLine
 10
436.6146882560014
 20
400.2668953925816
 30
0.0
 11
436.6146882560014
 21
399.7668953925804
 31
0.0
  0
LINE
  5
726
330
1F
100
AcDbEntity
  8
0
  6
Continuous
 62
     7
100
AcDbLine
 10
438.6146882560058
 20
400.2668953925816
 30
0.0
 11
438.6146882560058
 21
399.7668953925804
 31
0.0
  0
LINE
  5
727
330
1F
100
AcDbEntity
  8
0
  6
Continuous
 62
     7
100
AcDbLine
 10
431.3646882559903
 20
407.7668953925975
 30
0.0
 11
431.8646882559916
 21
407.7668953925975
 31
0.0
  0
LINE
  5
728
330
1F
100
AcDbEntity
  8
0
  6
Continuous
 62
     7
100
AcDbLine
 10
431.3646882559903
 20
405.7668953925933
 30
0.0
 11
431.8646882559916
 21
405.7668953925933
 31
0.0
  0
LINE
  5
729
330
1F
100
AcDbEntity
  8
0
  6
Continuous
 62
     7
100
AcDbLine
 10
431.3646882559903
 20
413.7668953926102
 30
0.0
 11
463.8646882560593
 21
413.7668953926102
 31
0.0
  0
LINE
  5
72A
330
1F
100
AcDbEntity
  8
0
  6
Continuous
 62
     7
100
AcDbLine
 10
431.3646882559903
 20
399.7668953925804
 30
0.0
 11
463.8646882560593
 21
399.7668953925804
 31
0.0
  0
LINE
  5
72B
330
1F
100
AcDbEntity
  8
0
  6
Continuous
 62
     7
100
AcDbLine
 10
431.3646882559903
 20
413.7668953926102
 30
0.0
 11
431.3646882559903
 21
399.7668953925804
 31
0.0
  0
LINE
  5
72C
330
1F
100
AcDbEntity
  8
0
  6
Continuous
 62
     7
100
AcDbLine
 10
463.8646882560593
 20
413.7668953926102
 30
0.0
 11
463.8646882560593
 21
399.7668953925804
 31
0.0
  0
LINE
  5
72D
330
1F
100
AcDbEntity
  8
0
  6
Continuous
 62
     7
100
AcDbLine
 10
431.664688255991
 20
400.0668953925814
 30
0.0
 11
436.6146882560014
 21
400.0668953925814
 31
0.0
  0
LINE
  5
72E
330
1F
100
AcDbEntity
  8
0
  6
Continuous
 62
     7
100
AcDbLine
 10
436.6146882560014
 20
400.2668953925816
 30
0.0
 11
438.6146882560058
 21
400.2668953925816
 31
0.0
  0
LINE
  5
72F
330
1F
100
AcDbEntity
  8
0
  6
Continuous
 62
     7
100
AcDbLine
 10
446.6146882560228
 20
400.2668953925816
 30
0.0
 11
448.6146882560269
 21
400.2668953925816
 31
0.0
  0
LINE
  5
730
330
1F
100
AcDbEntity
  8
0
  6
Continuous
 62
     7
100
AcDbLine
 10
456.6146882560438
 20
400.2668953925816
 30
0.0
 11
458.6146882560482
 21
400.2668953925816
 31
0.0
  0
LINE
  5
731
330
1F
100
AcDbEntity
  8
0
  6
Continuous
 62
     7
100
AcDbLine
 10
458.6146882560482
 20
400.0668953925814
 30
0.0
 11
463.5646882560584
 21
400.0668953925814
 31
0.0
  0
LINE
  5
732
330
1F
100
AcDbEntity
  8
0
  6
Continuous
 62
     7
100
AcDbLine
 10
438.6146882560058
 20
400.0668953925814
 30
0.0
 11
446.6146882560228
 21
400.0668953925814
 31
0.0
  0
LINE
  5
733
330
1F
100
AcDbEntity
  8
0
  6
Continuous
 62
     7
100
AcDbLine
 10
448.6146882560269
 20
400.0668953925814
 30
0.0
 11
456.6146882560438
 21
400.0668953925814
 31
0.0
  0
LINE
  5
734
330
1F
100
AcDbEntity
  8
0
  6
Continuous
 62
     7
100
AcDbLine
 10
436.6146882560014
 20
413.2668953926089
 30
0.0
 11
438.6146882560058
 21
413.2668953926089
 31
0.0
  0
LINE
  5
735
330
1F
100
AcDbEntity
  8
0
  6
Continuous
 62
     7
100
AcDbLine
 10
446.6146882560228
 20
413.2668953926089
 30
0.0
 11
448.6146882560269
 21
413.2668953926089
 31
0.0
  0
LINE
  5
736
330
1F
100
AcDbEntity
  8
0
  6
Continuous
 62
     7
100
AcDbLine
 10
456.6146882560438
 20
413.2668953926089
 30
0.0
 11
458.6146882560482
 21
413.2668953926089
 31
0.0
  0
LINE
  5
737
330
1F
100
AcDbEntity
  8
0
  6
Continuous
 62
     7
100
AcDbLine
 10
436.6146882560014
 20
413.7668953926102
 30
0.0
 11
436.6146882560014
 21
413.2668953926089
 31
0.0
  0
LINE
  5
738
330
1F
100
AcDbEntity
  8
0
  6
Continuous
 62
     7
100
AcDbLine
 10
438.6146882560058
 20
413.7668953926102
 30
0.0
 11
438.6146882560058
 21
413.2668953926089
 31
0.0
  0
LINE
  5
739
330
1F
100
AcDbEntity
  8
0
  6
Continuous
 62
     7
100
AcDbLine
 10
431.664688255991
 20
413.4668953926097
 30
0.0
 11
436.6146882560014
 21
413.4668953926097
 31
0.0
  0
LINE
  5
73A
330
1F
100
AcDbEntity
  8
0
  6
Continuous
 62
     7
100
AcDbLine
 10
456.6146882560438
 20
413.7668953926102
 30
0.0
 11
456.6146882560438
 21
413.2668953926089
 31
0.0
  0
LINE
  5
73B
330
1F
100
AcDbEntity
  8
0
  6
Continuous
 62
     7
100
AcDbLine
 10
458.6146882560482
 20
413.7668953926102
 30
0.0
 11
458.6146882560482
 21
413.2668953926089
 31
0.0
  0
LINE
  5
73C
330
1F
100
AcDbEntity
  8
0
  6
Continuous
 62
     7
100
AcDbLine
 10
448.6146882560269
 20
413.7668953926102
 30
0.0
 11
448.6146882560269
 21
413.2668953926089
 31
0.0
  0
LINE
  5
73D
330
1F
100
AcDbEntity
  8
0
  6
Continuous
 62
     7
100
AcDbLine
 10
446.6146882560228
 20
413.7668953926102
 30
0.0
 11
446.6146882560228
 21
413.2668953926089
 31
0.0
  0
LINE
  5
73E
330
1F
100
AcDbEntity
  8
0
  6
Continuous
 62
     7
100
AcDbLine
 10
458.6146882560482
 20
413.4668953926097
 30
0.0
 11
463.5646882560584
 21
413.4668953926097
 31
0.0
  0
LINE
  5
73F
330
1F
100
AcDbEntity
  8
0
  6
Continuous
 62
     7
100
AcDbLine
 10
438.6146882560058
 20
413.4668953926097
 30
0.0
 11
446.6146882560228
 21
413.4668953926097
 31
0.0
  0
LINE
  5
740
330
1F
100
AcDbEntity
  8
0
  6
Continuous
 62
     7
100
AcDbLine
 10
448.6146882560269
 20
413.4668953926097
 30
0.0
 11
456.6146882560438
 21
413.4668953926097
 31
0.0
  0
LINE
  5
741
330
1F
100
AcDbEntity
  8
0
  6
Continuous
 62
     7
100
AcDbLine
 10
431.664688255991
 20
413.4668953926097
 30
0.0
 11
431.664688255991
 21
407.7668953925975
 31
0.0
  0
LINE
  5
742
330
1F
100
AcDbEntity
  8
0
  6
Continuous
 62
     7
100
AcDbLine
 10
431.664688255991
 20
405.7668953925933
 30
0.0
 11
431.664688255991
 21
400.0668953925814
 31
0.0
  0
LINE
  5
743
330
1F
100
AcDbEntity
  8
0
  6
Continuous
 62
     7
100
AcDbLine
 10
431.8646882559916
 20
407.7668953925975
 30
0.0
 11
431.8646882559916
 21
405.7668953925933
 31
0.0
  0
LINE
  5
744
330
1F
100
AcDbEntity
  8
0
  6
Continuous
 62
     7
100
AcDbLine
 10
463.3646882560581
 20
407.7668953925975
 30
0.0
 11
463.3646882560581
 21
405.7668953925933
 31
0.0
  0
LINE
  5
745
330
1F
100
AcDbEntity
  8
0
  6
Continuous
 62
     7
100
AcDbLine
 10
463.3646882560581
 20
407.7668953925975
 30
0.0
 11
463.8646882560593
 21
407.7668953925975
 31
0.0
  0
LINE
  5
746
330
1F
100
AcDbEntity
  8
0
  6
Continuous
 62
     7
100
AcDbLine
 10
463.3646882560581
 20
405.7668953925933
 30
0.0
 11
463.8646882560593
 21
405.7668953925933
 31
0.0
  0
LINE
  5
747
330
1F
100
AcDbEntity
  8
0
  6
Continuous
 62
     7
100
AcDbLine
 10
463.5646882560584
 20
413.4668953926097
 30
0.0
 11
463.5646882560584
 21
407.7668953925975
 31
0.0
  0
LINE
  5
748
330
1F
100
AcDbEntity
  8
0
  6
Continuous
 62
     7
100
AcDbLine
 10
463.5646882560584
 20
405.7668953925933
 30
0.0
 11
463.5646882560584
 21
400.0668953925814
 31
0.0
  0
ARC
  5
749
330
1F
100
AcDbEntity
  8
0
  6
Continuous
 62
     7
100
AcDbCircle
 10
462.6146882560567
 20
428.7668953926419
 30
0.0
 40
4.000000000008471
100
AcDbArc
 50
180.0
 51
0.0
  0
ARC
  5
74A
330
1F
100
AcDbEntity
  8
0
  6
Continuous
 62
     7
100
AcDbCircle
 10
452.6146882560355
 20
428.7668953926419
 30
0.0
 40
4.000000000008499
100
AcDbArc
 50
180.0
 51
0.0
  0
ARC
  5
74B
330
1F
100
AcDbEntity
  8
0
  6
Continuous
 62
     7
100
AcDbCircle
 10
442.6146882560143
 20
428.7668953926419
 30
0.0
 40
4.000000000008499
100
AcDbArc
 50
180.0
 51
0.0
  0
ARC
  5
74C
330
1F
100
AcDbEntity
  8
0
  6
Continuous
 62
     7
100
AcDbCircle
 10
432.6146882559931
 20
428.7668953926419
 30
0.0
 40
4.000000000008499
100
AcDbArc
 50
180.0
 51
0.0
  0
LINE
  5
74D
330
1F
100
AcDbEntity
  8
0
  6
Continuous
 62
     7
100
AcDbLine
 10
426.6146882559803
 20
418.7668953926206
 30
0.0
 11
468.6146882560692
 21
418.7668953926206
 31
0.0
  0
ARC
  5
74E
330
1F
100
AcDbEntity
  8
0
  6
Continuous
 62
     7
100
AcDbCircle
 10
468.6146882560688
 20
419.7668953926231
 30
0.0
 40
1.000000000002459
100
AcDbArc
 50
270.0000000000162
 51
359.9999999999933
  0
ARC
  5
753
330
1F
100
AcDbEntity
  8
0
  6
Continuous
 62
     7
100
AcDbCircle
 10
426.6146882559803
 20
419.7668953926231
 30
0.0
 40
1.00000000000243
100
AcDbArc
 50
180.0000000000062
 51
269.9999999999837
  0
LINE
  5
754
330
1F
100
AcDbEntity
  8
0
  6
Continuous
 62
     7
100
AcDbLine
 10
448.1146882560138
 20
393.2668953925928
 30
0.0
 11
448.1146882560138
 21
393.2668953925928
 31
0.0
  0
LINE
  5
755
330
1F
100
AcDbEntity
  8
0
  6
Continuous
 62
     7
100
AcDbLine
 10
448.1146882560216
 20
391.7668953925775
 30
0.0
 11
448.1146882560138
 21
393.2668953925928
 31
0.0
  0
LINE
  5
756
330
1F
100
AcDbEntity
  8
0
  6
Continuous
 62
     7
100
AcDbLine
 10
449.6146882560248
 20
391.766895392586
 30
0.0
 11
448.1146882560216
 21
391.7668953925775
 31
0.0
  0
LINE
  5
757
330
1F
100
AcDbEntity
  8
0
  6
Continuous
 62
     7
100
AcDbLine
 10
449.6146882560308
 20
390.7668953925953
 30
0.0
 11
449.6146882560248
 21
391.766895392586
 31
0.0
  0
LINE
  5
758
330
1F
100
AcDbEntity
  8
0
  6
Continuous
 62
     7
100
AcDbLine
 10
448.1146882560279
 20
390.7668953925877
 30
0.0
 11
449.6146882560308
 21
390.7668953925953
 31
0.0
  0
LINE
  5
759
330
1F
100
AcDbEntity
  8
0
  6
Continuous
 62
     7
100
AcDbLine
 10
448.1146882560357
 20
389.2668953925844
 30
0.0
 11
448.1146882560279
 21
390.7668953925877
 31
0.0
  0
LINE
  5
75A
330
1F
100
AcDbEntity
  8
0
  6
Continuous
 62
     7
100
AcDbLine
 10
447.1146882560335
 20
389.2668953925658
 30
0.0
 11
448.1146882560357
 21
389.2668953925844
 31
0.0
  0
LINE
  5
75B
330
1F
100
AcDbEntity
  8
0
  6
Continuous
 62
     7
100
AcDbLine
 10
447.1146882560256
 20
390.7668953925838
 30
0.0
 11
447.1146882560335
 21
389.2668953925658
 31
0.0
  0
LINE
  5
75C
330
1F
100
AcDbEntity
  8
0
  6
Continuous
 62
     7
100
AcDbLine
 10
445.6146882560226
 20
390.7668953925733
 30
0.0
 11
447.1146882560256
 21
390.7668953925838
 31
0.0
  0
LINE
  5
75D
330
1F
100
AcDbEntity
  8
0
  6
Continuous
 62
     7
100
AcDbLine
 10
445.6146882560168
 20
391.7668953925636
 30
0.0
 11
445.6146882560226
 21
390.7668953925733
 31
0.0
  0
LINE
  5
75E
330
1F
100
AcDbEntity
  8
0
  6
Continuous
 62
     7
100
AcDbLine
 10
447.1146882560197
 20
391.766895392586
 30
0.0
 11
445.6146882560168
 21
391.7668953925636
 31
0.0
  0
LINE
  5
75F
330
1F
100
AcDbEntity
  8
0
  6
Continuous
 62
     7
100
AcDbLine
 10
447.1146882560118
 20
393.2668953925869
 30
0.0
 11
447.1146882560197
 21
391.766895392586
 31
0.0
  0
LINE
  5
760
330
1F
100
AcDbEntity
  8
0
  6
Continuous
 62
     7
100
AcDbLine
 10
448.1146882560138
 20
393.2668953925928
 30
0.0
 11
447.1146882560118
 21
393.2668953925869
 31
0.0
  0
LINE
  5
761
330
1F
100
AcDbEntity
  8
0
  6
Continuous
 62
     7
100
AcDbLine
 10
450.3646882560306
 20
391.2668953925626
 30
0.0
 11
450.3646882560306
 21
391.2668953925626
 31
0.0
  0
ARC
  5
764
330
1F
100
AcDbEntity
  8
0
  6
Continuous
 62
     7
100
AcDbCircle
 10
470.6146882560728
 20
390.2668953925606
 30
0.0
 40
2.00000000000469
100
AcDbArc
 50
270.000000000013
 51
359.9999999999933
  0
LINE
  5
774
330
1F
100
AcDbEntity
  8
0
  6
Continuous
 62
     7
100
AcDbLine
 10
436.6146882560014
 20
440.2668953926665
 30
0.0
 11
436.6146882560014
 21
447.2668953926811
 31
0.0
  0
ARC
  5
775
330
1F
100
AcDbEntity
  8
0
  6
Continuous
 62
     7
100
AcDbCircle
 10
437.6146882560037
 20
440.2668953926665
 30
0.0
 40
1.000000000002401
100
AcDbArc
 50
180.0000000000062
 51
269.9999999999837
  0
ARC
  5
776
330
1F
100
AcDbEntity
  8
0
  6
Continuous
 62
     7
100
AcDbCircle
 10
437.6146882560037
 20
447.2668953926809
 30
0.0
 40
1.000000000002459
100
AcDbArc
 50
90.00000000001628
 51
179.9999999999934
  0
LINE
  5
777
330
1F
100
AcDbEntity
  8
0
  6
Continuous
 62
     7
100
AcDbLine
 10
466.1146882560641
 20
440.2668953926665
 30
0.0
 11
466.1146882560641
 21
447.2668953926811
 31
0.0
  0
ARC
  5
778
330
1F
100
AcDbEntity
  8
0
  6
Continuous
 62
     7
100
AcDbCircle
 10
465.1146882560614
 20
440.2668953926665
 30
0.0
 40
1.000000000002459
100
AcDbArc
 50
270.0000000000162
 51
359.9999999999933
  0
LINE
  5
779
330
1F
100
AcDbEntity
  8
0
  6
Continuous
 62
     7
100
AcDbLine
 10
437.6146882560036
 20
448.2668953926833
 30
0.0
 11
465.1146882560619
 21
448.2668953926833
 31
0.0
  0
ARC
  5
77A
330
1F
100
AcDbEntity
  8
0
  6
Continuous
 62
     7
100
AcDbCircle
 10
465.1146882560614
 20
447.2668953926809
 30
0.0
 40
1.000000000002401
100
AcDbArc
 50
0.0000000000065138
 51
89.99999999998371
  0
LINE
  5
77B
330
1F
100
AcDbEntity
  8
0
  6
Continuous
 62
     7
100
AcDbLine
 10
437.6146882560036
 20
439.2668953926638
 30
0.0
 11
465.1146882560619
 21
439.2668953926638
 31
0.0
  0
ARC
  5
77C
330
1F
100
AcDbEntity
  8
0
  6
Continuous
 62
     7
100
AcDbCircle
 10
462.6146882560567
 20
431.7668953926484
 30
0.0
 40
4.000000000008471
100
AcDbArc
 50
0.0
 51
180.0
  0
ARC
  5
77D
330
1F
100
AcDbEntity
  8
0
  6
Continuous
 62
     7
100
AcDbCircle
 10
452.6146882560355
 20
431.7668953926484
 30
0.0
 40
4.000000000008499
100
AcDbArc
 50
0.0
 51
180.0
  0
ARC
  5
77E
330
1F
100
AcDbEntity
  8
0
  6
Continuous
 62
     7
100
AcDbCircle
 10
442.6146882560143
 20
431.7668953926484
 30
0.0
 40
4.000000000008471
100
AcDbArc
 50
0.0
 51
180.0
  0
ARC
  5
77F
330
1F
100
AcDbEntity
  8
0
  6
Continuous
 62
     7
100
AcDbCircle
 10
432.6146882559931
 20
431.7668953926484
 30
0.0
 40
4.000000000008471
100
AcDbArc
 50
0.0
 51
180.0
  0
ARC
  5
78F
330
1F
100
AcDbEntity
  8
0
  6
Continuous
 62
     7
100
AcDbCircle
 10
434.1146882559963
 20
474.6668953927398
 30
0.0
 40
1.000000000002345
100
AcDbArc
 50
90.00000000001303
 51
179.9999999999934
  0
ARC
  5
790
330
1F
100
AcDbEntity
  8
0
  6
Continuous
 62
     7
100
AcDbCircle
 10
434.1146882559963
 20
466.6668953927227
 30
0.0
 40
1.000000000002317
100
AcDbArc
 50
180.0000000000062
 51
269.9999999999902
  0
LINE
  5
791
330
1F
100
AcDbEntity
  8
0
  6
Continuous
 62
     7
100
AcDbLine
 10
433.1146882559941
 20
474.6668953927398
 30
0.0
 11
433.1146882559941
 21
466.6668953927227
 31
0.0
  0
LINE
  5
792
330
1F
100
AcDbEntity
  8
0
  6
Continuous
 62
     7
100
AcDbLine
 10
462.1146882560556
 20
474.6668953927398
 30
0.0
 11
462.1146882560556
 21
466.6668953927227
 31
0.0
  0
ARC
  5
793
330
1F
100
AcDbEntity
  8
0
  6
Continuous
 62
     7
100
AcDbCircle
 10
461.1146882560531
 20
474.6668953927398
 30
0.0
 40
1.000000000002345
100
AcDbArc
 50
0.0000000000065138
 51
89.99999999998697
  0
LINE
  5
794
330
1F
100
AcDbEntity
  8
0
  6
Continuous
 62
     7
100
AcDbLine
 10
434.1146882559963
 20
475.6668953927419
 30
0.0
 11
461.1146882560534
 21
475.6668953927419
 31
0.0
  0
ARC
  5
795
330
1F
100
AcDbEntity
  8
0
  6
Continuous
 62
     7
100
AcDbCircle
 10
461.1146882560531
 20
466.6668953927227
 30
0.0
 40
1.000000000002231
100
AcDbArc
 50
270.0000000000094
 51
359.9999999999933
  0
LINE
  5
796
330
1F
100
AcDbEntity
  8
0
  6
Continuous
 62
     7
100
AcDbLine
 10
434.1146882559963
 20
465.6668953927205
 30
0.0
 11
461.1146882560534
 21
465.6668953927205
 31
0.0
  0
ARC
  5
797
330
1F
100
AcDbEntity
  8
0
  6
Continuous
 62
     7
100
AcDbCircle
 10
434.1146882559963
 20
459.2668953927065
 30
0.0
 40
1.000000000002231
100
AcDbArc
 50
90.00000000000978
 51
179.9999999999934
  0
ARC
  5
798
330
1F
100
AcDbEntity
  8
0
  6
Continuous
 62
     7
100
AcDbCircle
 10
434.1146882559963
 20
451.2668953926901
 30
0.0
 40
1.000000000002317
100
AcDbArc
 50
180.0000000000062
 51
269.9999999999902
  0
LINE
  5
799
330
1F
100
AcDbEntity
  8
0
  6
Continuous
 62
     7
100
AcDbLine
 10
433.1146882559941
 20
459.2668953927065
 30
0.0
 11
433.1146882559941
 21
451.2668953926897
 31
0.0
  0
LINE
  5
79A
330
1F
100
AcDbEntity
  8
0
  6
Continuous
 62
     7
100
AcDbLine
 10
462.1146882560556
 20
459.2668953927065
 30
0.0
 11
462.1146882560556
 21
451.2668953926897
 31
0.0
  0
ARC
  5
79B
330
1F
100
AcDbEntity
  8
0
  6
Continuous
 62
     7
100
AcDbCircle
 10
461.1146882560531
 20
459.2668953927065
 30
0.0
 40
1.000000000002287
100
AcDbArc
 50
0.0000000000065138
 51
89.99999999999024
  0
LINE
  5
79C
330
1F
100
AcDbEntity
  8
0
  6
Continuous
 62
     7
100
AcDbLine
 10
434.1146882559963
 20
460.2668953927086
 30
0.0
 11
461.1146882560534
 21
460.2668953927086
 31
0.0
  0
ARC
  5
79D
330
1F
100
AcDbEntity
  8
0
  6
Continuous
 62
     7
100
AcDbCircle
 10
461.1146882560531
 20
451.2668953926901
 30
0.0
 40
1.000000000002231
100
AcDbArc
 50
270.0000000000094
 51
359.9999999999933
  0
LINE
  5
79E
330
1F
100
AcDbEntity
  8
0
  6
Continuous
 62
     7
100
AcDbLine
 10
434.1146882559963
 20
450.2668953926876
 30
0.0
 11
461.1146882560534
 21
450.2668953926876
 31
0.0
  0
LINE
  5
79F
330
1F
100
AcDbEntity
  8
0
  6
Continuous
 62
     7
100
AcDbLine
 10
459.7462845710585
 20
466.9158961506967
 30
0.0
 11
459.3401210094794
 21
467.4537845270138
 31
0.0
  0
LINE
  5
7A0
330
1F
100
AcDbEntity
  8
0
  6
Continuous
 62
     7
100
AcDbLine
 10
456.248491891679
 20
466.9668252472586
 30
0.0
 11
456.7706918570202
 21
467.4537845270138
 31
0.0
  0
LINE
  5
7A1
330
1F
100
AcDbEntity
  8
0
  6
Continuous
 62
     7
100
AcDbLine
 10
457.4228815133053
 20
474.3669675714906
 30
0.0
 11
457.7905108672803
 21
473.8800886215415
 31
0.0
  0
LINE
  5
7A2
330
1F
100
AcDbEntity
  8
0
  6
Continuous
 62
     7
100
AcDbLine
 10
460.8170728427826
 20
474.3063185684866
 30
0.0
 11
460.3600123165636
 21
473.8800886215415
 31
0.0
  0
LINE
  5
7A3
330
1F
100
AcDbEntity
  8
0
  6
Continuous
 62
     7
100
AcDbLine
 10
460.0310617638428
 20
467.1813861572275
 30
0.0
 11
460.5204389707362
 21
470.2652473828537
 31
0.0
  0
LINE
  5
7A4
330
1F
100
AcDbEntity
  8
0
  6
Continuous
 62
     7
100
AcDbLine
 10
459.4615073782758
 20
466.6504061441655
 30
0.0
 11
460.0310617638428
 21
467.1813861572275
 31
0.0
  0
LINE
  5
7A5
330
1F
100
AcDbEntity
  8
0
  6
Continuous
 62
     7
100
AcDbLine
 10
456.4875051943817
 20
466.6504061441655
 30
0.0
 11
459.4615073782758
 21
466.6504061441655
 31
0.0
  0
LINE
  5
7A6
330
1F
100
AcDbEntity
  8
0
  6
Continuous
 62
     7
100
AcDbLine
 10
456.0095508858026
 20
467.2832443503514
 30
0.0
 11
456.4875051943817
 21
466.6504061441655
 31
0.0
  0
LINE
  5
7A7
330
1F
100
AcDbEntity
  8
0
  6
Continuous
 62
     7
100
AcDbLine
 10
456.4828059007713
 20
470.2652473828537
 30
0.0
 11
456.0095508858026
 21
467.2832443503514
 31
0.0
  0
LINE
  5
7A8
330
1F
100
AcDbEntity
  8
0
  6
Continuous
 62
     7
100
AcDbLine
 10
461.1019223323912
 20
473.9291701325814
 30
0.0
 11
460.6478982728123
 21
471.0685454358954
 31
0.0
  0
LINE
  5
7A9
330
1F
100
AcDbEntity
  8
0
  6
Continuous
 62
     7
100
AcDbLine
 10
460.53229565
 20
474.6833866745835
 30
0.0
 11
461.1019223323912
 21
473.9291701325814
 31
0.0
  0
LINE
  5
7AA
330
1F
100
AcDbEntity
  8
0
  6
Continuous
 62
     7
100
AcDbLine
 10
457.7622428087923
 20
474.6833866745835
 30
0.0
 11
460.53229565
 21
474.6833866745835
 31
0.0
  0
LINE
  5
7AB
330
1F
100
AcDbEntity
  8
0
  6
Continuous
 62
     7
100
AcDbLine
 10
457.0834479209927
 20
474.050468138592
 30
0.0
 11
457.7622428087923
 21
474.6833866745835
 31
0.0
  0
LINE
  5
7AC
330
1F
100
AcDbEntity
  8
0
  6
Continuous
 62
     7
100
AcDbLine
 10
456.6102652028477
 20
471.0685454358954
 30
0.0
 11
457.0834479209927
 21
474.050468138592
 31
0.0
  0
LINE
  5
7AD
330
1F
100
AcDbEntity
  8
0
  6
Continuous
 62
     7
100
AcDbLine
 10
457.3443671616013
 20
471.0685454358954
 30
0.0
 11
457.7905108672803
 21
473.8800886215415
 31
0.0
  0
LINE
  5
7AE
330
1F
100
AcDbEntity
  8
0
  6
Continuous
 62
     7
100
AcDbLine
 10
456.7706918570202
 20
467.4537845270138
 30
0.0
 11
457.216907859525
 21
470.2652473828537
 31
0.0
  0
LINE
  5
7AF
330
1F
100
AcDbEntity
  8
0
  6
Continuous
 62
     7
100
AcDbLine
 10
459.7863370119846
 20
470.2652473828537
 30
0.0
 11
459.3401210094794
 21
467.4537845270138
 31
0.0
  0
LINE
  5
7B0
330
1F
100
AcDbEntity
  8
0
  6
Continuous
 62
     7
100
AcDbLine
 10
460.3600123165636
 20
473.8800886215415
 30
0.0
 11
459.9137963140588
 21
471.0685454358954
 31
0.0
  0
LINE
  5
7B1
330
1F
100
AcDbEntity
  8
0
  6
Continuous
 62
     7
100
AcDbLine
 10
460.2171537908096
 20
470.666896409375
 30
0.0
 11
460.5204389707362
 21
470.2652473828537
 31
0.0
  0
LINE
  5
7B2
330
1F
100
AcDbEntity
  8
0
  6
Continuous
 62
     7
100
AcDbLine
 10
460.6478982728123
 20
471.0685454358954
 30
0.0
 11
460.2171537908096
 21
470.666896409375
 31
0.0
  0
LINE
  5
7B3
330
1F
100
AcDbEntity
  8
0
  6
Continuous
 62
     7
100
AcDbLine
 10
460.2171537908096
 20
470.666896409375
 30
0.0
 11
459.7863370119846
 21
470.2652473828537
 31
0.0
  0
LINE
  5
7B4
330
1F
100
AcDbEntity
  8
0
  6
Continuous
 62
     7
100
AcDbLine
 10
459.9137963140588
 20
471.0685454358954
 30
0.0
 11
460.2171537908096
 21
470.666896409375
 31
0.0
  0
LINE
  5
7B5
330
1F
100
AcDbEntity
  8
0
  6
Continuous
 62
     7
100
AcDbLine
 10
456.9135503827745
 20
470.666896409375
 30
0.0
 11
456.4828059007713
 21
470.2652473828537
 31
0.0
  0
LINE
  5
7B6
330
1F
100
AcDbEntity
  8
0
  6
Continuous
 62
     7
100
AcDbLine
 10
456.6102652028477
 20
471.0685454358954
 30
0.0
 11
456.9135503827745
 21
470.666896409375
 31
0.0
  0
LINE
  5
7B7
330
1F
100
AcDbEntity
  8
0
  6
Continuous
 62
     7
100
AcDbLine
 10
456.9135503827745
 20
470.666896409375
 30
0.0
 11
457.216907859525
 21
470.2652473828537
 31
0.0
  0
LINE
  5
7B8
330
1F
100
AcDbEntity
  8
0
  6
Continuous
 62
     7
100
AcDbLine
 10
457.3443671616013
 20
471.0685454358954
 30
0.0
 11
456.9135503827745
 21
470.666896409375
 31
0.0
  0
LINE
  5
7B9
330
1F
100
AcDbEntity
  8
0
  6
Continuous
 62
     7
100
AcDbLine
 10
459.3401210094794
 20
467.4537845270138
 30
0.0
 11
456.7706918570202
 21
467.4537845270138
 31
0.0
  0
LINE
  5
7BA
330
1F
100
AcDbEntity
  8
0
  6
Continuous
 62
     7
100
AcDbLine
 10
457.7905108672803
 20
473.8800886215415
 30
0.0
 11
460.3600123165636
 21
473.8800886215415
 31
0.0
  0
LINE
  5
7BB
330
1F
100
AcDbEntity
  8
0
  6
Continuous
 62
     7
100
AcDbLine
 10
457.216907859525
 20
470.2652473828537
 30
0.0
 11
459.7863370119846
 21
470.2652473828537
 31
0.0
  0
LINE
  5
7BC
330
1F
100
AcDbEntity
  8
0
  6
Continuous
 62
     7
100
AcDbLine
 10
457.3443671616013
 20
471.0685454358954
 30
0.0
 11
459.9137963140588
 21
471.0685454358954
 31
0.0
  0
LINE
  5
7C0
330
1F
100
AcDbEntity
  8
0
  6
Continuous
 62
     7
100
AcDbLine
 10
452.446284571043
 20
466.9158961506967
 30
0.0
 11
452.040121009464
 21
467.4537845270138
 31
0.0
  0
LINE
  5
7C1
330
1F
100
AcDbEntity
  8
0
  6
Continuous
 62
     7
100
AcDbLine
 10
448.9484918916654
 20
466.9668252472586
 30
0.0
 11
449.4706918570048
 21
467.4537845270138
 31
0.0
  0
LINE
  5
7C2
330
1F
100
AcDbEntity
  8
0
  6
Continuous
 62
     7
100
AcDbLine
 10
450.12288151329
 20
474.3669675714906
 30
0.0
 11
450.490510867265
 21
473.8800886215415
 31
0.0
  0
LINE
  5
7C3
330
1F
100
AcDbEntity
  8
0
  6
Continuous
 62
     7
100
AcDbLine
 10
453.5170728427675
 20
474.3063185684866
 30
0.0
 11
453.0600123165481
 21
473.8800886215415
 31
0.0
  0
LINE
  5
7C4
330
1F
100
AcDbEntity
  8
0
  6
Continuous
 62
     7
100
AcDbLine
 10
452.7310617638275
 20
467.1813861572275
 30
0.0
 11
453.2204389707206
 21
470.2652473828537
 31
0.0
  0
LINE
  5
7C5
330
1F
100
AcDbEntity
  8
0
  6
Continuous
 62
     7
100
AcDbLine
 10
452.1615073782603
 20
466.6504061441655
 30
0.0
 11
452.7310617638275
 21
467.1813861572275
 31
0.0
  0
LINE
  5
7C6
330
1F
100
AcDbEntity
  8
0
  6
Continuous
 62
     7
100
AcDbLine
 10
449.1875051943662
 20
466.6504061441655
 30
0.0
 11
452.1615073782603
 21
466.6504061441655
 31
0.0
  0
LINE
  5
7C7
330
1F
100
AcDbEntity
  8
0
  6
Continuous
 62
     7
100
AcDbLine
 10
448.7095508857872
 20
467.2832443503514
 30
0.0
 11
449.1875051943662
 21
466.6504061441655
 31
0.0
  0
LINE
  5
7C8
330
1F
100
AcDbEntity
  8
0
  6
Continuous
 62
     7
100
AcDbLine
 10
449.1828059007558
 20
470.2652473828537
 30
0.0
 11
448.7095508857872
 21
467.2832443503514
 31
0.0
  0
LINE
  5
7C9
330
1F
100
AcDbEntity
  8
0
  6
Continuous
 62
     7
100
AcDbLine
 10
453.8019223323757
 20
473.9291701325814
 30
0.0
 11
453.3478982727968
 21
471.0685454358954
 31
0.0
  0
LINE
  5
7CA
330
1F
100
AcDbEntity
  8
0
  6
Continuous
 62
     7
100
AcDbLine
 10
453.2322956499846
 20
474.6833866745835
 30
0.0
 11
453.8019223323757
 21
473.9291701325814
 31
0.0
  0
LINE
  5
7CB
330
1F
100
AcDbEntity
  8
0
  6
Continuous
 62
     7
100
AcDbLine
 10
450.4622428087769
 20
474.6833866745835
 30
0.0
 11
453.2322956499846
 21
474.6833866745835
 31
0.0
  0
LINE
  5
7CC
330
1F
100
AcDbEntity
  8
0
  6
Continuous
 62
     7
100
AcDbLine
 10
449.7834479209775
 20
474.050468138592
 30
0.0
 11
450.4622428087769
 21
474.6833866745835
 31
0.0
  0
LINE
  5
7CD
330
1F
100
AcDbEntity
  8
0
  6
Continuous
 62
     7
100
AcDbLine
 10
449.3102652028321
 20
471.0685454358954
 30
0.0
 11
449.7834479209775
 21
474.050468138592
 31
0.0
  0
LINE
  5
7CE
330
1F
100
AcDbEntity
  8
0
  6
Continuous
 62
     7
100
AcDbLine
 10
450.0443671615861
 20
471.0685454358954
 30
0.0
 11
450.490510867265
 21
473.8800886215415
 31
0.0
  0
LINE
  5
7CF
330
1F
100
AcDbEntity
  8
0
  6
Continuous
 62
     7
100
AcDbLine
 10
449.4706918570048
 20
467.4537845270138
 30
0.0
 11
449.9169078595096
 21
470.2652473828537
 31
0.0
  0
LINE
  5
7D0
330
1F
100
AcDbEntity
  8
0
  6
Continuous
 62
     7
100
AcDbLine
 10
452.4863370119692
 20
470.2652473828537
 30
0.0
 11
452.040121009464
 21
467.4537845270138
 31
0.0
  0
LINE
  5
7D1
330
1F
100
AcDbEntity
  8
0
  6
Continuous
 62
     7
100
AcDbLine
 10
453.0600123165481
 20
473.8800886215415
 30
0.0
 11
452.6137963140433
 21
471.0685454358954
 31
0.0
  0
LINE
  5
7D2
330
1F
100
AcDbEntity
  8
0
  6
Continuous
 62
     7
100
AcDbLine
 10
452.9171537907941
 20
470.666896409375
 30
0.0
 11
453.2204389707206
 21
470.2652473828537
 31
0.0
  0
LINE
  5
7D3
330
1F
100
AcDbEntity
  8
0
  6
Continuous
 62
     7
100
AcDbLine
 10
453.3478982727968
 20
471.0685454358954
 30
0.0
 11
452.9171537907941
 21
470.666896409375
 31
0.0
  0
LINE
  5
7D4
330
1F
100
AcDbEntity
  8
0
  6
Continuous
 62
     7
100
AcDbLine
 10
452.9171537907941
 20
470.666896409375
 30
0.0
 11
452.4863370119692
 21
470.2652473828537
 31
0.0
  0
LINE
  5
7D5
330
1F
100
AcDbEntity
  8
0
  6
Continuous
 62
     7
100
AcDbLine
 10
452.6137963140433
 20
471.0685454358954
 30
0.0
 11
452.9171537907941
 21
470.666896409375
 31
0.0
  0
LINE
  5
7D6
330
1F
100
AcDbEntity
  8
0
  6
Continuous
 62
     7
100
AcDbLine
 10
449.613550382759
 20
470.666896409375
 30
0.0
 11
449.1828059007558
 21
470.2652473828537
 31
0.0
  0
LINE
  5
7D7
330
1F
100
AcDbEntity
  8
0
  6
Continuous
 62
     7
100
AcDbLine
 10
449.3102652028321
 20
471.0685454358954
 30
0.0
 11
449.613550382759
 21
470.666896409375
 31
0.0
  0
LINE
  5
7D8
330
1F
100
AcDbEntity
  8
0
  6
Continuous
 62
     7
100
AcDbLine
 10
449.613550382759
 20
470.666896409375
 30
0.0
 11
449.9169078595096
 21
470.2652473828537
 31
0.0
  0
LINE
  5
7D9
330
1F
100
AcDbEntity
  8
0
  6
Continuous
 62
     7
100
AcDbLine
 10
450.0443671615861
 20
471.0685454358954
 30
0.0
 11
449.613550382759
 21
470.666896409375
 31
0.0
  0
LINE
  5
7DA
330
1F
100
AcDbEntity
  8
0
  6
Continuous
 62
     7
100
AcDbLine
 10
452.040121009464
 20
467.4537845270138
 30
0.0
 11
449.4706918570048
 21
467.4537845270138
 31
0.0
  0
LINE
  5
7DB
330
1F
100
AcDbEntity
  8
0
  6
Continuous
 62
     7
100
AcDbLine
 10
450.490510867265
 20
473.8800886215415
 30
0.0
 11
453.0600123165481
 21
473.8800886215415
 31
0.0
  0
LINE
  5
7DC
330
1F
100
AcDbEntity
  8
0
  6
Continuous
 62
     7
100
AcDbLine
 10
449.9169078595096
 20
470.2652473828537
 30
0.0
 11
452.4863370119692
 21
470.2652473828537
 31
0.0
  0
LINE
  5
7DD
330
1F
100
AcDbEntity
  8
0
  6
Continuous
 62
     7
100
AcDbLine
 10
450.0443671615861
 20
471.0685454358954
 30
0.0
 11
452.6137963140433
 21
471.0685454358954
 31
0.0
  0
LINE
  5
7E1
330
1F
100
AcDbEntity
  8
0
  6
Continuous
 62
     7
100
AcDbLine
 10
445.1462845710273
 20
466.9158961506967
 30
0.0
 11
444.7401210094484
 21
467.4537845270138
 31
0.0
  0
LINE
  5
7E2
330
1F
100
AcDbEntity
  8
0
  6
Continuous
 62
     7
100
AcDbLine
 10
441.6484918916501
 20
466.9668252472586
 30
0.0
 11
442.1706918569889
 21
467.4537845270138
 31
0.0
  0
LINE
  5
7E3
330
1F
100
AcDbEntity
  8
0
  6
Continuous
 62
     7
100
AcDbLine
 10
442.8228815132746
 20
474.3669675714906
 30
0.0
 11
443.1905108672493
 21
473.8800886215415
 31
0.0
  0
LINE
  5
7E4
330
1F
100
AcDbEntity
  8
0
  6
Continuous
 62
     7
100
AcDbLine
 10
446.2170728427516
 20
474.3063185684866
 30
0.0
 11
445.7600123165328
 21
473.8800886215415
 31
0.0
  0
LINE
  5
7E5
330
1F
100
AcDbEntity
  8
0
  6
Continuous
 62
     7
100
AcDbLine
 10
445.431061763812
 20
467.1813861572275
 30
0.0
 11
445.9204389707053
 21
470.2652473828537
 31
0.0
  0
LINE
  5
7E6
330
1F
100
AcDbEntity
  8
0
  6
Continuous
 62
     7
100
AcDbLine
 10
444.8615073782448
 20
466.6504061441655
 30
0.0
 11
445.431061763812
 21
467.1813861572275
 31
0.0
  0
LINE
  5
7E7
330
1F
100
AcDbEntity
  8
0
  6
Continuous
 62
     7
100
AcDbLine
 10
441.8875051943508
 20
466.6504061441655
 30
0.0
 11
444.8615073782448
 21
466.6504061441655
 31
0.0
  0
LINE
  5
7E8
330
1F
100
AcDbEntity
  8
0
  6
Continuous
 62
     7
100
AcDbLine
 10
441.4095508857714
 20
467.2832443503514
 30
0.0
 11
441.8875051943508
 21
466.6504061441655
 31
0.0
  0
LINE
  5
7E9
330
1F
100
AcDbEntity
  8
0
  6
Continuous
 62
     7
100
AcDbLine
 10
441.8828059007406
 20
470.2652473828537
 30
0.0
 11
441.4095508857714
 21
467.2832443503514
 31
0.0
  0
LINE
  5
7EA
330
1F
100
AcDbEntity
  8
0
  6
Continuous
 62
     7
100
AcDbLine
 10
446.5019223323603
 20
473.9291701325814
 30
0.0
 11
446.0478982727813
 21
471.0685454358954
 31
0.0
  0
LINE
  5
7EB
330
1F
100
AcDbEntity
  8
0
  6
Continuous
 62
     7
100
AcDbLine
 10
445.932295649969
 20
474.6833866745835
 30
0.0
 11
446.5019223323603
 21
473.9291701325814
 31
0.0
  0
LINE
  5
7EC
330
1F
100
AcDbEntity
  8
0
  6
Continuous
 62
     7
100
AcDbLine
 10
443.1622428087614
 20
474.6833866745835
 30
0.0
 11
445.932295649969
 21
474.6833866745835
 31
0.0
  0
LINE
  5
7ED
330
1F
100
AcDbEntity
  8
0
  6
Continuous
 62
     7
100
AcDbLine
 10
442.483447920962
 20
474.050468138592
 30
0.0
 11
443.1622428087614
 21
474.6833866745835
 31
0.0
  0
LINE
  5
7EE
330
1F
100
AcDbEntity
  8
0
  6
Continuous
 62
     7
100
AcDbLine
 10
442.0102652028167
 20
471.0685454358954
 30
0.0
 11
442.483447920962
 21
474.050468138592
 31
0.0
  0
LINE
  5
7EF
330
1F
100
AcDbEntity
  8
0
  6
Continuous
 62
     7
100
AcDbLine
 10
442.7443671615702
 20
471.0685454358954
 30
0.0
 11
443.1905108672493
 21
473.8800886215415
 31
0.0
  0
LINE
  5
7F0
330
1F
100
AcDbEntity
  8
0
  6
Continuous
 62
     7
100
AcDbLine
 10
442.1706918569889
 20
467.4537845270138
 30
0.0
 11
442.6169078594941
 21
470.2652473828537
 31
0.0
  0
LINE
  5
7F1
330
1F
100
AcDbEntity
  8
0
  6
Continuous
 62
     7
100
AcDbLine
 10
445.1863370119538
 20
470.2652473828537
 30
0.0
 11
444.7401210094484
 21
467.4537845270138
 31
0.0
  0
LINE
  5
7F2
330
1F
100
AcDbEntity
  8
0
  6
Continuous
 62
     7
100
AcDbLine
 10
445.7600123165328
 20
473.8800886215415
 30
0.0
 11
445.3137963140278
 21
471.0685454358954
 31
0.0
  0
LINE
  5
7F3
330
1F
100
AcDbEntity
  8
0
  6
Continuous
 62
     7
100
AcDbLine
 10
445.6171537907785
 20
470.666896409375
 30
0.0
 11
445.9204389707053
 21
470.2652473828537
 31
0.0
  0
LINE
  5
7F4
330
1F
100
AcDbEntity
  8
0
  6
Continuous
 62
     7
100
AcDbLine
 10
446.0478982727813
 20
471.0685454358954
 30
0.0
 11
445.6171537907785
 21
470.666896409375
 31
0.0
  0
LINE
  5
7F5
330
1F
100
AcDbEntity
  8
0
  6
Continuous
 62
     7
100
AcDbLine
 10
445.6171537907785
 20
470.666896409375
 30
0.0
 11
445.1863370119538
 21
470.2652473828537
 31
0.0
  0
LINE
  5
7F6
330
1F
100
AcDbEntity
  8
0
  6
Continuous
 62
     7
100
AcDbLine
 10
445.3137963140278
 20
471.0685454358954
 30
0.0
 11
445.6171537907785
 21
470.666896409375
 31
0.0
  0
LINE
  5
7F7
330
1F
100
AcDbEntity
  8
0
  6
Continuous
 62
     7
100
AcDbLine
 10
442.3135503827435
 20
470.666896409375
 30
0.0
 11
441.8828059007406
 21
470.2652473828537
 31
0.0
  0
LINE
  5
7F8
330
1F
100
AcDbEntity
  8
0
  6
Continuous
 62
     7
100
AcDbLine
 10
442.0102652028167
 20
471.0685454358954
 30
0.0
 11
442.3135503827435
 21
470.666896409375
 31
0.0
  0
LINE
  5
7F9
330
1F
100
AcDbEntity
  8
0
  6
Continuous
 62
     7
100
AcDbLine
 10
442.3135503827435
 20
470.666896409375
 30
0.0
 11
442.6169078594941
 21
470.2652473828537
 31
0.0
  0
LINE
  5
7FA
330
1F
100
AcDbEntity
  8
0
  6
Continuous
 62
     7
100
AcDbLine
 10
442.7443671615702
 20
471.0685454358954
 30
0.0
 11
442.3135503827435
 21
470.666896409375
 31
0.0
  0
LINE
  5
7FB
330
1F
100
AcDbEntity
  8
0
  6
Continuous
 62
     7
100
AcDbLine
 10
444.7401210094484
 20
467.4537845270138
 30
0.0
 11
442.1706918569889
 21
467.4537845270138
 31
0.0
  0
LINE
  5
7FC
330
1F
100
AcDbEntity
  8
0
  6
Continuous
 62
     7
100
AcDbLine
 10
443.1905108672493
 20
473.8800886215415
 30
0.0
 11
445.7600123165328
 21
473.8800886215415
 31
0.0
  0
LINE
  5
7FD
330
1F
100
AcDbEntity
  8
0
  6
Continuous
 62
     7
100
AcDbLine
 10
442.6169078594941
 20
470.2652473828537
 30
0.0
 11
445.1863370119538
 21
470.2652473828537
 31
0.0
  0
LINE
  5
7FE
330
1F
100
AcDbEntity
  8
0
  6
Continuous
 62
     7
100
AcDbLine
 10
442.7443671615702
 20
471.0685454358954
 30
0.0
 11
445.3137963140278
 21
471.0685454358954
 31
0.0
  0
LINE
  5
802
330
1F
100
AcDbEntity
  8
0
  6
Continuous
 62
     7
100
AcDbLine
 10
437.8462845710119
 20
466.9158961506967
 30
0.0
 11
437.4401210094335
 21
467.4537845270138
 31
0.0
  0
LINE
  5
803
330
1F
100
AcDbEntity
  8
0
  6
Continuous
 62
     7
100
AcDbLine
 10
434.3484918916327
 20
466.9668252472586
 30
0.0
 11
434.8706918569737
 21
467.4537845270138
 31
0.0
  0
LINE
  5
804
330
1F
100
AcDbEntity
  8
0
  6
Continuous
 62
     7
100
AcDbLine
 10
435.5228815132591
 20
474.3669675714906
 30
0.0
 11
435.8905108672339
 21
473.8800886215415
 31
0.0
  0
LINE
  5
805
330
1F
100
AcDbEntity
  8
0
  6
Continuous
 62
     7
100
AcDbLine
 10
438.9170728427362
 20
474.3063185684866
 30
0.0
 11
438.4600123165173
 21
473.8800886215415
 31
0.0
  0
LINE
  5
806
330
1F
100
AcDbEntity
  8
0
  6
Continuous
 62
     7
100
AcDbLine
 10
438.1310617637964
 20
467.1813861572275
 30
0.0
 11
438.6204389706898
 21
470.2652473828537
 31
0.0
  0
LINE
  5
807
330
1F
100
AcDbEntity
  8
0
  6
Continuous
 62
     7
100
AcDbLine
 10
437.5615073782292
 20
466.6504061441655
 30
0.0
 11
438.1310617637964
 21
467.1813861572275
 31
0.0
  0
LINE
  5
808
330
1F
100
AcDbEntity
  8
0
  6
Continuous
 62
     7
100
AcDbLine
 10
434.5875051943351
 20
466.6504061441655
 30
0.0
 11
437.5615073782292
 21
466.6504061441655
 31
0.0
  0
LINE
  5
809
330
1F
100
AcDbEntity
  8
0
  6
Continuous
 62
     7
100
AcDbLine
 10
434.1095508857562
 20
467.2832443503514
 30
0.0
 11
434.5875051943351
 21
466.6504061441655
 31
0.0
  0
LINE
  5
80A
330
1F
100
AcDbEntity
  8
0
  6
Continuous
 62
     7
100
AcDbLine
 10
434.582805900725
 20
470.2652473828537
 30
0.0
 11
434.1095508857562
 21
467.2832443503514
 31
0.0
  0
LINE
  5
80B
330
1F
100
AcDbEntity
  8
0
  6
Continuous
 62
     7
100
AcDbLine
 10
439.2019223323448
 20
473.9291701325814
 30
0.0
 11
438.7478982727659
 21
471.0685454358954
 31
0.0
  0
LINE
  5
80C
330
1F
100
AcDbEntity
  8
0
  6
Continuous
 62
     7
100
AcDbLine
 10
438.6322956499537
 20
474.6833866745835
 30
0.0
 11
439.2019223323448
 21
473.9291701325814
 31
0.0
  0
LINE
  5
80D
330
1F
100
AcDbEntity
  8
0
  6
Continuous
 62
     7
100
AcDbLine
 10
435.8622428087458
 20
474.6833866745835
 30
0.0
 11
438.6322956499537
 21
474.6833866745835
 31
0.0
  0
LINE
  5
80E
330
1F
100
AcDbEntity
  8
0
  6
Continuous
 62
     7
100
AcDbLine
 10
435.1834479209464
 20
474.050468138592
 30
0.0
 11
435.8622428087458
 21
474.6833866745835
 31
0.0
  0
LINE
  5
80F
330
1F
100
AcDbEntity
  8
0
  6
Continuous
 62
     7
100
AcDbLine
 10
434.7102652028012
 20
471.0685454358954
 30
0.0
 11
435.1834479209464
 21
474.050468138592
 31
0.0
  0
LINE
  5
810
330
1F
100
AcDbEntity
  8
0
  6
Continuous
 62
     7
100
AcDbLine
 10
435.444367161555
 20
471.0685454358954
 30
0.0
 11
435.8905108672339
 21
473.8800886215415
 31
0.0
  0
LINE
  5
811
330
1F
100
AcDbEntity
  8
0
  6
Continuous
 62
     7
100
AcDbLine
 10
434.8706918569737
 20
467.4537845270138
 30
0.0
 11
435.3169078594786
 21
470.2652473828537
 31
0.0
  0
LINE
  5
812
330
1F
100
AcDbEntity
  8
0
  6
Continuous
 62
     7
100
AcDbLine
 10
437.8863370119382
 20
470.2652473828537
 30
0.0
 11
437.4401210094335
 21
467.4537845270138
 31
0.0
  0
LINE
  5
813
330
1F
100
AcDbEntity
  8
0
  6
Continuous
 62
     7
100
AcDbLine
 10
438.4600123165173
 20
473.8800886215415
 30
0.0
 11
438.0137963140123
 21
471.0685454358954
 31
0.0
  0
LINE
  5
814
330
1F
100
AcDbEntity
  8
0
  6
Continuous
 62
     7
100
AcDbLine
 10
438.3171537907631
 20
470.666896409375
 30
0.0
 11
438.6204389706898
 21
470.2652473828537
 31
0.0
  0
LINE
  5
815
330
1F
100
AcDbEntity
  8
0
  6
Continuous
 62
     7
100
AcDbLine
 10
438.7478982727659
 20
471.0685454358954
 30
0.0
 11
438.3171537907631
 21
470.666896409375
 31
0.0
  0
LINE
  5
816
330
1F
100
AcDbEntity
  8
0
  6
Continuous
 62
     7
100
AcDbLine
 10
438.3171537907631
 20
470.666896409375
 30
0.0
 11
437.8863370119382
 21
470.2652473828537
 31
0.0
  0
LINE
  5
817
330
1F
100
AcDbEntity
  8
0
  6
Continuous
 62
     7
100
AcDbLine
 10
438.0137963140123
 20
471.0685454358954
 30
0.0
 11
438.3171537907631
 21
470.666896409375
 31
0.0
  0
LINE
  5
818
330
1F
100
AcDbEntity
  8
0
  6
Continuous
 62
     7
100
AcDbLine
 10
435.0135503827281
 20
470.666896409375
 30
0.0
 11
434.582805900725
 21
470.2652473828537
 31
0.0
  0
LINE
  5
819
330
1F
100
AcDbEntity
  8
0
  6
Continuous
 62
     7
100
AcDbLine
 10
434.7102652028012
 20
471.0685454358954
 30
0.0
 11
435.0135503827281
 21
470.666896409375
 31
0.0
  0
LINE
  5
81A
330
1F
100
AcDbEntity
  8
0
  6
Continuous
 62
     7
100
AcDbLine
 10
435.0135503827281
 20
470.666896409375
 30
0.0
 11
435.3169078594786
 21
470.2652473828537
 31
0.0
  0
LINE
  5
81B
330
1F
100
AcDbEntity
  8
0
  6
Continuous
 62
     7
100
AcDbLine
 10
435.444367161555
 20
471.0685454358954
 30
0.0
 11
435.0135503827281
 21
470.666896409375
 31
0.0
  0
LINE
  5
81C
330
1F
100
AcDbEntity
  8
0
  6
Continuous
 62
     7
100
AcDbLine
 10
437.4401210094335
 20
467.4537845270138
 30
0.0
 11
434.8706918569737
 21
467.4537845270138
 31
0.0
  0
LINE
  5
81D
330
1F
100
AcDbEntity
  8
0
  6
Continuous
 62
     7
100
AcDbLine
 10
435.8905108672339
 20
473.8800886215415
 30
0.0
 11
438.4600123165173
 21
473.8800886215415
 31
0.0
  0
LINE
  5
81E
330
1F
100
AcDbEntity
  8
0
  6
Continuous
 62
     7
100
AcDbLine
 10
435.3169078594786
 20
470.2652473828537
 30
0.0
 11
437.8863370119382
 21
470.2652473828537
 31
0.0
  0
LINE
  5
81F
330
1F
100
AcDbEntity
  8
0
  6
Continuous
 62
     7
100
AcDbLine
 10
435.444367161555
 20
471.0685454358954
 30
0.0
 11
438.0137963140123
 21
471.0685454358954
 31
0.0
  0
LINE
  5
823
330
1F
100
AcDbEntity
  8
0
  6
Continuous
 62
     7
100
AcDbLine
 10
459.7462845710585
 20
451.5158961506641
 30
0.0
 11
459.3401210094794
 21
452.0537845269813
 31
0.0
  0
LINE
  5
824
330
1F
100
AcDbEntity
  8
0
  6
Continuous
 62
     7
100
AcDbLine
 10
456.248491891679
 20
451.5668252472261
 30
0.0
 11
456.7706918570202
 21
452.0537845269813
 31
0.0
  0
LINE
  5
825
330
1F
100
AcDbEntity
  8
0
  6
Continuous
 62
     7
100
AcDbLine
 10
457.4228815133053
 20
458.9669675714581
 30
0.0
 11
457.7905108672803
 21
458.480088621509
 31
0.0
  0
LINE
  5
826
330
1F
100
AcDbEntity
  8
0
  6
Continuous
 62
     7
100
AcDbLine
 10
460.8170728427826
 20
458.9063185684539
 30
0.0
 11
460.3600123165636
 21
458.480088621509
 31
0.0
  0
LINE
  5
827
330
1F
100
AcDbEntity
  8
0
  6
Continuous
 62
     7
100
AcDbLine
 10
460.0310617638428
 20
451.781386157195
 30
0.0
 11
460.5204389707362
 21
454.8652473828211
 31
0.0
  0
LINE
  5
828
330
1F
100
AcDbEntity
  8
0
  6
Continuous
 62
     7
100
AcDbLine
 10
459.4615073782758
 20
451.2504061441335
 30
0.0
 11
460.0310617638428
 21
451.781386157195
 31
0.0
  0
LINE
  5
829
330
1F
100
AcDbEntity
  8
0
  6
Continuous
 62
     7
100
AcDbLine
 10
456.4875051943817
 20
451.2504061441335
 30
0.0
 11
459.4615073782758
 21
451.2504061441335
 31
0.0
  0
LINE
  5
82A
330
1F
100
AcDbEntity
  8
0
  6
Continuous
 62
     7
100
AcDbLine
 10
456.0095508858026
 20
451.8832443503189
 30
0.0
 11
456.4875051943817
 21
451.2504061441335
 31
0.0
  0
LINE
  5
82B
330
1F
100
AcDbEntity
  8
0
  6
Continuous
 62
     7
100
AcDbLine
 10
456.4828059007713
 20
454.8652473828211
 30
0.0
 11
456.0095508858026
 21
451.8832443503189
 31
0.0
  0
LINE
  5
82C
330
1F
100
AcDbEntity
  8
0
  6
Continuous
 62
     7
100
AcDbLine
 10
461.1019223323912
 20
458.5291701325489
 30
0.0
 11
460.6478982728123
 21
455.6685454358633
 31
0.0
  0
LINE
  5
82D
330
1F
100
AcDbEntity
  8
0
  6
Continuous
 62
     7
100
AcDbLine
 10
460.53229565
 20
459.2833866745506
 30
0.0
 11
461.1019223323912
 21
458.5291701325489
 31
0.0
  0
LINE
  5
82E
330
1F
100
AcDbEntity
  8
0
  6
Continuous
 62
     7
100
AcDbLine
 10
457.7622428087923
 20
459.2833866745506
 30
0.0
 11
460.53229565
 21
459.2833866745506
 31
0.0
  0
LINE
  5
82F
330
1F
100
AcDbEntity
  8
0
  6
Continuous
 62
     7
100
AcDbLine
 10
457.0834479209927
 20
458.6504681385593
 30
0.0
 11
457.7622428087923
 21
459.2833866745506
 31
0.0
  0
LINE
  5
830
330
1F
100
AcDbEntity
  8
0
  6
Continuous
 62
     7
100
AcDbLine
 10
456.6102652028477
 20
455.6685454358633
 30
0.0
 11
457.0834479209927
 21
458.6504681385593
 31
0.0
  0
LINE
  5
831
330
1F
100
AcDbEntity
  8
0
  6
Continuous
 62
     7
100
AcDbLine
 10
457.3443671616013
 20
455.6685454358633
 30
0.0
 11
457.7905108672803
 21
458.480088621509
 31
0.0
  0
LINE
  5
832
330
1F
100
AcDbEntity
  8
0
  6
Continuous
 62
     7
100
AcDbLine
 10
456.7706918570202
 20
452.0537845269813
 30
0.0
 11
457.216907859525
 21
454.8652473828211
 31
0.0
  0
LINE
  5
833
330
1F
100
AcDbEntity
  8
0
  6
Continuous
 62
     7
100
AcDbLine
 10
459.7863370119846
 20
454.8652473828211
 30
0.0
 11
459.3401210094794
 21
452.0537845269813
 31
0.0
  0
LINE
  5
834
330
1F
100
AcDbEntity
  8
0
  6
Continuous
 62
     7
100
AcDbLine
 10
460.3600123165636
 20
458.480088621509
 30
0.0
 11
459.9137963140588
 21
455.6685454358633
 31
0.0
  0
LINE
  5
835
330
1F
100
AcDbEntity
  8
0
  6
Continuous
 62
     7
100
AcDbLine
 10
460.2171537908096
 20
455.2668964093425
 30
0.0
 11
460.5204389707362
 21
454.8652473828211
 31
0.0
  0
LINE
  5
836
330
1F
100
AcDbEntity
  8
0
  6
Continuous
 62
     7
100
AcDbLine
 10
460.6478982728123
 20
455.6685454358633
 30
0.0
 11
460.2171537908096
 21
455.2668964093425
 31
0.0
  0
LINE
  5
837
330
1F
100
AcDbEntity
  8
0
  6
Continuous
 62
     7
100
AcDbLine
 10
460.2171537908096
 20
455.2668964093425
 30
0.0
 11
459.7863370119846
 21
454.8652473828211
 31
0.0
  0
LINE
  5
838
330
1F
100
AcDbEntity
  8
0
  6
Continuous
 62
     7
100
AcDbLine
 10
459.9137963140588
 20
455.6685454358633
 30
0.0
 11
460.2171537908096
 21
455.2668964093425
 31
0.0
  0
LINE
  5
839
330
1F
100
AcDbEntity
  8
0
  6
Continuous
 62
     7
100
AcDbLine
 10
456.9135503827745
 20
455.2668964093425
 30
0.0
 11
456.4828059007713
 21
454.8652473828211
 31
0.0
  0
LINE
  5
83A
330
1F
100
AcDbEntity
  8
0
  6
Continuous
 62
     7
100
AcDbLine
 10
456.6102652028477
 20
455.6685454358633
 30
0.0
 11
456.9135503827745
 21
455.2668964093425
 31
0.0
  0
LINE
  5
83B
330
1F
100
AcDbEntity
  8
0
  6
Continuous
 62
     7
100
AcDbLine
 10
456.9135503827745
 20
455.2668964093425
 30
0.0
 11
457.216907859525
 21
454.8652473828211
 31
0.0
  0
LINE
  5
83C
330
1F
100
AcDbEntity
  8
0
  6
Continuous
 62
     7
100
AcDbLine
 10
457.3443671616013
 20
455.6685454358633
 30
0.0
 11
456.9135503827745
 21
455.2668964093425
 31
0.0
  0
LINE
  5
83D
330
1F
100
AcDbEntity
  8
0
  6
Continuous
 62
     7
100
AcDbLine
 10
459.3401210094794
 20
452.0537845269813
 30
0.0
 11
456.7706918570202
 21
452.0537845269813
 31
0.0
  0
LINE
  5
83E
330
1F
100
AcDbEntity
  8
0
  6
Continuous
 62
     7
100
AcDbLine
 10
457.7905108672803
 20
458.480088621509
 30
0.0
 11
460.3600123165636
 21
458.480088621509
 31
0.0
  0
LINE
  5
83F
330
1F
100
AcDbEntity
  8
0
  6
Continuous
 62
     7
100
AcDbLine
 10
457.216907859525
 20
454.8652473828211
 30
0.0
 11
459.7863370119846
 21
454.8652473828211
 31
0.0
  0
LINE
  5
840
330
1F
100
AcDbEntity
  8
0
  6
Continuous
 62
     7
100
AcDbLine
 10
457.3443671616013
 20
455.6685454358633
 30
0.0
 11
459.9137963140588
 21
455.6685454358633
 31
0.0
  0
LINE
  5
844
330
1F
100
AcDbEntity
  8
0
  6
Continuous
 62
     7
100
AcDbLine
 10
452.446284571043
 20
451.5158961506641
 30
0.0
 11
452.040121009464
 21
452.0537845269813
 31
0.0
  0
LINE
  5
845
330
1F
100
AcDbEntity
  8
0
  6
Continuous
 62
     7
100
AcDbLine
 10
448.9484918916654
 20
451.5668252472261
 30
0.0
 11
449.4706918570048
 21
452.0537845269813
 31
0.0
  0
LINE
  5
846
330
1F
100
AcDbEntity
  8
0
  6
Continuous
 62
     7
100
AcDbLine
 10
450.12288151329
 20
458.9669675714581
 30
0.0
 11
450.490510867265
 21
458.480088621509
 31
0.0
  0
LINE
  5
847
330
1F
100
AcDbEntity
  8
0
  6
Continuous
 62
     7
100
AcDbLine
 10
453.5170728427675
 20
458.9063185684539
 30
0.0
 11
453.0600123165481
 21
458.480088621509
 31
0.0
  0
LINE
  5
848
330
1F
100
AcDbEntity
  8
0
  6
Continuous
 62
     7
100
AcDbLine
 10
452.7310617638275
 20
451.781386157195
 30
0.0
 11
453.2204389707206
 21
454.8652473828211
 31
0.0
  0
LINE
  5
849
330
1F
100
AcDbEntity
  8
0
  6
Continuous
 62
     7
100
AcDbLine
 10
452.1615073782603
 20
451.2504061441335
 30
0.0
 11
452.7310617638275
 21
451.781386157195
 31
0.0
  0
LINE
  5
84A
330
1F
100
AcDbEntity
  8
0
  6
Continuous
 62
     7
100
AcDbLine
 10
449.1875051943662
 20
451.2504061441335
 30
0.0
 11
452.1615073782603
 21
451.2504061441335
 31
0.0
  0
LINE
  5
84B
330
1F
100
AcDbEntity
  8
0
  6
Continuous
 62
     7
100
AcDbLine
 10
448.7095508857872
 20
451.8832443503189
 30
0.0
 11
449.1875051943662
 21
451.2504061441335
 31
0.0
  0
LINE
  5
84C
330
1F
100
AcDbEntity
  8
0
  6
Continuous
 62
     7
100
AcDbLine
 10
449.1828059007558
 20
454.8652473828211
 30
0.0
 11
448.7095508857872
 21
451.8832443503189
 31
0.0
  0
LINE
  5
84D
330
1F
100
AcDbEntity
  8
0
  6
Continuous
 62
     7
100
AcDbLine
 10
453.8019223323757
 20
458.5291701325489
 30
0.0
 11
453.3478982727968
 21
455.6685454358633
 31
0.0
  0
LINE
  5
84E
330
1F
100
AcDbEntity
  8
0
  6
Continuous
 62
     7
100
AcDbLine
 10
453.2322956499846
 20
459.2833866745506
 30
0.0
 11
453.8019223323757
 21
458.5291701325489
 31
0.0
  0
LINE
  5
84F
330
1F
100
AcDbEntity
  8
0
  6
Continuous
 62
     7
100
AcDbLine
 10
450.4622428087769
 20
459.2833866745506
 30
0.0
 11
453.2322956499846
 21
459.2833866745506
 31
0.0
  0
LINE
  5
850
330
1F
100
AcDbEntity
  8
0
  6
Continuous
 62
     7
100
AcDbLine
 10
449.7834479209775
 20
458.6504681385593
 30
0.0
 11
450.4622428087769
 21
459.2833866745506
 31
0.0
  0
LINE
  5
851
330
1F
100
AcDbEntity
  8
0
  6
Continuous
 62
     7
100
AcDbLine
 10
449.3102652028321
 20
455.6685454358633
 30
0.0
 11
449.7834479209775
 21
458.6504681385593
 31
0.0
  0
LINE
  5
852
330
1F
100
AcDbEntity
  8
0
  6
Continuous
 62
     7
100
AcDbLine
 10
450.0443671615861
 20
455.6685454358633
 30
0.0
 11
450.490510867265
 21
458.480088621509
 31
0.0
  0
LINE
  5
853
330
1F
100
AcDbEntity
  8
0
  6
Continuous
 62
     7
100
AcDbLine
 10
449.4706918570048
 20
452.0537845269813
 30
0.0
 11
449.9169078595096
 21
454.8652473828211
 31
0.0
  0
LINE
  5
854
330
1F
100
AcDbEntity
  8
0
  6
Continuous
 62
     7
100
AcDbLine
 10
452.4863370119692
 20
454.8652473828211
 30
0.0
 11
452.040121009464
 21
452.0537845269813
 31
0.0
  0
LINE
  5
855
330
1F
100
AcDbEntity
  8
0
  6
Continuous
 62
     7
100
AcDbLine
 10
453.0600123165481
 20
458.480088621509
 30
0.0
 11
452.6137963140433
 21
455.6685454358633
 31
0.0
  0
LINE
  5
856
330
1F
100
AcDbEntity
  8
0
  6
Continuous
 62
     7
100
AcDbLine
 10
452.9171537907941
 20
455.2668964093425
 30
0.0
 11
453.2204389707206
 21
454.8652473828211
 31
0.0
  0
LINE
  5
857
330
1F
100
AcDbEntity
  8
0
  6
Continuous
 62
     7
100
AcDbLine
 10
453.3478982727968
 20
455.6685454358633
 30
0.0
 11
452.9171537907941
 21
455.2668964093425
 31
0.0
  0
LINE
  5
858
330
1F
100
AcDbEntity
  8
0
  6
Continuous
 62
     7
100
AcDbLine
 10
452.9171537907941
 20
455.2668964093425
 30
0.0
 11
452.4863370119692
 21
454.8652473828211
 31
0.0
  0
LINE
  5
859
330
1F
100
AcDbEntity
  8
0
  6
Continuous
 62
     7
100
AcDbLine
 10
452.6137963140433
 20
455.6685454358633
 30
0.0
 11
452.9171537907941
 21
455.2668964093425
 31
0.0
  0
LINE
  5
85A
330
1F
100
AcDbEntity
  8
0
  6
Continuous
 62
     7
100
AcDbLine
 10
449.613550382759
 20
455.2668964093425
 30
0.0
 11
449.1828059007558
 21
454.8652473828211
 31
0.0
  0
LINE
  5
85B
330
1F
100
AcDbEntity
  8
0
  6
Continuous
 62
     7
100
AcDbLine
 10
449.3102652028321
 20
455.6685454358633
 30
0.0
 11
449.613550382759
 21
455.2668964093425
 31
0.0
  0
LINE
  5
85C
330
1F
100
AcDbEntity
  8
0
  6
Continuous
 62
     7
100
AcDbLine
 10
449.613550382759
 20
455.2668964093425
 30
0.0
 11
449.9169078595096
 21
454.8652473828211
 31
0.0
  0
LINE
  5
85D
330
1F
100
AcDbEntity
  8
0
  6
Continuous
 62
     7
100
AcDbLine
 10
450.0443671615861
 20
455.6685454358633
 30
0.0
 11
449.613550382759
 21
455.2668964093425
 31
0.0
  0
LINE
  5
85E
330
1F
100
AcDbEntity
  8
0
  6
Continuous
 62
     7
100
AcDbLine
 10
452.040121009464
 20
452.0537845269813
 30
0.0
 11
449.4706918570048
 21
452.0537845269813
 31
0.0
  0
LINE
  5
85F
330
1F
100
AcDbEntity
  8
0
  6
Continuous
 62
     7
100
AcDbLine
 10
450.490510867265
 20
458.480088621509
 30
0.0
 11
453.0600123165481
 21
458.480088621509
 31
0.0
  0
LINE
  5
860
330
1F
100
AcDbEntity
  8
0
  6
Continuous
 62
     7
100
AcDbLine
 10
449.9169078595096
 20
454.8652473828211
 30
0.0
 11
452.4863370119692
 21
454.8652473828211
 31
0.0
  0
LINE
  5
861
330
1F
100
AcDbEntity
  8
0
  6
Continuous
 62
     7
100
AcDbLine
 10
450.0443671615861
 20
455.6685454358633
 30
0.0
 11
452.6137963140433
 21
455.6685454358633
 31
0.0
  0
LINE
  5
865
330
1F
100
AcDbEntity
  8
0
  6
Continuous
 62
     7
100
AcDbLine
 10
445.1462845710273
 20
451.5158961506641
 30
0.0
 11
444.7401210094484
 21
452.0537845269813
 31
0.0
  0
LINE
  5
866
330
1F
100
AcDbEntity
  8
0
  6
Continuous
 62
     7
100
AcDbLine
 10
441.6484918916482
 20
451.5668252472261
 30
0.0
 11
442.1706918569889
 21
452.0537845269813
 31
0.0
  0
LINE
  5
867
330
1F
100
AcDbEntity
  8
0
  6
Continuous
 62
     7
100
AcDbLine
 10
442.8228815132746
 20
458.9669675714581
 30
0.0
 11
443.1905108672493
 21
458.480088621509
 31
0.0
  0
LINE
  5
868
330
1F
100
AcDbEntity
  8
0
  6
Continuous
 62
     7
100
AcDbLine
 10
446.2170728427516
 20
458.9063185684539
 30
0.0
 11
445.7600123165328
 21
458.480088621509
 31
0.0
  0
LINE
  5
869
330
1F
100
AcDbEntity
  8
0
  6
Continuous
 62
     7
100
AcDbLine
 10
445.431061763812
 20
451.781386157195
 30
0.0
 11
445.9204389707053
 21
454.8652473828211
 31
0.0
  0
LINE
  5
86A
330
1F
100
AcDbEntity
  8
0
  6
Continuous
 62
     7
100
AcDbLine
 10
444.8615073782448
 20
451.2504061441335
 30
0.0
 11
445.431061763812
 21
451.781386157195
 31
0.0
  0
LINE
  5
86B
330
1F
100
AcDbEntity
  8
0
  6
Continuous
 62
     7
100
AcDbLine
 10
441.8875051943508
 20
451.2504061441335
 30
0.0
 11
444.8615073782448
 21
451.2504061441335
 31
0.0
  0
LINE
  5
86C
330
1F
100
AcDbEntity
  8
0
  6
Continuous
 62
     7
100
AcDbLine
 10
441.4095508857714
 20
451.8832443503189
 30
0.0
 11
441.8875051943508
 21
451.2504061441335
 31
0.0
  0
LINE
  5
86D
330
1F
100
AcDbEntity
  8
0
  6
Continuous
 62
     7
100
AcDbLine
 10
441.8828059007406
 20
454.8652473828211
 30
0.0
 11
441.4095508857714
 21
451.8832443503189
 31
0.0
  0
LINE
  5
86E
330
1F
100
AcDbEntity
  8
0
  6
Continuous
 62
     7
100
AcDbLine
 10
446.5019223323603
 20
458.5291701325489
 30
0.0
 11
446.0478982727813
 21
455.6685454358633
 31
0.0
  0
LINE
  5
86F
330
1F
100
AcDbEntity
  8
0
  6
Continuous
 62
     7
100
AcDbLine
 10
445.932295649969
 20
459.2833866745506
 30
0.0
 11
446.5019223323603
 21
458.5291701325489
 31
0.0
  0
LINE
  5
870
330
1F
100
AcDbEntity
  8
0
  6
Continuous
 62
     7
100
AcDbLine
 10
443.1622428087614
 20
459.2833866745506
 30
0.0
 11
445.932295649969
 21
459.2833866745506
 31
0.0
  0
LINE
  5
871
330
1F
100
AcDbEntity
  8
0
  6
Continuous
 62
     7
100
AcDbLine
 10
442.483447920962
 20
458.6504681385593
 30
0.0
 11
443.1622428087614
 21
459.2833866745506
 31
0.0
  0
LINE
  5
872
330
1F
100
AcDbEntity
  8
0
  6
Continuous
 62
     7
100
AcDbLine
 10
442.0102652028167
 20
455.6685454358633
 30
0.0
 11
442.483447920962
 21
458.6504681385593
 31
0.0
  0
LINE
  5
873
330
1F
100
AcDbEntity
  8
0
  6
Continuous
 62
     7
100
AcDbLine
 10
442.7443671615702
 20
455.6685454358633
 30
0.0
 11
443.1905108672493
 21
458.480088621509
 31
0.0
  0
LINE
  5
874
330
1F
100
AcDbEntity
  8
0
  6
Continuous
 62
     7
100
AcDbLine
 10
442.1706918569889
 20
452.0537845269813
 30
0.0
 11
442.6169078594941
 21
454.8652473828211
 31
0.0
  0
LINE
  5
875
330
1F
100
AcDbEntity
  8
0
  6
Continuous
 62
     7
100
AcDbLine
 10
445.1863370119538
 20
454.8652473828211
 30
0.0
 11
444.7401210094484
 21
452.0537845269813
 31
0.0
  0
LINE
  5
876
330
1F
100
AcDbEntity
  8
0
  6
Continuous
 62
     7
100
AcDbLine
 10
445.7600123165328
 20
458.480088621509
 30
0.0
 11
445.3137963140278
 21
455.6685454358633
 31
0.0
  0
LINE
  5
877
330
1F
100
AcDbEntity
  8
0
  6
Continuous
 62
     7
100
AcDbLine
 10
445.6171537907785
 20
455.2668964093425
 30
0.0
 11
445.9204389707053
 21
454.8652473828211
 31
0.0
  0
LINE
  5
878
330
1F
100
AcDbEntity
  8
0
  6
Continuous
 62
     7
100
AcDbLine
 10
446.0478982727813
 20
455.6685454358633
 30
0.0
 11
445.6171537907785
 21
455.2668964093425
 31
0.0
  0
LINE
  5
879
330
1F
100
AcDbEntity
  8
0
  6
Continuous
 62
     7
100
AcDbLine
 10
445.6171537907785
 20
455.2668964093425
 30
0.0
 11
445.1863370119538
 21
454.8652473828211
 31
0.0
  0
LINE
  5
87A
330
1F
100
AcDbEntity
  8
0
  6
Continuous
 62
     7
100
AcDbLine
 10
445.3137963140278
 20
455.6685454358633
 30
0.0
 11
445.6171537907785
 21
455.2668964093425
 31
0.0
  0
LINE
  5
87B
330
1F
100
AcDbEntity
  8
0
  6
Continuous
 62
     7
100
AcDbLine
 10
442.3135503827435
 20
455.2668964093425
 30
0.0
 11
441.8828059007406
 21
454.8652473828211
 31
0.0
  0
LINE
  5
87C
330
1F
100
AcDbEntity
  8
0
  6
Continuous
 62
     7
100
AcDbLine
 10
442.0102652028167
 20
455.6685454358633
 30
0.0
 11
442.3135503827435
 21
455.2668964093425
 31
0.0
  0
LINE
  5
87D
330
1F
100
AcDbEntity
  8
0
  6
Continuous
 62
     7
100
AcDbLine
 10
442.3135503827435
 20
455.2668964093425
 30
0.0
 11
442.6169078594941
 21
454.8652473828211
 31
0.0
  0
LINE
  5
87E
330
1F
100
AcDbEntity
  8
0
  6
Continuous
 62
     7
100
AcDbLine
 10
442.7443671615702
 20
455.6685454358633
 30
0.0
 11
442.3135503827435
 21
455.2668964093425
 31
0.0
  0
LINE
  5
87F
330
1F
100
AcDbEntity
  8
0
  6
Continuous
 62
     7
100
AcDbLine
 10
444.7401210094484
 20
452.0537845269813
 30
0.0
 11
442.1706918569889
 21
452.0537845269813
 31
0.0
  0
LINE
  5
880
330
1F
100
AcDbEntity
  8
0
  6
Continuous
 62
     7
100
AcDbLine
 10
443.1905108672493
 20
458.480088621509
 30
0.0
 11
445.7600123165328
 21
458.480088621509
 31
0.0
  0
LINE
  5
881
330
1F
100
AcDbEntity
  8
0
  6
Continuous
 62
     7
100
AcDbLine
 10
442.6169078594941
 20
454.8652473828211
 30
0.0
 11
445.1863370119538
 21
454.8652473828211
 31
0.0
  0
LINE
  5
882
330
1F
100
AcDbEntity
  8
0
  6
Continuous
 62
     7
100
AcDbLine
 10
442.7443671615702
 20
455.6685454358633
 30
0.0
 11
445.3137963140278
 21
455.6685454358633
 31
0.0
  0
LINE
  5
886
330
1F
100
AcDbEntity
  8
0
  6
Continuous
 62
     7
100
AcDbLine
 10
437.8462845710119
 20
451.5158961506641
 30
0.0
 11
437.4401210094335
 21
452.0537845269813
 31
0.0
  0
LINE
  5
887
330
1F
100
AcDbEntity
  8
0
  6
Continuous
 62
     7
100
AcDbLine
 10
434.3484918916327
 20
451.5668252472261
 30
0.0
 11
434.8706918569737
 21
452.0537845269813
 31
0.0
  0
LINE
  5
888
330
1F
100
AcDbEntity
  8
0
  6
Continuous
 62
     7
100
AcDbLine
 10
435.5228815132591
 20
458.9669675714581
 30
0.0
 11
435.8905108672339
 21
458.480088621509
 31
0.0
  0
LINE
  5
889
330
1F
100
AcDbEntity
  8
0
  6
Continuous
 62
     7
100
AcDbLine
 10
438.9170728427362
 20
458.9063185684539
 30
0.0
 11
438.4600123165173
 21
458.480088621509
 31
0.0
  0
LINE
  5
88A
330
1F
100
AcDbEntity
  8
0
  6
Continuous
 62
     7
100
AcDbLine
 10
438.1310617637964
 20
451.781386157195
 30
0.0
 11
438.6204389706898
 21
454.8652473828211
 31
0.0
  0
LINE
  5
88B
330
1F
100
AcDbEntity
  8
0
  6
Continuous
 62
     7
100
AcDbLine
 10
437.5615073782292
 20
451.2504061441335
 30
0.0
 11
438.1310617637964
 21
451.781386157195
 31
0.0
  0
LINE
  5
88C
330
1F
100
AcDbEntity
  8
0
  6
Continuous
 62
     7
100
AcDbLine
 10
434.5875051943351
 20
451.2504061441335
 30
0.0
 11
437.5615073782292
 21
451.2504061441335
 31
0.0
  0
LINE
  5
88D
330
1F
100
AcDbEntity
  8
0
  6
Continuous
 62
     7
100
AcDbLine
 10
434.1095508857562
 20
451.8832443503189
 30
0.0
 11
434.5875051943351
 21
451.2504061441335
 31
0.0
  0
LINE
  5
88E
330
1F
100
AcDbEntity
  8
0
  6
Continuous
 62
     7
100
AcDbLine
 10
434.582805900725
 20
454.8652473828211
 30
0.0
 11
434.1095508857562
 21
451.8832443503189
 31
0.0
  0
LINE
  5
88F
330
1F
100
AcDbEntity
  8
0
  6
Continuous
 62
     7
100
AcDbLine
 10
439.2019223323448
 20
458.5291701325489
 30
0.0
 11
438.7478982727659
 21
455.6685454358633
 31
0.0
  0
LINE
  5
890
330
1F
100
AcDbEntity
  8
0
  6
Continuous
 62
     7
100
AcDbLine
 10
438.6322956499537
 20
459.2833866745506
 30
0.0
 11
439.2019223323448
 21
458.5291701325489
 31
0.0
  0
LINE
  5
891
330
1F
100
AcDbEntity
  8
0
  6
Continuous
 62
     7
100
AcDbLine
 10
435.8622428087458
 20
459.2833866745506
 30
0.0
 11
438.6322956499537
 21
459.2833866745506
 31
0.0
  0
LINE
  5
892
330
1F
100
AcDbEntity
  8
0
  6
Continuous
 62
     7
100
AcDbLine
 10
435.1834479209464
 20
458.6504681385593
 30
0.0
 11
435.8622428087458
 21
459.2833866745506
 31
0.0
  0
LINE
  5
893
330
1F
100
AcDbEntity
  8
0
  6
Continuous
 62
     7
100
AcDbLine
 10
434.7102652028012
 20
455.6685454358633
 30
0.0
 11
435.1834479209464
 21
458.6504681385593
 31
0.0
  0
LINE
  5
894
330
1F
100
AcDbEntity
  8
0
  6
Continuous
 62
     7
100
AcDbLine
 10
435.444367161555
 20
455.6685454358633
 30
0.0
 11
435.8905108672339
 21
458.480088621509
 31
0.0
  0
LINE
  5
895
330
1F
100
AcDbEntity
  8
0
  6
Continuous
 62
     7
100
AcDbLine
 10
434.8706918569737
 20
452.0537845269813
 30
0.0
 11
435.3169078594786
 21
454.8652473828211
 31
0.0
  0
LINE
  5
896
330
1F
100
AcDbEntity
  8
0
  6
Continuous
 62
     7
100
AcDbLine
 10
437.8863370119382
 20
454.8652473828211
 30
0.0
 11
437.4401210094335
 21
452.0537845269813
 31
0.0
  0
LINE
  5
897
330
1F
100
AcDbEntity
  8
0
  6
Continuous
 62
     7
100
AcDbLine
 10
438.4600123165173
 20
458.480088621509
 30
0.0
 11
438.0137963140123
 21
455.6685454358633
 31
0.0
  0
LINE
  5
898
330
1F
100
AcDbEntity
  8
0
  6
Continuous
 62
     7
100
AcDbLine
 10
438.3171537907631
 20
455.2668964093425
 30
0.0
 11
438.6204389706898
 21
454.8652473828211
 31
0.0
  0
LINE
  5
899
330
1F
100
AcDbEntity
  8
0
  6
Continuous
 62
     7
100
AcDbLine
 10
438.7478982727659
 20
455.6685454358633
 30
0.0
 11
438.3171537907631
 21
455.2668964093425
 31
0.0
  0
LINE
  5
89A
330
1F
100
AcDbEntity
  8
0
  6
Continuous
 62
     7
100
AcDbLine
 10
438.3171537907631
 20
455.2668964093425
 30
0.0
 11
437.8863370119382
 21
454.8652473828211
 31
0.0
  0
LINE
  5
89B
330
1F
100
AcDbEntity
  8
0
  6
Continuous
 62
     7
100
AcDbLine
 10
438.0137963140123
 20
455.6685454358633
 30
0.0
 11
438.3171537907631
 21
455.2668964093425
 31
0.0
  0
LINE
  5
89C
330
1F
100
AcDbEntity
  8
0
  6
Continuous
 62
     7
100
AcDbLine
 10
435.0135503827281
 20
455.2668964093425
 30
0.0
 11
434.582805900725
 21
454.8652473828211
 31
0.0
  0
LINE
  5
89D
330
1F
100
AcDbEntity
  8
0
  6
Continuous
 62
     7
100
AcDbLine
 10
434.7102652028012
 20
455.6685454358633
 30
0.0
 11
435.0135503827281
 21
455.2668964093425
 31
0.0
  0
LINE
  5
89E
330
1F
100
AcDbEntity
  8
0
  6
Continuous
 62
     7
100
AcDbLine
 10
435.0135503827281
 20
455.2668964093425
 30
0.0
 11
435.3169078594786
 21
454.8652473828211
 31
0.0
  0
LINE
  5
89F
330
1F
100
AcDbEntity
  8
0
  6
Continuous
 62
     7
100
AcDbLine
 10
435.444367161555
 20
455.6685454358633
 30
0.0
 11
435.0135503827281
 21
455.2668964093425
 31
0.0
  0
LINE
  5
8A0
330
1F
100
AcDbEntity
  8
0
  6
Continuous
 62
     7
100
AcDbLine
 10
437.4401210094335
 20
452.0537845269813
 30
0.0
 11
434.8706918569737
 21
452.0537845269813
 31
0.0
  0
LINE
  5
8A1
330
1F
100
AcDbEntity
  8
0
  6
Continuous
 62
     7
100
AcDbLine
 10
435.8905108672339
 20
458.480088621509
 30
0.0
 11
438.4600123165173
 21
458.480088621509
 31
0.0
  0
LINE
  5
8A2
330
1F
100
AcDbEntity
  8
0
  6
Continuous
 62
     7
100
AcDbLine
 10
435.3169078594786
 20
454.8652473828211
 30
0.0
 11
437.8863370119382
 21
454.8652473828211
 31
0.0
  0
LINE
  5
8A3
330
1F
100
AcDbEntity
  8
0
  6
Continuous
 62
     7
100
AcDbLine
 10
435.444367161555
 20
455.6685454358633
 30
0.0
 11
438.0137963140123
 21
455.6685454358633
 31
0.0
  0
LINE
  5
8A7
330
1F
100
AcDbEntity
  8
0
  6
Continuous
 62
     7
100
AcDbLine
 10
424.614688255976
 20
492.2668953927765
 30
0.0
 11
470.6146882560736
 21
492.2668953927765
 31
0.0
  0
ARC
  5
8A8
330
1F
100
AcDbEntity
  8
0
  6
Continuous
 62
     7
100
AcDbCircle
 10
424.6146882559763
 20
490.2668953927718
 30
0.0
 40
2.000000000004575
100
AcDbArc
 50
90.00000000000978
 51
179.9999999999899
  0
ARC
  5
8A9
330
1F
100
AcDbEntity
  8
0
  6
Continuous
 62
     7
100
AcDbCircle
 10
447.6146882560248
 20
489.2668953927697
 30
0.0
 40
4.000000000008499
100
AcDbArc
 50
180.0
 51
0.0
  0
ARC
  5
8AA
330
1F
100
AcDbEntity
  8
0
  6
Continuous
 62
     7
100
AcDbCircle
 10
468.6146882560688
 20
482.2668953927553
 30
0.0
 40
1.000000000002287
100
AcDbArc
 50
0.0000000000065138
 51
89.99999999999024
  0
LINE
  5
8AB
330
1F
100
AcDbEntity
  8
0
  6
Continuous
 62
     7
100
AcDbLine
 10
426.6146882559803
 20
483.2668953927575
 30
0.0
 11
468.6146882560692
 21
483.2668953927575
 31
0.0
  0
ARC
  5
8AC
330
1F
100
AcDbEntity
  8
0
  6
Continuous
 62
     7
100
AcDbCircle
 10
426.6146882559803
 20
482.2668953927553
 30
0.0
 40
1.000000000002231
100
AcDbArc
 50
90.00000000000978
 51
179.9999999999934
  0
LINE
  5
8AD
330
1F
100
AcDbEntity
  8
0
  6
Continuous
 62
     7
100
AcDbLine
 10
451.6146882560334
 20
492.2668953927765
 30
0.0
 11
451.6146882560334
 21
489.2668953927697
 31
0.0
  0
LINE
  5
8AE
330
1F
100
AcDbEntity
  8
0
  6
Continuous
 62
     7
100
AcDbLine
 10
443.6146882560164
 20
492.2668953927765
 30
0.0
 11
443.6146882560164
 21
489.2668953927697
 31
0.0
  0
ARC
  5
8AF
330
1F
100
AcDbEntity
  8
0
  6
Continuous
 62
     7
100
AcDbCircle
 10
426.6146882559803
 20
482.2668953927553
 30
0.0
 40
1.000000000002231
100
AcDbArc
 50
90.00000000000978
 51
179.9999999999934
  0
LINE
  5
8B0
330
1F
100
AcDbEntity
  8
0
  6
Continuous
 62
     7
100
AcDbLine
 10
426.6146882559803
 20
483.2668953927575
 30
0.0
 11
468.6146882560692
 21
483.2668953927575
 31
0.0
  0
ARC
  5
8B1
330
1F
100
AcDbEntity
  8
0
  6
Continuous
 62
     7
100
AcDbCircle
 10
468.6146882560688
 20
482.2668953927553
 30
0.0
 40
1.000000000002287
100
AcDbArc
 50
0.0000000000065138
 51
89.99999999999024
  0
LINE
  5
8B2
330
1F
100
AcDbEntity
  8
0
  6
Continuous
 62
     7
100
AcDbLine
 10
448.1146882560138
 20
491.2668953928005
 30
0.0
 11
448.1146882560138
 21
491.2668953928005
 31
0.0
  0
LINE
  5
8B3
330
1F
100
AcDbEntity
  8
0
  6
Continuous
 62
     7
100
AcDbLine
 10
448.1146882560216
 20
489.766895392785
 30
0.0
 11
448.1146882560138
 21
491.2668953928005
 31
0.0
  0
LINE
  5
8B4
330
1F
100
AcDbEntity
  8
0
  6
Continuous
 62
     7
100
AcDbLine
 10
449.6146882560248
 20
489.7668953927935
 30
0.0
 11
448.1146882560216
 21
489.766895392785
 31
0.0
  0
LINE
  5
8B5
330
1F
100
AcDbEntity
  8
0
  6
Continuous
 62
     7
100
AcDbLine
 10
449.6146882560308
 20
488.7668953928029
 30
0.0
 11
449.6146882560248
 21
489.7668953927935
 31
0.0
  0
LINE
  5
8B6
330
1F
100
AcDbEntity
  8
0
  6
Continuous
 62
     7
100
AcDbLine
 10
448.1146882560279
 20
488.7668953927951
 30
0.0
 11
449.6146882560308
 21
488.7668953928029
 31
0.0
  0
LINE
  5
8B7
330
1F
100
AcDbEntity
  8
0
  6
Continuous
 62
     7
100
AcDbLine
 10
448.1146882560357
 20
487.2668953927922
 30
0.0
 11
448.1146882560279
 21
488.7668953927951
 31
0.0
  0
LINE
  5
8B8
330
1F
100
AcDbEntity
  8
0
  6
Continuous
 62
     7
100
AcDbLine
 10
447.1146882560335
 20
487.2668953927742
 30
0.0
 11
448.1146882560357
 21
487.2668953927922
 31
0.0
  0
LINE
  5
8B9
330
1F
100
AcDbEntity
  8
0
  6
Continuous
 62
     7
100
AcDbLine
 10
447.1146882560256
 20
488.7668953927913
 30
0.0
 11
447.1146882560335
 21
487.2668953927742
 31
0.0
  0
LINE
  5
8BA
330
1F
100
AcDbEntity
  8
0
  6
Continuous
 62
     7
100
AcDbLine
 10
445.6146882560226
 20
488.7668953927806
 30
0.0
 11
447.1146882560256
 21
488.7668953927913
 31
0.0
  0
LINE
  5
8BB
330
1F
100
AcDbEntity
  8
0
  6
Continuous
 62
     7
100
AcDbLine
 10
445.6146882560168
 20
489.7668953927712
 30
0.0
 11
445.6146882560226
 21
488.7668953927806
 31
0.0
  0
LINE
  5
8BC
330
1F
100
AcDbEntity
  8
0
  6
Continuous
 62
     7
100
AcDbLine
 10
447.1146882560197
 20
489.7668953927935
 30
0.0
 11
445.6146882560168
 21
489.7668953927712
 31
0.0
  0
LINE
  5
8BD
330
1F
100
AcDbEntity
  8
0
  6
Continuous
 62
     7
100
AcDbLine
 10
447.1146882560118
 20
491.2668953927943
 30
0.0
 11
447.1146882560197
 21
489.7668953927935
 31
0.0
  0
LINE
  5
8BE
330
1F
100
AcDbEntity
  8
0
  6
Continuous
 62
     7
100
AcDbLine
 10
448.1146882560138
 20
491.2668953928005
 30
0.0
 11
447.1146882560118
 21
491.2668953927943
 31
0.0
  0
ARC
  5
8C2
330
1F
100
AcDbEntity
  8
0
  6
Continuous
 62
     7
100
AcDbCircle
 10
470.6146882560728
 20
490.2668953927718
 30
0.0
 40
2.000000000004543
100
AcDbArc
 50
0.0000000000097707
 51
89.99999999999024
  0
LINE
  5
8C4
330
1F
100
AcDbEntity
  8
0
  6
Continuous
 62
     7
100
AcDbLine
 10
456.1146882560429
 20
523.2668953928422
 30
0.0
 11
456.1146882560429
 21
523.2668953928422
 31
0.0
  0
CIRCLE
  5
8C7
330
1F
100
AcDbEntity
  8
0
100
AcDbCircle
 10
432.6146882559926
 20
442.2668953926702
 30
0.0
 40
2.000000000004462
  0
CIRCLE
  5
8C8
330
1F
100
AcDbEntity
  8
0
100
AcDbCircle
 10
440.1146882560085
 20
442.2668953926702
 30
0.0
 40
2.000000000004462
  0
CIRCLE
  5
8C9
330
1F
100
AcDbEntity
  8
0
100
AcDbCircle
 10
447.6146882560244
 20
442.2668953926702
 30
0.0
 40
2.000000000004575
  0
CIRCLE
  5
8CA
330
1F
100
AcDbEntity
  8
0
100
AcDbCircle
 10
455.1146882560405
 20
442.2668953926702
 30
0.0
 40
2.000000000004575
  0
CIRCLE
  5
8CB
330
1F
100
AcDbEntity
  8
0
100
AcDbCircle
 10
462.614688256056
 20
442.2668953926702
 30
0.0
 40
2.000000000004575
  0
CIRCLE
  5
8CC
330
1F
100
AcDbEntity
  8
0
100
AcDbCircle
 10
432.6146882559923
 20
430.2668953926448
 30
0.0
 40
3.500000000008093
  0
CIRCLE
  5
8CD
330
1F
100
AcDbEntity
  8
0
100
AcDbCircle
 10
442.6146882560137
 20
430.2668953926448
 30
0.0
 40
3.500000000008093
  0
CIRCLE
  5
8CE
330
1F
100
AcDbEntity
  8
0
100
AcDbCircle
 10
452.6146882560349
 20
430.2668953926448
 30
0.0
 40
3.500000000008093
  0
CIRCLE
  5
8CF
330
1F
100
AcDbEntity
  8
0
100
AcDbCircle
 10
462.6146882560559
 20
430.2668953926448
 30
0.0
 40
3.500000000008093
  0
CIRCLE
  5
8D0
330
1F
100
AcDbEntity
  8
0
100
AcDbCircle
 10
447.6146882560248
 20
391.2668953925626
 30
0.0
 40
2.750000000005825
  0
CIRCLE
  5
8D1
330
1F
100
AcDbEntity
  8
0
100
AcDbCircle
 10
439.1378163477288
 20
451.7232098092185
 30
0.0
 40
0.3856738697168323
  0
CIRCLE
  5
8D2
330
1F
100
AcDbEntity
  8
0
100
AcDbCircle
 10
446.4378163477441
 20
451.7232098092185
 30
0.0
 40
0.3856738697168323
  0
CIRCLE
  5
8D3
330
1F
100
AcDbEntity
  8
0
100
AcDbCircle
 10
453.7378163477598
 20
451.7232098092185
 30
0.0
 40
0.3856738697169459
  0
CIRCLE
  5
8D4
330
1F
100
AcDbEntity
  8
0
100
AcDbCircle
 10
461.0378163477752
 20
451.7232098092185
 30
0.0
 40
0.3856738697168323
  0
CIRCLE
  5
8D5
330
1F
100
AcDbEntity
  8
0
100
AcDbCircle
 10
439.1378163477288
 20
467.123209809251
 30
0.0
 40
0.3856738697168323
  0
CIRCLE
  5
8D6
330
1F
100
AcDbEntity
  8
0
100
AcDbCircle
 10
446.4378163477441
 20
467.123209809251
 30
0.0
 40
0.3856738697168323
  0
CIRCLE
  5
8D7
330
1F
100
AcDbEntity
  8
0
100
AcDbCircle
 10
453.7378163477598
 20
467.123209809251
 30
0.0
 40
0.3856738697169459
  0
CIRCLE
  5
8D8
330
1F
100
AcDbEntity
  8
0
100
AcDbCircle
 10
461.0378163477752
 20
467.123209809251
 30
0.0
 40
0.3856738697168323
  0
CIRCLE
  5
8D9
330
1F
100
AcDbEntity
  8
0
100
AcDbCircle
 10
447.614688256024
 20
489.2668953927697
 30
0.0
 40
2.750000000006393
  0
LINE
  5
8F2
330
1F
100
AcDbEntity
  8
0
  6
Continuous
 62
     7
100
AcDbLine
 10
666.4146882564875
 20
490.2668953927721
 30
0.0
 11
666.4146882564875
 21
390.37089539256
 31
0.0
  0
LINE
  5
8F3
330
1F
100
AcDbEntity
  8
0
  6
Continuous
 62
     7
100
AcDbLine
 10
668.4146882564923
 20
388.2668953925561
 30
0.0
 11
669.9146882564955
 21
388.2668953925561
 31
0.0
  0
ARC
  5
8F4
330
1F
100
AcDbEntity
  8
0
  6
Continuous
 62
     7
100
AcDbCircle
 10
668.6037950294397
 20
390.4492250246399
 30
0.0
 40
2.190507702484953
100
AcDbArc
 50
182.0492574939679
 51
265.0474842008395
  0
ARC
  5
8F5
330
1F
100
AcDbEntity
  8
0
  6
Continuous
 62
     7
100
AcDbCircle
 10
668.4146867623422
 20
490.2668968869217
 30
0.0
 40
1.99999850585461
100
AcDbArc
 50
89.99995719571119
 51
180.0000428042888
  0
LINE
  5
8F6
330
1F
100
AcDbEntity
  8
0
  6
Continuous
 62
     7
100
AcDbLine
 10
669.9146882564955
 20
492.2668953927764
 30
0.0
 11
668.4146882564923
 21
492.2668953927764
 31
0.0
  0
ENDSEC
  0
SECTION
  2
OBJECTS
  0
DICTIONARY
  5
C
330
0
100
AcDbDictionary
281
     1
  3
ACAD_GROUP
350
D
  3
ACAD_LAYOUT
350
1A
  3
ACAD_MLINESTYLE
350
17
  3
ACAD_PLOTSETTINGS
350
19
  3
ACAD_PLOTSTYLENAME
350
E
  0
DICTIONARY
  5
D
102
{ACAD_REACTORS
330
C
102
}
330
C
100
AcDbDictionary
281
     1
  0
DICTIONARY
  5
1A
102
{ACAD_REACTORS
330
C
102
}
330
C
100
AcDbDictionary
281
     1
  3
Model
350
22
  3
ﾚｲｱｳﾄ1
350
51
  0
DICTIONARY
  5
17
102
{ACAD_REACTORS
330
C
102
}
330
C
100
AcDbDictionary
281
     1
  3
Standard
350
18
  0
DICTIONARY
  5
19
102
{ACAD_REACTORS
330
C
102
}
330
C
100
AcDbDictionary
281
     1
  0
ACDBDICTIONARYWDFLT
  5
E
102
{ACAD_REACTORS
330
C
102
}
330
C
100
AcDbDictionary
281
     1
  3
Normal
350
F
100
AcDbDictionaryWithDefault
340
F
  0
LAYOUT
  5
22
102
{ACAD_REACTORS
330
1A
102
}
330
1A
100
AcDbPlotSettings
  1

  2
none_device
  4
ANSI_A_(8.50_x_11.00_Inches)
  6

 40
6.349999904632567
 41
19.04999923706053
 42
6.350006103515625
 43
19.04998779296875
 44
215.8999938964841
 45
279.3999938964843
 46
0.0
 47
0.0
 48
0.0
 49
0.0
140
0.0
141
0.0
142
1.0
143
78.436453180766
 70
 11952
 72
     0
 73
     1
 74
     0
  7

 75
     0
147
0.0127491741332998
148
0.0
149
0.0
100
AcDbLayout
  1
Model
 70
     1
 71
     0
 10
0.0
 20
0.0
 11
12.0
 21
9.0
 12
0.0
 22
0.0
 32
0.0
 14
0.0
 24
0.0
 34
0.0
 15
0.0
 25
0.0
 35
0.0
146
0.0
 13
0.0
 23
0.0
 33
0.0
 16
1.0
 26
0.0
 36
0.0
 17
0.0
 27
1.0
 37
0.0
 76
     0
330
1F
  0
LAYOUT
  5
51
102
{ACAD_REACTORS
330
1A
102
}
330
1A
100
AcDbPlotSettings
  1

  2
None
  4

  6

 40
0.0
 41
0.0
 42
0.0
 43
0.0
 44
0.0
 45
0.0
 46
0.0
 47
0.0
 48
0.0
 49
0.0
140
0.0
141
0.0
142
1.0
143
1.0
 70
   688
 72
     0
 73
     0
 74
     5
  7

 75
    16
147
1.0
148
0.0
149
0.0
100
AcDbLayout
  1
ﾚｲｱｳﾄ1
 70
     1
 71
     1
 10
0.0
 20
0.0
 11
12.0
 21
9.0
 12
0.0
 22
0.0
 32
0.0
 14
0.0
 24
0.0
 34
0.0
 15
0.0
 25
0.0
 35
0.0
146
0.0
 13
0.0
 23
0.0
 33
0.0
 16
1.0
 26
0.0
 36
0.0
 17
0.0
 27
1.0
 37
0.0
 76
     0
330
50
  0
MLINESTYLE
  5
18
102
{ACAD_REACTORS
330
17
102
}
330
17
100
AcDbMlineStyle
  2
STANDARD
 70
     0
  3

 62
   256
 51
90.0
 52
90.0
 71
     2
 49
0.5
 62
   256
  6
BYLAYER
 49
-0.5
 62
   256
  6
BYLAYER
  0
ACDBPLACEHOLDER
  5
F
102
{ACAD_REACTORS
330
E
102
}
330
E
  0
ENDSEC
  0
EOF
