  0
SECTION
  2
HEADER
  9
$ACADVER
  1
AC1015
  9
$ACADMAINTVER
 70
    10
  9
$DWGCODEPAGE
  3
ANSI_932
  9
$INSBASE
 10
0.0
 20
0.0
 30
0.0
  9
$EXTMIN
 10
484.1526023318057
 20
174.6536106014805
 30
0.0
  9
$EXTMAX
 10
1034.585503382727
 20
710.3252310774633
 30
0.0
  9
$LIMMIN
 10
0.0
 20
0.0
  9
$LIMMAX
 10
420.0
 20
297.0
  9
$ORTHOMODE
 70
     0
  9
$REGENMODE
 70
     1
  9
$FILLMODE
 70
     1
  9
$QTEXTMODE
 70
     0
  9
$MIRRTEXT
 70
     1
  9
$LTSCALE
 40
1.0
  9
$ATTMODE
 70
     1
  9
$TEXTSIZE
 40
2.5
  9
$TRACEWID
 40
1.0
  9
$TEXTSTYLE
  7
Standard
  9
$CLAYER
  8
0
  9
$CELTYPE
  6
ByLayer
  9
$CECOLOR
 62
   256
  9
$CELTSCALE
 40
1.0
  9
$DISPSILH
 70
     0
  9
$DIMSCALE
 40
1.0
  9
$DIMASZ
 40
2.5
  9
$DIMEXO
 40
0.625
  9
$DIMDLI
 40
3.75
  9
$DIMRND
 40
0.0
  9
$DIMDLE
 40
0.0
  9
$DIMEXE
 40
1.25
  9
$DIMTP
 40
0.0
  9
$DIMTM
 40
0.0
  9
$DIMTXT
 40
2.5
  9
$DIMCEN
 40
2.5
  9
$DIMTSZ
 40
0.0
  9
$DIMTOL
 70
     0
  9
$DIMLIM
 70
     0
  9
$DIMTIH
 70
     0
  9
$DIMTOH
 70
     0
  9
$DIMSE1
 70
     0
  9
$DIMSE2
 70
     0
  9
$DIMTAD
 70
     1
  9
$DIMZIN
 70
     8
  9
$DIMBLK
  1

  9
$DIMASO
 70
     1
  9
$DIMSHO
 70
     1
  9
$DIMPOST
  1

  9
$DIMAPOST
  1

  9
$DIMALT
 70
     0
  9
$DIMALTD
 70
     3
  9
$DIMALTF
 40
0.03937007874016
  9
$DIMLFAC
 40
1.0
  9
$DIMTOFL
 70
     1
  9
$DIMTVP
 40
0.0
  9
$DIMTIX
 70
     0
  9
$DIMSOXD
 70
     0
  9
$DIMSAH
 70
     0
  9
$DIMBLK1
  1

  9
$DIMBLK2
  1

  9
$DIMSTYLE
  2
ISO-25
  9
$DIMCLRD
 70
     0
  9
$DIMCLRE
 70
     0
  9
$DIMCLRT
 70
     0
  9
$DIMTFAC
 40
1.0
  9
$DIMGAP
 40
0.625
  9
$DIMJUST
 70
     0
  9
$DIMSD1
 70
     0
  9
$DIMSD2
 70
     0
  9
$DIMTOLJ
 70
     0
  9
$DIMTZIN
 70
     8
  9
$DIMALTZ
 70
     0
  9
$DIMALTTZ
 70
     0
  9
$DIMUPT
 70
     0
  9
$DIMDEC
 70
     2
  9
$DIMTDEC
 70
     2
  9
$DIMALTU
 70
     2
  9
$DIMALTTD
 70
     3
  9
$DIMTXSTY
  7
Standard
  9
$DIMAUNIT
 70
     0
  9
$DIMADEC
 70
     0
  9
$DIMALTRND
 40
0.0
  9
$DIMAZIN
 70
     0
  9
$DIMDSEP
 70
    44
  9
$DIMATFIT
 70
     3
  9
$DIMFRAC
 70
     0
  9
$DIMLDRBLK
  1

  9
$DIMLUNIT
 70
     2
  9
$DIMLWD
 70
    -2
  9
$DIMLWE
 70
    -2
  9
$DIMTMOVE
 70
     0
  9
$LUNITS
 70
     2
  9
$LUPREC
 70
     4
  9
$SKETCHINC
 40
1.0
  9
$FILLETRAD
 40
10.0
  9
$AUNITS
 70
     0
  9
$AUPREC
 70
     0
  9
$MENU
  1
.
  9
$ELEVATION
 40
0.0
  9
$PELEVATION
 40
0.0
  9
$THICKNESS
 40
0.0
  9
$LIMCHECK
 70
     0
  9
$CHAMFERA
 40
10.0
  9
$CHAMFERB
 40
10.0
  9
$CHAMFERC
 40
20.0
  9
$CHAMFERD
 40
0.0
  9
$SKPOLY
 70
     0
  9
$TDCREATE
 40
2456499.791805185
  9
$TDUCREATE
 40
2456499.416805185
  9
$TDUPDATE
 40
2456500.618227697
  9
$TDUUPDATE
 40
2456500.243227697
  9
$TDINDWG
 40
0.0047019560
  9
$TDUSRTIMER
 40
0.0047019560
  9
$USRTIMER
 70
     1
  9
$ANGBASE
 50
0.0
  9
$ANGDIR
 70
     0
  9
$PDMODE
 70
     0
  9
$PDSIZE
 40
0.0
  9
$PLINEWID
 40
0.0
  9
$SPLFRAME
 70
     0
  9
$SPLINETYPE
 70
     6
  9
$SPLINESEGS
 70
     8
  9
$HANDSEED
  5
521
  9
$SURFTAB1
 70
     6
  9
$SURFTAB2
 70
     6
  9
$SURFTYPE
 70
     6
  9
$SURFU
 70
     6
  9
$SURFV
 70
     6
  9
$UCSBASE
  2

  9
$UCSNAME
  2

  9
$UCSORG
 10
0.0
 20
0.0
 30
0.0
  9
$UCSXDIR
 10
1.0
 20
0.0
 30
0.0
  9
$UCSYDIR
 10
0.0
 20
1.0
 30
0.0
  9
$UCSORTHOREF
  2

  9
$UCSORTHOVIEW
 70
     0
  9
$UCSORGTOP
 10
0.0
 20
0.0
 30
0.0
  9
$UCSORGBOTTOM
 10
0.0
 20
0.0
 30
0.0
  9
$UCSORGLEFT
 10
0.0
 20
0.0
 30
0.0
  9
$UCSORGRIGHT
 10
0.0
 20
0.0
 30
0.0
  9
$UCSORGFRONT
 10
0.0
 20
0.0
 30
0.0
  9
$UCSORGBACK
 10
0.0
 20
0.0
 30
0.0
  9
$PUCSBASE
  2

  9
$PUCSNAME
  2

  9
$PUCSORG
 10
0.0
 20
0.0
 30
0.0
  9
$PUCSXDIR
 10
1.0
 20
0.0
 30
0.0
  9
$PUCSYDIR
 10
0.0
 20
1.0
 30
0.0
  9
$PUCSORTHOREF
  2

  9
$PUCSORTHOVIEW
 70
     0
  9
$PUCSORGTOP
 10
0.0
 20
0.0
 30
0.0
  9
$PUCSORGBOTTOM
 10
0.0
 20
0.0
 30
0.0
  9
$PUCSORGLEFT
 10
0.0
 20
0.0
 30
0.0
  9
$PUCSORGRIGHT
 10
0.0
 20
0.0
 30
0.0
  9
$PUCSORGFRONT
 10
0.0
 20
0.0
 30
0.0
  9
$PUCSORGBACK
 10
0.0
 20
0.0
 30
0.0
  9
$USERI1
 70
     0
  9
$USERI2
 70
     0
  9
$USERI3
 70
     0
  9
$USERI4
 70
     0
  9
$USERI5
 70
     0
  9
$USERR1
 40
0.0
  9
$USERR2
 40
0.0
  9
$USERR3
 40
0.0
  9
$USERR4
 40
0.0
  9
$USERR5
 40
0.0
  9
$WORLDVIEW
 70
     1
  9
$SHADEDGE
 70
     3
  9
$SHADEDIF
 70
    70
  9
$TILEMODE
 70
     1
  9
$MAXACTVP
 70
    64
  9
$PINSBASE
 10
0.0
 20
0.0
 30
0.0
  9
$PLIMCHECK
 70
     0
  9
$PEXTMIN
 10
0.0
 20
0.0
 30
0.0
  9
$PEXTMAX
 10
0.0
 20
0.0
 30
0.0
  9
$PLIMMIN
 10
0.0
 20
0.0
  9
$PLIMMAX
 10
12.0
 20
9.0
  9
$UNITMODE
 70
     0
  9
$VISRETAIN
 70
     1
  9
$PLINEGEN
 70
     0
  9
$PSLTSCALE
 70
     1
  9
$TREEDEPTH
 70
  3020
  9
$CMLSTYLE
  2
Standard
  9
$CMLJUST
 70
     0
  9
$CMLSCALE
 40
20.0
  9
$PROXYGRAPHICS
 70
     1
  9
$MEASUREMENT
 70
     1
  9
$CELWEIGHT
370
    -1
  9
$ENDCAPS
280
     0
  9
$JOINSTYLE
280
     0
  9
$LWDISPLAY
290
     0
  9
$INSUNITS
 70
     4
  9
$HYPERLINKBASE
  1

  9
$STYLESHEET
  1

  9
$XEDIT
290
     1
  9
$CEPSNTYPE
380
     0
  9
$PSTYLEMODE
290
     1
  9
$FINGERPRINTGUID
  2
{FDEAD578-A652-11D2-9A35-0060089B3A3F}
  9
$VERSIONGUID
  2
{5EFAF3DC-1B6E-4F68-9793-5B8E09230212}
  9
$EXTNAMES
290
     1
  9
$PSVPSCALE
 40
0.0
  9
$OLESTARTUP
290
     0
  0
ENDSEC
  0
SECTION
  2
CLASSES
  0
CLASS
  1
ACDBDICTIONARYWDFLT
  2
AcDbDictionaryWithDefault
  3
AutoCAD 2000
 90
        0
280
     0
281
     0
  0
CLASS
  1
ACDBPLACEHOLDER
  2
AcDbPlaceHolder
  3
AutoCAD 2000
 90
        0
280
     0
281
     0
  0
CLASS
  1
LAYOUT
  2
AcDbLayout
  3
AutoCAD 2000
 90
        0
280
     0
281
     0
  0
ENDSEC
  0
SECTION
  2
TABLES
  0
TABLE
  2
VPORT
  5
8
330
0
100
AcDbSymbolTable
 70
     2
  0
VPORT
  5
520
330
8
100
AcDbSymbolTableRecord
100
AcDbViewportTableRecord
  2
*Active
 70
     0
 10
0.0
 20
0.0
 11
1.0
 21
1.0
 12
752.2168925117516
 22
448.6024918703274
 13
0.0
 23
0.0
 14
10.0
 24
10.0
 15
10.0
 25
10.0
 16
0.0
 26
0.0
 36
1.0
 17
0.0
 27
0.0
 37
0.0
 40
567.3205106692503
 41
1.781954887218045
 42
50.0
 43
0.0
 44
0.0
 50
0.0
 51
0.0
 71
     0
 72
   100
 73
     1
 74
     3
 75
     0
 76
     0
 77
     0
 78
     0
281
     0
 65
     1
110
0.0
120
0.0
130
0.0
111
1.0
121
0.0
131
0.0
112
0.0
122
1.0
132
0.0
 79
     0
146
0.0
  0
ENDTAB
  0
TABLE
  2
LTYPE
  5
5
330
0
100
AcDbSymbolTable
 70
     2
  0
LTYPE
  5
14
330
5
100
AcDbSymbolTableRecord
100
AcDbLinetypeTableRecord
  2
ByBlock
 70
     0
  3

 72
    65
 73
     0
 40
0.0
  0
LTYPE
  5
15
330
5
100
AcDbSymbolTableRecord
100
AcDbLinetypeTableRecord
  2
ByLayer
 70
     0
  3

 72
    65
 73
     0
 40
0.0
  0
LTYPE
  5
16
330
5
100
AcDbSymbolTableRecord
100
AcDbLinetypeTableRecord
  2
Continuous
 70
     0
  3
Solid line
 72
    65
 73
     0
 40
0.0
  0
LTYPE
  5
51F
330
5
100
AcDbSymbolTableRecord
100
AcDbLinetypeTableRecord
  2
DASHED
 70
     0
  3
Dashed __ __ __ __ __ __ __ __ __ __ __ __ __ _
 72
    65
 73
     2
 40
19.04999999999999
 49
12.7
 74
     0
 49
-6.349999999999999
 74
     0
  0
ENDTAB
  0
TABLE
  2
LAYER
  5
2
330
0
100
AcDbSymbolTable
 70
     1
  0
LAYER
  5
10
330
2
100
AcDbSymbolTableRecord
100
AcDbLayerTableRecord
  2
0
 70
     0
 62
     7
  6
Continuous
370
    -3
390
F
  0
ENDTAB
  0
TABLE
  2
STYLE
  5
3
330
0
100
AcDbSymbolTable
 70
     3
  0
STYLE
  5
11
330
3
100
AcDbSymbolTableRecord
100
AcDbTextStyleTableRecord
  2
Standard
 70
     0
 40
0.0
 41
1.0
 50
0.0
 71
     0
 42
2.5
  3
txt
  4

  0
STYLE
  5
67
330
3
100
AcDbSymbolTableRecord
100
AcDbTextStyleTableRecord
  2
_TCW_TXTSTY_1
 70
     0
 40
0.0
 41
1.0
 50
0.0
 71
     0
 42
0.696969687939
  3
MS PGothic.ttf
  4

1001
ACAD
1000
ＭＳ Ｐゴシック
1071
    32802
  0
STYLE
  5
51E
330
3
100
AcDbSymbolTableRecord
100
AcDbTextStyleTableRecord
  2

 70
     1
 40
0.0
 41
1.0
 50
0.0
 71
     0
 42
2.5
  3
ltypeshp.shx
  4

  0
ENDTAB
  0
TABLE
  2
VIEW
  5
6
330
0
100
AcDbSymbolTable
 70
     0
  0
ENDTAB
  0
TABLE
  2
UCS
  5
7
330
0
100
AcDbSymbolTable
 70
     0
  0
ENDTAB
  0
TABLE
  2
APPID
  5
9
330
0
100
AcDbSymbolTable
 70
     2
  0
APPID
  5
12
330
9
100
AcDbSymbolTableRecord
100
AcDbRegAppTableRecord
  2
ACAD
 70
     0
  0
APPID
  5
69
330
9
100
AcDbSymbolTableRecord
100
AcDbRegAppTableRecord
  2
TCAD
 70
     0
  0
ENDTAB
  0
TABLE
  2
DIMSTYLE
  5
A
330
0
100
AcDbSymbolTable
 70
     2
100
AcDbDimStyleTable
 71
     1
340
27
  0
DIMSTYLE
105
27
330
A
100
AcDbSymbolTableRecord
100
AcDbDimStyleTableRecord
  2
ISO-25
 70
     0
 41
2.5
 42
0.625
 43
3.75
 44
1.25
 73
     0
 74
     0
 77
     1
 78
     8
140
2.5
141
2.5
143
0.03937007874016
147
0.625
171
     3
172
     1
271
     2
272
     2
274
     3
278
    44
283
     0
284
     8
340
11
  0
DIMSTYLE
105
68
330
A
100
AcDbSymbolTableRecord
100
AcDbDimStyleTableRecord
  2
STANDARD
 70
     0
 41
3.0
 42
1.0
 43
7.5
 44
2.0
 45
0.1
 73
     0
 74
     0
 77
     1
 78
     8
140
2.439393939393998
143
0.333333333333
144
3.0
147
0.5
148
0.01
176
     7
177
     7
178
     7
179
     2
271
     2
272
     8
274
     8
286
     8
340
67
341
61
342
61
  0
ENDTAB
  0
TABLE
  2
BLOCK_RECORD
  5
1
330
0
100
AcDbSymbolTable
 70
     1
  0
BLOCK_RECORD
  5
1F
330
1
100
AcDbSymbolTableRecord
100
AcDbBlockTableRecord
  2
*Model_Space
340
22
  0
BLOCK_RECORD
  5
50
330
1
100
AcDbSymbolTableRecord
100
AcDbBlockTableRecord
  2
*Paper_Space
340
51
  0
BLOCK_RECORD
  5
61
330
1
100
AcDbSymbolTableRecord
100
AcDbBlockTableRecord
  2
_OPEN
340
0
  0
ENDTAB
  0
ENDSEC
  0
SECTION
  2
BLOCKS
  0
BLOCK
  5
20
330
1F
100
AcDbEntity
  8
0
100
AcDbBlockBegin
  2
*Model_Space
 70
     0
 10
0.0
 20
0.0
 30
0.0
  3
*Model_Space
  1

  0
ENDBLK
  5
21
330
1F
100
AcDbEntity
  8
0
100
AcDbBlockEnd
  0
BLOCK
  5
52
330
50
100
AcDbEntity
 67
     1
  8
0
100
AcDbBlockBegin
  2
*Paper_Space
 70
     0
 10
0.0
 20
0.0
 30
0.0
  3
*Paper_Space
  1

  0
ENDBLK
  5
53
330
50
100
AcDbEntity
 67
     1
  8
0
100
AcDbBlockEnd
  0
BLOCK
  5
65
330
61
100
AcDbEntity
  8
0
100
AcDbBlockBegin
  2
_OPEN
 70
     0
 10
0.0
 20
0.0
 30
0.0
  3
_OPEN
  1

  0
LINE
  5
62
330
61
100
AcDbEntity
  8
0
  6
ByBlock
 62
     0
100
AcDbLine
 10
-1.0
 20
0.166667
 30
0.0
 11
0.0
 21
0.0
 31
0.0
  0
LINE
  5
63
330
61
100
AcDbEntity
  8
0
  6
ByBlock
 62
     0
100
AcDbLine
 10
0.0
 20
0.0
 30
0.0
 11
-1.0
 21
-0.166667
 31
0.0
  0
LINE
  5
64
330
61
100
AcDbEntity
  8
0
  6
ByBlock
 62
     0
100
AcDbLine
 10
0.0
 20
0.0
 30
0.0
 11
-1.0
 21
0.0
 31
0.0
  0
ENDBLK
  5
66
330
61
100
AcDbEntity
  8
0
100
AcDbBlockEnd
  0
ENDSEC
  0
SECTION
  2
ENTITIES
  0
LINE
  5
2C3
330
1F
100
AcDbEntity
  8
0
  6
Continuous
 62
     7
100
AcDbLine
 10
1034.585503382727
 20
213.6683321725269
 30
0.0
 11
1034.585503382727
 21
708.6683767225308
 31
0.0
  0
LINE
  5
2C4
330
1F
100
AcDbEntity
  8
0
  6
Continuous
 62
     7
100
AcDbLine
 10
1033.385503382727
 20
213.6683321725269
 30
0.0
 11
1033.385503382727
 21
238.6683344225271
 31
0.0
  0
LINE
  5
2C5
330
1F
100
AcDbEntity
  8
0
  6
Continuous
 62
     7
100
AcDbLine
 10
915.585503382724
 20
174.6536106016758
 30
0.0
 11
915.585503382724
 21
238.6683344225271
 31
0.0
  0
LINE
  5
2C6
330
1F
100
AcDbEntity
  8
0
  6
Continuous
 62
     7
100
AcDbLine
 10
865.5855033827242
 20
238.6683344225271
 30
0.0
 11
865.5855033827242
 21
174.6536106016758
 31
0.0
  0
LINE
  5
2C7
330
1F
100
AcDbEntity
  8
0
  6
Continuous
 62
     7
100
AcDbLine
 10
613.0854943827263
 20
238.6683344225271
 30
0.0
 11
613.0854943827263
 21
221.668332892527
 31
0.0
  0
LINE
  5
2C8
330
1F
100
AcDbEntity
  8
0
  6
Continuous
 62
     7
100
AcDbLine
 10
488.0854943827265
 20
221.668332892527
 30
0.0
 11
488.0854943827265
 21
238.6683344225271
 31
0.0
  0
LINE
  5
2C9
330
1F
100
AcDbEntity
  8
0
  6
Continuous
 62
     7
100
AcDbLine
 10
546.0854943827265
 20
215.6683323525273
 30
0.0
 11
546.0854943827265
 21
226.6683333425274
 31
0.0
  0
LINE
  5
2CA
330
1F
100
AcDbEntity
  8
0
  6
Continuous
 62
     7
100
AcDbLine
 10
555.0854943827264
 20
215.6683323525273
 30
0.0
 11
555.0854943827264
 21
226.6683333425274
 31
0.0
  0
LINE
  5
2CB
330
1F
100
AcDbEntity
  8
0
  6
Continuous
 62
     7
100
AcDbLine
 10
583.2854943347743
 20
238.6683344225271
 30
0.0
 11
583.2854943347743
 21
174.6536106014805
 31
0.0
  0
LINE
  5
2CC
330
1F
100
AcDbEntity
  8
0
  6
Continuous
 62
     7
100
AcDbLine
 10
593.2854943347743
 20
174.6536106014805
 30
0.0
 11
593.2854943347743
 21
238.6683344225271
 31
0.0
  0
LINE
  5
2CD
330
1F
100
AcDbEntity
  8
0
  6
Continuous
 62
     7
100
AcDbLine
 10
523.285295134749
 20
174.6536106016758
 30
0.0
 11
523.285295134749
 21
238.6683344225271
 31
0.0
  0
LINE
  5
2CE
330
1F
100
AcDbEntity
  8
0
  6
Continuous
 62
     7
100
AcDbLine
 10
513.2852951347485
 20
238.6683344225271
 30
0.0
 11
513.2852951347485
 21
174.6536106016758
 31
0.0
  0
LINE
  5
2CF
330
1F
100
AcDbEntity
  8
0
  6
Continuous
 62
     7
100
AcDbLine
 10
544.0854943827267
 20
213.6683321725269
 30
0.0
 11
523.285295134749
 21
213.6683321725269
 31
0.0
  0
ARC
  5
2D0
330
1F
100
AcDbEntity
  8
0
  6
Continuous
 62
     7
100
AcDbCircle
 10
496.0854943827333
 20
221.6683321725336
 30
0.0
 40
8.000000000006631
100
AcDbArc
 50
179.9999948434278
 51
269.9999999999511
  0
LINE
  5
2D1
330
1F
100
AcDbEntity
  8
0
  6
Continuous
 62
     7
100
AcDbLine
 10
513.2852951347485
 20
213.6683321725269
 30
0.0
 11
496.0854943827264
 21
213.6683321725269
 31
0.0
  0
LINE
  5
2D2
330
1F
100
AcDbEntity
  8
0
  6
Continuous
 62
     7
100
AcDbLine
 10
513.2852951347485
 20
174.6536106016758
 30
0.0
 11
523.285295134749
 21
174.6536106016758
 31
0.0
  0
LINE
  5
2D3
330
1F
100
AcDbEntity
  8
0
  6
Continuous
 62
     7
100
AcDbLine
 10
583.2854943347743
 20
174.6536106014805
 30
0.0
 11
593.2854943347743
 21
174.6536106014805
 31
0.0
  0
ARC
  5
2D4
330
1F
100
AcDbEntity
  8
0
  6
Continuous
 62
     7
100
AcDbCircle
 10
605.0854943827194
 20
221.6683321725336
 30
0.0
 40
8.000000000006663
100
AcDbArc
 50
270.0000000000455
 51
0.0000051565721366
  0
ARC
  5
2D5
330
1F
100
AcDbEntity
  8
0
  6
Continuous
 62
     7
100
AcDbCircle
 10
544.0854943827248
 20
215.6683321725288
 30
0.0
 40
2.000000000001829
100
AcDbArc
 50
270.0000000000521
 51
0.0000051565753935
  0
ARC
  5
2D6
330
1F
100
AcDbEntity
  8
0
  6
Continuous
 62
     7
100
AcDbCircle
 10
557.0854943827278
 20
215.6683321725288
 30
0.0
 40
2.000000000001795
100
AcDbArc
 50
179.9999948434246
 51
269.9999999999478
  0
LINE
  5
2D7
330
1F
100
AcDbEntity
  8
0
  6
Continuous
 62
     7
100
AcDbLine
 10
605.0854943827265
 20
213.6683321725269
 30
0.0
 11
593.2854943347743
 21
213.6683321725269
 31
0.0
  0
LINE
  5
2D8
330
1F
100
AcDbEntity
  8
0
  6
Continuous
 62
     7
100
AcDbLine
 10
583.2854943347743
 20
213.6683321725269
 30
0.0
 11
557.0854943827267
 21
213.6683321725269
 31
0.0
  0
LINE
  5
2D9
330
1F
100
AcDbEntity
  8
0
  6
Continuous
 62
     7
100
AcDbLine
 10
865.5855033827242
 20
174.6536106016758
 30
0.0
 11
915.585503382724
 21
174.6536106016758
 31
0.0
  0
CIRCLE
  5
2DA
330
1F
100
AcDbEntity
  8
0
  6
Continuous
 62
     7
370
     0
100
AcDbCircle
 10
890.5855031011988
 20
199.653613132728
 30
0.0
 40
6.250000281252583
  0
LINE
  5
2DB
330
1F
100
AcDbEntity
  8
0
  6
Continuous
 62
     7
100
AcDbLine
 10
1033.385503382727
 20
213.6683321725269
 30
0.0
 11
1034.585503382727
 21
213.6683321725269
 31
0.0
  0
CIRCLE
  5
2DC
330
1F
100
AcDbEntity
  8
0
  6
Continuous
 62
     7
370
     0
100
AcDbCircle
 10
953.0855058775124
 20
259.6683416378677
 30
0.0
 40
5.000000225001017
  0
CIRCLE
  5
2DD
330
1F
100
AcDbEntity
  8
0
  6
Continuous
 62
     7
370
     0
100
AcDbCircle
 10
953.0855058775124
 20
259.6683416378677
 30
0.0
 40
3.90000022500385
  0
CIRCLE
  5
2DE
330
1F
100
AcDbEntity
  8
0
  6
Continuous
 62
     7
370
     0
100
AcDbCircle
 10
953.0855058280112
 20
434.6683574373704
 30
0.0
 40
3.90000022500385
  0
CIRCLE
  5
2DF
330
1F
100
AcDbEntity
  8
0
  6
Continuous
 62
     7
370
     0
100
AcDbCircle
 10
953.0855058280112
 20
434.6683574373704
 30
0.0
 40
5.000000225001017
  0
CIRCLE
  5
2E0
330
1F
100
AcDbEntity
  8
0
  6
Continuous
 62
     7
370
     0
100
AcDbCircle
 10
953.0855058280112
 20
609.6683731873715
 30
0.0
 40
5.000000225001017
  0
CIRCLE
  5
2E1
330
1F
100
AcDbEntity
  8
0
  6
Continuous
 62
     7
370
     0
100
AcDbCircle
 10
953.0855058280112
 20
609.6683731873715
 30
0.0
 40
3.90000022500385
  0
LINE
  5
2E2
330
1F
100
AcDbEntity
  8
0
  6
Continuous
 62
     7
100
AcDbLine
 10
1034.585503382727
 20
678.6683740225307
 30
0.0
 11
805.3855033827272
 21
678.6683740225307
 31
0.0
  0
LINE
  5
2E3
330
1F
100
AcDbEntity
  8
0
  6
Continuous
 62
     7
 48
6.0
100
AcDbLine
 10
950.4855085432497
 20
609.0183738098578
 30
0.0
 11
952.4355085432528
 21
609.0183738098671
 31
0.0
  0
LINE
  5
2E4
330
1F
100
AcDbEntity
  8
0
  6
Continuous
 62
     7
 48
6.0
100
AcDbLine
 10
952.4355085432471
 20
610.3183739268672
 30
0.0
 11
950.4855085432286
 21
610.3183739268575
 31
0.0
  0
LINE
  5
2E5
330
1F
100
AcDbEntity
  8
0
  6
Continuous
 62
     7
 48
6.0
100
AcDbLine
 10
950.4855085432497
 20
434.0183580598568
 30
0.0
 11
952.4355085432528
 21
434.0183580598651
 31
0.0
  0
LINE
  5
2E6
330
1F
100
AcDbEntity
  8
0
  6
Continuous
 62
     7
 48
6.0
100
AcDbLine
 10
952.4355085432471
 20
435.3183581768653
 30
0.0
 11
950.4855085432286
 21
435.3183581768568
 31
0.0
  0
LINE
  5
2E7
330
1F
100
AcDbEntity
  8
0
  6
Continuous
 62
     7
100
AcDbLine
 10
805.3855033827272
 20
238.6683344225271
 30
0.0
 11
1034.585503382727
 21
238.6683344225271
 31
0.0
  0
LINE
  5
2E8
330
1F
100
AcDbEntity
  8
0
  6
Continuous
 62
     7
 48
6.0
100
AcDbLine
 10
950.4855085432497
 20
259.0183423098553
 30
0.0
 11
952.4355085432528
 21
259.0183423098636
 31
0.0
  0
LINE
  5
2E9
330
1F
100
AcDbEntity
  8
0
  6
Continuous
 62
     7
 48
6.0
100
AcDbLine
 10
952.4355085432471
 20
260.3183424268642
 30
0.0
 11
950.4855085432286
 21
260.3183424268553
 31
0.0
  0
LINE
  5
2EA
330
1F
100
AcDbEntity
  8
0
  6
Continuous
 62
     7
100
AcDbLine
 10
805.3855033827272
 20
678.6683740225307
 30
0.0
 11
805.3855033827272
 21
238.6683344225271
 31
0.0
  0
LINE
  5
2EB
330
1F
100
AcDbEntity
  8
0
  6
Continuous
 62
     7
100
AcDbLine
 10
806.5855033827263
 20
678.6683740225307
 30
0.0
 11
806.5855033827263
 21
238.6683344225271
 31
0.0
  0
LINE
  5
2EC
330
1F
100
AcDbEntity
  8
0
  6
Continuous
 62
     7
100
AcDbLine
 10
614.2854943827265
 20
678.6683740225307
 30
0.0
 11
614.2854943827265
 21
238.6683344225271
 31
0.0
  0
LINE
  5
2ED
330
1F
100
AcDbEntity
  8
0
  6
Continuous
 62
     7
100
AcDbLine
 10
486.8854943827265
 20
238.6683344225271
 30
0.0
 11
486.8854943827265
 21
678.6683740225307
 31
0.0
  0
LINE
  5
2EE
330
1F
100
AcDbEntity
  8
0
  6
Continuous
 62
     7
100
AcDbLine
 10
614.2854943827265
 20
238.6683344225271
 30
0.0
 11
486.8854943827265
 21
238.6683344225271
 31
0.0
  0
CIRCLE
  5
2EF
330
1F
100
AcDbEntity
  8
0
  6
Continuous
 62
     7
370
     0
100
AcDbCircle
 10
492.7854999697706
 20
288.6683428722256
 30
0.0
 40
3.00000013500048
  0
LINE
  5
2F0
330
1F
100
AcDbEntity
  8
0
  6
Continuous
 62
     7
 48
6.0
100
AcDbLine
 10
494.7855020203376
 20
288.1683433891564
 30
0.0
 11
494.7855020203376
 21
288.1683433891564
 31
0.0
  0
LINE
  5
2F1
330
1F
100
AcDbEntity
  8
0
  6
Continuous
 62
     7
 48
6.0
100
AcDbLine
 10
493.2855020203255
 20
288.1683433891506
 30
0.0
 11
494.7855020203376
 21
288.1683433891564
 31
0.0
  0
LINE
  5
2F2
330
1F
100
AcDbEntity
  8
0
  6
Continuous
 62
     7
 48
6.0
100
AcDbLine
 10
493.2855020203346
 20
286.6683432541506
 30
0.0
 11
493.2855020203255
 21
288.1683433891506
 31
0.0
  0
LINE
  5
2F3
330
1F
100
AcDbEntity
  8
0
  6
Continuous
 62
     7
 48
6.0
100
AcDbLine
 10
492.2855020203461
 20
286.668343254144
 30
0.0
 11
493.2855020203346
 21
286.6683432541506
 31
0.0
  0
LINE
  5
2F4
330
1F
100
AcDbEntity
  8
0
  6
Continuous
 62
     7
 48
6.0
100
AcDbLine
 10
492.2855020203407
 20
288.168343389144
 30
0.0
 11
492.2855020203461
 21
286.668343254144
 31
0.0
  0
LINE
  5
2F5
330
1F
100
AcDbEntity
  8
0
  6
Continuous
 62
     7
 48
6.0
100
AcDbLine
 10
490.7855020203371
 20
288.1683433891377
 30
0.0
 11
492.2855020203407
 21
288.168343389144
 31
0.0
  0
LINE
  5
2F6
330
1F
100
AcDbEntity
  8
0
  6
Continuous
 62
     7
 48
6.0
100
AcDbLine
 10
490.7855020203225
 20
289.1683434791374
 30
0.0
 11
490.7855020203371
 21
288.1683433891377
 31
0.0
  0
LINE
  5
2F7
330
1F
100
AcDbEntity
  8
0
  6
Continuous
 62
     7
 48
6.0
100
AcDbLine
 10
492.2855020203342
 20
289.1683434791439
 30
0.0
 11
490.7855020203225
 21
289.1683434791374
 31
0.0
  0
LINE
  5
2F8
330
1F
100
AcDbEntity
  8
0
  6
Continuous
 62
     7
 48
6.0
100
AcDbLine
 10
492.2855020203255
 20
290.668343614144
 30
0.0
 11
492.2855020203342
 21
289.1683434791439
 31
0.0
  0
LINE
  5
2F9
330
1F
100
AcDbEntity
  8
0
  6
Continuous
 62
     7
 48
6.0
100
AcDbLine
 10
493.2855020203136
 20
290.6683436141504
 30
0.0
 11
492.2855020203255
 21
290.668343614144
 31
0.0
  0
LINE
  5
2FA
330
1F
100
AcDbEntity
  8
0
  6
Continuous
 62
     7
 48
6.0
100
AcDbLine
 10
493.2855020203346
 20
289.1683434791504
 30
0.0
 11
493.2855020203136
 21
290.6683436141504
 31
0.0
  0
LINE
  5
2FB
330
1F
100
AcDbEntity
  8
0
  6
Continuous
 62
     7
 48
6.0
100
AcDbLine
 10
494.7855020203347
 20
289.1683434791563
 30
0.0
 11
493.2855020203346
 21
289.1683434791504
 31
0.0
  0
LINE
  5
2FC
330
1F
100
AcDbEntity
  8
0
  6
Continuous
 62
     7
 48
6.0
100
AcDbLine
 10
494.7855020203376
 20
288.1683433891564
 30
0.0
 11
494.7855020203347
 21
289.1683434791563
 31
0.0
  0
ARC
  5
2FD
330
1F
100
AcDbEntity
  8
0
  6
Continuous
 62
     7
100
AcDbCircle
 10
492.7854943827258
 20
283.6683384725255
 30
0.0
 40
4.000000230401908
100
AcDbArc
 50
126.8697968159502
 51
53.13007351914048
  0
LINE
  5
2FE
330
1F
100
AcDbEntity
  8
0
  6
Continuous
 62
     7
100
AcDbLine
 10
484.4839732326162
 20
261.0683415883699
 30
0.0
 11
484.4839732326162
 21
258.2683413363702
 31
0.0
  0
ARC
  5
2FF
330
1F
100
AcDbEntity
  8
0
  6
Continuous
 62
     7
100
AcDbCircle
 10
486.083973232618
 20
258.268341192371
 30
0.0
 40
1.600000000001599
100
AcDbArc
 50
179.9999948434213
 51
269.9999999999446
  0
LINE
  5
300
330
1F
100
AcDbEntity
  8
0
  6
Continuous
 62
     7
100
AcDbLine
 10
486.0839732326167
 20
256.6683411923694
 30
0.0
 11
486.4839732326167
 21
256.6683411923694
 31
0.0
  0
LINE
  5
301
330
1F
100
AcDbEntity
  8
0
  6
Continuous
 62
     7
100
AcDbLine
 10
486.0839732326167
 20
262.6683417323699
 30
0.0
 11
486.4839732326167
 21
262.6683417323699
 31
0.0
  0
ARC
  5
302
330
1F
100
AcDbEntity
  8
0
  6
Continuous
 62
     7
100
AcDbCircle
 10
486.0839732326178
 20
261.0683417323678
 30
0.0
 40
1.600000000001308
100
AcDbArc
 50
90.00000000004888
 51
180.000005156572
  0
CIRCLE
  5
303
330
1F
100
AcDbEntity
  8
0
  6
Continuous
 62
     7
370
     0
100
AcDbCircle
 10
561.9381120640411
 20
231.3936795590161
 30
0.0
 40
2.875387080720318
  0
CIRCLE
  5
304
330
1F
100
AcDbEntity
  8
0
  6
Continuous
 62
     7
370
     0
100
AcDbCircle
 10
561.9381120640411
 20
231.3936795590161
 30
0.0
 40
2.211840099534329
  0
CIRCLE
  5
305
330
1F
100
AcDbEntity
  8
0
  6
Continuous
 62
     7
370
     0
100
AcDbCircle
 10
608.7854999697695
 20
288.6683428722256
 30
0.0
 40
3.000000135000437
  0
LINE
  5
306
330
1F
100
AcDbEntity
  8
0
  6
Continuous
 62
     7
100
AcDbLine
 10
558.3381084626373
 20
238.6683344225271
 30
0.0
 11
558.3381084626373
 21
231.3936769958914
 31
0.0
  0
LINE
  5
307
330
1F
100
AcDbEntity
  8
0
  6
Continuous
 62
     7
100
AcDbLine
 10
565.5381091826373
 20
238.6683344225271
 30
0.0
 11
565.5381091826373
 21
231.3936769958914
 31
0.0
  0
ARC
  5
308
330
1F
100
AcDbEntity
  8
0
  6
Continuous
 62
     7
100
AcDbCircle
 10
561.9381121635747
 20
231.3936794594838
 30
0.0
 40
3.6000005030499
100
AcDbArc
 50
180.0000392092902
 51
359.9999607907097
  0
LINE
  5
309
330
1F
100
AcDbEntity
  8
0
  6
Continuous
 62
     7
 48
3.0
100
AcDbLine
 10
563.4126735758857
 20
231.0250399401396
 30
0.0
 11
563.4126735758857
 21
231.0250399401396
 31
0.0
  0
LINE
  5
30A
330
1F
100
AcDbEntity
  8
0
  6
Continuous
 62
     7
 48
3.0
100
AcDbLine
 10
562.3067535758767
 20
231.0250399401367
 30
0.0
 11
563.4126735758857
 21
231.0250399401396
 31
0.0
  0
LINE
  5
30B
330
1F
100
AcDbEntity
  8
0
  6
Continuous
 62
     7
 48
3.0
100
AcDbLine
 10
562.3067535758822
 20
229.9191198406031
 30
0.0
 11
562.3067535758767
 21
231.0250399401367
 31
0.0
  0
LINE
  5
30C
330
1F
100
AcDbEntity
  8
0
  6
Continuous
 62
     7
 48
3.0
100
AcDbLine
 10
561.5694735758912
 20
229.9191198405997
 30
0.0
 11
562.3067535758822
 21
229.9191198406031
 31
0.0
  0
LINE
  5
30D
330
1F
100
AcDbEntity
  8
0
  6
Continuous
 62
     7
 48
3.0
100
AcDbLine
 10
561.5694735758857
 20
231.0250399401313
 30
0.0
 11
561.5694735758912
 21
229.9191198405997
 31
0.0
  0
LINE
  5
30E
330
1F
100
AcDbEntity
  8
0
  6
Continuous
 62
     7
 48
3.0
100
AcDbLine
 10
560.4635535758855
 20
231.0250399401252
 30
0.0
 11
561.5694735758857
 21
231.0250399401313
 31
0.0
  0
LINE
  5
30F
330
1F
100
AcDbEntity
  8
0
  6
Continuous
 62
     7
 48
3.0
100
AcDbLine
 10
560.4635535758708
 20
231.7623200064816
 30
0.0
 11
560.4635535758855
 21
231.0250399401252
 31
0.0
  0
LINE
  5
310
330
1F
100
AcDbEntity
  8
0
  6
Continuous
 62
     7
 48
3.0
100
AcDbLine
 10
561.5694735758794
 20
231.7623200064881
 30
0.0
 11
560.4635535758708
 21
231.7623200064816
 31
0.0
  0
LINE
  5
311
330
1F
100
AcDbEntity
  8
0
  6
Continuous
 62
     7
 48
3.0
100
AcDbLine
 10
561.5694735758736
 20
232.8682401060186
 30
0.0
 11
561.5694735758794
 21
231.7623200064881
 31
0.0
  0
LINE
  5
312
330
1F
100
AcDbEntity
  8
0
  6
Continuous
 62
     7
 48
3.0
100
AcDbLine
 10
562.3067535758675
 20
232.8682401060216
 30
0.0
 11
561.5694735758736
 21
232.8682401060186
 31
0.0
  0
LINE
  5
313
330
1F
100
AcDbEntity
  8
0
  6
Continuous
 62
     7
 48
3.0
100
AcDbLine
 10
562.3067535758822
 20
231.762320006491
 30
0.0
 11
562.3067535758675
 21
232.8682401060216
 31
0.0
  0
LINE
  5
314
330
1F
100
AcDbEntity
  8
0
  6
Continuous
 62
     7
 48
3.0
100
AcDbLine
 10
563.4126735758792
 20
231.762320006497
 30
0.0
 11
562.3067535758822
 21
231.762320006491
 31
0.0
  0
LINE
  5
315
330
1F
100
AcDbEntity
  8
0
  6
Continuous
 62
     7
 48
3.0
100
AcDbLine
 10
563.4126735758857
 20
231.0250399401396
 30
0.0
 11
563.4126735758792
 21
231.762320006497
 31
0.0
  0
LINE
  5
316
330
1F
100
AcDbEntity
  8
0
  6
Continuous
 62
     7
 48
6.0
100
AcDbLine
 10
610.7855020203369
 20
288.1683433891564
 30
0.0
 11
610.7855020203369
 21
288.1683433891564
 31
0.0
  0
LINE
  5
317
330
1F
100
AcDbEntity
  8
0
  6
Continuous
 62
     7
 48
6.0
100
AcDbLine
 10
609.2855020203256
 20
288.1683433891506
 30
0.0
 11
610.7855020203369
 21
288.1683433891564
 31
0.0
  0
LINE
  5
318
330
1F
100
AcDbEntity
  8
0
  6
Continuous
 62
     7
 48
6.0
100
AcDbLine
 10
609.2855020203341
 20
286.6683432541506
 30
0.0
 11
609.2855020203256
 21
288.1683433891506
 31
0.0
  0
LINE
  5
319
330
1F
100
AcDbEntity
  8
0
  6
Continuous
 62
     7
 48
6.0
100
AcDbLine
 10
608.2855020203457
 20
286.668343254144
 30
0.0
 11
609.2855020203341
 21
286.6683432541506
 31
0.0
  0
LINE
  5
31A
330
1F
100
AcDbEntity
  8
0
  6
Continuous
 62
     7
 48
6.0
100
AcDbLine
 10
608.2855020203372
 20
288.168343389144
 30
0.0
 11
608.2855020203457
 21
286.668343254144
 31
0.0
  0
LINE
  5
31B
330
1F
100
AcDbEntity
  8
0
  6
Continuous
 62
     7
 48
6.0
100
AcDbLine
 10
606.7855020203377
 20
288.1683433891377
 30
0.0
 11
608.2855020203372
 21
288.168343389144
 31
0.0
  0
LINE
  5
31C
330
1F
100
AcDbEntity
  8
0
  6
Continuous
 62
     7
 48
6.0
100
AcDbLine
 10
606.7855020203217
 20
289.1683434791374
 30
0.0
 11
606.7855020203377
 21
288.1683433891377
 31
0.0
  0
LINE
  5
31D
330
1F
100
AcDbEntity
  8
0
  6
Continuous
 62
     7
 48
6.0
100
AcDbLine
 10
608.2855020203346
 20
289.1683434791439
 30
0.0
 11
606.7855020203217
 21
289.1683434791374
 31
0.0
  0
LINE
  5
31E
330
1F
100
AcDbEntity
  8
0
  6
Continuous
 62
     7
 48
6.0
100
AcDbLine
 10
608.2855020203253
 20
290.668343614144
 30
0.0
 11
608.2855020203346
 21
289.1683434791439
 31
0.0
  0
LINE
  5
31F
330
1F
100
AcDbEntity
  8
0
  6
Continuous
 62
     7
 48
6.0
100
AcDbLine
 10
609.2855020203136
 20
290.6683436141504
 30
0.0
 11
608.2855020203253
 21
290.668343614144
 31
0.0
  0
LINE
  5
320
330
1F
100
AcDbEntity
  8
0
  6
Continuous
 62
     7
 48
6.0
100
AcDbLine
 10
609.2855020203341
 20
289.1683434791504
 30
0.0
 11
609.2855020203136
 21
290.6683436141504
 31
0.0
  0
LINE
  5
321
330
1F
100
AcDbEntity
  8
0
  6
Continuous
 62
     7
 48
6.0
100
AcDbLine
 10
610.7855020203346
 20
289.1683434791563
 30
0.0
 11
609.2855020203341
 21
289.1683434791504
 31
0.0
  0
LINE
  5
322
330
1F
100
AcDbEntity
  8
0
  6
Continuous
 62
     7
 48
6.0
100
AcDbLine
 10
610.7855020203369
 20
288.1683433891564
 30
0.0
 11
610.7855020203346
 21
289.1683434791563
 31
0.0
  0
ARC
  5
323
330
1F
100
AcDbEntity
  8
0
  6
Continuous
 62
     7
100
AcDbCircle
 10
608.7854943827246
 20
283.6683384725255
 30
0.0
 40
4.000000230402201
100
AcDbArc
 50
126.8697968159528
 51
53.13007351913952
  0
ARC
  5
324
330
1F
100
AcDbEntity
  8
0
  6
Continuous
 62
     7
100
AcDbCircle
 10
550.5854943827266
 20
226.6683333425274
 30
0.0
 40
4.499999999999976
100
AcDbArc
 50
0.0
 51
180.0
  0
LINE
  5
325
330
1F
100
AcDbEntity
  8
0
  6
Continuous
 62
     7
100
AcDbLine
 10
616.6870155328333
 20
261.0683415883699
 30
0.0
 11
616.6870155328333
 21
258.2683413363702
 31
0.0
  0
ARC
  5
326
330
1F
100
AcDbEntity
  8
0
  6
Continuous
 62
     7
100
AcDbCircle
 10
615.0870155328351
 20
258.2683411923687
 30
0.0
 40
1.599999999998871
100
AcDbArc
 50
269.9999999999576
 51
0.000005156676357
  0
LINE
  5
327
330
1F
100
AcDbEntity
  8
0
  6
Continuous
 62
     7
100
AcDbLine
 10
615.0870155328338
 20
256.6683411923694
 30
0.0
 11
614.6870155328334
 21
256.6683411923694
 31
0.0
  0
LINE
  5
328
330
1F
100
AcDbEntity
  8
0
  6
Continuous
 62
     7
100
AcDbLine
 10
615.0870155328338
 20
262.6683417323699
 30
0.0
 11
614.6870155328334
 21
262.6683417323699
 31
0.0
  0
ARC
  5
329
330
1F
100
AcDbEntity
  8
0
  6
Continuous
 62
     7
100
AcDbCircle
 10
615.0870155328324
 20
261.0683417323678
 30
0.0
 40
1.600000000001393
100
AcDbArc
 50
359.9999948434279
 51
89.99999999995116
  0
LINE
  5
32A
330
1F
100
AcDbEntity
  8
0
  6
Continuous
 62
     7
100
AcDbLine
 10
484.4839732326162
 20
436.0683573383717
 30
0.0
 11
484.4839732326162
 21
433.2683570863716
 31
0.0
  0
ARC
  5
32B
330
1F
100
AcDbEntity
  8
0
  6
Continuous
 62
     7
100
AcDbCircle
 10
486.0839732326152
 20
433.2683569423696
 30
0.0
 40
1.5999999999987
100
AcDbArc
 50
179.999994843317
 51
270.0000000000422
  0
LINE
  5
32C
330
1F
100
AcDbEntity
  8
0
  6
Continuous
 62
     7
100
AcDbLine
 10
486.0839732326167
 20
431.6683569423712
 30
0.0
 11
486.4839732326167
 21
431.6683569423712
 31
0.0
  0
LINE
  5
32D
330
1F
100
AcDbEntity
  8
0
  6
Continuous
 62
     7
100
AcDbLine
 10
486.0839732326167
 20
437.6683574823718
 30
0.0
 11
486.4839732326167
 21
437.6683574823718
 31
0.0
  0
ARC
  5
32E
330
1F
100
AcDbEntity
  8
0
  6
Continuous
 62
     7
100
AcDbCircle
 10
486.0839732326174
 20
436.0683574823696
 30
0.0
 40
1.600000000001223
100
AcDbArc
 50
90.00000000004559
 51
180.000005156572
  0
LINE
  5
32F
330
1F
100
AcDbEntity
  8
0
  6
Continuous
 62
     7
100
AcDbLine
 10
616.6870155328333
 20
436.0683573383717
 30
0.0
 11
616.6870155328333
 21
433.2683570863716
 31
0.0
  0
ARC
  5
330
330
1F
100
AcDbEntity
  8
0
  6
Continuous
 62
     7
100
AcDbCircle
 10
615.0870155328351
 20
433.2683569423696
 30
0.0
 40
1.5999999999987
100
AcDbArc
 50
269.9999999999576
 51
0.0000051566828708
  0
LINE
  5
331
330
1F
100
AcDbEntity
  8
0
  6
Continuous
 62
     7
100
AcDbLine
 10
615.0870155328338
 20
431.6683569423712
 30
0.0
 11
614.6870155328334
 21
431.6683569423712
 31
0.0
  0
LINE
  5
332
330
1F
100
AcDbEntity
  8
0
  6
Continuous
 62
     7
100
AcDbLine
 10
615.0870155328338
 20
437.6683574823718
 30
0.0
 11
614.6870155328334
 21
437.6683574823718
 31
0.0
  0
ARC
  5
333
330
1F
100
AcDbEntity
  8
0
  6
Continuous
 62
     7
100
AcDbCircle
 10
615.0870155328324
 20
436.0683574823696
 30
0.0
 40
1.600000000001308
100
AcDbArc
 50
359.9999948434279
 51
89.99999999995441
  0
LINE
  5
334
330
1F
100
AcDbEntity
  8
0
  6
Continuous
 62
     7
 48
6.0
100
AcDbLine
 10
950.4855085432286
 20
260.3183424268553
 30
0.0
 11
950.4855085432497
 21
259.0183423098553
 31
0.0
  0
LINE
  5
335
330
1F
100
AcDbEntity
  8
0
  6
Continuous
 62
     7
 48
6.0
100
AcDbLine
 10
950.4855085432286
 20
435.3183581768568
 30
0.0
 11
950.4855085432497
 21
434.0183580598568
 31
0.0
  0
ARC
  5
336
330
1F
100
AcDbEntity
  8
0
  6
Continuous
 62
     7
100
AcDbCircle
 10
608.7854943827263
 20
630.6683697025302
 30
0.0
 40
4.000000269999574
100
AcDbArc
 50
119.9999977671226
 51
60.00000223287738
  0
ARC
  5
337
330
1F
100
AcDbEntity
  8
0
  6
Continuous
 62
     7
100
AcDbCircle
 10
492.785494382724
 20
630.668369702527
 30
0.0
 40
4.000000270003045
100
AcDbArc
 50
120.0000011063993
 51
60.00000223286567
  0
CIRCLE
  5
338
330
1F
100
AcDbEntity
  8
0
  6
Continuous
 62
     7
370
     0
100
AcDbCircle
 10
527.7854975327263
 20
625.6683692525293
 30
0.0
 40
3.000000270000469
  0
CIRCLE
  5
339
330
1F
100
AcDbEntity
  8
0
  6
Continuous
 62
     7
370
     0
100
AcDbCircle
 10
519.7854968127233
 20
625.6683692525293
 30
0.0
 40
3.000000270000469
  0
CIRCLE
  5
33A
330
1F
100
AcDbEntity
  8
0
  6
Continuous
 62
     7
370
     0
100
AcDbCircle
 10
511.7854960927262
 20
625.6683692525293
 30
0.0
 40
3.000000269997528
  0
CIRCLE
  5
33B
330
1F
100
AcDbEntity
  8
0
  6
Continuous
 62
     7
370
     0
100
AcDbCircle
 10
503.7854953727232
 20
625.6683692525293
 30
0.0
 40
3.000000270000469
  0
LINE
  5
33C
330
1F
100
AcDbEntity
  8
0
  6
Continuous
 62
     7
100
AcDbLine
 10
484.4839732326162
 20
611.0683730883729
 30
0.0
 11
484.4839732326162
 21
608.2683728363731
 31
0.0
  0
ARC
  5
33D
330
1F
100
AcDbEntity
  8
0
  6
Continuous
 62
     7
100
AcDbCircle
 10
486.0839732326178
 20
608.2683726923735
 30
0.0
 40
1.600000000001429
100
AcDbArc
 50
179.9999948434278
 51
269.9999999999511
  0
LINE
  5
33E
330
1F
100
AcDbEntity
  8
0
  6
Continuous
 62
     7
100
AcDbLine
 10
486.0839732326167
 20
606.668372692373
 30
0.0
 11
486.4839732326167
 21
606.668372692373
 31
0.0
  0
LINE
  5
33F
330
1F
100
AcDbEntity
  8
0
  6
Continuous
 62
     7
100
AcDbLine
 10
486.0839732326167
 20
612.6683732323731
 30
0.0
 11
486.4839732326167
 21
612.6683732323731
 31
0.0
  0
ARC
  5
340
330
1F
100
AcDbEntity
  8
0
  6
Continuous
 62
     7
100
AcDbCircle
 10
486.0839732326174
 20
611.0683732323713
 30
0.0
 40
1.600000000001223
100
AcDbArc
 50
90.00000000004559
 51
180.000005156572
  0
LINE
  5
341
330
1F
100
AcDbEntity
  8
0
  6
Continuous
 62
     7
100
AcDbLine
 10
616.6870155328333
 20
611.0683730883729
 30
0.0
 11
616.6870155328333
 21
608.2683728363731
 31
0.0
  0
ARC
  5
342
330
1F
100
AcDbEntity
  8
0
  6
Continuous
 62
     7
100
AcDbCircle
 10
615.0870155328351
 20
608.2683726923712
 30
0.0
 40
1.5999999999987
100
AcDbArc
 50
269.9999999999511
 51
0.0000051566698433
  0
LINE
  5
343
330
1F
100
AcDbEntity
  8
0
  6
Continuous
 62
     7
100
AcDbLine
 10
615.0870155328338
 20
606.668372692373
 30
0.0
 11
614.6870155328334
 21
606.668372692373
 31
0.0
  0
LINE
  5
344
330
1F
100
AcDbEntity
  8
0
  6
Continuous
 62
     7
100
AcDbLine
 10
615.0870155328338
 20
612.6683732323731
 30
0.0
 11
614.6870155328334
 21
612.6683732323731
 31
0.0
  0
ARC
  5
345
330
1F
100
AcDbEntity
  8
0
  6
Continuous
 62
     7
100
AcDbCircle
 10
615.0870155328324
 20
611.0683732323713
 30
0.0
 40
1.600000000001308
100
AcDbArc
 50
359.9999948434279
 51
89.99999999995441
  0
ARC
  5
346
330
1F
100
AcDbEntity
  8
0
  6
Continuous
 62
     7
100
AcDbCircle
 10
550.5854943827266
 20
696.6683756425312
 30
0.0
 40
4.499999999999976
100
AcDbArc
 50
0.0
 51
180.0
  0
LINE
  5
347
330
1F
100
AcDbEntity
  8
0
  6
Continuous
 62
     7
100
AcDbLine
 10
488.0854943827265
 20
678.6683740225307
 30
0.0
 11
488.0854943827265
 21
700.6683760025313
 31
0.0
  0
LINE
  5
348
330
1F
100
AcDbEntity
  8
0
  6
Continuous
 62
     7
100
AcDbLine
 10
613.0854943827263
 20
700.6683760025313
 30
0.0
 11
613.0854943827263
 21
678.6683740225307
 31
0.0
  0
CIRCLE
  5
349
330
1F
100
AcDbEntity
  8
0
  6
DASHED
 62
     4
100
AcDbCircle
 10
536.9204951827422
 20
669.5884325590245
 30
0.0
 40
2.750000123749111
  0
LINE
  5
34A
330
1F
100
AcDbEntity
  8
0
  6
Continuous
 62
     7
100
AcDbLine
 10
614.2854943827265
 20
678.6683740225307
 30
0.0
 11
486.8854943827265
 21
678.6683740225307
 31
0.0
  0
LINE
  5
34B
330
1F
100
AcDbEntity
  8
0
  6
DASHED
 62
     4
 48
6.0
100
AcDbLine
 10
536.4204953065198
 20
667.5884325027725
 30
0.0
 11
537.420495306508
 21
667.588432502779
 31
0.0
  0
LINE
  5
34C
330
1F
100
AcDbEntity
  8
0
  6
DASHED
 62
     4
 48
6.0
100
AcDbLine
 10
537.4204953064864
 20
671.5884328627787
 30
0.0
 11
536.4204953064988
 21
671.5884328627725
 31
0.0
  0
LINE
  5
34D
330
1F
100
AcDbEntity
  8
0
  6
DASHED
 62
     4
 48
6.0
100
AcDbLine
 10
506.4404953064838
 20
665.5884323226196
 30
0.0
 11
594.7304953064986
 21
665.5884323230724
 31
0.0
  0
LINE
  5
34E
330
1F
100
AcDbEntity
  8
0
  6
DASHED
 62
     4
 48
6.0
100
AcDbLine
 10
506.4404953063875
 20
655.5884314231029
 30
0.0
 11
594.730495306601
 21
655.5884314230723
 31
0.0
  0
LINE
  5
34F
330
1F
100
AcDbEntity
  8
0
  6
DASHED
 62
     4
 48
6.0
100
AcDbLine
 10
594.7304953066061
 20
674.5884331325894
 30
0.0
 11
506.440495306394
 21
674.5884331326199
 31
0.0
  0
CIRCLE
  5
350
330
1F
100
AcDbEntity
  8
0
  6
DASHED
 62
     4
100
AcDbCircle
 10
529.3004951826901
 20
669.588432558984
 30
0.0
 40
2.750000123750476
  0
CIRCLE
  5
351
330
1F
100
AcDbEntity
  8
0
  6
DASHED
 62
     4
100
AcDbCircle
 10
521.6804951826977
 20
669.5884325589467
 30
0.0
 40
2.750000123751839
  0
CIRCLE
  5
352
330
1F
100
AcDbEntity
  8
0
  6
DASHED
 62
     4
100
AcDbCircle
 10
514.0604951826479
 20
669.5884325589069
 30
0.0
 40
2.750000123750816
  0
CIRCLE
  5
353
330
1F
100
AcDbEntity
  8
0
  6
DASHED
 62
     4
100
AcDbCircle
 10
533.1104951827885
 20
660.5884317490058
 30
0.0
 40
2.750000123749111
  0
CIRCLE
  5
354
330
1F
100
AcDbEntity
  8
0
  6
DASHED
 62
     4
100
AcDbCircle
 10
525.4904951827358
 20
660.588431748966
 30
0.0
 40
2.750000123750476
  0
CIRCLE
  5
355
330
1F
100
AcDbEntity
  8
0
  6
DASHED
 62
     4
100
AcDbCircle
 10
517.8704951827438
 20
660.5884317489285
 30
0.0
 40
2.750000123751839
  0
CIRCLE
  5
356
330
1F
100
AcDbEntity
  8
0
  6
DASHED
 62
     4
100
AcDbCircle
 10
510.2504951826939
 20
660.5884317488882
 30
0.0
 40
2.750000123750816
  0
CIRCLE
  5
357
330
1F
100
AcDbEntity
  8
0
  6
Continuous
 62
     7
370
     0
100
AcDbCircle
 10
492.7854999697706
 20
643.6683748222283
 30
0.0
 40
3.00000013500048
  0
LINE
  5
358
330
1F
100
AcDbEntity
  8
0
  6
Continuous
 62
     7
 48
6.0
100
AcDbLine
 10
494.7855020203376
 20
643.1683753391592
 30
0.0
 11
494.7855020203376
 21
643.1683753391592
 31
0.0
  0
LINE
  5
359
330
1F
100
AcDbEntity
  8
0
  6
Continuous
 62
     7
 48
6.0
100
AcDbLine
 10
493.2855020203255
 20
643.1683753391535
 30
0.0
 11
494.7855020203376
 21
643.1683753391592
 31
0.0
  0
LINE
  5
35A
330
1F
100
AcDbEntity
  8
0
  6
Continuous
 62
     7
 48
6.0
100
AcDbLine
 10
493.2855020203346
 20
641.6683752041532
 30
0.0
 11
493.2855020203255
 21
643.1683753391535
 31
0.0
  0
LINE
  5
35B
330
1F
100
AcDbEntity
  8
0
  6
Continuous
 62
     7
 48
6.0
100
AcDbLine
 10
492.2855020203461
 20
641.6683752041467
 30
0.0
 11
493.2855020203346
 21
641.6683752041532
 31
0.0
  0
LINE
  5
35C
330
1F
100
AcDbEntity
  8
0
  6
Continuous
 62
     7
 48
6.0
100
AcDbLine
 10
492.2855020203372
 20
643.1683753391474
 30
0.0
 11
492.2855020203461
 21
641.6683752041467
 31
0.0
  0
LINE
  5
35D
330
1F
100
AcDbEntity
  8
0
  6
Continuous
 62
     7
 48
6.0
100
AcDbLine
 10
490.7855020203371
 20
643.168375339141
 30
0.0
 11
492.2855020203372
 21
643.1683753391474
 31
0.0
  0
LINE
  5
35E
330
1F
100
AcDbEntity
  8
0
  6
Continuous
 62
     7
 48
6.0
100
AcDbLine
 10
490.7855020203225
 20
644.1683754291408
 30
0.0
 11
490.7855020203371
 21
643.168375339141
 31
0.0
  0
LINE
  5
35F
330
1F
100
AcDbEntity
  8
0
  6
Continuous
 62
     7
 48
6.0
100
AcDbLine
 10
492.2855020203342
 20
644.1683754291468
 30
0.0
 11
490.7855020203225
 21
644.1683754291408
 31
0.0
  0
LINE
  5
360
330
1F
100
AcDbEntity
  8
0
  6
Continuous
 62
     7
 48
6.0
100
AcDbLine
 10
492.2855020203255
 20
645.6683755641468
 30
0.0
 11
492.2855020203342
 21
644.1683754291468
 31
0.0
  0
LINE
  5
361
330
1F
100
AcDbEntity
  8
0
  6
Continuous
 62
     7
 48
6.0
100
AcDbLine
 10
493.2855020203136
 20
645.6683755641534
 30
0.0
 11
492.2855020203255
 21
645.6683755641468
 31
0.0
  0
LINE
  5
362
330
1F
100
AcDbEntity
  8
0
  6
Continuous
 62
     7
 48
6.0
100
AcDbLine
 10
493.2855020203346
 20
644.1683754291532
 30
0.0
 11
493.2855020203136
 21
645.6683755641534
 31
0.0
  0
LINE
  5
363
330
1F
100
AcDbEntity
  8
0
  6
Continuous
 62
     7
 48
6.0
100
AcDbLine
 10
494.7855020203347
 20
644.1683754291589
 30
0.0
 11
493.2855020203346
 21
644.1683754291532
 31
0.0
  0
LINE
  5
364
330
1F
100
AcDbEntity
  8
0
  6
Continuous
 62
     7
 48
6.0
100
AcDbLine
 10
494.7855020203376
 20
643.1683753391592
 30
0.0
 11
494.7855020203347
 21
644.1683754291589
 31
0.0
  0
ARC
  5
365
330
1F
100
AcDbEntity
  8
0
  6
Continuous
 62
     7
100
AcDbCircle
 10
492.7854943827266
 20
671.6683733925294
 30
0.0
 40
1.999999999999996
100
AcDbArc
 50
0.000000000029312
 51
180.0000050089405
  0
LINE
  5
366
330
1F
100
AcDbEntity
  8
0
  6
DASHED
 62
     4
 48
6.0
100
AcDbLine
 10
536.2604953065376
 20
665.5884323227726
 30
0.0
 11
536.260495306604
 21
655.5884314226079
 31
0.0
  0
LINE
  5
367
330
1F
100
AcDbEntity
  8
0
  6
DASHED
 62
     4
 48
6.0
100
AcDbLine
 10
529.9604953065378
 20
665.5884323227401
 30
0.0
 11
529.9604953065584
 21
655.5884314231684
 31
0.0
  0
LINE
  5
368
330
1F
100
AcDbEntity
  8
0
  6
DASHED
 62
     4
 48
6.0
100
AcDbLine
 10
528.6404953065495
 20
665.5884323227341
 30
0.0
 11
528.6404953065589
 21
655.5884314231716
 31
0.0
  0
LINE
  5
369
330
1F
100
AcDbEntity
  8
0
  6
DASHED
 62
     4
 48
6.0
100
AcDbLine
 10
522.3404953065378
 20
665.5884323227012
 30
0.0
 11
522.3404953066035
 21
655.5884314231716
 31
0.0
  0
LINE
  5
36A
330
1F
100
AcDbEntity
  8
0
  6
DASHED
 62
     4
 48
6.0
100
AcDbLine
 10
521.0204953065376
 20
665.5884323226952
 30
0.0
 11
521.0204953066038
 21
655.588431422613
 31
0.0
  0
LINE
  5
36B
330
1F
100
AcDbEntity
  8
0
  6
DASHED
 62
     4
 48
6.0
100
AcDbLine
 10
514.7204953065379
 20
665.5884323226619
 30
0.0
 11
514.7204953065591
 21
655.588431423175
 31
0.0
  0
LINE
  5
36C
330
1F
100
AcDbEntity
  8
0
  6
DASHED
 62
     4
 48
6.0
100
AcDbLine
 10
513.4004953065375
 20
665.5884323226556
 30
0.0
 11
513.4004953065585
 21
655.5884314226171
 31
0.0
  0
LINE
  5
36D
330
1F
100
AcDbEntity
  8
0
  6
DASHED
 62
     4
 48
6.0
100
AcDbLine
 10
508.4922908249605
 20
666.5753251089904
 30
0.0
 11
506.4404953064775
 21
666.5753251089811
 31
0.0
  0
LINE
  5
36E
330
1F
100
AcDbEntity
  8
0
  6
DASHED
 62
     4
 48
6.0
100
AcDbLine
 10
508.4922908249241
 20
673.5916828201573
 30
0.0
 11
508.4922908249961
 21
666.5753251089904
 31
0.0
  0
LINE
  5
36F
330
1F
100
AcDbEntity
  8
0
  6
DASHED
 62
     4
 48
6.0
100
AcDbLine
 10
506.4404953064415
 20
673.591682820149
 30
0.0
 11
508.4922908249241
 21
673.5916828201573
 31
0.0
  0
LINE
  5
370
330
1F
100
AcDbEntity
  8
0
  6
DASHED
 62
     4
 48
6.0
100
AcDbLine
 10
509.590495306442
 20
674.5884331326347
 30
0.0
 11
509.590495306499
 21
665.588432322635
 31
0.0
  0
LINE
  5
371
330
1F
100
AcDbEntity
  8
0
  6
DASHED
 62
     4
 48
6.0
100
AcDbLine
 10
510.9104953064984
 20
665.5884323226405
 30
0.0
 11
510.9104953064415
 21
674.5884331326408
 31
0.0
  0
LINE
  5
372
330
1F
100
AcDbEntity
  8
0
  6
DASHED
 62
     4
 48
6.0
100
AcDbLine
 10
517.2104953064144
 20
674.5884331326736
 30
0.0
 11
517.2104953064625
 21
665.5884323226739
 31
0.0
  0
LINE
  5
373
330
1F
100
AcDbEntity
  8
0
  6
DASHED
 62
     4
 48
6.0
100
AcDbLine
 10
518.5304953064984
 20
665.5884323226801
 30
0.0
 11
518.5304953064415
 21
674.5884331326797
 31
0.0
  0
LINE
  5
374
330
1F
100
AcDbEntity
  8
0
  6
DASHED
 62
     4
 48
6.0
100
AcDbLine
 10
524.8304953064145
 20
674.5884331327131
 30
0.0
 11
524.8304953064625
 21
665.588432322713
 31
0.0
  0
LINE
  5
375
330
1F
100
AcDbEntity
  8
0
  6
DASHED
 62
     4
 48
6.0
100
AcDbLine
 10
526.1504953064989
 20
665.5884323227219
 30
0.0
 11
526.1504953064416
 21
674.588433132722
 31
0.0
  0
LINE
  5
376
330
1F
100
AcDbEntity
  8
0
  6
DASHED
 62
     4
 48
6.0
100
AcDbLine
 10
532.4504953064148
 20
674.5884331327515
 30
0.0
 11
532.4504953064624
 21
665.5884323227519
 31
0.0
  0
LINE
  5
377
330
1F
100
AcDbEntity
  8
0
  6
DASHED
 62
     4
 48
6.0
100
AcDbLine
 10
533.7704953064988
 20
665.5884323227605
 30
0.0
 11
533.7704953064418
 21
674.588433132761
 31
0.0
  0
LINE
  5
378
330
1F
100
AcDbEntity
  8
0
  6
DASHED
 62
     4
 48
6.0
100
AcDbLine
 10
512.2504953064719
 20
660.08843182765
 30
0.0
 11
512.2504953064719
 21
660.08843182765
 31
0.0
  0
LINE
  5
379
330
1F
100
AcDbEntity
  8
0
  6
DASHED
 62
     4
 48
6.0
100
AcDbLine
 10
510.7504953064599
 20
660.0884318276407
 30
0.0
 11
512.2504953064719
 21
660.08843182765
 31
0.0
  0
LINE
  5
37A
330
1F
100
AcDbEntity
  8
0
  6
DASHED
 62
     4
 48
6.0
100
AcDbLine
 10
510.7504953064658
 20
658.5884316926408
 30
0.0
 11
510.7504953064599
 21
660.0884318276407
 31
0.0
  0
LINE
  5
37B
330
1F
100
AcDbEntity
  8
0
  6
DASHED
 62
     4
 48
6.0
100
AcDbLine
 10
509.750495306478
 20
658.5884316926349
 30
0.0
 11
510.7504953064658
 21
658.5884316926408
 31
0.0
  0
LINE
  5
37C
330
1F
100
AcDbEntity
  8
0
  6
DASHED
 62
     4
 48
6.0
100
AcDbLine
 10
509.7504953064719
 20
660.0884318276349
 30
0.0
 11
509.750495306478
 21
658.5884316926349
 31
0.0
  0
LINE
  5
37D
330
1F
100
AcDbEntity
  8
0
  6
DASHED
 62
     4
 48
6.0
100
AcDbLine
 10
508.2504953064717
 20
660.0884318276286
 30
0.0
 11
509.7504953064719
 21
660.0884318276349
 31
0.0
  0
LINE
  5
37E
330
1F
100
AcDbEntity
  8
0
  6
DASHED
 62
     4
 48
6.0
100
AcDbLine
 10
508.2504953064539
 20
661.088431917629
 30
0.0
 11
508.2504953064717
 21
660.0884318276286
 31
0.0
  0
LINE
  5
37F
330
1F
100
AcDbEntity
  8
0
  6
DASHED
 62
     4
 48
6.0
100
AcDbLine
 10
509.7504953064659
 20
661.0884319176344
 30
0.0
 11
508.2504953064539
 21
661.088431917629
 31
0.0
  0
LINE
  5
380
330
1F
100
AcDbEntity
  8
0
  6
DASHED
 62
     4
 48
6.0
100
AcDbLine
 10
509.7504953064599
 20
662.5884320526349
 30
0.0
 11
509.7504953064659
 21
661.0884319176344
 31
0.0
  0
LINE
  5
381
330
1F
100
AcDbEntity
  8
0
  6
DASHED
 62
     4
 48
6.0
100
AcDbLine
 10
510.7504953064478
 20
662.5884320526406
 30
0.0
 11
509.7504953064599
 21
662.5884320526349
 31
0.0
  0
LINE
  5
382
330
1F
100
AcDbEntity
  8
0
  6
DASHED
 62
     4
 48
6.0
100
AcDbLine
 10
510.7504953064658
 20
661.0884319176409
 30
0.0
 11
510.7504953064478
 21
662.5884320526406
 31
0.0
  0
LINE
  5
383
330
1F
100
AcDbEntity
  8
0
  6
DASHED
 62
     4
 48
6.0
100
AcDbLine
 10
512.2504953064654
 20
661.0884319176493
 30
0.0
 11
510.7504953064658
 21
661.0884319176409
 31
0.0
  0
LINE
  5
384
330
1F
100
AcDbEntity
  8
0
  6
DASHED
 62
     4
 48
6.0
100
AcDbLine
 10
512.2504953064719
 20
660.08843182765
 30
0.0
 11
512.2504953064654
 21
661.0884319176493
 31
0.0
  0
LINE
  5
385
330
1F
100
AcDbEntity
  8
0
  6
DASHED
 62
     4
 48
6.0
100
AcDbLine
 10
516.0604953064237
 20
669.0884326376674
 30
0.0
 11
516.0604953064237
 21
669.0884326376674
 31
0.0
  0
LINE
  5
386
330
1F
100
AcDbEntity
  8
0
  6
DASHED
 62
     4
 48
6.0
100
AcDbLine
 10
514.5604953064115
 20
669.0884326376615
 30
0.0
 11
516.0604953064237
 21
669.0884326376674
 31
0.0
  0
LINE
  5
387
330
1F
100
AcDbEntity
  8
0
  6
DASHED
 62
     4
 48
6.0
100
AcDbLine
 10
514.560495306421
 20
667.588432502662
 30
0.0
 11
514.5604953064115
 21
669.0884326376615
 31
0.0
  0
LINE
  5
388
330
1F
100
AcDbEntity
  8
0
  6
DASHED
 62
     4
 48
6.0
100
AcDbLine
 10
513.5604953064325
 20
667.5884325026555
 30
0.0
 11
514.560495306421
 21
667.588432502662
 31
0.0
  0
LINE
  5
389
330
1F
100
AcDbEntity
  8
0
  6
DASHED
 62
     4
 48
6.0
100
AcDbLine
 10
513.5604953064269
 20
669.088432637656
 30
0.0
 11
513.5604953064325
 21
667.5884325026555
 31
0.0
  0
LINE
  5
38A
330
1F
100
AcDbEntity
  8
0
  6
DASHED
 62
     4
 48
6.0
100
AcDbLine
 10
512.0604953064236
 20
669.0884326376472
 30
0.0
 11
513.5604953064269
 21
669.088432637656
 31
0.0
  0
LINE
  5
38B
330
1F
100
AcDbEntity
  8
0
  6
DASHED
 62
     4
 48
6.0
100
AcDbLine
 10
512.0604953064086
 20
670.0884327276471
 30
0.0
 11
512.0604953064236
 21
669.0884326376472
 31
0.0
  0
LINE
  5
38C
330
1F
100
AcDbEntity
  8
0
  6
DASHED
 62
     4
 48
6.0
100
AcDbLine
 10
513.5604953064209
 20
670.0884327276561
 30
0.0
 11
512.0604953064086
 21
670.0884327276471
 31
0.0
  0
LINE
  5
38D
330
1F
100
AcDbEntity
  8
0
  6
DASHED
 62
     4
 48
6.0
100
AcDbLine
 10
513.5604953064115
 20
671.5884328626563
 30
0.0
 11
513.5604953064209
 21
670.0884327276561
 31
0.0
  0
LINE
  5
38E
330
1F
100
AcDbEntity
  8
0
  6
DASHED
 62
     4
 48
6.0
100
AcDbLine
 10
514.5604953063998
 20
671.5884328626616
 30
0.0
 11
513.5604953064115
 21
671.5884328626563
 31
0.0
  0
LINE
  5
38F
330
1F
100
AcDbEntity
  8
0
  6
DASHED
 62
     4
 48
6.0
100
AcDbLine
 10
514.560495306421
 20
670.0884327276622
 30
0.0
 11
514.5604953063998
 21
671.5884328626616
 31
0.0
  0
LINE
  5
390
330
1F
100
AcDbEntity
  8
0
  6
DASHED
 62
     4
 48
6.0
100
AcDbLine
 10
516.0604953064209
 20
670.0884327276677
 30
0.0
 11
514.560495306421
 21
670.0884327276622
 31
0.0
  0
LINE
  5
391
330
1F
100
AcDbEntity
  8
0
  6
DASHED
 62
     4
 48
6.0
100
AcDbLine
 10
516.0604953064237
 20
669.0884326376674
 30
0.0
 11
516.0604953064209
 21
670.0884327276677
 31
0.0
  0
LINE
  5
392
330
1F
100
AcDbEntity
  8
0
  6
DASHED
 62
     4
 48
6.0
100
AcDbLine
 10
519.8704953065199
 20
660.0884318276882
 30
0.0
 11
519.8704953065199
 21
660.0884318276882
 31
0.0
  0
LINE
  5
393
330
1F
100
AcDbEntity
  8
0
  6
DASHED
 62
     4
 48
6.0
100
AcDbLine
 10
518.3704953065105
 20
660.0884318276801
 30
0.0
 11
519.8704953065199
 21
660.0884318276882
 31
0.0
  0
LINE
  5
394
330
1F
100
AcDbEntity
  8
0
  6
DASHED
 62
     4
 48
6.0
100
AcDbLine
 10
518.3704953065168
 20
658.588431692679
 30
0.0
 11
518.3704953065105
 21
660.0884318276801
 31
0.0
  0
LINE
  5
395
330
1F
100
AcDbEntity
  8
0
  6
DASHED
 62
     4
 48
6.0
100
AcDbLine
 10
517.3704953065286
 20
658.5884316926735
 30
0.0
 11
518.3704953065168
 21
658.588431692679
 31
0.0
  0
LINE
  5
396
330
1F
100
AcDbEntity
  8
0
  6
DASHED
 62
     4
 48
6.0
100
AcDbLine
 10
517.3704953065228
 20
660.0884318276738
 30
0.0
 11
517.3704953065286
 21
658.5884316926735
 31
0.0
  0
LINE
  5
397
330
1F
100
AcDbEntity
  8
0
  6
DASHED
 62
     4
 48
6.0
100
AcDbLine
 10
515.8704953065197
 20
660.0884318276676
 30
0.0
 11
517.3704953065228
 21
660.0884318276738
 31
0.0
  0
LINE
  5
398
330
1F
100
AcDbEntity
  8
0
  6
DASHED
 62
     4
 48
6.0
100
AcDbLine
 10
515.8704953065051
 20
661.0884319176679
 30
0.0
 11
515.8704953065197
 21
660.0884318276676
 31
0.0
  0
LINE
  5
399
330
1F
100
AcDbEntity
  8
0
  6
DASHED
 62
     4
 48
6.0
100
AcDbLine
 10
517.3704953065165
 20
661.088431917677
 30
0.0
 11
515.8704953065051
 21
661.0884319176679
 31
0.0
  0
LINE
  5
39A
330
1F
100
AcDbEntity
  8
0
  6
DASHED
 62
     4
 48
6.0
100
AcDbLine
 10
517.3704953065074
 20
662.5884320526734
 30
0.0
 11
517.3704953065165
 21
661.088431917677
 31
0.0
  0
LINE
  5
39B
330
1F
100
AcDbEntity
  8
0
  6
DASHED
 62
     4
 48
6.0
100
AcDbLine
 10
518.3704953064959
 20
662.5884320526793
 30
0.0
 11
517.3704953065074
 21
662.5884320526734
 31
0.0
  0
LINE
  5
39C
330
1F
100
AcDbEntity
  8
0
  6
DASHED
 62
     4
 48
6.0
100
AcDbLine
 10
518.3704953065168
 20
661.08843191768
 30
0.0
 11
518.3704953064959
 21
662.5884320526793
 31
0.0
  0
LINE
  5
39D
330
1F
100
AcDbEntity
  8
0
  6
DASHED
 62
     4
 48
6.0
100
AcDbLine
 10
519.8704953065169
 20
661.0884319176884
 30
0.0
 11
518.3704953065168
 21
661.08843191768
 31
0.0
  0
LINE
  5
39E
330
1F
100
AcDbEntity
  8
0
  6
DASHED
 62
     4
 48
6.0
100
AcDbLine
 10
519.8704953065199
 20
660.0884318276882
 30
0.0
 11
519.8704953065169
 21
661.0884319176884
 31
0.0
  0
LINE
  5
39F
330
1F
100
AcDbEntity
  8
0
  6
DASHED
 62
     4
 48
6.0
100
AcDbLine
 10
523.6804953064685
 20
669.0884326377061
 30
0.0
 11
523.6804953064685
 21
669.0884326377061
 31
0.0
  0
LINE
  5
3A0
330
1F
100
AcDbEntity
  8
0
  6
DASHED
 62
     4
 48
6.0
100
AcDbLine
 10
522.180495306457
 20
669.0884326377008
 30
0.0
 11
523.6804953064685
 21
669.0884326377061
 31
0.0
  0
LINE
  5
3A1
330
1F
100
AcDbEntity
  8
0
  6
DASHED
 62
     4
 48
6.0
100
AcDbLine
 10
522.1804953064658
 20
667.5884325027009
 30
0.0
 11
522.180495306457
 21
669.0884326377008
 31
0.0
  0
LINE
  5
3A2
330
1F
100
AcDbEntity
  8
0
  6
DASHED
 62
     4
 48
6.0
100
AcDbLine
 10
521.1804953064777
 20
667.588432502695
 30
0.0
 11
522.1804953064658
 21
667.5884325027009
 31
0.0
  0
LINE
  5
3A3
330
1F
100
AcDbEntity
  8
0
  6
DASHED
 62
     4
 48
6.0
100
AcDbLine
 10
521.1804953064684
 20
669.0884326376949
 30
0.0
 11
521.1804953064777
 21
667.588432502695
 31
0.0
  0
LINE
  5
3A4
330
1F
100
AcDbEntity
  8
0
  6
DASHED
 62
     4
 48
6.0
100
AcDbLine
 10
519.6804953064689
 20
669.0884326376861
 30
0.0
 11
521.1804953064684
 21
669.0884326376949
 31
0.0
  0
LINE
  5
3A5
330
1F
100
AcDbEntity
  8
0
  6
DASHED
 62
     4
 48
6.0
100
AcDbLine
 10
519.6804953064509
 20
670.0884327276855
 30
0.0
 11
519.6804953064689
 21
669.0884326376861
 31
0.0
  0
LINE
  5
3A6
330
1F
100
AcDbEntity
  8
0
  6
DASHED
 62
     4
 48
6.0
100
AcDbLine
 10
521.180495306463
 20
670.088432727695
 30
0.0
 11
519.6804953064509
 21
670.0884327276855
 31
0.0
  0
LINE
  5
3A7
330
1F
100
AcDbEntity
  8
0
  6
DASHED
 62
     4
 48
6.0
100
AcDbLine
 10
521.180495306457
 20
671.5884328626948
 30
0.0
 11
521.180495306463
 21
670.088432727695
 31
0.0
  0
LINE
  5
3A8
330
1F
100
AcDbEntity
  8
0
  6
DASHED
 62
     4
 48
6.0
100
AcDbLine
 10
522.1804953064447
 20
671.588432862701
 30
0.0
 11
521.180495306457
 21
671.5884328626948
 31
0.0
  0
LINE
  5
3A9
330
1F
100
AcDbEntity
  8
0
  6
DASHED
 62
     4
 48
6.0
100
AcDbLine
 10
522.1804953064658
 20
670.088432727701
 30
0.0
 11
522.1804953064447
 21
671.588432862701
 31
0.0
  0
LINE
  5
3AA
330
1F
100
AcDbEntity
  8
0
  6
DASHED
 62
     4
 48
6.0
100
AcDbLine
 10
523.6804953064631
 20
670.0884327277072
 30
0.0
 11
522.1804953064658
 21
670.088432727701
 31
0.0
  0
LINE
  5
3AB
330
1F
100
AcDbEntity
  8
0
  6
DASHED
 62
     4
 48
6.0
100
AcDbLine
 10
523.6804953064685
 20
669.0884326377061
 30
0.0
 11
523.6804953064631
 21
670.0884327277072
 31
0.0
  0
LINE
  5
3AC
330
1F
100
AcDbEntity
  8
0
  6
DASHED
 62
     4
 48
6.0
100
AcDbLine
 10
527.4904953065136
 20
660.0884318277278
 30
0.0
 11
527.4904953065136
 21
660.0884318277278
 31
0.0
  0
LINE
  5
3AD
330
1F
100
AcDbEntity
  8
0
  6
DASHED
 62
     4
 48
6.0
100
AcDbLine
 10
525.9904953065018
 20
660.088431827719
 30
0.0
 11
527.4904953065136
 21
660.0884318277278
 31
0.0
  0
LINE
  5
3AE
330
1F
100
AcDbEntity
  8
0
  6
DASHED
 62
     4
 48
6.0
100
AcDbLine
 10
525.990495306511
 20
658.5884316927185
 30
0.0
 11
525.9904953065018
 21
660.088431827719
 31
0.0
  0
LINE
  5
3AF
330
1F
100
AcDbEntity
  8
0
  6
DASHED
 62
     4
 48
6.0
100
AcDbLine
 10
524.9904953065231
 20
658.5884316927158
 30
0.0
 11
525.990495306511
 21
658.5884316927185
 31
0.0
  0
LINE
  5
3B0
330
1F
100
AcDbEntity
  8
0
  6
DASHED
 62
     4
 48
6.0
100
AcDbLine
 10
524.9904953065168
 20
660.0884318277159
 30
0.0
 11
524.9904953065231
 21
658.5884316927158
 31
0.0
  0
LINE
  5
3B1
330
1F
100
AcDbEntity
  8
0
  6
DASHED
 62
     4
 48
6.0
100
AcDbLine
 10
523.4904953065137
 20
660.0884318277072
 30
0.0
 11
524.9904953065168
 21
660.0884318277159
 31
0.0
  0
LINE
  5
3B2
330
1F
100
AcDbEntity
  8
0
  6
DASHED
 62
     4
 48
6.0
100
AcDbLine
 10
523.4904953064984
 20
661.0884319177061
 30
0.0
 11
523.4904953065137
 21
660.0884318277072
 31
0.0
  0
LINE
  5
3B3
330
1F
100
AcDbEntity
  8
0
  6
DASHED
 62
     4
 48
6.0
100
AcDbLine
 10
524.9904953065104
 20
661.0884319177155
 30
0.0
 11
523.4904953064984
 21
661.0884319177061
 31
0.0
  0
LINE
  5
3B4
330
1F
100
AcDbEntity
  8
0
  6
DASHED
 62
     4
 48
6.0
100
AcDbLine
 10
524.9904953065019
 20
662.5884320527159
 30
0.0
 11
524.9904953065104
 21
661.0884319177155
 31
0.0
  0
LINE
  5
3B5
330
1F
100
AcDbEntity
  8
0
  6
DASHED
 62
     4
 48
6.0
100
AcDbLine
 10
525.9904953064896
 20
662.5884320527185
 30
0.0
 11
524.9904953065019
 21
662.5884320527159
 31
0.0
  0
LINE
  5
3B6
330
1F
100
AcDbEntity
  8
0
  6
DASHED
 62
     4
 48
6.0
100
AcDbLine
 10
525.990495306511
 20
661.0884319177184
 30
0.0
 11
525.9904953064896
 21
662.5884320527185
 31
0.0
  0
LINE
  5
3B7
330
1F
100
AcDbEntity
  8
0
  6
DASHED
 62
     4
 48
6.0
100
AcDbLine
 10
527.4904953065105
 20
661.0884319177276
 30
0.0
 11
525.990495306511
 21
661.0884319177184
 31
0.0
  0
LINE
  5
3B8
330
1F
100
AcDbEntity
  8
0
  6
DASHED
 62
     4
 48
6.0
100
AcDbLine
 10
527.4904953065136
 20
660.0884318277278
 30
0.0
 11
527.4904953065105
 21
661.0884319177276
 31
0.0
  0
LINE
  5
3B9
330
1F
100
AcDbEntity
  8
0
  6
DASHED
 62
     4
 48
6.0
100
AcDbLine
 10
531.3004953064689
 20
669.0884326377457
 30
0.0
 11
531.3004953064689
 21
669.0884326377457
 31
0.0
  0
LINE
  5
3BA
330
1F
100
AcDbEntity
  8
0
  6
DASHED
 62
     4
 48
6.0
100
AcDbLine
 10
529.8004953064569
 20
669.0884326377402
 30
0.0
 11
531.3004953064689
 21
669.0884326377457
 31
0.0
  0
LINE
  5
3BB
330
1F
100
AcDbEntity
  8
0
  6
DASHED
 62
     4
 48
6.0
100
AcDbLine
 10
529.8004953064654
 20
667.5884325027395
 30
0.0
 11
529.8004953064569
 21
669.0884326377402
 31
0.0
  0
LINE
  5
3BC
330
1F
100
AcDbEntity
  8
0
  6
DASHED
 62
     4
 48
6.0
100
AcDbLine
 10
528.8004953064776
 20
667.588432502734
 30
0.0
 11
529.8004953064654
 21
667.5884325027395
 31
0.0
  0
LINE
  5
3BD
330
1F
100
AcDbEntity
  8
0
  6
DASHED
 62
     4
 48
6.0
100
AcDbLine
 10
528.8004953064688
 20
669.0884326377341
 30
0.0
 11
528.8004953064776
 21
667.588432502734
 31
0.0
  0
LINE
  5
3BE
330
1F
100
AcDbEntity
  8
0
  6
DASHED
 62
     4
 48
6.0
100
AcDbLine
 10
527.3004953064687
 20
669.0884326377279
 30
0.0
 11
528.8004953064688
 21
669.0884326377341
 31
0.0
  0
LINE
  5
3BF
330
1F
100
AcDbEntity
  8
0
  6
DASHED
 62
     4
 48
6.0
100
AcDbLine
 10
527.3004953064505
 20
670.0884327277279
 30
0.0
 11
527.3004953064687
 21
669.0884326377279
 31
0.0
  0
LINE
  5
3C0
330
1F
100
AcDbEntity
  8
0
  6
DASHED
 62
     4
 48
6.0
100
AcDbLine
 10
528.8004953064629
 20
670.088432727734
 30
0.0
 11
527.3004953064505
 21
670.0884327277279
 31
0.0
  0
LINE
  5
3C1
330
1F
100
AcDbEntity
  8
0
  6
DASHED
 62
     4
 48
6.0
100
AcDbLine
 10
528.8004953064564
 20
671.588432862733
 30
0.0
 11
528.8004953064629
 21
670.088432727734
 31
0.0
  0
LINE
  5
3C2
330
1F
100
AcDbEntity
  8
0
  6
DASHED
 62
     4
 48
6.0
100
AcDbLine
 10
529.8004953064448
 20
671.58843286274
 30
0.0
 11
528.8004953064564
 21
671.588432862733
 31
0.0
  0
LINE
  5
3C3
330
1F
100
AcDbEntity
  8
0
  6
DASHED
 62
     4
 48
6.0
100
AcDbLine
 10
529.8004953064654
 20
670.08843272774
 30
0.0
 11
529.8004953064448
 21
671.58843286274
 31
0.0
  0
LINE
  5
3C4
330
1F
100
AcDbEntity
  8
0
  6
DASHED
 62
     4
 48
6.0
100
AcDbLine
 10
531.3004953064624
 20
670.088432727746
 30
0.0
 11
529.8004953064654
 21
670.08843272774
 31
0.0
  0
LINE
  5
3C5
330
1F
100
AcDbEntity
  8
0
  6
DASHED
 62
     4
 48
6.0
100
AcDbLine
 10
531.3004953064689
 20
669.0884326377457
 30
0.0
 11
531.3004953064624
 21
670.088432727746
 31
0.0
  0
LINE
  5
3C6
330
1F
100
AcDbEntity
  8
0
  6
DASHED
 62
     4
 48
6.0
100
AcDbLine
 10
535.1104953065648
 20
660.0884318277671
 30
0.0
 11
535.1104953065648
 21
660.0884318277671
 31
0.0
  0
LINE
  5
3C7
330
1F
100
AcDbEntity
  8
0
  6
DASHED
 62
     4
 48
6.0
100
AcDbLine
 10
533.610495306553
 20
660.088431827758
 30
0.0
 11
535.1104953065648
 21
660.0884318277671
 31
0.0
  0
LINE
  5
3C8
330
1F
100
AcDbEntity
  8
0
  6
DASHED
 62
     4
 48
6.0
100
AcDbLine
 10
533.6104953065613
 20
658.5884316927574
 30
0.0
 11
533.610495306553
 21
660.088431827758
 31
0.0
  0
LINE
  5
3C9
330
1F
100
AcDbEntity
  8
0
  6
DASHED
 62
     4
 48
6.0
100
AcDbLine
 10
532.610495306574
 20
658.5884316927551
 30
0.0
 11
533.6104953065613
 21
658.5884316927574
 31
0.0
  0
LINE
  5
3CA
330
1F
100
AcDbEntity
  8
0
  6
DASHED
 62
     4
 48
6.0
100
AcDbLine
 10
532.6104953065646
 20
660.0884318277551
 30
0.0
 11
532.610495306574
 21
658.5884316927551
 31
0.0
  0
LINE
  5
3CB
330
1F
100
AcDbEntity
  8
0
  6
DASHED
 62
     4
 48
6.0
100
AcDbLine
 10
531.1104953065648
 20
660.0884318277454
 30
0.0
 11
532.6104953065646
 21
660.0884318277551
 31
0.0
  0
LINE
  5
3CC
330
1F
100
AcDbEntity
  8
0
  6
DASHED
 62
     4
 48
6.0
100
AcDbLine
 10
531.1104953065465
 20
661.088431917746
 30
0.0
 11
531.1104953065648
 21
660.0884318277454
 31
0.0
  0
LINE
  5
3CD
330
1F
100
AcDbEntity
  8
0
  6
DASHED
 62
     4
 48
6.0
100
AcDbLine
 10
532.6104953065619
 20
661.0884319177539
 30
0.0
 11
531.1104953065465
 21
661.088431917746
 31
0.0
  0
LINE
  5
3CE
330
1F
100
AcDbEntity
  8
0
  6
DASHED
 62
     4
 48
6.0
100
AcDbLine
 10
532.610495306553
 20
662.5884320527547
 30
0.0
 11
532.6104953065619
 21
661.0884319177539
 31
0.0
  0
LINE
  5
3CF
330
1F
100
AcDbEntity
  8
0
  6
DASHED
 62
     4
 48
6.0
100
AcDbLine
 10
533.6104953065408
 20
662.5884320527581
 30
0.0
 11
532.610495306553
 21
662.5884320527547
 31
0.0
  0
LINE
  5
3D0
330
1F
100
AcDbEntity
  8
0
  6
DASHED
 62
     4
 48
6.0
100
AcDbLine
 10
533.6104953065613
 20
661.0884319177579
 30
0.0
 11
533.6104953065408
 21
662.5884320527581
 31
0.0
  0
LINE
  5
3D1
330
1F
100
AcDbEntity
  8
0
  6
DASHED
 62
     4
 48
6.0
100
AcDbLine
 10
535.1104953065584
 20
661.0884319177666
 30
0.0
 11
533.6104953065613
 21
661.0884319177579
 31
0.0
  0
LINE
  5
3D2
330
1F
100
AcDbEntity
  8
0
  6
DASHED
 62
     4
 48
6.0
100
AcDbLine
 10
535.1104953065648
 20
660.0884318277671
 30
0.0
 11
535.1104953065584
 21
661.0884319177666
 31
0.0
  0
LINE
  5
3D3
330
1F
100
AcDbEntity
  8
0
  6
DASHED
 62
     4
 48
6.0
100
AcDbLine
 10
536.4204953065135
 20
669.088432637773
 30
0.0
 11
536.4204953065198
 21
667.5884325027725
 31
0.0
  0
LINE
  5
3D4
330
1F
100
AcDbEntity
  8
0
  6
DASHED
 62
     4
 48
6.0
100
AcDbLine
 10
534.9204953065139
 20
669.088432637767
 30
0.0
 11
536.4204953065135
 21
669.088432637773
 31
0.0
  0
LINE
  5
3D5
330
1F
100
AcDbEntity
  8
0
  6
DASHED
 62
     4
 48
6.0
100
AcDbLine
 10
534.9204953064959
 20
670.0884327277673
 30
0.0
 11
534.9204953065139
 21
669.088432637767
 31
0.0
  0
LINE
  5
3D6
330
1F
100
AcDbEntity
  8
0
  6
DASHED
 62
     4
 48
6.0
100
AcDbLine
 10
536.4204953065078
 20
670.0884327277731
 30
0.0
 11
534.9204953064959
 21
670.0884327277673
 31
0.0
  0
LINE
  5
3D7
330
1F
100
AcDbEntity
  8
0
  6
DASHED
 62
     4
 48
6.0
100
AcDbLine
 10
536.4204953064988
 20
671.5884328627725
 30
0.0
 11
536.4204953065078
 21
670.0884327277731
 31
0.0
  0
LINE
  5
3D8
330
1F
100
AcDbEntity
  8
0
  6
DASHED
 62
     4
 48
6.0
100
AcDbLine
 10
506.440495306394
 20
674.5884331326199
 30
0.0
 11
506.4404953063875
 21
655.5884314231029
 31
0.0
  0
LINE
  5
3D9
330
1F
100
AcDbEntity
  8
0
  6
Continuous
 62
     7
100
AcDbLine
 10
490.7854943827266
 20
671.6683732176847
 30
0.0
 11
490.7854943827266
 21
645.9044377480065
 31
0.0
  0
LINE
  5
3DA
330
1F
100
AcDbEntity
  8
0
  6
Continuous
 62
     7
100
AcDbLine
 10
490.7854943827266
 20
641.432311626449
 30
0.0
 11
490.7854943827266
 21
634.1324716294369
 31
0.0
  0
LINE
  5
3DB
330
1F
100
AcDbEntity
  8
0
  6
Continuous
 62
     7
100
AcDbLine
 10
494.7854943827264
 20
671.6683733925306
 30
0.0
 11
494.7854943827264
 21
645.9044479839145
 31
0.0
  0
LINE
  5
3DC
330
1F
100
AcDbEntity
  8
0
  6
Continuous
 62
     7
100
AcDbLine
 10
494.7854943827264
 20
641.4323013905413
 30
0.0
 11
494.7854943827264
 21
634.1324716294369
 31
0.0
  0
CIRCLE
  5
3DD
330
1F
100
AcDbEntity
  8
0
  6
DASHED
 62
     4
100
AcDbCircle
 10
590.2604951826893
 20
669.5884325593
 30
0.0
 40
2.750000123750476
  0
CIRCLE
  5
3DE
330
1F
100
AcDbEntity
  8
0
  6
DASHED
 62
     4
100
AcDbCircle
 10
582.640495182784
 20
669.5884325592615
 30
0.0
 40
2.750000123751839
  0
CIRCLE
  5
3DF
330
1F
100
AcDbEntity
  8
0
  6
DASHED
 62
     4
100
AcDbCircle
 10
575.0204951827856
 20
669.5884325592222
 30
0.0
 40
2.750000123750476
  0
CIRCLE
  5
3E0
330
1F
100
AcDbEntity
  8
0
  6
DASHED
 62
     4
100
AcDbCircle
 10
567.4004951827422
 20
669.5884325591806
 30
0.0
 40
2.750000123748769
  0
CIRCLE
  5
3E1
330
1F
100
AcDbEntity
  8
0
  6
DASHED
 62
     4
100
AcDbCircle
 10
559.7804951826909
 20
669.5884325591421
 30
0.0
 40
2.750000123749111
  0
CIRCLE
  5
3E2
330
1F
100
AcDbEntity
  8
0
  6
DASHED
 62
     4
100
AcDbCircle
 10
552.1604951827429
 20
669.5884325591028
 30
0.0
 40
2.750000123748769
  0
CIRCLE
  5
3E3
330
1F
100
AcDbEntity
  8
0
  6
DASHED
 62
     4
100
AcDbCircle
 10
544.540495182692
 20
669.588432559064
 30
0.0
 40
2.750000123748769
  0
CIRCLE
  5
3E4
330
1F
100
AcDbEntity
  8
0
  6
DASHED
 62
     4
100
AcDbCircle
 10
586.4504951827354
 20
660.5884317492812
 30
0.0
 40
2.750000123750476
  0
CIRCLE
  5
3E5
330
1F
100
AcDbEntity
  8
0
  6
DASHED
 62
     4
100
AcDbCircle
 10
578.8304951828301
 20
660.5884317492431
 30
0.0
 40
2.750000123751839
  0
CIRCLE
  5
3E6
330
1F
100
AcDbEntity
  8
0
  6
DASHED
 62
     4
100
AcDbCircle
 10
571.2104951828319
 20
660.5884317492035
 30
0.0
 40
2.750000123750476
  0
CIRCLE
  5
3E7
330
1F
100
AcDbEntity
  8
0
  6
DASHED
 62
     4
100
AcDbCircle
 10
563.5904951827891
 20
660.5884317491621
 30
0.0
 40
2.750000123748769
  0
CIRCLE
  5
3E8
330
1F
100
AcDbEntity
  8
0
  6
DASHED
 62
     4
100
AcDbCircle
 10
555.9704951827375
 20
660.5884317491231
 30
0.0
 40
2.750000123749111
  0
CIRCLE
  5
3E9
330
1F
100
AcDbEntity
  8
0
  6
DASHED
 62
     4
100
AcDbCircle
 10
548.3504951827891
 20
660.5884317490838
 30
0.0
 40
2.750000123748769
  0
CIRCLE
  5
3EA
330
1F
100
AcDbEntity
  8
0
  6
DASHED
 62
     4
100
AcDbCircle
 10
540.7304951827382
 20
660.5884317490456
 30
0.0
 40
2.750000123748769
  0
CIRCLE
  5
3EB
330
1F
100
AcDbEntity
  8
0
  6
Continuous
 62
     7
370
     0
100
AcDbCircle
 10
608.7854999697695
 20
643.6683748222283
 30
0.0
 40
3.000000135000437
  0
LINE
  5
3EC
330
1F
100
AcDbEntity
  8
0
  6
Continuous
 62
     7
 48
6.0
100
AcDbLine
 10
610.7855020203369
 20
643.1683753391592
 30
0.0
 11
610.7855020203369
 21
643.1683753391592
 31
0.0
  0
LINE
  5
3ED
330
1F
100
AcDbEntity
  8
0
  6
Continuous
 62
     7
 48
6.0
100
AcDbLine
 10
609.2855020203256
 20
643.1683753391535
 30
0.0
 11
610.7855020203369
 21
643.1683753391592
 31
0.0
  0
LINE
  5
3EE
330
1F
100
AcDbEntity
  8
0
  6
Continuous
 62
     7
 48
6.0
100
AcDbLine
 10
609.2855020203341
 20
641.6683752041532
 30
0.0
 11
609.2855020203256
 21
643.1683753391535
 31
0.0
  0
LINE
  5
3EF
330
1F
100
AcDbEntity
  8
0
  6
Continuous
 62
     7
 48
6.0
100
AcDbLine
 10
608.2855020203457
 20
641.6683752041467
 30
0.0
 11
609.2855020203341
 21
641.6683752041532
 31
0.0
  0
LINE
  5
3F0
330
1F
100
AcDbEntity
  8
0
  6
Continuous
 62
     7
 48
6.0
100
AcDbLine
 10
608.2855020203372
 20
643.1683753391474
 30
0.0
 11
608.2855020203457
 21
641.6683752041467
 31
0.0
  0
LINE
  5
3F1
330
1F
100
AcDbEntity
  8
0
  6
Continuous
 62
     7
 48
6.0
100
AcDbLine
 10
606.7855020203377
 20
643.168375339141
 30
0.0
 11
608.2855020203372
 21
643.1683753391474
 31
0.0
  0
LINE
  5
3F2
330
1F
100
AcDbEntity
  8
0
  6
Continuous
 62
     7
 48
6.0
100
AcDbLine
 10
606.7855020203217
 20
644.1683754291408
 30
0.0
 11
606.7855020203377
 21
643.168375339141
 31
0.0
  0
LINE
  5
3F3
330
1F
100
AcDbEntity
  8
0
  6
Continuous
 62
     7
 48
6.0
100
AcDbLine
 10
608.2855020203346
 20
644.1683754291468
 30
0.0
 11
606.7855020203217
 21
644.1683754291408
 31
0.0
  0
LINE
  5
3F4
330
1F
100
AcDbEntity
  8
0
  6
Continuous
 62
     7
 48
6.0
100
AcDbLine
 10
608.2855020203253
 20
645.6683755641468
 30
0.0
 11
608.2855020203346
 21
644.1683754291468
 31
0.0
  0
LINE
  5
3F5
330
1F
100
AcDbEntity
  8
0
  6
Continuous
 62
     7
 48
6.0
100
AcDbLine
 10
609.2855020203136
 20
645.6683755641534
 30
0.0
 11
608.2855020203253
 21
645.6683755641468
 31
0.0
  0
LINE
  5
3F6
330
1F
100
AcDbEntity
  8
0
  6
Continuous
 62
     7
 48
6.0
100
AcDbLine
 10
609.2855020203341
 20
644.1683754291532
 30
0.0
 11
609.2855020203136
 21
645.6683755641534
 31
0.0
  0
LINE
  5
3F7
330
1F
100
AcDbEntity
  8
0
  6
Continuous
 62
     7
 48
6.0
100
AcDbLine
 10
610.7855020203346
 20
644.1683754291589
 30
0.0
 11
609.2855020203341
 21
644.1683754291532
 31
0.0
  0
LINE
  5
3F8
330
1F
100
AcDbEntity
  8
0
  6
Continuous
 62
     7
 48
6.0
100
AcDbLine
 10
610.7855020203369
 20
643.1683753391592
 30
0.0
 11
610.7855020203346
 21
644.1683754291589
 31
0.0
  0
ARC
  5
3F9
330
1F
100
AcDbEntity
  8
0
  6
Continuous
 62
     7
100
AcDbCircle
 10
550.5854943827266
 20
687.6683748325299
 30
0.0
 40
9.000000607499098
100
AcDbArc
 50
119.9999977671226
 51
60.00000223288103
  0
LINE
  5
3FA
330
1F
100
AcDbEntity
  8
0
  6
Continuous
 62
     7
100
AcDbLine
 10
555.0854943827264
 20
679.8741454969888
 30
0.0
 11
555.0854943827264
 21
679.8741454969888
 31
0.0
  0
LINE
  5
3FB
330
1F
100
AcDbEntity
  8
0
  6
Continuous
 62
     7
100
AcDbLine
 10
546.0854943827265
 20
679.8741454969888
 30
0.0
 11
546.0854943827265
 21
679.8741454969888
 31
0.0
  0
LINE
  5
3FC
330
1F
100
AcDbEntity
  8
0
  6
Continuous
 62
     7
100
AcDbLine
 10
555.0854943827264
 20
695.4626041680694
 30
0.0
 11
555.0854943827264
 21
696.6683756425312
 31
0.0
  0
LINE
  5
3FD
330
1F
100
AcDbEntity
  8
0
  6
Continuous
 62
     7
100
AcDbLine
 10
546.0854943827265
 20
695.4626041680694
 30
0.0
 11
546.0854943827265
 21
696.6683756425312
 31
0.0
  0
ARC
  5
3FE
330
1F
100
AcDbEntity
  8
0
  6
Continuous
 62
     7
100
AcDbCircle
 10
608.7854943827229
 20
671.6683733925306
 30
0.0
 40
1.999999999999996
100
AcDbArc
 50
0.0
 51
180.0
  0
LINE
  5
3FF
330
1F
100
AcDbEntity
  8
0
  6
DASHED
 62
     4
 48
6.0
100
AcDbLine
 10
591.9645153307174
 20
658.1361299552209
 30
0.0
 11
594.7304953064625
 21
658.1361299552354
 31
0.0
  0
LINE
  5
400
330
1F
100
AcDbEntity
  8
0
  6
DASHED
 62
     4
 48
6.0
100
AcDbLine
 10
591.9645153306846
 20
664.2973200519279
 30
0.0
 11
591.9645153306269
 21
658.1361299552209
 31
0.0
  0
LINE
  5
401
330
1F
100
AcDbEntity
  8
0
  6
DASHED
 62
     4
 48
6.0
100
AcDbLine
 10
594.7304953064328
 20
664.2973200519406
 30
0.0
 11
591.9645153306846
 21
664.2973200519279
 31
0.0
  0
LINE
  5
402
330
1F
100
AcDbEntity
  8
0
  6
DASHED
 62
     4
 48
6.0
100
AcDbLine
 10
590.9204953065944
 20
656.908431541855
 30
0.0
 11
590.9204953065377
 21
665.5884323230545
 31
0.0
  0
LINE
  5
403
330
1F
100
AcDbEntity
  8
0
  6
DASHED
 62
     4
 48
6.0
100
AcDbLine
 10
594.7304953065948
 20
656.9084315418729
 30
0.0
 11
590.9204953065944
 21
656.908431541855
 31
0.0
  0
LINE
  5
404
330
1F
100
AcDbEntity
  8
0
  6
DASHED
 62
     4
 48
6.0
100
AcDbLine
 10
589.6004953065133
 20
665.5884323230461
 30
0.0
 11
589.6004953066064
 21
655.5884314231507
 31
0.0
  0
LINE
  5
405
330
1F
100
AcDbEntity
  8
0
  6
DASHED
 62
     4
 48
6.0
100
AcDbLine
 10
583.3004953066031
 20
655.5884314225929
 30
0.0
 11
583.300495306538
 21
665.5884323230151
 31
0.0
  0
LINE
  5
406
330
1F
100
AcDbEntity
  8
0
  6
DASHED
 62
     4
 48
6.0
100
AcDbLine
 10
581.9804953065374
 20
665.5884323230069
 30
0.0
 11
581.9804953066039
 21
655.5884314225929
 31
0.0
  0
LINE
  5
407
330
1F
100
AcDbEntity
  8
0
  6
DASHED
 62
     4
 48
6.0
100
AcDbLine
 10
575.6804953065648
 20
655.588431422596
 30
0.0
 11
575.6804953065136
 21
665.5884323229768
 31
0.0
  0
LINE
  5
408
330
1F
100
AcDbEntity
  8
0
  6
DASHED
 62
     4
 48
6.0
100
AcDbLine
 10
574.3604953065138
 20
665.5884323229675
 30
0.0
 11
574.3604953066069
 21
655.5884314231534
 31
0.0
  0
LINE
  5
409
330
1F
100
AcDbEntity
  8
0
  6
DASHED
 62
     4
 48
6.0
100
AcDbLine
 10
568.0604953066063
 20
655.5884314231568
 30
0.0
 11
568.0604953065138
 21
665.5884323229344
 31
0.0
  0
LINE
  5
40A
330
1F
100
AcDbEntity
  8
0
  6
DASHED
 62
     4
 48
6.0
100
AcDbLine
 10
566.740495306513
 20
665.5884323229291
 30
0.0
 11
566.7404953066061
 21
655.5884314231568
 31
0.0
  0
LINE
  5
40B
330
1F
100
AcDbEntity
  8
0
  6
DASHED
 62
     4
 48
6.0
100
AcDbLine
 10
560.4404953066035
 20
655.5884314226013
 30
0.0
 11
560.4404953065372
 21
665.5884323228958
 31
0.0
  0
LINE
  5
40C
330
1F
100
AcDbEntity
  8
0
  6
DASHED
 62
     4
 48
6.0
100
AcDbLine
 10
559.1204953065132
 20
665.5884323228896
 30
0.0
 11
559.1204953065644
 21
655.58843142316
 31
0.0
  0
LINE
  5
40D
330
1F
100
AcDbEntity
  8
0
  6
DASHED
 62
     4
 48
6.0
100
AcDbLine
 10
552.8204953065649
 20
655.5884314231628
 30
0.0
 11
552.8204953065134
 21
665.5884323228572
 31
0.0
  0
LINE
  5
40E
330
1F
100
AcDbEntity
  8
0
  6
DASHED
 62
     4
 48
6.0
100
AcDbLine
 10
551.500495306514
 20
665.5884323228506
 30
0.0
 11
551.5004953065645
 21
655.5884314231628
 31
0.0
  0
LINE
  5
40F
330
1F
100
AcDbEntity
  8
0
  6
DASHED
 62
     4
 48
6.0
100
AcDbLine
 10
545.2004953065586
 20
655.5884314231654
 30
0.0
 11
545.200495306538
 21
665.5884323228181
 31
0.0
  0
LINE
  5
410
330
1F
100
AcDbEntity
  8
0
  6
DASHED
 62
     4
 48
6.0
100
AcDbLine
 10
543.8804953065139
 20
665.588432322812
 30
0.0
 11
543.8804953065647
 21
655.5884314231654
 31
0.0
  0
LINE
  5
411
330
1F
100
AcDbEntity
  8
0
  6
DASHED
 62
     4
 48
6.0
100
AcDbLine
 10
537.5804953065141
 20
665.5884323227789
 30
0.0
 11
537.5804953065649
 21
655.5884314231684
 31
0.0
  0
LINE
  5
412
330
1F
100
AcDbEntity
  8
0
  6
DASHED
 62
     4
 48
6.0
100
AcDbLine
 10
540.0704953064417
 20
674.5884331327911
 30
0.0
 11
540.0704953064985
 21
665.588432322791
 31
0.0
  0
LINE
  5
413
330
1F
100
AcDbEntity
  8
0
  6
DASHED
 62
     4
 48
6.0
100
AcDbLine
 10
541.3904953064627
 20
665.5884323228001
 30
0.0
 11
541.3904953064149
 21
674.5884331327999
 31
0.0
  0
LINE
  5
414
330
1F
100
AcDbEntity
  8
0
  6
DASHED
 62
     4
 48
6.0
100
AcDbLine
 10
547.6904953064149
 20
674.58843313283
 30
0.0
 11
547.6904953064628
 21
665.5884323228329
 31
0.0
  0
LINE
  5
415
330
1F
100
AcDbEntity
  8
0
  6
DASHED
 62
     4
 48
6.0
100
AcDbLine
 10
549.010495306499
 20
665.588432322839
 30
0.0
 11
549.0104953064149
 21
674.5884331328393
 31
0.0
  0
LINE
  5
416
330
1F
100
AcDbEntity
  8
0
  6
DASHED
 62
     4
 48
6.0
100
AcDbLine
 10
555.3104953064414
 20
674.5884331328721
 30
0.0
 11
555.3104953064988
 21
665.5884323228718
 31
0.0
  0
LINE
  5
417
330
1F
100
AcDbEntity
  8
0
  6
DASHED
 62
     4
 48
6.0
100
AcDbLine
 10
556.630495306462
 20
665.5884323228772
 30
0.0
 11
556.6304953064412
 21
674.5884331328782
 31
0.0
  0
LINE
  5
418
330
1F
100
AcDbEntity
  8
0
  6
DASHED
 62
     4
 48
6.0
100
AcDbLine
 10
562.9304953064405
 20
674.5884331329111
 30
0.0
 11
562.9304953064989
 21
665.5884323229106
 31
0.0
  0
LINE
  5
419
330
1F
100
AcDbEntity
  8
0
  6
DASHED
 62
     4
 48
6.0
100
AcDbLine
 10
564.2504953064622
 20
665.5884323229165
 30
0.0
 11
564.2504953064141
 21
674.5884331329171
 31
0.0
  0
LINE
  5
41A
330
1F
100
AcDbEntity
  8
0
  6
DASHED
 62
     4
 48
6.0
100
AcDbLine
 10
570.5504953064417
 20
674.5884331329502
 30
0.0
 11
570.5504953064621
 21
665.5884323229502
 31
0.0
  0
LINE
  5
41B
330
1F
100
AcDbEntity
  8
0
  6
DASHED
 62
     4
 48
6.0
100
AcDbLine
 10
571.8704953064981
 20
665.5884323229557
 30
0.0
 11
571.8704953064534
 21
674.0026466426083
 31
0.0
  0
LINE
  5
41C
330
1F
100
AcDbEntity
  8
0
  6
DASHED
 62
     4
 48
6.0
100
AcDbLine
 10
578.170495306414
 20
674.5884331329891
 30
0.0
 11
578.1704953064628
 21
665.5884323229891
 31
0.0
  0
LINE
  5
41D
330
1F
100
AcDbEntity
  8
0
  6
DASHED
 62
     4
 48
6.0
100
AcDbLine
 10
579.4904953064627
 20
665.5884323229943
 30
0.0
 11
579.490495306442
 21
674.5884331329951
 31
0.0
  0
LINE
  5
41E
330
1F
100
AcDbEntity
  8
0
  6
DASHED
 62
     4
 48
6.0
100
AcDbLine
 10
585.7904953064148
 20
674.5884331330276
 30
0.0
 11
585.7904953064625
 21
665.5884323230274
 31
0.0
  0
LINE
  5
41F
330
1F
100
AcDbEntity
  8
0
  6
DASHED
 62
     4
 48
6.0
100
AcDbLine
 10
587.1104953064989
 20
665.5884323230338
 30
0.0
 11
587.1104953064413
 21
674.5884331330339
 31
0.0
  0
LINE
  5
420
330
1F
100
AcDbEntity
  8
0
  6
DASHED
 62
     4
 48
6.0
100
AcDbLine
 10
593.4104953064142
 20
674.5884331330669
 30
0.0
 11
593.4104953064624
 21
665.5884323230671
 31
0.0
  0
LINE
  5
421
330
1F
100
AcDbEntity
  8
0
  6
DASHED
 62
     4
 48
6.0
100
AcDbLine
 10
538.9204953065134
 20
669.0884326377849
 30
0.0
 11
538.9204953065134
 21
669.0884326377849
 31
0.0
  0
LINE
  5
422
330
1F
100
AcDbEntity
  8
0
  6
DASHED
 62
     4
 48
6.0
100
AcDbLine
 10
537.420495306502
 20
669.0884326377786
 30
0.0
 11
538.9204953065134
 21
669.0884326377849
 31
0.0
  0
LINE
  5
423
330
1F
100
AcDbEntity
  8
0
  6
DASHED
 62
     4
 48
6.0
100
AcDbLine
 10
537.420495306508
 20
667.588432502779
 30
0.0
 11
537.420495306502
 21
669.0884326377786
 31
0.0
  0
LINE
  5
424
330
1F
100
AcDbEntity
  8
0
  6
DASHED
 62
     4
 48
6.0
100
AcDbLine
 10
537.420495306508
 20
670.0884327277785
 30
0.0
 11
537.4204953064864
 21
671.5884328627787
 31
0.0
  0
LINE
  5
425
330
1F
100
AcDbEntity
  8
0
  6
DASHED
 62
     4
 48
6.0
100
AcDbLine
 10
538.9204953065076
 20
670.0884327277878
 30
0.0
 11
537.420495306508
 21
670.0884327277785
 31
0.0
  0
LINE
  5
426
330
1F
100
AcDbEntity
  8
0
  6
DASHED
 62
     4
 48
6.0
100
AcDbLine
 10
538.9204953065134
 20
669.0884326377849
 30
0.0
 11
538.9204953065076
 21
670.0884327277878
 31
0.0
  0
LINE
  5
427
330
1F
100
AcDbEntity
  8
0
  6
DASHED
 62
     4
 48
6.0
100
AcDbLine
 10
542.7304953065139
 20
660.0884318278055
 30
0.0
 11
542.7304953065139
 21
660.0884318278055
 31
0.0
  0
LINE
  5
428
330
1F
100
AcDbEntity
  8
0
  6
DASHED
 62
     4
 48
6.0
100
AcDbLine
 10
541.230495306502
 20
660.0884318277969
 30
0.0
 11
542.7304953065139
 21
660.0884318278055
 31
0.0
  0
LINE
  5
429
330
1F
100
AcDbEntity
  8
0
  6
DASHED
 62
     4
 48
6.0
100
AcDbLine
 10
541.230495306511
 20
658.5884316927962
 30
0.0
 11
541.230495306502
 21
660.0884318277969
 31
0.0
  0
LINE
  5
42A
330
1F
100
AcDbEntity
  8
0
  6
DASHED
 62
     4
 48
6.0
100
AcDbLine
 10
540.2304953065224
 20
658.5884316927941
 30
0.0
 11
541.230495306511
 21
658.5884316927962
 31
0.0
  0
LINE
  5
42B
330
1F
100
AcDbEntity
  8
0
  6
DASHED
 62
     4
 48
6.0
100
AcDbLine
 10
540.2304953065169
 20
660.0884318277932
 30
0.0
 11
540.2304953065224
 21
658.5884316927941
 31
0.0
  0
LINE
  5
42C
330
1F
100
AcDbEntity
  8
0
  6
DASHED
 62
     4
 48
6.0
100
AcDbLine
 10
538.730495306514
 20
660.0884318277849
 30
0.0
 11
540.2304953065169
 21
660.0884318277932
 31
0.0
  0
LINE
  5
42D
330
1F
100
AcDbEntity
  8
0
  6
DASHED
 62
     4
 48
6.0
100
AcDbLine
 10
538.7304953064984
 20
661.0884319177849
 30
0.0
 11
538.730495306514
 21
660.0884318277849
 31
0.0
  0
LINE
  5
42E
330
1F
100
AcDbEntity
  8
0
  6
DASHED
 62
     4
 48
6.0
100
AcDbLine
 10
540.2304953065105
 20
661.088431917793
 30
0.0
 11
538.7304953064984
 21
661.0884319177849
 31
0.0
  0
LINE
  5
42F
330
1F
100
AcDbEntity
  8
0
  6
DASHED
 62
     4
 48
6.0
100
AcDbLine
 10
540.2304953065017
 20
662.5884320527941
 30
0.0
 11
540.2304953065105
 21
661.088431917793
 31
0.0
  0
LINE
  5
430
330
1F
100
AcDbEntity
  8
0
  6
DASHED
 62
     4
 48
6.0
100
AcDbLine
 10
541.2304953064899
 20
662.5884320527969
 30
0.0
 11
540.2304953065017
 21
662.5884320527941
 31
0.0
  0
LINE
  5
431
330
1F
100
AcDbEntity
  8
0
  6
DASHED
 62
     4
 48
6.0
100
AcDbLine
 10
541.230495306511
 20
661.0884319177969
 30
0.0
 11
541.2304953064899
 21
662.5884320527969
 31
0.0
  0
LINE
  5
432
330
1F
100
AcDbEntity
  8
0
  6
DASHED
 62
     4
 48
6.0
100
AcDbLine
 10
542.7304953065109
 20
661.0884319178055
 30
0.0
 11
541.230495306511
 21
661.0884319177969
 31
0.0
  0
LINE
  5
433
330
1F
100
AcDbEntity
  8
0
  6
DASHED
 62
     4
 48
6.0
100
AcDbLine
 10
542.7304953065139
 20
660.0884318278055
 30
0.0
 11
542.7304953065109
 21
661.0884319178055
 31
0.0
  0
LINE
  5
434
330
1F
100
AcDbEntity
  8
0
  6
DASHED
 62
     4
 48
6.0
100
AcDbLine
 10
546.5404953064689
 20
669.088432637827
 30
0.0
 11
546.5404953064689
 21
669.088432637827
 31
0.0
  0
LINE
  5
435
330
1F
100
AcDbEntity
  8
0
  6
DASHED
 62
     4
 48
6.0
100
AcDbLine
 10
545.0404953064565
 20
669.088432637818
 30
0.0
 11
546.5404953064689
 21
669.088432637827
 31
0.0
  0
LINE
  5
436
330
1F
100
AcDbEntity
  8
0
  6
DASHED
 62
     4
 48
6.0
100
AcDbLine
 10
545.0404953064654
 20
667.5884325028178
 30
0.0
 11
545.0404953064565
 21
669.088432637818
 31
0.0
  0
LINE
  5
437
330
1F
100
AcDbEntity
  8
0
  6
DASHED
 62
     4
 48
6.0
100
AcDbLine
 10
544.040495306478
 20
667.5884325028121
 30
0.0
 11
545.0404953064654
 21
667.5884325028178
 31
0.0
  0
LINE
  5
438
330
1F
100
AcDbEntity
  8
0
  6
DASHED
 62
     4
 48
6.0
100
AcDbLine
 10
544.0404953064686
 20
669.0884326378119
 30
0.0
 11
544.040495306478
 21
667.5884325028121
 31
0.0
  0
LINE
  5
439
330
1F
100
AcDbEntity
  8
0
  6
DASHED
 62
     4
 48
6.0
100
AcDbLine
 10
542.5404953064691
 20
669.0884326378054
 30
0.0
 11
544.0404953064686
 21
669.0884326378119
 31
0.0
  0
LINE
  5
43A
330
1F
100
AcDbEntity
  8
0
  6
DASHED
 62
     4
 48
6.0
100
AcDbLine
 10
542.5404953064504
 20
670.088432727806
 30
0.0
 11
542.5404953064691
 21
669.0884326378054
 31
0.0
  0
LINE
  5
43B
330
1F
100
AcDbEntity
  8
0
  6
DASHED
 62
     4
 48
6.0
100
AcDbLine
 10
544.0404953064659
 20
670.0884327278122
 30
0.0
 11
542.5404953064504
 21
670.088432727806
 31
0.0
  0
LINE
  5
43C
330
1F
100
AcDbEntity
  8
0
  6
DASHED
 62
     4
 48
6.0
100
AcDbLine
 10
544.0404953064566
 20
671.5884328628114
 30
0.0
 11
544.0404953064659
 21
670.0884327278122
 31
0.0
  0
LINE
  5
43D
330
1F
100
AcDbEntity
  8
0
  6
DASHED
 62
     4
 48
6.0
100
AcDbLine
 10
545.040495306445
 20
671.588432862818
 30
0.0
 11
544.0404953064566
 21
671.5884328628114
 31
0.0
  0
LINE
  5
43E
330
1F
100
AcDbEntity
  8
0
  6
DASHED
 62
     4
 48
6.0
100
AcDbLine
 10
545.0404953064627
 20
670.0884327278181
 30
0.0
 11
545.040495306445
 21
671.588432862818
 31
0.0
  0
LINE
  5
43F
330
1F
100
AcDbEntity
  8
0
  6
DASHED
 62
     4
 48
6.0
100
AcDbLine
 10
546.5404953064626
 20
670.0884327278263
 30
0.0
 11
545.0404953064627
 21
670.0884327278181
 31
0.0
  0
LINE
  5
440
330
1F
100
AcDbEntity
  8
0
  6
DASHED
 62
     4
 48
6.0
100
AcDbLine
 10
546.5404953064689
 20
669.088432637827
 30
0.0
 11
546.5404953064626
 21
670.0884327278263
 31
0.0
  0
LINE
  5
441
330
1F
100
AcDbEntity
  8
0
  6
DASHED
 62
     4
 48
6.0
100
AcDbLine
 10
550.3504953065649
 20
660.088431827845
 30
0.0
 11
550.3504953065649
 21
660.088431827845
 31
0.0
  0
LINE
  5
442
330
1F
100
AcDbEntity
  8
0
  6
DASHED
 62
     4
 48
6.0
100
AcDbLine
 10
548.8504953065527
 20
660.0884318278383
 30
0.0
 11
550.3504953065649
 21
660.088431827845
 31
0.0
  0
LINE
  5
443
330
1F
100
AcDbEntity
  8
0
  6
DASHED
 62
     4
 48
6.0
100
AcDbLine
 10
548.850495306562
 20
658.5884316928357
 30
0.0
 11
548.8504953065527
 21
660.0884318278383
 31
0.0
  0
LINE
  5
444
330
1F
100
AcDbEntity
  8
0
  6
DASHED
 62
     4
 48
6.0
100
AcDbLine
 10
547.8504953065738
 20
658.5884316928329
 30
0.0
 11
548.850495306562
 21
658.5884316928357
 31
0.0
  0
LINE
  5
445
330
1F
100
AcDbEntity
  8
0
  6
DASHED
 62
     4
 48
6.0
100
AcDbLine
 10
547.850495306565
 20
660.0884318278324
 30
0.0
 11
547.8504953065738
 21
658.5884316928329
 31
0.0
  0
LINE
  5
446
330
1F
100
AcDbEntity
  8
0
  6
DASHED
 62
     4
 48
6.0
100
AcDbLine
 10
546.3504953065649
 20
660.0884318278239
 30
0.0
 11
547.850495306565
 21
660.0884318278324
 31
0.0
  0
LINE
  5
447
330
1F
100
AcDbEntity
  8
0
  6
DASHED
 62
     4
 48
6.0
100
AcDbLine
 10
546.3504953065466
 20
661.0884319178232
 30
0.0
 11
546.3504953065649
 21
660.0884318278239
 31
0.0
  0
LINE
  5
448
330
1F
100
AcDbEntity
  8
0
  6
DASHED
 62
     4
 48
6.0
100
AcDbLine
 10
547.8504953065615
 20
661.0884319178324
 30
0.0
 11
546.3504953065466
 21
661.0884319178232
 31
0.0
  0
LINE
  5
449
330
1F
100
AcDbEntity
  8
0
  6
DASHED
 62
     4
 48
6.0
100
AcDbLine
 10
547.8504953065529
 20
662.5884320528324
 30
0.0
 11
547.8504953065615
 21
661.0884319178324
 31
0.0
  0
LINE
  5
44A
330
1F
100
AcDbEntity
  8
0
  6
DASHED
 62
     4
 48
6.0
100
AcDbLine
 10
548.8504953065405
 20
662.5884320528389
 30
0.0
 11
547.8504953065529
 21
662.5884320528324
 31
0.0
  0
LINE
  5
44B
330
1F
100
AcDbEntity
  8
0
  6
DASHED
 62
     4
 48
6.0
100
AcDbLine
 10
548.850495306562
 20
661.088431917839
 30
0.0
 11
548.8504953065405
 21
662.5884320528389
 31
0.0
  0
LINE
  5
44C
330
1F
100
AcDbEntity
  8
0
  6
DASHED
 62
     4
 48
6.0
100
AcDbLine
 10
550.3504953065588
 20
661.0884319178444
 30
0.0
 11
548.850495306562
 21
661.088431917839
 31
0.0
  0
LINE
  5
44D
330
1F
100
AcDbEntity
  8
0
  6
DASHED
 62
     4
 48
6.0
100
AcDbLine
 10
550.3504953065649
 20
660.088431827845
 30
0.0
 11
550.3504953065588
 21
661.0884319178444
 31
0.0
  0
LINE
  5
44E
330
1F
100
AcDbEntity
  8
0
  6
DASHED
 62
     4
 48
6.0
100
AcDbLine
 10
554.1604953065138
 20
669.0884326378661
 30
0.0
 11
554.1604953065138
 21
669.0884326378661
 31
0.0
  0
LINE
  5
44F
330
1F
100
AcDbEntity
  8
0
  6
DASHED
 62
     4
 48
6.0
100
AcDbLine
 10
552.6604953065014
 20
669.088432637857
 30
0.0
 11
554.1604953065138
 21
669.0884326378661
 31
0.0
  0
LINE
  5
450
330
1F
100
AcDbEntity
  8
0
  6
DASHED
 62
     4
 48
6.0
100
AcDbLine
 10
552.6604953065079
 20
667.5884325028569
 30
0.0
 11
552.6604953065014
 21
669.088432637857
 31
0.0
  0
LINE
  5
451
330
1F
100
AcDbEntity
  8
0
  6
DASHED
 62
     4
 48
6.0
100
AcDbLine
 10
551.66049530652
 20
667.5884325028512
 30
0.0
 11
552.6604953065079
 21
667.5884325028569
 31
0.0
  0
LINE
  5
452
330
1F
100
AcDbEntity
  8
0
  6
DASHED
 62
     4
 48
6.0
100
AcDbLine
 10
551.6604953065138
 20
669.0884326378511
 30
0.0
 11
551.66049530652
 21
667.5884325028512
 31
0.0
  0
LINE
  5
453
330
1F
100
AcDbEntity
  8
0
  6
DASHED
 62
     4
 48
6.0
100
AcDbLine
 10
550.1604953065139
 20
669.0884326378452
 30
0.0
 11
551.6604953065138
 21
669.0884326378511
 31
0.0
  0
LINE
  5
454
330
1F
100
AcDbEntity
  8
0
  6
DASHED
 62
     4
 48
6.0
100
AcDbLine
 10
550.1604953064954
 20
670.088432727845
 30
0.0
 11
550.1604953065139
 21
669.0884326378452
 31
0.0
  0
LINE
  5
455
330
1F
100
AcDbEntity
  8
0
  6
DASHED
 62
     4
 48
6.0
100
AcDbLine
 10
551.6604953065075
 20
670.0884327278511
 30
0.0
 11
550.1604953064954
 21
670.088432727845
 31
0.0
  0
LINE
  5
456
330
1F
100
AcDbEntity
  8
0
  6
DASHED
 62
     4
 48
6.0
100
AcDbLine
 10
551.6604953064988
 20
671.5884328628507
 30
0.0
 11
551.6604953065075
 21
670.0884327278511
 31
0.0
  0
LINE
  5
457
330
1F
100
AcDbEntity
  8
0
  6
DASHED
 62
     4
 48
6.0
100
AcDbLine
 10
552.6604953064867
 20
671.5884328628567
 30
0.0
 11
551.6604953064988
 21
671.5884328628507
 31
0.0
  0
LINE
  5
458
330
1F
100
AcDbEntity
  8
0
  6
DASHED
 62
     4
 48
6.0
100
AcDbLine
 10
552.6604953065079
 20
670.088432727857
 30
0.0
 11
552.6604953064867
 21
671.5884328628567
 31
0.0
  0
LINE
  5
459
330
1F
100
AcDbEntity
  8
0
  6
DASHED
 62
     4
 48
6.0
100
AcDbLine
 10
554.1604953065079
 20
670.0884327278661
 30
0.0
 11
552.6604953065079
 21
670.088432727857
 31
0.0
  0
LINE
  5
45A
330
1F
100
AcDbEntity
  8
0
  6
DASHED
 62
     4
 48
6.0
100
AcDbLine
 10
554.1604953065138
 20
669.0884326378661
 30
0.0
 11
554.1604953065079
 21
670.0884327278661
 31
0.0
  0
LINE
  5
45B
330
1F
100
AcDbEntity
  8
0
  6
DASHED
 62
     4
 48
6.0
100
AcDbLine
 10
557.9704953065133
 20
660.0884318278835
 30
0.0
 11
557.9704953065133
 21
660.0884318278835
 31
0.0
  0
LINE
  5
45C
330
1F
100
AcDbEntity
  8
0
  6
DASHED
 62
     4
 48
6.0
100
AcDbLine
 10
556.470495306502
 20
660.0884318278771
 30
0.0
 11
557.9704953065133
 21
660.0884318278835
 31
0.0
  0
LINE
  5
45D
330
1F
100
AcDbEntity
  8
0
  6
DASHED
 62
     4
 48
6.0
100
AcDbLine
 10
556.4704953065109
 20
658.588431692878
 30
0.0
 11
556.470495306502
 21
660.0884318278771
 31
0.0
  0
LINE
  5
45E
330
1F
100
AcDbEntity
  8
0
  6
DASHED
 62
     4
 48
6.0
100
AcDbLine
 10
555.4704953065225
 20
658.5884316928718
 30
0.0
 11
556.4704953065109
 21
658.588431692878
 31
0.0
  0
LINE
  5
45F
330
1F
100
AcDbEntity
  8
0
  6
DASHED
 62
     4
 48
6.0
100
AcDbLine
 10
555.4704953065168
 20
660.0884318278716
 30
0.0
 11
555.4704953065225
 21
658.5884316928718
 31
0.0
  0
LINE
  5
460
330
1F
100
AcDbEntity
  8
0
  6
DASHED
 62
     4
 48
6.0
100
AcDbLine
 10
553.9704953065133
 20
660.0884318278624
 30
0.0
 11
555.4704953065168
 21
660.0884318278716
 31
0.0
  0
LINE
  5
461
330
1F
100
AcDbEntity
  8
0
  6
DASHED
 62
     4
 48
6.0
100
AcDbLine
 10
553.9704953064988
 20
661.0884319178626
 30
0.0
 11
553.9704953065133
 21
660.0884318278624
 31
0.0
  0
LINE
  5
462
330
1F
100
AcDbEntity
  8
0
  6
DASHED
 62
     4
 48
6.0
100
AcDbLine
 10
555.4704953065105
 20
661.088431917871
 30
0.0
 11
553.9704953064988
 21
661.0884319178626
 31
0.0
  0
LINE
  5
463
330
1F
100
AcDbEntity
  8
0
  6
DASHED
 62
     4
 48
6.0
100
AcDbLine
 10
555.470495306501
 20
662.5884320528719
 30
0.0
 11
555.4704953065105
 21
661.088431917871
 31
0.0
  0
LINE
  5
464
330
1F
100
AcDbEntity
  8
0
  6
DASHED
 62
     4
 48
6.0
100
AcDbLine
 10
556.4704953064898
 20
662.5884320528776
 30
0.0
 11
555.470495306501
 21
662.5884320528719
 31
0.0
  0
LINE
  5
465
330
1F
100
AcDbEntity
  8
0
  6
DASHED
 62
     4
 48
6.0
100
AcDbLine
 10
556.4704953065109
 20
661.0884319178779
 30
0.0
 11
556.4704953064898
 21
662.5884320528776
 31
0.0
  0
LINE
  5
466
330
1F
100
AcDbEntity
  8
0
  6
DASHED
 62
     4
 48
6.0
100
AcDbLine
 10
557.9704953065104
 20
661.088431917884
 30
0.0
 11
556.4704953065109
 21
661.0884319178779
 31
0.0
  0
LINE
  5
467
330
1F
100
AcDbEntity
  8
0
  6
DASHED
 62
     4
 48
6.0
100
AcDbLine
 10
557.9704953065133
 20
660.0884318278835
 30
0.0
 11
557.9704953065104
 21
661.088431917884
 31
0.0
  0
LINE
  5
468
330
1F
100
AcDbEntity
  8
0
  6
DASHED
 62
     4
 48
6.0
100
AcDbLine
 10
561.780495306468
 20
669.088432637905
 30
0.0
 11
561.780495306468
 21
669.088432637905
 31
0.0
  0
LINE
  5
469
330
1F
100
AcDbEntity
  8
0
  6
DASHED
 62
     4
 48
6.0
100
AcDbLine
 10
560.2804953064561
 20
669.0884326378961
 30
0.0
 11
561.780495306468
 21
669.088432637905
 31
0.0
  0
LINE
  5
46A
330
1F
100
AcDbEntity
  8
0
  6
DASHED
 62
     4
 48
6.0
100
AcDbLine
 10
560.2804953064655
 20
667.588432502896
 30
0.0
 11
560.2804953064561
 21
669.0884326378961
 31
0.0
  0
LINE
  5
46B
330
1F
100
AcDbEntity
  8
0
  6
DASHED
 62
     4
 48
6.0
100
AcDbLine
 10
559.2804953064778
 20
667.5884325028895
 30
0.0
 11
560.2804953064655
 21
667.588432502896
 31
0.0
  0
LINE
  5
46C
330
1F
100
AcDbEntity
  8
0
  6
DASHED
 62
     4
 48
6.0
100
AcDbLine
 10
559.2804953064684
 20
669.08843263789
 30
0.0
 11
559.2804953064778
 21
667.5884325028895
 31
0.0
  0
LINE
  5
46D
330
1F
100
AcDbEntity
  8
0
  6
DASHED
 62
     4
 48
6.0
100
AcDbLine
 10
557.7804953064684
 20
669.0884326378841
 30
0.0
 11
559.2804953064684
 21
669.08843263789
 31
0.0
  0
LINE
  5
46E
330
1F
100
AcDbEntity
  8
0
  6
DASHED
 62
     4
 48
6.0
100
AcDbLine
 10
557.7804953064506
 20
670.0884327278836
 30
0.0
 11
557.7804953064684
 21
669.0884326378841
 31
0.0
  0
LINE
  5
46F
330
1F
100
AcDbEntity
  8
0
  6
DASHED
 62
     4
 48
6.0
100
AcDbLine
 10
559.2804953064653
 20
670.08843272789
 30
0.0
 11
557.7804953064506
 21
670.0884327278836
 31
0.0
  0
LINE
  5
470
330
1F
100
AcDbEntity
  8
0
  6
DASHED
 62
     4
 48
6.0
100
AcDbLine
 10
559.2804953064565
 20
671.5884328628895
 30
0.0
 11
559.2804953064653
 21
670.08843272789
 31
0.0
  0
LINE
  5
471
330
1F
100
AcDbEntity
  8
0
  6
DASHED
 62
     4
 48
6.0
100
AcDbLine
 10
560.2804953064448
 20
671.5884328628963
 30
0.0
 11
559.2804953064565
 21
671.5884328628895
 31
0.0
  0
LINE
  5
472
330
1F
100
AcDbEntity
  8
0
  6
DASHED
 62
     4
 48
6.0
100
AcDbLine
 10
560.2804953064655
 20
670.0884327278958
 30
0.0
 11
560.2804953064448
 21
671.5884328628963
 31
0.0
  0
LINE
  5
473
330
1F
100
AcDbEntity
  8
0
  6
DASHED
 62
     4
 48
6.0
100
AcDbLine
 10
561.7804953064624
 20
670.0884327279045
 30
0.0
 11
560.2804953064655
 21
670.0884327278958
 31
0.0
  0
LINE
  5
474
330
1F
100
AcDbEntity
  8
0
  6
DASHED
 62
     4
 48
6.0
100
AcDbLine
 10
561.780495306468
 20
669.088432637905
 30
0.0
 11
561.7804953064624
 21
670.0884327279045
 31
0.0
  0
LINE
  5
475
330
1F
100
AcDbEntity
  8
0
  6
DASHED
 62
     4
 48
6.0
100
AcDbLine
 10
565.5904953065644
 20
660.0884318279232
 30
0.0
 11
565.5904953065644
 21
660.0884318279232
 31
0.0
  0
LINE
  5
476
330
1F
100
AcDbEntity
  8
0
  6
DASHED
 62
     4
 48
6.0
100
AcDbLine
 10
564.0904953065528
 20
660.0884318279172
 30
0.0
 11
565.5904953065644
 21
660.0884318279232
 31
0.0
  0
LINE
  5
477
330
1F
100
AcDbEntity
  8
0
  6
DASHED
 62
     4
 48
6.0
100
AcDbLine
 10
564.090495306561
 20
658.588431692917
 30
0.0
 11
564.0904953065528
 21
660.0884318279172
 31
0.0
  0
LINE
  5
478
330
1F
100
AcDbEntity
  8
0
  6
DASHED
 62
     4
 48
6.0
100
AcDbLine
 10
563.0904953065732
 20
658.5884316929111
 30
0.0
 11
564.090495306561
 21
658.588431692917
 31
0.0
  0
LINE
  5
479
330
1F
100
AcDbEntity
  8
0
  6
DASHED
 62
     4
 48
6.0
100
AcDbLine
 10
563.0904953065643
 20
660.0884318279105
 30
0.0
 11
563.0904953065732
 21
658.5884316929111
 31
0.0
  0
LINE
  5
47A
330
1F
100
AcDbEntity
  8
0
  6
DASHED
 62
     4
 48
6.0
100
AcDbLine
 10
561.5904953065644
 20
660.088431827902
 30
0.0
 11
563.0904953065643
 21
660.0884318279105
 31
0.0
  0
LINE
  5
47B
330
1F
100
AcDbEntity
  8
0
  6
DASHED
 62
     4
 48
6.0
100
AcDbLine
 10
561.5904953065466
 20
661.0884319179017
 30
0.0
 11
561.5904953065644
 21
660.088431827902
 31
0.0
  0
LINE
  5
47C
330
1F
100
AcDbEntity
  8
0
  6
DASHED
 62
     4
 48
6.0
100
AcDbLine
 10
563.0904953065619
 20
661.0884319179104
 30
0.0
 11
561.5904953065466
 21
661.0884319179017
 31
0.0
  0
LINE
  5
47D
330
1F
100
AcDbEntity
  8
0
  6
DASHED
 62
     4
 48
6.0
100
AcDbLine
 10
563.0904953065523
 20
662.588432052911
 30
0.0
 11
563.0904953065619
 21
661.0884319179104
 31
0.0
  0
LINE
  5
47E
330
1F
100
AcDbEntity
  8
0
  6
DASHED
 62
     4
 48
6.0
100
AcDbLine
 10
564.090495306541
 20
662.5884320529165
 30
0.0
 11
563.0904953065523
 21
662.588432052911
 31
0.0
  0
LINE
  5
47F
330
1F
100
AcDbEntity
  8
0
  6
DASHED
 62
     4
 48
6.0
100
AcDbLine
 10
564.090495306561
 20
661.0884319179165
 30
0.0
 11
564.090495306541
 21
662.5884320529165
 31
0.0
  0
LINE
  5
480
330
1F
100
AcDbEntity
  8
0
  6
DASHED
 62
     4
 48
6.0
100
AcDbLine
 10
565.5904953065589
 20
661.0884319179231
 30
0.0
 11
564.090495306561
 21
661.0884319179165
 31
0.0
  0
LINE
  5
481
330
1F
100
AcDbEntity
  8
0
  6
DASHED
 62
     4
 48
6.0
100
AcDbLine
 10
565.5904953065644
 20
660.0884318279232
 30
0.0
 11
565.5904953065589
 21
661.0884319179231
 31
0.0
  0
LINE
  5
482
330
1F
100
AcDbEntity
  8
0
  6
DASHED
 62
     4
 48
6.0
100
AcDbLine
 10
569.4004953065134
 20
669.0884326379443
 30
0.0
 11
569.4004953065134
 21
669.0884326379443
 31
0.0
  0
LINE
  5
483
330
1F
100
AcDbEntity
  8
0
  6
DASHED
 62
     4
 48
6.0
100
AcDbLine
 10
567.9004953065019
 20
669.088432637935
 30
0.0
 11
569.4004953065134
 21
669.0884326379443
 31
0.0
  0
LINE
  5
484
330
1F
100
AcDbEntity
  8
0
  6
DASHED
 62
     4
 48
6.0
100
AcDbLine
 10
567.9004953065073
 20
667.5884325029345
 30
0.0
 11
567.9004953065019
 21
669.088432637935
 31
0.0
  0
LINE
  5
485
330
1F
100
AcDbEntity
  8
0
  6
DASHED
 62
     4
 48
6.0
100
AcDbLine
 10
566.9004953065195
 20
667.5884325029311
 30
0.0
 11
567.9004953065073
 21
667.5884325029345
 31
0.0
  0
LINE
  5
486
330
1F
100
AcDbEntity
  8
0
  6
DASHED
 62
     4
 48
6.0
100
AcDbLine
 10
566.9004953065134
 20
669.0884326379291
 30
0.0
 11
566.9004953065195
 21
667.5884325029311
 31
0.0
  0
LINE
  5
487
330
1F
100
AcDbEntity
  8
0
  6
DASHED
 62
     4
 48
6.0
100
AcDbLine
 10
565.4004953065132
 20
669.0884326379231
 30
0.0
 11
566.9004953065134
 21
669.0884326379291
 31
0.0
  0
LINE
  5
488
330
1F
100
AcDbEntity
  8
0
  6
DASHED
 62
     4
 48
6.0
100
AcDbLine
 10
565.4004953064958
 20
670.0884327279229
 30
0.0
 11
565.4004953065132
 21
669.0884326379231
 31
0.0
  0
LINE
  5
489
330
1F
100
AcDbEntity
  8
0
  6
DASHED
 62
     4
 48
6.0
100
AcDbLine
 10
566.900495306508
 20
670.0884327279291
 30
0.0
 11
565.4004953064958
 21
670.0884327279229
 31
0.0
  0
LINE
  5
48A
330
1F
100
AcDbEntity
  8
0
  6
DASHED
 62
     4
 48
6.0
100
AcDbLine
 10
566.900495306498
 20
671.5884328629279
 30
0.0
 11
566.900495306508
 21
670.0884327279291
 31
0.0
  0
LINE
  5
48B
330
1F
100
AcDbEntity
  8
0
  6
DASHED
 62
     4
 48
6.0
100
AcDbLine
 10
567.9004953064869
 20
671.5884328629353
 30
0.0
 11
566.900495306498
 21
671.5884328629279
 31
0.0
  0
LINE
  5
48C
330
1F
100
AcDbEntity
  8
0
  6
DASHED
 62
     4
 48
6.0
100
AcDbLine
 10
567.9004953065073
 20
670.0884327279351
 30
0.0
 11
567.9004953064869
 21
671.5884328629353
 31
0.0
  0
LINE
  5
48D
330
1F
100
AcDbEntity
  8
0
  6
DASHED
 62
     4
 48
6.0
100
AcDbLine
 10
569.4004953065079
 20
670.088432727944
 30
0.0
 11
567.9004953065073
 21
670.0884327279351
 31
0.0
  0
LINE
  5
48E
330
1F
100
AcDbEntity
  8
0
  6
DASHED
 62
     4
 48
6.0
100
AcDbLine
 10
569.4004953065134
 20
669.0884326379443
 30
0.0
 11
569.4004953065079
 21
670.088432727944
 31
0.0
  0
LINE
  5
48F
330
1F
100
AcDbEntity
  8
0
  6
DASHED
 62
     4
 48
6.0
100
AcDbLine
 10
573.2104953066097
 20
660.0884318279622
 30
0.0
 11
573.2104953066097
 21
660.0884318279622
 31
0.0
  0
LINE
  5
490
330
1F
100
AcDbEntity
  8
0
  6
DASHED
 62
     4
 48
6.0
100
AcDbLine
 10
571.7104953065976
 20
660.0884318279554
 30
0.0
 11
573.2104953066097
 21
660.0884318279622
 31
0.0
  0
LINE
  5
491
330
1F
100
AcDbEntity
  8
0
  6
DASHED
 62
     4
 48
6.0
100
AcDbLine
 10
571.7104953066031
 20
658.588431692956
 30
0.0
 11
571.7104953065976
 21
660.0884318279554
 31
0.0
  0
LINE
  5
492
330
1F
100
AcDbEntity
  8
0
  6
DASHED
 62
     4
 48
6.0
100
AcDbLine
 10
570.7104953066152
 20
658.5884316929498
 30
0.0
 11
571.7104953066031
 21
658.588431692956
 31
0.0
  0
LINE
  5
493
330
1F
100
AcDbEntity
  8
0
  6
DASHED
 62
     4
 48
6.0
100
AcDbLine
 10
570.7104953066094
 20
660.0884318279501
 30
0.0
 11
570.7104953066152
 21
658.5884316929498
 31
0.0
  0
LINE
  5
494
330
1F
100
AcDbEntity
  8
0
  6
DASHED
 62
     4
 48
6.0
100
AcDbLine
 10
569.2104953066099
 20
660.0884318279405
 30
0.0
 11
570.7104953066094
 21
660.0884318279501
 31
0.0
  0
LINE
  5
495
330
1F
100
AcDbEntity
  8
0
  6
DASHED
 62
     4
 48
6.0
100
AcDbLine
 10
569.2104953065918
 20
661.0884319179408
 30
0.0
 11
569.2104953066099
 21
660.0884318279405
 31
0.0
  0
LINE
  5
496
330
1F
100
AcDbEntity
  8
0
  6
DASHED
 62
     4
 48
6.0
100
AcDbLine
 10
570.7104953066036
 20
661.0884319179499
 30
0.0
 11
569.2104953065918
 21
661.0884319179408
 31
0.0
  0
LINE
  5
497
330
1F
100
AcDbEntity
  8
0
  6
DASHED
 62
     4
 48
6.0
100
AcDbLine
 10
570.7104953065944
 20
662.58843205295
 30
0.0
 11
570.7104953066036
 21
661.0884319179499
 31
0.0
  0
LINE
  5
498
330
1F
100
AcDbEntity
  8
0
  6
DASHED
 62
     4
 48
6.0
100
AcDbLine
 10
571.7104953065822
 20
662.5884320529559
 30
0.0
 11
570.7104953065944
 21
662.58843205295
 31
0.0
  0
LINE
  5
499
330
1F
100
AcDbEntity
  8
0
  6
DASHED
 62
     4
 48
6.0
100
AcDbLine
 10
571.7104953066031
 20
661.0884319179561
 30
0.0
 11
571.7104953065822
 21
662.5884320529559
 31
0.0
  0
LINE
  5
49A
330
1F
100
AcDbEntity
  8
0
  6
DASHED
 62
     4
 48
6.0
100
AcDbLine
 10
573.2104953066033
 20
661.0884319179612
 30
0.0
 11
571.7104953066031
 21
661.0884319179561
 31
0.0
  0
LINE
  5
49B
330
1F
100
AcDbEntity
  8
0
  6
DASHED
 62
     4
 48
6.0
100
AcDbLine
 10
573.2104953066097
 20
660.0884318279622
 30
0.0
 11
573.2104953066033
 21
661.0884319179612
 31
0.0
  0
LINE
  5
49C
330
1F
100
AcDbEntity
  8
0
  6
DASHED
 62
     4
 48
6.0
100
AcDbLine
 10
577.0204953064685
 20
669.0884326379831
 30
0.0
 11
577.0204953064685
 21
669.0884326379831
 31
0.0
  0
LINE
  5
49D
330
1F
100
AcDbEntity
  8
0
  6
DASHED
 62
     4
 48
6.0
100
AcDbLine
 10
575.5204953064564
 20
669.0884326379739
 30
0.0
 11
577.0204953064685
 21
669.0884326379831
 31
0.0
  0
LINE
  5
49E
330
1F
100
AcDbEntity
  8
0
  6
DASHED
 62
     4
 48
6.0
100
AcDbLine
 10
575.5204953064655
 20
667.5884325029739
 30
0.0
 11
575.5204953064564
 21
669.0884326379739
 31
0.0
  0
LINE
  5
49F
330
1F
100
AcDbEntity
  8
0
  6
DASHED
 62
     4
 48
6.0
100
AcDbLine
 10
574.5204953064767
 20
667.5884325029679
 30
0.0
 11
575.5204953064655
 21
667.5884325029739
 31
0.0
  0
LINE
  5
4A0
330
1F
100
AcDbEntity
  8
0
  6
DASHED
 62
     4
 48
6.0
100
AcDbLine
 10
574.5204953064687
 20
669.0884326379705
 30
0.0
 11
574.5204953064767
 21
667.5884325029679
 31
0.0
  0
LINE
  5
4A1
330
1F
100
AcDbEntity
  8
0
  6
DASHED
 62
     4
 48
6.0
100
AcDbLine
 10
573.0204953064689
 20
669.0884326379621
 30
0.0
 11
574.5204953064687
 21
669.0884326379705
 31
0.0
  0
LINE
  5
4A2
330
1F
100
AcDbEntity
  8
0
  6
DASHED
 62
     4
 48
6.0
100
AcDbLine
 10
573.0204953064501
 20
670.088432727962
 30
0.0
 11
573.0204953064689
 21
669.0884326379621
 31
0.0
  0
LINE
  5
4A3
330
1F
100
AcDbEntity
  8
0
  6
DASHED
 62
     4
 48
6.0
100
AcDbLine
 10
574.5204953064651
 20
670.088432727968
 30
0.0
 11
573.0204953064501
 21
670.088432727962
 31
0.0
  0
LINE
  5
4A4
330
1F
100
AcDbEntity
  8
0
  6
DASHED
 62
     4
 48
6.0
100
AcDbLine
 10
574.5204953064565
 20
671.588432862971
 30
0.0
 11
574.5204953064651
 21
670.088432727968
 31
0.0
  0
LINE
  5
4A5
330
1F
100
AcDbEntity
  8
0
  6
DASHED
 62
     4
 48
6.0
100
AcDbLine
 10
575.5204953064444
 20
671.5884328629734
 30
0.0
 11
574.5204953064565
 21
671.588432862971
 31
0.0
  0
LINE
  5
4A6
330
1F
100
AcDbEntity
  8
0
  6
DASHED
 62
     4
 48
6.0
100
AcDbLine
 10
575.5204953064621
 20
670.088432727974
 30
0.0
 11
575.5204953064444
 21
671.5884328629734
 31
0.0
  0
LINE
  5
4A7
330
1F
100
AcDbEntity
  8
0
  6
DASHED
 62
     4
 48
6.0
100
AcDbLine
 10
577.0204953064627
 20
670.0884327279829
 30
0.0
 11
575.5204953064621
 21
670.088432727974
 31
0.0
  0
LINE
  5
4A8
330
1F
100
AcDbEntity
  8
0
  6
DASHED
 62
     4
 48
6.0
100
AcDbLine
 10
577.0204953064685
 20
669.0884326379831
 30
0.0
 11
577.0204953064627
 21
670.0884327279829
 31
0.0
  0
LINE
  5
4A9
330
1F
100
AcDbEntity
  8
0
  6
DASHED
 62
     4
 48
6.0
100
AcDbLine
 10
580.8304953066095
 20
660.0884318280005
 30
0.0
 11
580.8304953066095
 21
660.0884318280005
 31
0.0
  0
LINE
  5
4AA
330
1F
100
AcDbEntity
  8
0
  6
DASHED
 62
     4
 48
6.0
100
AcDbLine
 10
579.3304953065967
 20
660.0884318279945
 30
0.0
 11
580.8304953066095
 21
660.0884318280005
 31
0.0
  0
LINE
  5
4AB
330
1F
100
AcDbEntity
  8
0
  6
DASHED
 62
     4
 48
6.0
100
AcDbLine
 10
579.3304953066039
 20
658.5884316929949
 30
0.0
 11
579.3304953065967
 21
660.0884318279945
 31
0.0
  0
LINE
  5
4AC
330
1F
100
AcDbEntity
  8
0
  6
DASHED
 62
     4
 48
6.0
100
AcDbLine
 10
578.330495306615
 20
658.588431692988
 30
0.0
 11
579.3304953066039
 21
658.5884316929949
 31
0.0
  0
LINE
  5
4AD
330
1F
100
AcDbEntity
  8
0
  6
DASHED
 62
     4
 48
6.0
100
AcDbLine
 10
578.3304953066099
 20
660.0884318279883
 30
0.0
 11
578.330495306615
 21
658.588431692988
 31
0.0
  0
LINE
  5
4AE
330
1F
100
AcDbEntity
  8
0
  6
DASHED
 62
     4
 48
6.0
100
AcDbLine
 10
576.8304953066093
 20
660.0884318279825
 30
0.0
 11
578.3304953066099
 21
660.0884318279883
 31
0.0
  0
LINE
  5
4AF
330
1F
100
AcDbEntity
  8
0
  6
DASHED
 62
     4
 48
6.0
100
AcDbLine
 10
576.8304953065916
 20
661.0884319179799
 30
0.0
 11
576.8304953066093
 21
660.0884318279825
 31
0.0
  0
LINE
  5
4B0
330
1F
100
AcDbEntity
  8
0
  6
DASHED
 62
     4
 48
6.0
100
AcDbLine
 10
578.3304953066037
 20
661.0884319179883
 30
0.0
 11
576.8304953065916
 21
661.0884319179799
 31
0.0
  0
LINE
  5
4B1
330
1F
100
AcDbEntity
  8
0
  6
DASHED
 62
     4
 48
6.0
100
AcDbLine
 10
578.3304953065945
 20
662.5884320529889
 30
0.0
 11
578.3304953066037
 21
661.0884319179883
 31
0.0
  0
LINE
  5
4B2
330
1F
100
AcDbEntity
  8
0
  6
DASHED
 62
     4
 48
6.0
100
AcDbLine
 10
579.3304953065824
 20
662.5884320529944
 30
0.0
 11
578.3304953065945
 21
662.5884320529889
 31
0.0
  0
LINE
  5
4B3
330
1F
100
AcDbEntity
  8
0
  6
DASHED
 62
     4
 48
6.0
100
AcDbLine
 10
579.3304953066039
 20
661.0884319179943
 30
0.0
 11
579.3304953065824
 21
662.5884320529944
 31
0.0
  0
LINE
  5
4B4
330
1F
100
AcDbEntity
  8
0
  6
DASHED
 62
     4
 48
6.0
100
AcDbLine
 10
580.8304953066034
 20
661.0884319180004
 30
0.0
 11
579.3304953066039
 21
661.0884319179943
 31
0.0
  0
LINE
  5
4B5
330
1F
100
AcDbEntity
  8
0
  6
DASHED
 62
     4
 48
6.0
100
AcDbLine
 10
580.8304953066095
 20
660.0884318280005
 30
0.0
 11
580.8304953066034
 21
661.0884319180004
 31
0.0
  0
LINE
  5
4B6
330
1F
100
AcDbEntity
  8
0
  6
DASHED
 62
     4
 48
6.0
100
AcDbLine
 10
584.6404953064689
 20
669.088432638022
 30
0.0
 11
584.6404953064689
 21
669.088432638022
 31
0.0
  0
LINE
  5
4B7
330
1F
100
AcDbEntity
  8
0
  6
DASHED
 62
     4
 48
6.0
100
AcDbLine
 10
583.1404953064568
 20
669.0884326380131
 30
0.0
 11
584.6404953064689
 21
669.088432638022
 31
0.0
  0
LINE
  5
4B8
330
1F
100
AcDbEntity
  8
0
  6
DASHED
 62
     4
 48
6.0
100
AcDbLine
 10
583.1404953064657
 20
667.5884325030131
 30
0.0
 11
583.1404953064568
 21
669.0884326380131
 31
0.0
  0
LINE
  5
4B9
330
1F
100
AcDbEntity
  8
0
  6
DASHED
 62
     4
 48
6.0
100
AcDbLine
 10
582.140495306477
 20
667.5884325030099
 30
0.0
 11
583.1404953064657
 21
667.5884325030131
 31
0.0
  0
LINE
  5
4BA
330
1F
100
AcDbEntity
  8
0
  6
DASHED
 62
     4
 48
6.0
100
AcDbLine
 10
582.1404953064688
 20
669.0884326380098
 30
0.0
 11
582.140495306477
 21
667.5884325030099
 31
0.0
  0
LINE
  5
4BB
330
1F
100
AcDbEntity
  8
0
  6
DASHED
 62
     4
 48
6.0
100
AcDbLine
 10
580.6404953064683
 20
669.0884326380009
 30
0.0
 11
582.1404953064688
 21
669.0884326380098
 31
0.0
  0
LINE
  5
4BC
330
1F
100
AcDbEntity
  8
0
  6
DASHED
 62
     4
 48
6.0
100
AcDbLine
 10
580.6404953064502
 20
670.0884327280006
 30
0.0
 11
580.6404953064683
 21
669.0884326380009
 31
0.0
  0
LINE
  5
4BD
330
1F
100
AcDbEntity
  8
0
  6
DASHED
 62
     4
 48
6.0
100
AcDbLine
 10
582.1404953064658
 20
670.0884327280094
 30
0.0
 11
580.6404953064502
 21
670.0884327280006
 31
0.0
  0
LINE
  5
4BE
330
1F
100
AcDbEntity
  8
0
  6
DASHED
 62
     4
 48
6.0
100
AcDbLine
 10
582.1404953064566
 20
671.5884328630102
 30
0.0
 11
582.1404953064658
 21
670.0884327280094
 31
0.0
  0
LINE
  5
4BF
330
1F
100
AcDbEntity
  8
0
  6
DASHED
 62
     4
 48
6.0
100
AcDbLine
 10
583.1404953064442
 20
671.588432863012
 30
0.0
 11
582.1404953064566
 21
671.5884328630102
 31
0.0
  0
LINE
  5
4C0
330
1F
100
AcDbEntity
  8
0
  6
DASHED
 62
     4
 48
6.0
100
AcDbLine
 10
583.1404953064657
 20
670.0884327280132
 30
0.0
 11
583.1404953064442
 21
671.588432863012
 31
0.0
  0
LINE
  5
4C1
330
1F
100
AcDbEntity
  8
0
  6
DASHED
 62
     4
 48
6.0
100
AcDbLine
 10
584.6404953064627
 20
670.0884327280216
 30
0.0
 11
583.1404953064657
 21
670.0884327280132
 31
0.0
  0
LINE
  5
4C2
330
1F
100
AcDbEntity
  8
0
  6
DASHED
 62
     4
 48
6.0
100
AcDbLine
 10
584.6404953064689
 20
669.088432638022
 30
0.0
 11
584.6404953064627
 21
670.0884327280216
 31
0.0
  0
LINE
  5
4C3
330
1F
100
AcDbEntity
  8
0
  6
DASHED
 62
     4
 48
6.0
100
AcDbLine
 10
588.4504953065138
 20
660.0884318280401
 30
0.0
 11
588.4504953065138
 21
660.0884318280401
 31
0.0
  0
LINE
  5
4C4
330
1F
100
AcDbEntity
  8
0
  6
DASHED
 62
     4
 48
6.0
100
AcDbLine
 10
586.9504953065017
 20
660.0884318280336
 30
0.0
 11
588.4504953065138
 21
660.0884318280401
 31
0.0
  0
LINE
  5
4C5
330
1F
100
AcDbEntity
  8
0
  6
DASHED
 62
     4
 48
6.0
100
AcDbLine
 10
586.9504953065106
 20
658.5884316930341
 30
0.0
 11
586.9504953065017
 21
660.0884318280336
 31
0.0
  0
LINE
  5
4C6
330
1F
100
AcDbEntity
  8
0
  6
DASHED
 62
     4
 48
6.0
100
AcDbLine
 10
585.9504953065224
 20
658.5884316930274
 30
0.0
 11
586.9504953065106
 21
658.5884316930341
 31
0.0
  0
LINE
  5
4C7
330
1F
100
AcDbEntity
  8
0
  6
DASHED
 62
     4
 48
6.0
100
AcDbLine
 10
585.9504953065169
 20
660.0884318280275
 30
0.0
 11
585.9504953065224
 21
658.5884316930274
 31
0.0
  0
LINE
  5
4C8
330
1F
100
AcDbEntity
  8
0
  6
DASHED
 62
     4
 48
6.0
100
AcDbLine
 10
584.4504953065136
 20
660.088431828019
 30
0.0
 11
585.9504953065169
 21
660.0884318280275
 31
0.0
  0
LINE
  5
4C9
330
1F
100
AcDbEntity
  8
0
  6
DASHED
 62
     4
 48
6.0
100
AcDbLine
 10
584.4504953064986
 20
661.0884319180219
 30
0.0
 11
584.4504953065136
 21
660.088431828019
 31
0.0
  0
LINE
  5
4CA
330
1F
100
AcDbEntity
  8
0
  6
DASHED
 62
     4
 48
6.0
100
AcDbLine
 10
585.95049530651
 20
661.0884319180279
 30
0.0
 11
584.4504953064986
 21
661.0884319180219
 31
0.0
  0
LINE
  5
4CB
330
1F
100
AcDbEntity
  8
0
  6
DASHED
 62
     4
 48
6.0
100
AcDbLine
 10
585.9504953065015
 20
662.5884320530275
 30
0.0
 11
585.95049530651
 21
661.0884319180279
 31
0.0
  0
LINE
  5
4CC
330
1F
100
AcDbEntity
  8
0
  6
DASHED
 62
     4
 48
6.0
100
AcDbLine
 10
586.9504953064894
 20
662.5884320530338
 30
0.0
 11
585.9504953065015
 21
662.5884320530275
 31
0.0
  0
LINE
  5
4CD
330
1F
100
AcDbEntity
  8
0
  6
DASHED
 62
     4
 48
6.0
100
AcDbLine
 10
586.9504953065106
 20
661.0884319180329
 30
0.0
 11
586.9504953064894
 21
662.5884320530338
 31
0.0
  0
LINE
  5
4CE
330
1F
100
AcDbEntity
  8
0
  6
DASHED
 62
     4
 48
6.0
100
AcDbLine
 10
588.4504953065104
 20
661.0884319180398
 30
0.0
 11
586.9504953065106
 21
661.0884319180329
 31
0.0
  0
LINE
  5
4CF
330
1F
100
AcDbEntity
  8
0
  6
DASHED
 62
     4
 48
6.0
100
AcDbLine
 10
588.4504953065138
 20
660.0884318280401
 30
0.0
 11
588.4504953065104
 21
661.0884319180398
 31
0.0
  0
LINE
  5
4D0
330
1F
100
AcDbEntity
  8
0
  6
DASHED
 62
     4
 48
6.0
100
AcDbLine
 10
593.4104953064989
 20
665.5884323230671
 30
0.0
 11
593.4104953064418
 21
674.5884331330669
 31
0.0
  0
LINE
  5
4D1
330
1F
100
AcDbEntity
  8
0
  6
DASHED
 62
     4
 48
6.0
100
AcDbLine
 10
592.2604953064683
 20
669.0884326380608
 30
0.0
 11
592.2604953064683
 21
669.0884326380608
 31
0.0
  0
LINE
  5
4D2
330
1F
100
AcDbEntity
  8
0
  6
DASHED
 62
     4
 48
6.0
100
AcDbLine
 10
590.7604953064569
 20
669.088432638052
 30
0.0
 11
592.2604953064683
 21
669.0884326380608
 31
0.0
  0
LINE
  5
4D3
330
1F
100
AcDbEntity
  8
0
  6
DASHED
 62
     4
 48
6.0
100
AcDbLine
 10
590.7604953064661
 20
667.5884325030515
 30
0.0
 11
590.7604953064569
 21
669.088432638052
 31
0.0
  0
LINE
  5
4D4
330
1F
100
AcDbEntity
  8
0
  6
DASHED
 62
     4
 48
6.0
100
AcDbLine
 10
589.7604953064778
 20
667.5884325030491
 30
0.0
 11
590.7604953064661
 21
667.5884325030515
 31
0.0
  0
LINE
  5
4D5
330
1F
100
AcDbEntity
  8
0
  6
DASHED
 62
     4
 48
6.0
100
AcDbLine
 10
589.7604953064683
 20
669.0884326380486
 30
0.0
 11
589.7604953064778
 21
667.5884325030491
 31
0.0
  0
LINE
  5
4D6
330
1F
100
AcDbEntity
  8
0
  6
DASHED
 62
     4
 48
6.0
100
AcDbLine
 10
588.2604953064684
 20
669.0884326380401
 30
0.0
 11
589.7604953064683
 21
669.0884326380486
 31
0.0
  0
LINE
  5
4D7
330
1F
100
AcDbEntity
  8
0
  6
DASHED
 62
     4
 48
6.0
100
AcDbLine
 10
588.2604953064507
 20
670.08843272804
 30
0.0
 11
588.2604953064684
 21
669.0884326380401
 31
0.0
  0
LINE
  5
4D8
330
1F
100
AcDbEntity
  8
0
  6
DASHED
 62
     4
 48
6.0
100
AcDbLine
 10
589.7604953064659
 20
670.0884327280487
 30
0.0
 11
588.2604953064507
 21
670.08843272804
 31
0.0
  0
LINE
  5
4D9
330
1F
100
AcDbEntity
  8
0
  6
DASHED
 62
     4
 48
6.0
100
AcDbLine
 10
589.7604953064564
 20
671.588432863049
 30
0.0
 11
589.7604953064659
 21
670.0884327280487
 31
0.0
  0
LINE
  5
4DA
330
1F
100
AcDbEntity
  8
0
  6
DASHED
 62
     4
 48
6.0
100
AcDbLine
 10
590.7604953064442
 20
671.5884328630522
 30
0.0
 11
589.7604953064564
 21
671.588432863049
 31
0.0
  0
LINE
  5
4DB
330
1F
100
AcDbEntity
  8
0
  6
DASHED
 62
     4
 48
6.0
100
AcDbLine
 10
590.7604953064661
 20
670.0884327280521
 30
0.0
 11
590.7604953064442
 21
671.5884328630522
 31
0.0
  0
LINE
  5
4DC
330
1F
100
AcDbEntity
  8
0
  6
DASHED
 62
     4
 48
6.0
100
AcDbLine
 10
592.2604953064628
 20
670.0884327280607
 30
0.0
 11
590.7604953064661
 21
670.0884327280521
 31
0.0
  0
LINE
  5
4DD
330
1F
100
AcDbEntity
  8
0
  6
DASHED
 62
     4
 48
6.0
100
AcDbLine
 10
592.2604953064683
 20
669.0884326380608
 30
0.0
 11
592.2604953064628
 21
670.0884327280607
 31
0.0
  0
LINE
  5
4DE
330
1F
100
AcDbEntity
  8
0
  6
DASHED
 62
     4
 48
6.0
100
AcDbLine
 10
594.730495306601
 20
655.5884314230723
 30
0.0
 11
594.7304953066061
 21
674.5884331325894
 31
0.0
  0
LINE
  5
4DF
330
1F
100
AcDbEntity
  8
0
  6
Continuous
 62
     7
100
AcDbLine
 10
610.7854943827267
 20
671.6683733925306
 30
0.0
 11
610.7854943827267
 21
645.9044479839145
 31
0.0
  0
LINE
  5
4E0
330
1F
100
AcDbEntity
  8
0
  6
Continuous
 62
     7
100
AcDbLine
 10
610.7854943827267
 20
641.4323013905413
 30
0.0
 11
610.7854943827267
 21
634.1324716294369
 31
0.0
  0
LINE
  5
4E1
330
1F
100
AcDbEntity
  8
0
  6
Continuous
 62
     7
100
AcDbLine
 10
606.7854943827268
 20
671.6683733925306
 30
0.0
 11
606.7854943827268
 21
645.9044377480065
 31
0.0
  0
LINE
  5
4E2
330
1F
100
AcDbEntity
  8
0
  6
Continuous
 62
     7
100
AcDbLine
 10
606.7854943827268
 20
641.432311626449
 30
0.0
 11
606.7854943827268
 21
634.1324716294369
 31
0.0
  0
LINE
  5
4E3
330
1F
100
AcDbEntity
  8
0
  6
Continuous
 62
     7
100
AcDbLine
 10
496.0854943827264
 20
708.6683767225308
 30
0.0
 11
605.0854943827265
 21
708.6683767225308
 31
0.0
  0
ARC
  5
4E4
330
1F
100
AcDbEntity
  8
0
  6
Continuous
 62
     7
100
AcDbCircle
 10
496.0854943827333
 20
700.6683767225246
 30
0.0
 40
8.000000000006496
100
AcDbArc
 50
90.00000000004559
 51
180.000005156572
  0
ARC
  5
4E5
330
1F
100
AcDbEntity
  8
0
  6
Continuous
 62
     7
100
AcDbCircle
 10
605.0854943827194
 20
700.6683767225246
 30
0.0
 40
8.000000000006631
100
AcDbArc
 50
359.9999948434279
 51
89.99999999995441
  0
LINE
  5
4E6
330
1F
100
AcDbEntity
  8
0
  6
Continuous
 62
     7
100
AcDbLine
 10
838.3855033827273
 20
529.6683606125298
 30
0.0
 11
828.2855033827273
 21
529.6683606125298
 31
0.0
  0
LINE
  5
4E7
330
1F
100
AcDbEntity
  8
0
  6
Continuous
 62
     7
100
AcDbLine
 10
838.3855033827273
 20
517.6683595325295
 30
0.0
 11
828.2855033827273
 21
517.6683595325295
 31
0.0
  0
LINE
  5
4E8
330
1F
100
AcDbEntity
  8
0
  6
Continuous
 62
     7
100
AcDbLine
 10
838.3855033827273
 20
519.6683597125297
 30
0.0
 11
837.1855033827275
 21
519.6683597125297
 31
0.0
  0
LINE
  5
4E9
330
1F
100
AcDbEntity
  8
0
  6
Continuous
 62
     7
100
AcDbLine
 10
838.3855033827273
 20
527.6683604325296
 30
0.0
 11
837.1855033827275
 21
527.6683604325296
 31
0.0
  0
ARC
  5
4EA
330
1F
100
AcDbEntity
  8
0
  6
Continuous
 62
     7
100
AcDbCircle
 10
828.2855033827273
 20
523.6683600725298
 30
0.0
 40
6.000000540000166
100
AcDbArc
 50
90.0
 51
270.0
  0
LINE
  5
4EB
330
1F
100
AcDbEntity
  8
0
  6
Continuous
 62
     7
100
AcDbLine
 10
837.1855033827275
 20
519.6683597125297
 30
0.0
 11
837.1855033827275
 21
527.6683604325296
 31
0.0
  0
LINE
  5
4EC
330
1F
100
AcDbEntity
  8
0
  6
Continuous
 62
     7
100
AcDbLine
 10
838.3855033827273
 20
529.6683606125298
 30
0.0
 11
838.3855033827273
 21
527.6683604325296
 31
0.0
  0
LINE
  5
4ED
330
1F
100
AcDbEntity
  8
0
  6
Continuous
 62
     7
100
AcDbLine
 10
838.3855033827273
 20
519.6683597125297
 30
0.0
 11
838.3855033827273
 21
517.6683595325295
 31
0.0
  0
LINE
  5
4EE
330
1F
100
AcDbEntity
  8
0
  6
Continuous
 62
     7
 48
6.0
100
AcDbLine
 10
950.4855085432286
 20
610.3183739268575
 30
0.0
 11
950.4855085432497
 21
609.0183738098578
 31
0.0
  0
LINE
  5
4EF
330
1F
100
AcDbEntity
  8
0
  6
Continuous
 62
     7
100
AcDbLine
 10
838.3855033827273
 20
659.6683723125304
 30
0.0
 11
828.2855033827273
 21
659.6683723125304
 31
0.0
  0
LINE
  5
4F0
330
1F
100
AcDbEntity
  8
0
  6
Continuous
 62
     7
100
AcDbLine
 10
838.3855033827273
 20
647.6683712325309
 30
0.0
 11
828.2855033827273
 21
647.6683712325309
 31
0.0
  0
LINE
  5
4F1
330
1F
100
AcDbEntity
  8
0
  6
Continuous
 62
     7
100
AcDbLine
 10
838.3855033827273
 20
649.6683714125303
 30
0.0
 11
837.1855033827275
 21
649.6683714125303
 31
0.0
  0
LINE
  5
4F2
330
1F
100
AcDbEntity
  8
0
  6
Continuous
 62
     7
100
AcDbLine
 10
838.3855033827273
 20
657.6683721325305
 30
0.0
 11
837.1855033827275
 21
657.6683721325305
 31
0.0
  0
ARC
  5
4F3
330
1F
100
AcDbEntity
  8
0
  6
Continuous
 62
     7
100
AcDbCircle
 10
828.2855033827273
 20
653.6683717725304
 30
0.0
 40
6.000000540000002
100
AcDbArc
 50
90.0
 51
270.0
  0
LINE
  5
4F4
330
1F
100
AcDbEntity
  8
0
  6
Continuous
 62
     7
100
AcDbLine
 10
837.1855033827275
 20
649.6683714125303
 30
0.0
 11
837.1855033827275
 21
657.6683721325305
 31
0.0
  0
LINE
  5
4F5
330
1F
100
AcDbEntity
  8
0
  6
Continuous
 62
     7
100
AcDbLine
 10
838.3855033827273
 20
659.6683723125304
 30
0.0
 11
838.3855033827273
 21
657.6683721325305
 31
0.0
  0
LINE
  5
4F6
330
1F
100
AcDbEntity
  8
0
  6
Continuous
 62
     7
100
AcDbLine
 10
838.3855033827273
 20
649.6683714125303
 30
0.0
 11
838.3855033827273
 21
647.6683712325309
 31
0.0
  0
LINE
  5
4F7
330
1F
100
AcDbEntity
  8
0
  6
Continuous
 62
     7
 48
6.0
100
AcDbLine
 10
955.6855085432497
 20
259.0183423098822
 30
0.0
 11
955.6855085432497
 21
259.0183423098822
 31
0.0
  0
LINE
  5
4F8
330
1F
100
AcDbEntity
  8
0
  6
Continuous
 62
     7
 48
6.0
100
AcDbLine
 10
953.735508543235
 20
259.0183423098699
 30
0.0
 11
955.6855085432497
 21
259.0183423098822
 31
0.0
  0
LINE
  5
4F9
330
1F
100
AcDbEntity
  8
0
  6
Continuous
 62
     7
 48
6.0
100
AcDbLine
 10
953.7355085432468
 20
257.0683421343697
 30
0.0
 11
953.735508543235
 21
259.0183423098699
 31
0.0
  0
LINE
  5
4FA
330
1F
100
AcDbEntity
  8
0
  6
Continuous
 62
     7
 48
6.0
100
AcDbLine
 10
952.4355085432617
 20
257.0683421343638
 30
0.0
 11
953.7355085432468
 21
257.0683421343697
 31
0.0
  0
LINE
  5
4FB
330
1F
100
AcDbEntity
  8
0
  6
Continuous
 62
     7
 48
6.0
100
AcDbLine
 10
952.4355085432528
 20
259.0183423098636
 30
0.0
 11
952.4355085432617
 21
257.0683421343638
 31
0.0
  0
LINE
  5
4FC
330
1F
100
AcDbEntity
  8
0
  6
Continuous
 62
     7
 48
6.0
100
AcDbLine
 10
952.4355085432356
 20
262.2683426023636
 30
0.0
 11
952.4355085432471
 21
260.3183424268642
 31
0.0
  0
LINE
  5
4FD
330
1F
100
AcDbEntity
  8
0
  6
Continuous
 62
     7
 48
6.0
100
AcDbLine
 10
953.7355085432199
 20
262.2683426023696
 30
0.0
 11
952.4355085432356
 21
262.2683426023636
 31
0.0
  0
LINE
  5
4FE
330
1F
100
AcDbEntity
  8
0
  6
Continuous
 62
     7
 48
6.0
100
AcDbLine
 10
953.7355085432468
 20
260.3183424268698
 30
0.0
 11
953.7355085432199
 21
262.2683426023696
 31
0.0
  0
LINE
  5
4FF
330
1F
100
AcDbEntity
  8
0
  6
Continuous
 62
     7
 48
6.0
100
AcDbLine
 10
955.6855085432435
 20
260.3183424268816
 30
0.0
 11
953.7355085432468
 21
260.3183424268698
 31
0.0
  0
LINE
  5
500
330
1F
100
AcDbEntity
  8
0
  6
Continuous
 62
     7
 48
6.0
100
AcDbLine
 10
955.6855085432497
 20
259.0183423098822
 30
0.0
 11
955.6855085432435
 21
260.3183424268816
 31
0.0
  0
LINE
  5
501
330
1F
100
AcDbEntity
  8
0
  6
Continuous
 62
     7
 48
6.0
100
AcDbLine
 10
955.6855085432497
 20
434.0183580598838
 30
0.0
 11
955.6855085432497
 21
434.0183580598838
 31
0.0
  0
LINE
  5
502
330
1F
100
AcDbEntity
  8
0
  6
Continuous
 62
     7
 48
6.0
100
AcDbLine
 10
953.735508543235
 20
434.0183580598718
 30
0.0
 11
955.6855085432497
 21
434.0183580598838
 31
0.0
  0
LINE
  5
503
330
1F
100
AcDbEntity
  8
0
  6
Continuous
 62
     7
 48
6.0
100
AcDbLine
 10
953.7355085432468
 20
432.0683578843718
 30
0.0
 11
953.735508543235
 21
434.0183580598718
 31
0.0
  0
LINE
  5
504
330
1F
100
AcDbEntity
  8
0
  6
Continuous
 62
     7
 48
6.0
100
AcDbLine
 10
952.4355085432617
 20
432.0683578843657
 30
0.0
 11
953.7355085432468
 21
432.0683578843718
 31
0.0
  0
LINE
  5
505
330
1F
100
AcDbEntity
  8
0
  6
Continuous
 62
     7
 48
6.0
100
AcDbLine
 10
952.4355085432528
 20
434.0183580598651
 30
0.0
 11
952.4355085432617
 21
432.0683578843657
 31
0.0
  0
LINE
  5
506
330
1F
100
AcDbEntity
  8
0
  6
Continuous
 62
     7
 48
6.0
100
AcDbLine
 10
952.4355085432356
 20
437.2683583523658
 30
0.0
 11
952.4355085432471
 21
435.3183581768653
 31
0.0
  0
LINE
  5
507
330
1F
100
AcDbEntity
  8
0
  6
Continuous
 62
     7
 48
6.0
100
AcDbLine
 10
953.7355085432199
 20
437.2683583523715
 30
0.0
 11
952.4355085432356
 21
437.2683583523658
 31
0.0
  0
LINE
  5
508
330
1F
100
AcDbEntity
  8
0
  6
Continuous
 62
     7
 48
6.0
100
AcDbLine
 10
953.7355085432468
 20
435.3183581768712
 30
0.0
 11
953.7355085432199
 21
437.2683583523715
 31
0.0
  0
LINE
  5
509
330
1F
100
AcDbEntity
  8
0
  6
Continuous
 62
     7
 48
6.0
100
AcDbLine
 10
955.6855085432435
 20
435.3183581768834
 30
0.0
 11
953.7355085432468
 21
435.3183581768712
 31
0.0
  0
LINE
  5
50A
330
1F
100
AcDbEntity
  8
0
  6
Continuous
 62
     7
 48
6.0
100
AcDbLine
 10
955.6855085432497
 20
434.0183580598838
 30
0.0
 11
955.6855085432435
 21
435.3183581768834
 31
0.0
  0
LINE
  5
50B
330
1F
100
AcDbEntity
  8
0
  6
Continuous
 62
     7
 48
6.0
100
AcDbLine
 10
955.6855085432497
 20
609.0183738098853
 30
0.0
 11
955.6855085432497
 21
609.0183738098853
 31
0.0
  0
LINE
  5
50C
330
1F
100
AcDbEntity
  8
0
  6
Continuous
 62
     7
 48
6.0
100
AcDbLine
 10
953.735508543235
 20
609.0183738098731
 30
0.0
 11
955.6855085432497
 21
609.0183738098853
 31
0.0
  0
LINE
  5
50D
330
1F
100
AcDbEntity
  8
0
  6
Continuous
 62
     7
 48
6.0
100
AcDbLine
 10
953.7355085432468
 20
607.068373634373
 30
0.0
 11
953.735508543235
 21
609.0183738098731
 31
0.0
  0
LINE
  5
50E
330
1F
100
AcDbEntity
  8
0
  6
Continuous
 62
     7
 48
6.0
100
AcDbLine
 10
952.4355085432617
 20
607.0683736343673
 30
0.0
 11
953.7355085432468
 21
607.068373634373
 31
0.0
  0
LINE
  5
50F
330
1F
100
AcDbEntity
  8
0
  6
Continuous
 62
     7
 48
6.0
100
AcDbLine
 10
952.4355085432528
 20
609.0183738098671
 30
0.0
 11
952.4355085432617
 21
607.0683736343673
 31
0.0
  0
LINE
  5
510
330
1F
100
AcDbEntity
  8
0
  6
Continuous
 62
     7
 48
6.0
100
AcDbLine
 10
952.4355085432356
 20
612.2683741023672
 30
0.0
 11
952.4355085432471
 21
610.3183739268672
 31
0.0
  0
LINE
  5
511
330
1F
100
AcDbEntity
  8
0
  6
Continuous
 62
     7
 48
6.0
100
AcDbLine
 10
953.7355085432199
 20
612.2683741023727
 30
0.0
 11
952.4355085432356
 21
612.2683741023672
 31
0.0
  0
LINE
  5
512
330
1F
100
AcDbEntity
  8
0
  6
Continuous
 62
     7
 48
6.0
100
AcDbLine
 10
953.7355085432468
 20
610.3183739268725
 30
0.0
 11
953.7355085432199
 21
612.2683741023727
 31
0.0
  0
LINE
  5
513
330
1F
100
AcDbEntity
  8
0
  6
Continuous
 62
     7
 48
6.0
100
AcDbLine
 10
955.6855085432435
 20
610.3183739268849
 30
0.0
 11
953.7355085432468
 21
610.3183739268725
 31
0.0
  0
LINE
  5
514
330
1F
100
AcDbEntity
  8
0
  6
Continuous
 62
     7
 48
6.0
100
AcDbLine
 10
955.6855085432497
 20
609.0183738098853
 30
0.0
 11
955.6855085432435
 21
610.3183739268849
 31
0.0
  0
LINE
  5
515
330
1F
100
AcDbEntity
  8
0
  6
Continuous
 62
     7
100
AcDbLine
 10
1033.385503382727
 20
678.6683740225307
 30
0.0
 11
1033.385503382727
 21
708.6683767225308
 31
0.0
  0
LINE
  5
516
330
1F
100
AcDbEntity
  8
0
  6
Continuous
 62
     7
100
AcDbLine
 10
1034.585503382727
 20
708.6683767225308
 30
0.0
 11
1033.385503382727
 21
708.6683767225308
 31
0.0
  0
ENDSEC
  0
SECTION
  2
OBJECTS
  0
DICTIONARY
  5
C
330
0
100
AcDbDictionary
281
     1
  3
ACAD_GROUP
350
D
  3
ACAD_LAYOUT
350
1A
  3
ACAD_MLINESTYLE
350
17
  3
ACAD_PLOTSETTINGS
350
19
  3
ACAD_PLOTSTYLENAME
350
E
  0
DICTIONARY
  5
D
102
{ACAD_REACTORS
330
C
102
}
330
C
100
AcDbDictionary
281
     1
  0
DICTIONARY
  5
1A
102
{ACAD_REACTORS
330
C
102
}
330
C
100
AcDbDictionary
281
     1
  3
Model
350
22
  3
ﾚｲｱｳﾄ1
350
51
  0
DICTIONARY
  5
17
102
{ACAD_REACTORS
330
C
102
}
330
C
100
AcDbDictionary
281
     1
  3
Standard
350
18
  0
DICTIONARY
  5
19
102
{ACAD_REACTORS
330
C
102
}
330
C
100
AcDbDictionary
281
     1
  0
ACDBDICTIONARYWDFLT
  5
E
102
{ACAD_REACTORS
330
C
102
}
330
C
100
AcDbDictionary
281
     1
  3
Normal
350
F
100
AcDbDictionaryWithDefault
340
F
  0
LAYOUT
  5
22
102
{ACAD_REACTORS
330
1A
102
}
330
1A
100
AcDbPlotSettings
  1

  2
none_device
  4
ANSI_A_(8.50_x_11.00_Inches)
  6

 40
6.349999904632567
 41
19.04999923706053
 42
6.350006103515625
 43
19.04998779296875
 44
215.8999938964842
 45
279.3999938964843
 46
0.0
 47
0.0
 48
0.0
 49
0.0
140
0.0
141
0.0
142
1.0
143
78.436453180766
 70
 11952
 72
     0
 73
     1
 74
     0
  7

 75
     0
147
0.0127491741332998
148
0.0
149
0.0
100
AcDbLayout
  1
Model
 70
     1
 71
     0
 10
0.0
 20
0.0
 11
12.0
 21
9.0
 12
0.0
 22
0.0
 32
0.0
 14
0.0
 24
0.0
 34
0.0
 15
0.0
 25
0.0
 35
0.0
146
0.0
 13
0.0
 23
0.0
 33
0.0
 16
1.0
 26
0.0
 36
0.0
 17
0.0
 27
1.0
 37
0.0
 76
     0
330
1F
  0
LAYOUT
  5
51
102
{ACAD_REACTORS
330
1A
102
}
330
1A
100
AcDbPlotSettings
  1

  2
None
  4

  6

 40
0.0
 41
0.0
 42
0.0
 43
0.0
 44
0.0
 45
0.0
 46
0.0
 47
0.0
 48
0.0
 49
0.0
140
0.0
141
0.0
142
1.0
143
1.0
 70
   688
 72
     0
 73
     0
 74
     5
  7

 75
    16
147
1.0
148
0.0
149
0.0
100
AcDbLayout
  1
ﾚｲｱｳﾄ1
 70
     1
 71
     1
 10
0.0
 20
0.0
 11
12.0
 21
9.0
 12
0.0
 22
0.0
 32
0.0
 14
0.0
 24
0.0
 34
0.0
 15
0.0
 25
0.0
 35
0.0
146
0.0
 13
0.0
 23
0.0
 33
0.0
 16
1.0
 26
0.0
 36
0.0
 17
0.0
 27
1.0
 37
0.0
 76
     0
330
50
  0
MLINESTYLE
  5
18
102
{ACAD_REACTORS
330
17
102
}
330
17
100
AcDbMlineStyle
  2
STANDARD
 70
     0
  3

 62
   256
 51
90.0
 52
90.0
 71
     2
 49
0.5
 62
   256
  6
BYLAYER
 49
-0.5
 62
   256
  6
BYLAYER
  0
ACDBPLACEHOLDER
  5
F
102
{ACAD_REACTORS
330
E
102
}
330
E
  0
ENDSEC
  0
EOF
