  0
SECTION
  2
HEADER
  9
$ACADVER
  1
AC1015
  9
$ACADMAINTVER
 70
    10
  9
$DWGCODEPAGE
  3
ANSI_932
  9
$INSBASE
 10
0.0
 20
0.0
 30
0.0
  9
$EXTMIN
 10
428.8687775275831
 20
131.9022716369902
 30
0.0
  9
$EXTMAX
 10
979.301678578556
 20
667.5738921130228
 30
0.0
  9
$LIMMIN
 10
0.0
 20
0.0
  9
$LIMMAX
 10
420.0
 20
297.0
  9
$ORTHOMODE
 70
     1
  9
$REGENMODE
 70
     1
  9
$FILLMODE
 70
     1
  9
$QTEXTMODE
 70
     0
  9
$MIRRTEXT
 70
     1
  9
$LTSCALE
 40
1.0
  9
$ATTMODE
 70
     1
  9
$TEXTSIZE
 40
2.5
  9
$TRACEWID
 40
1.0
  9
$TEXTSTYLE
  7
Standard
  9
$CLAYER
  8
0
  9
$CELTYPE
  6
ByLayer
  9
$CECOLOR
 62
   256
  9
$CELTSCALE
 40
1.0
  9
$DISPSILH
 70
     0
  9
$DIMSCALE
 40
1.0
  9
$DIMASZ
 40
2.5
  9
$DIMEXO
 40
0.625
  9
$DIMDLI
 40
3.75
  9
$DIMRND
 40
0.0
  9
$DIMDLE
 40
0.0
  9
$DIMEXE
 40
1.25
  9
$DIMTP
 40
0.0
  9
$DIMTM
 40
0.0
  9
$DIMTXT
 40
2.5
  9
$DIMCEN
 40
2.5
  9
$DIMTSZ
 40
0.0
  9
$DIMTOL
 70
     0
  9
$DIMLIM
 70
     0
  9
$DIMTIH
 70
     0
  9
$DIMTOH
 70
     0
  9
$DIMSE1
 70
     0
  9
$DIMSE2
 70
     0
  9
$DIMTAD
 70
     1
  9
$DIMZIN
 70
     8
  9
$DIMBLK
  1

  9
$DIMASO
 70
     1
  9
$DIMSHO
 70
     1
  9
$DIMPOST
  1

  9
$DIMAPOST
  1

  9
$DIMALT
 70
     0
  9
$DIMALTD
 70
     3
  9
$DIMALTF
 40
0.03937007874016
  9
$DIMLFAC
 40
1.0
  9
$DIMTOFL
 70
     1
  9
$DIMTVP
 40
0.0
  9
$DIMTIX
 70
     0
  9
$DIMSOXD
 70
     0
  9
$DIMSAH
 70
     0
  9
$DIMBLK1
  1

  9
$DIMBLK2
  1

  9
$DIMSTYLE
  2
ISO-25
  9
$DIMCLRD
 70
     0
  9
$DIMCLRE
 70
     0
  9
$DIMCLRT
 70
     0
  9
$DIMTFAC
 40
1.0
  9
$DIMGAP
 40
0.625
  9
$DIMJUST
 70
     0
  9
$DIMSD1
 70
     0
  9
$DIMSD2
 70
     0
  9
$DIMTOLJ
 70
     0
  9
$DIMTZIN
 70
     8
  9
$DIMALTZ
 70
     0
  9
$DIMALTTZ
 70
     0
  9
$DIMUPT
 70
     0
  9
$DIMDEC
 70
     2
  9
$DIMTDEC
 70
     2
  9
$DIMALTU
 70
     2
  9
$DIMALTTD
 70
     3
  9
$DIMTXSTY
  7
Standard
  9
$DIMAUNIT
 70
     0
  9
$DIMADEC
 70
     0
  9
$DIMALTRND
 40
0.0
  9
$DIMAZIN
 70
     0
  9
$DIMDSEP
 70
    44
  9
$DIMATFIT
 70
     3
  9
$DIMFRAC
 70
     0
  9
$DIMLDRBLK
  1

  9
$DIMLUNIT
 70
     2
  9
$DIMLWD
 70
    -2
  9
$DIMLWE
 70
    -2
  9
$DIMTMOVE
 70
     0
  9
$LUNITS
 70
     2
  9
$LUPREC
 70
     4
  9
$SKETCHINC
 40
1.0
  9
$FILLETRAD
 40
10.0
  9
$AUNITS
 70
     0
  9
$AUPREC
 70
     0
  9
$MENU
  1
.
  9
$ELEVATION
 40
0.0
  9
$PELEVATION
 40
0.0
  9
$THICKNESS
 40
0.0
  9
$LIMCHECK
 70
     0
  9
$CHAMFERA
 40
10.0
  9
$CHAMFERB
 40
10.0
  9
$CHAMFERC
 40
20.0
  9
$CHAMFERD
 40
0.0
  9
$SKPOLY
 70
     0
  9
$TDCREATE
 40
2456497.755120127
  9
$TDUCREATE
 40
2456497.380120127
  9
$TDUPDATE
 40
2456500.618448426
  9
$TDUUPDATE
 40
2456500.243448426
  9
$TDINDWG
 40
0.0201605093
  9
$TDUSRTIMER
 40
0.0201596065
  9
$USRTIMER
 70
     1
  9
$ANGBASE
 50
0.0
  9
$ANGDIR
 70
     0
  9
$PDMODE
 70
     0
  9
$PDSIZE
 40
0.0
  9
$PLINEWID
 40
0.0
  9
$SPLFRAME
 70
     0
  9
$SPLINETYPE
 70
     6
  9
$SPLINESEGS
 70
     8
  9
$HANDSEED
  5
8FE
  9
$SURFTAB1
 70
     6
  9
$SURFTAB2
 70
     6
  9
$SURFTYPE
 70
     6
  9
$SURFU
 70
     6
  9
$SURFV
 70
     6
  9
$UCSBASE
  2

  9
$UCSNAME
  2

  9
$UCSORG
 10
0.0
 20
0.0
 30
0.0
  9
$UCSXDIR
 10
1.0
 20
0.0
 30
0.0
  9
$UCSYDIR
 10
0.0
 20
1.0
 30
0.0
  9
$UCSORTHOREF
  2

  9
$UCSORTHOVIEW
 70
     0
  9
$UCSORGTOP
 10
0.0
 20
0.0
 30
0.0
  9
$UCSORGBOTTOM
 10
0.0
 20
0.0
 30
0.0
  9
$UCSORGLEFT
 10
0.0
 20
0.0
 30
0.0
  9
$UCSORGRIGHT
 10
0.0
 20
0.0
 30
0.0
  9
$UCSORGFRONT
 10
0.0
 20
0.0
 30
0.0
  9
$UCSORGBACK
 10
0.0
 20
0.0
 30
0.0
  9
$PUCSBASE
  2

  9
$PUCSNAME
  2

  9
$PUCSORG
 10
0.0
 20
0.0
 30
0.0
  9
$PUCSXDIR
 10
1.0
 20
0.0
 30
0.0
  9
$PUCSYDIR
 10
0.0
 20
1.0
 30
0.0
  9
$PUCSORTHOREF
  2

  9
$PUCSORTHOVIEW
 70
     0
  9
$PUCSORGTOP
 10
0.0
 20
0.0
 30
0.0
  9
$PUCSORGBOTTOM
 10
0.0
 20
0.0
 30
0.0
  9
$PUCSORGLEFT
 10
0.0
 20
0.0
 30
0.0
  9
$PUCSORGRIGHT
 10
0.0
 20
0.0
 30
0.0
  9
$PUCSORGFRONT
 10
0.0
 20
0.0
 30
0.0
  9
$PUCSORGBACK
 10
0.0
 20
0.0
 30
0.0
  9
$USERI1
 70
     0
  9
$USERI2
 70
     0
  9
$USERI3
 70
     0
  9
$USERI4
 70
     0
  9
$USERI5
 70
     0
  9
$USERR1
 40
0.0
  9
$USERR2
 40
0.0
  9
$USERR3
 40
0.0
  9
$USERR4
 40
0.0
  9
$USERR5
 40
0.0
  9
$WORLDVIEW
 70
     1
  9
$SHADEDGE
 70
     3
  9
$SHADEDIF
 70
    70
  9
$TILEMODE
 70
     1
  9
$MAXACTVP
 70
    64
  9
$PINSBASE
 10
0.0
 20
0.0
 30
0.0
  9
$PLIMCHECK
 70
     0
  9
$PEXTMIN
 10
0.0
 20
0.0
 30
0.0
  9
$PEXTMAX
 10
0.0
 20
0.0
 30
0.0
  9
$PLIMMIN
 10
0.0
 20
0.0
  9
$PLIMMAX
 10
12.0
 20
9.0
  9
$UNITMODE
 70
     0
  9
$VISRETAIN
 70
     1
  9
$PLINEGEN
 70
     0
  9
$PSLTSCALE
 70
     1
  9
$TREEDEPTH
 70
  3020
  9
$CMLSTYLE
  2
Standard
  9
$CMLJUST
 70
     0
  9
$CMLSCALE
 40
20.0
  9
$PROXYGRAPHICS
 70
     1
  9
$MEASUREMENT
 70
     1
  9
$CELWEIGHT
370
    -1
  9
$ENDCAPS
280
     0
  9
$JOINSTYLE
280
     0
  9
$LWDISPLAY
290
     0
  9
$INSUNITS
 70
     4
  9
$HYPERLINKBASE
  1

  9
$STYLESHEET
  1

  9
$XEDIT
290
     1
  9
$CEPSNTYPE
380
     0
  9
$PSTYLEMODE
290
     1
  9
$FINGERPRINTGUID
  2
{FDEAD578-A652-11D2-9A35-0060089B3A3F}
  9
$VERSIONGUID
  2
{1BFA9C56-CDA7-4C05-AD19-255A9213F6B9}
  9
$EXTNAMES
290
     1
  9
$PSVPSCALE
 40
0.0
  9
$OLESTARTUP
290
     0
  0
ENDSEC
  0
SECTION
  2
CLASSES
  0
CLASS
  1
ACDBDICTIONARYWDFLT
  2
AcDbDictionaryWithDefault
  3
AutoCAD 2000
 90
        0
280
     0
281
     0
  0
CLASS
  1
ACDBPLACEHOLDER
  2
AcDbPlaceHolder
  3
AutoCAD 2000
 90
        0
280
     0
281
     0
  0
CLASS
  1
LAYOUT
  2
AcDbLayout
  3
AutoCAD 2000
 90
        0
280
     0
281
     0
  0
ENDSEC
  0
SECTION
  2
TABLES
  0
TABLE
  2
VPORT
  5
8
330
0
100
AcDbSymbolTable
 70
     2
  0
VPORT
  5
8FD
330
8
100
AcDbSymbolTableRecord
100
AcDbViewportTableRecord
  2
*Active
 70
     0
 10
0.0
 20
0.0
 11
1.0
 21
1.0
 12
722.6362349183228
 22
403.560785622124
 13
0.0
 23
0.0
 14
10.0
 24
10.0
 15
10.0
 25
10.0
 16
0.0
 26
0.0
 36
1.0
 17
0.0
 27
0.0
 37
0.0
 40
638.6137935789649
 41
1.781954887218045
 42
50.0
 43
0.0
 44
0.0
 50
0.0
 51
0.0
 71
     0
 72
   100
 73
     1
 74
     3
 75
     0
 76
     0
 77
     0
 78
     0
281
     0
 65
     1
110
0.0
120
0.0
130
0.0
111
1.0
121
0.0
131
0.0
112
0.0
122
1.0
132
0.0
 79
     0
146
0.0
  0
ENDTAB
  0
TABLE
  2
LTYPE
  5
5
330
0
100
AcDbSymbolTable
 70
     2
  0
LTYPE
  5
14
330
5
100
AcDbSymbolTableRecord
100
AcDbLinetypeTableRecord
  2
ByBlock
 70
     0
  3

 72
    65
 73
     0
 40
0.0
  0
LTYPE
  5
15
330
5
100
AcDbSymbolTableRecord
100
AcDbLinetypeTableRecord
  2
ByLayer
 70
     0
  3

 72
    65
 73
     0
 40
0.0
  0
LTYPE
  5
16
330
5
100
AcDbSymbolTableRecord
100
AcDbLinetypeTableRecord
  2
Continuous
 70
     0
  3
Solid line
 72
    65
 73
     0
 40
0.0
  0
LTYPE
  5
517
330
5
100
AcDbSymbolTableRecord
100
AcDbLinetypeTableRecord
  2
DASHED
 70
     0
  3
DASHED
 72
    65
 73
     2
 40
0.75
 49
0.5
 74
     0
 49
-0.25
 74
     0
  0
ENDTAB
  0
TABLE
  2
LAYER
  5
2
330
0
100
AcDbSymbolTable
 70
     1
  0
LAYER
  5
10
330
2
100
AcDbSymbolTableRecord
100
AcDbLayerTableRecord
  2
0
 70
     0
 62
     7
  6
Continuous
370
    -3
390
F
  0
ENDTAB
  0
TABLE
  2
STYLE
  5
3
330
0
100
AcDbSymbolTable
 70
     2
  0
STYLE
  5
11
330
3
100
AcDbSymbolTableRecord
100
AcDbTextStyleTableRecord
  2
Standard
 70
     0
 40
0.0
 41
1.0
 50
0.0
 71
     0
 42
2.5
  3
txt
  4

  0
STYLE
  5
67
330
3
100
AcDbSymbolTableRecord
100
AcDbTextStyleTableRecord
  2
_TCW_TXTSTY_1
 70
     0
 40
0.0
 41
1.0
 50
0.0
 71
     0
 42
0.696969687939
  3
MS PGothic.ttf
  4

1001
ACAD
1000
ＭＳ Ｐゴシック
1071
    32802
  0
ENDTAB
  0
TABLE
  2
VIEW
  5
6
330
0
100
AcDbSymbolTable
 70
     0
  0
ENDTAB
  0
TABLE
  2
UCS
  5
7
330
0
100
AcDbSymbolTable
 70
     0
  0
ENDTAB
  0
TABLE
  2
APPID
  5
9
330
0
100
AcDbSymbolTable
 70
     2
  0
APPID
  5
12
330
9
100
AcDbSymbolTableRecord
100
AcDbRegAppTableRecord
  2
ACAD
 70
     0
  0
APPID
  5
69
330
9
100
AcDbSymbolTableRecord
100
AcDbRegAppTableRecord
  2
TCAD
 70
     0
  0
ENDTAB
  0
TABLE
  2
DIMSTYLE
  5
A
330
0
100
AcDbSymbolTable
 70
     2
100
AcDbDimStyleTable
 71
     1
340
27
  0
DIMSTYLE
105
27
330
A
100
AcDbSymbolTableRecord
100
AcDbDimStyleTableRecord
  2
ISO-25
 70
     0
 41
2.5
 42
0.625
 43
3.75
 44
1.25
 73
     0
 74
     0
 77
     1
 78
     8
140
2.5
141
2.5
143
0.03937007874016
147
0.625
171
     3
172
     1
271
     2
272
     2
274
     3
278
    44
283
     0
284
     8
340
11
  0
DIMSTYLE
105
68
330
A
100
AcDbSymbolTableRecord
100
AcDbDimStyleTableRecord
  2
STANDARD
 70
     0
 41
3.0
 42
1.0
 43
7.5
 44
2.0
 45
0.1
 73
     0
 74
     0
 77
     1
 78
     8
140
2.439393939393998
143
0.333333333333
144
3.0
147
0.5
148
0.01
176
     7
177
     7
178
     7
179
     2
271
     2
272
     8
274
     8
286
     8
340
67
341
61
342
61
  0
ENDTAB
  0
TABLE
  2
BLOCK_RECORD
  5
1
330
0
100
AcDbSymbolTable
 70
     1
  0
BLOCK_RECORD
  5
1F
330
1
100
AcDbSymbolTableRecord
100
AcDbBlockTableRecord
  2
*Model_Space
340
22
  0
BLOCK_RECORD
  5
50
330
1
100
AcDbSymbolTableRecord
100
AcDbBlockTableRecord
  2
*Paper_Space
340
51
  0
BLOCK_RECORD
  5
61
330
1
100
AcDbSymbolTableRecord
100
AcDbBlockTableRecord
  2
_OPEN
340
0
  0
ENDTAB
  0
ENDSEC
  0
SECTION
  2
BLOCKS
  0
BLOCK
  5
20
330
1F
100
AcDbEntity
  8
0
100
AcDbBlockBegin
  2
*Model_Space
 70
     0
 10
0.0
 20
0.0
 30
0.0
  3
*Model_Space
  1

  0
ENDBLK
  5
21
330
1F
100
AcDbEntity
  8
0
100
AcDbBlockEnd
  0
BLOCK
  5
52
330
50
100
AcDbEntity
 67
     1
  8
0
100
AcDbBlockBegin
  2
*Paper_Space
 70
     0
 10
0.0
 20
0.0
 30
0.0
  3
*Paper_Space
  1

  0
ENDBLK
  5
53
330
50
100
AcDbEntity
 67
     1
  8
0
100
AcDbBlockEnd
  0
BLOCK
  5
65
330
61
100
AcDbEntity
  8
0
100
AcDbBlockBegin
  2
_OPEN
 70
     0
 10
0.0
 20
0.0
 30
0.0
  3
_OPEN
  1

  0
LINE
  5
62
330
61
100
AcDbEntity
  8
0
  6
ByBlock
 62
     0
100
AcDbLine
 10
-1.0
 20
0.166667
 30
0.0
 11
0.0
 21
0.0
 31
0.0
  0
LINE
  5
63
330
61
100
AcDbEntity
  8
0
  6
ByBlock
 62
     0
100
AcDbLine
 10
0.0
 20
0.0
 30
0.0
 11
-1.0
 21
-0.166667
 31
0.0
  0
LINE
  5
64
330
61
100
AcDbEntity
  8
0
  6
ByBlock
 62
     0
100
AcDbLine
 10
0.0
 20
0.0
 30
0.0
 11
-1.0
 21
0.0
 31
0.0
  0
ENDBLK
  5
66
330
61
100
AcDbEntity
  8
0
100
AcDbBlockEnd
  0
ENDSEC
  0
SECTION
  2
ENTITIES
  0
LINE
  5
2C3
330
1F
100
AcDbEntity
  8
0
  6
Continuous
 62
     7
100
AcDbLine
 10
979.301678578556
 20
170.9169932080403
 30
0.0
 11
979.301678578556
 21
665.9170377580907
 31
0.0
  0
LINE
  5
2C4
330
1F
100
AcDbEntity
  8
0
  6
Continuous
 62
     7
100
AcDbLine
 10
978.1016785785556
 20
170.9169932080403
 30
0.0
 11
978.1016785785556
 21
195.9169954580429
 31
0.0
  0
LINE
  5
2C5
330
1F
100
AcDbEntity
  8
0
  6
Continuous
 62
     7
100
AcDbLine
 10
860.301678578542
 20
131.9022716371852
 30
0.0
 11
860.301678578542
 21
195.9169954580429
 31
0.0
  0
LINE
  5
2C6
330
1F
100
AcDbEntity
  8
0
  6
Continuous
 62
     7
100
AcDbLine
 10
810.3016785785367
 20
195.9169954580429
 30
0.0
 11
810.3016785785367
 21
131.9022716371852
 31
0.0
  0
LINE
  5
2C7
330
1F
100
AcDbEntity
  8
0
  6
Continuous
 62
     7
100
AcDbLine
 10
557.8016695785156
 20
195.9169954580429
 30
0.0
 11
557.8016695785156
 21
178.9169939280411
 31
0.0
  0
LINE
  5
2C8
330
1F
100
AcDbEntity
  8
0
  6
Continuous
 62
     7
100
AcDbLine
 10
432.8016695785041
 20
178.9169939280411
 30
0.0
 11
432.8016695785041
 21
195.9169954580429
 31
0.0
  0
LINE
  5
2C9
330
1F
100
AcDbEntity
  8
0
  6
Continuous
 62
     7
100
AcDbLine
 10
490.8016695785093
 20
172.9169933880405
 30
0.0
 11
490.8016695785093
 21
183.9169943780419
 31
0.0
  0
LINE
  5
2CA
330
1F
100
AcDbEntity
  8
0
  6
Continuous
 62
     7
100
AcDbLine
 10
499.8016695785103
 20
172.9169933880405
 30
0.0
 11
499.8016695785103
 21
183.9169943780419
 31
0.0
  0
LINE
  5
2CB
330
1F
100
AcDbEntity
  8
0
  6
Continuous
 62
     7
100
AcDbLine
 10
528.0016695305604
 20
195.9169954580429
 30
0.0
 11
528.0016695305604
 21
131.9022716369902
 31
0.0
  0
LINE
  5
2CC
330
1F
100
AcDbEntity
  8
0
  6
Continuous
 62
     7
100
AcDbLine
 10
538.0016695305616
 20
131.9022716369902
 30
0.0
 11
538.0016695305616
 21
195.9169954580429
 31
0.0
  0
LINE
  5
2CD
330
1F
100
AcDbEntity
  8
0
  6
Continuous
 62
     7
100
AcDbLine
 10
468.0014703305293
 20
131.9022716371852
 30
0.0
 11
468.0014703305293
 21
195.9169954580429
 31
0.0
  0
LINE
  5
2CE
330
1F
100
AcDbEntity
  8
0
  6
Continuous
 62
     7
100
AcDbLine
 10
458.001470330528
 20
195.9169954580429
 30
0.0
 11
458.001470330528
 21
131.9022716371852
 31
0.0
  0
LINE
  5
2CF
330
1F
100
AcDbEntity
  8
0
  6
Continuous
 62
     7
100
AcDbLine
 10
488.8016695785093
 20
170.9169932080403
 30
0.0
 11
468.0014703305293
 21
170.9169932080403
 31
0.0
  0
ARC
  5
2D0
330
1F
100
AcDbEntity
  8
0
  6
Continuous
 62
     7
100
AcDbCircle
 10
440.8016695785111
 20
178.9169932080475
 30
0.0
 40
8.000000000007384
100
AcDbArc
 50
179.9999948434278
 51
269.9999999999511
  0
LINE
  5
2D1
330
1F
100
AcDbEntity
  8
0
  6
Continuous
 62
     7
100
AcDbLine
 10
458.001470330528
 20
170.9169932080403
 30
0.0
 11
440.8016695785049
 21
170.9169932080403
 31
0.0
  0
LINE
  5
2D2
330
1F
100
AcDbEntity
  8
0
  6
Continuous
 62
     7
100
AcDbLine
 10
458.001470330528
 20
131.9022716371852
 30
0.0
 11
468.0014703305293
 21
131.9022716371852
 31
0.0
  0
LINE
  5
2D3
330
1F
100
AcDbEntity
  8
0
  6
Continuous
 62
     7
100
AcDbLine
 10
528.0016695305604
 20
131.9022716369902
 30
0.0
 11
538.0016695305616
 21
131.9022716369902
 31
0.0
  0
ARC
  5
2D4
330
1F
100
AcDbEntity
  8
0
  6
Continuous
 62
     7
100
AcDbCircle
 10
549.8016695785077
 20
178.9169932080475
 30
0.0
 40
8.000000000007416
100
AcDbArc
 50
270.0000000000455
 51
0.0000051565721366
  0
ARC
  5
2D5
330
1F
100
AcDbEntity
  8
0
  6
Continuous
 62
     7
100
AcDbCircle
 10
488.8016695785073
 20
172.9169932080419
 30
0.0
 40
2.000000000002016
100
AcDbArc
 50
270.0000000000521
 51
0.0000051565753935
  0
ARC
  5
2D6
330
1F
100
AcDbEntity
  8
0
  6
Continuous
 62
     7
100
AcDbCircle
 10
501.8016695785113
 20
172.9169932080419
 30
0.0
 40
2.000000000001982
100
AcDbArc
 50
179.9999948434246
 51
269.9999999999478
  0
LINE
  5
2D7
330
1F
100
AcDbEntity
  8
0
  6
Continuous
 62
     7
100
AcDbLine
 10
549.8016695785151
 20
170.9169932080403
 30
0.0
 11
538.0016695305616
 21
170.9169932080403
 31
0.0
  0
LINE
  5
2D8
330
1F
100
AcDbEntity
  8
0
  6
Continuous
 62
     7
100
AcDbLine
 10
528.0016695305604
 20
170.9169932080403
 30
0.0
 11
501.8016695785106
 21
170.9169932080403
 31
0.0
  0
LINE
  5
2D9
330
1F
100
AcDbEntity
  8
0
  6
Continuous
 62
     7
100
AcDbLine
 10
810.3016785785367
 20
131.9022716371852
 30
0.0
 11
860.301678578542
 21
131.9022716371852
 31
0.0
  0
CIRCLE
  5
2DA
330
1F
100
AcDbEntity
  8
0
  6
Continuous
 62
     7
100
AcDbCircle
 10
835.3016782970142
 20
156.9022741682401
 30
0.0
 40
6.25000028125317
  0
LINE
  5
2DB
330
1F
100
AcDbEntity
  8
0
  6
Continuous
 62
     7
100
AcDbLine
 10
978.1016785785556
 20
170.9169932080403
 30
0.0
 11
979.301678578556
 21
170.9169932080403
 31
0.0
  0
CIRCLE
  5
2DC
330
1F
100
AcDbEntity
  8
0
  6
Continuous
 62
     7
100
AcDbCircle
 10
897.8016810733333
 20
216.9170026733852
 30
0.0
 40
5.000000225001488
  0
CIRCLE
  5
2DD
330
1F
100
AcDbEntity
  8
0
  6
Continuous
 62
     7
100
AcDbCircle
 10
897.8016810733333
 20
216.9170026733852
 30
0.0
 40
3.900000225004218
  0
CIRCLE
  5
2DE
330
1F
100
AcDbEntity
  8
0
  6
Continuous
 62
     7
100
AcDbCircle
 10
897.8016810238321
 20
391.9170184729046
 30
0.0
 40
3.900000225004218
  0
CIRCLE
  5
2DF
330
1F
100
AcDbEntity
  8
0
  6
Continuous
 62
     7
100
AcDbCircle
 10
897.8016810238321
 20
391.9170184729046
 30
0.0
 40
5.000000225001488
  0
CIRCLE
  5
2E0
330
1F
100
AcDbEntity
  8
0
  6
Continuous
 62
     7
100
AcDbCircle
 10
897.8016810238321
 20
566.9170342229223
 30
0.0
 40
5.000000225001488
  0
CIRCLE
  5
2E1
330
1F
100
AcDbEntity
  8
0
  6
Continuous
 62
     7
100
AcDbCircle
 10
897.8016810238321
 20
566.9170342229223
 30
0.0
 40
3.900000225004218
  0
LINE
  5
2E2
330
1F
100
AcDbEntity
  8
0
  6
Continuous
 62
     7
100
AcDbLine
 10
979.301678578556
 20
635.9170350580877
 30
0.0
 11
750.1016785785346
 21
635.9170350580877
 31
0.0
  0
LINE
  5
2E3
330
1F
100
AcDbEntity
  8
0
  6
Continuous
 62
     7
 48
6.0
100
AcDbLine
 10
895.2016837390704
 20
566.2670348454081
 30
0.0
 11
897.1516837390739
 21
566.2670348454177
 31
0.0
  0
LINE
  5
2E4
330
1F
100
AcDbEntity
  8
0
  6
Continuous
 62
     7
 48
6.0
100
AcDbLine
 10
897.1516837390678
 20
567.5670349624173
 30
0.0
 11
895.2016837390486
 21
567.5670349624083
 31
0.0
  0
LINE
  5
2E5
330
1F
100
AcDbEntity
  8
0
  6
Continuous
 62
     7
 48
6.0
100
AcDbLine
 10
895.2016837390704
 20
391.2670190953907
 30
0.0
 11
897.1516837390739
 21
391.2670190953988
 31
0.0
  0
LINE
  5
2E6
330
1F
100
AcDbEntity
  8
0
  6
Continuous
 62
     7
 48
6.0
100
AcDbLine
 10
897.1516837390678
 20
392.5670192123991
 30
0.0
 11
895.2016837390486
 21
392.5670192123908
 31
0.0
  0
LINE
  5
2E7
330
1F
100
AcDbEntity
  8
0
  6
Continuous
 62
     7
100
AcDbLine
 10
750.1016785785346
 20
195.9169954580429
 30
0.0
 11
979.301678578556
 21
195.9169954580429
 31
0.0
  0
LINE
  5
2E8
330
1F
100
AcDbEntity
  8
0
  6
Continuous
 62
     7
 48
6.0
100
AcDbLine
 10
895.2016837390704
 20
216.2670033453729
 30
0.0
 11
897.1516837390739
 21
216.2670033453813
 31
0.0
  0
LINE
  5
2E9
330
1F
100
AcDbEntity
  8
0
  6
Continuous
 62
     7
 48
6.0
100
AcDbLine
 10
897.1516837390678
 20
217.5670034623818
 30
0.0
 11
895.2016837390486
 21
217.5670034623731
 31
0.0
  0
LINE
  5
2EA
330
1F
100
AcDbEntity
  8
0
  6
Continuous
 62
     7
100
AcDbLine
 10
750.1016785785346
 20
635.9170350580877
 30
0.0
 11
750.1016785785346
 21
195.9169954580429
 31
0.0
  0
LINE
  5
2EB
330
1F
100
AcDbEntity
  8
0
  6
Continuous
 62
     7
100
AcDbLine
 10
751.3016785785342
 20
635.9170350580877
 30
0.0
 11
751.3016785785342
 21
195.9169954580429
 31
0.0
  0
LINE
  5
2EC
330
1F
100
AcDbEntity
  8
0
  6
Continuous
 62
     7
100
AcDbLine
 10
559.0016695785158
 20
635.9170350580877
 30
0.0
 11
559.0016695785158
 21
195.9169954580429
 31
0.0
  0
LINE
  5
2ED
330
1F
100
AcDbEntity
  8
0
  6
Continuous
 62
     7
100
AcDbLine
 10
431.6016695785042
 20
195.9169954580429
 30
0.0
 11
431.6016695785042
 21
635.9170350580877
 31
0.0
  0
LINE
  5
2EE
330
1F
100
AcDbEntity
  8
0
  6
Continuous
 62
     7
100
AcDbLine
 10
559.0016695785158
 20
195.9169954580429
 30
0.0
 11
431.6016695785042
 21
195.9169954580429
 31
0.0
  0
CIRCLE
  5
2EF
330
1F
100
AcDbEntity
  8
0
  6
Continuous
 62
     7
100
AcDbCircle
 10
437.5016751655486
 20
245.9170039077462
 30
0.0
 40
3.000000135000763
  0
LINE
  5
2F0
330
1F
100
AcDbEntity
  8
0
  6
Continuous
 62
     7
 48
6.0
100
AcDbLine
 10
439.5016772161159
 20
245.4170044246763
 30
0.0
 11
439.5016772161159
 21
245.4170044246763
 31
0.0
  0
LINE
  5
2F1
330
1F
100
AcDbEntity
  8
0
  6
Continuous
 62
     7
 48
6.0
100
AcDbLine
 10
438.0016772161034
 20
245.4170044246709
 30
0.0
 11
439.5016772161159
 21
245.4170044246763
 31
0.0
  0
LINE
  5
2F2
330
1F
100
AcDbEntity
  8
0
  6
Continuous
 62
     7
 48
6.0
100
AcDbLine
 10
438.0016772161128
 20
243.9170042896706
 30
0.0
 11
438.0016772161034
 21
245.4170044246709
 31
0.0
  0
LINE
  5
2F3
330
1F
100
AcDbEntity
  8
0
  6
Continuous
 62
     7
 48
6.0
100
AcDbLine
 10
437.0016772161242
 20
243.9170042896642
 30
0.0
 11
438.0016772161128
 21
243.9170042896706
 31
0.0
  0
LINE
  5
2F4
330
1F
100
AcDbEntity
  8
0
  6
Continuous
 62
     7
 48
6.0
100
AcDbLine
 10
437.001677216118
 20
245.417004424664
 30
0.0
 11
437.0016772161242
 21
243.9170042896642
 31
0.0
  0
LINE
  5
2F5
330
1F
100
AcDbEntity
  8
0
  6
Continuous
 62
     7
 48
6.0
100
AcDbLine
 10
435.501677216115
 20
245.4170044246581
 30
0.0
 11
437.001677216118
 21
245.417004424664
 31
0.0
  0
LINE
  5
2F6
330
1F
100
AcDbEntity
  8
0
  6
Continuous
 62
     7
 48
6.0
100
AcDbLine
 10
435.5016772161
 20
246.4170045146579
 30
0.0
 11
435.501677216115
 21
245.4170044246581
 31
0.0
  0
LINE
  5
2F7
330
1F
100
AcDbEntity
  8
0
  6
Continuous
 62
     7
 48
6.0
100
AcDbLine
 10
437.0016772161121
 20
246.4170045146644
 30
0.0
 11
435.5016772161
 21
246.4170045146579
 31
0.0
  0
LINE
  5
2F8
330
1F
100
AcDbEntity
  8
0
  6
Continuous
 62
     7
 48
6.0
100
AcDbLine
 10
437.0016772161035
 20
247.9170046496646
 30
0.0
 11
437.0016772161121
 21
246.4170045146644
 31
0.0
  0
LINE
  5
2F9
330
1F
100
AcDbEntity
  8
0
  6
Continuous
 62
     7
 48
6.0
100
AcDbLine
 10
438.0016772160908
 20
247.9170046496709
 30
0.0
 11
437.0016772161035
 21
247.9170046496646
 31
0.0
  0
LINE
  5
2FA
330
1F
100
AcDbEntity
  8
0
  6
Continuous
 62
     7
 48
6.0
100
AcDbLine
 10
438.0016772161128
 20
246.4170045146708
 30
0.0
 11
438.0016772160908
 21
247.9170046496709
 31
0.0
  0
LINE
  5
2FB
330
1F
100
AcDbEntity
  8
0
  6
Continuous
 62
     7
 48
6.0
100
AcDbLine
 10
439.5016772161119
 20
246.4170045146766
 30
0.0
 11
438.0016772161128
 21
246.4170045146708
 31
0.0
  0
LINE
  5
2FC
330
1F
100
AcDbEntity
  8
0
  6
Continuous
 62
     7
 48
6.0
100
AcDbLine
 10
439.5016772161159
 20
245.4170044246763
 30
0.0
 11
439.5016772161119
 21
246.4170045146766
 31
0.0
  0
ARC
  5
2FD
330
1F
100
AcDbEntity
  8
0
  6
Continuous
 62
     7
100
AcDbCircle
 10
437.5016695785033
 20
240.9169995080453
 30
0.0
 40
4.000000230402283
100
AcDbArc
 50
126.8697968159502
 51
53.13007351914047
  0
LINE
  5
2FE
330
1F
100
AcDbEntity
  8
0
  6
Continuous
 62
     7
100
AcDbLine
 10
429.2001484283932
 20
218.3170026238876
 30
0.0
 11
429.2001484283932
 21
215.5170023718874
 31
0.0
  0
ARC
  5
2FF
330
1F
100
AcDbEntity
  8
0
  6
Continuous
 62
     7
100
AcDbCircle
 10
430.8001484283955
 20
215.5170022278881
 30
0.0
 40
1.60000000000175
100
AcDbArc
 50
179.9999948434213
 51
269.9999999999446
  0
LINE
  5
300
330
1F
100
AcDbEntity
  8
0
  6
Continuous
 62
     7
100
AcDbLine
 10
430.8001484283934
 20
213.9170022278868
 30
0.0
 11
431.2001484283933
 21
213.9170022278868
 31
0.0
  0
LINE
  5
301
330
1F
100
AcDbEntity
  8
0
  6
Continuous
 62
     7
100
AcDbLine
 10
430.8001484283934
 20
219.9170027678879
 30
0.0
 11
431.2001484283933
 21
219.9170027678879
 31
0.0
  0
ARC
  5
302
330
1F
100
AcDbEntity
  8
0
  6
Continuous
 62
     7
100
AcDbCircle
 10
430.8001484283951
 20
218.3170027678855
 30
0.0
 40
1.600000000001458
100
AcDbArc
 50
90.00000000004888
 51
180.0000051565719
  0
CIRCLE
  5
303
330
1F
100
AcDbEntity
  8
0
  6
Continuous
 62
     7
100
AcDbCircle
 10
506.6542872598254
 20
188.6423405945311
 30
0.0
 40
2.875387080720589
  0
CIRCLE
  5
304
330
1F
100
AcDbEntity
  8
0
  6
Continuous
 62
     7
100
AcDbCircle
 10
506.6542872598254
 20
188.6423405945311
 30
0.0
 40
2.211840099534537
  0
CIRCLE
  5
305
330
1F
100
AcDbEntity
  8
0
  6
Continuous
 62
     7
100
AcDbCircle
 10
553.5016751655588
 20
245.9170039077462
 30
0.0
 40
3.000000135000719
  0
LINE
  5
306
330
1F
100
AcDbEntity
  8
0
  6
Continuous
 62
     7
100
AcDbLine
 10
503.0542836584213
 20
195.9169954580429
 30
0.0
 11
503.0542836584213
 21
188.6423380314065
 31
0.0
  0
LINE
  5
307
330
1F
100
AcDbEntity
  8
0
  6
Continuous
 62
     7
100
AcDbLine
 10
510.2542843784219
 20
195.9169954580429
 30
0.0
 11
510.2542843784219
 21
188.6423380314065
 31
0.0
  0
ARC
  5
308
330
1F
100
AcDbEntity
  8
0
  6
Continuous
 62
     7
100
AcDbCircle
 10
506.6542873593591
 20
188.642340494999
 30
0.0
 40
3.600000503050238
100
AcDbArc
 50
180.0000392092902
 51
359.9999607907097
  0
LINE
  5
309
330
1F
100
AcDbEntity
  8
0
  6
Continuous
 62
     7
 48
3.0
100
AcDbLine
 10
508.1288487716701
 20
188.2737009756548
 30
0.0
 11
508.1288487716701
 21
188.2737009756548
 31
0.0
  0
LINE
  5
30A
330
1F
100
AcDbEntity
  8
0
  6
Continuous
 62
     7
 48
3.0
100
AcDbLine
 10
507.0229287716613
 20
188.2737009756518
 30
0.0
 11
508.1288487716701
 21
188.2737009756548
 31
0.0
  0
LINE
  5
30B
330
1F
100
AcDbEntity
  8
0
  6
Continuous
 62
     7
 48
3.0
100
AcDbLine
 10
507.0229287716667
 20
187.1677808761178
 30
0.0
 11
507.0229287716613
 21
188.2737009756518
 31
0.0
  0
LINE
  5
30C
330
1F
100
AcDbEntity
  8
0
  6
Continuous
 62
     7
 48
3.0
100
AcDbLine
 10
506.2856487716756
 20
187.1677808761145
 30
0.0
 11
507.0229287716667
 21
187.1677808761178
 31
0.0
  0
LINE
  5
30D
330
1F
100
AcDbEntity
  8
0
  6
Continuous
 62
     7
 48
3.0
100
AcDbLine
 10
506.2856487716699
 20
188.2737009756461
 30
0.0
 11
506.2856487716756
 21
187.1677808761145
 31
0.0
  0
LINE
  5
30E
330
1F
100
AcDbEntity
  8
0
  6
Continuous
 62
     7
 48
3.0
100
AcDbLine
 10
505.1797287716697
 20
188.2737009756398
 30
0.0
 11
506.2856487716699
 21
188.2737009756461
 31
0.0
  0
LINE
  5
30F
330
1F
100
AcDbEntity
  8
0
  6
Continuous
 62
     7
 48
3.0
100
AcDbLine
 10
505.1797287716549
 20
189.0109810419968
 30
0.0
 11
505.1797287716697
 21
188.2737009756398
 31
0.0
  0
LINE
  5
310
330
1F
100
AcDbEntity
  8
0
  6
Continuous
 62
     7
 48
3.0
100
AcDbLine
 10
506.2856487716638
 20
189.010981042003
 30
0.0
 11
505.1797287716549
 21
189.0109810419968
 31
0.0
  0
LINE
  5
311
330
1F
100
AcDbEntity
  8
0
  6
Continuous
 62
     7
 48
3.0
100
AcDbLine
 10
506.285648771658
 20
190.116901141534
 30
0.0
 11
506.2856487716638
 21
189.010981042003
 31
0.0
  0
LINE
  5
312
330
1F
100
AcDbEntity
  8
0
  6
Continuous
 62
     7
 48
3.0
100
AcDbLine
 10
507.0229287716521
 20
190.1169011415366
 30
0.0
 11
506.285648771658
 21
190.116901141534
 31
0.0
  0
LINE
  5
313
330
1F
100
AcDbEntity
  8
0
  6
Continuous
 62
     7
 48
3.0
100
AcDbLine
 10
507.0229287716667
 20
189.0109810420061
 30
0.0
 11
507.0229287716521
 21
190.1169011415366
 31
0.0
  0
LINE
  5
314
330
1F
100
AcDbEntity
  8
0
  6
Continuous
 62
     7
 48
3.0
100
AcDbLine
 10
508.1288487716639
 20
189.0109810420117
 30
0.0
 11
507.0229287716667
 21
189.0109810420061
 31
0.0
  0
LINE
  5
315
330
1F
100
AcDbEntity
  8
0
  6
Continuous
 62
     7
 48
3.0
100
AcDbLine
 10
508.1288487716701
 20
188.2737009756548
 30
0.0
 11
508.1288487716639
 21
189.0109810420117
 31
0.0
  0
LINE
  5
316
330
1F
100
AcDbEntity
  8
0
  6
Continuous
 62
     7
 48
6.0
100
AcDbLine
 10
555.5016772161264
 20
245.4170044246763
 30
0.0
 11
555.5016772161264
 21
245.4170044246763
 31
0.0
  0
LINE
  5
317
330
1F
100
AcDbEntity
  8
0
  6
Continuous
 62
     7
 48
6.0
100
AcDbLine
 10
554.0016772161143
 20
245.4170044246709
 30
0.0
 11
555.5016772161264
 21
245.4170044246763
 31
0.0
  0
LINE
  5
318
330
1F
100
AcDbEntity
  8
0
  6
Continuous
 62
     7
 48
6.0
100
AcDbLine
 10
554.0016772161226
 20
243.9170042896706
 30
0.0
 11
554.0016772161143
 21
245.4170044246709
 31
0.0
  0
LINE
  5
319
330
1F
100
AcDbEntity
  8
0
  6
Continuous
 62
     7
 48
6.0
100
AcDbLine
 10
553.0016772161347
 20
243.9170042896642
 30
0.0
 11
554.0016772161226
 21
243.9170042896706
 31
0.0
  0
LINE
  5
31A
330
1F
100
AcDbEntity
  8
0
  6
Continuous
 62
     7
 48
6.0
100
AcDbLine
 10
553.0016772161253
 20
245.417004424664
 30
0.0
 11
553.0016772161347
 21
243.9170042896642
 31
0.0
  0
LINE
  5
31B
330
1F
100
AcDbEntity
  8
0
  6
Continuous
 62
     7
 48
6.0
100
AcDbLine
 10
551.5016772161253
 20
245.4170044246581
 30
0.0
 11
553.0016772161253
 21
245.417004424664
 31
0.0
  0
LINE
  5
31C
330
1F
100
AcDbEntity
  8
0
  6
Continuous
 62
     7
 48
6.0
100
AcDbLine
 10
551.5016772161105
 20
246.4170045146579
 30
0.0
 11
551.5016772161253
 21
245.4170044246581
 31
0.0
  0
LINE
  5
31D
330
1F
100
AcDbEntity
  8
0
  6
Continuous
 62
     7
 48
6.0
100
AcDbLine
 10
553.0016772161228
 20
246.4170045146644
 30
0.0
 11
551.5016772161105
 21
246.4170045146579
 31
0.0
  0
LINE
  5
31E
330
1F
100
AcDbEntity
  8
0
  6
Continuous
 62
     7
 48
6.0
100
AcDbLine
 10
553.0016772161141
 20
247.9170046496646
 30
0.0
 11
553.0016772161228
 21
246.4170045146644
 31
0.0
  0
LINE
  5
31F
330
1F
100
AcDbEntity
  8
0
  6
Continuous
 62
     7
 48
6.0
100
AcDbLine
 10
554.0016772161022
 20
247.9170046496709
 30
0.0
 11
553.0016772161141
 21
247.9170046496646
 31
0.0
  0
LINE
  5
320
330
1F
100
AcDbEntity
  8
0
  6
Continuous
 62
     7
 48
6.0
100
AcDbLine
 10
554.0016772161226
 20
246.4170045146708
 30
0.0
 11
554.0016772161022
 21
247.9170046496709
 31
0.0
  0
LINE
  5
321
330
1F
100
AcDbEntity
  8
0
  6
Continuous
 62
     7
 48
6.0
100
AcDbLine
 10
555.5016772161232
 20
246.4170045146766
 30
0.0
 11
554.0016772161226
 21
246.4170045146708
 31
0.0
  0
LINE
  5
322
330
1F
100
AcDbEntity
  8
0
  6
Continuous
 62
     7
 48
6.0
100
AcDbLine
 10
555.5016772161264
 20
245.4170044246763
 30
0.0
 11
555.5016772161232
 21
246.4170045146766
 31
0.0
  0
ARC
  5
323
330
1F
100
AcDbEntity
  8
0
  6
Continuous
 62
     7
100
AcDbCircle
 10
553.5016695785134
 20
240.9169995080453
 30
0.0
 40
4.000000230402577
100
AcDbArc
 50
126.8697968159528
 51
53.13007351913952
  0
ARC
  5
324
330
1F
100
AcDbEntity
  8
0
  6
Continuous
 62
     7
100
AcDbCircle
 10
495.3016695785095
 20
183.9169943780419
 30
0.0
 40
4.5000000000004
100
AcDbArc
 50
0.0
 51
180.0
  0
LINE
  5
325
330
1F
100
AcDbEntity
  8
0
  6
Continuous
 62
     7
100
AcDbLine
 10
561.4031907286237
 20
218.3170026238876
 30
0.0
 11
561.4031907286237
 21
215.5170023718874
 31
0.0
  0
ARC
  5
326
330
1F
100
AcDbEntity
  8
0
  6
Continuous
 62
     7
100
AcDbCircle
 10
559.8031907286245
 20
215.5170022278861
 30
0.0
 40
1.599999999999021
100
AcDbArc
 50
269.9999999999576
 51
0.000005156676357
  0
LINE
  5
327
330
1F
100
AcDbEntity
  8
0
  6
Continuous
 62
     7
100
AcDbLine
 10
559.8031907286225
 20
213.9170022278868
 30
0.0
 11
559.4031907286229
 21
213.9170022278868
 31
0.0
  0
LINE
  5
328
330
1F
100
AcDbEntity
  8
0
  6
Continuous
 62
     7
100
AcDbLine
 10
559.8031907286225
 20
219.9170027678879
 30
0.0
 11
559.4031907286229
 21
219.9170027678879
 31
0.0
  0
ARC
  5
329
330
1F
100
AcDbEntity
  8
0
  6
Continuous
 62
     7
100
AcDbCircle
 10
559.8031907286215
 20
218.3170027678855
 30
0.0
 40
1.600000000001544
100
AcDbArc
 50
359.9999948434279
 51
89.99999999995116
  0
LINE
  5
32A
330
1F
100
AcDbEntity
  8
0
  6
Continuous
 62
     7
100
AcDbLine
 10
429.2001484283932
 20
393.3170183739055
 30
0.0
 11
429.2001484283932
 21
390.5170181219052
 31
0.0
  0
ARC
  5
32B
330
1F
100
AcDbEntity
  8
0
  6
Continuous
 62
     7
100
AcDbCircle
 10
430.8001484283927
 20
390.5170179779036
 30
0.0
 40
1.59999999999885
100
AcDbArc
 50
179.9999948433169
 51
270.000000000042
  0
LINE
  5
32C
330
1F
100
AcDbEntity
  8
0
  6
Continuous
 62
     7
100
AcDbLine
 10
430.8001484283934
 20
388.9170179779048
 30
0.0
 11
431.2001484283933
 21
388.9170179779048
 31
0.0
  0
LINE
  5
32D
330
1F
100
AcDbEntity
  8
0
  6
Continuous
 62
     7
100
AcDbLine
 10
430.8001484283934
 20
394.9170185179058
 30
0.0
 11
431.2001484283933
 21
394.9170185179058
 31
0.0
  0
ARC
  5
32E
330
1F
100
AcDbEntity
  8
0
  6
Continuous
 62
     7
100
AcDbCircle
 10
430.8001484283951
 20
393.3170185179038
 30
0.0
 40
1.600000000001373
100
AcDbArc
 50
90.00000000004559
 51
180.0000051565719
  0
LINE
  5
32F
330
1F
100
AcDbEntity
  8
0
  6
Continuous
 62
     7
100
AcDbLine
 10
561.4031907286237
 20
393.3170183739055
 30
0.0
 11
561.4031907286237
 21
390.5170181219052
 31
0.0
  0
ARC
  5
330
330
1F
100
AcDbEntity
  8
0
  6
Continuous
 62
     7
100
AcDbCircle
 10
559.8031907286245
 20
390.5170179779036
 30
0.0
 40
1.59999999999885
100
AcDbArc
 50
269.9999999999576
 51
0.0000051566828708
  0
LINE
  5
331
330
1F
100
AcDbEntity
  8
0
  6
Continuous
 62
     7
100
AcDbLine
 10
559.8031907286225
 20
388.9170179779048
 30
0.0
 11
559.4031907286229
 21
388.9170179779048
 31
0.0
  0
LINE
  5
332
330
1F
100
AcDbEntity
  8
0
  6
Continuous
 62
     7
100
AcDbLine
 10
559.8031907286225
 20
394.9170185179058
 30
0.0
 11
559.4031907286229
 21
394.9170185179058
 31
0.0
  0
ARC
  5
333
330
1F
100
AcDbEntity
  8
0
  6
Continuous
 62
     7
100
AcDbCircle
 10
559.8031907286215
 20
393.3170185179038
 30
0.0
 40
1.600000000001458
100
AcDbArc
 50
359.9999948434279
 51
89.99999999995441
  0
LINE
  5
334
330
1F
100
AcDbEntity
  8
0
  6
Continuous
 62
     7
 48
6.0
100
AcDbLine
 10
895.2016837390486
 20
217.5670034623731
 30
0.0
 11
895.2016837390704
 21
216.2670033453729
 31
0.0
  0
LINE
  5
335
330
1F
100
AcDbEntity
  8
0
  6
Continuous
 62
     7
 48
6.0
100
AcDbLine
 10
895.2016837390486
 20
392.5670192123908
 30
0.0
 11
895.2016837390704
 21
391.2670190953907
 31
0.0
  0
ARC
  5
336
330
1F
100
AcDbEntity
  8
0
  6
Continuous
 62
     7
100
AcDbCircle
 10
553.5016695785153
 20
587.9170307380823
 30
0.0
 40
4.000000269999949
100
AcDbArc
 50
119.9999977671226
 51
60.00000223287738
  0
ARC
  5
337
330
1F
100
AcDbEntity
  8
0
  6
Continuous
 62
     7
100
AcDbCircle
 10
437.5016695785015
 20
587.9170307380798
 30
0.0
 40
4.000000270003421
100
AcDbArc
 50
120.0000011063993
 51
60.00000223286567
  0
CIRCLE
  5
338
330
1F
100
AcDbEntity
  8
0
  6
Continuous
 62
     7
100
AcDbCircle
 10
472.5016727285076
 20
582.9170302880817
 30
0.0
 40
3.000000270000752
  0
CIRCLE
  5
339
330
1F
100
AcDbEntity
  8
0
  6
Continuous
 62
     7
100
AcDbCircle
 10
464.5016720085033
 20
582.9170302880817
 30
0.0
 40
3.000000270000752
  0
CIRCLE
  5
33A
330
1F
100
AcDbEntity
  8
0
  6
Continuous
 62
     7
100
AcDbCircle
 10
456.5016712885054
 20
582.9170302880817
 30
0.0
 40
3.00000026999781
  0
CIRCLE
  5
33B
330
1F
100
AcDbEntity
  8
0
  6
Continuous
 62
     7
100
AcDbCircle
 10
448.5016705685018
 20
582.9170302880817
 30
0.0
 40
3.000000270000752
  0
LINE
  5
33C
330
1F
100
AcDbEntity
  8
0
  6
Continuous
 62
     7
100
AcDbLine
 10
429.2001484283932
 20
568.3170341239237
 30
0.0
 11
429.2001484283932
 21
565.5170338719235
 31
0.0
  0
ARC
  5
33D
330
1F
100
AcDbEntity
  8
0
  6
Continuous
 62
     7
100
AcDbCircle
 10
430.8001484283951
 20
565.5170337279239
 30
0.0
 40
1.600000000001579
100
AcDbArc
 50
179.9999948434278
 51
269.9999999999511
  0
LINE
  5
33E
330
1F
100
AcDbEntity
  8
0
  6
Continuous
 62
     7
100
AcDbLine
 10
430.8001484283934
 20
563.9170337279232
 30
0.0
 11
431.2001484283933
 21
563.9170337279232
 31
0.0
  0
LINE
  5
33F
330
1F
100
AcDbEntity
  8
0
  6
Continuous
 62
     7
100
AcDbLine
 10
430.8001484283934
 20
569.9170342679235
 30
0.0
 11
431.2001484283933
 21
569.9170342679235
 31
0.0
  0
ARC
  5
340
330
1F
100
AcDbEntity
  8
0
  6
Continuous
 62
     7
100
AcDbCircle
 10
430.8001484283951
 20
568.3170342679217
 30
0.0
 40
1.600000000001373
100
AcDbArc
 50
90.00000000004559
 51
180.0000051565719
  0
LINE
  5
341
330
1F
100
AcDbEntity
  8
0
  6
Continuous
 62
     7
100
AcDbLine
 10
561.4031907286237
 20
568.3170341239237
 30
0.0
 11
561.4031907286237
 21
565.5170338719235
 31
0.0
  0
ARC
  5
342
330
1F
100
AcDbEntity
  8
0
  6
Continuous
 62
     7
100
AcDbCircle
 10
559.8031907286245
 20
565.5170337279213
 30
0.0
 40
1.59999999999885
100
AcDbArc
 50
269.9999999999511
 51
0.0000051566698433
  0
LINE
  5
343
330
1F
100
AcDbEntity
  8
0
  6
Continuous
 62
     7
100
AcDbLine
 10
559.8031907286225
 20
563.9170337279232
 30
0.0
 11
559.4031907286229
 21
563.9170337279232
 31
0.0
  0
LINE
  5
344
330
1F
100
AcDbEntity
  8
0
  6
Continuous
 62
     7
100
AcDbLine
 10
559.8031907286225
 20
569.9170342679235
 30
0.0
 11
559.4031907286229
 21
569.9170342679235
 31
0.0
  0
ARC
  5
345
330
1F
100
AcDbEntity
  8
0
  6
Continuous
 62
     7
100
AcDbCircle
 10
559.8031907286215
 20
568.3170342679217
 30
0.0
 40
1.600000000001458
100
AcDbArc
 50
359.9999948434279
 51
89.99999999995441
  0
ARC
  5
346
330
1F
100
AcDbEntity
  8
0
  6
Continuous
 62
     7
100
AcDbCircle
 10
495.3016695785095
 20
653.9170366780894
 30
0.0
 40
4.5000000000004
100
AcDbArc
 50
0.0
 51
180.0
  0
LINE
  5
347
330
1F
100
AcDbEntity
  8
0
  6
Continuous
 62
     7
100
AcDbLine
 10
432.8016695785041
 20
635.9170350580877
 30
0.0
 11
432.8016695785041
 21
657.9170370380905
 31
0.0
  0
LINE
  5
348
330
1F
100
AcDbEntity
  8
0
  6
Continuous
 62
     7
100
AcDbLine
 10
557.8016695785156
 20
657.9170370380905
 30
0.0
 11
557.8016695785156
 21
635.9170350580877
 31
0.0
  0
CIRCLE
  5
349
330
1F
100
AcDbEntity
  8
0
  6
DASHED
 62
     4
370
     0
100
AcDbCircle
 10
481.6366703785241
 20
626.8370935945811
 30
0.0
 40
2.750000123749369
  0
LINE
  5
34A
330
1F
100
AcDbEntity
  8
0
  6
Continuous
 62
     7
100
AcDbLine
 10
559.0016695785158
 20
635.9170350580877
 30
0.0
 11
431.6016695785042
 21
635.9170350580877
 31
0.0
  0
LINE
  5
34B
330
1F
100
AcDbEntity
  8
0
  6
DASHED
 62
     4
 48
6.0
100
AcDbLine
 10
481.1366705023018
 20
624.8370935383286
 30
0.0
 11
482.1366705022893
 21
624.8370935383348
 31
0.0
  0
LINE
  5
34C
330
1F
100
AcDbEntity
  8
0
  6
DASHED
 62
     4
 48
6.0
100
AcDbLine
 10
482.1366705022692
 20
628.8370938983347
 30
0.0
 11
481.1366705022805
 21
628.8370938983288
 31
0.0
  0
LINE
  5
34D
330
1F
100
AcDbEntity
  8
0
  6
DASHED
 62
     4
 48
6.0
100
AcDbLine
 10
451.1566705022631
 20
622.8370933581754
 30
0.0
 11
539.4466705022856
 21
622.8370933586282
 31
0.0
  0
LINE
  5
34E
330
1F
100
AcDbEntity
  8
0
  6
DASHED
 62
     4
 48
6.0
100
AcDbLine
 10
451.1566705021671
 20
612.8370924586577
 30
0.0
 11
539.4466705023878
 21
612.8370924586266
 31
0.0
  0
LINE
  5
34F
330
1F
100
AcDbEntity
  8
0
  6
DASHED
 62
     4
 48
6.0
100
AcDbLine
 10
539.4466705023937
 20
631.8370941681463
 30
0.0
 11
451.1566705021723
 21
631.8370941681769
 31
0.0
  0
CIRCLE
  5
350
330
1F
100
AcDbEntity
  8
0
  6
DASHED
 62
     4
370
     0
100
AcDbCircle
 10
474.0166703784713
 20
626.8370935945405
 30
0.0
 40
2.750000123750733
  0
CIRCLE
  5
351
330
1F
100
AcDbEntity
  8
0
  6
DASHED
 62
     4
370
     0
100
AcDbCircle
 10
466.3966703784781
 20
626.8370935945029
 30
0.0
 40
2.750000123752097
  0
CIRCLE
  5
352
330
1F
100
AcDbEntity
  8
0
  6
DASHED
 62
     4
370
     0
100
AcDbCircle
 10
458.7766703784275
 20
626.8370935944627
 30
0.0
 40
2.750000123751075
  0
CIRCLE
  5
353
330
1F
100
AcDbEntity
  8
0
  6
DASHED
 62
     4
370
     0
100
AcDbCircle
 10
477.8266703785702
 20
617.8370927845612
 30
0.0
 40
2.750000123749369
  0
CIRCLE
  5
354
330
1F
100
AcDbEntity
  8
0
  6
DASHED
 62
     4
370
     0
100
AcDbCircle
 10
470.2066703785169
 20
617.837092784521
 30
0.0
 40
2.750000123750733
  0
CIRCLE
  5
355
330
1F
100
AcDbEntity
  8
0
  6
DASHED
 62
     4
370
     0
100
AcDbCircle
 10
462.5866703785241
 20
617.8370927844838
 30
0.0
 40
2.750000123752097
  0
CIRCLE
  5
356
330
1F
100
AcDbEntity
  8
0
  6
DASHED
 62
     4
370
     0
100
AcDbCircle
 10
454.9666703784735
 20
617.8370927844432
 30
0.0
 40
2.750000123751075
  0
CIRCLE
  5
357
330
1F
100
AcDbEntity
  8
0
  6
Continuous
 62
     7
100
AcDbCircle
 10
437.5016751655486
 20
600.9170358577815
 30
0.0
 40
3.000000135000763
  0
LINE
  5
358
330
1F
100
AcDbEntity
  8
0
  6
Continuous
 62
     7
 48
6.0
100
AcDbLine
 10
439.5016772161159
 20
600.4170363747131
 30
0.0
 11
439.5016772161159
 21
600.4170363747131
 31
0.0
  0
LINE
  5
359
330
1F
100
AcDbEntity
  8
0
  6
Continuous
 62
     7
 48
6.0
100
AcDbLine
 10
438.0016772161034
 20
600.417036374707
 30
0.0
 11
439.5016772161159
 21
600.4170363747131
 31
0.0
  0
LINE
  5
35A
330
1F
100
AcDbEntity
  8
0
  6
Continuous
 62
     7
 48
6.0
100
AcDbLine
 10
438.0016772161128
 20
598.917036239707
 30
0.0
 11
438.0016772161034
 21
600.417036374707
 31
0.0
  0
LINE
  5
35B
330
1F
100
AcDbEntity
  8
0
  6
Continuous
 62
     7
 48
6.0
100
AcDbLine
 10
437.0016772161242
 20
598.9170362397002
 30
0.0
 11
438.0016772161128
 21
598.917036239707
 31
0.0
  0
LINE
  5
35C
330
1F
100
AcDbEntity
  8
0
  6
Continuous
 62
     7
 48
6.0
100
AcDbLine
 10
437.0016772161149
 20
600.4170363747012
 30
0.0
 11
437.0016772161242
 21
598.9170362397002
 31
0.0
  0
LINE
  5
35D
330
1F
100
AcDbEntity
  8
0
  6
Continuous
 62
     7
 48
6.0
100
AcDbLine
 10
435.501677216115
 20
600.4170363746943
 30
0.0
 11
437.0016772161149
 21
600.4170363747012
 31
0.0
  0
LINE
  5
35E
330
1F
100
AcDbEntity
  8
0
  6
Continuous
 62
     7
 48
6.0
100
AcDbLine
 10
435.5016772161
 20
601.4170364646948
 30
0.0
 11
435.501677216115
 21
600.4170363746943
 31
0.0
  0
LINE
  5
35F
330
1F
100
AcDbEntity
  8
0
  6
Continuous
 62
     7
 48
6.0
100
AcDbLine
 10
437.0016772161121
 20
601.4170364647005
 30
0.0
 11
435.5016772161
 21
601.4170364646948
 31
0.0
  0
LINE
  5
360
330
1F
100
AcDbEntity
  8
0
  6
Continuous
 62
     7
 48
6.0
100
AcDbLine
 10
437.0016772161035
 20
602.917036599701
 30
0.0
 11
437.0016772161121
 21
601.4170364647005
 31
0.0
  0
LINE
  5
361
330
1F
100
AcDbEntity
  8
0
  6
Continuous
 62
     7
 48
6.0
100
AcDbLine
 10
438.0016772160908
 20
602.9170365997072
 30
0.0
 11
437.0016772161035
 21
602.917036599701
 31
0.0
  0
LINE
  5
362
330
1F
100
AcDbEntity
  8
0
  6
Continuous
 62
     7
 48
6.0
100
AcDbLine
 10
438.0016772161128
 20
601.4170364647072
 30
0.0
 11
438.0016772160908
 21
602.9170365997072
 31
0.0
  0
LINE
  5
363
330
1F
100
AcDbEntity
  8
0
  6
Continuous
 62
     7
 48
6.0
100
AcDbLine
 10
439.5016772161119
 20
601.4170364647127
 30
0.0
 11
438.0016772161128
 21
601.4170364647072
 31
0.0
  0
LINE
  5
364
330
1F
100
AcDbEntity
  8
0
  6
Continuous
 62
     7
 48
6.0
100
AcDbLine
 10
439.5016772161159
 20
600.4170363747131
 30
0.0
 11
439.5016772161119
 21
601.4170364647127
 31
0.0
  0
ARC
  5
365
330
1F
100
AcDbEntity
  8
0
  6
Continuous
 62
     7
100
AcDbCircle
 10
437.5016695785047
 20
628.917034428086
 30
0.0
 40
2.000000000000185
100
AcDbArc
 50
0.000000000029312
 51
180.0000050089405
  0
LINE
  5
366
330
1F
100
AcDbEntity
  8
0
  6
DASHED
 62
     4
 48
6.0
100
AcDbLine
 10
480.9766705023196
 20
622.837093358328
 30
0.0
 11
480.9766705023855
 21
612.8370924581627
 31
0.0
  0
LINE
  5
367
330
1F
100
AcDbEntity
  8
0
  6
DASHED
 62
     4
 48
6.0
100
AcDbLine
 10
474.676670502319
 20
622.8370933582954
 30
0.0
 11
474.6766705023403
 21
612.8370924587231
 31
0.0
  0
LINE
  5
368
330
1F
100
AcDbEntity
  8
0
  6
DASHED
 62
     4
 48
6.0
100
AcDbLine
 10
473.3566705023308
 20
622.8370933582897
 30
0.0
 11
473.3566705023396
 21
612.8370924587261
 31
0.0
  0
LINE
  5
369
330
1F
100
AcDbEntity
  8
0
  6
DASHED
 62
     4
 48
6.0
100
AcDbLine
 10
467.0566705023181
 20
622.8370933582567
 30
0.0
 11
467.0566705023841
 21
612.8370924587261
 31
0.0
  0
LINE
  5
36A
330
1F
100
AcDbEntity
  8
0
  6
DASHED
 62
     4
 48
6.0
100
AcDbLine
 10
465.7366705023178
 20
622.8370933582509
 30
0.0
 11
465.7366705023841
 21
612.8370924581677
 31
0.0
  0
LINE
  5
36B
330
1F
100
AcDbEntity
  8
0
  6
DASHED
 62
     4
 48
6.0
100
AcDbLine
 10
459.4366705023181
 20
622.837093358218
 30
0.0
 11
459.4366705023381
 21
612.8370924587299
 31
0.0
  0
LINE
  5
36C
330
1F
100
AcDbEntity
  8
0
  6
DASHED
 62
     4
 48
6.0
100
AcDbLine
 10
458.1166705023173
 20
622.8370933582112
 30
0.0
 11
458.1166705023386
 21
612.8370924581718
 31
0.0
  0
LINE
  5
36D
330
1F
100
AcDbEntity
  8
0
  6
DASHED
 62
     4
 48
6.0
100
AcDbLine
 10
453.2084660207398
 20
623.8239861445467
 30
0.0
 11
451.1566705022564
 21
623.8239861445372
 31
0.0
  0
LINE
  5
36E
330
1F
100
AcDbEntity
  8
0
  6
DASHED
 62
     4
 48
6.0
100
AcDbLine
 10
453.2084660207035
 20
630.8403438557141
 30
0.0
 11
453.2084660207757
 21
623.8239861445467
 31
0.0
  0
LINE
  5
36F
330
1F
100
AcDbEntity
  8
0
  6
DASHED
 62
     4
 48
6.0
100
AcDbLine
 10
451.1566705022203
 20
630.8403438557051
 30
0.0
 11
453.2084660207035
 21
630.8403438557141
 31
0.0
  0
LINE
  5
370
330
1F
100
AcDbEntity
  8
0
  6
DASHED
 62
     4
 48
6.0
100
AcDbLine
 10
454.3066705022209
 20
631.8370941681913
 30
0.0
 11
454.3066705022786
 21
622.8370933581908
 31
0.0
  0
LINE
  5
371
330
1F
100
AcDbEntity
  8
0
  6
DASHED
 62
     4
 48
6.0
100
AcDbLine
 10
455.6266705022779
 20
622.8370933581958
 30
0.0
 11
455.6266705022216
 21
631.837094168197
 31
0.0
  0
LINE
  5
372
330
1F
100
AcDbEntity
  8
0
  6
DASHED
 62
     4
 48
6.0
100
AcDbLine
 10
461.9266705021945
 20
631.8370941682302
 30
0.0
 11
461.9266705022428
 21
622.8370933582297
 31
0.0
  0
LINE
  5
373
330
1F
100
AcDbEntity
  8
0
  6
DASHED
 62
     4
 48
6.0
100
AcDbLine
 10
463.2466705022785
 20
622.8370933582357
 30
0.0
 11
463.2466705022216
 21
631.8370941682366
 31
0.0
  0
LINE
  5
374
330
1F
100
AcDbEntity
  8
0
  6
DASHED
 62
     4
 48
6.0
100
AcDbLine
 10
469.5466705021951
 20
631.8370941682696
 30
0.0
 11
469.5466705022439
 21
622.8370933582684
 31
0.0
  0
LINE
  5
375
330
1F
100
AcDbEntity
  8
0
  6
DASHED
 62
     4
 48
6.0
100
AcDbLine
 10
470.8666705022796
 20
622.8370933582779
 30
0.0
 11
470.8666705022227
 21
631.8370941682785
 31
0.0
  0
LINE
  5
376
330
1F
100
AcDbEntity
  8
0
  6
DASHED
 62
     4
 48
6.0
100
AcDbLine
 10
477.1666705021963
 20
631.8370941683081
 30
0.0
 11
477.1666705022438
 21
622.8370933583079
 31
0.0
  0
LINE
  5
377
330
1F
100
AcDbEntity
  8
0
  6
DASHED
 62
     4
 48
6.0
100
AcDbLine
 10
478.4866705022798
 20
622.837093358316
 30
0.0
 11
478.4866705022229
 21
631.8370941683172
 31
0.0
  0
LINE
  5
378
330
1F
100
AcDbEntity
  8
0
  6
DASHED
 62
     4
 48
6.0
100
AcDbLine
 10
456.9666705022513
 20
617.3370928632047
 30
0.0
 11
456.9666705022513
 21
617.3370928632047
 31
0.0
  0
LINE
  5
379
330
1F
100
AcDbEntity
  8
0
  6
DASHED
 62
     4
 48
6.0
100
AcDbLine
 10
455.4666705022391
 20
617.3370928631962
 30
0.0
 11
456.9666705022513
 21
617.3370928632047
 31
0.0
  0
LINE
  5
37A
330
1F
100
AcDbEntity
  8
0
  6
DASHED
 62
     4
 48
6.0
100
AcDbLine
 10
455.4666705022453
 20
615.8370927281962
 30
0.0
 11
455.4666705022391
 21
617.3370928631962
 31
0.0
  0
LINE
  5
37B
330
1F
100
AcDbEntity
  8
0
  6
DASHED
 62
     4
 48
6.0
100
AcDbLine
 10
454.4666705022566
 20
615.8370927281902
 30
0.0
 11
455.4666705022453
 21
615.8370927281962
 31
0.0
  0
LINE
  5
37C
330
1F
100
AcDbEntity
  8
0
  6
DASHED
 62
     4
 48
6.0
100
AcDbLine
 10
454.4666705022513
 20
617.3370928631904
 30
0.0
 11
454.4666705022566
 21
615.8370927281902
 31
0.0
  0
LINE
  5
37D
330
1F
100
AcDbEntity
  8
0
  6
DASHED
 62
     4
 48
6.0
100
AcDbLine
 10
452.9666705022509
 20
617.3370928631835
 30
0.0
 11
454.4666705022513
 21
617.3370928631904
 31
0.0
  0
LINE
  5
37E
330
1F
100
AcDbEntity
  8
0
  6
DASHED
 62
     4
 48
6.0
100
AcDbLine
 10
452.9666705022333
 20
618.3370929531839
 30
0.0
 11
452.9666705022509
 21
617.3370928631835
 31
0.0
  0
LINE
  5
37F
330
1F
100
AcDbEntity
  8
0
  6
DASHED
 62
     4
 48
6.0
100
AcDbLine
 10
454.4666705022446
 20
618.3370929531897
 30
0.0
 11
452.9666705022333
 21
618.3370929531839
 31
0.0
  0
LINE
  5
380
330
1F
100
AcDbEntity
  8
0
  6
DASHED
 62
     4
 48
6.0
100
AcDbLine
 10
454.4666705022393
 20
619.8370930881907
 30
0.0
 11
454.4666705022446
 21
618.3370929531897
 31
0.0
  0
LINE
  5
381
330
1F
100
AcDbEntity
  8
0
  6
DASHED
 62
     4
 48
6.0
100
AcDbLine
 10
455.466670502227
 20
619.837093088196
 30
0.0
 11
454.4666705022393
 21
619.8370930881907
 31
0.0
  0
LINE
  5
382
330
1F
100
AcDbEntity
  8
0
  6
DASHED
 62
     4
 48
6.0
100
AcDbLine
 10
455.4666705022453
 20
618.3370929531962
 30
0.0
 11
455.466670502227
 21
619.837093088196
 31
0.0
  0
LINE
  5
383
330
1F
100
AcDbEntity
  8
0
  6
DASHED
 62
     4
 48
6.0
100
AcDbLine
 10
456.9666705022449
 20
618.3370929532043
 30
0.0
 11
455.4666705022453
 21
618.3370929531962
 31
0.0
  0
LINE
  5
384
330
1F
100
AcDbEntity
  8
0
  6
DASHED
 62
     4
 48
6.0
100
AcDbLine
 10
456.9666705022513
 20
617.3370928632047
 30
0.0
 11
456.9666705022449
 21
618.3370929532043
 31
0.0
  0
LINE
  5
385
330
1F
100
AcDbEntity
  8
0
  6
DASHED
 62
     4
 48
6.0
100
AcDbLine
 10
460.7766705022038
 20
626.3370936732236
 30
0.0
 11
460.7766705022038
 21
626.3370936732236
 31
0.0
  0
LINE
  5
386
330
1F
100
AcDbEntity
  8
0
  6
DASHED
 62
     4
 48
6.0
100
AcDbLine
 10
459.2766705021912
 20
626.3370936732177
 30
0.0
 11
460.7766705022038
 21
626.3370936732236
 31
0.0
  0
LINE
  5
387
330
1F
100
AcDbEntity
  8
0
  6
DASHED
 62
     4
 48
6.0
100
AcDbLine
 10
459.2766705022
 20
624.8370935382181
 30
0.0
 11
459.2766705021912
 21
626.3370936732177
 31
0.0
  0
LINE
  5
388
330
1F
100
AcDbEntity
  8
0
  6
DASHED
 62
     4
 48
6.0
100
AcDbLine
 10
458.2766705022125
 20
624.8370935382117
 30
0.0
 11
459.2766705022
 21
624.8370935382181
 31
0.0
  0
LINE
  5
389
330
1F
100
AcDbEntity
  8
0
  6
DASHED
 62
     4
 48
6.0
100
AcDbLine
 10
458.2766705022065
 20
626.3370936732116
 30
0.0
 11
458.2766705022125
 21
624.8370935382117
 31
0.0
  0
LINE
  5
38A
330
1F
100
AcDbEntity
  8
0
  6
DASHED
 62
     4
 48
6.0
100
AcDbLine
 10
456.7766705022035
 20
626.3370936732037
 30
0.0
 11
458.2766705022065
 21
626.3370936732116
 31
0.0
  0
LINE
  5
38B
330
1F
100
AcDbEntity
  8
0
  6
DASHED
 62
     4
 48
6.0
100
AcDbLine
 10
456.7766705021882
 20
627.3370937632034
 30
0.0
 11
456.7766705022035
 21
626.3370936732037
 31
0.0
  0
LINE
  5
38C
330
1F
100
AcDbEntity
  8
0
  6
DASHED
 62
     4
 48
6.0
100
AcDbLine
 10
458.2766705022008
 20
627.3370937632121
 30
0.0
 11
456.7766705021882
 21
627.3370937632034
 31
0.0
  0
LINE
  5
38D
330
1F
100
AcDbEntity
  8
0
  6
DASHED
 62
     4
 48
6.0
100
AcDbLine
 10
458.2766705021914
 20
628.8370938982121
 30
0.0
 11
458.2766705022008
 21
627.3370937632121
 31
0.0
  0
LINE
  5
38E
330
1F
100
AcDbEntity
  8
0
  6
DASHED
 62
     4
 48
6.0
100
AcDbLine
 10
459.2766705021798
 20
628.8370938982182
 30
0.0
 11
458.2766705021914
 21
628.8370938982121
 31
0.0
  0
LINE
  5
38F
330
1F
100
AcDbEntity
  8
0
  6
DASHED
 62
     4
 48
6.0
100
AcDbLine
 10
459.2766705022
 20
627.337093763218
 30
0.0
 11
459.2766705021798
 21
628.8370938982182
 31
0.0
  0
LINE
  5
390
330
1F
100
AcDbEntity
  8
0
  6
DASHED
 62
     4
 48
6.0
100
AcDbLine
 10
460.7766705022004
 20
627.3370937632237
 30
0.0
 11
459.2766705022
 21
627.337093763218
 31
0.0
  0
LINE
  5
391
330
1F
100
AcDbEntity
  8
0
  6
DASHED
 62
     4
 48
6.0
100
AcDbLine
 10
460.7766705022038
 20
626.3370936732236
 30
0.0
 11
460.7766705022004
 21
627.3370937632237
 31
0.0
  0
LINE
  5
392
330
1F
100
AcDbEntity
  8
0
  6
DASHED
 62
     4
 48
6.0
100
AcDbLine
 10
464.5866705023002
 20
617.3370928632436
 30
0.0
 11
464.5866705023002
 21
617.3370928632436
 31
0.0
  0
LINE
  5
393
330
1F
100
AcDbEntity
  8
0
  6
DASHED
 62
     4
 48
6.0
100
AcDbLine
 10
463.0866705022906
 20
617.337092863235
 30
0.0
 11
464.5866705023002
 21
617.3370928632436
 31
0.0
  0
LINE
  5
394
330
1F
100
AcDbEntity
  8
0
  6
DASHED
 62
     4
 48
6.0
100
AcDbLine
 10
463.0866705022972
 20
615.8370927282337
 30
0.0
 11
463.0866705022906
 21
617.337092863235
 31
0.0
  0
LINE
  5
395
330
1F
100
AcDbEntity
  8
0
  6
DASHED
 62
     4
 48
6.0
100
AcDbLine
 10
462.0866705023082
 20
615.8370927282287
 30
0.0
 11
463.0866705022972
 21
615.8370927282337
 31
0.0
  0
LINE
  5
396
330
1F
100
AcDbEntity
  8
0
  6
DASHED
 62
     4
 48
6.0
100
AcDbLine
 10
462.0866705023031
 20
617.3370928632293
 30
0.0
 11
462.0866705023082
 21
615.8370927282287
 31
0.0
  0
LINE
  5
397
330
1F
100
AcDbEntity
  8
0
  6
DASHED
 62
     4
 48
6.0
100
AcDbLine
 10
460.5866705022996
 20
617.3370928632225
 30
0.0
 11
462.0866705023031
 21
617.3370928632293
 31
0.0
  0
LINE
  5
398
330
1F
100
AcDbEntity
  8
0
  6
DASHED
 62
     4
 48
6.0
100
AcDbLine
 10
460.5866705022841
 20
618.3370929532235
 30
0.0
 11
460.5866705022996
 21
617.3370928632225
 31
0.0
  0
LINE
  5
399
330
1F
100
AcDbEntity
  8
0
  6
DASHED
 62
     4
 48
6.0
100
AcDbLine
 10
462.0866705022963
 20
618.3370929532318
 30
0.0
 11
460.5866705022841
 21
618.3370929532235
 31
0.0
  0
LINE
  5
39A
330
1F
100
AcDbEntity
  8
0
  6
DASHED
 62
     4
 48
6.0
100
AcDbLine
 10
462.0866705022876
 20
619.8370930882283
 30
0.0
 11
462.0866705022963
 21
618.3370929532318
 31
0.0
  0
LINE
  5
39B
330
1F
100
AcDbEntity
  8
0
  6
DASHED
 62
     4
 48
6.0
100
AcDbLine
 10
463.086670502276
 20
619.8370930882348
 30
0.0
 11
462.0866705022876
 21
619.8370930882283
 31
0.0
  0
LINE
  5
39C
330
1F
100
AcDbEntity
  8
0
  6
DASHED
 62
     4
 48
6.0
100
AcDbLine
 10
463.0866705022972
 20
618.3370929532352
 30
0.0
 11
463.086670502276
 21
619.8370930882348
 31
0.0
  0
LINE
  5
39D
330
1F
100
AcDbEntity
  8
0
  6
DASHED
 62
     4
 48
6.0
100
AcDbLine
 10
464.5866705022968
 20
618.3370929532441
 30
0.0
 11
463.0866705022972
 21
618.3370929532352
 31
0.0
  0
LINE
  5
39E
330
1F
100
AcDbEntity
  8
0
  6
DASHED
 62
     4
 48
6.0
100
AcDbLine
 10
464.5866705023002
 20
617.3370928632436
 30
0.0
 11
464.5866705022968
 21
618.3370929532441
 31
0.0
  0
LINE
  5
39F
330
1F
100
AcDbEntity
  8
0
  6
DASHED
 62
     4
 48
6.0
100
AcDbLine
 10
468.3966705022491
 20
626.337093673262
 30
0.0
 11
468.3966705022491
 21
626.337093673262
 31
0.0
  0
LINE
  5
3A0
330
1F
100
AcDbEntity
  8
0
  6
DASHED
 62
     4
 48
6.0
100
AcDbLine
 10
466.8966705022366
 20
626.3370936732571
 30
0.0
 11
468.3966705022491
 21
626.337093673262
 31
0.0
  0
LINE
  5
3A1
330
1F
100
AcDbEntity
  8
0
  6
DASHED
 62
     4
 48
6.0
100
AcDbLine
 10
466.8966705022467
 20
624.8370935382571
 30
0.0
 11
466.8966705022366
 21
626.3370936732571
 31
0.0
  0
LINE
  5
3A2
330
1F
100
AcDbEntity
  8
0
  6
DASHED
 62
     4
 48
6.0
100
AcDbLine
 10
465.8966705022582
 20
624.8370935382503
 30
0.0
 11
466.8966705022467
 21
624.8370935382571
 31
0.0
  0
LINE
  5
3A3
330
1F
100
AcDbEntity
  8
0
  6
DASHED
 62
     4
 48
6.0
100
AcDbLine
 10
465.8966705022488
 20
626.3370936732512
 30
0.0
 11
465.8966705022582
 21
624.8370935382503
 31
0.0
  0
LINE
  5
3A4
330
1F
100
AcDbEntity
  8
0
  6
DASHED
 62
     4
 48
6.0
100
AcDbLine
 10
464.3966705022493
 20
626.3370936732418
 30
0.0
 11
465.8966705022488
 21
626.3370936732512
 31
0.0
  0
LINE
  5
3A5
330
1F
100
AcDbEntity
  8
0
  6
DASHED
 62
     4
 48
6.0
100
AcDbLine
 10
464.3966705022309
 20
627.337093763242
 30
0.0
 11
464.3966705022493
 21
626.3370936732418
 31
0.0
  0
LINE
  5
3A6
330
1F
100
AcDbEntity
  8
0
  6
DASHED
 62
     4
 48
6.0
100
AcDbLine
 10
465.8966705022428
 20
627.3370937632506
 30
0.0
 11
464.3966705022309
 21
627.337093763242
 31
0.0
  0
LINE
  5
3A7
330
1F
100
AcDbEntity
  8
0
  6
DASHED
 62
     4
 48
6.0
100
AcDbLine
 10
465.8966705022375
 20
628.8370938982507
 30
0.0
 11
465.8966705022428
 21
627.3370937632506
 31
0.0
  0
LINE
  5
3A8
330
1F
100
AcDbEntity
  8
0
  6
DASHED
 62
     4
 48
6.0
100
AcDbLine
 10
466.8966705022253
 20
628.8370938982575
 30
0.0
 11
465.8966705022375
 21
628.8370938982507
 31
0.0
  0
LINE
  5
3A9
330
1F
100
AcDbEntity
  8
0
  6
DASHED
 62
     4
 48
6.0
100
AcDbLine
 10
466.8966705022467
 20
627.3370937632574
 30
0.0
 11
466.8966705022253
 21
628.8370938982575
 31
0.0
  0
LINE
  5
3AA
330
1F
100
AcDbEntity
  8
0
  6
DASHED
 62
     4
 48
6.0
100
AcDbLine
 10
468.3966705022438
 20
627.3370937632636
 30
0.0
 11
466.8966705022467
 21
627.3370937632574
 31
0.0
  0
LINE
  5
3AB
330
1F
100
AcDbEntity
  8
0
  6
DASHED
 62
     4
 48
6.0
100
AcDbLine
 10
468.3966705022491
 20
626.337093673262
 30
0.0
 11
468.3966705022438
 21
627.3370937632636
 31
0.0
  0
LINE
  5
3AC
330
1F
100
AcDbEntity
  8
0
  6
DASHED
 62
     4
 48
6.0
100
AcDbLine
 10
472.2066705022948
 20
617.3370928632833
 30
0.0
 11
472.2066705022948
 21
617.3370928632833
 31
0.0
  0
LINE
  5
3AD
330
1F
100
AcDbEntity
  8
0
  6
DASHED
 62
     4
 48
6.0
100
AcDbLine
 10
470.7066705022831
 20
617.337092863274
 30
0.0
 11
472.2066705022948
 21
617.3370928632833
 31
0.0
  0
LINE
  5
3AE
330
1F
100
AcDbEntity
  8
0
  6
DASHED
 62
     4
 48
6.0
100
AcDbLine
 10
470.7066705022913
 20
615.8370927282738
 30
0.0
 11
470.7066705022831
 21
617.337092863274
 31
0.0
  0
LINE
  5
3AF
330
1F
100
AcDbEntity
  8
0
  6
DASHED
 62
     4
 48
6.0
100
AcDbLine
 10
469.7066705023038
 20
615.837092728271
 30
0.0
 11
470.7066705022913
 21
615.8370927282738
 31
0.0
  0
LINE
  5
3B0
330
1F
100
AcDbEntity
  8
0
  6
DASHED
 62
     4
 48
6.0
100
AcDbLine
 10
469.7066705022976
 20
617.3370928632712
 30
0.0
 11
469.7066705023038
 21
615.837092728271
 31
0.0
  0
LINE
  5
3B1
330
1F
100
AcDbEntity
  8
0
  6
DASHED
 62
     4
 48
6.0
100
AcDbLine
 10
468.2066705022942
 20
617.3370928632619
 30
0.0
 11
469.7066705022976
 21
617.3370928632712
 31
0.0
  0
LINE
  5
3B2
330
1F
100
AcDbEntity
  8
0
  6
DASHED
 62
     4
 48
6.0
100
AcDbLine
 10
468.2066705022792
 20
618.3370929532616
 30
0.0
 11
468.2066705022942
 21
617.3370928632619
 31
0.0
  0
LINE
  5
3B3
330
1F
100
AcDbEntity
  8
0
  6
DASHED
 62
     4
 48
6.0
100
AcDbLine
 10
469.7066705022918
 20
618.3370929532708
 30
0.0
 11
468.2066705022792
 21
618.3370929532616
 31
0.0
  0
LINE
  5
3B4
330
1F
100
AcDbEntity
  8
0
  6
DASHED
 62
     4
 48
6.0
100
AcDbLine
 10
469.7066705022824
 20
619.8370930882711
 30
0.0
 11
469.7066705022918
 21
618.3370929532708
 31
0.0
  0
LINE
  5
3B5
330
1F
100
AcDbEntity
  8
0
  6
DASHED
 62
     4
 48
6.0
100
AcDbLine
 10
470.7066705022706
 20
619.8370930882743
 30
0.0
 11
469.7066705022824
 21
619.8370930882711
 31
0.0
  0
LINE
  5
3B6
330
1F
100
AcDbEntity
  8
0
  6
DASHED
 62
     4
 48
6.0
100
AcDbLine
 10
470.7066705022913
 20
618.3370929532737
 30
0.0
 11
470.7066705022706
 21
619.8370930882743
 31
0.0
  0
LINE
  5
3B7
330
1F
100
AcDbEntity
  8
0
  6
DASHED
 62
     4
 48
6.0
100
AcDbLine
 10
472.2066705022913
 20
618.3370929532826
 30
0.0
 11
470.7066705022913
 21
618.3370929532737
 31
0.0
  0
LINE
  5
3B8
330
1F
100
AcDbEntity
  8
0
  6
DASHED
 62
     4
 48
6.0
100
AcDbLine
 10
472.2066705022948
 20
617.3370928632833
 30
0.0
 11
472.2066705022913
 21
618.3370929532826
 31
0.0
  0
LINE
  5
3B9
330
1F
100
AcDbEntity
  8
0
  6
DASHED
 62
     4
 48
6.0
100
AcDbLine
 10
476.0166705022503
 20
626.337093673302
 30
0.0
 11
476.0166705022503
 21
626.337093673302
 31
0.0
  0
LINE
  5
3BA
330
1F
100
AcDbEntity
  8
0
  6
DASHED
 62
     4
 48
6.0
100
AcDbLine
 10
474.5166705022378
 20
626.3370936732959
 30
0.0
 11
476.0166705022503
 21
626.337093673302
 31
0.0
  0
LINE
  5
3BB
330
1F
100
AcDbEntity
  8
0
  6
DASHED
 62
     4
 48
6.0
100
AcDbLine
 10
474.5166705022473
 20
624.8370935382955
 30
0.0
 11
474.5166705022378
 21
626.3370936732959
 31
0.0
  0
LINE
  5
3BC
330
1F
100
AcDbEntity
  8
0
  6
DASHED
 62
     4
 48
6.0
100
AcDbLine
 10
473.5166705022583
 20
624.8370935382896
 30
0.0
 11
474.5166705022473
 21
624.8370935382955
 31
0.0
  0
LINE
  5
3BD
330
1F
100
AcDbEntity
  8
0
  6
DASHED
 62
     4
 48
6.0
100
AcDbLine
 10
473.5166705022502
 20
626.3370936732906
 30
0.0
 11
473.5166705022583
 21
624.8370935382896
 31
0.0
  0
LINE
  5
3BE
330
1F
100
AcDbEntity
  8
0
  6
DASHED
 62
     4
 48
6.0
100
AcDbLine
 10
472.0166705022498
 20
626.3370936732842
 30
0.0
 11
473.5166705022502
 21
626.3370936732906
 31
0.0
  0
LINE
  5
3BF
330
1F
100
AcDbEntity
  8
0
  6
DASHED
 62
     4
 48
6.0
100
AcDbLine
 10
472.0166705022322
 20
627.3370937632844
 30
0.0
 11
472.0166705022498
 21
626.3370936732842
 31
0.0
  0
LINE
  5
3C0
330
1F
100
AcDbEntity
  8
0
  6
DASHED
 62
     4
 48
6.0
100
AcDbLine
 10
473.5166705022439
 20
627.3370937632902
 30
0.0
 11
472.0166705022322
 21
627.3370937632844
 31
0.0
  0
LINE
  5
3C1
330
1F
100
AcDbEntity
  8
0
  6
DASHED
 62
     4
 48
6.0
100
AcDbLine
 10
473.5166705022377
 20
628.8370938982896
 30
0.0
 11
473.5166705022439
 21
627.3370937632902
 31
0.0
  0
LINE
  5
3C2
330
1F
100
AcDbEntity
  8
0
  6
DASHED
 62
     4
 48
6.0
100
AcDbLine
 10
474.516670502226
 20
628.8370938982962
 30
0.0
 11
473.5166705022377
 21
628.8370938982896
 31
0.0
  0
LINE
  5
3C3
330
1F
100
AcDbEntity
  8
0
  6
DASHED
 62
     4
 48
6.0
100
AcDbLine
 10
474.5166705022473
 20
627.3370937632957
 30
0.0
 11
474.516670502226
 21
628.8370938982962
 31
0.0
  0
LINE
  5
3C4
330
1F
100
AcDbEntity
  8
0
  6
DASHED
 62
     4
 48
6.0
100
AcDbLine
 10
476.0166705022436
 20
627.3370937633025
 30
0.0
 11
474.5166705022473
 21
627.3370937632957
 31
0.0
  0
LINE
  5
3C5
330
1F
100
AcDbEntity
  8
0
  6
DASHED
 62
     4
 48
6.0
100
AcDbLine
 10
476.0166705022503
 20
626.337093673302
 30
0.0
 11
476.0166705022436
 21
627.3370937633025
 31
0.0
  0
LINE
  5
3C6
330
1F
100
AcDbEntity
  8
0
  6
DASHED
 62
     4
 48
6.0
100
AcDbLine
 10
479.8266705023467
 20
617.337092863322
 30
0.0
 11
479.8266705023467
 21
617.337092863322
 31
0.0
  0
LINE
  5
3C7
330
1F
100
AcDbEntity
  8
0
  6
DASHED
 62
     4
 48
6.0
100
AcDbLine
 10
478.3266705023346
 20
617.3370928633133
 30
0.0
 11
479.8266705023467
 21
617.337092863322
 31
0.0
  0
LINE
  5
3C8
330
1F
100
AcDbEntity
  8
0
  6
DASHED
 62
     4
 48
6.0
100
AcDbLine
 10
478.3266705023438
 20
615.8370927283128
 30
0.0
 11
478.3266705023346
 21
617.3370928633133
 31
0.0
  0
LINE
  5
3C9
330
1F
100
AcDbEntity
  8
0
  6
DASHED
 62
     4
 48
6.0
100
AcDbLine
 10
477.3266705023546
 20
615.8370927283107
 30
0.0
 11
478.3266705023438
 21
615.8370927283128
 31
0.0
  0
LINE
  5
3CA
330
1F
100
AcDbEntity
  8
0
  6
DASHED
 62
     4
 48
6.0
100
AcDbLine
 10
477.3266705023457
 20
617.3370928633102
 30
0.0
 11
477.3266705023546
 21
615.8370927283107
 31
0.0
  0
LINE
  5
3CB
330
1F
100
AcDbEntity
  8
0
  6
DASHED
 62
     4
 48
6.0
100
AcDbLine
 10
475.8266705023461
 20
617.3370928633006
 30
0.0
 11
477.3266705023457
 21
617.3370928633102
 31
0.0
  0
LINE
  5
3CC
330
1F
100
AcDbEntity
  8
0
  6
DASHED
 62
     4
 48
6.0
100
AcDbLine
 10
475.8266705023281
 20
618.3370929533016
 30
0.0
 11
475.8266705023461
 21
617.3370928633006
 31
0.0
  0
LINE
  5
3CD
330
1F
100
AcDbEntity
  8
0
  6
DASHED
 62
     4
 48
6.0
100
AcDbLine
 10
477.3266705023432
 20
618.3370929533092
 30
0.0
 11
475.8266705023281
 21
618.3370929533016
 31
0.0
  0
LINE
  5
3CE
330
1F
100
AcDbEntity
  8
0
  6
DASHED
 62
     4
 48
6.0
100
AcDbLine
 10
477.3266705023338
 20
619.8370930883108
 30
0.0
 11
477.3266705023432
 21
618.3370929533092
 31
0.0
  0
LINE
  5
3CF
330
1F
100
AcDbEntity
  8
0
  6
DASHED
 62
     4
 48
6.0
100
AcDbLine
 10
478.3266705023224
 20
619.837093088314
 30
0.0
 11
477.3266705023338
 21
619.8370930883108
 31
0.0
  0
LINE
  5
3D0
330
1F
100
AcDbEntity
  8
0
  6
DASHED
 62
     4
 48
6.0
100
AcDbLine
 10
478.3266705023438
 20
618.3370929533132
 30
0.0
 11
478.3266705023224
 21
619.837093088314
 31
0.0
  0
LINE
  5
3D1
330
1F
100
AcDbEntity
  8
0
  6
DASHED
 62
     4
 48
6.0
100
AcDbLine
 10
479.8266705023401
 20
618.3370929533217
 30
0.0
 11
478.3266705023438
 21
618.3370929533132
 31
0.0
  0
LINE
  5
3D2
330
1F
100
AcDbEntity
  8
0
  6
DASHED
 62
     4
 48
6.0
100
AcDbLine
 10
479.8266705023467
 20
617.337092863322
 30
0.0
 11
479.8266705023401
 21
618.3370929533217
 31
0.0
  0
LINE
  5
3D3
330
1F
100
AcDbEntity
  8
0
  6
DASHED
 62
     4
 48
6.0
100
AcDbLine
 10
481.1366705022953
 20
626.3370936733292
 30
0.0
 11
481.1366705023018
 21
624.8370935383286
 31
0.0
  0
LINE
  5
3D4
330
1F
100
AcDbEntity
  8
0
  6
DASHED
 62
     4
 48
6.0
100
AcDbLine
 10
479.6366705022951
 20
626.3370936733227
 30
0.0
 11
481.1366705022953
 21
626.3370936733292
 31
0.0
  0
LINE
  5
3D5
330
1F
100
AcDbEntity
  8
0
  6
DASHED
 62
     4
 48
6.0
100
AcDbLine
 10
479.6366705022776
 20
627.3370937633231
 30
0.0
 11
479.6366705022951
 21
626.3370936733227
 31
0.0
  0
LINE
  5
3D6
330
1F
100
AcDbEntity
  8
0
  6
DASHED
 62
     4
 48
6.0
100
AcDbLine
 10
481.13667050229
 20
627.3370937633292
 30
0.0
 11
479.6366705022776
 21
627.3370937633231
 31
0.0
  0
LINE
  5
3D7
330
1F
100
AcDbEntity
  8
0
  6
DASHED
 62
     4
 48
6.0
100
AcDbLine
 10
481.1366705022805
 20
628.8370938983288
 30
0.0
 11
481.13667050229
 21
627.3370937633292
 31
0.0
  0
LINE
  5
3D8
330
1F
100
AcDbEntity
  8
0
  6
DASHED
 62
     4
 48
6.0
100
AcDbLine
 10
451.1566705021723
 20
631.8370941681769
 30
0.0
 11
451.1566705021671
 21
612.8370924586577
 31
0.0
  0
LINE
  5
3D9
330
1F
100
AcDbEntity
  8
0
  6
Continuous
 62
     7
100
AcDbLine
 10
435.5016695785042
 20
628.9170342532412
 30
0.0
 11
435.5016695785042
 21
603.1530987835602
 31
0.0
  0
LINE
  5
3DA
330
1F
100
AcDbEntity
  8
0
  6
Continuous
 62
     7
100
AcDbLine
 10
435.5016695785042
 20
598.6809726620021
 30
0.0
 11
435.5016695785042
 21
591.3811326649894
 31
0.0
  0
LINE
  5
3DB
330
1F
100
AcDbEntity
  8
0
  6
Continuous
 62
     7
100
AcDbLine
 10
439.5016695785046
 20
628.9170344280871
 30
0.0
 11
439.5016695785046
 21
603.1531090194686
 31
0.0
  0
LINE
  5
3DC
330
1F
100
AcDbEntity
  8
0
  6
Continuous
 62
     7
100
AcDbLine
 10
439.5016695785046
 20
598.6809624260943
 30
0.0
 11
439.5016695785046
 21
591.3811326649894
 31
0.0
  0
CIRCLE
  5
3DD
330
1F
100
AcDbEntity
  8
0
  6
DASHED
 62
     4
370
     0
100
AcDbCircle
 10
534.9766703784764
 20
626.8370935948559
 30
0.0
 40
2.750000123750733
  0
CIRCLE
  5
3DE
330
1F
100
AcDbEntity
  8
0
  6
DASHED
 62
     4
370
     0
100
AcDbCircle
 10
527.3566703785705
 20
626.8370935948171
 30
0.0
 40
2.750000123752097
  0
CIRCLE
  5
3DF
330
1F
100
AcDbEntity
  8
0
  6
DASHED
 62
     4
370
     0
100
AcDbCircle
 10
519.736670378571
 20
626.8370935947784
 30
0.0
 40
2.750000123750733
  0
CIRCLE
  5
3E0
330
1F
100
AcDbEntity
  8
0
  6
DASHED
 62
     4
370
     0
100
AcDbCircle
 10
512.1166703785271
 20
626.8370935947371
 30
0.0
 40
2.750000123749028
  0
CIRCLE
  5
3E1
330
1F
100
AcDbEntity
  8
0
  6
DASHED
 62
     4
370
     0
100
AcDbCircle
 10
504.496670378475
 20
626.8370935946982
 30
0.0
 40
2.750000123749369
  0
CIRCLE
  5
3E2
330
1F
100
AcDbEntity
  8
0
  6
DASHED
 62
     4
370
     0
100
AcDbCircle
 10
496.8766703785266
 20
626.8370935946587
 30
0.0
 40
2.750000123749028
  0
CIRCLE
  5
3E3
330
1F
100
AcDbEntity
  8
0
  6
DASHED
 62
     4
370
     0
100
AcDbCircle
 10
489.2566703784746
 20
626.8370935946208
 30
0.0
 40
2.750000123749028
  0
CIRCLE
  5
3E4
330
1F
100
AcDbEntity
  8
0
  6
DASHED
 62
     4
370
     0
100
AcDbCircle
 10
531.166670378522
 20
617.8370927848365
 30
0.0
 40
2.750000123750733
  0
CIRCLE
  5
3E5
330
1F
100
AcDbEntity
  8
0
  6
DASHED
 62
     4
370
     0
100
AcDbCircle
 10
523.5466703786162
 20
617.8370927847979
 30
0.0
 40
2.750000123752097
  0
CIRCLE
  5
3E6
330
1F
100
AcDbEntity
  8
0
  6
DASHED
 62
     4
370
     0
100
AcDbCircle
 10
515.9266703786173
 20
617.837092784759
 30
0.0
 40
2.750000123750733
  0
CIRCLE
  5
3E7
330
1F
100
AcDbEntity
  8
0
  6
DASHED
 62
     4
370
     0
100
AcDbCircle
 10
508.3066703785731
 20
617.8370927847175
 30
0.0
 40
2.750000123749028
  0
CIRCLE
  5
3E8
330
1F
100
AcDbEntity
  8
0
  6
DASHED
 62
     4
370
     0
100
AcDbCircle
 10
500.6866703785213
 20
617.8370927846782
 30
0.0
 40
2.750000123749369
  0
CIRCLE
  5
3E9
330
1F
100
AcDbEntity
  8
0
  6
DASHED
 62
     4
370
     0
100
AcDbCircle
 10
493.0666703785717
 20
617.8370927846392
 30
0.0
 40
2.750000123749028
  0
CIRCLE
  5
3EA
330
1F
100
AcDbEntity
  8
0
  6
DASHED
 62
     4
370
     0
100
AcDbCircle
 10
485.4466703785202
 20
617.8370927846011
 30
0.0
 40
2.750000123749028
  0
CIRCLE
  5
3EB
330
1F
100
AcDbEntity
  8
0
  6
Continuous
 62
     7
100
AcDbCircle
 10
553.5016751655588
 20
600.9170358577815
 30
0.0
 40
3.000000135000719
  0
LINE
  5
3EC
330
1F
100
AcDbEntity
  8
0
  6
Continuous
 62
     7
 48
6.0
100
AcDbLine
 10
555.5016772161264
 20
600.4170363747131
 30
0.0
 11
555.5016772161264
 21
600.4170363747131
 31
0.0
  0
LINE
  5
3ED
330
1F
100
AcDbEntity
  8
0
  6
Continuous
 62
     7
 48
6.0
100
AcDbLine
 10
554.0016772161143
 20
600.417036374707
 30
0.0
 11
555.5016772161264
 21
600.4170363747131
 31
0.0
  0
LINE
  5
3EE
330
1F
100
AcDbEntity
  8
0
  6
Continuous
 62
     7
 48
6.0
100
AcDbLine
 10
554.0016772161226
 20
598.917036239707
 30
0.0
 11
554.0016772161143
 21
600.417036374707
 31
0.0
  0
LINE
  5
3EF
330
1F
100
AcDbEntity
  8
0
  6
Continuous
 62
     7
 48
6.0
100
AcDbLine
 10
553.0016772161347
 20
598.9170362397002
 30
0.0
 11
554.0016772161226
 21
598.917036239707
 31
0.0
  0
LINE
  5
3F0
330
1F
100
AcDbEntity
  8
0
  6
Continuous
 62
     7
 48
6.0
100
AcDbLine
 10
553.0016772161253
 20
600.4170363747012
 30
0.0
 11
553.0016772161347
 21
598.9170362397002
 31
0.0
  0
LINE
  5
3F1
330
1F
100
AcDbEntity
  8
0
  6
Continuous
 62
     7
 48
6.0
100
AcDbLine
 10
551.5016772161253
 20
600.4170363746943
 30
0.0
 11
553.0016772161253
 21
600.4170363747012
 31
0.0
  0
LINE
  5
3F2
330
1F
100
AcDbEntity
  8
0
  6
Continuous
 62
     7
 48
6.0
100
AcDbLine
 10
551.5016772161105
 20
601.4170364646948
 30
0.0
 11
551.5016772161253
 21
600.4170363746943
 31
0.0
  0
LINE
  5
3F3
330
1F
100
AcDbEntity
  8
0
  6
Continuous
 62
     7
 48
6.0
100
AcDbLine
 10
553.0016772161228
 20
601.4170364647005
 30
0.0
 11
551.5016772161105
 21
601.4170364646948
 31
0.0
  0
LINE
  5
3F4
330
1F
100
AcDbEntity
  8
0
  6
Continuous
 62
     7
 48
6.0
100
AcDbLine
 10
553.0016772161141
 20
602.917036599701
 30
0.0
 11
553.0016772161228
 21
601.4170364647005
 31
0.0
  0
LINE
  5
3F5
330
1F
100
AcDbEntity
  8
0
  6
Continuous
 62
     7
 48
6.0
100
AcDbLine
 10
554.0016772161022
 20
602.9170365997072
 30
0.0
 11
553.0016772161141
 21
602.917036599701
 31
0.0
  0
LINE
  5
3F6
330
1F
100
AcDbEntity
  8
0
  6
Continuous
 62
     7
 48
6.0
100
AcDbLine
 10
554.0016772161226
 20
601.4170364647072
 30
0.0
 11
554.0016772161022
 21
602.9170365997072
 31
0.0
  0
LINE
  5
3F7
330
1F
100
AcDbEntity
  8
0
  6
Continuous
 62
     7
 48
6.0
100
AcDbLine
 10
555.5016772161232
 20
601.4170364647127
 30
0.0
 11
554.0016772161226
 21
601.4170364647072
 31
0.0
  0
LINE
  5
3F8
330
1F
100
AcDbEntity
  8
0
  6
Continuous
 62
     7
 48
6.0
100
AcDbLine
 10
555.5016772161264
 20
600.4170363747131
 30
0.0
 11
555.5016772161232
 21
601.4170364647127
 31
0.0
  0
ARC
  5
3F9
330
1F
100
AcDbEntity
  8
0
  6
Continuous
 62
     7
100
AcDbCircle
 10
495.3016695785095
 20
644.9170358680881
 30
0.0
 40
9.000000607499945
100
AcDbArc
 50
119.9999977671226
 51
60.00000223288103
  0
LINE
  5
3FA
330
1F
100
AcDbEntity
  8
0
  6
Continuous
 62
     7
100
AcDbLine
 10
499.8016695785103
 20
637.1228065325461
 30
0.0
 11
499.8016695785103
 21
637.1228065325461
 31
0.0
  0
LINE
  5
3FB
330
1F
100
AcDbEntity
  8
0
  6
Continuous
 62
     7
100
AcDbLine
 10
490.8016695785093
 20
637.1228065325461
 30
0.0
 11
490.8016695785093
 21
637.1228065325461
 31
0.0
  0
LINE
  5
3FC
330
1F
100
AcDbEntity
  8
0
  6
Continuous
 62
     7
100
AcDbLine
 10
499.8016695785103
 20
652.7112652036284
 30
0.0
 11
499.8016695785103
 21
653.9170366780894
 31
0.0
  0
LINE
  5
3FD
330
1F
100
AcDbEntity
  8
0
  6
Continuous
 62
     7
100
AcDbLine
 10
490.8016695785093
 20
652.7112652036284
 30
0.0
 11
490.8016695785093
 21
653.9170366780894
 31
0.0
  0
ARC
  5
3FE
330
1F
100
AcDbEntity
  8
0
  6
Continuous
 62
     7
100
AcDbCircle
 10
553.5016695785123
 20
628.9170344280871
 30
0.0
 40
2.000000000000185
100
AcDbArc
 50
0.0
 51
180.0
  0
LINE
  5
3FF
330
1F
100
AcDbEntity
  8
0
  6
DASHED
 62
     4
 48
6.0
100
AcDbLine
 10
536.6806905265043
 20
615.3847909907758
 30
0.0
 11
539.4466705022497
 21
615.3847909907905
 31
0.0
  0
LINE
  5
400
330
1F
100
AcDbEntity
  8
0
  6
DASHED
 62
     4
 48
6.0
100
AcDbLine
 10
536.6806905264714
 20
621.5459810874833
 30
0.0
 11
536.6806905264143
 21
615.3847909907758
 31
0.0
  0
LINE
  5
401
330
1F
100
AcDbEntity
  8
0
  6
DASHED
 62
     4
 48
6.0
100
AcDbLine
 10
539.4466705022201
 20
621.5459810874959
 30
0.0
 11
536.6806905264714
 21
621.5459810874833
 31
0.0
  0
LINE
  5
402
330
1F
100
AcDbEntity
  8
0
  6
DASHED
 62
     4
 48
6.0
100
AcDbLine
 10
535.6366705023815
 20
614.15709257741
 30
0.0
 11
535.6366705023242
 21
622.8370933586102
 31
0.0
  0
LINE
  5
403
330
1F
100
AcDbEntity
  8
0
  6
DASHED
 62
     4
 48
6.0
100
AcDbLine
 10
539.4466705023819
 20
614.157092577428
 30
0.0
 11
535.6366705023815
 21
614.15709257741
 31
0.0
  0
LINE
  5
404
330
1F
100
AcDbEntity
  8
0
  6
DASHED
 62
     4
 48
6.0
100
AcDbLine
 10
534.3166705023003
 20
622.8370933586018
 30
0.0
 11
534.3166705023935
 21
612.8370924587057
 31
0.0
  0
LINE
  5
405
330
1F
100
AcDbEntity
  8
0
  6
DASHED
 62
     4
 48
6.0
100
AcDbLine
 10
528.0166705023892
 20
612.8370924581477
 30
0.0
 11
528.016670502324
 21
622.837093358571
 31
0.0
  0
LINE
  5
406
330
1F
100
AcDbEntity
  8
0
  6
DASHED
 62
     4
 48
6.0
100
AcDbLine
 10
526.6966705023239
 20
622.8370933585635
 30
0.0
 11
526.6966705023897
 21
612.8370924581477
 31
0.0
  0
LINE
  5
407
330
1F
100
AcDbEntity
  8
0
  6
DASHED
 62
     4
 48
6.0
100
AcDbLine
 10
520.3966705023503
 20
612.8370924581504
 30
0.0
 11
520.3966705022987
 21
622.8370933585322
 31
0.0
  0
LINE
  5
408
330
1F
100
AcDbEntity
  8
0
  6
DASHED
 62
     4
 48
6.0
100
AcDbLine
 10
519.0766705022992
 20
622.8370933585233
 30
0.0
 11
519.0766705023921
 21
612.8370924587082
 31
0.0
  0
LINE
  5
409
330
1F
100
AcDbEntity
  8
0
  6
DASHED
 62
     4
 48
6.0
100
AcDbLine
 10
512.7766705023909
 20
612.8370924587113
 30
0.0
 11
512.7766705022987
 21
622.8370933584904
 31
0.0
  0
LINE
  5
40A
330
1F
100
AcDbEntity
  8
0
  6
DASHED
 62
     4
 48
6.0
100
AcDbLine
 10
511.4566705022984
 20
622.8370933584842
 30
0.0
 11
511.4566705023913
 21
612.8370924587113
 31
0.0
  0
LINE
  5
40B
330
1F
100
AcDbEntity
  8
0
  6
DASHED
 62
     4
 48
6.0
100
AcDbLine
 10
505.1566705023871
 20
612.8370924581562
 30
0.0
 11
505.1566705023216
 21
622.8370933584518
 31
0.0
  0
LINE
  5
40C
330
1F
100
AcDbEntity
  8
0
  6
DASHED
 62
     4
 48
6.0
100
AcDbLine
 10
503.8366705022973
 20
622.8370933584452
 30
0.0
 11
503.8366705023483
 21
612.8370924587145
 31
0.0
  0
LINE
  5
40D
330
1F
100
AcDbEntity
  8
0
  6
DASHED
 62
     4
 48
6.0
100
AcDbLine
 10
497.5366705023481
 20
612.8370924587174
 30
0.0
 11
497.5366705022968
 21
622.8370933584129
 31
0.0
  0
LINE
  5
40E
330
1F
100
AcDbEntity
  8
0
  6
DASHED
 62
     4
 48
6.0
100
AcDbLine
 10
496.2166705022968
 20
622.8370933584066
 30
0.0
 11
496.2166705023481
 21
612.8370924587174
 31
0.0
  0
LINE
  5
40F
330
1F
100
AcDbEntity
  8
0
  6
DASHED
 62
     4
 48
6.0
100
AcDbLine
 10
489.9166705023414
 20
612.8370924587203
 30
0.0
 11
489.9166705023207
 21
622.8370933583732
 31
0.0
  0
LINE
  5
410
330
1F
100
AcDbEntity
  8
0
  6
DASHED
 62
     4
 48
6.0
100
AcDbLine
 10
488.5966705022958
 20
622.8370933583675
 30
0.0
 11
488.5966705023474
 21
612.8370924587203
 31
0.0
  0
LINE
  5
411
330
1F
100
AcDbEntity
  8
0
  6
DASHED
 62
     4
 48
6.0
100
AcDbLine
 10
482.2966705022961
 20
622.8370933583349
 30
0.0
 11
482.2966705023467
 21
612.8370924587231
 31
0.0
  0
LINE
  5
412
330
1F
100
AcDbEntity
  8
0
  6
DASHED
 62
     4
 48
6.0
100
AcDbLine
 10
484.7866705022242
 20
631.8370941683476
 30
0.0
 11
484.786670502281
 21
622.8370933583469
 31
0.0
  0
LINE
  5
413
330
1F
100
AcDbEntity
  8
0
  6
DASHED
 62
     4
 48
6.0
100
AcDbLine
 10
486.1066705022452
 20
622.8370933583557
 30
0.0
 11
486.1066705021975
 21
631.8370941683564
 31
0.0
  0
LINE
  5
414
330
1F
100
AcDbEntity
  8
0
  6
DASHED
 62
     4
 48
6.0
100
AcDbLine
 10
492.4066705021976
 20
631.8370941683867
 30
0.0
 11
492.406670502245
 21
622.8370933583882
 31
0.0
  0
LINE
  5
415
330
1F
100
AcDbEntity
  8
0
  6
DASHED
 62
     4
 48
6.0
100
AcDbLine
 10
493.726670502282
 20
622.8370933583947
 30
0.0
 11
493.7266705021981
 21
631.8370941683962
 31
0.0
  0
LINE
  5
416
330
1F
100
AcDbEntity
  8
0
  6
DASHED
 62
     4
 48
6.0
100
AcDbLine
 10
500.0266705022248
 20
631.8370941684285
 30
0.0
 11
500.0266705022821
 21
622.8370933584279
 31
0.0
  0
LINE
  5
417
330
1F
100
AcDbEntity
  8
0
  6
DASHED
 62
     4
 48
6.0
100
AcDbLine
 10
501.346670502246
 20
622.8370933584326
 30
0.0
 11
501.3466705022251
 21
631.8370941684344
 31
0.0
  0
LINE
  5
418
330
1F
100
AcDbEntity
  8
0
  6
DASHED
 62
     4
 48
6.0
100
AcDbLine
 10
507.6466705022248
 20
631.8370941684677
 30
0.0
 11
507.6466705022826
 21
622.8370933584666
 31
0.0
  0
LINE
  5
419
330
1F
100
AcDbEntity
  8
0
  6
DASHED
 62
     4
 48
6.0
100
AcDbLine
 10
508.9666705022469
 20
622.8370933584725
 30
0.0
 11
508.9666705021983
 21
631.8370941684738
 31
0.0
  0
LINE
  5
41A
330
1F
100
AcDbEntity
  8
0
  6
DASHED
 62
     4
 48
6.0
100
AcDbLine
 10
515.2666705022268
 20
631.8370941685067
 30
0.0
 11
515.2666705022475
 21
622.8370933585057
 31
0.0
  0
LINE
  5
41B
330
1F
100
AcDbEntity
  8
0
  6
DASHED
 62
     4
 48
6.0
100
AcDbLine
 10
516.5866705022831
 20
622.8370933585113
 30
0.0
 11
516.5866705022388
 21
631.2513076781647
 31
0.0
  0
LINE
  5
41C
330
1F
100
AcDbEntity
  8
0
  6
DASHED
 62
     4
 48
6.0
100
AcDbLine
 10
522.8866705021998
 20
631.8370941685453
 30
0.0
 11
522.8866705022486
 21
622.8370933585447
 31
0.0
  0
LINE
  5
41D
330
1F
100
AcDbEntity
  8
0
  6
DASHED
 62
     4
 48
6.0
100
AcDbLine
 10
524.2066705022481
 20
622.8370933585503
 30
0.0
 11
524.2066705022276
 21
631.8370941685515
 31
0.0
  0
LINE
  5
41E
330
1F
100
AcDbEntity
  8
0
  6
DASHED
 62
     4
 48
6.0
100
AcDbLine
 10
530.5066705022018
 20
631.8370941685842
 30
0.0
 11
530.5066705022493
 21
622.8370933585832
 31
0.0
  0
LINE
  5
41F
330
1F
100
AcDbEntity
  8
0
  6
DASHED
 62
     4
 48
6.0
100
AcDbLine
 10
531.8266705022852
 20
622.8370933585899
 30
0.0
 11
531.8266705022288
 21
631.8370941685908
 31
0.0
  0
LINE
  5
420
330
1F
100
AcDbEntity
  8
0
  6
DASHED
 62
     4
 48
6.0
100
AcDbLine
 10
538.1266705022015
 20
631.8370941686237
 30
0.0
 11
538.1266705022498
 21
622.8370933586224
 31
0.0
  0
LINE
  5
421
330
1F
100
AcDbEntity
  8
0
  6
DASHED
 62
     4
 48
6.0
100
AcDbLine
 10
483.6366705022958
 20
626.3370936733407
 30
0.0
 11
483.6366705022958
 21
626.3370936733407
 31
0.0
  0
LINE
  5
422
330
1F
100
AcDbEntity
  8
0
  6
DASHED
 62
     4
 48
6.0
100
AcDbLine
 10
482.136670502284
 20
626.3370936733342
 30
0.0
 11
483.6366705022958
 21
626.3370936733407
 31
0.0
  0
LINE
  5
423
330
1F
100
AcDbEntity
  8
0
  6
DASHED
 62
     4
 48
6.0
100
AcDbLine
 10
482.1366705022893
 20
624.8370935383348
 30
0.0
 11
482.136670502284
 21
626.3370936733342
 31
0.0
  0
LINE
  5
424
330
1F
100
AcDbEntity
  8
0
  6
DASHED
 62
     4
 48
6.0
100
AcDbLine
 10
482.1366705022893
 20
627.3370937633345
 30
0.0
 11
482.1366705022692
 21
628.8370938983347
 31
0.0
  0
LINE
  5
425
330
1F
100
AcDbEntity
  8
0
  6
DASHED
 62
     4
 48
6.0
100
AcDbLine
 10
483.6366705022896
 20
627.3370937633442
 30
0.0
 11
482.1366705022893
 21
627.3370937633345
 31
0.0
  0
LINE
  5
426
330
1F
100
AcDbEntity
  8
0
  6
DASHED
 62
     4
 48
6.0
100
AcDbLine
 10
483.6366705022958
 20
626.3370936733407
 30
0.0
 11
483.6366705022896
 21
627.3370937633442
 31
0.0
  0
LINE
  5
427
330
1F
100
AcDbEntity
  8
0
  6
DASHED
 62
     4
 48
6.0
100
AcDbLine
 10
487.4466705022967
 20
617.3370928633603
 30
0.0
 11
487.4466705022967
 21
617.3370928633603
 31
0.0
  0
LINE
  5
428
330
1F
100
AcDbEntity
  8
0
  6
DASHED
 62
     4
 48
6.0
100
AcDbLine
 10
485.9466705022842
 20
617.3370928633523
 30
0.0
 11
487.4466705022967
 21
617.3370928633603
 31
0.0
  0
LINE
  5
429
330
1F
100
AcDbEntity
  8
0
  6
DASHED
 62
     4
 48
6.0
100
AcDbLine
 10
485.946670502293
 20
615.8370927283515
 30
0.0
 11
485.9466705022842
 21
617.3370928633523
 31
0.0
  0
LINE
  5
42A
330
1F
100
AcDbEntity
  8
0
  6
DASHED
 62
     4
 48
6.0
100
AcDbLine
 10
484.9466705023048
 20
615.8370927283487
 30
0.0
 11
485.946670502293
 21
615.8370927283515
 31
0.0
  0
LINE
  5
42B
330
1F
100
AcDbEntity
  8
0
  6
DASHED
 62
     4
 48
6.0
100
AcDbLine
 10
484.9466705022988
 20
617.337092863348
 30
0.0
 11
484.9466705023048
 21
615.8370927283487
 31
0.0
  0
LINE
  5
42C
330
1F
100
AcDbEntity
  8
0
  6
DASHED
 62
     4
 48
6.0
100
AcDbLine
 10
483.4466705022962
 20
617.3370928633402
 30
0.0
 11
484.9466705022988
 21
617.337092863348
 31
0.0
  0
LINE
  5
42D
330
1F
100
AcDbEntity
  8
0
  6
DASHED
 62
     4
 48
6.0
100
AcDbLine
 10
483.4466705022804
 20
618.3370929533404
 30
0.0
 11
483.4466705022962
 21
617.3370928633402
 31
0.0
  0
LINE
  5
42E
330
1F
100
AcDbEntity
  8
0
  6
DASHED
 62
     4
 48
6.0
100
AcDbLine
 10
484.946670502293
 20
618.3370929533481
 30
0.0
 11
483.4466705022804
 21
618.3370929533404
 31
0.0
  0
LINE
  5
42F
330
1F
100
AcDbEntity
  8
0
  6
DASHED
 62
     4
 48
6.0
100
AcDbLine
 10
484.9466705022843
 20
619.8370930883491
 30
0.0
 11
484.946670502293
 21
618.3370929533481
 31
0.0
  0
LINE
  5
430
330
1F
100
AcDbEntity
  8
0
  6
DASHED
 62
     4
 48
6.0
100
AcDbLine
 10
485.9466705022716
 20
619.8370930883525
 30
0.0
 11
484.9466705022843
 21
619.8370930883491
 31
0.0
  0
LINE
  5
431
330
1F
100
AcDbEntity
  8
0
  6
DASHED
 62
     4
 48
6.0
100
AcDbLine
 10
485.946670502293
 20
618.337092953352
 30
0.0
 11
485.9466705022716
 21
619.8370930883525
 31
0.0
  0
LINE
  5
432
330
1F
100
AcDbEntity
  8
0
  6
DASHED
 62
     4
 48
6.0
100
AcDbLine
 10
487.4466705022931
 20
618.3370929533607
 30
0.0
 11
485.946670502293
 21
618.337092953352
 31
0.0
  0
LINE
  5
433
330
1F
100
AcDbEntity
  8
0
  6
DASHED
 62
     4
 48
6.0
100
AcDbLine
 10
487.4466705022967
 20
617.3370928633603
 30
0.0
 11
487.4466705022931
 21
618.3370929533607
 31
0.0
  0
LINE
  5
434
330
1F
100
AcDbEntity
  8
0
  6
DASHED
 62
     4
 48
6.0
100
AcDbLine
 10
491.2566705022515
 20
626.3370936733829
 30
0.0
 11
491.2566705022515
 21
626.3370936733829
 31
0.0
  0
LINE
  5
435
330
1F
100
AcDbEntity
  8
0
  6
DASHED
 62
     4
 48
6.0
100
AcDbLine
 10
489.7566705022398
 20
626.3370936733736
 30
0.0
 11
491.2566705022515
 21
626.3370936733829
 31
0.0
  0
LINE
  5
436
330
1F
100
AcDbEntity
  8
0
  6
DASHED
 62
     4
 48
6.0
100
AcDbLine
 10
489.7566705022483
 20
624.8370935383737
 30
0.0
 11
489.7566705022398
 21
626.3370936733736
 31
0.0
  0
LINE
  5
437
330
1F
100
AcDbEntity
  8
0
  6
DASHED
 62
     4
 48
6.0
100
AcDbLine
 10
488.7566705022599
 20
624.8370935383682
 30
0.0
 11
489.7566705022483
 21
624.8370935383737
 31
0.0
  0
LINE
  5
438
330
1F
100
AcDbEntity
  8
0
  6
DASHED
 62
     4
 48
6.0
100
AcDbLine
 10
488.7566705022506
 20
626.3370936733682
 30
0.0
 11
488.7566705022599
 21
624.8370935383682
 31
0.0
  0
LINE
  5
439
330
1F
100
AcDbEntity
  8
0
  6
DASHED
 62
     4
 48
6.0
100
AcDbLine
 10
487.2566705022506
 20
626.3370936733622
 30
0.0
 11
488.7566705022506
 21
626.3370936733682
 31
0.0
  0
LINE
  5
43A
330
1F
100
AcDbEntity
  8
0
  6
DASHED
 62
     4
 48
6.0
100
AcDbLine
 10
487.2566705022328
 20
627.3370937633623
 30
0.0
 11
487.2566705022506
 21
626.3370936733622
 31
0.0
  0
LINE
  5
43B
330
1F
100
AcDbEntity
  8
0
  6
DASHED
 62
     4
 48
6.0
100
AcDbLine
 10
488.7566705022478
 20
627.3370937633682
 30
0.0
 11
487.2566705022328
 21
627.3370937633623
 31
0.0
  0
LINE
  5
43C
330
1F
100
AcDbEntity
  8
0
  6
DASHED
 62
     4
 48
6.0
100
AcDbLine
 10
488.7566705022392
 20
628.8370938983677
 30
0.0
 11
488.7566705022478
 21
627.3370937633682
 31
0.0
  0
LINE
  5
43D
330
1F
100
AcDbEntity
  8
0
  6
DASHED
 62
     4
 48
6.0
100
AcDbLine
 10
489.7566705022278
 20
628.8370938983738
 30
0.0
 11
488.7566705022392
 21
628.8370938983677
 31
0.0
  0
LINE
  5
43E
330
1F
100
AcDbEntity
  8
0
  6
DASHED
 62
     4
 48
6.0
100
AcDbLine
 10
489.756670502245
 20
627.3370937633739
 30
0.0
 11
489.7566705022278
 21
628.8370938983738
 31
0.0
  0
LINE
  5
43F
330
1F
100
AcDbEntity
  8
0
  6
DASHED
 62
     4
 48
6.0
100
AcDbLine
 10
491.2566705022454
 20
627.3370937633828
 30
0.0
 11
489.756670502245
 21
627.3370937633739
 31
0.0
  0
LINE
  5
440
330
1F
100
AcDbEntity
  8
0
  6
DASHED
 62
     4
 48
6.0
100
AcDbLine
 10
491.2566705022515
 20
626.3370936733829
 30
0.0
 11
491.2566705022454
 21
627.3370937633828
 31
0.0
  0
LINE
  5
441
330
1F
100
AcDbEntity
  8
0
  6
DASHED
 62
     4
 48
6.0
100
AcDbLine
 10
495.0666705023483
 20
617.3370928634002
 30
0.0
 11
495.0666705023483
 21
617.3370928634002
 31
0.0
  0
LINE
  5
442
330
1F
100
AcDbEntity
  8
0
  6
DASHED
 62
     4
 48
6.0
100
AcDbLine
 10
493.566670502336
 20
617.3370928633936
 30
0.0
 11
495.0666705023483
 21
617.3370928634002
 31
0.0
  0
LINE
  5
443
330
1F
100
AcDbEntity
  8
0
  6
DASHED
 62
     4
 48
6.0
100
AcDbLine
 10
493.5666705023442
 20
615.8370927283903
 30
0.0
 11
493.566670502336
 21
617.3370928633936
 31
0.0
  0
LINE
  5
444
330
1F
100
AcDbEntity
  8
0
  6
DASHED
 62
     4
 48
6.0
100
AcDbLine
 10
492.5666705023571
 20
615.8370927283881
 30
0.0
 11
493.5666705023442
 21
615.8370927283903
 31
0.0
  0
LINE
  5
445
330
1F
100
AcDbEntity
  8
0
  6
DASHED
 62
     4
 48
6.0
100
AcDbLine
 10
492.5666705023472
 20
617.3370928633877
 30
0.0
 11
492.5666705023571
 21
615.8370927283881
 31
0.0
  0
LINE
  5
446
330
1F
100
AcDbEntity
  8
0
  6
DASHED
 62
     4
 48
6.0
100
AcDbLine
 10
491.066670502348
 20
617.3370928633788
 30
0.0
 11
492.5666705023472
 21
617.3370928633877
 31
0.0
  0
LINE
  5
447
330
1F
100
AcDbEntity
  8
0
  6
DASHED
 62
     4
 48
6.0
100
AcDbLine
 10
491.0666705023293
 20
618.3370929533786
 30
0.0
 11
491.066670502348
 21
617.3370928633788
 31
0.0
  0
LINE
  5
448
330
1F
100
AcDbEntity
  8
0
  6
DASHED
 62
     4
 48
6.0
100
AcDbLine
 10
492.5666705023446
 20
618.3370929533879
 30
0.0
 11
491.0666705023293
 21
618.3370929533786
 31
0.0
  0
LINE
  5
449
330
1F
100
AcDbEntity
  8
0
  6
DASHED
 62
     4
 48
6.0
100
AcDbLine
 10
492.5666705023358
 20
619.8370930883879
 30
0.0
 11
492.5666705023446
 21
618.3370929533879
 31
0.0
  0
LINE
  5
44A
330
1F
100
AcDbEntity
  8
0
  6
DASHED
 62
     4
 48
6.0
100
AcDbLine
 10
493.5666705023235
 20
619.8370930883945
 30
0.0
 11
492.5666705023358
 21
619.8370930883879
 31
0.0
  0
LINE
  5
44B
330
1F
100
AcDbEntity
  8
0
  6
DASHED
 62
     4
 48
6.0
100
AcDbLine
 10
493.5666705023442
 20
618.3370929533943
 30
0.0
 11
493.5666705023235
 21
619.8370930883945
 31
0.0
  0
LINE
  5
44C
330
1F
100
AcDbEntity
  8
0
  6
DASHED
 62
     4
 48
6.0
100
AcDbLine
 10
495.0666705023418
 20
618.3370929534
 30
0.0
 11
493.5666705023442
 21
618.3370929533943
 31
0.0
  0
LINE
  5
44D
330
1F
100
AcDbEntity
  8
0
  6
DASHED
 62
     4
 48
6.0
100
AcDbLine
 10
495.0666705023483
 20
617.3370928634002
 30
0.0
 11
495.0666705023418
 21
618.3370929534
 31
0.0
  0
LINE
  5
44E
330
1F
100
AcDbEntity
  8
0
  6
DASHED
 62
     4
 48
6.0
100
AcDbLine
 10
498.8766705022975
 20
626.3370936734226
 30
0.0
 11
498.8766705022975
 21
626.3370936734226
 31
0.0
  0
LINE
  5
44F
330
1F
100
AcDbEntity
  8
0
  6
DASHED
 62
     4
 48
6.0
100
AcDbLine
 10
497.3766705022852
 20
626.3370936734133
 30
0.0
 11
498.8766705022975
 21
626.3370936734226
 31
0.0
  0
LINE
  5
450
330
1F
100
AcDbEntity
  8
0
  6
DASHED
 62
     4
 48
6.0
100
AcDbLine
 10
497.3766705022911
 20
624.8370935384124
 30
0.0
 11
497.3766705022852
 21
626.3370936734133
 31
0.0
  0
LINE
  5
451
330
1F
100
AcDbEntity
  8
0
  6
DASHED
 62
     4
 48
6.0
100
AcDbLine
 10
496.3766705023034
 20
624.8370935384067
 30
0.0
 11
497.3766705022911
 21
624.8370935384124
 31
0.0
  0
LINE
  5
452
330
1F
100
AcDbEntity
  8
0
  6
DASHED
 62
     4
 48
6.0
100
AcDbLine
 10
496.3766705022971
 20
626.3370936734069
 30
0.0
 11
496.3766705023034
 21
624.8370935384067
 31
0.0
  0
LINE
  5
453
330
1F
100
AcDbEntity
  8
0
  6
DASHED
 62
     4
 48
6.0
100
AcDbLine
 10
494.8766705022968
 20
626.3370936734012
 30
0.0
 11
496.3766705022971
 21
626.3370936734069
 31
0.0
  0
LINE
  5
454
330
1F
100
AcDbEntity
  8
0
  6
DASHED
 62
     4
 48
6.0
100
AcDbLine
 10
494.8766705022783
 20
627.3370937634012
 30
0.0
 11
494.8766705022968
 21
626.3370936734012
 31
0.0
  0
LINE
  5
455
330
1F
100
AcDbEntity
  8
0
  6
DASHED
 62
     4
 48
6.0
100
AcDbLine
 10
496.3766705022911
 20
627.3370937634073
 30
0.0
 11
494.8766705022783
 21
627.3370937634012
 31
0.0
  0
LINE
  5
456
330
1F
100
AcDbEntity
  8
0
  6
DASHED
 62
     4
 48
6.0
100
AcDbLine
 10
496.3766705022824
 20
628.8370938984069
 30
0.0
 11
496.3766705022911
 21
627.3370937634073
 31
0.0
  0
LINE
  5
457
330
1F
100
AcDbEntity
  8
0
  6
DASHED
 62
     4
 48
6.0
100
AcDbLine
 10
497.3766705022696
 20
628.837093898413
 30
0.0
 11
496.3766705022824
 21
628.8370938984069
 31
0.0
  0
LINE
  5
458
330
1F
100
AcDbEntity
  8
0
  6
DASHED
 62
     4
 48
6.0
100
AcDbLine
 10
497.3766705022911
 20
627.3370937634127
 30
0.0
 11
497.3766705022696
 21
628.837093898413
 31
0.0
  0
LINE
  5
459
330
1F
100
AcDbEntity
  8
0
  6
DASHED
 62
     4
 48
6.0
100
AcDbLine
 10
498.8766705022913
 20
627.3370937634219
 30
0.0
 11
497.3766705022911
 21
627.3370937634127
 31
0.0
  0
LINE
  5
45A
330
1F
100
AcDbEntity
  8
0
  6
DASHED
 62
     4
 48
6.0
100
AcDbLine
 10
498.8766705022975
 20
626.3370936734226
 30
0.0
 11
498.8766705022913
 21
627.3370937634219
 31
0.0
  0
LINE
  5
45B
330
1F
100
AcDbEntity
  8
0
  6
DASHED
 62
     4
 48
6.0
100
AcDbLine
 10
502.6866705022972
 20
617.3370928634386
 30
0.0
 11
502.6866705022972
 21
617.3370928634386
 31
0.0
  0
LINE
  5
45C
330
1F
100
AcDbEntity
  8
0
  6
DASHED
 62
     4
 48
6.0
100
AcDbLine
 10
501.1866705022853
 20
617.3370928634319
 30
0.0
 11
502.6866705022972
 21
617.3370928634386
 31
0.0
  0
LINE
  5
45D
330
1F
100
AcDbEntity
  8
0
  6
DASHED
 62
     4
 48
6.0
100
AcDbLine
 10
501.1866705022948
 20
615.837092728433
 30
0.0
 11
501.1866705022853
 21
617.3370928634319
 31
0.0
  0
LINE
  5
45E
330
1F
100
AcDbEntity
  8
0
  6
DASHED
 62
     4
 48
6.0
100
AcDbLine
 10
500.1866705023063
 20
615.8370927284271
 30
0.0
 11
501.1866705022948
 21
615.837092728433
 31
0.0
  0
LINE
  5
45F
330
1F
100
AcDbEntity
  8
0
  6
DASHED
 62
     4
 48
6.0
100
AcDbLine
 10
500.1866705023007
 20
617.3370928634267
 30
0.0
 11
500.1866705023063
 21
615.8370927284271
 31
0.0
  0
LINE
  5
460
330
1F
100
AcDbEntity
  8
0
  6
DASHED
 62
     4
 48
6.0
100
AcDbLine
 10
498.6866705022976
 20
617.3370928634177
 30
0.0
 11
500.1866705023007
 21
617.3370928634267
 31
0.0
  0
LINE
  5
461
330
1F
100
AcDbEntity
  8
0
  6
DASHED
 62
     4
 48
6.0
100
AcDbLine
 10
498.6866705022823
 20
618.3370929534182
 30
0.0
 11
498.6866705022976
 21
617.3370928634177
 31
0.0
  0
LINE
  5
462
330
1F
100
AcDbEntity
  8
0
  6
DASHED
 62
     4
 48
6.0
100
AcDbLine
 10
500.1866705022936
 20
618.3370929534261
 30
0.0
 11
498.6866705022823
 21
618.3370929534182
 31
0.0
  0
LINE
  5
463
330
1F
100
AcDbEntity
  8
0
  6
DASHED
 62
     4
 48
6.0
100
AcDbLine
 10
500.1866705022846
 20
619.8370930884276
 30
0.0
 11
500.1866705022936
 21
618.3370929534261
 31
0.0
  0
LINE
  5
464
330
1F
100
AcDbEntity
  8
0
  6
DASHED
 62
     4
 48
6.0
100
AcDbLine
 10
501.1866705022737
 20
619.8370930884331
 30
0.0
 11
500.1866705022846
 21
619.8370930884276
 31
0.0
  0
LINE
  5
465
330
1F
100
AcDbEntity
  8
0
  6
DASHED
 62
     4
 48
6.0
100
AcDbLine
 10
501.1866705022948
 20
618.3370929534332
 30
0.0
 11
501.1866705022737
 21
619.8370930884331
 31
0.0
  0
LINE
  5
466
330
1F
100
AcDbEntity
  8
0
  6
DASHED
 62
     4
 48
6.0
100
AcDbLine
 10
502.6866705022944
 20
618.3370929534393
 30
0.0
 11
501.1866705022948
 21
618.3370929534332
 31
0.0
  0
LINE
  5
467
330
1F
100
AcDbEntity
  8
0
  6
DASHED
 62
     4
 48
6.0
100
AcDbLine
 10
502.6866705022972
 20
617.3370928634386
 30
0.0
 11
502.6866705022944
 21
618.3370929534393
 31
0.0
  0
LINE
  5
468
330
1F
100
AcDbEntity
  8
0
  6
DASHED
 62
     4
 48
6.0
100
AcDbLine
 10
506.4966705022526
 20
626.3370936734608
 30
0.0
 11
506.4966705022526
 21
626.3370936734608
 31
0.0
  0
LINE
  5
469
330
1F
100
AcDbEntity
  8
0
  6
DASHED
 62
     4
 48
6.0
100
AcDbLine
 10
504.9966705022401
 20
626.3370936734526
 30
0.0
 11
506.4966705022526
 21
626.3370936734608
 31
0.0
  0
LINE
  5
46A
330
1F
100
AcDbEntity
  8
0
  6
DASHED
 62
     4
 48
6.0
100
AcDbLine
 10
504.9966705022495
 20
624.8370935384516
 30
0.0
 11
504.9966705022401
 21
626.3370936734526
 31
0.0
  0
LINE
  5
46B
330
1F
100
AcDbEntity
  8
0
  6
DASHED
 62
     4
 48
6.0
100
AcDbLine
 10
503.9966705022619
 20
624.8370935384457
 30
0.0
 11
504.9966705022495
 21
624.8370935384516
 31
0.0
  0
LINE
  5
46C
330
1F
100
AcDbEntity
  8
0
  6
DASHED
 62
     4
 48
6.0
100
AcDbLine
 10
503.9966705022523
 20
626.3370936734461
 30
0.0
 11
503.9966705022619
 21
624.8370935384457
 31
0.0
  0
LINE
  5
46D
330
1F
100
AcDbEntity
  8
0
  6
DASHED
 62
     4
 48
6.0
100
AcDbLine
 10
502.4966705022525
 20
626.3370936734397
 30
0.0
 11
503.9966705022523
 21
626.3370936734461
 31
0.0
  0
LINE
  5
46E
330
1F
100
AcDbEntity
  8
0
  6
DASHED
 62
     4
 48
6.0
100
AcDbLine
 10
502.4966705022346
 20
627.3370937634401
 30
0.0
 11
502.4966705022525
 21
626.3370936734397
 31
0.0
  0
LINE
  5
46F
330
1F
100
AcDbEntity
  8
0
  6
DASHED
 62
     4
 48
6.0
100
AcDbLine
 10
503.9966705022496
 20
627.3370937634463
 30
0.0
 11
502.4966705022346
 21
627.3370937634401
 31
0.0
  0
LINE
  5
470
330
1F
100
AcDbEntity
  8
0
  6
DASHED
 62
     4
 48
6.0
100
AcDbLine
 10
503.9966705022401
 20
628.8370938984459
 30
0.0
 11
503.9966705022496
 21
627.3370937634463
 31
0.0
  0
LINE
  5
471
330
1F
100
AcDbEntity
  8
0
  6
DASHED
 62
     4
 48
6.0
100
AcDbLine
 10
504.9966705022291
 20
628.8370938984529
 30
0.0
 11
503.9966705022401
 21
628.8370938984459
 31
0.0
  0
LINE
  5
472
330
1F
100
AcDbEntity
  8
0
  6
DASHED
 62
     4
 48
6.0
100
AcDbLine
 10
504.9966705022495
 20
627.3370937634522
 30
0.0
 11
504.9966705022291
 21
628.8370938984529
 31
0.0
  0
LINE
  5
473
330
1F
100
AcDbEntity
  8
0
  6
DASHED
 62
     4
 48
6.0
100
AcDbLine
 10
506.4966705022465
 20
627.3370937634608
 30
0.0
 11
504.9966705022495
 21
627.3370937634522
 31
0.0
  0
LINE
  5
474
330
1F
100
AcDbEntity
  8
0
  6
DASHED
 62
     4
 48
6.0
100
AcDbLine
 10
506.4966705022526
 20
626.3370936734608
 30
0.0
 11
506.4966705022465
 21
627.3370937634608
 31
0.0
  0
LINE
  5
475
330
1F
100
AcDbEntity
  8
0
  6
DASHED
 62
     4
 48
6.0
100
AcDbLine
 10
510.3066705023487
 20
617.3370928634787
 30
0.0
 11
510.3066705023487
 21
617.3370928634787
 31
0.0
  0
LINE
  5
476
330
1F
100
AcDbEntity
  8
0
  6
DASHED
 62
     4
 48
6.0
100
AcDbLine
 10
508.8066705023368
 20
617.3370928634722
 30
0.0
 11
510.3066705023487
 21
617.3370928634787
 31
0.0
  0
LINE
  5
477
330
1F
100
AcDbEntity
  8
0
  6
DASHED
 62
     4
 48
6.0
100
AcDbLine
 10
508.8066705023456
 20
615.8370927284721
 30
0.0
 11
508.8066705023368
 21
617.3370928634722
 31
0.0
  0
LINE
  5
478
330
1F
100
AcDbEntity
  8
0
  6
DASHED
 62
     4
 48
6.0
100
AcDbLine
 10
507.8066705023581
 20
615.8370927284659
 30
0.0
 11
508.8066705023456
 21
615.8370927284721
 31
0.0
  0
LINE
  5
479
330
1F
100
AcDbEntity
  8
0
  6
DASHED
 62
     4
 48
6.0
100
AcDbLine
 10
507.806670502349
 20
617.3370928634652
 30
0.0
 11
507.8066705023581
 21
615.8370927284659
 31
0.0
  0
LINE
  5
47A
330
1F
100
AcDbEntity
  8
0
  6
DASHED
 62
     4
 48
6.0
100
AcDbLine
 10
506.3066705023492
 20
617.3370928634567
 30
0.0
 11
507.806670502349
 21
617.3370928634652
 31
0.0
  0
LINE
  5
47B
330
1F
100
AcDbEntity
  8
0
  6
DASHED
 62
     4
 48
6.0
100
AcDbLine
 10
506.306670502331
 20
618.3370929534569
 30
0.0
 11
506.3066705023492
 21
617.3370928634567
 31
0.0
  0
LINE
  5
47C
330
1F
100
AcDbEntity
  8
0
  6
DASHED
 62
     4
 48
6.0
100
AcDbLine
 10
507.8066705023458
 20
618.3370929534657
 30
0.0
 11
506.306670502331
 21
618.3370929534569
 31
0.0
  0
LINE
  5
47D
330
1F
100
AcDbEntity
  8
0
  6
DASHED
 62
     4
 48
6.0
100
AcDbLine
 10
507.806670502337
 20
619.8370930884663
 30
0.0
 11
507.8066705023458
 21
618.3370929534657
 31
0.0
  0
LINE
  5
47E
330
1F
100
AcDbEntity
  8
0
  6
DASHED
 62
     4
 48
6.0
100
AcDbLine
 10
508.8066705023248
 20
619.8370930884721
 30
0.0
 11
507.806670502337
 21
619.8370930884663
 31
0.0
  0
LINE
  5
47F
330
1F
100
AcDbEntity
  8
0
  6
DASHED
 62
     4
 48
6.0
100
AcDbLine
 10
508.8066705023456
 20
618.3370929534717
 30
0.0
 11
508.8066705023248
 21
619.8370930884721
 31
0.0
  0
LINE
  5
480
330
1F
100
AcDbEntity
  8
0
  6
DASHED
 62
     4
 48
6.0
100
AcDbLine
 10
510.3066705023431
 20
618.3370929534784
 30
0.0
 11
508.8066705023456
 21
618.3370929534717
 31
0.0
  0
LINE
  5
481
330
1F
100
AcDbEntity
  8
0
  6
DASHED
 62
     4
 48
6.0
100
AcDbLine
 10
510.3066705023487
 20
617.3370928634787
 30
0.0
 11
510.3066705023431
 21
618.3370929534784
 31
0.0
  0
LINE
  5
482
330
1F
100
AcDbEntity
  8
0
  6
DASHED
 62
     4
 48
6.0
100
AcDbLine
 10
514.1166705022986
 20
626.3370936735006
 30
0.0
 11
514.1166705022986
 21
626.3370936735006
 31
0.0
  0
LINE
  5
483
330
1F
100
AcDbEntity
  8
0
  6
DASHED
 62
     4
 48
6.0
100
AcDbLine
 10
512.6166705022861
 20
626.3370936734907
 30
0.0
 11
514.1166705022986
 21
626.3370936735006
 31
0.0
  0
LINE
  5
484
330
1F
100
AcDbEntity
  8
0
  6
DASHED
 62
     4
 48
6.0
100
AcDbLine
 10
512.6166705022924
 20
624.8370935384907
 30
0.0
 11
512.6166705022861
 21
626.3370936734907
 31
0.0
  0
LINE
  5
485
330
1F
100
AcDbEntity
  8
0
  6
DASHED
 62
     4
 48
6.0
100
AcDbLine
 10
511.6166705023046
 20
624.8370935384871
 30
0.0
 11
512.6166705022924
 21
624.8370935384907
 31
0.0
  0
LINE
  5
486
330
1F
100
AcDbEntity
  8
0
  6
DASHED
 62
     4
 48
6.0
100
AcDbLine
 10
511.6166705022982
 20
626.3370936734852
 30
0.0
 11
511.6166705023046
 21
624.8370935384871
 31
0.0
  0
LINE
  5
487
330
1F
100
AcDbEntity
  8
0
  6
DASHED
 62
     4
 48
6.0
100
AcDbLine
 10
510.1166705022982
 20
626.3370936734792
 30
0.0
 11
511.6166705022982
 21
626.3370936734852
 31
0.0
  0
LINE
  5
488
330
1F
100
AcDbEntity
  8
0
  6
DASHED
 62
     4
 48
6.0
100
AcDbLine
 10
510.11667050228
 20
627.3370937634792
 30
0.0
 11
510.1166705022982
 21
626.3370936734792
 31
0.0
  0
LINE
  5
489
330
1F
100
AcDbEntity
  8
0
  6
DASHED
 62
     4
 48
6.0
100
AcDbLine
 10
511.6166705022918
 20
627.3370937634847
 30
0.0
 11
510.11667050228
 21
627.3370937634792
 31
0.0
  0
LINE
  5
48A
330
1F
100
AcDbEntity
  8
0
  6
DASHED
 62
     4
 48
6.0
100
AcDbLine
 10
511.6166705022829
 20
628.8370938984842
 30
0.0
 11
511.6166705022918
 21
627.3370937634847
 31
0.0
  0
LINE
  5
48B
330
1F
100
AcDbEntity
  8
0
  6
DASHED
 62
     4
 48
6.0
100
AcDbLine
 10
512.6166705022715
 20
628.8370938984909
 30
0.0
 11
511.6166705022829
 21
628.8370938984842
 31
0.0
  0
LINE
  5
48C
330
1F
100
AcDbEntity
  8
0
  6
DASHED
 62
     4
 48
6.0
100
AcDbLine
 10
512.6166705022924
 20
627.337093763491
 30
0.0
 11
512.6166705022715
 21
628.8370938984909
 31
0.0
  0
LINE
  5
48D
330
1F
100
AcDbEntity
  8
0
  6
DASHED
 62
     4
 48
6.0
100
AcDbLine
 10
514.1166705022926
 20
627.3370937635005
 30
0.0
 11
512.6166705022924
 21
627.337093763491
 31
0.0
  0
LINE
  5
48E
330
1F
100
AcDbEntity
  8
0
  6
DASHED
 62
     4
 48
6.0
100
AcDbLine
 10
514.1166705022986
 20
626.3370936735006
 30
0.0
 11
514.1166705022926
 21
627.3370937635005
 31
0.0
  0
LINE
  5
48F
330
1F
100
AcDbEntity
  8
0
  6
DASHED
 62
     4
 48
6.0
100
AcDbLine
 10
517.9266705023946
 20
617.3370928635169
 30
0.0
 11
517.9266705023946
 21
617.3370928635169
 31
0.0
  0
LINE
  5
490
330
1F
100
AcDbEntity
  8
0
  6
DASHED
 62
     4
 48
6.0
100
AcDbLine
 10
516.426670502383
 20
617.3370928635107
 30
0.0
 11
517.9266705023946
 21
617.3370928635169
 31
0.0
  0
LINE
  5
491
330
1F
100
AcDbEntity
  8
0
  6
DASHED
 62
     4
 48
6.0
100
AcDbLine
 10
516.4266705023883
 20
615.8370927285111
 30
0.0
 11
516.426670502383
 21
617.3370928635107
 31
0.0
  0
LINE
  5
492
330
1F
100
AcDbEntity
  8
0
  6
DASHED
 62
     4
 48
6.0
100
AcDbLine
 10
515.4266705024005
 20
615.8370927285052
 30
0.0
 11
516.4266705023883
 21
615.8370927285111
 31
0.0
  0
LINE
  5
493
330
1F
100
AcDbEntity
  8
0
  6
DASHED
 62
     4
 48
6.0
100
AcDbLine
 10
515.4266705023944
 20
617.3370928635054
 30
0.0
 11
515.4266705024005
 21
615.8370927285052
 31
0.0
  0
LINE
  5
494
330
1F
100
AcDbEntity
  8
0
  6
DASHED
 62
     4
 48
6.0
100
AcDbLine
 10
513.926670502395
 20
617.3370928634961
 30
0.0
 11
515.4266705023944
 21
617.3370928635054
 31
0.0
  0
LINE
  5
495
330
1F
100
AcDbEntity
  8
0
  6
DASHED
 62
     4
 48
6.0
100
AcDbLine
 10
513.926670502377
 20
618.3370929534957
 30
0.0
 11
513.926670502395
 21
617.3370928634961
 31
0.0
  0
LINE
  5
496
330
1F
100
AcDbEntity
  8
0
  6
DASHED
 62
     4
 48
6.0
100
AcDbLine
 10
515.4266705023883
 20
618.3370929535051
 30
0.0
 11
513.926670502377
 21
618.3370929534957
 31
0.0
  0
LINE
  5
497
330
1F
100
AcDbEntity
  8
0
  6
DASHED
 62
     4
 48
6.0
100
AcDbLine
 10
515.4266705023791
 20
619.8370930885057
 30
0.0
 11
515.4266705023883
 21
618.3370929535051
 31
0.0
  0
LINE
  5
498
330
1F
100
AcDbEntity
  8
0
  6
DASHED
 62
     4
 48
6.0
100
AcDbLine
 10
516.4266705023683
 20
619.837093088511
 30
0.0
 11
515.4266705023791
 21
619.8370930885057
 31
0.0
  0
LINE
  5
499
330
1F
100
AcDbEntity
  8
0
  6
DASHED
 62
     4
 48
6.0
100
AcDbLine
 10
516.4266705023883
 20
618.3370929535109
 30
0.0
 11
516.4266705023683
 21
619.837093088511
 31
0.0
  0
LINE
  5
49A
330
1F
100
AcDbEntity
  8
0
  6
DASHED
 62
     4
 48
6.0
100
AcDbLine
 10
517.9266705023893
 20
618.3370929535168
 30
0.0
 11
516.4266705023883
 21
618.3370929535109
 31
0.0
  0
LINE
  5
49B
330
1F
100
AcDbEntity
  8
0
  6
DASHED
 62
     4
 48
6.0
100
AcDbLine
 10
517.9266705023946
 20
617.3370928635169
 30
0.0
 11
517.9266705023893
 21
618.3370929535168
 31
0.0
  0
LINE
  5
49C
330
1F
100
AcDbEntity
  8
0
  6
DASHED
 62
     4
 48
6.0
100
AcDbLine
 10
521.7366705022547
 20
626.3370936735396
 30
0.0
 11
521.7366705022547
 21
626.3370936735396
 31
0.0
  0
LINE
  5
49D
330
1F
100
AcDbEntity
  8
0
  6
DASHED
 62
     4
 48
6.0
100
AcDbLine
 10
520.2366705022416
 20
626.3370936735302
 30
0.0
 11
521.7366705022547
 21
626.3370936735396
 31
0.0
  0
LINE
  5
49E
330
1F
100
AcDbEntity
  8
0
  6
DASHED
 62
     4
 48
6.0
100
AcDbLine
 10
520.2366705022508
 20
624.8370935385293
 30
0.0
 11
520.2366705022416
 21
626.3370936735302
 31
0.0
  0
LINE
  5
49F
330
1F
100
AcDbEntity
  8
0
  6
DASHED
 62
     4
 48
6.0
100
AcDbLine
 10
519.2366705022626
 20
624.8370935385236
 30
0.0
 11
520.2366705022508
 21
624.8370935385293
 31
0.0
  0
LINE
  5
4A0
330
1F
100
AcDbEntity
  8
0
  6
DASHED
 62
     4
 48
6.0
100
AcDbLine
 10
519.2366705022543
 20
626.3370936735267
 30
0.0
 11
519.2366705022626
 21
624.8370935385236
 31
0.0
  0
LINE
  5
4A1
330
1F
100
AcDbEntity
  8
0
  6
DASHED
 62
     4
 48
6.0
100
AcDbLine
 10
517.736670502254
 20
626.3370936735181
 30
0.0
 11
519.2366705022543
 21
626.3370936735267
 31
0.0
  0
LINE
  5
4A2
330
1F
100
AcDbEntity
  8
0
  6
DASHED
 62
     4
 48
6.0
100
AcDbLine
 10
517.7366705022356
 20
627.3370937635181
 30
0.0
 11
517.736670502254
 21
626.3370936735181
 31
0.0
  0
LINE
  5
4A3
330
1F
100
AcDbEntity
  8
0
  6
DASHED
 62
     4
 48
6.0
100
AcDbLine
 10
519.2366705022512
 20
627.3370937635242
 30
0.0
 11
517.7366705022356
 21
627.3370937635181
 31
0.0
  0
LINE
  5
4A4
330
1F
100
AcDbEntity
  8
0
  6
DASHED
 62
     4
 48
6.0
100
AcDbLine
 10
519.2366705022419
 20
628.8370938985272
 30
0.0
 11
519.2366705022512
 21
627.3370937635242
 31
0.0
  0
LINE
  5
4A5
330
1F
100
AcDbEntity
  8
0
  6
DASHED
 62
     4
 48
6.0
100
AcDbLine
 10
520.2366705022296
 20
628.8370938985299
 30
0.0
 11
519.2366705022419
 21
628.8370938985272
 31
0.0
  0
LINE
  5
4A6
330
1F
100
AcDbEntity
  8
0
  6
DASHED
 62
     4
 48
6.0
100
AcDbLine
 10
520.2366705022483
 20
627.3370937635303
 30
0.0
 11
520.2366705022296
 21
628.8370938985299
 31
0.0
  0
LINE
  5
4A7
330
1F
100
AcDbEntity
  8
0
  6
DASHED
 62
     4
 48
6.0
100
AcDbLine
 10
521.7366705022485
 20
627.3370937635387
 30
0.0
 11
520.2366705022483
 21
627.3370937635303
 31
0.0
  0
LINE
  5
4A8
330
1F
100
AcDbEntity
  8
0
  6
DASHED
 62
     4
 48
6.0
100
AcDbLine
 10
521.7366705022547
 20
626.3370936735396
 30
0.0
 11
521.7366705022485
 21
627.3370937635387
 31
0.0
  0
LINE
  5
4A9
330
1F
100
AcDbEntity
  8
0
  6
DASHED
 62
     4
 48
6.0
100
AcDbLine
 10
525.5466705023954
 20
617.3370928635558
 30
0.0
 11
525.5466705023954
 21
617.3370928635558
 31
0.0
  0
LINE
  5
4AA
330
1F
100
AcDbEntity
  8
0
  6
DASHED
 62
     4
 48
6.0
100
AcDbLine
 10
524.0466705023826
 20
617.3370928635496
 30
0.0
 11
525.5466705023954
 21
617.3370928635558
 31
0.0
  0
LINE
  5
4AB
330
1F
100
AcDbEntity
  8
0
  6
DASHED
 62
     4
 48
6.0
100
AcDbLine
 10
524.04667050239
 20
615.83709272855
 30
0.0
 11
524.0466705023826
 21
617.3370928635496
 31
0.0
  0
LINE
  5
4AC
330
1F
100
AcDbEntity
  8
0
  6
DASHED
 62
     4
 48
6.0
100
AcDbLine
 10
523.0466705024008
 20
615.8370927285427
 30
0.0
 11
524.04667050239
 21
615.83709272855
 31
0.0
  0
LINE
  5
4AD
330
1F
100
AcDbEntity
  8
0
  6
DASHED
 62
     4
 48
6.0
100
AcDbLine
 10
523.046670502395
 20
617.3370928635438
 30
0.0
 11
523.0466705024008
 21
615.8370927285427
 31
0.0
  0
LINE
  5
4AE
330
1F
100
AcDbEntity
  8
0
  6
DASHED
 62
     4
 48
6.0
100
AcDbLine
 10
521.5466705023945
 20
617.3370928635372
 30
0.0
 11
523.046670502395
 21
617.3370928635438
 31
0.0
  0
LINE
  5
4AF
330
1F
100
AcDbEntity
  8
0
  6
DASHED
 62
     4
 48
6.0
100
AcDbLine
 10
521.5466705023771
 20
618.3370929535351
 30
0.0
 11
521.5466705023945
 21
617.3370928635372
 31
0.0
  0
LINE
  5
4B0
330
1F
100
AcDbEntity
  8
0
  6
DASHED
 62
     4
 48
6.0
100
AcDbLine
 10
523.0466705023895
 20
618.3370929535432
 30
0.0
 11
521.5466705023771
 21
618.3370929535351
 31
0.0
  0
LINE
  5
4B1
330
1F
100
AcDbEntity
  8
0
  6
DASHED
 62
     4
 48
6.0
100
AcDbLine
 10
523.0466705023798
 20
619.8370930885442
 30
0.0
 11
523.0466705023895
 21
618.3370929535432
 31
0.0
  0
LINE
  5
4B2
330
1F
100
AcDbEntity
  8
0
  6
DASHED
 62
     4
 48
6.0
100
AcDbLine
 10
524.0466705023683
 20
619.8370930885503
 30
0.0
 11
523.0466705023798
 21
619.8370930885442
 31
0.0
  0
LINE
  5
4B3
330
1F
100
AcDbEntity
  8
0
  6
DASHED
 62
     4
 48
6.0
100
AcDbLine
 10
524.04667050239
 20
618.3370929535497
 30
0.0
 11
524.0466705023683
 21
619.8370930885503
 31
0.0
  0
LINE
  5
4B4
330
1F
100
AcDbEntity
  8
0
  6
DASHED
 62
     4
 48
6.0
100
AcDbLine
 10
525.5466705023898
 20
618.3370929535557
 30
0.0
 11
524.04667050239
 21
618.3370929535497
 31
0.0
  0
LINE
  5
4B5
330
1F
100
AcDbEntity
  8
0
  6
DASHED
 62
     4
 48
6.0
100
AcDbLine
 10
525.5466705023954
 20
617.3370928635558
 30
0.0
 11
525.5466705023898
 21
618.3370929535557
 31
0.0
  0
LINE
  5
4B6
330
1F
100
AcDbEntity
  8
0
  6
DASHED
 62
     4
 48
6.0
100
AcDbLine
 10
529.356670502255
 20
626.3370936735777
 30
0.0
 11
529.356670502255
 21
626.3370936735777
 31
0.0
  0
LINE
  5
4B7
330
1F
100
AcDbEntity
  8
0
  6
DASHED
 62
     4
 48
6.0
100
AcDbLine
 10
527.8566705022425
 20
626.3370936735696
 30
0.0
 11
529.356670502255
 21
626.3370936735777
 31
0.0
  0
LINE
  5
4B8
330
1F
100
AcDbEntity
  8
0
  6
DASHED
 62
     4
 48
6.0
100
AcDbLine
 10
527.856670502252
 20
624.8370935385685
 30
0.0
 11
527.8566705022425
 21
626.3370936735696
 31
0.0
  0
LINE
  5
4B9
330
1F
100
AcDbEntity
  8
0
  6
DASHED
 62
     4
 48
6.0
100
AcDbLine
 10
526.8566705022633
 20
624.8370935385661
 30
0.0
 11
527.856670502252
 21
624.8370935385685
 31
0.0
  0
LINE
  5
4BA
330
1F
100
AcDbEntity
  8
0
  6
DASHED
 62
     4
 48
6.0
100
AcDbLine
 10
526.8566705022548
 20
626.3370936735661
 30
0.0
 11
526.8566705022633
 21
624.8370935385661
 31
0.0
  0
LINE
  5
4BB
330
1F
100
AcDbEntity
  8
0
  6
DASHED
 62
     4
 48
6.0
100
AcDbLine
 10
525.356670502255
 20
626.337093673557
 30
0.0
 11
526.8566705022548
 21
626.3370936735661
 31
0.0
  0
LINE
  5
4BC
330
1F
100
AcDbEntity
  8
0
  6
DASHED
 62
     4
 48
6.0
100
AcDbLine
 10
525.3566705022366
 20
627.3370937635567
 30
0.0
 11
525.356670502255
 21
626.337093673557
 31
0.0
  0
LINE
  5
4BD
330
1F
100
AcDbEntity
  8
0
  6
DASHED
 62
     4
 48
6.0
100
AcDbLine
 10
526.8566705022522
 20
627.3370937635659
 30
0.0
 11
525.3566705022366
 21
627.3370937635567
 31
0.0
  0
LINE
  5
4BE
330
1F
100
AcDbEntity
  8
0
  6
DASHED
 62
     4
 48
6.0
100
AcDbLine
 10
526.8566705022432
 20
628.8370938985665
 30
0.0
 11
526.8566705022522
 21
627.3370937635659
 31
0.0
  0
LINE
  5
4BF
330
1F
100
AcDbEntity
  8
0
  6
DASHED
 62
     4
 48
6.0
100
AcDbLine
 10
527.8566705022305
 20
628.8370938985682
 30
0.0
 11
526.8566705022432
 21
628.8370938985665
 31
0.0
  0
LINE
  5
4C0
330
1F
100
AcDbEntity
  8
0
  6
DASHED
 62
     4
 48
6.0
100
AcDbLine
 10
527.856670502252
 20
627.3370937635692
 30
0.0
 11
527.8566705022305
 21
628.8370938985682
 31
0.0
  0
LINE
  5
4C1
330
1F
100
AcDbEntity
  8
0
  6
DASHED
 62
     4
 48
6.0
100
AcDbLine
 10
529.3566705022492
 20
627.3370937635778
 30
0.0
 11
527.856670502252
 21
627.3370937635692
 31
0.0
  0
LINE
  5
4C2
330
1F
100
AcDbEntity
  8
0
  6
DASHED
 62
     4
 48
6.0
100
AcDbLine
 10
529.356670502255
 20
626.3370936735777
 30
0.0
 11
529.3566705022492
 21
627.3370937635778
 31
0.0
  0
LINE
  5
4C3
330
1F
100
AcDbEntity
  8
0
  6
DASHED
 62
     4
 48
6.0
100
AcDbLine
 10
533.1666705023008
 20
617.3370928635953
 30
0.0
 11
533.1666705023008
 21
617.3370928635953
 31
0.0
  0
LINE
  5
4C4
330
1F
100
AcDbEntity
  8
0
  6
DASHED
 62
     4
 48
6.0
100
AcDbLine
 10
531.6666705022885
 20
617.3370928635886
 30
0.0
 11
533.1666705023008
 21
617.3370928635953
 31
0.0
  0
LINE
  5
4C5
330
1F
100
AcDbEntity
  8
0
  6
DASHED
 62
     4
 48
6.0
100
AcDbLine
 10
531.6666705022965
 20
615.8370927285893
 30
0.0
 11
531.6666705022885
 21
617.3370928635886
 31
0.0
  0
LINE
  5
4C6
330
1F
100
AcDbEntity
  8
0
  6
DASHED
 62
     4
 48
6.0
100
AcDbLine
 10
530.6666705023094
 20
615.8370927285824
 30
0.0
 11
531.6666705022965
 21
615.8370927285893
 31
0.0
  0
LINE
  5
4C7
330
1F
100
AcDbEntity
  8
0
  6
DASHED
 62
     4
 48
6.0
100
AcDbLine
 10
530.6666705023034
 20
617.3370928635829
 30
0.0
 11
530.6666705023094
 21
615.8370927285824
 31
0.0
  0
LINE
  5
4C8
330
1F
100
AcDbEntity
  8
0
  6
DASHED
 62
     4
 48
6.0
100
AcDbLine
 10
529.1666705023001
 20
617.337092863574
 30
0.0
 11
530.6666705023034
 21
617.3370928635829
 31
0.0
  0
LINE
  5
4C9
330
1F
100
AcDbEntity
  8
0
  6
DASHED
 62
     4
 48
6.0
100
AcDbLine
 10
529.1666705022842
 20
618.3370929535771
 30
0.0
 11
529.1666705023001
 21
617.337092863574
 31
0.0
  0
LINE
  5
4CA
330
1F
100
AcDbEntity
  8
0
  6
DASHED
 62
     4
 48
6.0
100
AcDbLine
 10
530.6666705022967
 20
618.3370929535827
 30
0.0
 11
529.1666705022842
 21
618.3370929535771
 31
0.0
  0
LINE
  5
4CB
330
1F
100
AcDbEntity
  8
0
  6
DASHED
 62
     4
 48
6.0
100
AcDbLine
 10
530.6666705022878
 20
619.8370930885827
 30
0.0
 11
530.6666705022967
 21
618.3370929535827
 31
0.0
  0
LINE
  5
4CC
330
1F
100
AcDbEntity
  8
0
  6
DASHED
 62
     4
 48
6.0
100
AcDbLine
 10
531.6666705022763
 20
619.8370930885894
 30
0.0
 11
530.6666705022878
 21
619.8370930885827
 31
0.0
  0
LINE
  5
4CD
330
1F
100
AcDbEntity
  8
0
  6
DASHED
 62
     4
 48
6.0
100
AcDbLine
 10
531.6666705022965
 20
618.3370929535882
 30
0.0
 11
531.6666705022763
 21
619.8370930885894
 31
0.0
  0
LINE
  5
4CE
330
1F
100
AcDbEntity
  8
0
  6
DASHED
 62
     4
 48
6.0
100
AcDbLine
 10
533.1666705022974
 20
618.3370929535954
 30
0.0
 11
531.6666705022965
 21
618.3370929535882
 31
0.0
  0
LINE
  5
4CF
330
1F
100
AcDbEntity
  8
0
  6
DASHED
 62
     4
 48
6.0
100
AcDbLine
 10
533.1666705023008
 20
617.3370928635953
 30
0.0
 11
533.1666705022974
 21
618.3370929535954
 31
0.0
  0
LINE
  5
4D0
330
1F
100
AcDbEntity
  8
0
  6
DASHED
 62
     4
 48
6.0
100
AcDbLine
 10
538.1266705022861
 20
622.8370933586224
 30
0.0
 11
538.126670502229
 21
631.8370941686237
 31
0.0
  0
LINE
  5
4D1
330
1F
100
AcDbEntity
  8
0
  6
DASHED
 62
     4
 48
6.0
100
AcDbLine
 10
536.9766705022555
 20
626.3370936736166
 30
0.0
 11
536.9766705022555
 21
626.3370936736166
 31
0.0
  0
LINE
  5
4D2
330
1F
100
AcDbEntity
  8
0
  6
DASHED
 62
     4
 48
6.0
100
AcDbLine
 10
535.4766705022432
 20
626.3370936736079
 30
0.0
 11
536.9766705022555
 21
626.3370936736166
 31
0.0
  0
LINE
  5
4D3
330
1F
100
AcDbEntity
  8
0
  6
DASHED
 62
     4
 48
6.0
100
AcDbLine
 10
535.4766705022531
 20
624.8370935386077
 30
0.0
 11
535.4766705022432
 21
626.3370936736079
 31
0.0
  0
LINE
  5
4D4
330
1F
100
AcDbEntity
  8
0
  6
DASHED
 62
     4
 48
6.0
100
AcDbLine
 10
534.4766705022648
 20
624.8370935386048
 30
0.0
 11
535.4766705022531
 21
624.8370935386077
 31
0.0
  0
LINE
  5
4D5
330
1F
100
AcDbEntity
  8
0
  6
DASHED
 62
     4
 48
6.0
100
AcDbLine
 10
534.4766705022553
 20
626.3370936736048
 30
0.0
 11
534.4766705022648
 21
624.8370935386048
 31
0.0
  0
LINE
  5
4D6
330
1F
100
AcDbEntity
  8
0
  6
DASHED
 62
     4
 48
6.0
100
AcDbLine
 10
532.976670502255
 20
626.337093673596
 30
0.0
 11
534.4766705022553
 21
626.3370936736048
 31
0.0
  0
LINE
  5
4D7
330
1F
100
AcDbEntity
  8
0
  6
DASHED
 62
     4
 48
6.0
100
AcDbLine
 10
532.9766705022374
 20
627.3370937635959
 30
0.0
 11
532.976670502255
 21
626.337093673596
 31
0.0
  0
LINE
  5
4D8
330
1F
100
AcDbEntity
  8
0
  6
DASHED
 62
     4
 48
6.0
100
AcDbLine
 10
534.4766705022526
 20
627.3370937636046
 30
0.0
 11
532.9766705022374
 21
627.3370937635959
 31
0.0
  0
LINE
  5
4D9
330
1F
100
AcDbEntity
  8
0
  6
DASHED
 62
     4
 48
6.0
100
AcDbLine
 10
534.4766705022435
 20
628.8370938986052
 30
0.0
 11
534.4766705022526
 21
627.3370937636046
 31
0.0
  0
LINE
  5
4DA
330
1F
100
AcDbEntity
  8
0
  6
DASHED
 62
     4
 48
6.0
100
AcDbLine
 10
535.4766705022313
 20
628.8370938986081
 30
0.0
 11
534.4766705022435
 21
628.8370938986052
 31
0.0
  0
LINE
  5
4DB
330
1F
100
AcDbEntity
  8
0
  6
DASHED
 62
     4
 48
6.0
100
AcDbLine
 10
535.4766705022531
 20
627.3370937636079
 30
0.0
 11
535.4766705022313
 21
628.8370938986081
 31
0.0
  0
LINE
  5
4DC
330
1F
100
AcDbEntity
  8
0
  6
DASHED
 62
     4
 48
6.0
100
AcDbLine
 10
536.9766705022501
 20
627.3370937636165
 30
0.0
 11
535.4766705022531
 21
627.3370937636079
 31
0.0
  0
LINE
  5
4DD
330
1F
100
AcDbEntity
  8
0
  6
DASHED
 62
     4
 48
6.0
100
AcDbLine
 10
536.9766705022555
 20
626.3370936736166
 30
0.0
 11
536.9766705022501
 21
627.3370937636165
 31
0.0
  0
LINE
  5
4DE
330
1F
100
AcDbEntity
  8
0
  6
DASHED
 62
     4
 48
6.0
100
AcDbLine
 10
539.4466705023878
 20
612.8370924586266
 30
0.0
 11
539.4466705023937
 21
631.8370941681463
 31
0.0
  0
LINE
  5
4DF
330
1F
100
AcDbEntity
  8
0
  6
Continuous
 62
     7
100
AcDbLine
 10
555.5016695785155
 20
628.9170344280871
 30
0.0
 11
555.5016695785155
 21
603.1531090194686
 31
0.0
  0
LINE
  5
4E0
330
1F
100
AcDbEntity
  8
0
  6
Continuous
 62
     7
100
AcDbLine
 10
555.5016695785155
 20
598.6809624260943
 30
0.0
 11
555.5016695785155
 21
591.3811326649894
 31
0.0
  0
LINE
  5
4E1
330
1F
100
AcDbEntity
  8
0
  6
Continuous
 62
     7
100
AcDbLine
 10
551.5016695785151
 20
628.9170344280871
 30
0.0
 11
551.5016695785151
 21
603.1530987835602
 31
0.0
  0
LINE
  5
4E2
330
1F
100
AcDbEntity
  8
0
  6
Continuous
 62
     7
100
AcDbLine
 10
551.5016695785151
 20
598.6809726620021
 30
0.0
 11
551.5016695785151
 21
591.3811326649894
 31
0.0
  0
LINE
  5
4E3
330
1F
100
AcDbEntity
  8
0
  6
Continuous
 62
     7
100
AcDbLine
 10
440.8016695785049
 20
665.9170377580907
 30
0.0
 11
549.8016695785151
 21
665.9170377580907
 31
0.0
  0
ARC
  5
4E4
330
1F
100
AcDbEntity
  8
0
  6
Continuous
 62
     7
100
AcDbCircle
 10
440.8016695785111
 20
657.9170377580833
 30
0.0
 40
8.000000000007249
100
AcDbArc
 50
90.00000000004559
 51
180.0000051565719
  0
ARC
  5
4E5
330
1F
100
AcDbEntity
  8
0
  6
Continuous
 62
     7
100
AcDbCircle
 10
549.8016695785077
 20
657.9170377580833
 30
0.0
 40
8.000000000007384
100
AcDbArc
 50
359.9999948434279
 51
89.99999999995441
  0
LINE
  5
4E6
330
1F
100
AcDbEntity
  8
0
  6
Continuous
 62
     7
100
AcDbLine
 10
783.1016785785378
 20
486.9170216480726
 30
0.0
 11
773.001678578536
 21
486.9170216480726
 31
0.0
  0
LINE
  5
4E7
330
1F
100
AcDbEntity
  8
0
  6
Continuous
 62
     7
100
AcDbLine
 10
783.1016785785378
 20
474.9170205680711
 30
0.0
 11
773.001678578536
 21
474.9170205680711
 31
0.0
  0
LINE
  5
4E8
330
1F
100
AcDbEntity
  8
0
  6
Continuous
 62
     7
100
AcDbLine
 10
783.1016785785378
 20
476.9170207480715
 30
0.0
 11
781.9016785785377
 21
476.9170207480715
 31
0.0
  0
LINE
  5
4E9
330
1F
100
AcDbEntity
  8
0
  6
Continuous
 62
     7
100
AcDbLine
 10
783.1016785785378
 20
484.9170214680724
 30
0.0
 11
781.9016785785377
 21
484.9170214680724
 31
0.0
  0
ARC
  5
4EA
330
1F
100
AcDbEntity
  8
0
  6
Continuous
 62
     7
100
AcDbCircle
 10
773.001678578536
 20
480.9170211080723
 30
0.0
 40
6.000000540000732
100
AcDbArc
 50
90.0
 51
270.0
  0
LINE
  5
4EB
330
1F
100
AcDbEntity
  8
0
  6
Continuous
 62
     7
100
AcDbLine
 10
781.9016785785377
 20
476.9170207480715
 30
0.0
 11
781.9016785785377
 21
484.9170214680724
 31
0.0
  0
LINE
  5
4EC
330
1F
100
AcDbEntity
  8
0
  6
Continuous
 62
     7
100
AcDbLine
 10
783.1016785785378
 20
486.9170216480726
 30
0.0
 11
783.1016785785378
 21
484.9170214680724
 31
0.0
  0
LINE
  5
4ED
330
1F
100
AcDbEntity
  8
0
  6
Continuous
 62
     7
100
AcDbLine
 10
783.1016785785378
 20
476.9170207480715
 30
0.0
 11
783.1016785785378
 21
474.9170205680711
 31
0.0
  0
LINE
  5
4EE
330
1F
100
AcDbEntity
  8
0
  6
Continuous
 62
     7
 48
6.0
100
AcDbLine
 10
895.2016837390486
 20
567.5670349624083
 30
0.0
 11
895.2016837390704
 21
566.2670348454081
 31
0.0
  0
LINE
  5
4EF
330
1F
100
AcDbEntity
  8
0
  6
Continuous
 62
     7
100
AcDbLine
 10
783.1016785785378
 20
616.9170333480864
 30
0.0
 11
773.001678578536
 21
616.9170333480864
 31
0.0
  0
LINE
  5
4F0
330
1F
100
AcDbEntity
  8
0
  6
Continuous
 62
     7
100
AcDbLine
 10
783.1016785785378
 20
604.9170322680851
 30
0.0
 11
773.001678578536
 21
604.9170322680851
 31
0.0
  0
LINE
  5
4F1
330
1F
100
AcDbEntity
  8
0
  6
Continuous
 62
     7
100
AcDbLine
 10
783.1016785785378
 20
606.9170324480847
 30
0.0
 11
781.9016785785377
 21
606.9170324480847
 31
0.0
  0
LINE
  5
4F2
330
1F
100
AcDbEntity
  8
0
  6
Continuous
 62
     7
100
AcDbLine
 10
783.1016785785378
 20
614.9170331680855
 30
0.0
 11
781.9016785785377
 21
614.9170331680855
 31
0.0
  0
ARC
  5
4F3
330
1F
100
AcDbEntity
  8
0
  6
Continuous
 62
     7
100
AcDbCircle
 10
773.001678578536
 20
610.9170328080852
 30
0.0
 40
6.000000540000566
100
AcDbArc
 50
90.0
 51
270.0
  0
LINE
  5
4F4
330
1F
100
AcDbEntity
  8
0
  6
Continuous
 62
     7
100
AcDbLine
 10
781.9016785785377
 20
606.9170324480847
 30
0.0
 11
781.9016785785377
 21
614.9170331680855
 31
0.0
  0
LINE
  5
4F5
330
1F
100
AcDbEntity
  8
0
  6
Continuous
 62
     7
100
AcDbLine
 10
783.1016785785378
 20
616.9170333480864
 30
0.0
 11
783.1016785785378
 21
614.9170331680855
 31
0.0
  0
LINE
  5
4F6
330
1F
100
AcDbEntity
  8
0
  6
Continuous
 62
     7
100
AcDbLine
 10
783.1016785785378
 20
606.9170324480847
 30
0.0
 11
783.1016785785378
 21
604.9170322680851
 31
0.0
  0
LINE
  5
4F7
330
1F
100
AcDbEntity
  8
0
  6
Continuous
 62
     7
 48
6.0
100
AcDbLine
 10
900.4016837390706
 20
216.2670033453997
 30
0.0
 11
900.4016837390706
 21
216.2670033453997
 31
0.0
  0
LINE
  5
4F8
330
1F
100
AcDbEntity
  8
0
  6
Continuous
 62
     7
 48
6.0
100
AcDbLine
 10
898.4516837390556
 20
216.2670033453876
 30
0.0
 11
900.4016837390706
 21
216.2670033453997
 31
0.0
  0
LINE
  5
4F9
330
1F
100
AcDbEntity
  8
0
  6
Continuous
 62
     7
 48
6.0
100
AcDbLine
 10
898.4516837390676
 20
214.317003169887
 30
0.0
 11
898.4516837390556
 21
216.2670033453876
 31
0.0
  0
LINE
  5
4FA
330
1F
100
AcDbEntity
  8
0
  6
Continuous
 62
     7
 48
6.0
100
AcDbLine
 10
897.151683739082
 20
214.3170031698813
 30
0.0
 11
898.4516837390676
 21
214.317003169887
 31
0.0
  0
LINE
  5
4FB
330
1F
100
AcDbEntity
  8
0
  6
Continuous
 62
     7
 48
6.0
100
AcDbLine
 10
897.1516837390739
 20
216.2670033453813
 30
0.0
 11
897.151683739082
 21
214.3170031698813
 31
0.0
  0
LINE
  5
4FC
330
1F
100
AcDbEntity
  8
0
  6
Continuous
 62
     7
 48
6.0
100
AcDbLine
 10
897.1516837390563
 20
219.5170036378818
 30
0.0
 11
897.1516837390678
 21
217.5670034623818
 31
0.0
  0
LINE
  5
4FD
330
1F
100
AcDbEntity
  8
0
  6
Continuous
 62
     7
 48
6.0
100
AcDbLine
 10
898.4516837390414
 20
219.5170036378879
 30
0.0
 11
897.1516837390563
 21
219.5170036378818
 31
0.0
  0
LINE
  5
4FE
330
1F
100
AcDbEntity
  8
0
  6
Continuous
 62
     7
 48
6.0
100
AcDbLine
 10
898.4516837390676
 20
217.5670034623875
 30
0.0
 11
898.4516837390414
 21
219.5170036378879
 31
0.0
  0
LINE
  5
4FF
330
1F
100
AcDbEntity
  8
0
  6
Continuous
 62
     7
 48
6.0
100
AcDbLine
 10
900.4016837390652
 20
217.5670034623994
 30
0.0
 11
898.4516837390676
 21
217.5670034623875
 31
0.0
  0
LINE
  5
500
330
1F
100
AcDbEntity
  8
0
  6
Continuous
 62
     7
 48
6.0
100
AcDbLine
 10
900.4016837390706
 20
216.2670033453997
 30
0.0
 11
900.4016837390652
 21
217.5670034623994
 31
0.0
  0
LINE
  5
501
330
1F
100
AcDbEntity
  8
0
  6
Continuous
 62
     7
 48
6.0
100
AcDbLine
 10
900.4016837390706
 20
391.2670190954174
 30
0.0
 11
900.4016837390706
 21
391.2670190954174
 31
0.0
  0
LINE
  5
502
330
1F
100
AcDbEntity
  8
0
  6
Continuous
 62
     7
 48
6.0
100
AcDbLine
 10
898.4516837390556
 20
391.2670190954058
 30
0.0
 11
900.4016837390706
 21
391.2670190954174
 31
0.0
  0
LINE
  5
503
330
1F
100
AcDbEntity
  8
0
  6
Continuous
 62
     7
 48
6.0
100
AcDbLine
 10
898.4516837390676
 20
389.3170189199056
 30
0.0
 11
898.4516837390556
 21
391.2670190954058
 31
0.0
  0
LINE
  5
504
330
1F
100
AcDbEntity
  8
0
  6
Continuous
 62
     7
 48
6.0
100
AcDbLine
 10
897.151683739082
 20
389.3170189198992
 30
0.0
 11
898.4516837390676
 21
389.3170189199056
 31
0.0
  0
LINE
  5
505
330
1F
100
AcDbEntity
  8
0
  6
Continuous
 62
     7
 48
6.0
100
AcDbLine
 10
897.1516837390739
 20
391.2670190953988
 30
0.0
 11
897.151683739082
 21
389.3170189198992
 31
0.0
  0
LINE
  5
506
330
1F
100
AcDbEntity
  8
0
  6
Continuous
 62
     7
 48
6.0
100
AcDbLine
 10
897.1516837390563
 20
394.5170193879001
 30
0.0
 11
897.1516837390678
 21
392.5670192123991
 31
0.0
  0
LINE
  5
507
330
1F
100
AcDbEntity
  8
0
  6
Continuous
 62
     7
 48
6.0
100
AcDbLine
 10
898.4516837390414
 20
394.5170193879058
 30
0.0
 11
897.1516837390563
 21
394.5170193879001
 31
0.0
  0
LINE
  5
508
330
1F
100
AcDbEntity
  8
0
  6
Continuous
 62
     7
 48
6.0
100
AcDbLine
 10
898.4516837390676
 20
392.5670192124054
 30
0.0
 11
898.4516837390414
 21
394.5170193879058
 31
0.0
  0
LINE
  5
509
330
1F
100
AcDbEntity
  8
0
  6
Continuous
 62
     7
 48
6.0
100
AcDbLine
 10
900.4016837390652
 20
392.5670192124172
 30
0.0
 11
898.4516837390676
 21
392.5670192124054
 31
0.0
  0
LINE
  5
50A
330
1F
100
AcDbEntity
  8
0
  6
Continuous
 62
     7
 48
6.0
100
AcDbLine
 10
900.4016837390706
 20
391.2670190954174
 30
0.0
 11
900.4016837390652
 21
392.5670192124172
 31
0.0
  0
LINE
  5
50B
330
1F
100
AcDbEntity
  8
0
  6
Continuous
 62
     7
 48
6.0
100
AcDbLine
 10
900.4016837390706
 20
566.2670348454356
 30
0.0
 11
900.4016837390706
 21
566.2670348454356
 31
0.0
  0
LINE
  5
50C
330
1F
100
AcDbEntity
  8
0
  6
Continuous
 62
     7
 48
6.0
100
AcDbLine
 10
898.4516837390556
 20
566.2670348454232
 30
0.0
 11
900.4016837390706
 21
566.2670348454356
 31
0.0
  0
LINE
  5
50D
330
1F
100
AcDbEntity
  8
0
  6
Continuous
 62
     7
 48
6.0
100
AcDbLine
 10
898.4516837390676
 20
564.3170346699231
 30
0.0
 11
898.4516837390556
 21
566.2670348454232
 31
0.0
  0
LINE
  5
50E
330
1F
100
AcDbEntity
  8
0
  6
Continuous
 62
     7
 48
6.0
100
AcDbLine
 10
897.151683739082
 20
564.3170346699172
 30
0.0
 11
898.4516837390676
 21
564.3170346699231
 31
0.0
  0
LINE
  5
50F
330
1F
100
AcDbEntity
  8
0
  6
Continuous
 62
     7
 48
6.0
100
AcDbLine
 10
897.1516837390739
 20
566.2670348454177
 30
0.0
 11
897.151683739082
 21
564.3170346699172
 31
0.0
  0
LINE
  5
510
330
1F
100
AcDbEntity
  8
0
  6
Continuous
 62
     7
 48
6.0
100
AcDbLine
 10
897.1516837390563
 20
569.5170351379181
 30
0.0
 11
897.1516837390678
 21
567.5670349624173
 31
0.0
  0
LINE
  5
511
330
1F
100
AcDbEntity
  8
0
  6
Continuous
 62
     7
 48
6.0
100
AcDbLine
 10
898.4516837390414
 20
569.5170351379236
 30
0.0
 11
897.1516837390563
 21
569.5170351379181
 31
0.0
  0
LINE
  5
512
330
1F
100
AcDbEntity
  8
0
  6
Continuous
 62
     7
 48
6.0
100
AcDbLine
 10
898.4516837390676
 20
567.5670349624229
 30
0.0
 11
898.4516837390414
 21
569.5170351379236
 31
0.0
  0
LINE
  5
513
330
1F
100
AcDbEntity
  8
0
  6
Continuous
 62
     7
 48
6.0
100
AcDbLine
 10
900.4016837390652
 20
567.5670349624351
 30
0.0
 11
898.4516837390676
 21
567.5670349624229
 31
0.0
  0
LINE
  5
514
330
1F
100
AcDbEntity
  8
0
  6
Continuous
 62
     7
 48
6.0
100
AcDbLine
 10
900.4016837390706
 20
566.2670348454356
 30
0.0
 11
900.4016837390652
 21
567.5670349624351
 31
0.0
  0
LINE
  5
515
330
1F
100
AcDbEntity
  8
0
  6
Continuous
 62
     7
100
AcDbLine
 10
978.1016785785556
 20
635.9170350580877
 30
0.0
 11
978.1016785785556
 21
665.9170377580907
 31
0.0
  0
LINE
  5
516
330
1F
100
AcDbEntity
  8
0
  6
Continuous
 62
     7
100
AcDbLine
 10
979.301678578556
 20
665.9170377580907
 30
0.0
 11
978.1016785785556
 21
665.9170377580907
 31
0.0
  0
LINE
  5
6EF
330
1F
100
AcDbEntity
  8
0
  6
Continuous
 62
     7
100
AcDbLine
 10
446.0017474285144
 20
542.9209268384677
 30
0.0
 11
488.0017474285144
 21
542.9209268384677
 31
0.0
  0
LINE
  5
6F2
330
1F
100
AcDbEntity
  8
0
  6
Continuous
 62
     7
100
AcDbLine
 10
446.0017474285144
 20
478.4209268384675
 30
0.0
 11
488.0017474285144
 21
478.4209268384675
 31
0.0
  0
ARC
  5
6F3
330
1F
100
AcDbEntity
  8
0
  6
Continuous
 62
     7
100
AcDbCircle
 10
452.0017474285142
 20
491.420926838468
 30
0.0
 40
4.00000000000003
100
AcDbArc
 50
0.0
 51
180.0
  0
ARC
  5
6F4
330
1F
100
AcDbEntity
  8
0
  6
Continuous
 62
     7
100
AcDbCircle
 10
452.0017474285142
 20
488.420926838468
 30
0.0
 40
4.00000000000003
100
AcDbArc
 50
180.0
 51
0.0
  0
LINE
  5
6F5
330
1F
100
AcDbEntity
  8
0
  6
Continuous
 62
     7
100
AcDbLine
 10
451.0517474285141
 20
473.1209268384675
 30
0.0
 11
456.0017474285141
 21
473.1209268384675
 31
0.0
  0
LINE
  5
6F6
330
1F
100
AcDbEntity
  8
0
  6
Continuous
 62
     7
100
AcDbLine
 10
451.0517474285141
 20
459.7209268384674
 30
0.0
 11
456.0017474285141
 21
459.7209268384674
 31
0.0
  0
LINE
  5
6F7
330
1F
100
AcDbEntity
  8
0
  6
Continuous
 62
     7
100
AcDbLine
 10
450.7517474285143
 20
459.4209268384679
 30
0.0
 11
483.2517474285141
 21
459.4209268384679
 31
0.0
  0
LINE
  5
6F8
330
1F
100
AcDbEntity
  8
0
  6
Continuous
 62
     7
100
AcDbLine
 10
450.7517474285143
 20
473.420926838468
 30
0.0
 11
483.2517474285141
 21
473.420926838468
 31
0.0
  0
LINE
  5
6F9
330
1F
100
AcDbEntity
  8
0
  6
Continuous
 62
     7
100
AcDbLine
 10
450.7517474285143
 20
465.4209268384678
 30
0.0
 11
451.251747428514
 21
465.4209268384678
 31
0.0
  0
LINE
  5
6FA
330
1F
100
AcDbEntity
  8
0
  6
Continuous
 62
     7
100
AcDbLine
 10
450.7517474285143
 20
467.4209268384671
 30
0.0
 11
451.251747428514
 21
467.4209268384671
 31
0.0
  0
LINE
  5
6FB
330
1F
100
AcDbEntity
  8
0
  6
Continuous
 62
     7
100
AcDbLine
 10
451.9517474285144
 20
472.2209268384678
 30
0.0
 11
451.0517474285141
 21
473.1209268384675
 31
0.0
  0
LINE
  5
6FC
330
1F
100
AcDbEntity
  8
0
  6
Continuous
 62
     7
100
AcDbLine
 10
451.9517474285144
 20
460.6209268384676
 30
0.0
 11
451.0517474285141
 21
459.7209268384674
 31
0.0
  0
LINE
  5
6FD
330
1F
100
AcDbEntity
  8
0
  6
Continuous
 62
     7
100
AcDbLine
 10
450.2517474285141
 20
458.920926838468
 30
0.0
 11
483.7517474285141
 21
458.920926838468
 31
0.0
  0
LINE
  5
6FE
330
1F
100
AcDbEntity
  8
0
  6
Continuous
 62
     7
100
AcDbLine
 10
450.2517474285141
 20
473.9209268384676
 30
0.0
 11
483.7517474285141
 21
473.9209268384676
 31
0.0
  0
LINE
  5
6FF
330
1F
100
AcDbEntity
  8
0
  6
Continuous
 62
     7
100
AcDbLine
 10
446.0017474285144
 20
478.4209268384675
 30
0.0
 11
488.0017474285144
 21
478.4209268384675
 31
0.0
  0
LINE
  5
701
330
1F
100
AcDbEntity
  8
0
  6
Continuous
 62
     7
100
AcDbLine
 10
446.0017474285144
 20
542.9209268384677
 30
0.0
 11
488.0017474285144
 21
542.9209268384677
 31
0.0
  0
LINE
  5
702
330
1F
100
AcDbEntity
  8
0
  6
Continuous
 62
     7
100
AcDbLine
 10
444.001747428514
 20
447.9209268384678
 30
0.0
 11
490.0017474285141
 21
447.9209268384678
 31
0.0
  0
LINE
  5
703
330
1F
100
AcDbEntity
  8
0
  6
Continuous
 62
     7
100
AcDbLine
 10
444.001747428514
 20
551.9209268384678
 30
0.0
 11
490.0017474285141
 21
551.9209268384678
 31
0.0
  0
LINE
  5
704
330
1F
100
AcDbEntity
  8
0
  6
Continuous
 62
     7
100
AcDbLine
 10
445.0017474285141
 20
541.9209268384681
 30
0.0
 11
445.0017474285141
 21
479.4209268384679
 31
0.0
  0
LINE
  5
705
330
1F
100
AcDbEntity
  8
0
  6
Continuous
 62
     7
100
AcDbLine
 10
445.0017474285141
 20
541.9209268384681
 30
0.0
 11
445.0017474285141
 21
479.4209268384679
 31
0.0
  0
LINE
  5
706
330
1F
100
AcDbEntity
  8
0
  6
Continuous
 62
     7
100
AcDbLine
 10
442.0017474285142
 20
549.9209268384682
 30
0.0
 11
442.0017474285142
 21
449.9209268384677
 31
0.0
  0
ARC
  5
707
330
1F
100
AcDbEntity
  8
0
  6
Continuous
 62
     7
100
AcDbCircle
 10
446.0017474285144
 20
479.4209268384679
 30
0.0
 40
1.00000000000021
100
AcDbArc
 50
180.0
 51
269.999999999987
  0
ARC
  5
708
330
1F
100
AcDbEntity
  8
0
  6
Continuous
 62
     7
100
AcDbCircle
 10
446.0017474285144
 20
479.4209268384679
 30
0.0
 40
1.00000000000021
100
AcDbArc
 50
180.0
 51
269.999999999987
  0
LINE
  5
709
330
1F
100
AcDbEntity
  8
0
  6
Continuous
 62
     7
100
AcDbLine
 10
451.0517474285141
 20
465.4209268384678
 30
0.0
 11
451.0517474285141
 21
459.7209268384674
 31
0.0
  0
LINE
  5
70A
330
1F
100
AcDbEntity
  8
0
  6
Continuous
 62
     7
100
AcDbLine
 10
451.0517474285141
 20
473.1209268384675
 30
0.0
 11
451.0517474285141
 21
467.4209268384671
 31
0.0
  0
LINE
  5
70B
330
1F
100
AcDbEntity
  8
0
  6
Continuous
 62
     7
100
AcDbLine
 10
450.7517474285143
 20
473.420926838468
 30
0.0
 11
450.7517474285143
 21
459.4209268384679
 31
0.0
  0
LINE
  5
70C
330
1F
100
AcDbEntity
  8
0
  6
Continuous
 62
     7
100
AcDbLine
 10
450.7517474285143
 20
473.420926838468
 30
0.0
 11
450.2517474285141
 21
473.9209268384676
 31
0.0
  0
LINE
  5
70D
330
1F
100
AcDbEntity
  8
0
  6
Continuous
 62
     7
100
AcDbLine
 10
450.7517474285143
 20
459.4209268384679
 30
0.0
 11
450.2517474285141
 21
458.920926838468
 31
0.0
  0
LINE
  5
70E
330
1F
100
AcDbEntity
  8
0
  6
Continuous
 62
     7
100
AcDbLine
 10
450.2517474285141
 20
473.9209268384676
 30
0.0
 11
450.2517474285141
 21
458.920926838468
 31
0.0
  0
ARC
  5
70F
330
1F
100
AcDbEntity
  8
0
  6
Continuous
 62
     7
100
AcDbCircle
 10
444.0017474285141
 20
449.9209268384677
 30
0.0
 40
2.000000000000293
100
AcDbArc
 50
180.0000000000094
 51
269.999999999987
  0
LINE
  5
710
330
1F
100
AcDbEntity
  8
0
  6
Continuous
 62
     7
100
AcDbLine
 10
448.0017474285144
 20
491.420926838468
 30
0.0
 11
448.0017474285144
 21
488.420926838468
 31
0.0
  0
ARC
  5
711
330
1F
100
AcDbEntity
  8
0
  6
Continuous
 62
     7
100
AcDbCircle
 10
446.0017474285144
 20
541.9209268384678
 30
0.0
 40
1.000000000000082
100
AcDbArc
 50
90.0
 51
179.9999999999803
  0
ARC
  5
712
330
1F
100
AcDbEntity
  8
0
  6
Continuous
 62
     7
100
AcDbCircle
 10
446.0017474285144
 20
541.9209268384678
 30
0.0
 40
1.000000000000082
100
AcDbArc
 50
90.0
 51
179.9999999999803
  0
ARC
  5
713
330
1F
100
AcDbEntity
  8
0
  6
Continuous
 62
     7
100
AcDbCircle
 10
444.0017474285141
 20
549.9209268384674
 30
0.0
 40
2.000000000000335
100
AcDbArc
 50
90.00000000000651
 51
179.9999999999899
  0
LINE
  5
714
330
1F
100
AcDbEntity
  8
0
  6
Continuous
 62
     7
100
AcDbLine
 10
489.0017474285142
 20
541.9209268384681
 30
0.0
 11
489.0017474285142
 21
479.4209268384679
 31
0.0
  0
LINE
  5
715
330
1F
100
AcDbEntity
  8
0
  6
Continuous
 62
     7
100
AcDbLine
 10
489.0017474285142
 20
541.9209268384681
 30
0.0
 11
489.0017474285142
 21
479.4209268384679
 31
0.0
  0
LINE
  5
716
330
1F
100
AcDbEntity
  8
0
  6
Continuous
 62
     7
100
AcDbLine
 10
492.0017474285142
 20
549.9209268384682
 30
0.0
 11
492.0017474285142
 21
449.9209268384677
 31
0.0
  0
LINE
  5
719
330
1F
100
AcDbEntity
  8
0
  6
Continuous
 62
     7
100
AcDbLine
 10
469.0017474285111
 20
451.4209268384923
 30
0.0
 11
467.5017474285113
 21
451.420926838483
 31
0.0
  0
LINE
  5
71A
330
1F
100
AcDbEntity
  8
0
  6
Continuous
 62
     7
100
AcDbLine
 10
467.5017474285143
 20
450.420926838495
 30
0.0
 11
469.0017474285144
 21
450.4209268385038
 31
0.0
  0
LINE
  5
71B
330
1F
100
AcDbEntity
  8
0
  6
Continuous
 62
     7
100
AcDbLine
 10
468.0017474285144
 20
473.1209268384675
 30
0.0
 11
476.0017474285142
 21
473.1209268384675
 31
0.0
  0
LINE
  5
71C
330
1F
100
AcDbEntity
  8
0
  6
Continuous
 62
     7
100
AcDbLine
 10
468.0017474285144
 20
459.7209268384674
 30
0.0
 11
476.0017474285142
 21
459.7209268384674
 31
0.0
  0
LINE
  5
71D
330
1F
100
AcDbEntity
  8
0
  6
Continuous
 62
     7
100
AcDbLine
 10
451.9517474285144
 20
460.6209268384676
 30
0.0
 11
482.0517474285144
 21
460.6209268384676
 31
0.0
  0
LINE
  5
71E
330
1F
100
AcDbEntity
  8
0
  6
Continuous
 62
     7
100
AcDbLine
 10
451.9517474285144
 20
472.2209268384678
 30
0.0
 11
482.0517474285144
 21
472.2209268384678
 31
0.0
  0
ARC
  5
71F
330
1F
100
AcDbEntity
  8
0
  6
Continuous
 62
     7
100
AcDbCircle
 10
467.0017474285144
 20
450.9209268384681
 30
0.0
 40
4.00000000000003
100
AcDbArc
 50
0.0
 51
180.0
  0
LINE
  5
720
330
1F
100
AcDbEntity
  8
0
  6
Continuous
 62
     7
100
AcDbLine
 10
467.5017474285024
 20
452.9209268384945
 30
0.0
 11
467.5017474285024
 21
452.9209268384945
 31
0.0
  0
LINE
  5
721
330
1F
100
AcDbEntity
  8
0
  6
Continuous
 62
     7
100
AcDbLine
 10
467.5017474285113
 20
451.420926838483
 30
0.0
 11
467.5017474285024
 21
452.9209268384945
 31
0.0
  0
LINE
  5
722
330
1F
100
AcDbEntity
  8
0
  6
Continuous
 62
     7
100
AcDbLine
 10
467.5017474285234
 20
448.9209268384948
 30
0.0
 11
467.5017474285143
 21
450.420926838495
 31
0.0
  0
LINE
  5
723
330
1F
100
AcDbEntity
  8
0
  6
Continuous
 62
     7
100
AcDbLine
 10
466.5017474285233
 20
448.9209268384771
 30
0.0
 11
467.5017474285234
 21
448.9209268384948
 31
0.0
  0
LINE
  5
724
330
1F
100
AcDbEntity
  8
0
  6
Continuous
 62
     7
100
AcDbLine
 10
466.5017474285145
 20
450.4209268384913
 30
0.0
 11
466.5017474285233
 21
448.9209268384771
 31
0.0
  0
LINE
  5
725
330
1F
100
AcDbEntity
  8
0
  6
Continuous
 62
     7
100
AcDbLine
 10
465.0017474285146
 20
450.4209268384832
 30
0.0
 11
466.5017474285145
 21
450.4209268384913
 31
0.0
  0
LINE
  5
726
330
1F
100
AcDbEntity
  8
0
  6
Continuous
 62
     7
100
AcDbLine
 10
465.0017474285116
 20
451.4209268384702
 30
0.0
 11
465.0017474285146
 21
450.4209268384832
 31
0.0
  0
LINE
  5
727
330
1F
100
AcDbEntity
  8
0
  6
Continuous
 62
     7
100
AcDbLine
 10
466.5017474285114
 20
451.4209268384886
 30
0.0
 11
465.0017474285116
 21
451.4209268384702
 31
0.0
  0
LINE
  5
728
330
1F
100
AcDbEntity
  8
0
  6
Continuous
 62
     7
100
AcDbLine
 10
466.5017474285023
 20
452.9209268384886
 30
0.0
 11
466.5017474285114
 21
451.4209268384886
 31
0.0
  0
LINE
  5
729
330
1F
100
AcDbEntity
  8
0
  6
Continuous
 62
     7
100
AcDbLine
 10
467.5017474285024
 20
452.9209268384945
 30
0.0
 11
466.5017474285023
 21
452.9209268384886
 31
0.0
  0
LINE
  5
72A
330
1F
100
AcDbEntity
  8
0
  6
Continuous
 62
     7
100
AcDbLine
 10
451.251747428514
 20
467.4209268384671
 30
0.0
 11
451.251747428514
 21
465.4209268384678
 31
0.0
  0
LINE
  5
72B
330
1F
100
AcDbEntity
  8
0
  6
Continuous
 62
     7
100
AcDbLine
 10
458.001747428514
 20
473.1209268384675
 30
0.0
 11
466.0017474285147
 21
473.1209268384675
 31
0.0
  0
LINE
  5
72C
330
1F
100
AcDbEntity
  8
0
  6
Continuous
 62
     7
100
AcDbLine
 10
466.0017474285147
 20
473.420926838468
 30
0.0
 11
466.0017474285147
 21
472.9209268384678
 31
0.0
  0
LINE
  5
72D
330
1F
100
AcDbEntity
  8
0
  6
Continuous
 62
     7
100
AcDbLine
 10
468.0017474285144
 20
473.420926838468
 30
0.0
 11
468.0017474285144
 21
472.9209268384678
 31
0.0
  0
LINE
  5
72E
330
1F
100
AcDbEntity
  8
0
  6
Continuous
 62
     7
100
AcDbLine
 10
458.001747428514
 20
473.420926838468
 30
0.0
 11
458.001747428514
 21
472.9209268384678
 31
0.0
  0
LINE
  5
72F
330
1F
100
AcDbEntity
  8
0
  6
Continuous
 62
     7
100
AcDbLine
 10
456.0017474285141
 20
473.420926838468
 30
0.0
 11
456.0017474285141
 21
472.9209268384678
 31
0.0
  0
LINE
  5
730
330
1F
100
AcDbEntity
  8
0
  6
Continuous
 62
     7
100
AcDbLine
 10
466.0017474285147
 20
472.9209268384678
 30
0.0
 11
468.0017474285144
 21
472.9209268384678
 31
0.0
  0
LINE
  5
731
330
1F
100
AcDbEntity
  8
0
  6
Continuous
 62
     7
100
AcDbLine
 10
456.0017474285141
 20
472.9209268384678
 30
0.0
 11
458.001747428514
 21
472.9209268384678
 31
0.0
  0
LINE
  5
732
330
1F
100
AcDbEntity
  8
0
  6
Continuous
 62
     7
100
AcDbLine
 10
458.001747428514
 20
459.7209268384674
 30
0.0
 11
466.0017474285147
 21
459.7209268384674
 31
0.0
  0
LINE
  5
733
330
1F
100
AcDbEntity
  8
0
  6
Continuous
 62
     7
100
AcDbLine
 10
466.0017474285147
 20
459.9209268384675
 30
0.0
 11
468.0017474285144
 21
459.9209268384675
 31
0.0
  0
LINE
  5
734
330
1F
100
AcDbEntity
  8
0
  6
Continuous
 62
     7
100
AcDbLine
 10
456.0017474285141
 20
459.9209268384675
 30
0.0
 11
458.001747428514
 21
459.9209268384675
 31
0.0
  0
LINE
  5
735
330
1F
100
AcDbEntity
  8
0
  6
Continuous
 62
     7
100
AcDbLine
 10
458.001747428514
 20
459.9209268384675
 30
0.0
 11
458.001747428514
 21
459.4209268384679
 31
0.0
  0
LINE
  5
736
330
1F
100
AcDbEntity
  8
0
  6
Continuous
 62
     7
100
AcDbLine
 10
456.0017474285141
 20
459.9209268384675
 30
0.0
 11
456.0017474285141
 21
459.4209268384679
 31
0.0
  0
LINE
  5
737
330
1F
100
AcDbEntity
  8
0
  6
Continuous
 62
     7
100
AcDbLine
 10
468.0017474285144
 20
459.9209268384675
 30
0.0
 11
468.0017474285144
 21
459.4209268384679
 31
0.0
  0
LINE
  5
738
330
1F
100
AcDbEntity
  8
0
  6
Continuous
 62
     7
100
AcDbLine
 10
466.0017474285147
 20
459.9209268384675
 30
0.0
 11
466.0017474285147
 21
459.4209268384679
 31
0.0
  0
LINE
  5
739
330
1F
100
AcDbEntity
  8
0
  6
Continuous
 62
     7
100
AcDbLine
 10
451.9517474285144
 20
472.2209268384678
 30
0.0
 11
451.9517474285144
 21
460.6209268384676
 31
0.0
  0
LINE
  5
73A
330
1F
100
AcDbEntity
  8
0
  6
Continuous
 62
     7
100
AcDbLine
 10
463.0017474285144
 20
450.9209268384681
 30
0.0
 11
463.0017474285144
 21
447.9209268384678
 31
0.0
  0
LINE
  5
73C
330
1F
100
AcDbEntity
  8
0
  6
Continuous
 62
     7
100
AcDbLine
 10
469.0017474285144
 20
450.4209268385038
 30
0.0
 11
469.0017474285111
 21
451.4209268384923
 31
0.0
  0
LINE
  5
73D
330
1F
100
AcDbEntity
  8
0
  6
Continuous
 62
     7
100
AcDbLine
 10
482.9517474285144
 20
465.4209268384678
 30
0.0
 11
482.9517474285144
 21
459.7209268384674
 31
0.0
  0
LINE
  5
73E
330
1F
100
AcDbEntity
  8
0
  6
Continuous
 62
     7
100
AcDbLine
 10
482.9517474285144
 20
473.1209268384675
 30
0.0
 11
482.9517474285144
 21
467.4209268384671
 31
0.0
  0
LINE
  5
73F
330
1F
100
AcDbEntity
  8
0
  6
Continuous
 62
     7
100
AcDbLine
 10
482.7517474285142
 20
465.4209268384678
 30
0.0
 11
483.2517474285141
 21
465.4209268384678
 31
0.0
  0
LINE
  5
740
330
1F
100
AcDbEntity
  8
0
  6
Continuous
 62
     7
100
AcDbLine
 10
482.7517474285142
 20
467.4209268384671
 30
0.0
 11
483.2517474285141
 21
467.4209268384671
 31
0.0
  0
LINE
  5
741
330
1F
100
AcDbEntity
  8
0
  6
Continuous
 62
     7
100
AcDbLine
 10
482.7517474285142
 20
467.4209268384671
 30
0.0
 11
482.7517474285142
 21
465.4209268384678
 31
0.0
  0
LINE
  5
742
330
1F
100
AcDbEntity
  8
0
  6
Continuous
 62
     7
100
AcDbLine
 10
478.0017474285144
 20
473.1209268384675
 30
0.0
 11
482.9517474285144
 21
473.1209268384675
 31
0.0
  0
LINE
  5
743
330
1F
100
AcDbEntity
  8
0
  6
Continuous
 62
     7
100
AcDbLine
 10
478.0017474285144
 20
473.420926838468
 30
0.0
 11
478.0017474285144
 21
472.9209268384678
 31
0.0
  0
LINE
  5
744
330
1F
100
AcDbEntity
  8
0
  6
Continuous
 62
     7
100
AcDbLine
 10
476.0017474285142
 20
473.420926838468
 30
0.0
 11
476.0017474285142
 21
472.9209268384678
 31
0.0
  0
LINE
  5
745
330
1F
100
AcDbEntity
  8
0
  6
Continuous
 62
     7
100
AcDbLine
 10
476.0017474285142
 20
472.9209268384678
 30
0.0
 11
478.0017474285144
 21
472.9209268384678
 31
0.0
  0
LINE
  5
746
330
1F
100
AcDbEntity
  8
0
  6
Continuous
 62
     7
100
AcDbLine
 10
478.0017474285144
 20
459.7209268384674
 30
0.0
 11
482.9517474285144
 21
459.7209268384674
 31
0.0
  0
LINE
  5
747
330
1F
100
AcDbEntity
  8
0
  6
Continuous
 62
     7
100
AcDbLine
 10
476.0017474285142
 20
459.9209268384675
 30
0.0
 11
478.0017474285144
 21
459.9209268384675
 31
0.0
  0
LINE
  5
748
330
1F
100
AcDbEntity
  8
0
  6
Continuous
 62
     7
100
AcDbLine
 10
483.2517474285141
 20
473.420926838468
 30
0.0
 11
483.2517474285141
 21
459.4209268384679
 31
0.0
  0
LINE
  5
749
330
1F
100
AcDbEntity
  8
0
  6
Continuous
 62
     7
100
AcDbLine
 10
478.0017474285144
 20
459.9209268384675
 30
0.0
 11
478.0017474285144
 21
459.4209268384679
 31
0.0
  0
LINE
  5
74A
330
1F
100
AcDbEntity
  8
0
  6
Continuous
 62
     7
100
AcDbLine
 10
476.0017474285142
 20
459.9209268384675
 30
0.0
 11
476.0017474285142
 21
459.4209268384679
 31
0.0
  0
LINE
  5
74B
330
1F
100
AcDbEntity
  8
0
  6
Continuous
 62
     7
100
AcDbLine
 10
482.0517474285144
 20
472.2209268384678
 30
0.0
 11
482.0517474285144
 21
460.6209268384676
 31
0.0
  0
LINE
  5
74C
330
1F
100
AcDbEntity
  8
0
  6
Continuous
 62
     7
100
AcDbLine
 10
482.9517474285144
 20
459.7209268384674
 30
0.0
 11
482.0517474285144
 21
460.6209268384676
 31
0.0
  0
LINE
  5
74D
330
1F
100
AcDbEntity
  8
0
  6
Continuous
 62
     7
100
AcDbLine
 10
483.2517474285141
 20
459.4209268384679
 30
0.0
 11
483.7517474285141
 21
458.920926838468
 31
0.0
  0
LINE
  5
74E
330
1F
100
AcDbEntity
  8
0
  6
Continuous
 62
     7
100
AcDbLine
 10
482.9517474285144
 20
473.1209268384675
 30
0.0
 11
482.0517474285144
 21
472.2209268384678
 31
0.0
  0
LINE
  5
74F
330
1F
100
AcDbEntity
  8
0
  6
Continuous
 62
     7
100
AcDbLine
 10
483.2517474285141
 20
473.420926838468
 30
0.0
 11
483.7517474285141
 21
473.9209268384676
 31
0.0
  0
LINE
  5
750
330
1F
100
AcDbEntity
  8
0
  6
Continuous
 62
     7
100
AcDbLine
 10
483.7517474285141
 20
473.9209268384676
 30
0.0
 11
483.7517474285141
 21
458.920926838468
 31
0.0
  0
LINE
  5
751
330
1F
100
AcDbEntity
  8
0
  6
Continuous
 62
     7
100
AcDbLine
 10
471.001747428514
 20
450.9209268384681
 30
0.0
 11
471.001747428514
 21
447.9209268384678
 31
0.0
  0
LINE
  5
752
330
1F
100
AcDbEntity
  8
0
  6
Continuous
 62
     7
100
AcDbLine
 10
471.4271801819434
 20
511.7078159727597
 30
0.0
 11
468.8577510294903
 21
511.7078159727597
 31
0.0
  0
LINE
  5
753
330
1F
100
AcDbEntity
  8
0
  6
Continuous
 62
     7
100
AcDbLine
 10
469.000609555244
 20
514.9209278551136
 30
0.0
 11
468.5698650732414
 21
514.5192788285941
 31
0.0
  0
LINE
  5
754
330
1F
100
AcDbEntity
  8
0
  6
Continuous
 62
     7
100
AcDbLine
 10
468.6973243753161
 20
515.3225768816333
 30
0.0
 11
469.000609555244
 21
514.9209278551136
 31
0.0
  0
LINE
  5
755
330
1F
100
AcDbEntity
  8
0
  6
Continuous
 62
     7
100
AcDbLine
 10
468.8577510294903
 20
511.7078159727597
 30
0.0
 11
469.303967031992
 21
514.5192788285941
 31
0.0
  0
LINE
  5
756
330
1F
100
AcDbEntity
  8
0
  6
Continuous
 62
     7
100
AcDbLine
 10
468.6973243753161
 20
515.3225768816333
 30
0.0
 11
469.1705070934607
 21
518.3044995843239
 31
0.0
  0
LINE
  5
757
330
1F
100
AcDbEntity
  8
0
  6
Continuous
 62
     7
100
AcDbLine
 10
468.5745643668504
 20
510.9044375899125
 30
0.0
 11
471.5485665507396
 21
510.9044375899125
 31
0.0
  0
LINE
  5
758
330
1F
100
AcDbEntity
  8
0
  6
Continuous
 62
     7
100
AcDbLine
 10
453.5017474285143
 20
509.9209268384681
 30
0.0
 11
480.5017474285144
 21
509.9209268384681
 31
0.0
  0
LINE
  5
759
330
1F
100
AcDbEntity
  8
0
  6
Continuous
 62
     7
100
AcDbLine
 10
453.5017474285143
 20
519.9209268384676
 30
0.0
 11
480.5017474285144
 21
519.9209268384676
 31
0.0
  0
ARC
  5
75D
330
1F
100
AcDbEntity
  8
0
  6
Continuous
 62
     7
100
AcDbCircle
 10
472.0017474285141
 20
491.420926838468
 30
0.0
 40
3.999999999999978
100
AcDbArc
 50
0.0
 51
180.0
  0
ARC
  5
75E
330
1F
100
AcDbEntity
  8
0
  6
Continuous
 62
     7
100
AcDbCircle
 10
472.0017474285141
 20
488.420926838468
 30
0.0
 40
3.999999999999978
100
AcDbArc
 50
180.0
 51
0.0
  0
LINE
  5
75F
330
1F
100
AcDbEntity
  8
0
  6
Continuous
 62
     7
100
AcDbLine
 10
457.0017474285141
 20
498.920926838468
 30
0.0
 11
484.5017474285143
 21
498.920926838468
 31
0.0
  0
LINE
  5
760
330
1F
100
AcDbEntity
  8
0
  6
Continuous
 62
     7
100
AcDbLine
 10
457.0017474285141
 20
507.9209268384683
 30
0.0
 11
484.5017474285143
 21
507.9209268384683
 31
0.0
  0
LINE
  5
766
330
1F
100
AcDbEntity
  8
0
  6
Continuous
 62
     7
100
AcDbLine
 10
454.83142633407
 20
515.3225768816333
 30
0.0
 11
457.4008554865236
 21
515.3225768816333
 31
0.0
  0
LINE
  5
767
330
1F
100
AcDbEntity
  8
0
  6
Continuous
 62
     7
100
AcDbLine
 10
454.7039670319913
 20
514.5192788285941
 30
0.0
 11
457.2733961844456
 21
514.5192788285941
 31
0.0
  0
LINE
  5
768
330
1F
100
AcDbEntity
  8
0
  6
Continuous
 62
     7
100
AcDbLine
 10
455.2775700397451
 20
518.1341200672727
 30
0.0
 11
457.8470714890252
 21
518.1341200672727
 31
0.0
  0
LINE
  5
769
330
1F
100
AcDbEntity
  8
0
  6
Continuous
 62
     7
100
AcDbLine
 10
456.8271801819438
 20
511.7078159727597
 30
0.0
 11
454.2577510294902
 21
511.7078159727597
 31
0.0
  0
LINE
  5
76A
330
1F
100
AcDbEntity
  8
0
  6
Continuous
 62
     7
100
AcDbLine
 10
454.4006095552441
 20
514.9209278551136
 30
0.0
 11
454.7039670319913
 21
514.5192788285941
 31
0.0
  0
LINE
  5
76B
330
1F
100
AcDbEntity
  8
0
  6
Continuous
 62
     7
100
AcDbLine
 10
454.83142633407
 20
515.3225768816333
 30
0.0
 11
454.4006095552441
 21
514.9209278551136
 31
0.0
  0
LINE
  5
76C
330
1F
100
AcDbEntity
  8
0
  6
Continuous
 62
     7
100
AcDbLine
 10
454.4006095552441
 20
514.9209278551136
 30
0.0
 11
453.9698650732413
 21
514.5192788285941
 31
0.0
  0
LINE
  5
76D
330
1F
100
AcDbEntity
  8
0
  6
Continuous
 62
     7
100
AcDbLine
 10
454.0973243753161
 20
515.3225768816333
 30
0.0
 11
454.4006095552441
 21
514.9209278551136
 31
0.0
  0
LINE
  5
76E
330
1F
100
AcDbEntity
  8
0
  6
Continuous
 62
     7
100
AcDbLine
 10
457.7042129632712
 20
514.9209278551136
 30
0.0
 11
457.2733961844456
 21
514.5192788285941
 31
0.0
  0
LINE
  5
76F
330
1F
100
AcDbEntity
  8
0
  6
Continuous
 62
     7
100
AcDbLine
 10
457.4008554865236
 20
515.3225768816333
 30
0.0
 11
457.7042129632712
 21
514.9209278551136
 31
0.0
  0
LINE
  5
770
330
1F
100
AcDbEntity
  8
0
  6
Continuous
 62
     7
100
AcDbLine
 10
457.7042129632712
 20
514.9209278551136
 30
0.0
 11
458.007498143199
 21
514.5192788285941
 31
0.0
  0
LINE
  5
771
330
1F
100
AcDbEntity
  8
0
  6
Continuous
 62
     7
100
AcDbLine
 10
458.1349574452742
 20
515.3225768816333
 30
0.0
 11
457.7042129632712
 21
514.9209278551136
 31
0.0
  0
LINE
  5
772
330
1F
100
AcDbEntity
  8
0
  6
Continuous
 62
     7
100
AcDbLine
 10
457.8470714890252
 20
518.1341200672727
 30
0.0
 11
457.4008554865236
 21
515.3225768816333
 31
0.0
  0
LINE
  5
773
330
1F
100
AcDbEntity
  8
0
  6
Continuous
 62
     7
100
AcDbLine
 10
457.2733961844456
 20
514.5192788285941
 30
0.0
 11
456.8271801819438
 21
511.7078159727597
 31
0.0
  0
LINE
  5
774
330
1F
100
AcDbEntity
  8
0
  6
Continuous
 62
     7
100
AcDbLine
 10
454.2577510294902
 20
511.7078159727597
 30
0.0
 11
454.7039670319913
 21
514.5192788285941
 31
0.0
  0
LINE
  5
775
330
1F
100
AcDbEntity
  8
0
  6
Continuous
 62
     7
100
AcDbLine
 10
454.83142633407
 20
515.3225768816333
 30
0.0
 11
455.2775700397451
 21
518.1341200672727
 31
0.0
  0
LINE
  5
776
330
1F
100
AcDbEntity
  8
0
  6
Continuous
 62
     7
100
AcDbLine
 10
454.0973243753161
 20
515.3225768816333
 30
0.0
 11
454.5705070934606
 21
518.3044995843239
 31
0.0
  0
LINE
  5
777
330
1F
100
AcDbEntity
  8
0
  6
Continuous
 62
     7
100
AcDbLine
 10
454.5705070934606
 20
518.3044995843239
 30
0.0
 11
455.2493019812591
 21
518.9374181203114
 31
0.0
  0
LINE
  5
778
330
1F
100
AcDbEntity
  8
0
  6
Continuous
 62
     7
100
AcDbLine
 10
455.2493019812591
 20
518.9374181203114
 30
0.0
 11
458.0193548224603
 21
518.9374181203114
 31
0.0
  0
LINE
  5
779
330
1F
100
AcDbEntity
  8
0
  6
Continuous
 62
     7
100
AcDbLine
 10
458.0193548224603
 20
518.9374181203114
 30
0.0
 11
458.5889815048508
 21
518.1832015783149
 31
0.0
  0
LINE
  5
77A
330
1F
100
AcDbEntity
  8
0
  6
Continuous
 62
     7
100
AcDbLine
 10
458.5889815048508
 20
518.1832015783149
 30
0.0
 11
458.1349574452742
 21
515.3225768816333
 31
0.0
  0
LINE
  5
77B
330
1F
100
AcDbEntity
  8
0
  6
Continuous
 62
     7
100
AcDbLine
 10
453.9698650732413
 20
514.5192788285941
 30
0.0
 11
453.4966100582738
 21
511.5372757960984
 31
0.0
  0
LINE
  5
77C
330
1F
100
AcDbEntity
  8
0
  6
Continuous
 62
     7
100
AcDbLine
 10
453.4966100582738
 20
511.5372757960984
 30
0.0
 11
453.9745643668508
 21
510.9044375899125
 31
0.0
  0
LINE
  5
77D
330
1F
100
AcDbEntity
  8
0
  6
Continuous
 62
     7
100
AcDbLine
 10
453.9745643668508
 20
510.9044375899125
 30
0.0
 11
456.9485665507398
 21
510.9044375899125
 31
0.0
  0
LINE
  5
77E
330
1F
100
AcDbEntity
  8
0
  6
Continuous
 62
     7
100
AcDbLine
 10
456.9485665507398
 20
510.9044375899125
 30
0.0
 11
457.5181209363036
 21
511.4354176029721
 31
0.0
  0
LINE
  5
77F
330
1F
100
AcDbEntity
  8
0
  6
Continuous
 62
     7
100
AcDbLine
 10
457.5181209363036
 20
511.4354176029721
 30
0.0
 11
458.007498143199
 21
514.5192788285941
 31
0.0
  0
LINE
  5
780
330
1F
100
AcDbEntity
  8
0
  6
Continuous
 62
     7
100
AcDbLine
 10
458.3041320152441
 20
518.560350014216
 30
0.0
 11
457.8470714890252
 21
518.1341200672727
 31
0.0
  0
LINE
  5
781
330
1F
100
AcDbEntity
  8
0
  6
Continuous
 62
     7
100
AcDbLine
 10
454.9099406857727
 20
518.6209990172183
 30
0.0
 11
455.2775700397451
 21
518.1341200672727
 31
0.0
  0
LINE
  5
782
330
1F
100
AcDbEntity
  8
0
  6
Continuous
 62
     7
100
AcDbLine
 10
453.735551064151
 20
511.220856693006
 30
0.0
 11
454.2577510294902
 21
511.7078159727597
 31
0.0
  0
LINE
  5
783
330
1F
100
AcDbEntity
  8
0
  6
Continuous
 62
     7
100
AcDbLine
 10
457.2333437435236
 20
511.1699275964443
 30
0.0
 11
456.8271801819438
 21
511.7078159727597
 31
0.0
  0
LINE
  5
787
330
1F
100
AcDbEntity
  8
0
  6
Continuous
 62
     7
100
AcDbLine
 10
462.13142633407
 20
515.3225768816333
 30
0.0
 11
464.7008554865234
 21
515.3225768816333
 31
0.0
  0
LINE
  5
788
330
1F
100
AcDbEntity
  8
0
  6
Continuous
 62
     7
100
AcDbLine
 10
462.0039670319918
 20
514.5192788285941
 30
0.0
 11
464.5733961844449
 21
514.5192788285941
 31
0.0
  0
LINE
  5
789
330
1F
100
AcDbEntity
  8
0
  6
Continuous
 62
     7
100
AcDbLine
 10
462.5775700397459
 20
518.1341200672727
 30
0.0
 11
465.1470714890251
 21
518.1341200672727
 31
0.0
  0
LINE
  5
78A
330
1F
100
AcDbEntity
  8
0
  6
Continuous
 62
     7
100
AcDbLine
 10
464.1271801819439
 20
511.7078159727597
 30
0.0
 11
461.5577510294905
 21
511.7078159727597
 31
0.0
  0
LINE
  5
78B
330
1F
100
AcDbEntity
  8
0
  6
Continuous
 62
     7
100
AcDbLine
 10
461.7006095552437
 20
514.9209278551136
 30
0.0
 11
462.0039670319918
 21
514.5192788285941
 31
0.0
  0
LINE
  5
78C
330
1F
100
AcDbEntity
  8
0
  6
Continuous
 62
     7
100
AcDbLine
 10
462.13142633407
 20
515.3225768816333
 30
0.0
 11
461.7006095552437
 21
514.9209278551136
 31
0.0
  0
LINE
  5
78D
330
1F
100
AcDbEntity
  8
0
  6
Continuous
 62
     7
100
AcDbLine
 10
461.7006095552437
 20
514.9209278551136
 30
0.0
 11
461.2698650732411
 21
514.5192788285941
 31
0.0
  0
LINE
  5
78E
330
1F
100
AcDbEntity
  8
0
  6
Continuous
 62
     7
100
AcDbLine
 10
461.3973243753156
 20
515.3225768816333
 30
0.0
 11
461.7006095552437
 21
514.9209278551136
 31
0.0
  0
LINE
  5
78F
330
1F
100
AcDbEntity
  8
0
  6
Continuous
 62
     7
100
AcDbLine
 10
465.0042129632711
 20
514.9209278551136
 30
0.0
 11
464.5733961844449
 21
514.5192788285941
 31
0.0
  0
LINE
  5
790
330
1F
100
AcDbEntity
  8
0
  6
Continuous
 62
     7
100
AcDbLine
 10
464.7008554865234
 20
515.3225768816333
 30
0.0
 11
465.0042129632711
 21
514.9209278551136
 31
0.0
  0
LINE
  5
791
330
1F
100
AcDbEntity
  8
0
  6
Continuous
 62
     7
100
AcDbLine
 10
465.0042129632711
 20
514.9209278551136
 30
0.0
 11
465.307498143199
 21
514.5192788285941
 31
0.0
  0
LINE
  5
792
330
1F
100
AcDbEntity
  8
0
  6
Continuous
 62
     7
100
AcDbLine
 10
465.4349574452742
 20
515.3225768816333
 30
0.0
 11
465.0042129632711
 21
514.9209278551136
 31
0.0
  0
LINE
  5
793
330
1F
100
AcDbEntity
  8
0
  6
Continuous
 62
     7
100
AcDbLine
 10
465.1470714890251
 20
518.1341200672727
 30
0.0
 11
464.7008554865234
 21
515.3225768816333
 31
0.0
  0
LINE
  5
794
330
1F
100
AcDbEntity
  8
0
  6
Continuous
 62
     7
100
AcDbLine
 10
464.5733961844449
 20
514.5192788285941
 30
0.0
 11
464.1271801819439
 21
511.7078159727597
 31
0.0
  0
LINE
  5
795
330
1F
100
AcDbEntity
  8
0
  6
Continuous
 62
     7
100
AcDbLine
 10
461.5577510294905
 20
511.7078159727597
 30
0.0
 11
462.0039670319918
 21
514.5192788285941
 31
0.0
  0
LINE
  5
796
330
1F
100
AcDbEntity
  8
0
  6
Continuous
 62
     7
100
AcDbLine
 10
462.13142633407
 20
515.3225768816333
 30
0.0
 11
462.5775700397459
 21
518.1341200672727
 31
0.0
  0
LINE
  5
797
330
1F
100
AcDbEntity
  8
0
  6
Continuous
 62
     7
100
AcDbLine
 10
461.3973243753156
 20
515.3225768816333
 30
0.0
 11
461.8705070934604
 21
518.3044995843239
 31
0.0
  0
LINE
  5
798
330
1F
100
AcDbEntity
  8
0
  6
Continuous
 62
     7
100
AcDbLine
 10
461.8705070934604
 20
518.3044995843239
 30
0.0
 11
462.5493019812586
 21
518.9374181203114
 31
0.0
  0
LINE
  5
799
330
1F
100
AcDbEntity
  8
0
  6
Continuous
 62
     7
100
AcDbLine
 10
462.5493019812586
 20
518.9374181203114
 30
0.0
 11
465.3193548224598
 21
518.9374181203114
 31
0.0
  0
LINE
  5
79A
330
1F
100
AcDbEntity
  8
0
  6
Continuous
 62
     7
100
AcDbLine
 10
465.3193548224598
 20
518.9374181203114
 30
0.0
 11
465.8889815048508
 21
518.1832015783149
 31
0.0
  0
LINE
  5
79B
330
1F
100
AcDbEntity
  8
0
  6
Continuous
 62
     7
100
AcDbLine
 10
465.8889815048508
 20
518.1832015783149
 30
0.0
 11
465.4349574452742
 21
515.3225768816333
 31
0.0
  0
LINE
  5
79C
330
1F
100
AcDbEntity
  8
0
  6
Continuous
 62
     7
100
AcDbLine
 10
461.2698650732411
 20
514.5192788285941
 30
0.0
 11
460.7966100582739
 21
511.5372757960984
 31
0.0
  0
LINE
  5
79D
330
1F
100
AcDbEntity
  8
0
  6
Continuous
 62
     7
100
AcDbLine
 10
460.7966100582739
 20
511.5372757960984
 30
0.0
 11
461.2745643668504
 21
510.9044375899125
 31
0.0
  0
LINE
  5
79E
330
1F
100
AcDbEntity
  8
0
  6
Continuous
 62
     7
100
AcDbLine
 10
461.2745643668504
 20
510.9044375899125
 30
0.0
 11
464.2485665507398
 21
510.9044375899125
 31
0.0
  0
LINE
  5
79F
330
1F
100
AcDbEntity
  8
0
  6
Continuous
 62
     7
100
AcDbLine
 10
464.2485665507398
 20
510.9044375899125
 30
0.0
 11
464.818120936304
 21
511.4354176029721
 31
0.0
  0
LINE
  5
7A0
330
1F
100
AcDbEntity
  8
0
  6
Continuous
 62
     7
100
AcDbLine
 10
464.818120936304
 20
511.4354176029721
 30
0.0
 11
465.307498143199
 21
514.5192788285941
 31
0.0
  0
LINE
  5
7A1
330
1F
100
AcDbEntity
  8
0
  6
Continuous
 62
     7
100
AcDbLine
 10
465.6041320152439
 20
518.560350014216
 30
0.0
 11
465.1470714890251
 21
518.1341200672727
 31
0.0
  0
LINE
  5
7A2
330
1F
100
AcDbEntity
  8
0
  6
Continuous
 62
     7
100
AcDbLine
 10
462.2099406857727
 20
518.6209990172183
 30
0.0
 11
462.5775700397459
 21
518.1341200672727
 31
0.0
  0
LINE
  5
7A3
330
1F
100
AcDbEntity
  8
0
  6
Continuous
 62
     7
100
AcDbLine
 10
461.0355510641511
 20
511.220856693006
 30
0.0
 11
461.5577510294905
 21
511.7078159727597
 31
0.0
  0
LINE
  5
7A4
330
1F
100
AcDbEntity
  8
0
  6
Continuous
 62
     7
100
AcDbLine
 10
464.5333437435237
 20
511.1699275964443
 30
0.0
 11
464.1271801819439
 21
511.7078159727597
 31
0.0
  0
LINE
  5
7A5
330
1F
100
AcDbEntity
  8
0
  6
Continuous
 62
     7
100
AcDbLine
 10
468.5698650732414
 20
514.5192788285941
 30
0.0
 11
468.096610058274
 21
511.5372757960984
 31
0.0
  0
LINE
  5
7A6
330
1F
100
AcDbEntity
  8
0
  6
Continuous
 62
     7
100
AcDbLine
 10
468.096610058274
 20
511.5372757960984
 30
0.0
 11
468.5745643668504
 21
510.9044375899125
 31
0.0
  0
LINE
  5
7A7
330
1F
100
AcDbEntity
  8
0
  6
Continuous
 62
     7
100
AcDbLine
 10
468.3355510641513
 20
511.220856693006
 30
0.0
 11
468.8577510294903
 21
511.7078159727597
 31
0.0
  0
LINE
  5
7A8
330
1F
100
AcDbEntity
  8
0
  6
Continuous
 62
     7
100
AcDbLine
 10
452.5017474285141
 20
518.9209268384677
 30
0.0
 11
452.5017474285141
 21
510.9209268384676
 31
0.0
  0
ARC
  5
7A9
330
1F
100
AcDbEntity
  8
0
  6
Continuous
 62
     7
100
AcDbCircle
 10
453.5017474285143
 20
510.9209268384676
 30
0.0
 40
1.00000000000004
100
AcDbArc
 50
180.0000000000195
 51
270.0
  0
ARC
  5
7AA
330
1F
100
AcDbEntity
  8
0
  6
Continuous
 62
     7
100
AcDbCircle
 10
453.5017474285149
 20
518.9209268384677
 30
0.0
 40
1.000000000000252
100
AcDbArc
 50
90.00000000000651
 51
179.9999999999899
  0
ARC
  5
7B5
330
1F
100
AcDbEntity
  8
0
  6
Continuous
 62
     7
100
AcDbCircle
 10
462.0017474285143
 20
491.420926838468
 30
0.0
 40
3.999999999999978
100
AcDbArc
 50
0.0
 51
180.0
  0
ARC
  5
7B6
330
1F
100
AcDbEntity
  8
0
  6
Continuous
 62
     7
100
AcDbCircle
 10
462.0017474285143
 20
488.420926838468
 30
0.0
 40
3.999999999999978
100
AcDbArc
 50
180.0
 51
0.0
  0
LINE
  5
7B7
330
1F
100
AcDbEntity
  8
0
  6
Continuous
 62
     7
100
AcDbLine
 10
468.0017474285144
 20
491.420926838468
 30
0.0
 11
468.0017474285144
 21
488.420926838468
 31
0.0
  0
LINE
  5
7B8
330
1F
100
AcDbEntity
  8
0
  6
Continuous
 62
     7
100
AcDbLine
 10
466.0017474285147
 20
491.420926838468
 30
0.0
 11
466.0017474285147
 21
488.420926838468
 31
0.0
  0
LINE
  5
7B9
330
1F
100
AcDbEntity
  8
0
  6
Continuous
 62
     7
100
AcDbLine
 10
458.001747428514
 20
491.420926838468
 30
0.0
 11
458.001747428514
 21
488.420926838468
 31
0.0
  0
LINE
  5
7BA
330
1F
100
AcDbEntity
  8
0
  6
Continuous
 62
     7
100
AcDbLine
 10
456.0017474285141
 20
491.420926838468
 30
0.0
 11
456.0017474285141
 21
488.420926838468
 31
0.0
  0
ARC
  5
7BB
330
1F
100
AcDbEntity
  8
0
  6
Continuous
 62
     7
100
AcDbCircle
 10
457.0017474285141
 20
506.9209268384681
 30
0.0
 40
1.000000000000252
100
AcDbArc
 50
90.00000000001303
 51
179.9999999999899
  0
ARC
  5
7BC
330
1F
100
AcDbEntity
  8
0
  6
Continuous
 62
     7
100
AcDbCircle
 10
457.0017474285148
 20
499.9209268384683
 30
0.0
 40
1.000000000000295
100
AcDbArc
 50
180.0
 51
269.9999999999803
  0
LINE
  5
7BD
330
1F
100
AcDbEntity
  8
0
  6
Continuous
 62
     7
100
AcDbLine
 10
456.0017474285141
 20
499.9209268384683
 30
0.0
 11
456.0017474285141
 21
506.9209268384681
 31
0.0
  0
LINE
  5
7C6
330
1F
100
AcDbEntity
  8
0
  6
Continuous
 62
     7
100
AcDbLine
 10
469.4314263340698
 20
515.3225768816333
 30
0.0
 11
472.0008554865237
 21
515.3225768816333
 31
0.0
  0
LINE
  5
7C7
330
1F
100
AcDbEntity
  8
0
  6
Continuous
 62
     7
100
AcDbLine
 10
469.303967031992
 20
514.5192788285941
 30
0.0
 11
471.8733961844455
 21
514.5192788285941
 31
0.0
  0
LINE
  5
7C8
330
1F
100
AcDbEntity
  8
0
  6
Continuous
 62
     7
100
AcDbLine
 10
469.8775700397456
 20
518.1341200672727
 30
0.0
 11
472.4470714890249
 21
518.1341200672727
 31
0.0
  0
LINE
  5
7C9
330
1F
100
AcDbEntity
  8
0
  6
Continuous
 62
     7
100
AcDbLine
 10
469.000609555244
 20
514.9209278551136
 30
0.0
 11
469.303967031992
 21
514.5192788285941
 31
0.0
  0
LINE
  5
7CA
330
1F
100
AcDbEntity
  8
0
  6
Continuous
 62
     7
100
AcDbLine
 10
469.4314263340698
 20
515.3225768816333
 30
0.0
 11
469.000609555244
 21
514.9209278551136
 31
0.0
  0
LINE
  5
7CB
330
1F
100
AcDbEntity
  8
0
  6
Continuous
 62
     7
100
AcDbLine
 10
472.3042129632712
 20
514.9209278551136
 30
0.0
 11
471.8733961844455
 21
514.5192788285941
 31
0.0
  0
LINE
  5
7CC
330
1F
100
AcDbEntity
  8
0
  6
Continuous
 62
     7
100
AcDbLine
 10
472.0008554865237
 20
515.3225768816333
 30
0.0
 11
472.3042129632712
 21
514.9209278551136
 31
0.0
  0
LINE
  5
7CD
330
1F
100
AcDbEntity
  8
0
  6
Continuous
 62
     7
100
AcDbLine
 10
472.3042129632712
 20
514.9209278551136
 30
0.0
 11
472.6074981431991
 21
514.5192788285941
 31
0.0
  0
LINE
  5
7CE
330
1F
100
AcDbEntity
  8
0
  6
Continuous
 62
     7
100
AcDbLine
 10
472.7349574452743
 20
515.3225768816333
 30
0.0
 11
472.3042129632712
 21
514.9209278551136
 31
0.0
  0
LINE
  5
7CF
330
1F
100
AcDbEntity
  8
0
  6
Continuous
 62
     7
100
AcDbLine
 10
472.4470714890249
 20
518.1341200672727
 30
0.0
 11
472.0008554865237
 21
515.3225768816333
 31
0.0
  0
LINE
  5
7D0
330
1F
100
AcDbEntity
  8
0
  6
Continuous
 62
     7
100
AcDbLine
 10
471.8733961844455
 20
514.5192788285941
 30
0.0
 11
471.4271801819434
 21
511.7078159727597
 31
0.0
  0
LINE
  5
7D1
330
1F
100
AcDbEntity
  8
0
  6
Continuous
 62
     7
100
AcDbLine
 10
469.4314263340698
 20
515.3225768816333
 30
0.0
 11
469.8775700397456
 21
518.1341200672727
 31
0.0
  0
LINE
  5
7D2
330
1F
100
AcDbEntity
  8
0
  6
Continuous
 62
     7
100
AcDbLine
 10
469.1705070934607
 20
518.3044995843239
 30
0.0
 11
469.8493019812589
 21
518.9374181203114
 31
0.0
  0
LINE
  5
7D3
330
1F
100
AcDbEntity
  8
0
  6
Continuous
 62
     7
100
AcDbLine
 10
469.8493019812589
 20
518.9374181203114
 30
0.0
 11
472.6193548224602
 21
518.9374181203114
 31
0.0
  0
LINE
  5
7D4
330
1F
100
AcDbEntity
  8
0
  6
Continuous
 62
     7
100
AcDbLine
 10
472.6193548224602
 20
518.9374181203114
 30
0.0
 11
473.188981504851
 21
518.1832015783149
 31
0.0
  0
LINE
  5
7D5
330
1F
100
AcDbEntity
  8
0
  6
Continuous
 62
     7
100
AcDbLine
 10
473.188981504851
 20
518.1832015783149
 30
0.0
 11
472.7349574452743
 21
515.3225768816333
 31
0.0
  0
LINE
  5
7D6
330
1F
100
AcDbEntity
  8
0
  6
Continuous
 62
     7
100
AcDbLine
 10
471.5485665507396
 20
510.9044375899125
 30
0.0
 11
472.1181209363042
 21
511.4354176029721
 31
0.0
  0
LINE
  5
7D7
330
1F
100
AcDbEntity
  8
0
  6
Continuous
 62
     7
100
AcDbLine
 10
472.1181209363042
 20
511.4354176029721
 30
0.0
 11
472.6074981431991
 21
514.5192788285941
 31
0.0
  0
LINE
  5
7D8
330
1F
100
AcDbEntity
  8
0
  6
Continuous
 62
     7
100
AcDbLine
 10
472.9041320152441
 20
518.560350014216
 30
0.0
 11
472.4470714890249
 21
518.1341200672727
 31
0.0
  0
LINE
  5
7D9
330
1F
100
AcDbEntity
  8
0
  6
Continuous
 62
     7
100
AcDbLine
 10
469.5099406857727
 20
518.6209990172183
 30
0.0
 11
469.8775700397456
 21
518.1341200672727
 31
0.0
  0
LINE
  5
7DA
330
1F
100
AcDbEntity
  8
0
  6
Continuous
 62
     7
100
AcDbLine
 10
471.8333437435227
 20
511.1699275964443
 30
0.0
 11
471.4271801819434
 21
511.7078159727597
 31
0.0
  0
LINE
  5
7DE
330
1F
100
AcDbEntity
  8
0
  6
Continuous
 62
     7
100
AcDbLine
 10
476.7314263340701
 20
515.3225768816333
 30
0.0
 11
479.3008554865233
 21
515.3225768816333
 31
0.0
  0
LINE
  5
7DF
330
1F
100
AcDbEntity
  8
0
  6
Continuous
 62
     7
100
AcDbLine
 10
476.6039670319917
 20
514.5192788285941
 30
0.0
 11
479.1733961844455
 21
514.5192788285941
 31
0.0
  0
LINE
  5
7E0
330
1F
100
AcDbEntity
  8
0
  6
Continuous
 62
     7
100
AcDbLine
 10
477.1775700397456
 20
518.1341200672727
 30
0.0
 11
479.7470714890251
 21
518.1341200672727
 31
0.0
  0
LINE
  5
7E1
330
1F
100
AcDbEntity
  8
0
  6
Continuous
 62
     7
100
AcDbLine
 10
478.7271801819441
 20
511.7078159727597
 30
0.0
 11
476.1577510294904
 21
511.7078159727597
 31
0.0
  0
LINE
  5
7E2
330
1F
100
AcDbEntity
  8
0
  6
Continuous
 62
     7
100
AcDbLine
 10
476.3006095552439
 20
514.9209278551136
 30
0.0
 11
476.6039670319917
 21
514.5192788285941
 31
0.0
  0
LINE
  5
7E3
330
1F
100
AcDbEntity
  8
0
  6
Continuous
 62
     7
100
AcDbLine
 10
476.7314263340701
 20
515.3225768816333
 30
0.0
 11
476.3006095552439
 21
514.9209278551136
 31
0.0
  0
LINE
  5
7E4
330
1F
100
AcDbEntity
  8
0
  6
Continuous
 62
     7
100
AcDbLine
 10
476.3006095552439
 20
514.9209278551136
 30
0.0
 11
475.8698650732417
 21
514.5192788285941
 31
0.0
  0
LINE
  5
7E5
330
1F
100
AcDbEntity
  8
0
  6
Continuous
 62
     7
100
AcDbLine
 10
475.997324375316
 20
515.3225768816333
 30
0.0
 11
476.3006095552439
 21
514.9209278551136
 31
0.0
  0
LINE
  5
7E6
330
1F
100
AcDbEntity
  8
0
  6
Continuous
 62
     7
100
AcDbLine
 10
479.6042129632714
 20
514.9209278551136
 30
0.0
 11
479.1733961844455
 21
514.5192788285941
 31
0.0
  0
LINE
  5
7E7
330
1F
100
AcDbEntity
  8
0
  6
Continuous
 62
     7
100
AcDbLine
 10
479.3008554865233
 20
515.3225768816333
 30
0.0
 11
479.6042129632714
 21
514.9209278551136
 31
0.0
  0
LINE
  5
7E8
330
1F
100
AcDbEntity
  8
0
  6
Continuous
 62
     7
100
AcDbLine
 10
479.6042129632714
 20
514.9209278551136
 30
0.0
 11
479.9074981431991
 21
514.5192788285941
 31
0.0
  0
LINE
  5
7E9
330
1F
100
AcDbEntity
  8
0
  6
Continuous
 62
     7
100
AcDbLine
 10
480.0349574452742
 20
515.3225768816333
 30
0.0
 11
479.6042129632714
 21
514.9209278551136
 31
0.0
  0
LINE
  5
7EA
330
1F
100
AcDbEntity
  8
0
  6
Continuous
 62
     7
100
AcDbLine
 10
479.7470714890251
 20
518.1341200672727
 30
0.0
 11
479.3008554865233
 21
515.3225768816333
 31
0.0
  0
LINE
  5
7EB
330
1F
100
AcDbEntity
  8
0
  6
Continuous
 62
     7
100
AcDbLine
 10
479.1733961844455
 20
514.5192788285941
 30
0.0
 11
478.7271801819441
 21
511.7078159727597
 31
0.0
  0
LINE
  5
7EC
330
1F
100
AcDbEntity
  8
0
  6
Continuous
 62
     7
100
AcDbLine
 10
476.1577510294904
 20
511.7078159727597
 30
0.0
 11
476.6039670319917
 21
514.5192788285941
 31
0.0
  0
LINE
  5
7ED
330
1F
100
AcDbEntity
  8
0
  6
Continuous
 62
     7
100
AcDbLine
 10
476.7314263340701
 20
515.3225768816333
 30
0.0
 11
477.1775700397456
 21
518.1341200672727
 31
0.0
  0
LINE
  5
7EE
330
1F
100
AcDbEntity
  8
0
  6
Continuous
 62
     7
100
AcDbLine
 10
475.997324375316
 20
515.3225768816333
 30
0.0
 11
476.4705070934606
 21
518.3044995843239
 31
0.0
  0
LINE
  5
7EF
330
1F
100
AcDbEntity
  8
0
  6
Continuous
 62
     7
100
AcDbLine
 10
476.4705070934606
 20
518.3044995843239
 30
0.0
 11
477.1493019812588
 21
518.9374181203114
 31
0.0
  0
LINE
  5
7F0
330
1F
100
AcDbEntity
  8
0
  6
Continuous
 62
     7
100
AcDbLine
 10
477.1493019812588
 20
518.9374181203114
 30
0.0
 11
479.9193548224605
 21
518.9374181203114
 31
0.0
  0
LINE
  5
7F1
330
1F
100
AcDbEntity
  8
0
  6
Continuous
 62
     7
100
AcDbLine
 10
479.9193548224605
 20
518.9374181203114
 30
0.0
 11
480.4889815048508
 21
518.1832015783149
 31
0.0
  0
LINE
  5
7F2
330
1F
100
AcDbEntity
  8
0
  6
Continuous
 62
     7
100
AcDbLine
 10
480.4889815048508
 20
518.1832015783149
 30
0.0
 11
480.0349574452742
 21
515.3225768816333
 31
0.0
  0
LINE
  5
7F3
330
1F
100
AcDbEntity
  8
0
  6
Continuous
 62
     7
100
AcDbLine
 10
475.8698650732417
 20
514.5192788285941
 30
0.0
 11
475.3966100582738
 21
511.5372757960984
 31
0.0
  0
LINE
  5
7F4
330
1F
100
AcDbEntity
  8
0
  6
Continuous
 62
     7
100
AcDbLine
 10
475.3966100582738
 20
511.5372757960984
 30
0.0
 11
475.8745643668508
 21
510.9044375899125
 31
0.0
  0
LINE
  5
7F5
330
1F
100
AcDbEntity
  8
0
  6
Continuous
 62
     7
100
AcDbLine
 10
475.8745643668508
 20
510.9044375899125
 30
0.0
 11
478.8485665507397
 21
510.9044375899125
 31
0.0
  0
LINE
  5
7F6
330
1F
100
AcDbEntity
  8
0
  6
Continuous
 62
     7
100
AcDbLine
 10
478.8485665507397
 20
510.9044375899125
 30
0.0
 11
479.4181209363041
 21
511.4354176029721
 31
0.0
  0
LINE
  5
7F7
330
1F
100
AcDbEntity
  8
0
  6
Continuous
 62
     7
100
AcDbLine
 10
479.4181209363041
 20
511.4354176029721
 30
0.0
 11
479.9074981431991
 21
514.5192788285941
 31
0.0
  0
LINE
  5
7F8
330
1F
100
AcDbEntity
  8
0
  6
Continuous
 62
     7
100
AcDbLine
 10
480.2041320152443
 20
518.560350014216
 30
0.0
 11
479.7470714890251
 21
518.1341200672727
 31
0.0
  0
LINE
  5
7F9
330
1F
100
AcDbEntity
  8
0
  6
Continuous
 62
     7
100
AcDbLine
 10
476.8099406857728
 20
518.6209990172183
 30
0.0
 11
477.1775700397456
 21
518.1341200672727
 31
0.0
  0
LINE
  5
7FA
330
1F
100
AcDbEntity
  8
0
  6
Continuous
 62
     7
100
AcDbLine
 10
475.6355510641506
 20
511.220856693006
 30
0.0
 11
476.1577510294904
 21
511.7078159727597
 31
0.0
  0
LINE
  5
7FB
330
1F
100
AcDbEntity
  8
0
  6
Continuous
 62
     7
100
AcDbLine
 10
479.1333437435233
 20
511.1699275964443
 30
0.0
 11
478.7271801819441
 21
511.7078159727597
 31
0.0
  0
ARC
  5
7FC
330
1F
100
AcDbEntity
  8
0
  6
Continuous
 62
     7
100
AcDbCircle
 10
480.5017474285144
 20
510.9209268384676
 30
0.0
 40
1.000000000000082
100
AcDbArc
 50
270.0
 51
359.9999999999803
  0
ARC
  5
7FD
330
1F
100
AcDbEntity
  8
0
  6
Continuous
 62
     7
100
AcDbCircle
 10
480.5017474285144
 20
518.9209268384677
 30
0.0
 40
1.00000000000021
100
AcDbArc
 50
0.0
 51
89.99999999998697
  0
LINE
  5
7FE
330
1F
100
AcDbEntity
  8
0
  6
Continuous
 62
     7
100
AcDbLine
 10
481.5017474285146
 20
518.9209268384677
 30
0.0
 11
481.5017474285146
 21
510.9209268384676
 31
0.0
  0
ARC
  5
80B
330
1F
100
AcDbEntity
  8
0
  6
Continuous
 62
     7
100
AcDbCircle
 10
482.0017474285146
 20
491.420926838468
 30
0.0
 40
4.00000000000003
100
AcDbArc
 50
0.0
 51
180.0
  0
ARC
  5
80C
330
1F
100
AcDbEntity
  8
0
  6
Continuous
 62
     7
100
AcDbCircle
 10
482.0017474285146
 20
488.420926838468
 30
0.0
 40
3.999999999999978
100
AcDbArc
 50
180.0
 51
0.0
  0
LINE
  5
80D
330
1F
100
AcDbEntity
  8
0
  6
Continuous
 62
     7
100
AcDbLine
 10
486.0017474285144
 20
491.420926838468
 30
0.0
 11
486.0017474285144
 21
488.420926838468
 31
0.0
  0
LINE
  5
80E
330
1F
100
AcDbEntity
  8
0
  6
Continuous
 62
     7
100
AcDbLine
 10
478.0017474285144
 20
491.420926838468
 30
0.0
 11
478.0017474285144
 21
488.420926838468
 31
0.0
  0
LINE
  5
80F
330
1F
100
AcDbEntity
  8
0
  6
Continuous
 62
     7
100
AcDbLine
 10
476.0017474285142
 20
491.420926838468
 30
0.0
 11
476.0017474285142
 21
488.420926838468
 31
0.0
  0
ARC
  5
810
330
1F
100
AcDbEntity
  8
0
  6
Continuous
 62
     7
100
AcDbCircle
 10
484.5017474285143
 20
506.9209268384681
 30
0.0
 40
1.00000000000021
100
AcDbArc
 50
0.0000000000097707
 51
89.99999999998697
  0
ARC
  5
811
330
1F
100
AcDbEntity
  8
0
  6
Continuous
 62
     7
100
AcDbCircle
 10
484.5017474285142
 20
499.9209268384683
 30
0.0
 40
1.000000000000252
100
AcDbArc
 50
270.0000000000195
 51
0.0
  0
LINE
  5
812
330
1F
100
AcDbEntity
  8
0
  6
Continuous
 62
     7
100
AcDbLine
 10
485.5017474285141
 20
499.9209268384683
 30
0.0
 11
485.5017474285141
 21
506.9209268384681
 31
0.0
  0
ARC
  5
81A
330
1F
100
AcDbEntity
  8
0
  6
Continuous
 62
     7
100
AcDbCircle
 10
488.0017474285137
 20
479.4209268384679
 30
0.0
 40
1.000000000000082
100
AcDbArc
 50
270.000000000013
 51
0.0
  0
ARC
  5
81B
330
1F
100
AcDbEntity
  8
0
  6
Continuous
 62
     7
100
AcDbCircle
 10
488.0017474285137
 20
479.4209268384679
 30
0.0
 40
1.000000000000082
100
AcDbArc
 50
270.000000000013
 51
0.0
  0
ARC
  5
81C
330
1F
100
AcDbEntity
  8
0
  6
Continuous
 62
     7
100
AcDbCircle
 10
490.0017474285141
 20
449.9209268384677
 30
0.0
 40
2.000000000000335
100
AcDbArc
 50
270.0000000000065
 51
359.9999999999901
  0
LINE
  5
81F
330
1F
100
AcDbEntity
  8
0
  6
Continuous
 62
     7
100
AcDbLine
 10
469.0017474285111
 20
549.4209268384925
 30
0.0
 11
467.5017474285113
 21
549.4209268384833
 31
0.0
  0
LINE
  5
820
330
1F
100
AcDbEntity
  8
0
  6
Continuous
 62
     7
100
AcDbLine
 10
467.5017474285143
 20
548.4209268384955
 30
0.0
 11
469.0017474285144
 21
548.4209268385042
 31
0.0
  0
LINE
  5
821
330
1F
100
AcDbEntity
  8
0
  6
Continuous
 62
     7
100
AcDbLine
 10
471.4271801819434
 20
527.1078159727594
 30
0.0
 11
468.8577510294903
 21
527.1078159727594
 31
0.0
  0
LINE
  5
822
330
1F
100
AcDbEntity
  8
0
  6
Continuous
 62
     7
100
AcDbLine
 10
469.000609555244
 20
530.3209278551133
 30
0.0
 11
468.5698650732414
 21
529.9192788285933
 31
0.0
  0
LINE
  5
823
330
1F
100
AcDbEntity
  8
0
  6
Continuous
 62
     7
100
AcDbLine
 10
468.6973243753161
 20
530.7225768816323
 30
0.0
 11
469.000609555244
 21
530.3209278551133
 31
0.0
  0
LINE
  5
824
330
1F
100
AcDbEntity
  8
0
  6
Continuous
 62
     7
100
AcDbLine
 10
468.8577510294903
 20
527.1078159727594
 30
0.0
 11
469.303967031992
 21
529.9192788285933
 31
0.0
  0
LINE
  5
825
330
1F
100
AcDbEntity
  8
0
  6
Continuous
 62
     7
100
AcDbLine
 10
468.6973243753161
 20
530.7225768816323
 30
0.0
 11
469.1705070934607
 21
533.7044995843241
 31
0.0
  0
LINE
  5
826
330
1F
100
AcDbEntity
  8
0
  6
Continuous
 62
     7
100
AcDbLine
 10
468.5745643668504
 20
526.3044375899124
 30
0.0
 11
471.5485665507396
 21
526.3044375899124
 31
0.0
  0
LINE
  5
827
330
1F
100
AcDbEntity
  8
0
  6
Continuous
 62
     7
100
AcDbLine
 10
453.5017474285143
 20
525.320926838468
 30
0.0
 11
480.5017474285144
 21
525.320926838468
 31
0.0
  0
LINE
  5
828
330
1F
100
AcDbEntity
  8
0
  6
Continuous
 62
     7
100
AcDbLine
 10
453.5017474285143
 20
535.320926838468
 30
0.0
 11
480.5017474285144
 21
535.320926838468
 31
0.0
  0
ARC
  5
829
330
1F
100
AcDbEntity
  8
0
  6
Continuous
 62
     7
100
AcDbCircle
 10
467.0017474285144
 20
548.9209268384674
 30
0.0
 40
3.999999999999978
100
AcDbArc
 50
180.0
 51
0.0
  0
LINE
  5
82A
330
1F
100
AcDbEntity
  8
0
  6
Continuous
 62
     7
100
AcDbLine
 10
467.5017474285024
 20
550.9209268384952
 30
0.0
 11
467.5017474285024
 21
550.9209268384952
 31
0.0
  0
LINE
  5
82B
330
1F
100
AcDbEntity
  8
0
  6
Continuous
 62
     7
100
AcDbLine
 10
467.5017474285113
 20
549.4209268384833
 30
0.0
 11
467.5017474285024
 21
550.9209268384952
 31
0.0
  0
LINE
  5
82C
330
1F
100
AcDbEntity
  8
0
  6
Continuous
 62
     7
100
AcDbLine
 10
467.5017474285234
 20
546.9209268384952
 30
0.0
 11
467.5017474285143
 21
548.4209268384955
 31
0.0
  0
LINE
  5
82D
330
1F
100
AcDbEntity
  8
0
  6
Continuous
 62
     7
100
AcDbLine
 10
466.5017474285233
 20
546.9209268384775
 30
0.0
 11
467.5017474285234
 21
546.9209268384952
 31
0.0
  0
LINE
  5
82E
330
1F
100
AcDbEntity
  8
0
  6
Continuous
 62
     7
100
AcDbLine
 10
466.5017474285145
 20
548.4209268384918
 30
0.0
 11
466.5017474285233
 21
546.9209268384775
 31
0.0
  0
LINE
  5
82F
330
1F
100
AcDbEntity
  8
0
  6
Continuous
 62
     7
100
AcDbLine
 10
465.0017474285146
 20
548.4209268384829
 30
0.0
 11
466.5017474285145
 21
548.4209268384918
 31
0.0
  0
LINE
  5
830
330
1F
100
AcDbEntity
  8
0
  6
Continuous
 62
     7
100
AcDbLine
 10
465.0017474285116
 20
549.4209268384711
 30
0.0
 11
465.0017474285146
 21
548.4209268384829
 31
0.0
  0
LINE
  5
831
330
1F
100
AcDbEntity
  8
0
  6
Continuous
 62
     7
100
AcDbLine
 10
466.5017474285114
 20
549.4209268384925
 30
0.0
 11
465.0017474285116
 21
549.4209268384711
 31
0.0
  0
LINE
  5
832
330
1F
100
AcDbEntity
  8
0
  6
Continuous
 62
     7
100
AcDbLine
 10
466.5017474285023
 20
550.9209268384881
 30
0.0
 11
466.5017474285114
 21
549.4209268384925
 31
0.0
  0
LINE
  5
833
330
1F
100
AcDbEntity
  8
0
  6
Continuous
 62
     7
100
AcDbLine
 10
467.5017474285024
 20
550.9209268384952
 30
0.0
 11
466.5017474285023
 21
550.9209268384881
 31
0.0
  0
LINE
  5
837
330
1F
100
AcDbEntity
  8
0
  6
Continuous
 62
     7
100
AcDbLine
 10
454.83142633407
 20
530.7225768816323
 30
0.0
 11
457.4008554865236
 21
530.7225768816323
 31
0.0
  0
LINE
  5
838
330
1F
100
AcDbEntity
  8
0
  6
Continuous
 62
     7
100
AcDbLine
 10
454.7039670319913
 20
529.9192788285933
 30
0.0
 11
457.2733961844456
 21
529.9192788285933
 31
0.0
  0
LINE
  5
839
330
1F
100
AcDbEntity
  8
0
  6
Continuous
 62
     7
100
AcDbLine
 10
455.2775700397451
 20
533.5341200672732
 30
0.0
 11
457.8470714890252
 21
533.5341200672732
 31
0.0
  0
LINE
  5
83A
330
1F
100
AcDbEntity
  8
0
  6
Continuous
 62
     7
100
AcDbLine
 10
456.8271801819438
 20
527.1078159727594
 30
0.0
 11
454.2577510294902
 21
527.1078159727594
 31
0.0
  0
LINE
  5
83B
330
1F
100
AcDbEntity
  8
0
  6
Continuous
 62
     7
100
AcDbLine
 10
454.4006095552441
 20
530.3209278551133
 30
0.0
 11
454.7039670319913
 21
529.9192788285933
 31
0.0
  0
LINE
  5
83C
330
1F
100
AcDbEntity
  8
0
  6
Continuous
 62
     7
100
AcDbLine
 10
454.83142633407
 20
530.7225768816323
 30
0.0
 11
454.4006095552441
 21
530.3209278551133
 31
0.0
  0
LINE
  5
83D
330
1F
100
AcDbEntity
  8
0
  6
Continuous
 62
     7
100
AcDbLine
 10
454.4006095552441
 20
530.3209278551133
 30
0.0
 11
453.9698650732413
 21
529.9192788285933
 31
0.0
  0
LINE
  5
83E
330
1F
100
AcDbEntity
  8
0
  6
Continuous
 62
     7
100
AcDbLine
 10
454.0973243753161
 20
530.7225768816323
 30
0.0
 11
454.4006095552441
 21
530.3209278551133
 31
0.0
  0
LINE
  5
83F
330
1F
100
AcDbEntity
  8
0
  6
Continuous
 62
     7
100
AcDbLine
 10
457.7042129632712
 20
530.3209278551133
 30
0.0
 11
457.2733961844456
 21
529.9192788285933
 31
0.0
  0
LINE
  5
840
330
1F
100
AcDbEntity
  8
0
  6
Continuous
 62
     7
100
AcDbLine
 10
457.4008554865236
 20
530.7225768816323
 30
0.0
 11
457.7042129632712
 21
530.3209278551133
 31
0.0
  0
LINE
  5
841
330
1F
100
AcDbEntity
  8
0
  6
Continuous
 62
     7
100
AcDbLine
 10
457.7042129632712
 20
530.3209278551133
 30
0.0
 11
458.007498143199
 21
529.9192788285933
 31
0.0
  0
LINE
  5
842
330
1F
100
AcDbEntity
  8
0
  6
Continuous
 62
     7
100
AcDbLine
 10
458.1349574452742
 20
530.7225768816323
 30
0.0
 11
457.7042129632712
 21
530.3209278551133
 31
0.0
  0
LINE
  5
843
330
1F
100
AcDbEntity
  8
0
  6
Continuous
 62
     7
100
AcDbLine
 10
457.8470714890252
 20
533.5341200672732
 30
0.0
 11
457.4008554865236
 21
530.7225768816323
 31
0.0
  0
LINE
  5
844
330
1F
100
AcDbEntity
  8
0
  6
Continuous
 62
     7
100
AcDbLine
 10
457.2733961844456
 20
529.9192788285933
 30
0.0
 11
456.8271801819438
 21
527.1078159727594
 31
0.0
  0
LINE
  5
845
330
1F
100
AcDbEntity
  8
0
  6
Continuous
 62
     7
100
AcDbLine
 10
454.2577510294902
 20
527.1078159727594
 30
0.0
 11
454.7039670319913
 21
529.9192788285933
 31
0.0
  0
LINE
  5
846
330
1F
100
AcDbEntity
  8
0
  6
Continuous
 62
     7
100
AcDbLine
 10
454.83142633407
 20
530.7225768816323
 30
0.0
 11
455.2775700397451
 21
533.5341200672732
 31
0.0
  0
LINE
  5
847
330
1F
100
AcDbEntity
  8
0
  6
Continuous
 62
     7
100
AcDbLine
 10
454.0973243753161
 20
530.7225768816323
 30
0.0
 11
454.5705070934606
 21
533.7044995843241
 31
0.0
  0
LINE
  5
848
330
1F
100
AcDbEntity
  8
0
  6
Continuous
 62
     7
100
AcDbLine
 10
454.5705070934606
 20
533.7044995843241
 30
0.0
 11
455.2493019812591
 21
534.3374181203111
 31
0.0
  0
LINE
  5
849
330
1F
100
AcDbEntity
  8
0
  6
Continuous
 62
     7
100
AcDbLine
 10
455.2493019812591
 20
534.3374181203111
 30
0.0
 11
458.0193548224603
 21
534.3374181203111
 31
0.0
  0
LINE
  5
84A
330
1F
100
AcDbEntity
  8
0
  6
Continuous
 62
     7
100
AcDbLine
 10
458.0193548224603
 20
534.3374181203111
 30
0.0
 11
458.5889815048508
 21
533.5832015783118
 31
0.0
  0
LINE
  5
84B
330
1F
100
AcDbEntity
  8
0
  6
Continuous
 62
     7
100
AcDbLine
 10
458.5889815048508
 20
533.5832015783118
 30
0.0
 11
458.1349574452742
 21
530.7225768816323
 31
0.0
  0
LINE
  5
84C
330
1F
100
AcDbEntity
  8
0
  6
Continuous
 62
     7
100
AcDbLine
 10
453.9698650732413
 20
529.9192788285933
 30
0.0
 11
453.4966100582738
 21
526.9372757960987
 31
0.0
  0
LINE
  5
84D
330
1F
100
AcDbEntity
  8
0
  6
Continuous
 62
     7
100
AcDbLine
 10
453.4966100582738
 20
526.9372757960987
 30
0.0
 11
453.9745643668508
 21
526.3044375899124
 31
0.0
  0
LINE
  5
84E
330
1F
100
AcDbEntity
  8
0
  6
Continuous
 62
     7
100
AcDbLine
 10
453.9745643668508
 20
526.3044375899124
 30
0.0
 11
456.9485665507398
 21
526.3044375899124
 31
0.0
  0
LINE
  5
84F
330
1F
100
AcDbEntity
  8
0
  6
Continuous
 62
     7
100
AcDbLine
 10
456.9485665507398
 20
526.3044375899124
 30
0.0
 11
457.5181209363036
 21
526.8354176029723
 31
0.0
  0
LINE
  5
850
330
1F
100
AcDbEntity
  8
0
  6
Continuous
 62
     7
100
AcDbLine
 10
457.5181209363036
 20
526.8354176029723
 30
0.0
 11
458.007498143199
 21
529.9192788285933
 31
0.0
  0
LINE
  5
851
330
1F
100
AcDbEntity
  8
0
  6
Continuous
 62
     7
100
AcDbLine
 10
458.3041320152441
 20
533.960350014216
 30
0.0
 11
457.8470714890252
 21
533.5341200672732
 31
0.0
  0
LINE
  5
852
330
1F
100
AcDbEntity
  8
0
  6
Continuous
 62
     7
100
AcDbLine
 10
454.9099406857727
 20
534.020999017218
 30
0.0
 11
455.2775700397451
 21
533.5341200672732
 31
0.0
  0
LINE
  5
853
330
1F
100
AcDbEntity
  8
0
  6
Continuous
 62
     7
100
AcDbLine
 10
453.735551064151
 20
526.6208566930059
 30
0.0
 11
454.2577510294902
 21
527.1078159727594
 31
0.0
  0
LINE
  5
854
330
1F
100
AcDbEntity
  8
0
  6
Continuous
 62
     7
100
AcDbLine
 10
457.2333437435236
 20
526.5699275964406
 30
0.0
 11
456.8271801819438
 21
527.1078159727594
 31
0.0
  0
LINE
  5
858
330
1F
100
AcDbEntity
  8
0
  6
Continuous
 62
     7
100
AcDbLine
 10
462.13142633407
 20
530.7225768816323
 30
0.0
 11
464.7008554865234
 21
530.7225768816323
 31
0.0
  0
LINE
  5
859
330
1F
100
AcDbEntity
  8
0
  6
Continuous
 62
     7
100
AcDbLine
 10
462.0039670319918
 20
529.9192788285933
 30
0.0
 11
464.5733961844449
 21
529.9192788285933
 31
0.0
  0
LINE
  5
85A
330
1F
100
AcDbEntity
  8
0
  6
Continuous
 62
     7
100
AcDbLine
 10
462.5775700397459
 20
533.5341200672732
 30
0.0
 11
465.1470714890251
 21
533.5341200672732
 31
0.0
  0
LINE
  5
85B
330
1F
100
AcDbEntity
  8
0
  6
Continuous
 62
     7
100
AcDbLine
 10
464.1271801819439
 20
527.1078159727594
 30
0.0
 11
461.5577510294905
 21
527.1078159727594
 31
0.0
  0
LINE
  5
85C
330
1F
100
AcDbEntity
  8
0
  6
Continuous
 62
     7
100
AcDbLine
 10
461.7006095552437
 20
530.3209278551133
 30
0.0
 11
462.0039670319918
 21
529.9192788285933
 31
0.0
  0
LINE
  5
85D
330
1F
100
AcDbEntity
  8
0
  6
Continuous
 62
     7
100
AcDbLine
 10
462.13142633407
 20
530.7225768816323
 30
0.0
 11
461.7006095552437
 21
530.3209278551133
 31
0.0
  0
LINE
  5
85E
330
1F
100
AcDbEntity
  8
0
  6
Continuous
 62
     7
100
AcDbLine
 10
461.7006095552437
 20
530.3209278551133
 30
0.0
 11
461.2698650732411
 21
529.9192788285933
 31
0.0
  0
LINE
  5
85F
330
1F
100
AcDbEntity
  8
0
  6
Continuous
 62
     7
100
AcDbLine
 10
461.3973243753156
 20
530.7225768816323
 30
0.0
 11
461.7006095552437
 21
530.3209278551133
 31
0.0
  0
LINE
  5
860
330
1F
100
AcDbEntity
  8
0
  6
Continuous
 62
     7
100
AcDbLine
 10
465.0042129632711
 20
530.3209278551133
 30
0.0
 11
464.5733961844449
 21
529.9192788285933
 31
0.0
  0
LINE
  5
861
330
1F
100
AcDbEntity
  8
0
  6
Continuous
 62
     7
100
AcDbLine
 10
464.7008554865234
 20
530.7225768816323
 30
0.0
 11
465.0042129632711
 21
530.3209278551133
 31
0.0
  0
LINE
  5
862
330
1F
100
AcDbEntity
  8
0
  6
Continuous
 62
     7
100
AcDbLine
 10
465.0042129632711
 20
530.3209278551133
 30
0.0
 11
465.307498143199
 21
529.9192788285933
 31
0.0
  0
LINE
  5
863
330
1F
100
AcDbEntity
  8
0
  6
Continuous
 62
     7
100
AcDbLine
 10
465.4349574452742
 20
530.7225768816323
 30
0.0
 11
465.0042129632711
 21
530.3209278551133
 31
0.0
  0
LINE
  5
864
330
1F
100
AcDbEntity
  8
0
  6
Continuous
 62
     7
100
AcDbLine
 10
465.1470714890251
 20
533.5341200672732
 30
0.0
 11
464.7008554865234
 21
530.7225768816323
 31
0.0
  0
LINE
  5
865
330
1F
100
AcDbEntity
  8
0
  6
Continuous
 62
     7
100
AcDbLine
 10
464.5733961844449
 20
529.9192788285933
 30
0.0
 11
464.1271801819439
 21
527.1078159727594
 31
0.0
  0
LINE
  5
866
330
1F
100
AcDbEntity
  8
0
  6
Continuous
 62
     7
100
AcDbLine
 10
461.5577510294905
 20
527.1078159727594
 30
0.0
 11
462.0039670319918
 21
529.9192788285933
 31
0.0
  0
LINE
  5
867
330
1F
100
AcDbEntity
  8
0
  6
Continuous
 62
     7
100
AcDbLine
 10
462.13142633407
 20
530.7225768816323
 30
0.0
 11
462.5775700397459
 21
533.5341200672732
 31
0.0
  0
LINE
  5
868
330
1F
100
AcDbEntity
  8
0
  6
Continuous
 62
     7
100
AcDbLine
 10
461.3973243753156
 20
530.7225768816323
 30
0.0
 11
461.8705070934604
 21
533.7044995843241
 31
0.0
  0
LINE
  5
869
330
1F
100
AcDbEntity
  8
0
  6
Continuous
 62
     7
100
AcDbLine
 10
461.8705070934604
 20
533.7044995843241
 30
0.0
 11
462.5493019812586
 21
534.3374181203111
 31
0.0
  0
LINE
  5
86A
330
1F
100
AcDbEntity
  8
0
  6
Continuous
 62
     7
100
AcDbLine
 10
462.5493019812586
 20
534.3374181203111
 30
0.0
 11
465.3193548224598
 21
534.3374181203111
 31
0.0
  0
LINE
  5
86B
330
1F
100
AcDbEntity
  8
0
  6
Continuous
 62
     7
100
AcDbLine
 10
465.3193548224598
 20
534.3374181203111
 30
0.0
 11
465.8889815048508
 21
533.5832015783118
 31
0.0
  0
LINE
  5
86C
330
1F
100
AcDbEntity
  8
0
  6
Continuous
 62
     7
100
AcDbLine
 10
465.8889815048508
 20
533.5832015783118
 30
0.0
 11
465.4349574452742
 21
530.7225768816323
 31
0.0
  0
LINE
  5
86D
330
1F
100
AcDbEntity
  8
0
  6
Continuous
 62
     7
100
AcDbLine
 10
461.2698650732411
 20
529.9192788285933
 30
0.0
 11
460.7966100582739
 21
526.9372757960987
 31
0.0
  0
LINE
  5
86E
330
1F
100
AcDbEntity
  8
0
  6
Continuous
 62
     7
100
AcDbLine
 10
460.7966100582739
 20
526.9372757960987
 30
0.0
 11
461.2745643668504
 21
526.3044375899124
 31
0.0
  0
LINE
  5
86F
330
1F
100
AcDbEntity
  8
0
  6
Continuous
 62
     7
100
AcDbLine
 10
461.2745643668504
 20
526.3044375899124
 30
0.0
 11
464.2485665507398
 21
526.3044375899124
 31
0.0
  0
LINE
  5
870
330
1F
100
AcDbEntity
  8
0
  6
Continuous
 62
     7
100
AcDbLine
 10
464.2485665507398
 20
526.3044375899124
 30
0.0
 11
464.818120936304
 21
526.8354176029723
 31
0.0
  0
LINE
  5
871
330
1F
100
AcDbEntity
  8
0
  6
Continuous
 62
     7
100
AcDbLine
 10
464.818120936304
 20
526.8354176029723
 30
0.0
 11
465.307498143199
 21
529.9192788285933
 31
0.0
  0
LINE
  5
872
330
1F
100
AcDbEntity
  8
0
  6
Continuous
 62
     7
100
AcDbLine
 10
465.6041320152439
 20
533.960350014216
 30
0.0
 11
465.1470714890251
 21
533.5341200672732
 31
0.0
  0
LINE
  5
873
330
1F
100
AcDbEntity
  8
0
  6
Continuous
 62
     7
100
AcDbLine
 10
462.2099406857727
 20
534.020999017218
 30
0.0
 11
462.5775700397459
 21
533.5341200672732
 31
0.0
  0
LINE
  5
874
330
1F
100
AcDbEntity
  8
0
  6
Continuous
 62
     7
100
AcDbLine
 10
461.0355510641511
 20
526.6208566930059
 30
0.0
 11
461.5577510294905
 21
527.1078159727594
 31
0.0
  0
LINE
  5
875
330
1F
100
AcDbEntity
  8
0
  6
Continuous
 62
     7
100
AcDbLine
 10
464.5333437435237
 20
526.5699275964406
 30
0.0
 11
464.1271801819439
 21
527.1078159727594
 31
0.0
  0
LINE
  5
876
330
1F
100
AcDbEntity
  8
0
  6
Continuous
 62
     7
100
AcDbLine
 10
468.5698650732414
 20
529.9192788285933
 30
0.0
 11
468.096610058274
 21
526.9372757960987
 31
0.0
  0
LINE
  5
877
330
1F
100
AcDbEntity
  8
0
  6
Continuous
 62
     7
100
AcDbLine
 10
468.096610058274
 20
526.9372757960987
 30
0.0
 11
468.5745643668504
 21
526.3044375899124
 31
0.0
  0
LINE
  5
878
330
1F
100
AcDbEntity
  8
0
  6
Continuous
 62
     7
100
AcDbLine
 10
468.3355510641513
 20
526.6208566930059
 30
0.0
 11
468.8577510294903
 21
527.1078159727594
 31
0.0
  0
LINE
  5
879
330
1F
100
AcDbEntity
  8
0
  6
Continuous
 62
     7
100
AcDbLine
 10
452.5017474285141
 20
534.320926838468
 30
0.0
 11
452.5017474285141
 21
526.3209268384676
 31
0.0
  0
ARC
  5
87A
330
1F
100
AcDbEntity
  8
0
  6
Continuous
 62
     7
100
AcDbCircle
 10
453.5017474285143
 20
526.3209268384676
 30
0.0
 40
1.000000000000125
100
AcDbArc
 50
180.0000000000195
 51
269.9999999999934
  0
ARC
  5
87B
330
1F
100
AcDbEntity
  8
0
  6
Continuous
 62
     7
100
AcDbCircle
 10
453.5017474285143
 20
534.3209268384677
 30
0.0
 40
1.000000000000082
100
AcDbArc
 50
90.0
 51
179.9999999999803
  0
LINE
  5
87C
330
1F
100
AcDbEntity
  8
0
  6
Continuous
 62
     7
100
AcDbLine
 10
463.0017474285144
 20
551.9209268384678
 30
0.0
 11
463.0017474285144
 21
548.9209268384674
 31
0.0
  0
LINE
  5
87E
330
1F
100
AcDbEntity
  8
0
  6
Continuous
 62
     7
100
AcDbLine
 10
469.0017474285144
 20
548.4209268385042
 30
0.0
 11
469.0017474285111
 21
549.4209268384925
 31
0.0
  0
LINE
  5
882
330
1F
100
AcDbEntity
  8
0
  6
Continuous
 62
     7
100
AcDbLine
 10
469.4314263340698
 20
530.7225768816323
 30
0.0
 11
472.0008554865237
 21
530.7225768816323
 31
0.0
  0
LINE
  5
883
330
1F
100
AcDbEntity
  8
0
  6
Continuous
 62
     7
100
AcDbLine
 10
469.303967031992
 20
529.9192788285933
 30
0.0
 11
471.8733961844455
 21
529.9192788285933
 31
0.0
  0
LINE
  5
884
330
1F
100
AcDbEntity
  8
0
  6
Continuous
 62
     7
100
AcDbLine
 10
469.8775700397456
 20
533.5341200672732
 30
0.0
 11
472.4470714890249
 21
533.5341200672732
 31
0.0
  0
LINE
  5
885
330
1F
100
AcDbEntity
  8
0
  6
Continuous
 62
     7
100
AcDbLine
 10
469.000609555244
 20
530.3209278551133
 30
0.0
 11
469.303967031992
 21
529.9192788285933
 31
0.0
  0
LINE
  5
886
330
1F
100
AcDbEntity
  8
0
  6
Continuous
 62
     7
100
AcDbLine
 10
469.4314263340698
 20
530.7225768816323
 30
0.0
 11
469.000609555244
 21
530.3209278551133
 31
0.0
  0
LINE
  5
887
330
1F
100
AcDbEntity
  8
0
  6
Continuous
 62
     7
100
AcDbLine
 10
472.3042129632712
 20
530.3209278551133
 30
0.0
 11
471.8733961844455
 21
529.9192788285933
 31
0.0
  0
LINE
  5
888
330
1F
100
AcDbEntity
  8
0
  6
Continuous
 62
     7
100
AcDbLine
 10
472.0008554865237
 20
530.7225768816323
 30
0.0
 11
472.3042129632712
 21
530.3209278551133
 31
0.0
  0
LINE
  5
889
330
1F
100
AcDbEntity
  8
0
  6
Continuous
 62
     7
100
AcDbLine
 10
472.3042129632712
 20
530.3209278551133
 30
0.0
 11
472.6074981431991
 21
529.9192788285933
 31
0.0
  0
LINE
  5
88A
330
1F
100
AcDbEntity
  8
0
  6
Continuous
 62
     7
100
AcDbLine
 10
472.7349574452743
 20
530.7225768816323
 30
0.0
 11
472.3042129632712
 21
530.3209278551133
 31
0.0
  0
LINE
  5
88B
330
1F
100
AcDbEntity
  8
0
  6
Continuous
 62
     7
100
AcDbLine
 10
472.4470714890249
 20
533.5341200672732
 30
0.0
 11
472.0008554865237
 21
530.7225768816323
 31
0.0
  0
LINE
  5
88C
330
1F
100
AcDbEntity
  8
0
  6
Continuous
 62
     7
100
AcDbLine
 10
471.8733961844455
 20
529.9192788285933
 30
0.0
 11
471.4271801819434
 21
527.1078159727594
 31
0.0
  0
LINE
  5
88D
330
1F
100
AcDbEntity
  8
0
  6
Continuous
 62
     7
100
AcDbLine
 10
469.4314263340698
 20
530.7225768816323
 30
0.0
 11
469.8775700397456
 21
533.5341200672732
 31
0.0
  0
LINE
  5
88E
330
1F
100
AcDbEntity
  8
0
  6
Continuous
 62
     7
100
AcDbLine
 10
469.1705070934607
 20
533.7044995843241
 30
0.0
 11
469.8493019812589
 21
534.3374181203111
 31
0.0
  0
LINE
  5
88F
330
1F
100
AcDbEntity
  8
0
  6
Continuous
 62
     7
100
AcDbLine
 10
469.8493019812589
 20
534.3374181203111
 30
0.0
 11
472.6193548224602
 21
534.3374181203111
 31
0.0
  0
LINE
  5
890
330
1F
100
AcDbEntity
  8
0
  6
Continuous
 62
     7
100
AcDbLine
 10
472.6193548224602
 20
534.3374181203111
 30
0.0
 11
473.188981504851
 21
533.5832015783118
 31
0.0
  0
LINE
  5
891
330
1F
100
AcDbEntity
  8
0
  6
Continuous
 62
     7
100
AcDbLine
 10
473.188981504851
 20
533.5832015783118
 30
0.0
 11
472.7349574452743
 21
530.7225768816323
 31
0.0
  0
LINE
  5
892
330
1F
100
AcDbEntity
  8
0
  6
Continuous
 62
     7
100
AcDbLine
 10
471.5485665507396
 20
526.3044375899124
 30
0.0
 11
472.1181209363042
 21
526.8354176029723
 31
0.0
  0
LINE
  5
893
330
1F
100
AcDbEntity
  8
0
  6
Continuous
 62
     7
100
AcDbLine
 10
472.1181209363042
 20
526.8354176029723
 30
0.0
 11
472.6074981431991
 21
529.9192788285933
 31
0.0
  0
LINE
  5
894
330
1F
100
AcDbEntity
  8
0
  6
Continuous
 62
     7
100
AcDbLine
 10
472.9041320152441
 20
533.960350014216
 30
0.0
 11
472.4470714890249
 21
533.5341200672732
 31
0.0
  0
LINE
  5
895
330
1F
100
AcDbEntity
  8
0
  6
Continuous
 62
     7
100
AcDbLine
 10
469.5099406857727
 20
534.020999017218
 30
0.0
 11
469.8775700397456
 21
533.5341200672732
 31
0.0
  0
LINE
  5
896
330
1F
100
AcDbEntity
  8
0
  6
Continuous
 62
     7
100
AcDbLine
 10
471.8333437435227
 20
526.5699275964406
 30
0.0
 11
471.4271801819434
 21
527.1078159727594
 31
0.0
  0
LINE
  5
89A
330
1F
100
AcDbEntity
  8
0
  6
Continuous
 62
     7
100
AcDbLine
 10
476.7314263340701
 20
530.7225768816323
 30
0.0
 11
479.3008554865233
 21
530.7225768816323
 31
0.0
  0
LINE
  5
89B
330
1F
100
AcDbEntity
  8
0
  6
Continuous
 62
     7
100
AcDbLine
 10
476.6039670319917
 20
529.9192788285933
 30
0.0
 11
479.1733961844455
 21
529.9192788285933
 31
0.0
  0
LINE
  5
89C
330
1F
100
AcDbEntity
  8
0
  6
Continuous
 62
     7
100
AcDbLine
 10
477.1775700397456
 20
533.5341200672732
 30
0.0
 11
479.7470714890251
 21
533.5341200672732
 31
0.0
  0
LINE
  5
89D
330
1F
100
AcDbEntity
  8
0
  6
Continuous
 62
     7
100
AcDbLine
 10
478.7271801819441
 20
527.1078159727594
 30
0.0
 11
476.1577510294904
 21
527.1078159727594
 31
0.0
  0
LINE
  5
89E
330
1F
100
AcDbEntity
  8
0
  6
Continuous
 62
     7
100
AcDbLine
 10
476.3006095552439
 20
530.3209278551133
 30
0.0
 11
476.6039670319917
 21
529.9192788285933
 31
0.0
  0
LINE
  5
89F
330
1F
100
AcDbEntity
  8
0
  6
Continuous
 62
     7
100
AcDbLine
 10
476.7314263340701
 20
530.7225768816323
 30
0.0
 11
476.3006095552439
 21
530.3209278551133
 31
0.0
  0
LINE
  5
8A0
330
1F
100
AcDbEntity
  8
0
  6
Continuous
 62
     7
100
AcDbLine
 10
476.3006095552439
 20
530.3209278551133
 30
0.0
 11
475.8698650732417
 21
529.9192788285933
 31
0.0
  0
LINE
  5
8A1
330
1F
100
AcDbEntity
  8
0
  6
Continuous
 62
     7
100
AcDbLine
 10
475.997324375316
 20
530.7225768816323
 30
0.0
 11
476.3006095552439
 21
530.3209278551133
 31
0.0
  0
LINE
  5
8A2
330
1F
100
AcDbEntity
  8
0
  6
Continuous
 62
     7
100
AcDbLine
 10
479.6042129632714
 20
530.3209278551133
 30
0.0
 11
479.1733961844455
 21
529.9192788285933
 31
0.0
  0
LINE
  5
8A3
330
1F
100
AcDbEntity
  8
0
  6
Continuous
 62
     7
100
AcDbLine
 10
479.3008554865233
 20
530.7225768816323
 30
0.0
 11
479.6042129632714
 21
530.3209278551133
 31
0.0
  0
LINE
  5
8A4
330
1F
100
AcDbEntity
  8
0
  6
Continuous
 62
     7
100
AcDbLine
 10
479.6042129632714
 20
530.3209278551133
 30
0.0
 11
479.9074981431991
 21
529.9192788285933
 31
0.0
  0
LINE
  5
8A5
330
1F
100
AcDbEntity
  8
0
  6
Continuous
 62
     7
100
AcDbLine
 10
480.0349574452742
 20
530.7225768816323
 30
0.0
 11
479.6042129632714
 21
530.3209278551133
 31
0.0
  0
LINE
  5
8A6
330
1F
100
AcDbEntity
  8
0
  6
Continuous
 62
     7
100
AcDbLine
 10
479.7470714890251
 20
533.5341200672732
 30
0.0
 11
479.3008554865233
 21
530.7225768816323
 31
0.0
  0
LINE
  5
8A7
330
1F
100
AcDbEntity
  8
0
  6
Continuous
 62
     7
100
AcDbLine
 10
479.1733961844455
 20
529.9192788285933
 30
0.0
 11
478.7271801819441
 21
527.1078159727594
 31
0.0
  0
LINE
  5
8A8
330
1F
100
AcDbEntity
  8
0
  6
Continuous
 62
     7
100
AcDbLine
 10
476.1577510294904
 20
527.1078159727594
 30
0.0
 11
476.6039670319917
 21
529.9192788285933
 31
0.0
  0
LINE
  5
8A9
330
1F
100
AcDbEntity
  8
0
  6
Continuous
 62
     7
100
AcDbLine
 10
476.7314263340701
 20
530.7225768816323
 30
0.0
 11
477.1775700397456
 21
533.5341200672732
 31
0.0
  0
LINE
  5
8AA
330
1F
100
AcDbEntity
  8
0
  6
Continuous
 62
     7
100
AcDbLine
 10
475.997324375316
 20
530.7225768816323
 30
0.0
 11
476.4705070934606
 21
533.7044995843241
 31
0.0
  0
LINE
  5
8AB
330
1F
100
AcDbEntity
  8
0
  6
Continuous
 62
     7
100
AcDbLine
 10
476.4705070934606
 20
533.7044995843241
 30
0.0
 11
477.1493019812588
 21
534.3374181203111
 31
0.0
  0
LINE
  5
8AC
330
1F
100
AcDbEntity
  8
0
  6
Continuous
 62
     7
100
AcDbLine
 10
477.1493019812588
 20
534.3374181203111
 30
0.0
 11
479.9193548224605
 21
534.3374181203111
 31
0.0
  0
LINE
  5
8AD
330
1F
100
AcDbEntity
  8
0
  6
Continuous
 62
     7
100
AcDbLine
 10
479.9193548224605
 20
534.3374181203111
 30
0.0
 11
480.4889815048508
 21
533.5832015783118
 31
0.0
  0
LINE
  5
8AE
330
1F
100
AcDbEntity
  8
0
  6
Continuous
 62
     7
100
AcDbLine
 10
480.4889815048508
 20
533.5832015783118
 30
0.0
 11
480.0349574452742
 21
530.7225768816323
 31
0.0
  0
LINE
  5
8AF
330
1F
100
AcDbEntity
  8
0
  6
Continuous
 62
     7
100
AcDbLine
 10
475.8698650732417
 20
529.9192788285933
 30
0.0
 11
475.3966100582738
 21
526.9372757960987
 31
0.0
  0
LINE
  5
8B0
330
1F
100
AcDbEntity
  8
0
  6
Continuous
 62
     7
100
AcDbLine
 10
475.3966100582738
 20
526.9372757960987
 30
0.0
 11
475.8745643668508
 21
526.3044375899124
 31
0.0
  0
LINE
  5
8B1
330
1F
100
AcDbEntity
  8
0
  6
Continuous
 62
     7
100
AcDbLine
 10
475.8745643668508
 20
526.3044375899124
 30
0.0
 11
478.8485665507397
 21
526.3044375899124
 31
0.0
  0
LINE
  5
8B2
330
1F
100
AcDbEntity
  8
0
  6
Continuous
 62
     7
100
AcDbLine
 10
478.8485665507397
 20
526.3044375899124
 30
0.0
 11
479.4181209363041
 21
526.8354176029723
 31
0.0
  0
LINE
  5
8B3
330
1F
100
AcDbEntity
  8
0
  6
Continuous
 62
     7
100
AcDbLine
 10
479.4181209363041
 20
526.8354176029723
 30
0.0
 11
479.9074981431991
 21
529.9192788285933
 31
0.0
  0
LINE
  5
8B4
330
1F
100
AcDbEntity
  8
0
  6
Continuous
 62
     7
100
AcDbLine
 10
480.2041320152443
 20
533.960350014216
 30
0.0
 11
479.7470714890251
 21
533.5341200672732
 31
0.0
  0
LINE
  5
8B5
330
1F
100
AcDbEntity
  8
0
  6
Continuous
 62
     7
100
AcDbLine
 10
476.8099406857728
 20
534.020999017218
 30
0.0
 11
477.1775700397456
 21
533.5341200672732
 31
0.0
  0
LINE
  5
8B6
330
1F
100
AcDbEntity
  8
0
  6
Continuous
 62
     7
100
AcDbLine
 10
475.6355510641506
 20
526.6208566930059
 30
0.0
 11
476.1577510294904
 21
527.1078159727594
 31
0.0
  0
LINE
  5
8B7
330
1F
100
AcDbEntity
  8
0
  6
Continuous
 62
     7
100
AcDbLine
 10
479.1333437435233
 20
526.5699275964406
 30
0.0
 11
478.7271801819441
 21
527.1078159727594
 31
0.0
  0
ARC
  5
8B8
330
1F
100
AcDbEntity
  8
0
  6
Continuous
 62
     7
100
AcDbCircle
 10
480.5017474285144
 20
526.3209268384676
 30
0.0
 40
1.000000000000082
100
AcDbArc
 50
270.0000000000065
 51
359.9999999999901
  0
ARC
  5
8B9
330
1F
100
AcDbEntity
  8
0
  6
Continuous
 62
     7
100
AcDbCircle
 10
480.5017474285144
 20
534.3209268384677
 30
0.0
 40
1.00000000000004
100
AcDbArc
 50
0.0000000000195413
 51
90.0
  0
LINE
  5
8BA
330
1F
100
AcDbEntity
  8
0
  6
Continuous
 62
     7
100
AcDbLine
 10
481.5017474285146
 20
534.320926838468
 30
0.0
 11
481.5017474285146
 21
526.3209268384676
 31
0.0
  0
LINE
  5
8BB
330
1F
100
AcDbEntity
  8
0
  6
Continuous
 62
     7
100
AcDbLine
 10
471.001747428514
 20
551.9209268384678
 30
0.0
 11
471.001747428514
 21
548.9209268384674
 31
0.0
  0
ARC
  5
8BC
330
1F
100
AcDbEntity
  8
0
  6
Continuous
 62
     7
100
AcDbCircle
 10
488.0017474285144
 20
541.9209268384678
 30
0.0
 40
1.00000000000004
100
AcDbArc
 50
0.0000000000195413
 51
90.0
  0
ARC
  5
8BD
330
1F
100
AcDbEntity
  8
0
  6
Continuous
 62
     7
100
AcDbCircle
 10
488.0017474285144
 20
541.9209268384678
 30
0.0
 40
1.00000000000004
100
AcDbArc
 50
0.0000000000195413
 51
90.0
  0
ARC
  5
8BE
330
1F
100
AcDbEntity
  8
0
  6
Continuous
 62
     7
100
AcDbCircle
 10
490.0017474285141
 20
549.9209268384674
 30
0.0
 40
2.000000000000379
100
AcDbArc
 50
0.0000000000097707
 51
89.99999999999348
  0
CIRCLE
  5
8C2
330
1F
100
AcDbEntity
  8
0
  6
Continuous
 62
     7
100
AcDbCircle
 10
467.0017474285111
 20
450.9209268384676
 30
0.0
 40
2.750000000000524
  0
CIRCLE
  5
8C3
330
1F
100
AcDbEntity
  8
0
  6
Continuous
 62
     7
100
AcDbCircle
 10
467.0017474285111
 20
548.9209268384671
 30
0.0
 40
2.750000000000524
  0
CIRCLE
  5
8C4
330
1F
100
AcDbEntity
  8
0
  6
Continuous
 62
     7
100
AcDbCircle
 10
452.0017474285138
 20
501.920926838467
 30
0.0
 40
2.000000000000335
  0
CIRCLE
  5
8C5
330
1F
100
AcDbEntity
  8
0
  6
Continuous
 62
     7
100
AcDbCircle
 10
459.501747428514
 20
501.920926838467
 30
0.0
 40
2.000000000000335
  0
CIRCLE
  5
8C6
330
1F
100
AcDbEntity
  8
0
  6
Continuous
 62
     7
100
AcDbCircle
 10
467.001747428514
 20
501.920926838467
 30
0.0
 40
2.000000000000335
  0
CIRCLE
  5
8C7
330
1F
100
AcDbEntity
  8
0
  6
Continuous
 62
     7
100
AcDbCircle
 10
474.5017474285138
 20
501.920926838467
 30
0.0
 40
2.000000000000335
  0
CIRCLE
  5
8C8
330
1F
100
AcDbEntity
  8
0
  6
Continuous
 62
     7
100
AcDbCircle
 10
482.001747428514
 20
501.920926838467
 30
0.0
 40
2.000000000000335
  0
CIRCLE
  5
8C9
330
1F
100
AcDbEntity
  8
0
  6
Continuous
 62
     7
100
AcDbCircle
 10
452.0017474285138
 20
489.9209268384668
 30
0.0
 40
3.500000000000712
  0
CIRCLE
  5
8CA
330
1F
100
AcDbEntity
  8
0
  6
Continuous
 62
     7
100
AcDbCircle
 10
462.001747428514
 20
489.9209268384668
 30
0.0
 40
3.500000000000712
  0
CIRCLE
  5
8CB
330
1F
100
AcDbEntity
  8
0
  6
Continuous
 62
     7
100
AcDbCircle
 10
472.0017474285134
 20
489.9209268384668
 30
0.0
 40
3.500000000000712
  0
CIRCLE
  5
8CC
330
1F
100
AcDbEntity
  8
0
  6
Continuous
 62
     7
100
AcDbCircle
 10
482.001747428514
 20
489.9209268384668
 30
0.0
 40
3.500000000000712
  0
CIRCLE
  5
8CD
330
1F
100
AcDbEntity
  8
0
  6
Continuous
 62
     7
100
AcDbCircle
 10
458.5248755202368
 20
511.3772412549949
 30
0.0
 40
0.38567386971633
  0
CIRCLE
  5
8CE
330
1F
100
AcDbEntity
  8
0
  6
Continuous
 62
     7
100
AcDbCircle
 10
465.8248755202366
 20
511.3772412549949
 30
0.0
 40
0.38567386971633
  0
CIRCLE
  5
8CF
330
1F
100
AcDbEntity
  8
0
  6
Continuous
 62
     7
100
AcDbCircle
 10
473.1248755202368
 20
511.3772412549949
 30
0.0
 40
0.3856738697161591
  0
CIRCLE
  5
8D0
330
1F
100
AcDbEntity
  8
0
  6
Continuous
 62
     7
100
AcDbCircle
 10
480.4248755202368
 20
511.3772412549949
 30
0.0
 40
0.38567386971633
  0
CIRCLE
  5
8D1
330
1F
100
AcDbEntity
  8
0
  6
Continuous
 62
     7
100
AcDbCircle
 10
480.4248755202368
 20
526.7772412549946
 30
0.0
 40
0.38567386971633
  0
CIRCLE
  5
8D2
330
1F
100
AcDbEntity
  8
0
  6
Continuous
 62
     7
100
AcDbCircle
 10
473.1248755202368
 20
526.7772412549946
 30
0.0
 40
0.3856738697161591
  0
CIRCLE
  5
8D3
330
1F
100
AcDbEntity
  8
0
  6
Continuous
 62
     7
100
AcDbCircle
 10
465.8248755202366
 20
526.7772412549946
 30
0.0
 40
0.38567386971633
  0
CIRCLE
  5
8D4
330
1F
100
AcDbEntity
  8
0
  6
Continuous
 62
     7
100
AcDbCircle
 10
458.5248755202368
 20
526.7772412549946
 30
0.0
 40
0.38567386971633
  0
LINE
  5
8EA
330
1F
100
AcDbEntity
  8
0
  6
Continuous
 62
     7
100
AcDbLine
 10
746.6051782288758
 20
549.9209268384678
 30
0.0
 11
746.6051782288757
 21
449.9239265387671
 31
0.0
  0
ARC
  5
8EB
330
1F
100
AcDbEntity
  8
0
  6
Continuous
 62
     7
100
AcDbCircle
 10
748.7981985940562
 20
450.1137532027656
 30
0.0
 40
2.201481394167176
100
AcDbArc
 50
185.024940284349
 51
264.917741008423
  0
LINE
  5
8EC
330
1F
100
AcDbEntity
  8
0
  6
Continuous
 62
     7
100
AcDbLine
 10
748.6031784286812
 20
447.9209268384675
 30
0.0
 11
750.1016785785346
 21
447.9209268384675
 31
0.0
  0
ARC
  5
8ED
330
1F
100
AcDbEntity
  8
0
  6
Continuous
 62
     7
100
AcDbCircle
 10
748.6031776435448
 20
549.922926423213
 30
0.0
 40
1.998000415254109
100
AcDbArc
 50
89.99997748498151
 51
180.0573412222231
  0
LINE
  5
8EE
330
1F
100
AcDbEntity
  8
0
  6
Continuous
 62
     7
100
AcDbLine
 10
750.1016785785346
 20
551.9209268384678
 30
0.0
 11
748.6031784286812
 21
551.9209268384678
 31
0.0
  0
ENDSEC
  0
SECTION
  2
OBJECTS
  0
DICTIONARY
  5
C
330
0
100
AcDbDictionary
281
     1
  3
ACAD_GROUP
350
D
  3
ACAD_LAYOUT
350
1A
  3
ACAD_MLINESTYLE
350
17
  3
ACAD_PLOTSETTINGS
350
19
  3
ACAD_PLOTSTYLENAME
350
E
  0
DICTIONARY
  5
D
102
{ACAD_REACTORS
330
C
102
}
330
C
100
AcDbDictionary
281
     1
  0
DICTIONARY
  5
1A
102
{ACAD_REACTORS
330
C
102
}
330
C
100
AcDbDictionary
281
     1
  3
Model
350
22
  3
ﾚｲｱｳﾄ1
350
51
  0
DICTIONARY
  5
17
102
{ACAD_REACTORS
330
C
102
}
330
C
100
AcDbDictionary
281
     1
  3
Standard
350
18
  0
DICTIONARY
  5
19
102
{ACAD_REACTORS
330
C
102
}
330
C
100
AcDbDictionary
281
     1
  0
ACDBDICTIONARYWDFLT
  5
E
102
{ACAD_REACTORS
330
C
102
}
330
C
100
AcDbDictionary
281
     1
  3
Normal
350
F
100
AcDbDictionaryWithDefault
340
F
  0
LAYOUT
  5
22
102
{ACAD_REACTORS
330
1A
102
}
330
1A
100
AcDbPlotSettings
  1

  2
none_device
  4
ANSI_A_(8.50_x_11.00_Inches)
  6

 40
6.349999904632567
 41
19.04999923706053
 42
6.350006103515625
 43
19.04998779296875
 44
215.8999938964841
 45
279.3999938964843
 46
0.0
 47
0.0
 48
0.0
 49
0.0
140
0.0
141
0.0
142
1.0
143
78.436453180766
 70
 11952
 72
     0
 73
     1
 74
     0
  7

 75
     0
147
0.0127491741332998
148
0.0
149
0.0
100
AcDbLayout
  1
Model
 70
     1
 71
     0
 10
0.0
 20
0.0
 11
12.0
 21
9.0
 12
0.0
 22
0.0
 32
0.0
 14
0.0
 24
0.0
 34
0.0
 15
0.0
 25
0.0
 35
0.0
146
0.0
 13
0.0
 23
0.0
 33
0.0
 16
1.0
 26
0.0
 36
0.0
 17
0.0
 27
1.0
 37
0.0
 76
     0
330
1F
  0
LAYOUT
  5
51
102
{ACAD_REACTORS
330
1A
102
}
330
1A
100
AcDbPlotSettings
  1

  2
None
  4

  6

 40
0.0
 41
0.0
 42
0.0
 43
0.0
 44
0.0
 45
0.0
 46
0.0
 47
0.0
 48
0.0
 49
0.0
140
0.0
141
0.0
142
1.0
143
1.0
 70
   688
 72
     0
 73
     0
 74
     5
  7

 75
    16
147
1.0
148
0.0
149
0.0
100
AcDbLayout
  1
ﾚｲｱｳﾄ1
 70
     1
 71
     1
 10
0.0
 20
0.0
 11
12.0
 21
9.0
 12
0.0
 22
0.0
 32
0.0
 14
0.0
 24
0.0
 34
0.0
 15
0.0
 25
0.0
 35
0.0
146
0.0
 13
0.0
 23
0.0
 33
0.0
 16
1.0
 26
0.0
 36
0.0
 17
0.0
 27
1.0
 37
0.0
 76
     0
330
50
  0
MLINESTYLE
  5
18
102
{ACAD_REACTORS
330
17
102
}
330
17
100
AcDbMlineStyle
  2
STANDARD
 70
     0
  3

 62
   256
 51
90.0
 52
90.0
 71
     2
 49
0.5
 62
   256
  6
BYLAYER
 49
-0.5
 62
   256
  6
BYLAYER
  0
ACDBPLACEHOLDER
  5
F
102
{ACAD_REACTORS
330
E
102
}
330
E
  0
ENDSEC
  0
EOF
