  0
SECTION
  2
HEADER
  9
$ACADVER
  1
AC1015
  9
$ACADMAINTVER
 70
    10
  9
$DWGCODEPAGE
  3
ANSI_932
  9
$INSBASE
 10
0.0
 20
0.0
 30
0.0
  9
$EXTMIN
 10
444.0896393430278
 20
102.023479419979
 30
0.0
  9
$EXTMAX
 10
879.0896393430278
 20
429.0945494199787
 30
0.0
  9
$LIMMIN
 10
0.0
 20
0.0
  9
$LIMMAX
 10
420.0
 20
297.0
  9
$ORTHOMODE
 70
     0
  9
$REGENMODE
 70
     1
  9
$FILLMODE
 70
     1
  9
$QTEXTMODE
 70
     0
  9
$MIRRTEXT
 70
     1
  9
$LTSCALE
 40
1.0
  9
$ATTMODE
 70
     1
  9
$TEXTSIZE
 40
2.5
  9
$TRACEWID
 40
1.0
  9
$TEXTSTYLE
  7
Standard
  9
$CLAYER
  8
0
  9
$CELTYPE
  6
ByLayer
  9
$CECOLOR
 62
   256
  9
$CELTSCALE
 40
1.0
  9
$DISPSILH
 70
     0
  9
$DIMSCALE
 40
1.0
  9
$DIMASZ
 40
2.5
  9
$DIMEXO
 40
0.625
  9
$DIMDLI
 40
3.75
  9
$DIMRND
 40
0.0
  9
$DIMDLE
 40
0.0
  9
$DIMEXE
 40
1.25
  9
$DIMTP
 40
0.0
  9
$DIMTM
 40
0.0
  9
$DIMTXT
 40
2.5
  9
$DIMCEN
 40
2.5
  9
$DIMTSZ
 40
0.0
  9
$DIMTOL
 70
     0
  9
$DIMLIM
 70
     0
  9
$DIMTIH
 70
     0
  9
$DIMTOH
 70
     0
  9
$DIMSE1
 70
     0
  9
$DIMSE2
 70
     0
  9
$DIMTAD
 70
     1
  9
$DIMZIN
 70
     8
  9
$DIMBLK
  1

  9
$DIMASO
 70
     1
  9
$DIMSHO
 70
     1
  9
$DIMPOST
  1

  9
$DIMAPOST
  1

  9
$DIMALT
 70
     0
  9
$DIMALTD
 70
     3
  9
$DIMALTF
 40
0.03937007874016
  9
$DIMLFAC
 40
1.0
  9
$DIMTOFL
 70
     1
  9
$DIMTVP
 40
0.0
  9
$DIMTIX
 70
     0
  9
$DIMSOXD
 70
     0
  9
$DIMSAH
 70
     0
  9
$DIMBLK1
  1

  9
$DIMBLK2
  1

  9
$DIMSTYLE
  2
ISO-25
  9
$DIMCLRD
 70
     0
  9
$DIMCLRE
 70
     0
  9
$DIMCLRT
 70
     0
  9
$DIMTFAC
 40
1.0
  9
$DIMGAP
 40
0.625
  9
$DIMJUST
 70
     0
  9
$DIMSD1
 70
     0
  9
$DIMSD2
 70
     0
  9
$DIMTOLJ
 70
     0
  9
$DIMTZIN
 70
     8
  9
$DIMALTZ
 70
     0
  9
$DIMALTTZ
 70
     0
  9
$DIMUPT
 70
     0
  9
$DIMDEC
 70
     2
  9
$DIMTDEC
 70
     2
  9
$DIMALTU
 70
     2
  9
$DIMALTTD
 70
     3
  9
$DIMTXSTY
  7
Standard
  9
$DIMAUNIT
 70
     0
  9
$DIMADEC
 70
     0
  9
$DIMALTRND
 40
0.0
  9
$DIMAZIN
 70
     0
  9
$DIMDSEP
 70
    44
  9
$DIMATFIT
 70
     3
  9
$DIMFRAC
 70
     0
  9
$DIMLDRBLK
  1

  9
$DIMLUNIT
 70
     2
  9
$DIMLWD
 70
    -2
  9
$DIMLWE
 70
    -2
  9
$DIMTMOVE
 70
     0
  9
$LUNITS
 70
     2
  9
$LUPREC
 70
     4
  9
$SKETCHINC
 40
1.0
  9
$FILLETRAD
 40
10.0
  9
$AUNITS
 70
     0
  9
$AUPREC
 70
     0
  9
$MENU
  1
.
  9
$ELEVATION
 40
0.0
  9
$PELEVATION
 40
0.0
  9
$THICKNESS
 40
0.0
  9
$LIMCHECK
 70
     0
  9
$CHAMFERA
 40
10.0
  9
$CHAMFERB
 40
10.0
  9
$CHAMFERC
 40
20.0
  9
$CHAMFERD
 40
0.0
  9
$SKPOLY
 70
     0
  9
$TDCREATE
 40
2456499.792433310
  9
$TDUCREATE
 40
2456499.417433310
  9
$TDUPDATE
 40
2456500.623462210
  9
$TDUUPDATE
 40
2456500.248462210
  9
$TDINDWG
 40
0.0021613657
  9
$TDUSRTIMER
 40
0.0021608218
  9
$USRTIMER
 70
     1
  9
$ANGBASE
 50
0.0
  9
$ANGDIR
 70
     0
  9
$PDMODE
 70
     0
  9
$PDSIZE
 40
0.0
  9
$PLINEWID
 40
0.0
  9
$SPLFRAME
 70
     0
  9
$SPLINETYPE
 70
     6
  9
$SPLINESEGS
 70
     8
  9
$HANDSEED
  5
B1E
  9
$SURFTAB1
 70
     6
  9
$SURFTAB2
 70
     6
  9
$SURFTYPE
 70
     6
  9
$SURFU
 70
     6
  9
$SURFV
 70
     6
  9
$UCSBASE
  2

  9
$UCSNAME
  2

  9
$UCSORG
 10
0.0
 20
0.0
 30
0.0
  9
$UCSXDIR
 10
1.0
 20
0.0
 30
0.0
  9
$UCSYDIR
 10
0.0
 20
1.0
 30
0.0
  9
$UCSORTHOREF
  2

  9
$UCSORTHOVIEW
 70
     0
  9
$UCSORGTOP
 10
0.0
 20
0.0
 30
0.0
  9
$UCSORGBOTTOM
 10
0.0
 20
0.0
 30
0.0
  9
$UCSORGLEFT
 10
0.0
 20
0.0
 30
0.0
  9
$UCSORGRIGHT
 10
0.0
 20
0.0
 30
0.0
  9
$UCSORGFRONT
 10
0.0
 20
0.0
 30
0.0
  9
$UCSORGBACK
 10
0.0
 20
0.0
 30
0.0
  9
$PUCSBASE
  2

  9
$PUCSNAME
  2

  9
$PUCSORG
 10
0.0
 20
0.0
 30
0.0
  9
$PUCSXDIR
 10
1.0
 20
0.0
 30
0.0
  9
$PUCSYDIR
 10
0.0
 20
1.0
 30
0.0
  9
$PUCSORTHOREF
  2

  9
$PUCSORTHOVIEW
 70
     0
  9
$PUCSORGTOP
 10
0.0
 20
0.0
 30
0.0
  9
$PUCSORGBOTTOM
 10
0.0
 20
0.0
 30
0.0
  9
$PUCSORGLEFT
 10
0.0
 20
0.0
 30
0.0
  9
$PUCSORGRIGHT
 10
0.0
 20
0.0
 30
0.0
  9
$PUCSORGFRONT
 10
0.0
 20
0.0
 30
0.0
  9
$PUCSORGBACK
 10
0.0
 20
0.0
 30
0.0
  9
$USERI1
 70
     0
  9
$USERI2
 70
     0
  9
$USERI3
 70
     0
  9
$USERI4
 70
     0
  9
$USERI5
 70
     0
  9
$USERR1
 40
0.0
  9
$USERR2
 40
0.0
  9
$USERR3
 40
0.0
  9
$USERR4
 40
0.0
  9
$USERR5
 40
0.0
  9
$WORLDVIEW
 70
     1
  9
$SHADEDGE
 70
     3
  9
$SHADEDIF
 70
    70
  9
$TILEMODE
 70
     1
  9
$MAXACTVP
 70
    64
  9
$PINSBASE
 10
0.0
 20
0.0
 30
0.0
  9
$PLIMCHECK
 70
     0
  9
$PEXTMIN
 10
0.0
 20
0.0
 30
0.0
  9
$PEXTMAX
 10
0.0
 20
0.0
 30
0.0
  9
$PLIMMIN
 10
0.0
 20
0.0
  9
$PLIMMAX
 10
12.0
 20
9.0
  9
$UNITMODE
 70
     0
  9
$VISRETAIN
 70
     1
  9
$PLINEGEN
 70
     0
  9
$PSLTSCALE
 70
     1
  9
$TREEDEPTH
 70
  3020
  9
$CMLSTYLE
  2
Standard
  9
$CMLJUST
 70
     0
  9
$CMLSCALE
 40
20.0
  9
$PROXYGRAPHICS
 70
     1
  9
$MEASUREMENT
 70
     1
  9
$CELWEIGHT
370
    -1
  9
$ENDCAPS
280
     0
  9
$JOINSTYLE
280
     0
  9
$LWDISPLAY
290
     0
  9
$INSUNITS
 70
     4
  9
$HYPERLINKBASE
  1

  9
$STYLESHEET
  1

  9
$XEDIT
290
     1
  9
$CEPSNTYPE
380
     0
  9
$PSTYLEMODE
290
     1
  9
$FINGERPRINTGUID
  2
{FDEAD578-A652-11D2-9A35-0060089B3A3F}
  9
$VERSIONGUID
  2
{C94E5145-0DFB-44B8-BBF8-5F3DB51A93C8}
  9
$EXTNAMES
290
     1
  9
$PSVPSCALE
 40
0.0
  9
$OLESTARTUP
290
     0
  0
ENDSEC
  0
SECTION
  2
CLASSES
  0
CLASS
  1
ACDBDICTIONARYWDFLT
  2
AcDbDictionaryWithDefault
  3
AutoCAD 2000
 90
        0
280
     0
281
     0
  0
CLASS
  1
ACDBPLACEHOLDER
  2
AcDbPlaceHolder
  3
AutoCAD 2000
 90
        0
280
     0
281
     0
  0
CLASS
  1
LAYOUT
  2
AcDbLayout
  3
AutoCAD 2000
 90
        0
280
     0
281
     0
  0
ENDSEC
  0
SECTION
  2
TABLES
  0
TABLE
  2
VPORT
  5
8
330
0
100
AcDbSymbolTable
 70
     2
  0
VPORT
  5
B1D
330
8
100
AcDbSymbolTableRecord
100
AcDbViewportTableRecord
  2
*Active
 70
     0
 10
0.0
 20
0.0
 11
1.0
 21
1.0
 12
672.3335190675205
 22
270.9823153461864
 13
0.0
 23
0.0
 14
10.0
 24
10.0
 15
10.0
 25
10.0
 16
0.0
 26
0.0
 36
1.0
 17
0.0
 27
0.0
 37
0.0
 40
426.6614010375803
 41
1.781954887218045
 42
50.0
 43
0.0
 44
0.0
 50
0.0
 51
0.0
 71
     0
 72
   100
 73
     1
 74
     3
 75
     0
 76
     0
 77
     0
 78
     0
281
     0
 65
     1
110
0.0
120
0.0
130
0.0
111
1.0
121
0.0
131
0.0
112
0.0
122
1.0
132
0.0
 79
     0
146
0.0
  0
ENDTAB
  0
TABLE
  2
LTYPE
  5
5
330
0
100
AcDbSymbolTable
 70
     2
  0
LTYPE
  5
14
330
5
100
AcDbSymbolTableRecord
100
AcDbLinetypeTableRecord
  2
ByBlock
 70
     0
  3

 72
    65
 73
     0
 40
0.0
  0
LTYPE
  5
15
330
5
100
AcDbSymbolTableRecord
100
AcDbLinetypeTableRecord
  2
ByLayer
 70
     0
  3

 72
    65
 73
     0
 40
0.0
  0
LTYPE
  5
16
330
5
100
AcDbSymbolTableRecord
100
AcDbLinetypeTableRecord
  2
Continuous
 70
     0
  3
Solid line
 72
    65
 73
     0
 40
0.0
  0
LTYPE
  5
67
330
5
100
AcDbSymbolTableRecord
100
AcDbLinetypeTableRecord
  2
DASHED
 70
     0
  3
DASHED
 72
    65
 73
     2
 40
0.75
 49
0.5
 74
     0
 49
-0.25
 74
     0
  0
ENDTAB
  0
TABLE
  2
LAYER
  5
2
330
0
100
AcDbSymbolTable
 70
     1
  0
LAYER
  5
10
330
2
100
AcDbSymbolTableRecord
100
AcDbLayerTableRecord
  2
0
 70
     0
 62
     7
  6
Continuous
370
    -3
390
F
  0
ENDTAB
  0
TABLE
  2
STYLE
  5
3
330
0
100
AcDbSymbolTable
 70
     2
  0
STYLE
  5
11
330
3
100
AcDbSymbolTableRecord
100
AcDbTextStyleTableRecord
  2
Standard
 70
     0
 40
0.0
 41
1.0
 50
0.0
 71
     0
 42
2.5
  3
txt
  4

  0
STYLE
  5
68
330
3
100
AcDbSymbolTableRecord
100
AcDbTextStyleTableRecord
  2
_TCW_TXTSTY_1
 70
     0
 40
0.0
 41
1.0
 50
0.0
 71
     0
 42
0.69697
  3
MS PGothic.ttf
  4

1001
ACAD
1000
ＭＳ Ｐゴシック
1071
    32802
  0
ENDTAB
  0
TABLE
  2
VIEW
  5
6
330
0
100
AcDbSymbolTable
 70
     0
  0
ENDTAB
  0
TABLE
  2
UCS
  5
7
330
0
100
AcDbSymbolTable
 70
     0
  0
ENDTAB
  0
TABLE
  2
APPID
  5
9
330
0
100
AcDbSymbolTable
 70
     2
  0
APPID
  5
12
330
9
100
AcDbSymbolTableRecord
100
AcDbRegAppTableRecord
  2
ACAD
 70
     0
  0
APPID
  5
6A
330
9
100
AcDbSymbolTableRecord
100
AcDbRegAppTableRecord
  2
TCAD
 70
     0
  0
ENDTAB
  0
TABLE
  2
DIMSTYLE
  5
A
330
0
100
AcDbSymbolTable
 70
     2
100
AcDbDimStyleTable
 71
     1
340
27
  0
DIMSTYLE
105
27
330
A
100
AcDbSymbolTableRecord
100
AcDbDimStyleTableRecord
  2
ISO-25
 70
     0
 41
2.5
 42
0.625
 43
3.75
 44
1.25
 73
     0
 74
     0
 77
     1
 78
     8
140
2.5
141
2.5
143
0.03937007874016
147
0.625
171
     3
172
     1
271
     2
272
     2
274
     3
278
    44
283
     0
284
     8
340
11
  0
DIMSTYLE
105
69
330
A
100
AcDbSymbolTableRecord
100
AcDbDimStyleTableRecord
  2
STANDARD
 70
     0
  3
<>
  4
<>
 41
2.5
 42
0.5
 43
7.5
 44
1.0
 45
0.1
 73
     0
 74
     0
 77
     1
 78
     8
140
2.439394
143
0.5
144
2.0
147
0.5
148
0.01
176
     7
177
     7
178
     7
179
     2
271
     2
272
     2
285
     8
286
     8
340
68
341
61
342
61
  0
ENDTAB
  0
TABLE
  2
BLOCK_RECORD
  5
1
330
0
100
AcDbSymbolTable
 70
     2
  0
BLOCK_RECORD
  5
1F
330
1
100
AcDbSymbolTableRecord
100
AcDbBlockTableRecord
  2
*Model_Space
340
22
  0
BLOCK_RECORD
  5
50
330
1
100
AcDbSymbolTableRecord
100
AcDbBlockTableRecord
  2
*Paper_Space
340
51
  0
BLOCK_RECORD
  5
55
330
1
100
AcDbSymbolTableRecord
100
AcDbBlockTableRecord
  2
*Paper_Space0
340
56
  0
BLOCK_RECORD
  5
61
330
1
100
AcDbSymbolTableRecord
100
AcDbBlockTableRecord
  2
_OPEN
340
0
  0
ENDTAB
  0
ENDSEC
  0
SECTION
  2
BLOCKS
  0
BLOCK
  5
20
330
1F
100
AcDbEntity
  8
0
100
AcDbBlockBegin
  2
*Model_Space
 70
     0
 10
0.0
 20
0.0
 30
0.0
  3
*Model_Space
  1

  0
ENDBLK
  5
21
330
1F
100
AcDbEntity
  8
0
100
AcDbBlockEnd
  0
BLOCK
  5
52
330
50
100
AcDbEntity
 67
     1
  8
0
100
AcDbBlockBegin
  2
*Paper_Space
 70
     0
 10
0.0
 20
0.0
 30
0.0
  3
*Paper_Space
  1

  0
ENDBLK
  5
53
330
50
100
AcDbEntity
 67
     1
  8
0
100
AcDbBlockEnd
  0
BLOCK
  5
57
330
55
100
AcDbEntity
  8
0
100
AcDbBlockBegin
  2
*Paper_Space0
 70
     0
 10
0.0
 20
0.0
 30
0.0
  3
*Paper_Space0
  1

  0
ENDBLK
  5
58
330
55
100
AcDbEntity
  8
0
100
AcDbBlockEnd
  0
BLOCK
  5
65
330
61
100
AcDbEntity
  8
0
100
AcDbBlockBegin
  2
_OPEN
 70
     0
 10
0.0
 20
0.0
 30
0.0
  3
_OPEN
  1

  0
LINE
  5
62
330
61
100
AcDbEntity
  8
0
  6
ByBlock
 62
     0
100
AcDbLine
 10
-1.0
 20
0.166667
 30
0.0
 11
0.0
 21
0.0
 31
0.0
  0
LINE
  5
63
330
61
100
AcDbEntity
  8
0
  6
ByBlock
 62
     0
100
AcDbLine
 10
0.0
 20
0.0
 30
0.0
 11
-1.0
 21
-0.166667
 31
0.0
  0
LINE
  5
64
330
61
100
AcDbEntity
  8
0
  6
ByBlock
 62
     0
100
AcDbLine
 10
0.0
 20
0.0
 30
0.0
 11
-1.0
 21
0.0
 31
0.0
  0
ENDBLK
  5
66
330
61
100
AcDbEntity
  8
0
100
AcDbBlockEnd
  0
ENDSEC
  0
SECTION
  2
ENTITIES
  0
LINE
  5
5C0
330
1F
100
AcDbEntity
  8
0
  6
Continuous
 62
     7
100
AcDbLine
 10
444.0896393430278
 20
118.0590144199795
 30
0.0
 11
634.089639343028
 21
118.0590144199795
 31
0.0
  0
LINE
  5
5C1
330
1F
100
AcDbEntity
  8
0
  6
Continuous
 62
     7
100
AcDbLine
 10
634.089639343028
 20
398.0590144199796
 30
0.0
 11
444.0896393430278
 21
398.0590144199796
 31
0.0
  0
LINE
  5
5C2
330
1F
100
AcDbEntity
  8
0
  6
Continuous
 62
     7
100
AcDbLine
 10
444.0896393430278
 20
428.0590144199791
 30
0.0
 11
444.0896393430278
 21
103.0590144199793
 31
0.0
  0
LINE
  5
5C3
330
1F
100
AcDbEntity
  8
0
  6
Continuous
 62
     7
100
AcDbLine
 10
445.2896393430278
 20
118.0590144199795
 30
0.0
 11
445.2896393430278
 21
103.0590144199793
 31
0.0
  0
LINE
  5
5C4
330
1F
100
AcDbEntity
  8
0
  6
Continuous
 62
     7
100
AcDbLine
 10
444.0896393430278
 20
103.0590144199793
 30
0.0
 11
445.2896393430278
 21
103.0590144199793
 31
0.0
  0
LINE
  5
5C5
330
1F
100
AcDbEntity
  8
0
  6
Continuous
 62
     7
100
AcDbLine
 10
445.2896393430278
 20
428.0590144199791
 30
0.0
 11
445.2896393430278
 21
398.0590144199796
 31
0.0
  0
LINE
  5
5C6
330
1F
100
AcDbEntity
  8
0
  6
Continuous
 62
     7
100
AcDbLine
 10
445.2896393430278
 20
428.0590144199791
 30
0.0
 11
444.0896393430278
 21
428.0590144199791
 31
0.0
  0
CIRCLE
  5
5C7
330
1F
100
AcDbEntity
  8
0
  6
Continuous
 62
     7
100
AcDbCircle
 10
802.4080409897406
 20
304.2613067732661
 30
0.0
 40
3.149997646713896
  0
CIRCLE
  5
5C8
330
1F
100
AcDbEntity
  8
0
  6
Continuous
 62
     7
100
AcDbCircle
 10
791.6184369897404
 20
300.2152087732661
 30
0.0
 40
3.149997646714008
  0
LINE
  5
5C9
330
1F
100
AcDbEntity
  8
0
  6
Continuous
 62
     7
 48
4.0
100
AcDbLine
 10
634.089639343028
 20
118.0590144199795
 30
0.0
 11
634.089639343028
 21
398.0590144199796
 31
0.0
  0
LINE
  5
5CA
330
1F
100
AcDbEntity
  8
0
  6
Continuous
 62
     7
 48
4.0
100
AcDbLine
 10
637.089639343028
 20
398.0590144199796
 30
0.0
 11
637.089639343028
 21
118.0590144199795
 31
0.0
  0
LINE
  5
5CB
330
1F
100
AcDbEntity
  8
0
  6
Continuous
 62
     7
100
AcDbLine
 10
623.4774653430279
 20
307.5232064199795
 30
0.0
 11
623.4774653430279
 21
300.9082064199795
 31
0.0
  0
LINE
  5
5CC
330
1F
100
AcDbEntity
  8
0
  6
Continuous
 62
     7
100
AcDbLine
 10
615.4774653430279
 20
303.5227064199795
 30
0.0
 11
615.4774653430279
 21
296.9077064199793
 31
0.0
  0
LINE
  5
5CD
330
1F
100
AcDbEntity
  8
0
  6
Continuous
 62
     7
100
AcDbLine
 10
628.4774653430281
 20
376.9597064199794
 30
0.0
 11
628.4774653430281
 21
259.5172064199794
 31
0.0
  0
LINE
  5
5CE
330
1F
100
AcDbEntity
  8
0
  6
Continuous
 62
     7
100
AcDbLine
 10
622.4774653430281
 20
376.9597064199794
 30
0.0
 11
622.4774653430281
 21
259.5172064199794
 31
0.0
  0
LINE
  5
5CF
330
1F
100
AcDbEntity
  8
0
  6
Continuous
 62
     7
100
AcDbLine
 10
614.4774653430281
 20
376.9597064199794
 30
0.0
 11
614.4774653430281
 21
259.5172064199794
 31
0.0
  0
LINE
  5
5D0
330
1F
100
AcDbEntity
  8
0
  6
Continuous
 62
     7
100
AcDbLine
 10
634.089639343028
 20
118.0590144199795
 30
0.0
 11
634.089639343028
 21
398.0590144199796
 31
0.0
  0
LINE
  5
5D1
330
1F
100
AcDbEntity
  8
0
  6
Continuous
 62
     7
100
AcDbLine
 10
609.089639343028
 20
258.0590144199795
 30
0.0
 11
609.089639343028
 21
378.0590144199793
 31
0.0
  0
LINE
  5
5D2
330
1F
100
AcDbEntity
  8
0
  6
Continuous
 62
     7
100
AcDbLine
 10
632.8896393430278
 20
378.0590144199793
 30
0.0
 11
632.8896393430278
 21
258.0590144199795
 31
0.0
  0
LINE
  5
5D3
330
1F
100
AcDbEntity
  8
0
  6
Continuous
 62
     7
 48
5.0
100
AcDbLine
 10
802.9330433430272
 20
302.1613064199795
 30
0.0
 11
802.9330433430272
 21
303.7363064199795
 31
0.0
  0
LINE
  5
5D4
330
1F
100
AcDbEntity
  8
0
  6
Continuous
 62
     7
 48
5.0
100
AcDbLine
 10
801.8830433430283
 20
303.7363064199795
 30
0.0
 11
801.8830433430283
 21
302.1613064199795
 31
0.0
  0
LINE
  5
5D5
330
1F
100
AcDbEntity
  8
0
  6
Continuous
 62
     7
 48
5.0
100
AcDbLine
 10
787.1396393430273
 20
376.8807724199794
 30
0.0
 11
787.1396393430273
 21
259.4802724199795
 31
0.0
  0
LINE
  5
5D6
330
1F
100
AcDbEntity
  8
0
  6
Continuous
 62
     7
 48
5.0
100
AcDbLine
 10
807.0896393430283
 20
376.8807724199794
 30
0.0
 11
807.0896393430283
 21
259.4802724199795
 31
0.0
  0
LINE
  5
5D7
330
1F
100
AcDbEntity
  8
0
  6
Continuous
 62
     7
 48
5.0
100
AcDbLine
 10
796.5896393430278
 20
376.8807724199794
 30
0.0
 11
796.5896393430278
 21
259.4802724199795
 31
0.0
  0
LINE
  5
5D8
330
1F
100
AcDbEntity
  8
0
  6
Continuous
 62
     7
100
AcDbLine
 10
879.0896393430278
 20
398.0590144199796
 30
0.0
 11
879.0896393430278
 21
118.0590144199795
 31
0.0
  0
LINE
  5
5D9
330
1F
100
AcDbEntity
  8
0
  6
Continuous
 62
     7
100
AcDbLine
 10
780.2896393430279
 20
378.0590144199793
 30
0.0
 11
780.2896393430279
 21
258.0590144199795
 31
0.0
  0
LINE
  5
5DA
330
1F
100
AcDbEntity
  8
0
  6
Continuous
 62
     7
100
AcDbLine
 10
807.0896393430283
 20
258.0590144199795
 30
0.0
 11
807.0896393430283
 21
378.0590144199793
 31
0.0
  0
LINE
  5
5DB
330
1F
100
AcDbEntity
  8
0
  6
Continuous
 62
     7
100
AcDbLine
 10
874.0896393430283
 20
398.0590144199796
 30
0.0
 11
874.0896393430283
 21
118.0590144199795
 31
0.0
  0
LINE
  5
5DC
330
1F
100
AcDbEntity
  8
0
  6
Continuous
 62
     7
100
AcDbLine
 10
779.0896393430279
 20
118.0590144199795
 30
0.0
 11
779.0896393430279
 21
398.0590144199796
 31
0.0
  0
ELLIPSE
  5
5DD
330
1F
100
AcDbEntity
  8
0
  6
Continuous
 62
     7
100
AcDbEllipse
 10
616.4774653430279
 20
301.2652064199794
 30
0.0
 11
0.0
 21
-1.575000047683715
 31
0.0
210
0.0
220
0.0
230
1.0
 40
0.9523809999999999
 41
1.570796326794896
 42
3.141592697301183
  0
ELLIPSE
  5
5DE
330
1F
100
AcDbEntity
  8
0
  6
Continuous
 62
     7
100
AcDbEllipse
 10
624.4774653430279
 20
303.1657064199793
 30
0.0
 11
0.0
 21
-1.575000047683715
 31
0.0
210
0.0
220
0.0
230
1.0
 40
0.9523809999999999
 41
0.0
 42
1.570796326794896
  0
ARC
  5
5DF
330
1F
100
AcDbEntity
  8
0
  6
DASHED
 62
     4
 48
4.0
100
AcDbCircle
 10
829.0896403430274
 20
116.0590167306529
 30
0.0
 40
4.49999908577236
100
AcDbArc
 50
26.38777289407317
 51
153.6122271059268
  0
LINE
  5
5E0
330
1F
100
AcDbEntity
  8
0
  6
Continuous
 62
     7
100
AcDbLine
 10
837.0896393430278
 20
118.0590144199795
 30
0.0
 11
779.0896393430279
 21
118.0590144199795
 31
0.0
  0
CIRCLE
  5
5E1
330
1F
100
AcDbEntity
  8
0
  6
Continuous
 62
     7
100
AcDbCircle
 10
799.0408525181167
 20
137.1077675950683
 30
0.0
 40
4.250022824912256
  0
LINE
  5
5E2
330
1F
100
AcDbEntity
  8
0
  6
Continuous
 62
     7
100
AcDbLine
 10
632.8896393430278
 20
211.0590144199793
 30
0.0
 11
632.8896393430278
 21
128.0590144199794
 31
0.0
  0
LINE
  5
5E3
330
1F
100
AcDbEntity
  8
0
  6
Continuous
 62
     7
100
AcDbLine
 10
610.089639343028
 20
128.0590144199794
 30
0.0
 11
610.089639343028
 21
211.0590144199793
 31
0.0
  0
LINE
  5
5E4
330
1F
100
AcDbEntity
  8
0
  6
Continuous
 62
     7
100
AcDbLine
 10
624.0283973430276
 20
136.6077644199795
 30
0.0
 11
623.8840373430276
 21
134.6077644199795
 31
0.0
  0
LINE
  5
5E5
330
1F
100
AcDbEntity
  8
0
  6
Continuous
 62
     7
100
AcDbLine
 10
798.5408493430282
 20
134.6077644199795
 30
0.0
 11
798.5408493430282
 21
136.6077644199795
 31
0.0
  0
LINE
  5
5E6
330
1F
100
AcDbEntity
  8
0
  6
Continuous
 62
     7
100
AcDbLine
 10
799.5408753430277
 20
136.6077644199795
 30
0.0
 11
799.5408753430277
 21
134.6077644199795
 31
0.0
  0
LINE
  5
5E7
330
1F
100
AcDbEntity
  8
0
  6
Continuous
 62
     7
100
AcDbLine
 10
780.2896393430279
 20
211.0590144199793
 30
0.0
 11
780.2896393430279
 21
128.0590144199794
 31
0.0
  0
LINE
  5
5E8
330
1F
100
AcDbEntity
  8
0
  6
Continuous
 62
     7
100
AcDbLine
 10
812.0896393430278
 20
128.0590144199794
 30
0.0
 11
812.0896393430278
 21
211.0590144199793
 31
0.0
  0
LINE
  5
5E9
330
1F
100
AcDbEntity
  8
0
  6
Continuous
 62
     7
100
AcDbLine
 10
786.9408753430275
 20
128.0590124199792
 30
0.0
 11
786.9408893430278
 21
211.0590144199793
 31
0.0
  0
LINE
  5
5EA
330
1F
100
AcDbEntity
  8
0
  6
Continuous
 62
     7
100
AcDbLine
 10
811.1408893430276
 20
211.0590144199793
 30
0.0
 11
811.1408753430279
 21
128.0590144199794
 31
0.0
  0
LINE
  5
5EB
330
1F
100
AcDbEntity
  8
0
  6
Continuous
 62
     7
100
AcDbLine
 10
620.040903343028
 20
142.1077644199795
 30
0.0
 11
620.040903343028
 21
132.1077644199796
 31
0.0
  0
LINE
  5
5EC
330
1F
100
AcDbEntity
  8
0
  6
Continuous
 62
     7
100
AcDbLine
 10
634.089639343028
 20
128.0590144199794
 30
0.0
 11
610.089639343028
 21
128.0590144199794
 31
0.0
  0
LINE
  5
5ED
330
1F
100
AcDbEntity
  8
0
  6
Continuous
 62
     7
100
AcDbLine
 10
627.6408993430277
 20
132.1077644199796
 30
0.0
 11
617.6409493430281
 21
132.1077644199796
 31
0.0
  0
LINE
  5
5EE
330
1F
100
AcDbEntity
  8
0
  6
Continuous
 62
     7
100
AcDbLine
 10
617.6409493430281
 20
129.1077644199792
 30
0.0
 11
627.6408993430277
 21
129.1077644199792
 31
0.0
  0
LINE
  5
5EF
330
1F
100
AcDbEntity
  8
0
  6
Continuous
 62
     7
100
AcDbLine
 10
623.693179343028
 20
133.4343184199796
 30
0.0
 11
623.6561233430283
 21
133.3558404199794
 31
0.0
  0
CIRCLE
  5
5F0
330
1F
100
AcDbEntity
  8
0
  6
Continuous
 62
     7
370
     0
100
AcDbCircle
 10
603.0896391331392
 20
124.059020210091
 30
0.0
 40
3.071998209889168
  0
CIRCLE
  5
5F1
330
1F
100
AcDbEntity
  8
0
  6
Continuous
 62
     7
370
     0
100
AcDbCircle
 10
603.0896391331392
 20
124.059020210091
 30
0.0
 40
2.396158209889038
  0
LINE
  5
5F2
330
1F
100
AcDbEntity
  8
0
  6
Continuous
 62
     7
 48
6.0
100
AcDbLine
 10
604.6870793430279
 20
123.6596584199795
 30
0.0
 11
604.6870793430279
 21
123.6596584199795
 31
0.0
  0
LINE
  5
5F3
330
1F
100
AcDbEntity
  8
0
  6
Continuous
 62
     7
 48
6.0
100
AcDbLine
 10
603.4889993430279
 20
123.6596584199795
 30
0.0
 11
604.6870793430279
 21
123.6596584199795
 31
0.0
  0
LINE
  5
5F4
330
1F
100
AcDbEntity
  8
0
  6
Continuous
 62
     7
 48
6.0
100
AcDbLine
 10
603.4889993430279
 20
122.4615784199793
 30
0.0
 11
603.4889993430279
 21
123.6596584199795
 31
0.0
  0
LINE
  5
5F5
330
1F
100
AcDbEntity
  8
0
  6
Continuous
 62
     7
 48
6.0
100
AcDbLine
 10
602.6902793430276
 20
122.4615784199793
 30
0.0
 11
603.4889993430279
 21
122.4615784199793
 31
0.0
  0
LINE
  5
5F6
330
1F
100
AcDbEntity
  8
0
  6
Continuous
 62
     7
 48
6.0
100
AcDbLine
 10
602.6902793430276
 20
123.6596584199795
 30
0.0
 11
602.6902793430276
 21
122.4615784199793
 31
0.0
  0
LINE
  5
5F7
330
1F
100
AcDbEntity
  8
0
  6
Continuous
 62
     7
 48
6.0
100
AcDbLine
 10
601.4921993430281
 20
123.6596584199795
 30
0.0
 11
602.6902793430276
 21
123.6596584199795
 31
0.0
  0
LINE
  5
5F8
330
1F
100
AcDbEntity
  8
0
  6
Continuous
 62
     7
 48
6.0
100
AcDbLine
 10
601.4921993430281
 20
124.4583784199793
 30
0.0
 11
601.4921993430281
 21
123.6596584199795
 31
0.0
  0
LINE
  5
5F9
330
1F
100
AcDbEntity
  8
0
  6
Continuous
 62
     7
 48
6.0
100
AcDbLine
 10
602.6902793430276
 20
124.4583784199793
 30
0.0
 11
601.4921993430281
 21
124.4583784199793
 31
0.0
  0
LINE
  5
5FA
330
1F
100
AcDbEntity
  8
0
  6
Continuous
 62
     7
 48
6.0
100
AcDbLine
 10
602.6902793430276
 20
125.6564584199792
 30
0.0
 11
602.6902793430276
 21
124.4583784199793
 31
0.0
  0
LINE
  5
5FB
330
1F
100
AcDbEntity
  8
0
  6
Continuous
 62
     7
 48
6.0
100
AcDbLine
 10
603.4889993430279
 20
125.6564584199792
 30
0.0
 11
602.6902793430276
 21
125.6564584199792
 31
0.0
  0
LINE
  5
5FC
330
1F
100
AcDbEntity
  8
0
  6
Continuous
 62
     7
 48
6.0
100
AcDbLine
 10
603.4889993430279
 20
124.4583784199793
 30
0.0
 11
603.4889993430279
 21
125.6564584199792
 31
0.0
  0
LINE
  5
5FD
330
1F
100
AcDbEntity
  8
0
  6
Continuous
 62
     7
 48
6.0
100
AcDbLine
 10
604.6870793430279
 20
124.4583784199793
 30
0.0
 11
603.4889993430279
 21
124.4583784199793
 31
0.0
  0
LINE
  5
5FE
330
1F
100
AcDbEntity
  8
0
  6
Continuous
 62
     7
 48
6.0
100
AcDbLine
 10
604.6870793430279
 20
123.6596584199795
 30
0.0
 11
604.6870793430279
 21
124.4583784199793
 31
0.0
  0
LINE
  5
5FF
330
1F
100
AcDbEntity
  8
0
  6
Continuous
 62
     7
100
AcDbLine
 10
617.6408493430279
 20
129.1077644199792
 30
0.0
 11
617.6409493430281
 21
129.1077644199792
 31
0.0
  0
LINE
  5
600
330
1F
100
AcDbEntity
  8
0
  6
Continuous
 62
     7
100
AcDbLine
 10
614.636263343028
 20
129.3263324199795
 30
0.0
 11
617.6408493430279
 21
129.1077644199792
 31
0.0
  0
LINE
  5
601
330
1F
100
AcDbEntity
  8
0
  6
Continuous
 62
     7
100
AcDbLine
 10
614.1750293430281
 20
129.4081224199794
 30
0.0
 11
614.636263343028
 21
129.3263324199795
 31
0.0
  0
LINE
  5
602
330
1F
100
AcDbEntity
  8
0
  6
Continuous
 62
     7
100
AcDbLine
 10
613.1833593430277
 20
129.6603124199792
 30
0.0
 11
614.1750293430281
 21
129.4081224199794
 31
0.0
  0
LINE
  5
603
330
1F
100
AcDbEntity
  8
0
  6
Continuous
 62
     7
100
AcDbLine
 10
612.8356073430283
 20
129.7888404199794
 30
0.0
 11
613.1833593430277
 21
129.6603124199792
 31
0.0
  0
LINE
  5
604
330
1F
100
AcDbEntity
  8
0
  6
Continuous
 62
     7
100
AcDbLine
 10
612.6248993430281
 20
129.8853064199793
 30
0.0
 11
612.8356073430283
 21
129.7888404199794
 31
0.0
  0
LINE
  5
605
330
1F
100
AcDbEntity
  8
0
  6
Continuous
 62
     7
100
AcDbLine
 10
612.5004233430279
 20
129.9523344199795
 30
0.0
 11
612.6248993430281
 21
129.8853064199793
 31
0.0
  0
LINE
  5
606
330
1F
100
AcDbEntity
  8
0
  6
Continuous
 62
     7
100
AcDbLine
 10
612.3678673430279
 20
130.0364224199793
 30
0.0
 11
612.5004233430279
 21
129.9523344199795
 31
0.0
  0
LINE
  5
607
330
1F
100
AcDbEntity
  8
0
  6
Continuous
 62
     7
100
AcDbLine
 10
612.2497433430277
 20
130.1290404199793
 30
0.0
 11
612.3678673430279
 21
130.0364224199793
 31
0.0
  0
LINE
  5
608
330
1F
100
AcDbEntity
  8
0
  6
Continuous
 62
     7
100
AcDbLine
 10
612.2013673430277
 20
130.1749704199792
 30
0.0
 11
612.2497433430277
 21
130.1290404199793
 31
0.0
  0
LINE
  5
609
330
1F
100
AcDbEntity
  8
0
  6
Continuous
 62
     7
100
AcDbLine
 10
612.1398613430279
 20
130.2456684199792
 30
0.0
 11
612.2013673430277
 21
130.1749704199792
 31
0.0
  0
LINE
  5
60A
330
1F
100
AcDbEntity
  8
0
  6
Continuous
 62
     7
100
AcDbLine
 10
612.0894793430283
 20
130.3236624199792
 30
0.0
 11
612.1398613430279
 21
130.2456684199792
 31
0.0
  0
LINE
  5
60B
330
1F
100
AcDbEntity
  8
0
  6
Continuous
 62
     7
100
AcDbLine
 10
612.0546373430279
 20
130.4095824199793
 30
0.0
 11
612.0894793430283
 21
130.3236624199792
 31
0.0
  0
LINE
  5
60C
330
1F
100
AcDbEntity
  8
0
  6
Continuous
 62
     7
100
AcDbLine
 10
612.040899343028
 20
130.5018704199794
 30
0.0
 11
612.0546373430279
 21
130.4095824199793
 31
0.0
  0
LINE
  5
60D
330
1F
100
AcDbEntity
  8
0
  6
Continuous
 62
     7
100
AcDbLine
 10
612.0409493430279
 20
130.7077644199791
 30
0.0
 11
612.040899343028
 21
130.5018704199794
 31
0.0
  0
LINE
  5
60E
330
1F
100
AcDbEntity
  8
0
  6
Continuous
 62
     7
100
AcDbLine
 10
612.040899343028
 20
130.7136584199793
 30
0.0
 11
612.0409493430279
 21
130.7077644199791
 31
0.0
  0
LINE
  5
60F
330
1F
100
AcDbEntity
  8
0
  6
Continuous
 62
     7
100
AcDbLine
 10
612.0653353430282
 20
130.8382724199792
 30
0.0
 11
612.040899343028
 21
130.7136584199793
 31
0.0
  0
LINE
  5
610
330
1F
100
AcDbEntity
  8
0
  6
Continuous
 62
     7
100
AcDbLine
 10
612.0931133430281
 20
130.8984064199792
 30
0.0
 11
612.0653353430282
 21
130.8382724199792
 31
0.0
  0
LINE
  5
611
330
1F
100
AcDbEntity
  8
0
  6
Continuous
 62
     7
100
AcDbLine
 10
612.1510193430277
 20
130.9840964199795
 30
0.0
 11
612.0931133430281
 21
130.8984064199792
 31
0.0
  0
LINE
  5
612
330
1F
100
AcDbEntity
  8
0
  6
Continuous
 62
     7
100
AcDbLine
 10
612.2542953430279
 20
131.0906024199792
 30
0.0
 11
612.1510193430277
 21
130.9840964199795
 31
0.0
  0
LINE
  5
613
330
1F
100
AcDbEntity
  8
0
  6
Continuous
 62
     7
100
AcDbLine
 10
612.3730793430278
 20
131.1828024199793
 30
0.0
 11
612.2542953430279
 21
131.0906024199792
 31
0.0
  0
LINE
  5
614
330
1F
100
AcDbEntity
  8
0
  6
Continuous
 62
     7
100
AcDbLine
 10
612.5402973430277
 20
131.2856564199792
 30
0.0
 11
612.3730793430278
 21
131.1828024199793
 31
0.0
  0
LINE
  5
615
330
1F
100
AcDbEntity
  8
0
  6
Continuous
 62
     7
100
AcDbLine
 10
612.9115153430282
 20
131.4574884199795
 30
0.0
 11
612.5402973430277
 21
131.2856564199792
 31
0.0
  0
LINE
  5
616
330
1F
100
AcDbEntity
  8
0
  6
Continuous
 62
     7
100
AcDbLine
 10
614.1812673430279
 20
131.8086524199794
 30
0.0
 11
612.9115153430282
 21
131.4574884199795
 31
0.0
  0
LINE
  5
617
330
1F
100
AcDbEntity
  8
0
  6
Continuous
 62
     7
100
AcDbLine
 10
617.6409493430281
 20
132.1077644199796
 30
0.0
 11
614.1812673430279
 21
131.8086524199794
 31
0.0
  0
LINE
  5
618
330
1F
100
AcDbEntity
  8
0
  6
Continuous
 62
     7
100
AcDbLine
 10
621.040901343028
 20
132.8577644199795
 30
0.0
 11
620.040901343028
 21
132.8577644199795
 31
0.0
  0
LINE
  5
619
330
1F
100
AcDbEntity
  8
0
  6
Continuous
 62
     7
100
AcDbLine
 10
621.040901343028
 20
133.0577644199792
 30
0.0
 11
621.040901343028
 21
132.8577644199795
 31
0.0
  0
LINE
  5
61A
330
1F
100
AcDbEntity
  8
0
  6
Continuous
 62
     7
100
AcDbLine
 10
622.040901343028
 20
133.0577644199792
 30
0.0
 11
621.040901343028
 21
133.0577644199792
 31
0.0
  0
LINE
  5
61B
330
1F
100
AcDbEntity
  8
0
  6
Continuous
 62
     7
100
AcDbLine
 10
622.040901343028
 20
133.1077644199792
 30
0.0
 11
622.040901343028
 21
133.0577644199792
 31
0.0
  0
LINE
  5
61C
330
1F
100
AcDbEntity
  8
0
  6
Continuous
 62
     7
100
AcDbLine
 10
623.2242273430279
 20
133.1077644199792
 30
0.0
 11
622.040901343028
 21
133.1077644199792
 31
0.0
  0
LINE
  5
61D
330
1F
100
AcDbEntity
  8
0
  6
Continuous
 62
     7
100
AcDbLine
 10
623.3106873430279
 20
133.1152964199795
 30
0.0
 11
623.2242273430279
 21
133.1077644199792
 31
0.0
  0
LINE
  5
61E
330
1F
100
AcDbEntity
  8
0
  6
Continuous
 62
     7
100
AcDbLine
 10
623.3945413430281
 20
133.1376644199792
 30
0.0
 11
623.3106873430279
 21
133.1152964199795
 31
0.0
  0
LINE
  5
61F
330
1F
100
AcDbEntity
  8
0
  6
Continuous
 62
     7
100
AcDbLine
 10
623.473263343028
 20
133.1741964199794
 30
0.0
 11
623.3945413430281
 21
133.1376644199792
 31
0.0
  0
LINE
  5
620
330
1F
100
AcDbEntity
  8
0
  6
Continuous
 62
     7
100
AcDbLine
 10
623.5444833430281
 20
133.2237904199793
 30
0.0
 11
623.473263343028
 21
133.1741964199794
 31
0.0
  0
LINE
  5
621
330
1F
100
AcDbEntity
  8
0
  6
Continuous
 62
     7
100
AcDbLine
 10
623.6060553430283
 20
133.2849524199792
 30
0.0
 11
623.5444833430281
 21
133.2237904199793
 31
0.0
  0
LINE
  5
622
330
1F
100
AcDbEntity
  8
0
  6
Continuous
 62
     7
100
AcDbLine
 10
623.6561233430283
 20
133.3558404199794
 30
0.0
 11
623.6060553430283
 21
133.2849524199792
 31
0.0
  0
LINE
  5
623
330
1F
100
AcDbEntity
  8
0
  6
Continuous
 62
     7
100
AcDbLine
 10
620.040903343028
 20
129.1077644199792
 30
0.0
 11
620.040903343028
 21
128.0590144199794
 31
0.0
  0
ELLIPSE
  5
624
330
1F
100
AcDbEntity
  8
0
  6
Continuous
 62
     7
100
AcDbEllipse
 10
637.1215233430282
 20
123.0590384199795
 30
0.0
 11
0.0000000000000002
 21
-2.364390611648558
 31
0.0
210
0.0
220
0.0
230
1.0
 40
0.8481010000000001
 41
0.0
 42
3.141592697301183
  0
LINE
  5
625
330
1F
100
AcDbEntity
  8
0
  6
Continuous
 62
     7
 48
4.0
100
AcDbLine
 10
637.089639343028
 20
118.0590144199795
 30
0.0
 11
634.089639343028
 21
118.0590144199795
 31
0.0
  0
ARC
  5
626
330
1F
100
AcDbEntity
  8
0
  6
Continuous
 62
     7
100
AcDbCircle
 10
627.6408993430277
 20
130.6077644199792
 30
0.0
 40
1.500000000000114
100
AcDbArc
 50
270.0
 51
90.0
  0
LINE
  5
627
330
1F
100
AcDbEntity
  8
0
  6
Continuous
 62
     7
100
AcDbLine
 10
623.716107343028
 20
133.5180204199792
 30
0.0
 11
623.693179343028
 21
133.4343184199796
 31
0.0
  0
LINE
  5
628
330
1F
100
AcDbEntity
  8
0
  6
Continuous
 62
     7
100
AcDbLine
 10
623.8840373430276
 20
134.6077644199795
 30
0.0
 11
623.716107343028
 21
133.5180204199792
 31
0.0
  0
LINE
  5
629
330
1F
100
AcDbEntity
  8
0
  6
Continuous
 62
     7
100
AcDbLine
 10
809.6408753430278
 20
132.1077644199796
 30
0.0
 11
788.4408753430277
 21
132.1077644199796
 31
0.0
  0
LINE
  5
62A
330
1F
100
AcDbEntity
  8
0
  6
Continuous
 62
     7
100
AcDbLine
 10
788.4408753430277
 20
129.1077644199792
 30
0.0
 11
809.6408753430278
 21
129.1077644199792
 31
0.0
  0
LINE
  5
62B
330
1F
100
AcDbEntity
  8
0
  6
Continuous
 62
     7
100
AcDbLine
 10
812.0896393430278
 20
128.0590144199794
 30
0.0
 11
779.0896393430279
 21
128.0590144199794
 31
0.0
  0
LINE
  5
62C
330
1F
100
AcDbEntity
  8
0
  6
Continuous
 62
     7
100
AcDbLine
 10
789.0896393430282
 20
103.0590144199793
 30
0.0
 11
822.5896393430282
 21
103.0590144199793
 31
0.0
  0
LINE
  5
62D
330
1F
100
AcDbEntity
  8
0
  6
Continuous
 62
     7
100
AcDbLine
 10
784.0896393430278
 20
118.0590144199795
 30
0.0
 11
784.0896393430278
 21
108.0590144199794
 31
0.0
  0
ARC
  5
62E
330
1F
100
AcDbEntity
  8
0
  6
Continuous
 62
     7
100
AcDbCircle
 10
789.0896356076516
 20
108.0590106846033
 30
0.0
 40
4.999996264625596
100
AcDbArc
 50
179.9999571957144
 51
270.0000428042887
  0
ARC
  5
62F
330
1F
100
AcDbEntity
  8
0
  6
Continuous
 62
     7
100
AcDbCircle
 10
788.4408753430277
 20
130.6077644199792
 30
0.0
 40
1.500000000000056
100
AcDbArc
 50
90.0
 51
270.0
  0
LINE
  5
630
330
1F
100
AcDbEntity
  8
0
  6
Continuous
 62
     7
100
AcDbLine
 10
778.0896393430282
 20
127.5590184199793
 30
0.0
 11
779.0896393430279
 21
127.5590184199793
 31
0.0
  0
LINE
  5
631
330
1F
100
AcDbEntity
  8
0
  6
Continuous
 62
     7
100
AcDbLine
 10
778.0896393430282
 20
120.5590184199793
 30
0.0
 11
779.0896393430279
 21
120.5590184199793
 31
0.0
  0
LINE
  5
632
330
1F
100
AcDbEntity
  8
0
  6
Continuous
 62
     7
100
AcDbLine
 10
778.0896393430282
 20
120.5590184199793
 30
0.0
 11
778.0896393430282
 21
127.5590184199793
 31
0.0
  0
ELLIPSE
  5
633
330
1F
100
AcDbEntity
  8
0
  6
Continuous
 62
     7
100
AcDbEllipse
 10
778.0896393430282
 20
124.0590184199793
 30
0.0
 11
0.0000000000000002
 21
-2.955488204956046
 31
0.0
210
0.0
220
0.0
230
1.0
 40
0.6784810000000005
 41
3.141592697301183
 42
6.283185263468196
  0
CIRCLE
  5
634
330
1F
100
AcDbEntity
  8
0
  6
Continuous
 62
     7
100
AcDbCircle
 10
798.0896395842533
 20
123.059040661205
 30
0.0
 40
2.99999775877522
  0
LINE
  5
635
330
1F
100
AcDbEntity
  8
0
  6
Continuous
 62
     7
100
AcDbLine
 10
799.5408753430277
 20
134.6077644199795
 30
0.0
 11
798.5408493430282
 21
134.6077644199795
 31
0.0
  0
LINE
  5
636
330
1F
100
AcDbEntity
  8
0
  6
Continuous
 62
     7
100
AcDbLine
 10
788.4408753430277
 20
129.1077644199792
 30
0.0
 11
788.4408753430277
 21
129.1077644199792
 31
0.0
  0
LINE
  5
637
330
1F
100
AcDbEntity
  8
0
  6
Continuous
 62
     7
 48
6.0
100
AcDbLine
 10
800.0896393430274
 20
122.559038419979
 30
0.0
 11
800.0896393430274
 21
122.559038419979
 31
0.0
  0
LINE
  5
638
330
1F
100
AcDbEntity
  8
0
  6
Continuous
 62
     7
 48
6.0
100
AcDbLine
 10
798.5896393430282
 20
122.559038419979
 30
0.0
 11
800.0896393430274
 21
122.559038419979
 31
0.0
  0
LINE
  5
639
330
1F
100
AcDbEntity
  8
0
  6
Continuous
 62
     7
 48
6.0
100
AcDbLine
 10
798.5896393430282
 20
121.0590384199795
 30
0.0
 11
798.5896393430282
 21
122.559038419979
 31
0.0
  0
LINE
  5
63A
330
1F
100
AcDbEntity
  8
0
  6
Continuous
 62
     7
 48
6.0
100
AcDbLine
 10
797.5896393430282
 20
121.0590384199795
 30
0.0
 11
798.5896393430282
 21
121.0590384199795
 31
0.0
  0
LINE
  5
63B
330
1F
100
AcDbEntity
  8
0
  6
Continuous
 62
     7
 48
6.0
100
AcDbLine
 10
797.5896393430282
 20
122.559038419979
 30
0.0
 11
797.5896393430282
 21
121.0590384199795
 31
0.0
  0
LINE
  5
63C
330
1F
100
AcDbEntity
  8
0
  6
Continuous
 62
     7
 48
6.0
100
AcDbLine
 10
796.0896393430277
 20
122.559038419979
 30
0.0
 11
797.5896393430282
 21
122.559038419979
 31
0.0
  0
LINE
  5
63D
330
1F
100
AcDbEntity
  8
0
  6
Continuous
 62
     7
 48
6.0
100
AcDbLine
 10
796.0896393430277
 20
123.5590384199795
 30
0.0
 11
796.0896393430277
 21
122.559038419979
 31
0.0
  0
LINE
  5
63E
330
1F
100
AcDbEntity
  8
0
  6
Continuous
 62
     7
 48
6.0
100
AcDbLine
 10
797.5896393430282
 20
123.5590384199795
 30
0.0
 11
796.0896393430277
 21
123.5590384199795
 31
0.0
  0
LINE
  5
63F
330
1F
100
AcDbEntity
  8
0
  6
Continuous
 62
     7
 48
6.0
100
AcDbLine
 10
797.5896393430282
 20
125.059038419979
 30
0.0
 11
797.5896393430282
 21
123.5590384199795
 31
0.0
  0
LINE
  5
640
330
1F
100
AcDbEntity
  8
0
  6
Continuous
 62
     7
 48
6.0
100
AcDbLine
 10
798.5896393430282
 20
125.059038419979
 30
0.0
 11
797.5896393430282
 21
125.059038419979
 31
0.0
  0
LINE
  5
641
330
1F
100
AcDbEntity
  8
0
  6
Continuous
 62
     7
 48
6.0
100
AcDbLine
 10
798.5896393430282
 20
123.5590384199795
 30
0.0
 11
798.5896393430282
 21
125.059038419979
 31
0.0
  0
LINE
  5
642
330
1F
100
AcDbEntity
  8
0
  6
Continuous
 62
     7
 48
6.0
100
AcDbLine
 10
800.0896393430274
 20
123.5590384199795
 30
0.0
 11
798.5896393430282
 21
123.5590384199795
 31
0.0
  0
LINE
  5
643
330
1F
100
AcDbEntity
  8
0
  6
Continuous
 62
     7
 48
6.0
100
AcDbLine
 10
800.0896393430274
 20
122.559038419979
 30
0.0
 11
800.0896393430274
 21
123.5590384199795
 31
0.0
  0
LINE
  5
644
330
1F
100
AcDbEntity
  8
0
  6
Continuous
 62
     7
100
AcDbLine
 10
824.5896393430278
 20
105.0590144199794
 30
0.0
 11
824.5896393430278
 21
116.0590144199793
 31
0.0
  0
ARC
  5
645
330
1F
100
AcDbEntity
  8
0
  6
Continuous
 62
     7
100
AcDbCircle
 10
822.5896408371783
 20
105.0590129258287
 30
0.0
 40
1.999998505850204
100
AcDbArc
 50
269.9999571957111
 51
0.0000428042888088
  0
ARC
  5
646
330
1F
100
AcDbEntity
  8
0
  6
Continuous
 62
     7
100
AcDbCircle
 10
809.6408753430278
 20
130.6077644199792
 30
0.0
 40
1.500000000000114
100
AcDbArc
 50
270.0
 51
90.0
  0
ARC
  5
647
330
1F
100
AcDbEntity
  8
0
  6
Continuous
 62
     7
100
AcDbCircle
 10
829.0896398804251
 20
116.0590125320899
 30
0.0
 40
4.500000537397712
100
AcDbArc
 50
153.612176600316
 51
179.9999759626488
  0
LINE
  5
648
330
1F
100
AcDbEntity
  8
0
  6
Continuous
 62
     7
100
AcDbLine
 10
623.8777433430279
 20
178.6077644199791
 30
0.0
 11
624.0284053430277
 21
176.6077644199795
 31
0.0
  0
LINE
  5
649
330
1F
100
AcDbEntity
  8
0
  6
Continuous
 62
     7
100
AcDbLine
 10
620.040903343028
 20
181.1077644199791
 30
0.0
 11
620.040903343028
 21
171.1077644199795
 31
0.0
  0
LINE
  5
64A
330
1F
100
AcDbEntity
  8
0
  6
Continuous
 62
     7
100
AcDbLine
 10
623.693183343028
 20
146.4343184199791
 30
0.0
 11
623.6561253430277
 21
146.3558404199793
 31
0.0
  0
LINE
  5
64B
330
1F
100
AcDbEntity
  8
0
  6
Continuous
 62
     7
100
AcDbLine
 10
623.6060573430282
 20
153.9305764199792
 30
0.0
 11
623.693183343028
 21
153.7812104199796
 31
0.0
  0
LINE
  5
64C
330
1F
100
AcDbEntity
  8
0
  6
Continuous
 62
     7
100
AcDbLine
 10
627.640903343028
 20
158.1077644199791
 30
0.0
 11
617.640953343028
 21
158.1077644199791
 31
0.0
  0
LINE
  5
64D
330
1F
100
AcDbEntity
  8
0
  6
Continuous
 62
     7
100
AcDbLine
 10
617.640953343028
 20
155.1077644199795
 30
0.0
 11
627.640903343028
 21
155.1077644199795
 31
0.0
  0
LINE
  5
64E
330
1F
100
AcDbEntity
  8
0
  6
Continuous
 62
     7
100
AcDbLine
 10
623.693185343028
 20
159.4343184199791
 30
0.0
 11
623.6561293430277
 21
159.3558404199795
 31
0.0
  0
LINE
  5
64F
330
1F
100
AcDbEntity
  8
0
  6
Continuous
 62
     7
100
AcDbLine
 10
623.6060613430281
 20
166.9305764199791
 30
0.0
 11
623.693185343028
 21
166.7812104199795
 31
0.0
  0
LINE
  5
650
330
1F
100
AcDbEntity
  8
0
  6
Continuous
 62
     7
100
AcDbLine
 10
627.6409053430278
 20
171.1077644199795
 30
0.0
 11
617.640955343028
 21
171.1077644199795
 31
0.0
  0
LINE
  5
651
330
1F
100
AcDbEntity
  8
0
  6
Continuous
 62
     7
100
AcDbLine
 10
617.640955343028
 20
168.1077644199791
 30
0.0
 11
627.6409053430278
 21
168.1077644199791
 31
0.0
  0
LINE
  5
652
330
1F
100
AcDbEntity
  8
0
  6
Continuous
 62
     7
100
AcDbLine
 10
623.693187343028
 20
172.4343184199791
 30
0.0
 11
623.6561313430277
 21
172.3558404199796
 31
0.0
  0
LINE
  5
653
330
1F
100
AcDbEntity
  8
0
  6
Continuous
 62
     7
100
AcDbLine
 10
623.6060553430283
 20
140.9305764199791
 30
0.0
 11
623.693179343028
 21
140.7812104199796
 31
0.0
  0
LINE
  5
654
330
1F
100
AcDbEntity
  8
0
  6
Continuous
 62
     7
100
AcDbLine
 10
627.6409013430277
 20
145.1077644199791
 30
0.0
 11
617.6409513430277
 21
145.1077644199791
 31
0.0
  0
LINE
  5
655
330
1F
100
AcDbEntity
  8
0
  6
Continuous
 62
     7
100
AcDbLine
 10
617.6409513430277
 20
142.1077644199795
 30
0.0
 11
627.6409013430277
 21
142.1077644199795
 31
0.0
  0
LINE
  5
656
330
1F
100
AcDbEntity
  8
0
  6
Continuous
 62
     7
100
AcDbLine
 10
612.0894853430273
 20
156.3236624199792
 30
0.0
 11
612.139865343028
 21
156.2456684199795
 31
0.0
  0
LINE
  5
657
330
1F
100
AcDbEntity
  8
0
  6
Continuous
 62
     7
100
AcDbLine
 10
621.0409033430281
 20
145.8577644199792
 30
0.0
 11
620.040903343028
 21
145.8577644199792
 31
0.0
  0
LINE
  5
658
330
1F
100
AcDbEntity
  8
0
  6
Continuous
 62
     7
100
AcDbLine
 10
621.0409033430281
 20
146.0577644199796
 30
0.0
 11
621.0409033430281
 21
145.8577644199792
 31
0.0
  0
LINE
  5
659
330
1F
100
AcDbEntity
  8
0
  6
Continuous
 62
     7
100
AcDbLine
 10
622.040903343028
 20
146.0577644199796
 30
0.0
 11
621.0409033430281
 21
146.0577644199796
 31
0.0
  0
LINE
  5
65A
330
1F
100
AcDbEntity
  8
0
  6
Continuous
 62
     7
100
AcDbLine
 10
622.040903343028
 20
146.1077644199795
 30
0.0
 11
622.040903343028
 21
146.0577644199796
 31
0.0
  0
LINE
  5
65B
330
1F
100
AcDbEntity
  8
0
  6
Continuous
 62
     7
100
AcDbLine
 10
623.2242293430279
 20
146.1077644199795
 30
0.0
 11
622.040903343028
 21
146.1077644199795
 31
0.0
  0
LINE
  5
65C
330
1F
100
AcDbEntity
  8
0
  6
Continuous
 62
     7
100
AcDbLine
 10
623.3106893430279
 20
146.1152964199795
 30
0.0
 11
623.2242293430279
 21
146.1077644199795
 31
0.0
  0
LINE
  5
65D
330
1F
100
AcDbEntity
  8
0
  6
Continuous
 62
     7
100
AcDbLine
 10
623.3945433430277
 20
146.1376644199791
 30
0.0
 11
623.3106893430279
 21
146.1152964199795
 31
0.0
  0
LINE
  5
65E
330
1F
100
AcDbEntity
  8
0
  6
Continuous
 62
     7
100
AcDbLine
 10
623.473265343028
 20
146.1741964199795
 30
0.0
 11
623.3945433430277
 21
146.1376644199791
 31
0.0
  0
LINE
  5
65F
330
1F
100
AcDbEntity
  8
0
  6
Continuous
 62
     7
100
AcDbLine
 10
623.5444873430277
 20
146.2237904199793
 30
0.0
 11
623.473265343028
 21
146.1741964199795
 31
0.0
  0
LINE
  5
660
330
1F
100
AcDbEntity
  8
0
  6
Continuous
 62
     7
100
AcDbLine
 10
623.6060573430282
 20
146.2849524199791
 30
0.0
 11
623.5444873430277
 21
146.2237904199793
 31
0.0
  0
LINE
  5
661
330
1F
100
AcDbEntity
  8
0
  6
Continuous
 62
     7
100
AcDbLine
 10
623.6561253430277
 20
146.3558404199793
 30
0.0
 11
623.6060573430282
 21
146.2849524199791
 31
0.0
  0
LINE
  5
662
330
1F
100
AcDbEntity
  8
0
  6
Continuous
 62
     7
100
AcDbLine
 10
623.473265343028
 20
154.0413324199793
 30
0.0
 11
623.6060573430282
 21
153.9305764199792
 31
0.0
  0
LINE
  5
663
330
1F
100
AcDbEntity
  8
0
  6
Continuous
 62
     7
100
AcDbLine
 10
623.3787693430277
 20
154.0832824199795
 30
0.0
 11
623.473265343028
 21
154.0413324199793
 31
0.0
  0
LINE
  5
664
330
1F
100
AcDbEntity
  8
0
  6
Continuous
 62
     7
100
AcDbLine
 10
623.2242293430279
 20
154.1077644199791
 30
0.0
 11
623.3787693430277
 21
154.0832824199795
 31
0.0
  0
LINE
  5
665
330
1F
100
AcDbEntity
  8
0
  6
Continuous
 62
     7
100
AcDbLine
 10
622.040903343028
 20
154.1077644199791
 30
0.0
 11
623.2242293430279
 21
154.1077644199791
 31
0.0
  0
LINE
  5
666
330
1F
100
AcDbEntity
  8
0
  6
Continuous
 62
     7
100
AcDbLine
 10
622.040903343028
 20
154.1577644199792
 30
0.0
 11
622.040903343028
 21
154.1077644199791
 31
0.0
  0
LINE
  5
667
330
1F
100
AcDbEntity
  8
0
  6
Continuous
 62
     7
100
AcDbLine
 10
621.0409033430281
 20
154.1577644199792
 30
0.0
 11
622.040903343028
 21
154.1577644199792
 31
0.0
  0
LINE
  5
668
330
1F
100
AcDbEntity
  8
0
  6
Continuous
 62
     7
100
AcDbLine
 10
621.0409033430281
 20
154.3577644199795
 30
0.0
 11
621.0409033430281
 21
154.1577644199792
 31
0.0
  0
LINE
  5
669
330
1F
100
AcDbEntity
  8
0
  6
Continuous
 62
     7
100
AcDbLine
 10
620.040903343028
 20
154.3577644199795
 30
0.0
 11
621.0409033430281
 21
154.3577644199795
 31
0.0
  0
LINE
  5
66A
330
1F
100
AcDbEntity
  8
0
  6
Continuous
 62
     7
100
AcDbLine
 10
617.640855343028
 20
155.1077644199795
 30
0.0
 11
617.640953343028
 21
155.1077644199795
 31
0.0
  0
LINE
  5
66B
330
1F
100
AcDbEntity
  8
0
  6
Continuous
 62
     7
100
AcDbLine
 10
614.6362673430277
 20
155.3263324199796
 30
0.0
 11
617.640855343028
 21
155.1077644199795
 31
0.0
  0
LINE
  5
66C
330
1F
100
AcDbEntity
  8
0
  6
Continuous
 62
     7
100
AcDbLine
 10
614.1750353430278
 20
155.4081224199794
 30
0.0
 11
614.6362673430277
 21
155.3263324199796
 31
0.0
  0
LINE
  5
66D
330
1F
100
AcDbEntity
  8
0
  6
Continuous
 62
     7
100
AcDbLine
 10
613.183363343028
 20
155.6603124199791
 30
0.0
 11
614.1750353430278
 21
155.4081224199794
 31
0.0
  0
LINE
  5
66E
330
1F
100
AcDbEntity
  8
0
  6
Continuous
 62
     7
100
AcDbLine
 10
612.8356113430278
 20
155.7888404199792
 30
0.0
 11
613.183363343028
 21
155.6603124199791
 31
0.0
  0
LINE
  5
66F
330
1F
100
AcDbEntity
  8
0
  6
Continuous
 62
     7
100
AcDbLine
 10
612.6249053430277
 20
155.8853064199793
 30
0.0
 11
612.8356113430278
 21
155.7888404199792
 31
0.0
  0
LINE
  5
670
330
1F
100
AcDbEntity
  8
0
  6
Continuous
 62
     7
100
AcDbLine
 10
612.5004293430279
 20
155.9523344199796
 30
0.0
 11
612.6249053430277
 21
155.8853064199793
 31
0.0
  0
LINE
  5
671
330
1F
100
AcDbEntity
  8
0
  6
Continuous
 62
     7
100
AcDbLine
 10
612.3678713430273
 20
156.0364224199796
 30
0.0
 11
612.5004293430279
 21
155.9523344199796
 31
0.0
  0
LINE
  5
672
330
1F
100
AcDbEntity
  8
0
  6
Continuous
 62
     7
100
AcDbLine
 10
612.249749343028
 20
156.1290404199793
 30
0.0
 11
612.3678713430273
 21
156.0364224199796
 31
0.0
  0
LINE
  5
673
330
1F
100
AcDbEntity
  8
0
  6
Continuous
 62
     7
100
AcDbLine
 10
612.2013713430277
 20
156.1749704199792
 30
0.0
 11
612.249749343028
 21
156.1290404199793
 31
0.0
  0
LINE
  5
674
330
1F
100
AcDbEntity
  8
0
  6
Continuous
 62
     7
100
AcDbLine
 10
612.139865343028
 20
156.2456684199795
 30
0.0
 11
612.2013713430277
 21
156.1749704199792
 31
0.0
  0
LINE
  5
675
330
1F
100
AcDbEntity
  8
0
  6
Continuous
 62
     7
100
AcDbLine
 10
623.473263343028
 20
141.0413324199792
 30
0.0
 11
623.6060553430283
 21
140.9305764199791
 31
0.0
  0
LINE
  5
676
330
1F
100
AcDbEntity
  8
0
  6
Continuous
 62
     7
100
AcDbLine
 10
623.3787653430279
 20
141.0832824199794
 30
0.0
 11
623.473263343028
 21
141.0413324199792
 31
0.0
  0
LINE
  5
677
330
1F
100
AcDbEntity
  8
0
  6
Continuous
 62
     7
100
AcDbLine
 10
623.2242273430279
 20
141.1077644199791
 30
0.0
 11
623.3787653430279
 21
141.0832824199794
 31
0.0
  0
LINE
  5
678
330
1F
100
AcDbEntity
  8
0
  6
Continuous
 62
     7
100
AcDbLine
 10
622.040901343028
 20
141.1077644199791
 30
0.0
 11
623.2242273430279
 21
141.1077644199791
 31
0.0
  0
LINE
  5
679
330
1F
100
AcDbEntity
  8
0
  6
Continuous
 62
     7
100
AcDbLine
 10
622.040901343028
 20
141.1577644199793
 30
0.0
 11
622.040901343028
 21
141.1077644199791
 31
0.0
  0
LINE
  5
67A
330
1F
100
AcDbEntity
  8
0
  6
Continuous
 62
     7
100
AcDbLine
 10
621.040901343028
 20
141.1577644199793
 30
0.0
 11
622.040901343028
 21
141.1577644199793
 31
0.0
  0
LINE
  5
67B
330
1F
100
AcDbEntity
  8
0
  6
Continuous
 62
     7
100
AcDbLine
 10
621.040901343028
 20
141.3577644199792
 30
0.0
 11
621.040901343028
 21
141.1577644199793
 31
0.0
  0
LINE
  5
67C
330
1F
100
AcDbEntity
  8
0
  6
Continuous
 62
     7
100
AcDbLine
 10
620.040901343028
 20
141.3577644199792
 30
0.0
 11
621.040901343028
 21
141.3577644199792
 31
0.0
  0
LINE
  5
67D
330
1F
100
AcDbEntity
  8
0
  6
Continuous
 62
     7
100
AcDbLine
 10
617.6408513430279
 20
142.1077644199795
 30
0.0
 11
617.6409513430277
 21
142.1077644199795
 31
0.0
  0
LINE
  5
67E
330
1F
100
AcDbEntity
  8
0
  6
Continuous
 62
     7
100
AcDbLine
 10
614.636265343028
 20
142.3263324199792
 30
0.0
 11
617.6408513430279
 21
142.1077644199795
 31
0.0
  0
LINE
  5
67F
330
1F
100
AcDbEntity
  8
0
  6
Continuous
 62
     7
100
AcDbLine
 10
614.175033343028
 20
142.4081224199794
 30
0.0
 11
614.636265343028
 21
142.3263324199792
 31
0.0
  0
LINE
  5
680
330
1F
100
AcDbEntity
  8
0
  6
Continuous
 62
     7
100
AcDbLine
 10
613.1833613430277
 20
142.6603124199791
 30
0.0
 11
614.175033343028
 21
142.4081224199794
 31
0.0
  0
LINE
  5
681
330
1F
100
AcDbEntity
  8
0
  6
Continuous
 62
     7
100
AcDbLine
 10
612.8356093430283
 20
142.7888404199794
 30
0.0
 11
613.1833613430277
 21
142.6603124199791
 31
0.0
  0
LINE
  5
682
330
1F
100
AcDbEntity
  8
0
  6
Continuous
 62
     7
100
AcDbLine
 10
612.6249033430277
 20
142.8853064199793
 30
0.0
 11
612.8356093430283
 21
142.7888404199794
 31
0.0
  0
LINE
  5
683
330
1F
100
AcDbEntity
  8
0
  6
Continuous
 62
     7
100
AcDbLine
 10
612.5004273430277
 20
142.9523344199791
 30
0.0
 11
612.6249033430277
 21
142.8853064199793
 31
0.0
  0
LINE
  5
684
330
1F
100
AcDbEntity
  8
0
  6
Continuous
 62
     7
100
AcDbLine
 10
612.3678693430279
 20
143.0364224199793
 30
0.0
 11
612.5004273430277
 21
142.9523344199791
 31
0.0
  0
LINE
  5
685
330
1F
100
AcDbEntity
  8
0
  6
Continuous
 62
     7
100
AcDbLine
 10
612.249747343028
 20
143.1290404199793
 30
0.0
 11
612.3678693430279
 21
143.0364224199793
 31
0.0
  0
LINE
  5
686
330
1F
100
AcDbEntity
  8
0
  6
Continuous
 62
     7
100
AcDbLine
 10
612.2013693430277
 20
143.1749704199791
 30
0.0
 11
612.249747343028
 21
143.1290404199793
 31
0.0
  0
LINE
  5
687
330
1F
100
AcDbEntity
  8
0
  6
Continuous
 62
     7
100
AcDbLine
 10
612.1398633430279
 20
143.2456684199791
 30
0.0
 11
612.2013693430277
 21
143.1749704199791
 31
0.0
  0
LINE
  5
688
330
1F
100
AcDbEntity
  8
0
  6
Continuous
 62
     7
100
AcDbLine
 10
612.0894813430277
 20
143.3236624199792
 30
0.0
 11
612.1398633430279
 21
143.2456684199791
 31
0.0
  0
LINE
  5
689
330
1F
100
AcDbEntity
  8
0
  6
Continuous
 62
     7
100
AcDbLine
 10
612.0546393430279
 20
143.4095824199791
 30
0.0
 11
612.0894813430277
 21
143.3236624199792
 31
0.0
  0
LINE
  5
68A
330
1F
100
AcDbEntity
  8
0
  6
Continuous
 62
     7
100
AcDbLine
 10
612.040901343028
 20
143.5018704199795
 30
0.0
 11
612.0546393430279
 21
143.4095824199791
 31
0.0
  0
LINE
  5
68B
330
1F
100
AcDbEntity
  8
0
  6
Continuous
 62
     7
100
AcDbLine
 10
612.0409513430279
 20
143.707764419979
 30
0.0
 11
612.040901343028
 21
143.5018704199795
 31
0.0
  0
LINE
  5
68C
330
1F
100
AcDbEntity
  8
0
  6
Continuous
 62
     7
100
AcDbLine
 10
612.040901343028
 20
143.7136584199793
 30
0.0
 11
612.0409513430279
 21
143.707764419979
 31
0.0
  0
LINE
  5
68D
330
1F
100
AcDbEntity
  8
0
  6
Continuous
 62
     7
100
AcDbLine
 10
612.0653373430282
 20
143.8382724199791
 30
0.0
 11
612.040901343028
 21
143.7136584199793
 31
0.0
  0
LINE
  5
68E
330
1F
100
AcDbEntity
  8
0
  6
Continuous
 62
     7
100
AcDbLine
 10
612.0931153430281
 20
143.8984064199793
 30
0.0
 11
612.0653373430282
 21
143.8382724199791
 31
0.0
  0
LINE
  5
68F
330
1F
100
AcDbEntity
  8
0
  6
Continuous
 62
     7
100
AcDbLine
 10
612.1510213430277
 20
143.9840964199795
 30
0.0
 11
612.0931153430281
 21
143.8984064199793
 31
0.0
  0
LINE
  5
690
330
1F
100
AcDbEntity
  8
0
  6
Continuous
 62
     7
100
AcDbLine
 10
612.2542993430279
 20
144.090602419979
 30
0.0
 11
612.1510213430277
 21
143.9840964199795
 31
0.0
  0
LINE
  5
691
330
1F
100
AcDbEntity
  8
0
  6
Continuous
 62
     7
100
AcDbLine
 10
612.3730813430279
 20
144.1828024199793
 30
0.0
 11
612.2542993430279
 21
144.090602419979
 31
0.0
  0
LINE
  5
692
330
1F
100
AcDbEntity
  8
0
  6
Continuous
 62
     7
100
AcDbLine
 10
612.5402993430282
 20
144.2856564199793
 30
0.0
 11
612.3730813430279
 21
144.1828024199793
 31
0.0
  0
LINE
  5
693
330
1F
100
AcDbEntity
  8
0
  6
Continuous
 62
     7
100
AcDbLine
 10
612.911519343028
 20
144.4574884199796
 30
0.0
 11
612.5402993430282
 21
144.2856564199793
 31
0.0
  0
LINE
  5
694
330
1F
100
AcDbEntity
  8
0
  6
Continuous
 62
     7
100
AcDbLine
 10
614.1812693430279
 20
144.8086524199794
 30
0.0
 11
612.911519343028
 21
144.4574884199796
 31
0.0
  0
LINE
  5
695
330
1F
100
AcDbEntity
  8
0
  6
Continuous
 62
     7
100
AcDbLine
 10
617.6409513430277
 20
145.1077644199791
 30
0.0
 11
614.1812693430279
 21
144.8086524199794
 31
0.0
  0
LINE
  5
696
330
1F
100
AcDbEntity
  8
0
  6
Continuous
 62
     7
100
AcDbLine
 10
620.040903343028
 20
155.1077644199795
 30
0.0
 11
620.040903343028
 21
145.1077644199791
 31
0.0
  0
LINE
  5
697
330
1F
100
AcDbEntity
  8
0
  6
Continuous
 62
     7
100
AcDbLine
 10
612.0546413430282
 20
156.4095824199795
 30
0.0
 11
612.0894853430273
 21
156.3236624199792
 31
0.0
  0
LINE
  5
698
330
1F
100
AcDbEntity
  8
0
  6
Continuous
 62
     7
100
AcDbLine
 10
612.040903343028
 20
156.5018704199794
 30
0.0
 11
612.0546413430282
 21
156.4095824199795
 31
0.0
  0
LINE
  5
699
330
1F
100
AcDbEntity
  8
0
  6
Continuous
 62
     7
100
AcDbLine
 10
612.0409533430279
 20
156.7077644199791
 30
0.0
 11
612.040903343028
 21
156.5018704199794
 31
0.0
  0
LINE
  5
69A
330
1F
100
AcDbEntity
  8
0
  6
Continuous
 62
     7
100
AcDbLine
 10
612.040903343028
 20
156.7136584199792
 30
0.0
 11
612.0409533430279
 21
156.7077644199791
 31
0.0
  0
LINE
  5
69B
330
1F
100
AcDbEntity
  8
0
  6
Continuous
 62
     7
100
AcDbLine
 10
612.0653393430281
 20
156.8382724199791
 30
0.0
 11
612.040903343028
 21
156.7136584199792
 31
0.0
  0
LINE
  5
69C
330
1F
100
AcDbEntity
  8
0
  6
Continuous
 62
     7
100
AcDbLine
 10
612.0931173430277
 20
156.8984064199792
 30
0.0
 11
612.0653393430281
 21
156.8382724199791
 31
0.0
  0
LINE
  5
69D
330
1F
100
AcDbEntity
  8
0
  6
Continuous
 62
     7
100
AcDbLine
 10
612.1510233430277
 20
156.9840964199795
 30
0.0
 11
612.0931173430277
 21
156.8984064199792
 31
0.0
  0
LINE
  5
69E
330
1F
100
AcDbEntity
  8
0
  6
Continuous
 62
     7
100
AcDbLine
 10
612.2543013430279
 20
157.0906024199793
 30
0.0
 11
612.1510233430277
 21
156.9840964199795
 31
0.0
  0
LINE
  5
69F
330
1F
100
AcDbEntity
  8
0
  6
Continuous
 62
     7
100
AcDbLine
 10
612.3730833430279
 20
157.1828024199791
 30
0.0
 11
612.2543013430279
 21
157.0906024199793
 31
0.0
  0
LINE
  5
6A0
330
1F
100
AcDbEntity
  8
0
  6
Continuous
 62
     7
100
AcDbLine
 10
612.5403013430277
 20
157.2856564199792
 30
0.0
 11
612.3730833430279
 21
157.1828024199791
 31
0.0
  0
LINE
  5
6A1
330
1F
100
AcDbEntity
  8
0
  6
Continuous
 62
     7
100
AcDbLine
 10
612.9115213430277
 20
157.4574884199793
 30
0.0
 11
612.5403013430277
 21
157.2856564199792
 31
0.0
  0
LINE
  5
6A2
330
1F
100
AcDbEntity
  8
0
  6
Continuous
 62
     7
100
AcDbLine
 10
614.1812713430279
 20
157.8086524199792
 30
0.0
 11
612.9115213430277
 21
157.4574884199793
 31
0.0
  0
LINE
  5
6A3
330
1F
100
AcDbEntity
  8
0
  6
Continuous
 62
     7
100
AcDbLine
 10
617.640953343028
 20
158.1077644199791
 30
0.0
 11
614.1812713430279
 21
157.8086524199792
 31
0.0
  0
LINE
  5
6A4
330
1F
100
AcDbEntity
  8
0
  6
Continuous
 62
     7
100
AcDbLine
 10
621.040905343028
 20
158.8577644199795
 30
0.0
 11
620.040905343028
 21
158.8577644199795
 31
0.0
  0
LINE
  5
6A5
330
1F
100
AcDbEntity
  8
0
  6
Continuous
 62
     7
100
AcDbLine
 10
621.040905343028
 20
159.0577644199792
 30
0.0
 11
621.040905343028
 21
158.8577644199795
 31
0.0
  0
LINE
  5
6A6
330
1F
100
AcDbEntity
  8
0
  6
Continuous
 62
     7
100
AcDbLine
 10
622.040905343028
 20
159.0577644199792
 30
0.0
 11
621.040905343028
 21
159.0577644199792
 31
0.0
  0
LINE
  5
6A7
330
1F
100
AcDbEntity
  8
0
  6
Continuous
 62
     7
100
AcDbLine
 10
622.040905343028
 20
159.1077644199796
 30
0.0
 11
622.040905343028
 21
159.0577644199792
 31
0.0
  0
LINE
  5
6A8
330
1F
100
AcDbEntity
  8
0
  6
Continuous
 62
     7
100
AcDbLine
 10
623.2242333430273
 20
159.1077644199796
 30
0.0
 11
622.040905343028
 21
159.1077644199796
 31
0.0
  0
LINE
  5
6A9
330
1F
100
AcDbEntity
  8
0
  6
Continuous
 62
     7
100
AcDbLine
 10
623.3106913430279
 20
159.1152964199794
 30
0.0
 11
623.2242333430273
 21
159.1077644199796
 31
0.0
  0
LINE
  5
6AA
330
1F
100
AcDbEntity
  8
0
  6
Continuous
 62
     7
100
AcDbLine
 10
623.3945453430277
 20
159.1376644199795
 30
0.0
 11
623.3106913430279
 21
159.1152964199794
 31
0.0
  0
LINE
  5
6AB
330
1F
100
AcDbEntity
  8
0
  6
Continuous
 62
     7
100
AcDbLine
 10
623.473269343028
 20
159.1741964199794
 30
0.0
 11
623.3945453430277
 21
159.1376644199795
 31
0.0
  0
LINE
  5
6AC
330
1F
100
AcDbEntity
  8
0
  6
Continuous
 62
     7
100
AcDbLine
 10
623.5444893430277
 20
159.2237904199793
 30
0.0
 11
623.473269343028
 21
159.1741964199794
 31
0.0
  0
LINE
  5
6AD
330
1F
100
AcDbEntity
  8
0
  6
Continuous
 62
     7
100
AcDbLine
 10
623.6060613430281
 20
159.2849524199792
 30
0.0
 11
623.5444893430277
 21
159.2237904199793
 31
0.0
  0
LINE
  5
6AE
330
1F
100
AcDbEntity
  8
0
  6
Continuous
 62
     7
100
AcDbLine
 10
623.6561293430277
 20
159.3558404199795
 30
0.0
 11
623.6060613430281
 21
159.2849524199792
 31
0.0
  0
LINE
  5
6AF
330
1F
100
AcDbEntity
  8
0
  6
Continuous
 62
     7
100
AcDbLine
 10
623.473269343028
 20
167.0413324199793
 30
0.0
 11
623.6060613430281
 21
166.9305764199791
 31
0.0
  0
LINE
  5
6B0
330
1F
100
AcDbEntity
  8
0
  6
Continuous
 62
     7
100
AcDbLine
 10
623.3787713430277
 20
167.0832824199792
 30
0.0
 11
623.473269343028
 21
167.0413324199793
 31
0.0
  0
LINE
  5
6B1
330
1F
100
AcDbEntity
  8
0
  6
Continuous
 62
     7
100
AcDbLine
 10
623.2242333430273
 20
167.1077644199795
 30
0.0
 11
623.3787713430277
 21
167.0832824199792
 31
0.0
  0
LINE
  5
6B2
330
1F
100
AcDbEntity
  8
0
  6
Continuous
 62
     7
100
AcDbLine
 10
622.040905343028
 20
167.1077644199795
 30
0.0
 11
623.2242333430273
 21
167.1077644199795
 31
0.0
  0
LINE
  5
6B3
330
1F
100
AcDbEntity
  8
0
  6
Continuous
 62
     7
100
AcDbLine
 10
622.040905343028
 20
167.1577644199794
 30
0.0
 11
622.040905343028
 21
167.1077644199795
 31
0.0
  0
LINE
  5
6B4
330
1F
100
AcDbEntity
  8
0
  6
Continuous
 62
     7
100
AcDbLine
 10
621.040905343028
 20
167.1577644199794
 30
0.0
 11
622.040905343028
 21
167.1577644199794
 31
0.0
  0
LINE
  5
6B5
330
1F
100
AcDbEntity
  8
0
  6
Continuous
 62
     7
100
AcDbLine
 10
621.040905343028
 20
167.3577644199795
 30
0.0
 11
621.040905343028
 21
167.1577644199794
 31
0.0
  0
LINE
  5
6B6
330
1F
100
AcDbEntity
  8
0
  6
Continuous
 62
     7
100
AcDbLine
 10
620.040905343028
 20
167.3577644199795
 30
0.0
 11
621.040905343028
 21
167.3577644199795
 31
0.0
  0
LINE
  5
6B7
330
1F
100
AcDbEntity
  8
0
  6
Continuous
 62
     7
100
AcDbLine
 10
617.640857343028
 20
168.1077644199791
 30
0.0
 11
617.640955343028
 21
168.1077644199791
 31
0.0
  0
LINE
  5
6B8
330
1F
100
AcDbEntity
  8
0
  6
Continuous
 62
     7
100
AcDbLine
 10
614.6362693430281
 20
168.3263324199796
 30
0.0
 11
617.640857343028
 21
168.1077644199791
 31
0.0
  0
LINE
  5
6B9
330
1F
100
AcDbEntity
  8
0
  6
Continuous
 62
     7
100
AcDbLine
 10
614.1750373430283
 20
168.4081224199794
 30
0.0
 11
614.6362693430281
 21
168.3263324199796
 31
0.0
  0
LINE
  5
6BA
330
1F
100
AcDbEntity
  8
0
  6
Continuous
 62
     7
100
AcDbLine
 10
613.1833653430285
 20
168.6603124199791
 30
0.0
 11
614.1750373430283
 21
168.4081224199794
 31
0.0
  0
LINE
  5
6BB
330
1F
100
AcDbEntity
  8
0
  6
Continuous
 62
     7
100
AcDbLine
 10
612.8356133430278
 20
168.7888404199795
 30
0.0
 11
613.1833653430285
 21
168.6603124199791
 31
0.0
  0
LINE
  5
6BC
330
1F
100
AcDbEntity
  8
0
  6
Continuous
 62
     7
100
AcDbLine
 10
612.6249073430279
 20
168.8853064199793
 30
0.0
 11
612.8356133430278
 21
168.7888404199795
 31
0.0
  0
LINE
  5
6BD
330
1F
100
AcDbEntity
  8
0
  6
Continuous
 62
     7
100
AcDbLine
 10
612.5004313430279
 20
168.9523344199795
 30
0.0
 11
612.6249073430279
 21
168.8853064199793
 31
0.0
  0
LINE
  5
6BE
330
1F
100
AcDbEntity
  8
0
  6
Continuous
 62
     7
100
AcDbLine
 10
612.3678753430279
 20
169.0364224199793
 30
0.0
 11
612.5004313430279
 21
168.9523344199795
 31
0.0
  0
LINE
  5
6BF
330
1F
100
AcDbEntity
  8
0
  6
Continuous
 62
     7
100
AcDbLine
 10
612.249751343028
 20
169.1290404199792
 30
0.0
 11
612.3678753430279
 21
169.0364224199793
 31
0.0
  0
LINE
  5
6C0
330
1F
100
AcDbEntity
  8
0
  6
Continuous
 62
     7
100
AcDbLine
 10
612.2013733430285
 20
169.1749704199793
 30
0.0
 11
612.249751343028
 21
169.1290404199792
 31
0.0
  0
LINE
  5
6C1
330
1F
100
AcDbEntity
  8
0
  6
Continuous
 62
     7
100
AcDbLine
 10
612.139867343028
 20
169.2456684199792
 30
0.0
 11
612.2013733430285
 21
169.1749704199793
 31
0.0
  0
LINE
  5
6C2
330
1F
100
AcDbEntity
  8
0
  6
Continuous
 62
     7
100
AcDbLine
 10
612.0894873430278
 20
169.3236624199793
 30
0.0
 11
612.139867343028
 21
169.2456684199792
 31
0.0
  0
LINE
  5
6C3
330
1F
100
AcDbEntity
  8
0
  6
Continuous
 62
     7
100
AcDbLine
 10
612.0546433430279
 20
169.4095824199795
 30
0.0
 11
612.0894873430278
 21
169.3236624199793
 31
0.0
  0
LINE
  5
6C4
330
1F
100
AcDbEntity
  8
0
  6
Continuous
 62
     7
100
AcDbLine
 10
612.040905343028
 20
169.5018704199795
 30
0.0
 11
612.0546433430279
 21
169.4095824199795
 31
0.0
  0
LINE
  5
6C5
330
1F
100
AcDbEntity
  8
0
  6
Continuous
 62
     7
100
AcDbLine
 10
612.0409553430277
 20
169.7077644199793
 30
0.0
 11
612.040905343028
 21
169.5018704199795
 31
0.0
  0
LINE
  5
6C6
330
1F
100
AcDbEntity
  8
0
  6
Continuous
 62
     7
100
AcDbLine
 10
612.040905343028
 20
169.7136584199793
 30
0.0
 11
612.0409553430277
 21
169.7077644199793
 31
0.0
  0
LINE
  5
6C7
330
1F
100
AcDbEntity
  8
0
  6
Continuous
 62
     7
100
AcDbLine
 10
612.0653413430281
 20
169.8382724199791
 30
0.0
 11
612.040905343028
 21
169.7136584199793
 31
0.0
  0
LINE
  5
6C8
330
1F
100
AcDbEntity
  8
0
  6
Continuous
 62
     7
100
AcDbLine
 10
612.0931193430277
 20
169.8984064199793
 30
0.0
 11
612.0653413430281
 21
169.8382724199791
 31
0.0
  0
LINE
  5
6C9
330
1F
100
AcDbEntity
  8
0
  6
Continuous
 62
     7
100
AcDbLine
 10
612.1510253430279
 20
169.9840964199795
 30
0.0
 11
612.0931193430277
 21
169.8984064199793
 31
0.0
  0
LINE
  5
6CA
330
1F
100
AcDbEntity
  8
0
  6
Continuous
 62
     7
100
AcDbLine
 10
612.2543033430281
 20
170.0906024199791
 30
0.0
 11
612.1510253430279
 21
169.9840964199795
 31
0.0
  0
LINE
  5
6CB
330
1F
100
AcDbEntity
  8
0
  6
Continuous
 62
     7
100
AcDbLine
 10
612.3730853430279
 20
170.1828024199795
 30
0.0
 11
612.2543033430281
 21
170.0906024199791
 31
0.0
  0
LINE
  5
6CC
330
1F
100
AcDbEntity
  8
0
  6
Continuous
 62
     7
100
AcDbLine
 10
612.5403033430281
 20
170.2856564199793
 30
0.0
 11
612.3730853430279
 21
170.1828024199795
 31
0.0
  0
LINE
  5
6CD
330
1F
100
AcDbEntity
  8
0
  6
Continuous
 62
     7
100
AcDbLine
 10
612.911523343028
 20
170.4574884199793
 30
0.0
 11
612.5403033430281
 21
170.2856564199793
 31
0.0
  0
LINE
  5
6CE
330
1F
100
AcDbEntity
  8
0
  6
Continuous
 62
     7
100
AcDbLine
 10
614.1812753430277
 20
170.8086524199792
 30
0.0
 11
612.911523343028
 21
170.4574884199793
 31
0.0
  0
LINE
  5
6CF
330
1F
100
AcDbEntity
  8
0
  6
Continuous
 62
     7
100
AcDbLine
 10
617.640955343028
 20
171.1077644199795
 30
0.0
 11
614.1812753430277
 21
170.8086524199792
 31
0.0
  0
LINE
  5
6D0
330
1F
100
AcDbEntity
  8
0
  6
Continuous
 62
     7
100
AcDbLine
 10
621.040909343028
 20
171.8577644199795
 30
0.0
 11
620.040909343028
 21
171.8577644199795
 31
0.0
  0
LINE
  5
6D1
330
1F
100
AcDbEntity
  8
0
  6
Continuous
 62
     7
100
AcDbLine
 10
621.040909343028
 20
172.0577644199793
 30
0.0
 11
621.040909343028
 21
171.8577644199795
 31
0.0
  0
LINE
  5
6D2
330
1F
100
AcDbEntity
  8
0
  6
Continuous
 62
     7
100
AcDbLine
 10
622.040909343028
 20
172.0577644199793
 30
0.0
 11
621.040909343028
 21
172.0577644199793
 31
0.0
  0
LINE
  5
6D3
330
1F
100
AcDbEntity
  8
0
  6
Continuous
 62
     7
100
AcDbLine
 10
622.040909343028
 20
172.1077644199795
 30
0.0
 11
622.040909343028
 21
172.0577644199793
 31
0.0
  0
LINE
  5
6D4
330
1F
100
AcDbEntity
  8
0
  6
Continuous
 62
     7
100
AcDbLine
 10
623.2242353430279
 20
172.1077644199795
 30
0.0
 11
622.040909343028
 21
172.1077644199795
 31
0.0
  0
LINE
  5
6D5
330
1F
100
AcDbEntity
  8
0
  6
Continuous
 62
     7
100
AcDbLine
 10
623.3106933430279
 20
172.1152964199795
 30
0.0
 11
623.2242353430279
 21
172.1077644199795
 31
0.0
  0
LINE
  5
6D6
330
1F
100
AcDbEntity
  8
0
  6
Continuous
 62
     7
100
AcDbLine
 10
623.3945473430277
 20
172.1376644199795
 30
0.0
 11
623.3106933430279
 21
172.1152964199795
 31
0.0
  0
LINE
  5
6D7
330
1F
100
AcDbEntity
  8
0
  6
Continuous
 62
     7
100
AcDbLine
 10
623.473271343028
 20
172.1741964199793
 30
0.0
 11
623.3945473430277
 21
172.1376644199795
 31
0.0
  0
LINE
  5
6D8
330
1F
100
AcDbEntity
  8
0
  6
Continuous
 62
     7
100
AcDbLine
 10
623.5444913430277
 20
172.2237904199793
 30
0.0
 11
623.473271343028
 21
172.1741964199793
 31
0.0
  0
LINE
  5
6D9
330
1F
100
AcDbEntity
  8
0
  6
Continuous
 62
     7
100
AcDbLine
 10
623.6060633430279
 20
172.2849524199791
 30
0.0
 11
623.5444913430277
 21
172.2237904199793
 31
0.0
  0
LINE
  5
6DA
330
1F
100
AcDbEntity
  8
0
  6
Continuous
 62
     7
100
AcDbLine
 10
623.6561313430277
 20
172.3558404199796
 30
0.0
 11
623.6060633430279
 21
172.2849524199791
 31
0.0
  0
LINE
  5
6DB
330
1F
100
AcDbEntity
  8
0
  6
Continuous
 62
     7
100
AcDbLine
 10
620.040903343028
 20
168.1077644199791
 30
0.0
 11
620.040903343028
 21
158.1077644199791
 31
0.0
  0
ARC
  5
6DC
330
1F
100
AcDbEntity
  8
0
  6
Continuous
 62
     7
100
AcDbCircle
 10
627.640903343028
 20
156.6077644199791
 30
0.0
 40
1.499999999999943
100
AcDbArc
 50
270.0
 51
90.0
  0
LINE
  5
6DD
330
1F
100
AcDbEntity
  8
0
  6
Continuous
 62
     7
100
AcDbLine
 10
623.7161093430278
 20
146.5180204199791
 30
0.0
 11
623.693183343028
 21
146.4343184199791
 31
0.0
  0
LINE
  5
6DE
330
1F
100
AcDbEntity
  8
0
  6
Continuous
 62
     7
100
AcDbLine
 10
623.8840393430278
 20
147.6077644199792
 30
0.0
 11
623.7161093430278
 21
146.5180204199791
 31
0.0
  0
LINE
  5
6DF
330
1F
100
AcDbEntity
  8
0
  6
Continuous
 62
     7
100
AcDbLine
 10
624.0283993430276
 20
149.6077644199791
 30
0.0
 11
623.8840393430278
 21
147.6077644199792
 31
0.0
  0
LINE
  5
6E0
330
1F
100
AcDbEntity
  8
0
  6
Continuous
 62
     7
100
AcDbLine
 10
624.0283993430276
 20
150.6077644199795
 30
0.0
 11
624.0283993430276
 21
149.6077644199791
 31
0.0
  0
LINE
  5
6E1
330
1F
100
AcDbEntity
  8
0
  6
Continuous
 62
     7
100
AcDbLine
 10
623.877739343028
 20
152.6077644199795
 30
0.0
 11
624.0283993430276
 21
150.6077644199795
 31
0.0
  0
LINE
  5
6E2
330
1F
100
AcDbEntity
  8
0
  6
Continuous
 62
     7
100
AcDbLine
 10
623.7161093430278
 20
153.6975084199792
 30
0.0
 11
623.877739343028
 21
152.6077644199795
 31
0.0
  0
LINE
  5
6E3
330
1F
100
AcDbEntity
  8
0
  6
Continuous
 62
     7
100
AcDbLine
 10
623.693183343028
 20
153.7812104199796
 30
0.0
 11
623.7161093430278
 21
153.6975084199792
 31
0.0
  0
LINE
  5
6E4
330
1F
100
AcDbEntity
  8
0
  6
Continuous
 62
     7
100
AcDbLine
 10
624.0283973430276
 20
137.6077644199792
 30
0.0
 11
624.0283973430276
 21
136.6077644199795
 31
0.0
  0
LINE
  5
6E5
330
1F
100
AcDbEntity
  8
0
  6
Continuous
 62
     7
100
AcDbLine
 10
623.877735343028
 20
139.6077644199792
 30
0.0
 11
624.0283973430276
 21
137.6077644199792
 31
0.0
  0
LINE
  5
6E6
330
1F
100
AcDbEntity
  8
0
  6
Continuous
 62
     7
100
AcDbLine
 10
623.716107343028
 20
140.6975084199792
 30
0.0
 11
623.877735343028
 21
139.6077644199792
 31
0.0
  0
LINE
  5
6E7
330
1F
100
AcDbEntity
  8
0
  6
Continuous
 62
     7
100
AcDbLine
 10
623.693179343028
 20
140.7812104199796
 30
0.0
 11
623.716107343028
 21
140.6975084199792
 31
0.0
  0
ARC
  5
6E8
330
1F
100
AcDbEntity
  8
0
  6
Continuous
 62
     7
100
AcDbCircle
 10
627.6409013430277
 20
143.6077644199792
 30
0.0
 40
1.499999999999943
100
AcDbArc
 50
270.0
 51
90.0
  0
POINT
  5
6E9
330
1F
100
AcDbEntity
  8
0
  6
Continuous
 62
     7
100
AcDbPoint
 10
635.951851343028
 20
144.9473464199793
 30
0.0
1001
TCAD
1000
TC25ExternalObject
1002
{
1000
TCW30POINT
1000

1070
     0
1071
        0
1040
1.0
1040
0.0
1000
Continuous
1000
0
1070
    15
1071
        1
1071
      242
1010
247.3286879999999
1020
161.046334
1030
0.0
1070
     3
1071
        3
1000
$POINTSIZE
1070
     5
1040
16.523028
1000
$POINTTYPE
1070
    18
1070
     5
1000
ExplodeScale
1070
     5
1040
1.0
1002
}
  0
LINE
  5
6EA
330
1F
100
AcDbEntity
  8
0
  6
Continuous
 62
     7
100
AcDbLine
 10
623.7161133430281
 20
159.5180204199792
 30
0.0
 11
623.693185343028
 21
159.4343184199791
 31
0.0
  0
LINE
  5
6EB
330
1F
100
AcDbEntity
  8
0
  6
Continuous
 62
     7
100
AcDbLine
 10
623.8840413430278
 20
160.6077644199795
 30
0.0
 11
623.7161133430281
 21
159.5180204199792
 31
0.0
  0
LINE
  5
6EC
330
1F
100
AcDbEntity
  8
0
  6
Continuous
 62
     7
100
AcDbLine
 10
624.0284033430282
 20
162.6077644199791
 30
0.0
 11
623.8840413430278
 21
160.6077644199795
 31
0.0
  0
LINE
  5
6ED
330
1F
100
AcDbEntity
  8
0
  6
Continuous
 62
     7
100
AcDbLine
 10
624.0284033430282
 20
163.6077644199791
 30
0.0
 11
624.0284033430282
 21
162.6077644199791
 31
0.0
  0
LINE
  5
6EE
330
1F
100
AcDbEntity
  8
0
  6
Continuous
 62
     7
100
AcDbLine
 10
623.8777413430282
 20
165.6077644199795
 30
0.0
 11
624.0284033430282
 21
163.6077644199791
 31
0.0
  0
LINE
  5
6EF
330
1F
100
AcDbEntity
  8
0
  6
Continuous
 62
     7
100
AcDbLine
 10
623.7161133430281
 20
166.6975084199791
 30
0.0
 11
623.8777413430282
 21
165.6077644199795
 31
0.0
  0
LINE
  5
6F0
330
1F
100
AcDbEntity
  8
0
  6
Continuous
 62
     7
100
AcDbLine
 10
623.693185343028
 20
166.7812104199795
 30
0.0
 11
623.7161133430281
 21
166.6975084199791
 31
0.0
  0
ARC
  5
6F1
330
1F
100
AcDbEntity
  8
0
  6
Continuous
 62
     7
100
AcDbCircle
 10
627.6409053430278
 20
169.6077644199792
 30
0.0
 40
1.500000000000114
100
AcDbArc
 50
270.0
 51
90.0
  0
LINE
  5
6F2
330
1F
100
AcDbEntity
  8
0
  6
Continuous
 62
     7
100
AcDbLine
 10
623.7161153430279
 20
172.5180204199791
 30
0.0
 11
623.693187343028
 21
172.4343184199791
 31
0.0
  0
LINE
  5
6F3
330
1F
100
AcDbEntity
  8
0
  6
Continuous
 62
     7
100
AcDbLine
 10
623.8840433430278
 20
173.6077644199795
 30
0.0
 11
623.7161153430279
 21
172.5180204199791
 31
0.0
  0
LINE
  5
6F4
330
1F
100
AcDbEntity
  8
0
  6
Continuous
 62
     7
100
AcDbLine
 10
624.0284053430277
 20
175.6077644199795
 30
0.0
 11
623.8840433430278
 21
173.6077644199795
 31
0.0
  0
LINE
  5
6F5
330
1F
100
AcDbEntity
  8
0
  6
Continuous
 62
     7
100
AcDbLine
 10
624.0284053430277
 20
176.6077644199795
 30
0.0
 11
624.0284053430277
 21
175.6077644199795
 31
0.0
  0
LINE
  5
6F6
330
1F
100
AcDbEntity
  8
0
  6
Continuous
 62
     7
100
AcDbLine
 10
634.089639343028
 20
211.0590144199793
 30
0.0
 11
610.089639343028
 21
211.0590144199793
 31
0.0
  0
LINE
  5
6F7
330
1F
100
AcDbEntity
  8
0
  6
Continuous
 62
     7
100
AcDbLine
 10
623.6060633430279
 20
179.9305764199791
 30
0.0
 11
623.693187343028
 21
179.7812104199793
 31
0.0
  0
LINE
  5
6F8
330
1F
100
AcDbEntity
  8
0
  6
Continuous
 62
     7
100
AcDbLine
 10
627.6409093430278
 20
184.1077644199796
 30
0.0
 11
617.640957343028
 21
184.1077644199796
 31
0.0
  0
LINE
  5
6F9
330
1F
100
AcDbEntity
  8
0
  6
Continuous
 62
     7
100
AcDbLine
 10
617.640957343028
 20
181.1077644199791
 30
0.0
 11
627.6409093430278
 21
181.1077644199791
 31
0.0
  0
LINE
  5
6FA
330
1F
100
AcDbEntity
  8
0
  6
Continuous
 62
     7
100
AcDbLine
 10
623.6931893430281
 20
185.4343184199796
 30
0.0
 11
623.6561333430281
 21
185.3558404199795
 31
0.0
  0
LINE
  5
6FB
330
1F
100
AcDbEntity
  8
0
  6
Continuous
 62
     7
100
AcDbLine
 10
623.6060653430281
 20
192.9305764199791
 30
0.0
 11
623.6931893430281
 21
192.7812104199795
 31
0.0
  0
LINE
  5
6FC
330
1F
100
AcDbEntity
  8
0
  6
Continuous
 62
     7
100
AcDbLine
 10
627.6409113430283
 20
197.1077644199795
 30
0.0
 11
617.640961343028
 21
197.1077644199795
 31
0.0
  0
LINE
  5
6FD
330
1F
100
AcDbEntity
  8
0
  6
Continuous
 62
     7
100
AcDbLine
 10
617.640961343028
 20
194.1077644199795
 30
0.0
 11
627.6409113430283
 21
194.1077644199795
 31
0.0
  0
LINE
  5
6FE
330
1F
100
AcDbEntity
  8
0
  6
Continuous
 62
     7
100
AcDbLine
 10
623.693191343028
 20
198.4343184199791
 30
0.0
 11
623.6561353430281
 21
198.3558404199795
 31
0.0
  0
LINE
  5
6FF
330
1F
100
AcDbEntity
  8
0
  6
Continuous
 62
     7
100
AcDbLine
 10
623.6060673430281
 20
205.9305764199791
 30
0.0
 11
623.693191343028
 21
205.7812104199796
 31
0.0
  0
LINE
  5
700
330
1F
100
AcDbEntity
  8
0
  6
Continuous
 62
     7
100
AcDbLine
 10
627.6409133430277
 20
210.1077644199791
 30
0.0
 11
617.640963343028
 21
210.1077644199791
 31
0.0
  0
LINE
  5
701
330
1F
100
AcDbEntity
  8
0
  6
Continuous
 62
     7
100
AcDbLine
 10
617.640963343028
 20
207.1077644199796
 30
0.0
 11
627.6409133430277
 21
207.1077644199796
 31
0.0
  0
LINE
  5
702
330
1F
100
AcDbEntity
  8
0
  6
Continuous
 62
     7
100
AcDbLine
 10
621.040913343028
 20
198.0577644199793
 30
0.0
 11
621.040913343028
 21
197.8577644199791
 31
0.0
  0
LINE
  5
703
330
1F
100
AcDbEntity
  8
0
  6
Continuous
 62
     7
100
AcDbLine
 10
620.040903343028
 20
207.1077644199796
 30
0.0
 11
620.040903343028
 21
197.1077644199795
 31
0.0
  0
LINE
  5
704
330
1F
100
AcDbEntity
  8
0
  6
Continuous
 62
     7
100
AcDbLine
 10
623.473271343028
 20
180.0413324199793
 30
0.0
 11
623.6060633430279
 21
179.9305764199791
 31
0.0
  0
LINE
  5
705
330
1F
100
AcDbEntity
  8
0
  6
Continuous
 62
     7
100
AcDbLine
 10
623.3787733430277
 20
180.0832824199793
 30
0.0
 11
623.473271343028
 21
180.0413324199793
 31
0.0
  0
LINE
  5
706
330
1F
100
AcDbEntity
  8
0
  6
Continuous
 62
     7
100
AcDbLine
 10
623.2242353430279
 20
180.1077644199795
 30
0.0
 11
623.3787733430277
 21
180.0832824199793
 31
0.0
  0
LINE
  5
707
330
1F
100
AcDbEntity
  8
0
  6
Continuous
 62
     7
100
AcDbLine
 10
622.040909343028
 20
180.1077644199795
 30
0.0
 11
623.2242353430279
 21
180.1077644199795
 31
0.0
  0
LINE
  5
708
330
1F
100
AcDbEntity
  8
0
  6
Continuous
 62
     7
100
AcDbLine
 10
622.040909343028
 20
180.1577644199795
 30
0.0
 11
622.040909343028
 21
180.1077644199795
 31
0.0
  0
LINE
  5
709
330
1F
100
AcDbEntity
  8
0
  6
Continuous
 62
     7
100
AcDbLine
 10
621.040909343028
 20
180.1577644199795
 30
0.0
 11
622.040909343028
 21
180.1577644199795
 31
0.0
  0
LINE
  5
70A
330
1F
100
AcDbEntity
  8
0
  6
Continuous
 62
     7
100
AcDbLine
 10
621.040909343028
 20
180.3577644199796
 30
0.0
 11
621.040909343028
 21
180.1577644199795
 31
0.0
  0
LINE
  5
70B
330
1F
100
AcDbEntity
  8
0
  6
Continuous
 62
     7
100
AcDbLine
 10
620.040909343028
 20
180.3577644199796
 30
0.0
 11
621.040909343028
 21
180.3577644199796
 31
0.0
  0
LINE
  5
70C
330
1F
100
AcDbEntity
  8
0
  6
Continuous
 62
     7
100
AcDbLine
 10
617.6408593430281
 20
181.1077644199791
 30
0.0
 11
617.640957343028
 21
181.1077644199791
 31
0.0
  0
LINE
  5
70D
330
1F
100
AcDbEntity
  8
0
  6
Continuous
 62
     7
100
AcDbLine
 10
614.636273343028
 20
181.3263324199795
 30
0.0
 11
617.6408593430281
 21
181.1077644199791
 31
0.0
  0
LINE
  5
70E
330
1F
100
AcDbEntity
  8
0
  6
Continuous
 62
     7
100
AcDbLine
 10
614.1750393430278
 20
181.4081224199793
 30
0.0
 11
614.636273343028
 21
181.3263324199795
 31
0.0
  0
LINE
  5
70F
330
1F
100
AcDbEntity
  8
0
  6
Continuous
 62
     7
100
AcDbLine
 10
613.183367343028
 20
181.6603124199791
 30
0.0
 11
614.1750393430278
 21
181.4081224199793
 31
0.0
  0
LINE
  5
710
330
1F
100
AcDbEntity
  8
0
  6
Continuous
 62
     7
100
AcDbLine
 10
612.8356153430278
 20
181.7888404199793
 30
0.0
 11
613.183367343028
 21
181.6603124199791
 31
0.0
  0
LINE
  5
711
330
1F
100
AcDbEntity
  8
0
  6
Continuous
 62
     7
100
AcDbLine
 10
612.6249093430279
 20
181.8853064199796
 30
0.0
 11
612.8356153430278
 21
181.7888404199793
 31
0.0
  0
LINE
  5
712
330
1F
100
AcDbEntity
  8
0
  6
Continuous
 62
     7
100
AcDbLine
 10
612.5004333430279
 20
181.9523344199795
 30
0.0
 11
612.6249093430279
 21
181.8853064199796
 31
0.0
  0
LINE
  5
713
330
1F
100
AcDbEntity
  8
0
  6
Continuous
 62
     7
100
AcDbLine
 10
612.3678773430277
 20
182.0364224199793
 30
0.0
 11
612.5004333430279
 21
181.9523344199795
 31
0.0
  0
LINE
  5
714
330
1F
100
AcDbEntity
  8
0
  6
Continuous
 62
     7
100
AcDbLine
 10
612.249753343028
 20
182.1290404199794
 30
0.0
 11
612.3678773430277
 21
182.0364224199793
 31
0.0
  0
LINE
  5
715
330
1F
100
AcDbEntity
  8
0
  6
Continuous
 62
     7
100
AcDbLine
 10
612.201375343028
 20
182.1749704199791
 30
0.0
 11
612.249753343028
 21
182.1290404199794
 31
0.0
  0
LINE
  5
716
330
1F
100
AcDbEntity
  8
0
  6
Continuous
 62
     7
100
AcDbLine
 10
612.139869343028
 20
182.2456684199793
 30
0.0
 11
612.201375343028
 21
182.1749704199791
 31
0.0
  0
LINE
  5
717
330
1F
100
AcDbEntity
  8
0
  6
Continuous
 62
     7
100
AcDbLine
 10
612.0894893430281
 20
182.3236624199795
 30
0.0
 11
612.139869343028
 21
182.2456684199793
 31
0.0
  0
LINE
  5
718
330
1F
100
AcDbEntity
  8
0
  6
Continuous
 62
     7
100
AcDbLine
 10
612.0546473430279
 20
182.4095824199793
 30
0.0
 11
612.0894893430281
 21
182.3236624199795
 31
0.0
  0
LINE
  5
719
330
1F
100
AcDbEntity
  8
0
  6
Continuous
 62
     7
100
AcDbLine
 10
612.040909343028
 20
182.5018704199793
 30
0.0
 11
612.0546473430279
 21
182.4095824199793
 31
0.0
  0
LINE
  5
71A
330
1F
100
AcDbEntity
  8
0
  6
Continuous
 62
     7
100
AcDbLine
 10
612.0409573430279
 20
182.7077644199793
 30
0.0
 11
612.040909343028
 21
182.5018704199793
 31
0.0
  0
LINE
  5
71B
330
1F
100
AcDbEntity
  8
0
  6
Continuous
 62
     7
100
AcDbLine
 10
612.040909343028
 20
182.7136584199793
 30
0.0
 11
612.0409573430279
 21
182.7077644199793
 31
0.0
  0
LINE
  5
71C
330
1F
100
AcDbEntity
  8
0
  6
Continuous
 62
     7
100
AcDbLine
 10
612.065343343028
 20
182.8382724199791
 30
0.0
 11
612.040909343028
 21
182.7136584199793
 31
0.0
  0
LINE
  5
71D
330
1F
100
AcDbEntity
  8
0
  6
Continuous
 62
     7
100
AcDbLine
 10
612.0931213430277
 20
182.8984064199793
 30
0.0
 11
612.065343343028
 21
182.8382724199791
 31
0.0
  0
LINE
  5
71E
330
1F
100
AcDbEntity
  8
0
  6
Continuous
 62
     7
100
AcDbLine
 10
612.1510273430279
 20
182.9840964199796
 30
0.0
 11
612.0931213430277
 21
182.8984064199793
 31
0.0
  0
LINE
  5
71F
330
1F
100
AcDbEntity
  8
0
  6
Continuous
 62
     7
100
AcDbLine
 10
612.2543053430279
 20
183.0906024199791
 30
0.0
 11
612.1510273430279
 21
182.9840964199796
 31
0.0
  0
LINE
  5
720
330
1F
100
AcDbEntity
  8
0
  6
Continuous
 62
     7
100
AcDbLine
 10
612.3730873430281
 20
183.1828024199795
 30
0.0
 11
612.2543053430279
 21
183.0906024199791
 31
0.0
  0
LINE
  5
721
330
1F
100
AcDbEntity
  8
0
  6
Continuous
 62
     7
100
AcDbLine
 10
612.5403053430281
 20
183.2856564199793
 30
0.0
 11
612.3730873430281
 21
183.1828024199795
 31
0.0
  0
LINE
  5
722
330
1F
100
AcDbEntity
  8
0
  6
Continuous
 62
     7
100
AcDbLine
 10
612.9115253430278
 20
183.4574884199793
 30
0.0
 11
612.5403053430281
 21
183.2856564199793
 31
0.0
  0
LINE
  5
723
330
1F
100
AcDbEntity
  8
0
  6
Continuous
 62
     7
100
AcDbLine
 10
614.1812773430277
 20
183.8086524199795
 30
0.0
 11
612.9115253430278
 21
183.4574884199793
 31
0.0
  0
LINE
  5
724
330
1F
100
AcDbEntity
  8
0
  6
Continuous
 62
     7
100
AcDbLine
 10
617.640957343028
 20
184.1077644199796
 30
0.0
 11
614.1812773430277
 21
183.8086524199795
 31
0.0
  0
LINE
  5
725
330
1F
100
AcDbEntity
  8
0
  6
Continuous
 62
     7
100
AcDbLine
 10
621.040911343028
 20
184.8577644199791
 30
0.0
 11
620.040911343028
 21
184.8577644199791
 31
0.0
  0
LINE
  5
726
330
1F
100
AcDbEntity
  8
0
  6
Continuous
 62
     7
100
AcDbLine
 10
621.040911343028
 20
185.0577644199793
 30
0.0
 11
621.040911343028
 21
184.8577644199791
 31
0.0
  0
LINE
  5
727
330
1F
100
AcDbEntity
  8
0
  6
Continuous
 62
     7
100
AcDbLine
 10
622.040911343028
 20
185.0577644199793
 30
0.0
 11
621.040911343028
 21
185.0577644199793
 31
0.0
  0
LINE
  5
728
330
1F
100
AcDbEntity
  8
0
  6
Continuous
 62
     7
100
AcDbLine
 10
622.040911343028
 20
185.1077644199791
 30
0.0
 11
622.040911343028
 21
185.0577644199793
 31
0.0
  0
LINE
  5
729
330
1F
100
AcDbEntity
  8
0
  6
Continuous
 62
     7
100
AcDbLine
 10
623.2242373430278
 20
185.1077644199791
 30
0.0
 11
622.040911343028
 21
185.1077644199791
 31
0.0
  0
LINE
  5
72A
330
1F
100
AcDbEntity
  8
0
  6
Continuous
 62
     7
100
AcDbLine
 10
623.3106953430278
 20
185.1152964199796
 30
0.0
 11
623.2242373430278
 21
185.1077644199791
 31
0.0
  0
LINE
  5
72B
330
1F
100
AcDbEntity
  8
0
  6
Continuous
 62
     7
100
AcDbLine
 10
623.394549343028
 20
185.1376644199791
 30
0.0
 11
623.3106953430278
 21
185.1152964199796
 31
0.0
  0
LINE
  5
72C
330
1F
100
AcDbEntity
  8
0
  6
Continuous
 62
     7
100
AcDbLine
 10
623.473273343028
 20
185.1741964199795
 30
0.0
 11
623.394549343028
 21
185.1376644199791
 31
0.0
  0
LINE
  5
72D
330
1F
100
AcDbEntity
  8
0
  6
Continuous
 62
     7
100
AcDbLine
 10
623.5444933430279
 20
185.2237904199796
 30
0.0
 11
623.473273343028
 21
185.1741964199795
 31
0.0
  0
LINE
  5
72E
330
1F
100
AcDbEntity
  8
0
  6
Continuous
 62
     7
100
AcDbLine
 10
623.6060653430281
 20
185.2849524199791
 30
0.0
 11
623.5444933430279
 21
185.2237904199796
 31
0.0
  0
LINE
  5
72F
330
1F
100
AcDbEntity
  8
0
  6
Continuous
 62
     7
100
AcDbLine
 10
623.6561333430281
 20
185.3558404199795
 30
0.0
 11
623.6060653430281
 21
185.2849524199791
 31
0.0
  0
LINE
  5
730
330
1F
100
AcDbEntity
  8
0
  6
Continuous
 62
     7
100
AcDbLine
 10
623.473273343028
 20
193.0413324199793
 30
0.0
 11
623.6060653430281
 21
192.9305764199791
 31
0.0
  0
LINE
  5
731
330
1F
100
AcDbEntity
  8
0
  6
Continuous
 62
     7
100
AcDbLine
 10
623.3787753430277
 20
193.0832824199795
 30
0.0
 11
623.473273343028
 21
193.0413324199793
 31
0.0
  0
LINE
  5
732
330
1F
100
AcDbEntity
  8
0
  6
Continuous
 62
     7
100
AcDbLine
 10
623.2242373430278
 20
193.1077644199791
 30
0.0
 11
623.3787753430277
 21
193.0832824199795
 31
0.0
  0
LINE
  5
733
330
1F
100
AcDbEntity
  8
0
  6
Continuous
 62
     7
100
AcDbLine
 10
622.040911343028
 20
193.1077644199791
 30
0.0
 11
623.2242373430278
 21
193.1077644199791
 31
0.0
  0
LINE
  5
734
330
1F
100
AcDbEntity
  8
0
  6
Continuous
 62
     7
100
AcDbLine
 10
622.040911343028
 20
193.1577644199795
 30
0.0
 11
622.040911343028
 21
193.1077644199791
 31
0.0
  0
LINE
  5
735
330
1F
100
AcDbEntity
  8
0
  6
Continuous
 62
     7
100
AcDbLine
 10
621.040911343028
 20
193.1577644199795
 30
0.0
 11
622.040911343028
 21
193.1577644199795
 31
0.0
  0
LINE
  5
736
330
1F
100
AcDbEntity
  8
0
  6
Continuous
 62
     7
100
AcDbLine
 10
621.040911343028
 20
193.3577644199795
 30
0.0
 11
621.040911343028
 21
193.1577644199795
 31
0.0
  0
LINE
  5
737
330
1F
100
AcDbEntity
  8
0
  6
Continuous
 62
     7
100
AcDbLine
 10
620.040911343028
 20
193.3577644199795
 30
0.0
 11
621.040911343028
 21
193.3577644199795
 31
0.0
  0
LINE
  5
738
330
1F
100
AcDbEntity
  8
0
  6
Continuous
 62
     7
100
AcDbLine
 10
617.6408613430281
 20
194.1077644199795
 30
0.0
 11
617.640961343028
 21
194.1077644199795
 31
0.0
  0
LINE
  5
739
330
1F
100
AcDbEntity
  8
0
  6
Continuous
 62
     7
100
AcDbLine
 10
614.636275343028
 20
194.3263324199791
 30
0.0
 11
617.6408613430281
 21
194.1077644199795
 31
0.0
  0
LINE
  5
73A
330
1F
100
AcDbEntity
  8
0
  6
Continuous
 62
     7
100
AcDbLine
 10
614.1750413430278
 20
194.4081224199793
 30
0.0
 11
614.636275343028
 21
194.3263324199791
 31
0.0
  0
LINE
  5
73B
330
1F
100
AcDbEntity
  8
0
  6
Continuous
 62
     7
100
AcDbLine
 10
613.183369343028
 20
194.6603124199791
 30
0.0
 11
614.1750413430278
 21
194.4081224199793
 31
0.0
  0
LINE
  5
73C
330
1F
100
AcDbEntity
  8
0
  6
Continuous
 62
     7
100
AcDbLine
 10
612.8356173430277
 20
194.7888404199793
 30
0.0
 11
613.183369343028
 21
194.6603124199791
 31
0.0
  0
LINE
  5
73D
330
1F
100
AcDbEntity
  8
0
  6
Continuous
 62
     7
100
AcDbLine
 10
612.6249113430279
 20
194.8853064199793
 30
0.0
 11
612.8356173430277
 21
194.7888404199793
 31
0.0
  0
LINE
  5
73E
330
1F
100
AcDbEntity
  8
0
  6
Continuous
 62
     7
100
AcDbLine
 10
612.5004353430279
 20
194.9523344199795
 30
0.0
 11
612.6249113430279
 21
194.8853064199793
 31
0.0
  0
LINE
  5
73F
330
1F
100
AcDbEntity
  8
0
  6
Continuous
 62
     7
100
AcDbLine
 10
612.3678793430277
 20
195.0364224199793
 30
0.0
 11
612.5004353430279
 21
194.9523344199795
 31
0.0
  0
LINE
  5
740
330
1F
100
AcDbEntity
  8
0
  6
Continuous
 62
     7
100
AcDbLine
 10
612.249755343028
 20
195.1290404199791
 30
0.0
 11
612.3678793430277
 21
195.0364224199793
 31
0.0
  0
LINE
  5
741
330
1F
100
AcDbEntity
  8
0
  6
Continuous
 62
     7
100
AcDbLine
 10
612.2013773430277
 20
195.1749704199791
 30
0.0
 11
612.249755343028
 21
195.1290404199791
 31
0.0
  0
LINE
  5
742
330
1F
100
AcDbEntity
  8
0
  6
Continuous
 62
     7
100
AcDbLine
 10
612.1398713430277
 20
195.2456684199793
 30
0.0
 11
612.2013773430277
 21
195.1749704199791
 31
0.0
  0
LINE
  5
743
330
1F
100
AcDbEntity
  8
0
  6
Continuous
 62
     7
100
AcDbLine
 10
612.0894913430281
 20
195.3236624199793
 30
0.0
 11
612.1398713430277
 21
195.2456684199793
 31
0.0
  0
LINE
  5
744
330
1F
100
AcDbEntity
  8
0
  6
Continuous
 62
     7
100
AcDbLine
 10
612.0546493430281
 20
195.4095824199793
 30
0.0
 11
612.0894913430281
 21
195.3236624199793
 31
0.0
  0
LINE
  5
745
330
1F
100
AcDbEntity
  8
0
  6
Continuous
 62
     7
100
AcDbLine
 10
612.040911343028
 20
195.5018704199793
 30
0.0
 11
612.0546493430281
 21
195.4095824199793
 31
0.0
  0
LINE
  5
746
330
1F
100
AcDbEntity
  8
0
  6
Continuous
 62
     7
100
AcDbLine
 10
612.0409613430279
 20
195.7077644199793
 30
0.0
 11
612.040911343028
 21
195.5018704199793
 31
0.0
  0
LINE
  5
747
330
1F
100
AcDbEntity
  8
0
  6
Continuous
 62
     7
100
AcDbLine
 10
612.040911343028
 20
195.7136584199793
 30
0.0
 11
612.0409613430279
 21
195.7077644199793
 31
0.0
  0
LINE
  5
748
330
1F
100
AcDbEntity
  8
0
  6
Continuous
 62
     7
100
AcDbLine
 10
612.065345343028
 20
195.8382724199791
 30
0.0
 11
612.040911343028
 21
195.7136584199793
 31
0.0
  0
LINE
  5
749
330
1F
100
AcDbEntity
  8
0
  6
Continuous
 62
     7
100
AcDbLine
 10
612.0931233430277
 20
195.8984064199793
 30
0.0
 11
612.065345343028
 21
195.8382724199791
 31
0.0
  0
LINE
  5
74A
330
1F
100
AcDbEntity
  8
0
  6
Continuous
 62
     7
100
AcDbLine
 10
612.1510313430277
 20
195.9840964199795
 30
0.0
 11
612.0931233430277
 21
195.8984064199793
 31
0.0
  0
LINE
  5
74B
330
1F
100
AcDbEntity
  8
0
  6
Continuous
 62
     7
100
AcDbLine
 10
612.2543073430281
 20
196.0906024199791
 30
0.0
 11
612.1510313430277
 21
195.9840964199795
 31
0.0
  0
LINE
  5
74C
330
1F
100
AcDbEntity
  8
0
  6
Continuous
 62
     7
100
AcDbLine
 10
612.3730893430279
 20
196.1828024199795
 30
0.0
 11
612.2543073430281
 21
196.0906024199791
 31
0.0
  0
LINE
  5
74D
330
1F
100
AcDbEntity
  8
0
  6
Continuous
 62
     7
100
AcDbLine
 10
612.540309343028
 20
196.2856564199793
 30
0.0
 11
612.3730893430279
 21
196.1828024199795
 31
0.0
  0
LINE
  5
74E
330
1F
100
AcDbEntity
  8
0
  6
Continuous
 62
     7
100
AcDbLine
 10
612.9115273430277
 20
196.4574884199793
 30
0.0
 11
612.540309343028
 21
196.2856564199793
 31
0.0
  0
LINE
  5
74F
330
1F
100
AcDbEntity
  8
0
  6
Continuous
 62
     7
100
AcDbLine
 10
614.1812793430277
 20
196.8086524199795
 30
0.0
 11
612.9115273430277
 21
196.4574884199793
 31
0.0
  0
LINE
  5
750
330
1F
100
AcDbEntity
  8
0
  6
Continuous
 62
     7
100
AcDbLine
 10
617.640961343028
 20
197.1077644199795
 30
0.0
 11
614.1812793430277
 21
196.8086524199795
 31
0.0
  0
LINE
  5
751
330
1F
100
AcDbEntity
  8
0
  6
Continuous
 62
     7
100
AcDbLine
 10
621.040913343028
 20
197.8577644199791
 30
0.0
 11
620.040913343028
 21
197.8577644199791
 31
0.0
  0
LINE
  5
752
330
1F
100
AcDbEntity
  8
0
  6
Continuous
 62
     7
100
AcDbLine
 10
620.040903343028
 20
194.1077644199795
 30
0.0
 11
620.040903343028
 21
184.1077644199796
 31
0.0
  0
CIRCLE
  5
753
330
1F
100
AcDbEntity
  8
0
  6
Continuous
 62
     7
370
     0
100
AcDbCircle
 10
603.0896396380427
 20
215.059020714994
 30
0.0
 40
3.071997704985908
  0
CIRCLE
  5
754
330
1F
100
AcDbEntity
  8
0
  6
Continuous
 62
     7
370
     0
100
AcDbCircle
 10
603.0896396380427
 20
215.059020714994
 30
0.0
 40
2.396157704986268
  0
LINE
  5
755
330
1F
100
AcDbEntity
  8
0
  6
Continuous
 62
     7
 48
6.0
100
AcDbLine
 10
604.6870793430279
 20
214.6596584199794
 30
0.0
 11
604.6870793430279
 21
214.6596584199794
 31
0.0
  0
LINE
  5
756
330
1F
100
AcDbEntity
  8
0
  6
Continuous
 62
     7
 48
6.0
100
AcDbLine
 10
603.4889993430279
 20
214.6596584199794
 30
0.0
 11
604.6870793430279
 21
214.6596584199794
 31
0.0
  0
LINE
  5
757
330
1F
100
AcDbEntity
  8
0
  6
Continuous
 62
     7
 48
6.0
100
AcDbLine
 10
603.4889993430279
 20
213.4615784199795
 30
0.0
 11
603.4889993430279
 21
214.6596584199794
 31
0.0
  0
LINE
  5
758
330
1F
100
AcDbEntity
  8
0
  6
Continuous
 62
     7
 48
6.0
100
AcDbLine
 10
602.6902793430276
 20
213.4615784199795
 30
0.0
 11
603.4889993430279
 21
213.4615784199795
 31
0.0
  0
LINE
  5
759
330
1F
100
AcDbEntity
  8
0
  6
Continuous
 62
     7
 48
6.0
100
AcDbLine
 10
602.6902793430276
 20
214.6596584199794
 30
0.0
 11
602.6902793430276
 21
213.4615784199795
 31
0.0
  0
LINE
  5
75A
330
1F
100
AcDbEntity
  8
0
  6
Continuous
 62
     7
 48
6.0
100
AcDbLine
 10
601.4921993430281
 20
214.6596584199794
 30
0.0
 11
602.6902793430276
 21
214.6596584199794
 31
0.0
  0
LINE
  5
75B
330
1F
100
AcDbEntity
  8
0
  6
Continuous
 62
     7
 48
6.0
100
AcDbLine
 10
601.4921993430281
 20
215.4583784199795
 30
0.0
 11
601.4921993430281
 21
214.6596584199794
 31
0.0
  0
LINE
  5
75C
330
1F
100
AcDbEntity
  8
0
  6
Continuous
 62
     7
 48
6.0
100
AcDbLine
 10
602.6902793430276
 20
215.4583784199795
 30
0.0
 11
601.4921993430281
 21
215.4583784199795
 31
0.0
  0
LINE
  5
75D
330
1F
100
AcDbEntity
  8
0
  6
Continuous
 62
     7
 48
6.0
100
AcDbLine
 10
602.6902793430276
 20
216.6564584199793
 30
0.0
 11
602.6902793430276
 21
215.4583784199795
 31
0.0
  0
LINE
  5
75E
330
1F
100
AcDbEntity
  8
0
  6
Continuous
 62
     7
 48
6.0
100
AcDbLine
 10
603.4889993430279
 20
216.6564584199793
 30
0.0
 11
602.6902793430276
 21
216.6564584199793
 31
0.0
  0
LINE
  5
75F
330
1F
100
AcDbEntity
  8
0
  6
Continuous
 62
     7
 48
6.0
100
AcDbLine
 10
603.4889993430279
 20
215.4583784199795
 30
0.0
 11
603.4889993430279
 21
216.6564584199793
 31
0.0
  0
LINE
  5
760
330
1F
100
AcDbEntity
  8
0
  6
Continuous
 62
     7
 48
6.0
100
AcDbLine
 10
604.6870793430279
 20
215.4583784199795
 30
0.0
 11
603.4889993430279
 21
215.4583784199795
 31
0.0
  0
LINE
  5
761
330
1F
100
AcDbEntity
  8
0
  6
Continuous
 62
     7
 48
6.0
100
AcDbLine
 10
604.6870793430279
 20
214.6596584199794
 30
0.0
 11
604.6870793430279
 21
215.4583784199795
 31
0.0
  0
LINE
  5
762
330
1F
100
AcDbEntity
  8
0
  6
Continuous
 62
     7
100
AcDbLine
 10
622.0409133430276
 20
198.0577644199793
 30
0.0
 11
621.040913343028
 21
198.0577644199793
 31
0.0
  0
LINE
  5
763
330
1F
100
AcDbEntity
  8
0
  6
Continuous
 62
     7
100
AcDbLine
 10
622.0409133430276
 20
198.1077644199795
 30
0.0
 11
622.0409133430276
 21
198.0577644199793
 31
0.0
  0
LINE
  5
764
330
1F
100
AcDbEntity
  8
0
  6
Continuous
 62
     7
100
AcDbLine
 10
623.2242393430277
 20
198.1077644199795
 30
0.0
 11
622.0409133430276
 21
198.1077644199795
 31
0.0
  0
LINE
  5
765
330
1F
100
AcDbEntity
  8
0
  6
Continuous
 62
     7
100
AcDbLine
 10
623.3106973430277
 20
198.1152964199793
 30
0.0
 11
623.2242393430277
 21
198.1077644199795
 31
0.0
  0
LINE
  5
766
330
1F
100
AcDbEntity
  8
0
  6
Continuous
 62
     7
100
AcDbLine
 10
623.394551343028
 20
198.1376644199791
 30
0.0
 11
623.3106973430277
 21
198.1152964199793
 31
0.0
  0
LINE
  5
767
330
1F
100
AcDbEntity
  8
0
  6
Continuous
 62
     7
100
AcDbLine
 10
623.473275343028
 20
198.1741964199795
 30
0.0
 11
623.394551343028
 21
198.1376644199791
 31
0.0
  0
LINE
  5
768
330
1F
100
AcDbEntity
  8
0
  6
Continuous
 62
     7
100
AcDbLine
 10
623.544495343028
 20
198.2237904199795
 30
0.0
 11
623.473275343028
 21
198.1741964199795
 31
0.0
  0
LINE
  5
769
330
1F
100
AcDbEntity
  8
0
  6
Continuous
 62
     7
100
AcDbLine
 10
623.6060673430281
 20
198.2849524199791
 30
0.0
 11
623.544495343028
 21
198.2237904199795
 31
0.0
  0
LINE
  5
76A
330
1F
100
AcDbEntity
  8
0
  6
Continuous
 62
     7
100
AcDbLine
 10
623.6561353430281
 20
198.3558404199795
 30
0.0
 11
623.6060673430281
 21
198.2849524199791
 31
0.0
  0
LINE
  5
76B
330
1F
100
AcDbEntity
  8
0
  6
Continuous
 62
     7
100
AcDbLine
 10
623.473275343028
 20
206.0413324199795
 30
0.0
 11
623.6060673430281
 21
205.9305764199791
 31
0.0
  0
LINE
  5
76C
330
1F
100
AcDbEntity
  8
0
  6
Continuous
 62
     7
100
AcDbLine
 10
623.3787773430279
 20
206.0832824199791
 30
0.0
 11
623.473275343028
 21
206.0413324199795
 31
0.0
  0
LINE
  5
76D
330
1F
100
AcDbEntity
  8
0
  6
Continuous
 62
     7
100
AcDbLine
 10
623.2242393430277
 20
206.1077644199791
 30
0.0
 11
623.3787773430279
 21
206.0832824199791
 31
0.0
  0
LINE
  5
76E
330
1F
100
AcDbEntity
  8
0
  6
Continuous
 62
     7
100
AcDbLine
 10
622.0409133430276
 20
206.1077644199791
 30
0.0
 11
623.2242393430277
 21
206.1077644199791
 31
0.0
  0
LINE
  5
76F
330
1F
100
AcDbEntity
  8
0
  6
Continuous
 62
     7
100
AcDbLine
 10
622.0409133430276
 20
206.1577644199795
 30
0.0
 11
622.0409133430276
 21
206.1077644199791
 31
0.0
  0
LINE
  5
770
330
1F
100
AcDbEntity
  8
0
  6
Continuous
 62
     7
100
AcDbLine
 10
621.040913343028
 20
206.1577644199795
 30
0.0
 11
622.0409133430276
 21
206.1577644199795
 31
0.0
  0
LINE
  5
771
330
1F
100
AcDbEntity
  8
0
  6
Continuous
 62
     7
100
AcDbLine
 10
621.040913343028
 20
206.3577644199791
 30
0.0
 11
621.040913343028
 21
206.1577644199795
 31
0.0
  0
LINE
  5
772
330
1F
100
AcDbEntity
  8
0
  6
Continuous
 62
     7
100
AcDbLine
 10
620.040913343028
 20
206.3577644199791
 30
0.0
 11
621.040913343028
 21
206.3577644199791
 31
0.0
  0
LINE
  5
773
330
1F
100
AcDbEntity
  8
0
  6
Continuous
 62
     7
100
AcDbLine
 10
617.6408633430276
 20
207.1077644199796
 30
0.0
 11
617.640963343028
 21
207.1077644199796
 31
0.0
  0
LINE
  5
774
330
1F
100
AcDbEntity
  8
0
  6
Continuous
 62
     7
100
AcDbLine
 10
614.636277343028
 20
207.3263324199795
 30
0.0
 11
617.6408633430276
 21
207.1077644199796
 31
0.0
  0
LINE
  5
775
330
1F
100
AcDbEntity
  8
0
  6
Continuous
 62
     7
100
AcDbLine
 10
614.1750433430277
 20
207.4081224199793
 30
0.0
 11
614.636277343028
 21
207.3263324199795
 31
0.0
  0
LINE
  5
776
330
1F
100
AcDbEntity
  8
0
  6
Continuous
 62
     7
100
AcDbLine
 10
613.183373343028
 20
207.6603124199791
 30
0.0
 11
614.1750433430277
 21
207.4081224199793
 31
0.0
  0
LINE
  5
777
330
1F
100
AcDbEntity
  8
0
  6
Continuous
 62
     7
100
AcDbLine
 10
612.8356193430279
 20
207.7888404199796
 30
0.0
 11
613.183373343028
 21
207.6603124199791
 31
0.0
  0
LINE
  5
778
330
1F
100
AcDbEntity
  8
0
  6
Continuous
 62
     7
100
AcDbLine
 10
612.6249133430277
 20
207.8853064199793
 30
0.0
 11
612.8356193430279
 21
207.7888404199796
 31
0.0
  0
LINE
  5
779
330
1F
100
AcDbEntity
  8
0
  6
Continuous
 62
     7
100
AcDbLine
 10
612.5004373430279
 20
207.9523344199794
 30
0.0
 11
612.6249133430277
 21
207.8853064199793
 31
0.0
  0
LINE
  5
77A
330
1F
100
AcDbEntity
  8
0
  6
Continuous
 62
     7
100
AcDbLine
 10
612.3678813430277
 20
208.0364224199793
 30
0.0
 11
612.5004373430279
 21
207.9523344199794
 31
0.0
  0
LINE
  5
77B
330
1F
100
AcDbEntity
  8
0
  6
Continuous
 62
     7
100
AcDbLine
 10
612.2497573430276
 20
208.1290404199795
 30
0.0
 11
612.3678813430277
 21
208.0364224199793
 31
0.0
  0
LINE
  5
77C
330
1F
100
AcDbEntity
  8
0
  6
Continuous
 62
     7
100
AcDbLine
 10
612.2013813430277
 20
208.1749704199795
 30
0.0
 11
612.2497573430276
 21
208.1290404199795
 31
0.0
  0
LINE
  5
77D
330
1F
100
AcDbEntity
  8
0
  6
Continuous
 62
     7
100
AcDbLine
 10
612.1398733430281
 20
208.2456684199793
 30
0.0
 11
612.2013813430277
 21
208.1749704199795
 31
0.0
  0
LINE
  5
77E
330
1F
100
AcDbEntity
  8
0
  6
Continuous
 62
     7
100
AcDbLine
 10
612.0894933430279
 20
208.3236624199793
 30
0.0
 11
612.1398733430281
 21
208.2456684199793
 31
0.0
  0
LINE
  5
77F
330
1F
100
AcDbEntity
  8
0
  6
Continuous
 62
     7
100
AcDbLine
 10
612.0546513430281
 20
208.4095824199791
 30
0.0
 11
612.0894933430279
 21
208.3236624199793
 31
0.0
  0
LINE
  5
780
330
1F
100
AcDbEntity
  8
0
  6
Continuous
 62
     7
100
AcDbLine
 10
612.040913343028
 20
208.5018704199796
 30
0.0
 11
612.0546513430281
 21
208.4095824199791
 31
0.0
  0
LINE
  5
781
330
1F
100
AcDbEntity
  8
0
  6
Continuous
 62
     7
100
AcDbLine
 10
612.0409633430279
 20
208.7077644199792
 30
0.0
 11
612.040913343028
 21
208.5018704199796
 31
0.0
  0
LINE
  5
782
330
1F
100
AcDbEntity
  8
0
  6
Continuous
 62
     7
100
AcDbLine
 10
612.040913343028
 20
208.7136584199793
 30
0.0
 11
612.0409633430279
 21
208.7077644199792
 31
0.0
  0
LINE
  5
783
330
1F
100
AcDbEntity
  8
0
  6
Continuous
 62
     7
100
AcDbLine
 10
612.065347343028
 20
208.8382724199791
 30
0.0
 11
612.040913343028
 21
208.7136584199793
 31
0.0
  0
LINE
  5
784
330
1F
100
AcDbEntity
  8
0
  6
Continuous
 62
     7
100
AcDbLine
 10
612.093127343028
 20
208.8984064199793
 30
0.0
 11
612.065347343028
 21
208.8382724199791
 31
0.0
  0
LINE
  5
785
330
1F
100
AcDbEntity
  8
0
  6
Continuous
 62
     7
100
AcDbLine
 10
612.151033343028
 20
208.9840964199795
 30
0.0
 11
612.093127343028
 21
208.8984064199793
 31
0.0
  0
LINE
  5
786
330
1F
100
AcDbEntity
  8
0
  6
Continuous
 62
     7
100
AcDbLine
 10
612.2543093430281
 20
209.0906024199795
 30
0.0
 11
612.151033343028
 21
208.9840964199795
 31
0.0
  0
LINE
  5
787
330
1F
100
AcDbEntity
  8
0
  6
Continuous
 62
     7
100
AcDbLine
 10
612.3730913430281
 20
209.1828024199791
 30
0.0
 11
612.2543093430281
 21
209.0906024199795
 31
0.0
  0
LINE
  5
788
330
1F
100
AcDbEntity
  8
0
  6
Continuous
 62
     7
100
AcDbLine
 10
612.540311343028
 20
209.2856564199793
 30
0.0
 11
612.3730913430281
 21
209.1828024199791
 31
0.0
  0
LINE
  5
789
330
1F
100
AcDbEntity
  8
0
  6
Continuous
 62
     7
100
AcDbLine
 10
612.9115293430278
 20
209.4574884199793
 30
0.0
 11
612.540311343028
 21
209.2856564199793
 31
0.0
  0
LINE
  5
78A
330
1F
100
AcDbEntity
  8
0
  6
Continuous
 62
     7
100
AcDbLine
 10
614.1812813430277
 20
209.8086524199795
 30
0.0
 11
612.9115293430278
 21
209.4574884199793
 31
0.0
  0
LINE
  5
78B
330
1F
100
AcDbEntity
  8
0
  6
Continuous
 62
     7
100
AcDbLine
 10
617.640963343028
 20
210.1077644199791
 30
0.0
 11
614.1812813430277
 21
209.8086524199795
 31
0.0
  0
LINE
  5
78C
330
1F
100
AcDbEntity
  8
0
  6
Continuous
 62
     7
100
AcDbLine
 10
620.040903343028
 20
211.0590144199793
 30
0.0
 11
620.040903343028
 21
210.1077644199791
 31
0.0
  0
LINE
  5
78D
330
1F
100
AcDbEntity
  8
0
  6
Continuous
 62
     7
100
AcDbLine
 10
623.7161153430279
 20
179.6975084199791
 30
0.0
 11
623.8777433430279
 21
178.6077644199791
 31
0.0
  0
LINE
  5
78E
330
1F
100
AcDbEntity
  8
0
  6
Continuous
 62
     7
100
AcDbLine
 10
623.693187343028
 20
179.7812104199793
 30
0.0
 11
623.7161153430279
 21
179.6975084199791
 31
0.0
  0
ARC
  5
78F
330
1F
100
AcDbEntity
  8
0
  6
Continuous
 62
     7
100
AcDbCircle
 10
627.6409093430278
 20
182.6077644199791
 30
0.0
 40
1.500000000000114
100
AcDbArc
 50
270.0
 51
90.0
  0
LINE
  5
790
330
1F
100
AcDbEntity
  8
0
  6
Continuous
 62
     7
100
AcDbLine
 10
623.7161173430279
 20
185.5180204199791
 30
0.0
 11
623.6931893430281
 21
185.4343184199796
 31
0.0
  0
LINE
  5
791
330
1F
100
AcDbEntity
  8
0
  6
Continuous
 62
     7
100
AcDbLine
 10
623.8840453430282
 20
186.6077644199796
 30
0.0
 11
623.7161173430279
 21
185.5180204199791
 31
0.0
  0
LINE
  5
792
330
1F
100
AcDbEntity
  8
0
  6
Continuous
 62
     7
100
AcDbLine
 10
624.0284073430282
 20
188.6077644199791
 30
0.0
 11
623.8840453430282
 21
186.6077644199796
 31
0.0
  0
LINE
  5
793
330
1F
100
AcDbEntity
  8
0
  6
Continuous
 62
     7
100
AcDbLine
 10
624.0284073430282
 20
189.6077644199791
 30
0.0
 11
624.0284073430282
 21
188.6077644199791
 31
0.0
  0
LINE
  5
794
330
1F
100
AcDbEntity
  8
0
  6
Continuous
 62
     7
100
AcDbLine
 10
623.8777453430282
 20
191.6077644199791
 30
0.0
 11
624.0284073430282
 21
189.6077644199791
 31
0.0
  0
LINE
  5
795
330
1F
100
AcDbEntity
  8
0
  6
Continuous
 62
     7
100
AcDbLine
 10
623.7161173430279
 20
192.6975084199791
 30
0.0
 11
623.8777453430282
 21
191.6077644199791
 31
0.0
  0
LINE
  5
796
330
1F
100
AcDbEntity
  8
0
  6
Continuous
 62
     7
100
AcDbLine
 10
623.6931893430281
 20
192.7812104199795
 30
0.0
 11
623.7161173430279
 21
192.6975084199791
 31
0.0
  0
ARC
  5
797
330
1F
100
AcDbEntity
  8
0
  6
Continuous
 62
     7
100
AcDbCircle
 10
627.6409113430283
 20
195.6077644199791
 30
0.0
 40
1.5
100
AcDbArc
 50
270.0
 51
90.0
  0
LINE
  5
798
330
1F
100
AcDbEntity
  8
0
  6
Continuous
 62
     7
100
AcDbLine
 10
623.7161193430279
 20
198.5180204199791
 30
0.0
 11
623.693191343028
 21
198.4343184199791
 31
0.0
  0
LINE
  5
799
330
1F
100
AcDbEntity
  8
0
  6
Continuous
 62
     7
100
AcDbLine
 10
623.8840473430277
 20
199.6077644199795
 30
0.0
 11
623.7161193430279
 21
198.5180204199791
 31
0.0
  0
LINE
  5
79A
330
1F
100
AcDbEntity
  8
0
  6
Continuous
 62
     7
100
AcDbLine
 10
624.028409343028
 20
201.6077644199795
 30
0.0
 11
623.8840473430277
 21
199.6077644199795
 31
0.0
  0
LINE
  5
79B
330
1F
100
AcDbEntity
  8
0
  6
Continuous
 62
     7
100
AcDbLine
 10
624.028409343028
 20
202.6077644199796
 30
0.0
 11
624.028409343028
 21
201.6077644199795
 31
0.0
  0
LINE
  5
79C
330
1F
100
AcDbEntity
  8
0
  6
Continuous
 62
     7
100
AcDbLine
 10
623.8777473430278
 20
204.6077644199796
 30
0.0
 11
624.028409343028
 21
202.6077644199796
 31
0.0
  0
LINE
  5
79D
330
1F
100
AcDbEntity
  8
0
  6
Continuous
 62
     7
100
AcDbLine
 10
623.7161193430279
 20
205.6975084199791
 30
0.0
 11
623.8777473430278
 21
204.6077644199796
 31
0.0
  0
LINE
  5
79E
330
1F
100
AcDbEntity
  8
0
  6
Continuous
 62
     7
100
AcDbLine
 10
623.693191343028
 20
205.7812104199796
 30
0.0
 11
623.7161193430279
 21
205.6975084199791
 31
0.0
  0
ARC
  5
79F
330
1F
100
AcDbEntity
  8
0
  6
Continuous
 62
     7
100
AcDbCircle
 10
627.6409133430277
 20
208.6077644199791
 30
0.0
 40
1.499999999999943
100
AcDbArc
 50
270.0
 51
90.0
  0
LINE
  5
7A0
330
1F
100
AcDbEntity
  8
0
  6
Continuous
 62
     7
100
AcDbLine
 10
609.089639343028
 20
259.5172064199794
 30
0.0
 11
628.4774653430281
 21
259.5172064199794
 31
0.0
  0
LINE
  5
7A1
330
1F
100
AcDbEntity
  8
0
  6
Continuous
 62
     7
100
AcDbLine
 10
609.089639343028
 20
258.0590144199795
 30
0.0
 11
634.089639343028
 21
258.0590144199795
 31
0.0
  0
LINE
  5
7A2
330
1F
100
AcDbEntity
  8
0
  6
Continuous
 62
     7
100
AcDbLine
 10
623.4774653430279
 20
261.5857064199793
 30
0.0
 11
624.4774653430279
 21
261.5857064199793
 31
0.0
  0
LINE
  5
7A3
330
1F
100
AcDbEntity
  8
0
  6
Continuous
 62
     7
100
AcDbLine
 10
623.4774653430279
 20
266.8357064199795
 30
0.0
 11
624.4774653430279
 21
266.8357064199795
 31
0.0
  0
LINE
  5
7A4
330
1F
100
AcDbEntity
  8
0
  6
Continuous
 62
     7
100
AcDbLine
 10
622.4774653430281
 20
260.9032064199794
 30
0.0
 11
628.4774653430281
 21
260.9032064199794
 31
0.0
  0
LINE
  5
7A5
330
1F
100
AcDbEntity
  8
0
  6
Continuous
 62
     7
100
AcDbLine
 10
623.4774653430279
 20
285.5887064199793
 30
0.0
 11
624.4774653430279
 21
285.5887064199793
 31
0.0
  0
LINE
  5
7A6
330
1F
100
AcDbEntity
  8
0
  6
Continuous
 62
     7
100
AcDbLine
 10
623.4774653430279
 20
290.8387064199793
 30
0.0
 11
624.4774653430279
 21
290.8387064199793
 31
0.0
  0
LINE
  5
7A7
330
1F
100
AcDbEntity
  8
0
  6
Continuous
 62
     7
100
AcDbLine
 10
623.4774653430279
 20
277.5877064199793
 30
0.0
 11
624.4774653430279
 21
277.5877064199793
 31
0.0
  0
LINE
  5
7A8
330
1F
100
AcDbEntity
  8
0
  6
Continuous
 62
     7
100
AcDbLine
 10
623.4774653430279
 20
282.8377064199793
 30
0.0
 11
624.4774653430279
 21
282.8377064199793
 31
0.0
  0
LINE
  5
7A9
330
1F
100
AcDbEntity
  8
0
  6
Continuous
 62
     7
100
AcDbLine
 10
623.4774653430279
 20
269.5867064199795
 30
0.0
 11
624.4774653430279
 21
269.5867064199795
 31
0.0
  0
LINE
  5
7AA
330
1F
100
AcDbEntity
  8
0
  6
Continuous
 62
     7
100
AcDbLine
 10
623.4774653430279
 20
274.8367064199795
 30
0.0
 11
624.4774653430279
 21
274.8367064199795
 31
0.0
  0
LINE
  5
7AB
330
1F
100
AcDbEntity
  8
0
  6
Continuous
 62
     7
100
AcDbLine
 10
622.4774653430281
 20
267.5182064199793
 30
0.0
 11
628.4774653430281
 21
267.5182064199793
 31
0.0
  0
LINE
  5
7AC
330
1F
100
AcDbEntity
  8
0
  6
Continuous
 62
     7
100
AcDbLine
 10
622.4774653430281
 20
268.9042064199793
 30
0.0
 11
628.4774653430281
 21
268.9042064199793
 31
0.0
  0
LINE
  5
7AD
330
1F
100
AcDbEntity
  8
0
  6
Continuous
 62
     7
100
AcDbLine
 10
622.4774653430281
 20
275.5192064199795
 30
0.0
 11
628.4774653430281
 21
275.5192064199795
 31
0.0
  0
LINE
  5
7AE
330
1F
100
AcDbEntity
  8
0
  6
Continuous
 62
     7
100
AcDbLine
 10
622.4774653430281
 20
276.9052064199795
 30
0.0
 11
628.4774653430281
 21
276.9052064199795
 31
0.0
  0
LINE
  5
7AF
330
1F
100
AcDbEntity
  8
0
  6
Continuous
 62
     7
100
AcDbLine
 10
622.4774653430281
 20
283.5202064199794
 30
0.0
 11
628.4774653430281
 21
283.5202064199794
 31
0.0
  0
LINE
  5
7B0
330
1F
100
AcDbEntity
  8
0
  6
Continuous
 62
     7
100
AcDbLine
 10
622.4774653430281
 20
284.9062064199795
 30
0.0
 11
628.4774653430281
 21
284.9062064199795
 31
0.0
  0
LINE
  5
7B1
330
1F
100
AcDbEntity
  8
0
  6
Continuous
 62
     7
100
AcDbLine
 10
623.4774653430279
 20
301.5907064199793
 30
0.0
 11
624.4774653430279
 21
301.5907064199793
 31
0.0
  0
LINE
  5
7B2
330
1F
100
AcDbEntity
  8
0
  6
Continuous
 62
     7
100
AcDbLine
 10
623.4774653430279
 20
293.5897064199793
 30
0.0
 11
624.4774653430279
 21
293.5897064199793
 31
0.0
  0
LINE
  5
7B3
330
1F
100
AcDbEntity
  8
0
  6
Continuous
 62
     7
100
AcDbLine
 10
623.4774653430279
 20
298.8397064199793
 30
0.0
 11
624.4774653430279
 21
298.8397064199793
 31
0.0
  0
LINE
  5
7B4
330
1F
100
AcDbEntity
  8
0
  6
Continuous
 62
     7
100
AcDbLine
 10
622.4774653430281
 20
291.5212064199795
 30
0.0
 11
628.4774653430281
 21
291.5212064199795
 31
0.0
  0
LINE
  5
7B5
330
1F
100
AcDbEntity
  8
0
  6
Continuous
 62
     7
100
AcDbLine
 10
622.4774653430281
 20
292.9072064199795
 30
0.0
 11
628.4774653430281
 21
292.9072064199795
 31
0.0
  0
LINE
  5
7B6
330
1F
100
AcDbEntity
  8
0
  6
Continuous
 62
     7
100
AcDbLine
 10
622.4774653430281
 20
299.5222064199795
 30
0.0
 11
628.4774653430281
 21
299.5222064199795
 31
0.0
  0
LINE
  5
7B7
330
1F
100
AcDbEntity
  8
0
  6
Continuous
 62
     7
100
AcDbLine
 10
622.4774653430281
 20
300.9082064199795
 30
0.0
 11
628.4774653430281
 21
300.9082064199795
 31
0.0
  0
LINE
  5
7B8
330
1F
100
AcDbEntity
  8
0
  6
Continuous
 62
     7
100
AcDbLine
 10
615.4774653430279
 20
287.5207064199793
 30
0.0
 11
615.4774653430279
 21
280.9057064199794
 31
0.0
  0
LINE
  5
7B9
330
1F
100
AcDbEntity
  8
0
  6
Continuous
 62
     7
100
AcDbLine
 10
623.4774653430279
 20
283.5202064199794
 30
0.0
 11
623.4774653430279
 21
276.9052064199795
 31
0.0
  0
LINE
  5
7BA
330
1F
100
AcDbEntity
  8
0
  6
Continuous
 62
     7
100
AcDbLine
 10
614.4774653430281
 20
263.5177064199794
 30
0.0
 11
622.4774653430281
 21
263.5177064199794
 31
0.0
  0
LINE
  5
7BB
330
1F
100
AcDbEntity
  8
0
  6
Continuous
 62
     7
100
AcDbLine
 10
615.4774653430279
 20
271.5187064199795
 30
0.0
 11
615.4774653430279
 21
264.9037064199796
 31
0.0
  0
LINE
  5
7BC
330
1F
100
AcDbEntity
  8
0
  6
Continuous
 62
     7
100
AcDbLine
 10
615.4774653430279
 20
265.5862064199794
 30
0.0
 11
616.4774653430279
 21
265.5862064199794
 31
0.0
  0
LINE
  5
7BD
330
1F
100
AcDbEntity
  8
0
  6
Continuous
 62
     7
100
AcDbLine
 10
615.4774653430279
 20
270.8362064199794
 30
0.0
 11
616.4774653430279
 21
270.8362064199794
 31
0.0
  0
LINE
  5
7BE
330
1F
100
AcDbEntity
  8
0
  6
Continuous
 62
     7
100
AcDbLine
 10
617.9774653430281
 20
269.2612064199794
 30
0.0
 11
617.9774653430281
 21
267.1612064199794
 31
0.0
  0
LINE
  5
7BF
330
1F
100
AcDbEntity
  8
0
  6
Continuous
 62
     7
100
AcDbLine
 10
623.4774653430279
 20
267.5182064199793
 30
0.0
 11
623.4774653430279
 21
260.9032064199794
 31
0.0
  0
LINE
  5
7C0
330
1F
100
AcDbEntity
  8
0
  6
Continuous
 62
     7
100
AcDbLine
 10
622.4774653430281
 20
264.9037064199796
 30
0.0
 11
614.4774653430281
 21
264.9037064199796
 31
0.0
  0
LINE
  5
7C1
330
1F
100
AcDbEntity
  8
0
  6
Continuous
 62
     7
100
AcDbLine
 10
614.4774653430281
 20
271.5187064199795
 30
0.0
 11
622.4774653430281
 21
271.5187064199795
 31
0.0
  0
LINE
  5
7C2
330
1F
100
AcDbEntity
  8
0
  6
Continuous
 62
     7
100
AcDbLine
 10
615.4774653430279
 20
279.5197064199795
 30
0.0
 11
615.4774653430279
 21
272.9047064199793
 31
0.0
  0
LINE
  5
7C3
330
1F
100
AcDbEntity
  8
0
  6
Continuous
 62
     7
100
AcDbLine
 10
615.4774653430279
 20
273.5872064199793
 30
0.0
 11
616.4774653430279
 21
273.5872064199793
 31
0.0
  0
LINE
  5
7C4
330
1F
100
AcDbEntity
  8
0
  6
Continuous
 62
     7
100
AcDbLine
 10
615.4774653430279
 20
278.8372064199795
 30
0.0
 11
616.4774653430279
 21
278.8372064199795
 31
0.0
  0
LINE
  5
7C5
330
1F
100
AcDbEntity
  8
0
  6
Continuous
 62
     7
100
AcDbLine
 10
617.9774653430281
 20
277.2622064199795
 30
0.0
 11
617.9774653430281
 21
275.1622064199795
 31
0.0
  0
LINE
  5
7C6
330
1F
100
AcDbEntity
  8
0
  6
Continuous
 62
     7
100
AcDbLine
 10
623.4774653430279
 20
275.5192064199795
 30
0.0
 11
623.4774653430279
 21
268.9042064199793
 31
0.0
  0
LINE
  5
7C7
330
1F
100
AcDbEntity
  8
0
  6
Continuous
 62
     7
100
AcDbLine
 10
622.4774653430281
 20
272.9047064199793
 30
0.0
 11
614.4774653430281
 21
272.9047064199793
 31
0.0
  0
LINE
  5
7C8
330
1F
100
AcDbEntity
  8
0
  6
Continuous
 62
     7
100
AcDbLine
 10
614.4774653430281
 20
279.5197064199795
 30
0.0
 11
622.4774653430281
 21
279.5197064199795
 31
0.0
  0
LINE
  5
7C9
330
1F
100
AcDbEntity
  8
0
  6
Continuous
 62
     7
100
AcDbLine
 10
622.4774653430281
 20
280.9057064199794
 30
0.0
 11
614.4774653430281
 21
280.9057064199794
 31
0.0
  0
ELLIPSE
  5
7CA
330
1F
100
AcDbEntity
  8
0
  6
Continuous
 62
     7
100
AcDbEllipse
 10
616.4774653430279
 20
277.2622064199795
 30
0.0
 11
0.0
 21
-1.575000047683715
 31
0.0
210
0.0
220
0.0
230
1.0
 40
0.9523809999999999
 41
1.570796326794896
 42
3.141592697301183
  0
ELLIPSE
  5
7CB
330
1F
100
AcDbEntity
  8
0
  6
Continuous
 62
     7
100
AcDbEllipse
 10
616.4774653430279
 20
275.1622064199795
 30
0.0
 11
0.0
 21
-1.575000047683715
 31
0.0
210
0.0
220
0.0
230
1.0
 40
0.9523809999999999
 41
0.0
 42
1.570796326794896
  0
ELLIPSE
  5
7CC
330
1F
100
AcDbEntity
  8
0
  6
Continuous
 62
     7
100
AcDbEllipse
 10
616.4774653430279
 20
269.2612064199794
 30
0.0
 11
0.0
 21
-1.575000047683715
 31
0.0
210
0.0
220
0.0
230
1.0
 40
0.9523809999999999
 41
1.570796326794896
 42
3.141592697301183
  0
ELLIPSE
  5
7CD
330
1F
100
AcDbEntity
  8
0
  6
Continuous
 62
     7
100
AcDbEllipse
 10
616.4774653430279
 20
267.1612064199794
 30
0.0
 11
0.0
 21
-1.575000047683715
 31
0.0
210
0.0
220
0.0
230
1.0
 40
0.9523809999999999
 41
0.0
 42
1.570796326794896
  0
LINE
  5
7CE
330
1F
100
AcDbEntity
  8
0
  6
Continuous
 62
     7
100
AcDbLine
 10
622.4774653430281
 20
295.5217064199793
 30
0.0
 11
614.4774653430281
 21
295.5217064199793
 31
0.0
  0
LINE
  5
7CF
330
1F
100
AcDbEntity
  8
0
  6
Continuous
 62
     7
100
AcDbLine
 10
615.4774653430279
 20
295.5217064199793
 30
0.0
 11
615.4774653430279
 21
288.9067064199793
 31
0.0
  0
LINE
  5
7D0
330
1F
100
AcDbEntity
  8
0
  6
Continuous
 62
     7
100
AcDbLine
 10
615.4774653430279
 20
289.5892064199795
 30
0.0
 11
616.4774653430279
 21
289.5892064199795
 31
0.0
  0
LINE
  5
7D1
330
1F
100
AcDbEntity
  8
0
  6
Continuous
 62
     7
100
AcDbLine
 10
615.4774653430279
 20
294.8392064199795
 30
0.0
 11
616.4774653430279
 21
294.8392064199795
 31
0.0
  0
LINE
  5
7D2
330
1F
100
AcDbEntity
  8
0
  6
Continuous
 62
     7
100
AcDbLine
 10
617.9774653430281
 20
293.2642064199796
 30
0.0
 11
617.9774653430281
 21
291.1642064199793
 31
0.0
  0
LINE
  5
7D3
330
1F
100
AcDbEntity
  8
0
  6
Continuous
 62
     7
100
AcDbLine
 10
623.4774653430279
 20
291.5212064199795
 30
0.0
 11
623.4774653430279
 21
284.9062064199795
 31
0.0
  0
LINE
  5
7D4
330
1F
100
AcDbEntity
  8
0
  6
Continuous
 62
     7
100
AcDbLine
 10
615.4774653430279
 20
281.5882064199795
 30
0.0
 11
616.4774653430279
 21
281.5882064199795
 31
0.0
  0
LINE
  5
7D5
330
1F
100
AcDbEntity
  8
0
  6
Continuous
 62
     7
100
AcDbLine
 10
615.4774653430279
 20
286.8382064199795
 30
0.0
 11
616.4774653430279
 21
286.8382064199795
 31
0.0
  0
LINE
  5
7D6
330
1F
100
AcDbEntity
  8
0
  6
Continuous
 62
     7
100
AcDbLine
 10
617.9774653430281
 20
285.2632064199795
 30
0.0
 11
617.9774653430281
 21
283.1632064199796
 31
0.0
  0
LINE
  5
7D7
330
1F
100
AcDbEntity
  8
0
  6
Continuous
 62
     7
100
AcDbLine
 10
614.4774653430281
 20
287.5207064199793
 30
0.0
 11
622.4774653430281
 21
287.5207064199793
 31
0.0
  0
LINE
  5
7D8
330
1F
100
AcDbEntity
  8
0
  6
Continuous
 62
     7
100
AcDbLine
 10
622.4774653430281
 20
288.9067064199793
 30
0.0
 11
614.4774653430281
 21
288.9067064199793
 31
0.0
  0
LINE
  5
7D9
330
1F
100
AcDbEntity
  8
0
  6
Continuous
 62
     7
100
AcDbLine
 10
615.4774653430279
 20
297.5902064199793
 30
0.0
 11
616.4774653430279
 21
297.5902064199793
 31
0.0
  0
LINE
  5
7DA
330
1F
100
AcDbEntity
  8
0
  6
Continuous
 62
     7
100
AcDbLine
 10
617.9774653430281
 20
301.2652064199794
 30
0.0
 11
617.9774653430281
 21
299.1652064199795
 31
0.0
  0
LINE
  5
7DB
330
1F
100
AcDbEntity
  8
0
  6
Continuous
 62
     7
100
AcDbLine
 10
623.4774653430279
 20
299.5222064199795
 30
0.0
 11
623.4774653430279
 21
292.9072064199795
 31
0.0
  0
LINE
  5
7DC
330
1F
100
AcDbEntity
  8
0
  6
Continuous
 62
     7
100
AcDbLine
 10
614.4774653430281
 20
287.5207064199793
 30
0.0
 11
622.4774653430281
 21
287.5207064199793
 31
0.0
  0
LINE
  5
7DD
330
1F
100
AcDbEntity
  8
0
  6
Continuous
 62
     7
100
AcDbLine
 10
622.4774653430281
 20
296.9077064199793
 30
0.0
 11
614.4774653430281
 21
296.9077064199793
 31
0.0
  0
ELLIPSE
  5
7DE
330
1F
100
AcDbEntity
  8
0
  6
Continuous
 62
     7
100
AcDbEllipse
 10
616.4774653430279
 20
299.1652064199795
 30
0.0
 11
0.0
 21
-1.575000047683715
 31
0.0
210
0.0
220
0.0
230
1.0
 40
0.9523809999999999
 41
0.0
 42
1.570796326794896
  0
ELLIPSE
  5
7DF
330
1F
100
AcDbEntity
  8
0
  6
Continuous
 62
     7
100
AcDbEllipse
 10
616.4774653430279
 20
285.2632064199795
 30
0.0
 11
0.0
 21
-1.575000047683715
 31
0.0
210
0.0
220
0.0
230
1.0
 40
0.9523809999999999
 41
1.570796326794896
 42
3.141592697301183
  0
ELLIPSE
  5
7E0
330
1F
100
AcDbEntity
  8
0
  6
Continuous
 62
     7
100
AcDbEllipse
 10
616.4774653430279
 20
283.1632064199796
 30
0.0
 11
0.0
 21
-1.575000047683715
 31
0.0
210
0.0
220
0.0
230
1.0
 40
0.9523809999999999
 41
0.0
 42
1.570796326794896
  0
ELLIPSE
  5
7E1
330
1F
100
AcDbEntity
  8
0
  6
Continuous
 62
     7
100
AcDbEllipse
 10
616.4774653430279
 20
293.2642064199796
 30
0.0
 11
0.0
 21
-1.575000047683715
 31
0.0
210
0.0
220
0.0
230
1.0
 40
0.9523809999999999
 41
1.570796326794896
 42
3.141592697301183
  0
ELLIPSE
  5
7E2
330
1F
100
AcDbEntity
  8
0
  6
Continuous
 62
     7
100
AcDbEllipse
 10
616.4774653430279
 20
291.1642064199793
 30
0.0
 11
0.0
 21
-1.575000047683715
 31
0.0
210
0.0
220
0.0
230
1.0
 40
0.9523809999999999
 41
0.0
 42
1.570796326794896
  0
ELLIPSE
  5
7E3
330
1F
100
AcDbEntity
  8
0
  6
Continuous
 62
     7
100
AcDbEllipse
 10
624.4774653430279
 20
281.2627064199793
 30
0.0
 11
0.0
 21
-1.575000047683715
 31
0.0
210
0.0
220
0.0
230
1.0
 40
0.9523809999999999
 41
1.570796326794896
 42
3.141592697301183
  0
LINE
  5
7E4
330
1F
100
AcDbEntity
  8
0
  6
Continuous
 62
     7
100
AcDbLine
 10
625.9774653430281
 20
265.2607064199794
 30
0.0
 11
625.9774653430281
 21
263.1607064199795
 31
0.0
  0
LINE
  5
7E5
330
1F
100
AcDbEntity
  8
0
  6
Continuous
 62
     7
100
AcDbLine
 10
625.9774653430281
 20
281.2627064199793
 30
0.0
 11
625.9774653430281
 21
279.1627064199794
 31
0.0
  0
LINE
  5
7E6
330
1F
100
AcDbEntity
  8
0
  6
Continuous
 62
     7
100
AcDbLine
 10
625.9774653430281
 20
273.2617064199794
 30
0.0
 11
625.9774653430281
 21
271.1617064199793
 31
0.0
  0
ELLIPSE
  5
7E7
330
1F
100
AcDbEntity
  8
0
  6
Continuous
 62
     7
100
AcDbEllipse
 10
624.4774653430279
 20
273.2617064199794
 30
0.0
 11
0.0
 21
-1.575000047683715
 31
0.0
210
0.0
220
0.0
230
1.0
 40
0.9523809999999999
 41
1.570796326794896
 42
3.141592697301183
  0
ELLIPSE
  5
7E8
330
1F
100
AcDbEntity
  8
0
  6
Continuous
 62
     7
100
AcDbEllipse
 10
624.4774653430279
 20
271.1617064199793
 30
0.0
 11
0.0
 21
-1.575000047683715
 31
0.0
210
0.0
220
0.0
230
1.0
 40
0.9523809999999999
 41
0.0
 42
1.570796326794896
  0
ELLIPSE
  5
7E9
330
1F
100
AcDbEntity
  8
0
  6
Continuous
 62
     7
100
AcDbEllipse
 10
624.4774653430279
 20
279.1627064199794
 30
0.0
 11
0.0
 21
-1.575000047683715
 31
0.0
210
0.0
220
0.0
230
1.0
 40
0.9523809999999999
 41
0.0
 42
1.570796326794896
  0
ELLIPSE
  5
7EA
330
1F
100
AcDbEntity
  8
0
  6
Continuous
 62
     7
100
AcDbEllipse
 10
624.4774653430279
 20
265.2607064199794
 30
0.0
 11
0.0
 21
-1.575000047683715
 31
0.0
210
0.0
220
0.0
230
1.0
 40
0.9523809999999999
 41
1.570796326794896
 42
3.141592697301183
  0
ELLIPSE
  5
7EB
330
1F
100
AcDbEntity
  8
0
  6
Continuous
 62
     7
100
AcDbEllipse
 10
624.4774653430279
 20
263.1607064199795
 30
0.0
 11
0.0
 21
-1.575000047683715
 31
0.0
210
0.0
220
0.0
230
1.0
 40
0.9523809999999999
 41
0.0
 42
1.570796326794896
  0
LINE
  5
7EC
330
1F
100
AcDbEntity
  8
0
  6
Continuous
 62
     7
100
AcDbLine
 10
625.9774653430281
 20
289.2637064199793
 30
0.0
 11
625.9774653430281
 21
287.1637064199795
 31
0.0
  0
LINE
  5
7ED
330
1F
100
AcDbEntity
  8
0
  6
Continuous
 62
     7
100
AcDbLine
 10
625.9774653430281
 20
297.2647064199795
 30
0.0
 11
625.9774653430281
 21
295.1647064199793
 31
0.0
  0
ELLIPSE
  5
7EE
330
1F
100
AcDbEntity
  8
0
  6
Continuous
 62
     7
100
AcDbEllipse
 10
624.4774653430279
 20
297.2647064199795
 30
0.0
 11
0.0
 21
-1.575000047683715
 31
0.0
210
0.0
220
0.0
230
1.0
 40
0.9523809999999999
 41
1.570796326794896
 42
3.141592697301183
  0
ELLIPSE
  5
7EF
330
1F
100
AcDbEntity
  8
0
  6
Continuous
 62
     7
100
AcDbEllipse
 10
624.4774653430279
 20
295.1647064199793
 30
0.0
 11
0.0
 21
-1.575000047683715
 31
0.0
210
0.0
220
0.0
230
1.0
 40
0.9523809999999999
 41
0.0
 42
1.570796326794896
  0
ELLIPSE
  5
7F0
330
1F
100
AcDbEntity
  8
0
  6
Continuous
 62
     7
100
AcDbEllipse
 10
624.4774653430279
 20
289.2637064199793
 30
0.0
 11
0.0
 21
-1.575000047683715
 31
0.0
210
0.0
220
0.0
230
1.0
 40
0.9523809999999999
 41
1.570796326794896
 42
3.141592697301183
  0
ELLIPSE
  5
7F1
330
1F
100
AcDbEntity
  8
0
  6
Continuous
 62
     7
100
AcDbEllipse
 10
624.4774653430279
 20
287.1637064199795
 30
0.0
 11
0.0
 21
-1.575000047683715
 31
0.0
210
0.0
220
0.0
230
1.0
 40
0.9523809999999999
 41
0.0
 42
1.570796326794896
  0
CIRCLE
  5
7F2
330
1F
100
AcDbEntity
  8
0
  6
Continuous
 62
     7
100
AcDbCircle
 10
799.0408595181167
 20
176.1077665950693
 30
0.0
 40
4.250023824911624
  0
LINE
  5
7F3
330
1F
100
AcDbEntity
  8
0
  6
Continuous
 62
     7
100
AcDbLine
 10
799.5408833430282
 20
178.6077644199791
 30
0.0
 11
799.5408833430282
 21
176.6077644199795
 31
0.0
  0
LINE
  5
7F4
330
1F
100
AcDbEntity
  8
0
  6
Continuous
 62
     7
100
AcDbLine
 10
798.5408553430278
 20
176.6077644199795
 30
0.0
 11
798.5408553430278
 21
178.6077644199791
 31
0.0
  0
CIRCLE
  5
7F5
330
1F
100
AcDbEntity
  8
0
  6
Continuous
 62
     7
100
AcDbCircle
 10
799.0408545181168
 20
150.107767595068
 30
0.0
 40
4.250022824912368
  0
CIRCLE
  5
7F6
330
1F
100
AcDbEntity
  8
0
  6
Continuous
 62
     7
100
AcDbCircle
 10
799.040856518117
 20
163.107767595068
 30
0.0
 40
4.250022824912142
  0
LINE
  5
7F7
330
1F
100
AcDbEntity
  8
0
  6
Continuous
 62
     7
100
AcDbLine
 10
809.6408793430278
 20
145.1077644199791
 30
0.0
 11
788.4408793430277
 21
145.1077644199791
 31
0.0
  0
LINE
  5
7F8
330
1F
100
AcDbEntity
  8
0
  6
Continuous
 62
     7
100
AcDbLine
 10
788.4408793430277
 20
142.1077644199795
 30
0.0
 11
809.6408793430278
 21
142.1077644199795
 31
0.0
  0
LINE
  5
7F9
330
1F
100
AcDbEntity
  8
0
  6
Continuous
 62
     7
100
AcDbLine
 10
809.6408813430283
 20
158.1077644199791
 30
0.0
 11
788.4408813430278
 21
158.1077644199791
 31
0.0
  0
LINE
  5
7FA
330
1F
100
AcDbEntity
  8
0
  6
Continuous
 62
     7
100
AcDbLine
 10
788.4408813430278
 20
155.1077644199795
 30
0.0
 11
809.6408813430283
 21
155.1077644199795
 31
0.0
  0
LINE
  5
7FB
330
1F
100
AcDbEntity
  8
0
  6
Continuous
 62
     7
100
AcDbLine
 10
809.6408833430277
 20
171.1077644199795
 30
0.0
 11
788.4408833430275
 21
171.1077644199795
 31
0.0
  0
LINE
  5
7FC
330
1F
100
AcDbEntity
  8
0
  6
Continuous
 62
     7
100
AcDbLine
 10
788.4408833430275
 20
168.1077644199791
 30
0.0
 11
809.6408833430277
 21
168.1077644199791
 31
0.0
  0
ARC
  5
7FD
330
1F
100
AcDbEntity
  8
0
  6
Continuous
 62
     7
100
AcDbCircle
 10
788.4408813430278
 20
156.6077644199791
 30
0.0
 40
1.499999999999885
100
AcDbArc
 50
90.0
 51
270.0
  0
ARC
  5
7FE
330
1F
100
AcDbEntity
  8
0
  6
Continuous
 62
     7
100
AcDbCircle
 10
788.4408793430277
 20
143.6077644199792
 30
0.0
 40
1.499999999999885
100
AcDbArc
 50
90.0
 51
270.0
  0
LINE
  5
7FF
330
1F
100
AcDbEntity
  8
0
  6
Continuous
 62
     7
100
AcDbLine
 10
796.5408493430283
 20
136.6077644199795
 30
0.0
 11
798.5408493430282
 21
136.6077644199795
 31
0.0
  0
LINE
  5
800
330
1F
100
AcDbEntity
  8
0
  6
Continuous
 62
     7
100
AcDbLine
 10
796.5408493430283
 20
137.6077644199792
 30
0.0
 11
796.5408493430283
 21
136.6077644199795
 31
0.0
  0
LINE
  5
801
330
1F
100
AcDbEntity
  8
0
  6
Continuous
 62
     7
100
AcDbLine
 10
798.5408493430282
 20
137.6077644199792
 30
0.0
 11
796.5408493430283
 21
137.6077644199792
 31
0.0
  0
LINE
  5
802
330
1F
100
AcDbEntity
  8
0
  6
Continuous
 62
     7
100
AcDbLine
 10
801.5408753430284
 20
137.6077644199792
 30
0.0
 11
799.5408753430277
 21
137.6077644199792
 31
0.0
  0
LINE
  5
803
330
1F
100
AcDbEntity
  8
0
  6
Continuous
 62
     7
100
AcDbLine
 10
801.5408753430284
 20
136.6077644199795
 30
0.0
 11
801.5408753430284
 21
137.6077644199792
 31
0.0
  0
LINE
  5
804
330
1F
100
AcDbEntity
  8
0
  6
Continuous
 62
     7
100
AcDbLine
 10
799.5408753430277
 20
136.6077644199795
 30
0.0
 11
801.5408753430284
 21
136.6077644199795
 31
0.0
  0
LINE
  5
805
330
1F
100
AcDbEntity
  8
0
  6
Continuous
 62
     7
100
AcDbLine
 10
799.5408753430277
 20
139.6077644199792
 30
0.0
 11
799.5408753430277
 21
137.6077644199792
 31
0.0
  0
LINE
  5
806
330
1F
100
AcDbEntity
  8
0
  6
Continuous
 62
     7
100
AcDbLine
 10
798.5408493430282
 20
139.6077644199792
 30
0.0
 11
799.5408753430277
 21
139.6077644199792
 31
0.0
  0
LINE
  5
807
330
1F
100
AcDbEntity
  8
0
  6
Continuous
 62
     7
100
AcDbLine
 10
798.5408493430282
 20
137.6077644199792
 30
0.0
 11
798.5408493430282
 21
139.6077644199792
 31
0.0
  0
LINE
  5
808
330
1F
100
AcDbEntity
  8
0
  6
Continuous
 62
     7
100
AcDbLine
 10
796.5408513430278
 20
149.6077644199791
 30
0.0
 11
798.5408513430273
 21
149.6077644199791
 31
0.0
  0
LINE
  5
809
330
1F
100
AcDbEntity
  8
0
  6
Continuous
 62
     7
100
AcDbLine
 10
796.5408513430278
 20
150.6077644199795
 30
0.0
 11
796.5408513430278
 21
149.6077644199791
 31
0.0
  0
LINE
  5
80A
330
1F
100
AcDbEntity
  8
0
  6
Continuous
 62
     7
100
AcDbLine
 10
798.5408513430273
 20
150.6077644199795
 30
0.0
 11
796.5408513430278
 21
150.6077644199795
 31
0.0
  0
LINE
  5
80B
330
1F
100
AcDbEntity
  8
0
  6
Continuous
 62
     7
100
AcDbLine
 10
801.5408793430278
 20
150.6077644199795
 30
0.0
 11
799.5408793430272
 21
150.6077644199795
 31
0.0
  0
LINE
  5
80C
330
1F
100
AcDbEntity
  8
0
  6
Continuous
 62
     7
100
AcDbLine
 10
801.5408793430278
 20
149.6077644199791
 30
0.0
 11
801.5408793430278
 21
150.6077644199795
 31
0.0
  0
LINE
  5
80D
330
1F
100
AcDbEntity
  8
0
  6
Continuous
 62
     7
100
AcDbLine
 10
799.5408793430272
 20
149.6077644199791
 30
0.0
 11
801.5408793430278
 21
149.6077644199791
 31
0.0
  0
LINE
  5
80E
330
1F
100
AcDbEntity
  8
0
  6
Continuous
 62
     7
100
AcDbLine
 10
799.5408793430272
 20
152.6077644199795
 30
0.0
 11
799.5408793430272
 21
150.6077644199795
 31
0.0
  0
LINE
  5
80F
330
1F
100
AcDbEntity
  8
0
  6
Continuous
 62
     7
100
AcDbLine
 10
798.5408513430273
 20
152.6077644199795
 30
0.0
 11
799.5408793430272
 21
152.6077644199795
 31
0.0
  0
LINE
  5
810
330
1F
100
AcDbEntity
  8
0
  6
Continuous
 62
     7
100
AcDbLine
 10
798.5408513430273
 20
150.6077644199795
 30
0.0
 11
798.5408513430273
 21
152.6077644199795
 31
0.0
  0
LINE
  5
811
330
1F
100
AcDbEntity
  8
0
  6
Continuous
 62
     7
100
AcDbLine
 10
798.5408513430273
 20
147.6077644199792
 30
0.0
 11
798.5408513430273
 21
149.6077644199791
 31
0.0
  0
LINE
  5
812
330
1F
100
AcDbEntity
  8
0
  6
Continuous
 62
     7
100
AcDbLine
 10
799.5408793430272
 20
147.6077644199792
 30
0.0
 11
798.5408513430273
 21
147.6077644199792
 31
0.0
  0
LINE
  5
813
330
1F
100
AcDbEntity
  8
0
  6
Continuous
 62
     7
100
AcDbLine
 10
799.5408793430272
 20
149.6077644199791
 30
0.0
 11
799.5408793430272
 21
147.6077644199792
 31
0.0
  0
LINE
  5
814
330
1F
100
AcDbEntity
  8
0
  6
Continuous
 62
     7
100
AcDbLine
 10
788.4408793430277
 20
142.1077644199795
 30
0.0
 11
788.4408793430277
 21
142.1077644199795
 31
0.0
  0
LINE
  5
815
330
1F
100
AcDbEntity
  8
0
  6
Continuous
 62
     7
100
AcDbLine
 10
788.4408813430278
 20
155.1077644199795
 30
0.0
 11
788.4408813430278
 21
155.1077644199795
 31
0.0
  0
ARC
  5
816
330
1F
100
AcDbEntity
  8
0
  6
Continuous
 62
     7
100
AcDbCircle
 10
788.4408833430275
 20
169.6077644199792
 30
0.0
 40
1.500000000000056
100
AcDbArc
 50
90.0
 51
270.0
  0
LINE
  5
817
330
1F
100
AcDbEntity
  8
0
  6
Continuous
 62
     7
100
AcDbLine
 10
796.5408533430283
 20
162.6077644199791
 30
0.0
 11
798.540853343028
 21
162.6077644199791
 31
0.0
  0
LINE
  5
818
330
1F
100
AcDbEntity
  8
0
  6
Continuous
 62
     7
100
AcDbLine
 10
796.5408533430283
 20
163.6077644199791
 30
0.0
 11
796.5408533430283
 21
162.6077644199791
 31
0.0
  0
LINE
  5
819
330
1F
100
AcDbEntity
  8
0
  6
Continuous
 62
     7
100
AcDbLine
 10
798.540853343028
 20
163.6077644199791
 30
0.0
 11
796.5408533430283
 21
163.6077644199791
 31
0.0
  0
LINE
  5
81A
330
1F
100
AcDbEntity
  8
0
  6
Continuous
 62
     7
100
AcDbLine
 10
801.5408813430278
 20
163.6077644199791
 30
0.0
 11
799.5408813430278
 21
163.6077644199791
 31
0.0
  0
LINE
  5
81B
330
1F
100
AcDbEntity
  8
0
  6
Continuous
 62
     7
100
AcDbLine
 10
801.5408813430278
 20
162.6077644199791
 30
0.0
 11
801.5408813430278
 21
163.6077644199791
 31
0.0
  0
LINE
  5
81C
330
1F
100
AcDbEntity
  8
0
  6
Continuous
 62
     7
100
AcDbLine
 10
799.5408813430278
 20
162.6077644199791
 30
0.0
 11
801.5408813430278
 21
162.6077644199791
 31
0.0
  0
LINE
  5
81D
330
1F
100
AcDbEntity
  8
0
  6
Continuous
 62
     7
100
AcDbLine
 10
799.5408813430278
 20
165.6077644199795
 30
0.0
 11
799.5408813430278
 21
163.6077644199791
 31
0.0
  0
LINE
  5
81E
330
1F
100
AcDbEntity
  8
0
  6
Continuous
 62
     7
100
AcDbLine
 10
798.540853343028
 20
165.6077644199795
 30
0.0
 11
799.5408813430278
 21
165.6077644199795
 31
0.0
  0
LINE
  5
81F
330
1F
100
AcDbEntity
  8
0
  6
Continuous
 62
     7
100
AcDbLine
 10
798.540853343028
 20
163.6077644199791
 30
0.0
 11
798.540853343028
 21
165.6077644199795
 31
0.0
  0
LINE
  5
820
330
1F
100
AcDbEntity
  8
0
  6
Continuous
 62
     7
100
AcDbLine
 10
798.540853343028
 20
160.6077644199795
 30
0.0
 11
798.540853343028
 21
162.6077644199791
 31
0.0
  0
LINE
  5
821
330
1F
100
AcDbEntity
  8
0
  6
Continuous
 62
     7
100
AcDbLine
 10
799.5408813430278
 20
160.6077644199795
 30
0.0
 11
798.540853343028
 21
160.6077644199795
 31
0.0
  0
LINE
  5
822
330
1F
100
AcDbEntity
  8
0
  6
Continuous
 62
     7
100
AcDbLine
 10
799.5408813430278
 20
162.6077644199791
 30
0.0
 11
799.5408813430278
 21
160.6077644199795
 31
0.0
  0
LINE
  5
823
330
1F
100
AcDbEntity
  8
0
  6
Continuous
 62
     7
100
AcDbLine
 10
796.5408553430278
 20
175.6077644199795
 30
0.0
 11
798.5408553430278
 21
175.6077644199795
 31
0.0
  0
LINE
  5
824
330
1F
100
AcDbEntity
  8
0
  6
Continuous
 62
     7
100
AcDbLine
 10
796.5408553430278
 20
176.6077644199795
 30
0.0
 11
796.5408553430278
 21
175.6077644199795
 31
0.0
  0
LINE
  5
825
330
1F
100
AcDbEntity
  8
0
  6
Continuous
 62
     7
100
AcDbLine
 10
798.5408553430278
 20
176.6077644199795
 30
0.0
 11
796.5408553430278
 21
176.6077644199795
 31
0.0
  0
LINE
  5
826
330
1F
100
AcDbEntity
  8
0
  6
Continuous
 62
     7
100
AcDbLine
 10
801.5408833430273
 20
176.6077644199795
 30
0.0
 11
799.5408833430282
 21
176.6077644199795
 31
0.0
  0
LINE
  5
827
330
1F
100
AcDbEntity
  8
0
  6
Continuous
 62
     7
100
AcDbLine
 10
801.5408833430273
 20
175.6077644199795
 30
0.0
 11
801.5408833430273
 21
176.6077644199795
 31
0.0
  0
LINE
  5
828
330
1F
100
AcDbEntity
  8
0
  6
Continuous
 62
     7
100
AcDbLine
 10
799.5408833430282
 20
175.6077644199795
 30
0.0
 11
801.5408833430273
 21
175.6077644199795
 31
0.0
  0
LINE
  5
829
330
1F
100
AcDbEntity
  8
0
  6
Continuous
 62
     7
100
AcDbLine
 10
798.5408553430278
 20
173.6077644199795
 30
0.0
 11
798.5408553430278
 21
175.6077644199795
 31
0.0
  0
LINE
  5
82A
330
1F
100
AcDbEntity
  8
0
  6
Continuous
 62
     7
100
AcDbLine
 10
799.5408833430282
 20
173.6077644199795
 30
0.0
 11
798.5408553430278
 21
173.6077644199795
 31
0.0
  0
LINE
  5
82B
330
1F
100
AcDbEntity
  8
0
  6
Continuous
 62
     7
100
AcDbLine
 10
799.5408833430282
 20
175.6077644199795
 30
0.0
 11
799.5408833430282
 21
173.6077644199795
 31
0.0
  0
LINE
  5
82C
330
1F
100
AcDbEntity
  8
0
  6
Continuous
 62
     7
100
AcDbLine
 10
788.4408833430275
 20
168.1077644199791
 30
0.0
 11
788.4408833430275
 21
168.1077644199791
 31
0.0
  0
ARC
  5
82D
330
1F
100
AcDbEntity
  8
0
  6
Continuous
 62
     7
100
AcDbCircle
 10
809.6408813430283
 20
156.6077644199791
 30
0.0
 40
1.499999999999943
100
AcDbArc
 50
270.0
 51
90.0
  0
ARC
  5
82E
330
1F
100
AcDbEntity
  8
0
  6
Continuous
 62
     7
100
AcDbCircle
 10
809.6408793430278
 20
143.6077644199792
 30
0.0
 40
1.499999999999943
100
AcDbArc
 50
270.0
 51
90.0
  0
ARC
  5
82F
330
1F
100
AcDbEntity
  8
0
  6
Continuous
 62
     7
100
AcDbCircle
 10
809.6408833430277
 20
169.6077644199792
 30
0.0
 40
1.500000000000114
100
AcDbArc
 50
270.0
 51
90.0
  0
CIRCLE
  5
830
330
1F
100
AcDbEntity
  8
0
  6
Continuous
 62
     7
100
AcDbCircle
 10
799.0408635181168
 20
202.1077665950699
 30
0.0
 40
4.250023824911508
  0
CIRCLE
  5
831
330
1F
100
AcDbEntity
  8
0
  6
Continuous
 62
     7
100
AcDbCircle
 10
799.0408615181167
 20
189.1077665950703
 30
0.0
 40
4.250023824911396
  0
LINE
  5
832
330
1F
100
AcDbEntity
  8
0
  6
Continuous
 62
     7
100
AcDbLine
 10
809.6408893430275
 20
210.1077644199791
 30
0.0
 11
788.4408893430276
 21
210.1077644199791
 31
0.0
  0
LINE
  5
833
330
1F
100
AcDbEntity
  8
0
  6
Continuous
 62
     7
100
AcDbLine
 10
788.4408893430276
 20
207.1077644199796
 30
0.0
 11
809.6408893430275
 21
207.1077644199796
 31
0.0
  0
LINE
  5
834
330
1F
100
AcDbEntity
  8
0
  6
Continuous
 62
     7
100
AcDbLine
 10
809.6408873430277
 20
197.1077644199795
 30
0.0
 11
788.4408873430283
 21
197.1077644199795
 31
0.0
  0
LINE
  5
835
330
1F
100
AcDbEntity
  8
0
  6
Continuous
 62
     7
100
AcDbLine
 10
788.4408873430283
 20
194.1077644199795
 30
0.0
 11
809.6408873430277
 21
194.1077644199795
 31
0.0
  0
LINE
  5
836
330
1F
100
AcDbEntity
  8
0
  6
Continuous
 62
     7
100
AcDbLine
 10
809.6408853430283
 20
184.1077644199796
 30
0.0
 11
788.4408853430275
 21
184.1077644199796
 31
0.0
  0
LINE
  5
837
330
1F
100
AcDbEntity
  8
0
  6
Continuous
 62
     7
100
AcDbLine
 10
788.4408853430275
 20
181.1077644199791
 30
0.0
 11
809.6408853430283
 21
181.1077644199791
 31
0.0
  0
LINE
  5
838
330
1F
100
AcDbEntity
  8
0
  6
Continuous
 62
     7
100
AcDbLine
 10
812.0896393430278
 20
211.0590144199793
 30
0.0
 11
779.0896393430279
 21
211.0590144199793
 31
0.0
  0
ARC
  5
839
330
1F
100
AcDbEntity
  8
0
  6
Continuous
 62
     7
100
AcDbCircle
 10
788.4408873430283
 20
195.6077644199791
 30
0.0
 40
1.5
100
AcDbArc
 50
90.0
 51
270.0
  0
ARC
  5
83A
330
1F
100
AcDbEntity
  8
0
  6
Continuous
 62
     7
100
AcDbCircle
 10
788.4408853430275
 20
182.6077644199791
 30
0.0
 40
1.500000000000056
100
AcDbArc
 50
90.0
 51
270.0
  0
LINE
  5
83B
330
1F
100
AcDbEntity
  8
0
  6
Continuous
 62
     7
100
AcDbLine
 10
798.5408553430278
 20
178.6077644199791
 30
0.0
 11
799.5408833430282
 21
178.6077644199791
 31
0.0
  0
LINE
  5
83C
330
1F
100
AcDbEntity
  8
0
  6
Continuous
 62
     7
100
AcDbLine
 10
796.5408573430281
 20
188.6077644199791
 30
0.0
 11
798.540857343028
 21
188.6077644199791
 31
0.0
  0
LINE
  5
83D
330
1F
100
AcDbEntity
  8
0
  6
Continuous
 62
     7
100
AcDbLine
 10
796.5408573430281
 20
189.6077644199791
 30
0.0
 11
796.5408573430281
 21
188.6077644199791
 31
0.0
  0
LINE
  5
83E
330
1F
100
AcDbEntity
  8
0
  6
Continuous
 62
     7
100
AcDbLine
 10
798.540857343028
 20
189.6077644199791
 30
0.0
 11
796.5408573430281
 21
189.6077644199791
 31
0.0
  0
LINE
  5
83F
330
1F
100
AcDbEntity
  8
0
  6
Continuous
 62
     7
100
AcDbLine
 10
801.5408853430278
 20
189.6077644199791
 30
0.0
 11
799.5408853430282
 21
189.6077644199791
 31
0.0
  0
LINE
  5
840
330
1F
100
AcDbEntity
  8
0
  6
Continuous
 62
     7
100
AcDbLine
 10
801.5408853430278
 20
188.6077644199791
 30
0.0
 11
801.5408853430278
 21
189.6077644199791
 31
0.0
  0
LINE
  5
841
330
1F
100
AcDbEntity
  8
0
  6
Continuous
 62
     7
100
AcDbLine
 10
799.5408853430282
 20
188.6077644199791
 30
0.0
 11
801.5408853430278
 21
188.6077644199791
 31
0.0
  0
LINE
  5
842
330
1F
100
AcDbEntity
  8
0
  6
Continuous
 62
     7
100
AcDbLine
 10
799.5408853430282
 20
191.6077644199791
 30
0.0
 11
799.5408853430282
 21
189.6077644199791
 31
0.0
  0
LINE
  5
843
330
1F
100
AcDbEntity
  8
0
  6
Continuous
 62
     7
100
AcDbLine
 10
798.540857343028
 20
191.6077644199791
 30
0.0
 11
799.5408853430282
 21
191.6077644199791
 31
0.0
  0
LINE
  5
844
330
1F
100
AcDbEntity
  8
0
  6
Continuous
 62
     7
100
AcDbLine
 10
798.540857343028
 20
189.6077644199791
 30
0.0
 11
798.540857343028
 21
191.6077644199791
 31
0.0
  0
LINE
  5
845
330
1F
100
AcDbEntity
  8
0
  6
Continuous
 62
     7
100
AcDbLine
 10
798.540857343028
 20
186.6077644199796
 30
0.0
 11
798.540857343028
 21
188.6077644199791
 31
0.0
  0
LINE
  5
846
330
1F
100
AcDbEntity
  8
0
  6
Continuous
 62
     7
100
AcDbLine
 10
799.5408853430282
 20
186.6077644199796
 30
0.0
 11
798.540857343028
 21
186.6077644199796
 31
0.0
  0
LINE
  5
847
330
1F
100
AcDbEntity
  8
0
  6
Continuous
 62
     7
100
AcDbLine
 10
799.5408853430282
 20
188.6077644199791
 30
0.0
 11
799.5408853430282
 21
186.6077644199796
 31
0.0
  0
LINE
  5
848
330
1F
100
AcDbEntity
  8
0
  6
Continuous
 62
     7
100
AcDbLine
 10
788.4408873430283
 20
194.1077644199795
 30
0.0
 11
788.4408873430283
 21
194.1077644199795
 31
0.0
  0
LINE
  5
849
330
1F
100
AcDbEntity
  8
0
  6
Continuous
 62
     7
100
AcDbLine
 10
788.4408853430275
 20
181.1077644199791
 30
0.0
 11
788.4408853430275
 21
181.1077644199791
 31
0.0
  0
ARC
  5
84A
330
1F
100
AcDbEntity
  8
0
  6
Continuous
 62
     7
100
AcDbCircle
 10
788.4408893430276
 20
208.6077644199791
 30
0.0
 40
1.499999999999885
100
AcDbArc
 50
90.0
 51
270.0
  0
LINE
  5
84B
330
1F
100
AcDbEntity
  8
0
  6
Continuous
 62
     7
100
AcDbLine
 10
778.0896393430282
 20
217.8590184199795
 30
0.0
 11
779.0896393430279
 21
217.8590184199795
 31
0.0
  0
LINE
  5
84C
330
1F
100
AcDbEntity
  8
0
  6
Continuous
 62
     7
100
AcDbLine
 10
778.0896393430282
 20
212.2590184199792
 30
0.0
 11
779.0896393430279
 21
212.2590184199792
 31
0.0
  0
LINE
  5
84D
330
1F
100
AcDbEntity
  8
0
  6
Continuous
 62
     7
100
AcDbLine
 10
778.0896393430282
 20
212.2590184199792
 30
0.0
 11
778.0896393430282
 21
217.8590184199795
 31
0.0
  0
ELLIPSE
  5
84E
330
1F
100
AcDbEntity
  8
0
  6
Continuous
 62
     7
100
AcDbEllipse
 10
778.0896393430282
 20
215.0590184199793
 30
0.0
 11
0.0000000000000002
 21
-2.364390611648558
 31
0.0
210
0.0
220
0.0
230
1.0
 40
0.8481010000000001
 41
3.141592697301183
 42
6.283185263468196
  0
LINE
  5
84F
330
1F
100
AcDbEntity
  8
0
  6
Continuous
 62
     7
100
AcDbLine
 10
796.5408593430281
 20
201.6077644199795
 30
0.0
 11
798.5408593430281
 21
201.6077644199795
 31
0.0
  0
LINE
  5
850
330
1F
100
AcDbEntity
  8
0
  6
Continuous
 62
     7
100
AcDbLine
 10
796.5408593430281
 20
202.6077644199796
 30
0.0
 11
796.5408593430281
 21
201.6077644199795
 31
0.0
  0
LINE
  5
851
330
1F
100
AcDbEntity
  8
0
  6
Continuous
 62
     7
100
AcDbLine
 10
798.5408593430281
 20
202.6077644199796
 30
0.0
 11
796.5408593430281
 21
202.6077644199796
 31
0.0
  0
LINE
  5
852
330
1F
100
AcDbEntity
  8
0
  6
Continuous
 62
     7
100
AcDbLine
 10
801.5408873430272
 20
202.6077644199796
 30
0.0
 11
799.5408873430277
 21
202.6077644199796
 31
0.0
  0
LINE
  5
853
330
1F
100
AcDbEntity
  8
0
  6
Continuous
 62
     7
100
AcDbLine
 10
801.5408873430272
 20
201.6077644199795
 30
0.0
 11
801.5408873430272
 21
202.6077644199796
 31
0.0
  0
LINE
  5
854
330
1F
100
AcDbEntity
  8
0
  6
Continuous
 62
     7
100
AcDbLine
 10
799.5408873430277
 20
201.6077644199795
 30
0.0
 11
801.5408873430272
 21
201.6077644199795
 31
0.0
  0
LINE
  5
855
330
1F
100
AcDbEntity
  8
0
  6
Continuous
 62
     7
100
AcDbLine
 10
799.5408873430277
 20
204.6077644199796
 30
0.0
 11
799.5408873430277
 21
202.6077644199796
 31
0.0
  0
LINE
  5
856
330
1F
100
AcDbEntity
  8
0
  6
Continuous
 62
     7
100
AcDbLine
 10
798.5408593430281
 20
204.6077644199796
 30
0.0
 11
799.5408873430277
 21
204.6077644199796
 31
0.0
  0
LINE
  5
857
330
1F
100
AcDbEntity
  8
0
  6
Continuous
 62
     7
100
AcDbLine
 10
798.5408593430281
 20
202.6077644199796
 30
0.0
 11
798.5408593430281
 21
204.6077644199796
 31
0.0
  0
LINE
  5
858
330
1F
100
AcDbEntity
  8
0
  6
Continuous
 62
     7
100
AcDbLine
 10
798.5408593430281
 20
199.6077644199795
 30
0.0
 11
798.5408593430281
 21
201.6077644199795
 31
0.0
  0
LINE
  5
859
330
1F
100
AcDbEntity
  8
0
  6
Continuous
 62
     7
100
AcDbLine
 10
799.5408873430277
 20
199.6077644199795
 30
0.0
 11
798.5408593430281
 21
199.6077644199795
 31
0.0
  0
LINE
  5
85A
330
1F
100
AcDbEntity
  8
0
  6
Continuous
 62
     7
100
AcDbLine
 10
799.5408873430277
 20
201.6077644199795
 30
0.0
 11
799.5408873430277
 21
199.6077644199795
 31
0.0
  0
LINE
  5
85B
330
1F
100
AcDbEntity
  8
0
  6
Continuous
 62
     7
100
AcDbLine
 10
788.4408893430276
 20
207.1077644199796
 30
0.0
 11
788.4408893430276
 21
207.1077644199796
 31
0.0
  0
ARC
  5
85C
330
1F
100
AcDbEntity
  8
0
  6
Continuous
 62
     7
100
AcDbCircle
 10
809.6408873430277
 20
195.6077644199791
 30
0.0
 40
1.5
100
AcDbArc
 50
270.0
 51
90.0
  0
ARC
  5
85D
330
1F
100
AcDbEntity
  8
0
  6
Continuous
 62
     7
100
AcDbCircle
 10
809.6408853430283
 20
182.6077644199791
 30
0.0
 40
1.500000000000114
100
AcDbArc
 50
270.0
 51
90.0
  0
ARC
  5
85E
330
1F
100
AcDbEntity
  8
0
  6
Continuous
 62
     7
100
AcDbCircle
 10
809.6408893430275
 20
208.6077644199791
 30
0.0
 40
1.499999999999943
100
AcDbArc
 50
270.0
 51
90.0
  0
LINE
  5
85F
330
1F
100
AcDbEntity
  8
0
  6
Continuous
 62
     7
 48
5.0
100
AcDbLine
 10
807.0896393430283
 20
259.4802724199795
 30
0.0
 11
787.1396393430273
 21
259.4802724199795
 31
0.0
  0
LINE
  5
860
330
1F
100
AcDbEntity
  8
0
  6
Continuous
 62
     7
100
AcDbLine
 10
779.0896393430279
 20
258.0590144199795
 30
0.0
 11
807.0896393430283
 21
258.0590144199795
 31
0.0
  0
CIRCLE
  5
861
330
1F
100
AcDbEntity
  8
0
  6
Continuous
 62
     7
100
AcDbCircle
 10
802.4080409897406
 20
296.2603067732661
 30
0.0
 40
3.149997646714008
  0
CIRCLE
  5
862
330
1F
100
AcDbEntity
  8
0
  6
Continuous
 62
     7
100
AcDbCircle
 10
802.4080409897406
 20
288.2593067732656
 30
0.0
 40
3.149997646714008
  0
CIRCLE
  5
863
330
1F
100
AcDbEntity
  8
0
  6
Continuous
 62
     7
100
AcDbCircle
 10
802.4080409897406
 20
280.2583067732659
 30
0.0
 40
3.149997646713896
  0
CIRCLE
  5
864
330
1F
100
AcDbEntity
  8
0
  6
Continuous
 62
     7
100
AcDbCircle
 10
802.4080409897413
 20
272.257306773266
 30
0.0
 40
3.149997646714122
  0
CIRCLE
  5
865
330
1F
100
AcDbEntity
  8
0
  6
Continuous
 62
     7
100
AcDbCircle
 10
802.4080409897406
 20
264.2563067732659
 30
0.0
 40
3.149997646713896
  0
LINE
  5
866
330
1F
100
AcDbEntity
  8
0
  6
Continuous
 62
     7
 48
5.0
100
AcDbLine
 10
800.3080433430271
 20
263.7313064199795
 30
0.0
 11
801.8830433430283
 21
263.7313064199795
 31
0.0
  0
LINE
  5
867
330
1F
100
AcDbEntity
  8
0
  6
Continuous
 62
     7
 48
5.0
100
AcDbLine
 10
801.8830433430283
 20
264.7813064199795
 30
0.0
 11
800.3080433430271
 21
264.7813064199795
 31
0.0
  0
LINE
  5
868
330
1F
100
AcDbEntity
  8
0
  6
Continuous
 62
     7
 48
5.0
100
AcDbLine
 10
800.3080433430271
 20
271.7323064199795
 30
0.0
 11
801.8830433430283
 21
271.7323064199795
 31
0.0
  0
LINE
  5
869
330
1F
100
AcDbEntity
  8
0
  6
Continuous
 62
     7
 48
5.0
100
AcDbLine
 10
801.8830433430283
 20
272.7823064199794
 30
0.0
 11
800.3080433430271
 21
272.7823064199794
 31
0.0
  0
LINE
  5
86A
330
1F
100
AcDbEntity
  8
0
  6
Continuous
 62
     7
 48
5.0
100
AcDbLine
 10
800.3080433430271
 20
279.7333064199793
 30
0.0
 11
801.8830433430283
 21
279.7333064199793
 31
0.0
  0
LINE
  5
86B
330
1F
100
AcDbEntity
  8
0
  6
Continuous
 62
     7
 48
5.0
100
AcDbLine
 10
801.8830433430283
 20
280.7833064199793
 30
0.0
 11
800.3080433430271
 21
280.7833064199793
 31
0.0
  0
LINE
  5
86C
330
1F
100
AcDbEntity
  8
0
  6
Continuous
 62
     7
 48
5.0
100
AcDbLine
 10
800.3080433430271
 20
287.7343064199795
 30
0.0
 11
801.8830433430283
 21
287.7343064199795
 31
0.0
  0
LINE
  5
86D
330
1F
100
AcDbEntity
  8
0
  6
Continuous
 62
     7
 48
5.0
100
AcDbLine
 10
801.8830433430283
 20
288.7843064199793
 30
0.0
 11
800.3080433430271
 21
288.7843064199793
 31
0.0
  0
LINE
  5
86E
330
1F
100
AcDbEntity
  8
0
  6
Continuous
 62
     7
 48
5.0
100
AcDbLine
 10
800.3080433430271
 20
295.7353064199791
 30
0.0
 11
801.8830433430283
 21
295.7353064199791
 31
0.0
  0
LINE
  5
86F
330
1F
100
AcDbEntity
  8
0
  6
Continuous
 62
     7
 48
5.0
100
AcDbLine
 10
801.8830433430283
 20
296.7853064199793
 30
0.0
 11
800.3080433430271
 21
296.7853064199793
 31
0.0
  0
LINE
  5
870
330
1F
100
AcDbEntity
  8
0
  6
Continuous
 62
     7
 48
5.0
100
AcDbLine
 10
807.0896393430283
 20
299.4852724199795
 30
0.0
 11
796.5896393430278
 21
299.4852724199795
 31
0.0
  0
LINE
  5
871
330
1F
100
AcDbEntity
  8
0
  6
Continuous
 62
     7
 48
5.0
100
AcDbLine
 10
807.0896393430283
 20
300.8712724199795
 30
0.0
 11
796.5896393430278
 21
300.8712724199795
 31
0.0
  0
LINE
  5
872
330
1F
100
AcDbEntity
  8
0
  6
Continuous
 62
     7
 48
5.0
100
AcDbLine
 10
807.0896393430283
 20
291.4842724199795
 30
0.0
 11
796.5896393430278
 21
291.4842724199795
 31
0.0
  0
LINE
  5
873
330
1F
100
AcDbEntity
  8
0
  6
Continuous
 62
     7
 48
5.0
100
AcDbLine
 10
807.0896393430283
 20
292.8702724199795
 30
0.0
 11
796.5896393430278
 21
292.8702724199795
 31
0.0
  0
LINE
  5
874
330
1F
100
AcDbEntity
  8
0
  6
Continuous
 62
     7
 48
5.0
100
AcDbLine
 10
807.0896393430283
 20
283.4832724199795
 30
0.0
 11
796.5896393430278
 21
283.4832724199795
 31
0.0
  0
LINE
  5
875
330
1F
100
AcDbEntity
  8
0
  6
Continuous
 62
     7
 48
5.0
100
AcDbLine
 10
807.0896393430283
 20
284.8692724199795
 30
0.0
 11
796.5896393430278
 21
284.8692724199795
 31
0.0
  0
LINE
  5
876
330
1F
100
AcDbEntity
  8
0
  6
Continuous
 62
     7
 48
5.0
100
AcDbLine
 10
807.0896393430283
 20
275.4822724199795
 30
0.0
 11
796.5896393430278
 21
275.4822724199795
 31
0.0
  0
LINE
  5
877
330
1F
100
AcDbEntity
  8
0
  6
Continuous
 62
     7
 48
5.0
100
AcDbLine
 10
807.0896393430283
 20
276.8682724199795
 30
0.0
 11
796.5896393430278
 21
276.8682724199795
 31
0.0
  0
LINE
  5
878
330
1F
100
AcDbEntity
  8
0
  6
Continuous
 62
     7
 48
5.0
100
AcDbLine
 10
807.0896393430283
 20
267.4812724199795
 30
0.0
 11
796.5896393430278
 21
267.4812724199795
 31
0.0
  0
LINE
  5
879
330
1F
100
AcDbEntity
  8
0
  6
Continuous
 62
     7
 48
5.0
100
AcDbLine
 10
807.0896393430283
 20
268.8672724199794
 30
0.0
 11
796.5896393430278
 21
268.8672724199794
 31
0.0
  0
LINE
  5
87A
330
1F
100
AcDbEntity
  8
0
  6
Continuous
 62
     7
 48
5.0
100
AcDbLine
 10
807.0896393430283
 20
260.8662724199795
 30
0.0
 11
796.5896393430278
 21
260.8662724199795
 31
0.0
  0
CIRCLE
  5
87B
330
1F
100
AcDbEntity
  8
0
  6
Continuous
 62
     7
100
AcDbCircle
 10
791.6184369897404
 20
284.2132087732661
 30
0.0
 40
3.149997646713896
  0
CIRCLE
  5
87C
330
1F
100
AcDbEntity
  8
0
  6
Continuous
 62
     7
100
AcDbCircle
 10
791.6184369897404
 20
268.2112087732663
 30
0.0
 40
3.149997646713896
  0
CIRCLE
  5
87D
330
1F
100
AcDbEntity
  8
0
  6
Continuous
 62
     7
100
AcDbCircle
 10
791.6184369897412
 20
276.2122087732663
 30
0.0
 40
3.149997646714122
  0
LINE
  5
87E
330
1F
100
AcDbEntity
  8
0
  6
Continuous
 62
     7
100
AcDbLine
 10
792.1434393430273
 20
268.7362084199794
 30
0.0
 11
793.7184393430278
 21
268.7362084199794
 31
0.0
  0
LINE
  5
87F
330
1F
100
AcDbEntity
  8
0
  6
Continuous
 62
     7
 48
5.0
100
AcDbLine
 10
792.1434393430273
 20
270.3112084199795
 30
0.0
 11
792.1434393430273
 21
270.3112084199795
 31
0.0
  0
LINE
  5
880
330
1F
100
AcDbEntity
  8
0
  6
Continuous
 62
     7
 48
5.0
100
AcDbLine
 10
792.1434393430273
 20
268.7362084199794
 30
0.0
 11
792.1434393430273
 21
270.3112084199795
 31
0.0
  0
LINE
  5
881
330
1F
100
AcDbEntity
  8
0
  6
Continuous
 62
     7
 48
5.0
100
AcDbLine
 10
793.7184393430278
 20
267.6862084199793
 30
0.0
 11
793.7184393430278
 21
268.7362084199794
 31
0.0
  0
LINE
  5
882
330
1F
100
AcDbEntity
  8
0
  6
Continuous
 62
     7
 48
5.0
100
AcDbLine
 10
792.1434393430273
 20
267.6862084199793
 30
0.0
 11
793.7184393430278
 21
267.6862084199793
 31
0.0
  0
LINE
  5
883
330
1F
100
AcDbEntity
  8
0
  6
Continuous
 62
     7
 48
5.0
100
AcDbLine
 10
792.1434393430273
 20
266.1112084199795
 30
0.0
 11
792.1434393430273
 21
267.6862084199793
 31
0.0
  0
LINE
  5
884
330
1F
100
AcDbEntity
  8
0
  6
Continuous
 62
     7
 48
5.0
100
AcDbLine
 10
791.0934393430283
 20
266.1112084199795
 30
0.0
 11
792.1434393430273
 21
266.1112084199795
 31
0.0
  0
LINE
  5
885
330
1F
100
AcDbEntity
  8
0
  6
Continuous
 62
     7
 48
5.0
100
AcDbLine
 10
791.0934393430283
 20
267.6862084199793
 30
0.0
 11
791.0934393430283
 21
266.1112084199795
 31
0.0
  0
LINE
  5
886
330
1F
100
AcDbEntity
  8
0
  6
Continuous
 62
     7
 48
5.0
100
AcDbLine
 10
789.5184393430273
 20
267.6862084199793
 30
0.0
 11
791.0934393430283
 21
267.6862084199793
 31
0.0
  0
LINE
  5
887
330
1F
100
AcDbEntity
  8
0
  6
Continuous
 62
     7
 48
5.0
100
AcDbLine
 10
789.5184393430273
 20
268.7362084199794
 30
0.0
 11
789.5184393430273
 21
267.6862084199793
 31
0.0
  0
LINE
  5
888
330
1F
100
AcDbEntity
  8
0
  6
Continuous
 62
     7
 48
5.0
100
AcDbLine
 10
791.0934393430283
 20
268.7362084199794
 30
0.0
 11
789.5184393430273
 21
268.7362084199794
 31
0.0
  0
LINE
  5
889
330
1F
100
AcDbEntity
  8
0
  6
Continuous
 62
     7
 48
5.0
100
AcDbLine
 10
791.0934393430283
 20
270.3112084199795
 30
0.0
 11
791.0934393430283
 21
268.7362084199794
 31
0.0
  0
LINE
  5
88A
330
1F
100
AcDbEntity
  8
0
  6
Continuous
 62
     7
 48
5.0
100
AcDbLine
 10
792.1434393430273
 20
270.3112084199795
 30
0.0
 11
791.0934393430283
 21
270.3112084199795
 31
0.0
  0
LINE
  5
88B
330
1F
100
AcDbEntity
  8
0
  6
Continuous
 62
     7
 48
5.0
100
AcDbLine
 10
800.3080433430271
 20
264.7813064199795
 30
0.0
 11
800.3080433430271
 21
263.7313064199795
 31
0.0
  0
LINE
  5
88C
330
1F
100
AcDbEntity
  8
0
  6
Continuous
 62
     7
 48
5.0
100
AcDbLine
 10
792.1434393430273
 20
278.3122084199793
 30
0.0
 11
792.1434393430273
 21
278.3122084199793
 31
0.0
  0
LINE
  5
88D
330
1F
100
AcDbEntity
  8
0
  6
Continuous
 62
     7
 48
5.0
100
AcDbLine
 10
792.1434393430273
 20
276.7372084199795
 30
0.0
 11
792.1434393430273
 21
278.3122084199793
 31
0.0
  0
LINE
  5
88E
330
1F
100
AcDbEntity
  8
0
  6
Continuous
 62
     7
 48
5.0
100
AcDbLine
 10
793.7184393430278
 20
276.7372084199795
 30
0.0
 11
792.1434393430273
 21
276.7372084199795
 31
0.0
  0
LINE
  5
88F
330
1F
100
AcDbEntity
  8
0
  6
Continuous
 62
     7
 48
5.0
100
AcDbLine
 10
793.7184393430278
 20
275.6872084199792
 30
0.0
 11
793.7184393430278
 21
276.7372084199795
 31
0.0
  0
LINE
  5
890
330
1F
100
AcDbEntity
  8
0
  6
Continuous
 62
     7
 48
5.0
100
AcDbLine
 10
792.1434393430273
 20
275.6872084199792
 30
0.0
 11
793.7184393430278
 21
275.6872084199792
 31
0.0
  0
LINE
  5
891
330
1F
100
AcDbEntity
  8
0
  6
Continuous
 62
     7
 48
5.0
100
AcDbLine
 10
792.1434393430273
 20
274.1122084199794
 30
0.0
 11
792.1434393430273
 21
275.6872084199792
 31
0.0
  0
LINE
  5
892
330
1F
100
AcDbEntity
  8
0
  6
Continuous
 62
     7
 48
5.0
100
AcDbLine
 10
791.0934393430283
 20
274.1122084199794
 30
0.0
 11
792.1434393430273
 21
274.1122084199794
 31
0.0
  0
LINE
  5
893
330
1F
100
AcDbEntity
  8
0
  6
Continuous
 62
     7
 48
5.0
100
AcDbLine
 10
791.0934393430283
 20
275.6872084199792
 30
0.0
 11
791.0934393430283
 21
274.1122084199794
 31
0.0
  0
LINE
  5
894
330
1F
100
AcDbEntity
  8
0
  6
Continuous
 62
     7
 48
5.0
100
AcDbLine
 10
789.5184393430273
 20
275.6872084199792
 30
0.0
 11
791.0934393430283
 21
275.6872084199792
 31
0.0
  0
LINE
  5
895
330
1F
100
AcDbEntity
  8
0
  6
Continuous
 62
     7
 48
5.0
100
AcDbLine
 10
789.5184393430273
 20
276.7372084199795
 30
0.0
 11
789.5184393430273
 21
275.6872084199792
 31
0.0
  0
LINE
  5
896
330
1F
100
AcDbEntity
  8
0
  6
Continuous
 62
     7
 48
5.0
100
AcDbLine
 10
791.0934393430283
 20
276.7372084199795
 30
0.0
 11
789.5184393430273
 21
276.7372084199795
 31
0.0
  0
LINE
  5
897
330
1F
100
AcDbEntity
  8
0
  6
Continuous
 62
     7
 48
5.0
100
AcDbLine
 10
791.0934393430283
 20
278.3122084199793
 30
0.0
 11
791.0934393430283
 21
276.7372084199795
 31
0.0
  0
LINE
  5
898
330
1F
100
AcDbEntity
  8
0
  6
Continuous
 62
     7
 48
5.0
100
AcDbLine
 10
792.1434393430273
 20
278.3122084199793
 30
0.0
 11
791.0934393430283
 21
278.3122084199793
 31
0.0
  0
LINE
  5
899
330
1F
100
AcDbEntity
  8
0
  6
Continuous
 62
     7
 48
5.0
100
AcDbLine
 10
800.3080433430271
 20
272.7823064199794
 30
0.0
 11
800.3080433430271
 21
271.7323064199795
 31
0.0
  0
LINE
  5
89A
330
1F
100
AcDbEntity
  8
0
  6
Continuous
 62
     7
 48
5.0
100
AcDbLine
 10
800.3080433430271
 20
280.7833064199793
 30
0.0
 11
800.3080433430271
 21
279.7333064199793
 31
0.0
  0
LINE
  5
89B
330
1F
100
AcDbEntity
  8
0
  6
Continuous
 62
     7
 48
5.0
100
AcDbLine
 10
796.5896393430278
 20
279.4827724199794
 30
0.0
 11
787.1396393430273
 21
279.4827724199794
 31
0.0
  0
LINE
  5
89C
330
1F
100
AcDbEntity
  8
0
  6
Continuous
 62
     7
 48
5.0
100
AcDbLine
 10
796.5896393430278
 20
280.8687724199793
 30
0.0
 11
787.1396393430273
 21
280.8687724199793
 31
0.0
  0
LINE
  5
89D
330
1F
100
AcDbEntity
  8
0
  6
Continuous
 62
     7
 48
5.0
100
AcDbLine
 10
796.5896393430278
 20
271.4817724199795
 30
0.0
 11
787.1396393430273
 21
271.4817724199795
 31
0.0
  0
LINE
  5
89E
330
1F
100
AcDbEntity
  8
0
  6
Continuous
 62
     7
 48
5.0
100
AcDbLine
 10
796.5896393430278
 20
272.8677724199795
 30
0.0
 11
787.1396393430273
 21
272.8677724199795
 31
0.0
  0
LINE
  5
89F
330
1F
100
AcDbEntity
  8
0
  6
Continuous
 62
     7
 48
5.0
100
AcDbLine
 10
796.5896393430278
 20
263.4807724199795
 30
0.0
 11
787.1396393430273
 21
263.4807724199795
 31
0.0
  0
CIRCLE
  5
8A0
330
1F
100
AcDbEntity
  8
0
  6
Continuous
 62
     7
100
AcDbCircle
 10
791.6184369897404
 20
292.2142087732662
 30
0.0
 40
3.149997646714008
  0
LINE
  5
8A1
330
1F
100
AcDbEntity
  8
0
  6
Continuous
 62
     7
 48
5.0
100
AcDbLine
 10
792.1434393430273
 20
286.3132084199794
 30
0.0
 11
792.1434393430273
 21
286.3132084199794
 31
0.0
  0
LINE
  5
8A2
330
1F
100
AcDbEntity
  8
0
  6
Continuous
 62
     7
 48
5.0
100
AcDbLine
 10
792.1434393430273
 20
284.7382084199793
 30
0.0
 11
792.1434393430273
 21
286.3132084199794
 31
0.0
  0
LINE
  5
8A3
330
1F
100
AcDbEntity
  8
0
  6
Continuous
 62
     7
 48
5.0
100
AcDbLine
 10
793.7184393430278
 20
284.7382084199793
 30
0.0
 11
792.1434393430273
 21
284.7382084199793
 31
0.0
  0
LINE
  5
8A4
330
1F
100
AcDbEntity
  8
0
  6
Continuous
 62
     7
 48
5.0
100
AcDbLine
 10
793.7184393430278
 20
283.6882084199795
 30
0.0
 11
793.7184393430278
 21
284.7382084199793
 31
0.0
  0
LINE
  5
8A5
330
1F
100
AcDbEntity
  8
0
  6
Continuous
 62
     7
 48
5.0
100
AcDbLine
 10
792.1434393430273
 20
283.6882084199795
 30
0.0
 11
793.7184393430278
 21
283.6882084199795
 31
0.0
  0
LINE
  5
8A6
330
1F
100
AcDbEntity
  8
0
  6
Continuous
 62
     7
 48
5.0
100
AcDbLine
 10
792.1434393430273
 20
282.1132084199793
 30
0.0
 11
792.1434393430273
 21
283.6882084199795
 31
0.0
  0
LINE
  5
8A7
330
1F
100
AcDbEntity
  8
0
  6
Continuous
 62
     7
 48
5.0
100
AcDbLine
 10
791.0934393430283
 20
282.1132084199793
 30
0.0
 11
792.1434393430273
 21
282.1132084199793
 31
0.0
  0
LINE
  5
8A8
330
1F
100
AcDbEntity
  8
0
  6
Continuous
 62
     7
 48
5.0
100
AcDbLine
 10
791.0934393430283
 20
283.6882084199795
 30
0.0
 11
791.0934393430283
 21
282.1132084199793
 31
0.0
  0
LINE
  5
8A9
330
1F
100
AcDbEntity
  8
0
  6
Continuous
 62
     7
 48
5.0
100
AcDbLine
 10
789.5184393430273
 20
283.6882084199795
 30
0.0
 11
791.0934393430283
 21
283.6882084199795
 31
0.0
  0
LINE
  5
8AA
330
1F
100
AcDbEntity
  8
0
  6
Continuous
 62
     7
 48
5.0
100
AcDbLine
 10
789.5184393430273
 20
284.7382084199793
 30
0.0
 11
789.5184393430273
 21
283.6882084199795
 31
0.0
  0
LINE
  5
8AB
330
1F
100
AcDbEntity
  8
0
  6
Continuous
 62
     7
 48
5.0
100
AcDbLine
 10
791.0934393430283
 20
284.7382084199793
 30
0.0
 11
789.5184393430273
 21
284.7382084199793
 31
0.0
  0
LINE
  5
8AC
330
1F
100
AcDbEntity
  8
0
  6
Continuous
 62
     7
 48
5.0
100
AcDbLine
 10
791.0934393430283
 20
286.3132084199794
 30
0.0
 11
791.0934393430283
 21
284.7382084199793
 31
0.0
  0
LINE
  5
8AD
330
1F
100
AcDbEntity
  8
0
  6
Continuous
 62
     7
 48
5.0
100
AcDbLine
 10
792.1434393430273
 20
286.3132084199794
 30
0.0
 11
791.0934393430283
 21
286.3132084199794
 31
0.0
  0
LINE
  5
8AE
330
1F
100
AcDbEntity
  8
0
  6
Continuous
 62
     7
 48
5.0
100
AcDbLine
 10
792.1434393430273
 20
294.3142084199795
 30
0.0
 11
792.1434393430273
 21
294.3142084199795
 31
0.0
  0
LINE
  5
8AF
330
1F
100
AcDbEntity
  8
0
  6
Continuous
 62
     7
 48
5.0
100
AcDbLine
 10
792.1434393430273
 20
292.7392084199794
 30
0.0
 11
792.1434393430273
 21
294.3142084199795
 31
0.0
  0
LINE
  5
8B0
330
1F
100
AcDbEntity
  8
0
  6
Continuous
 62
     7
 48
5.0
100
AcDbLine
 10
793.7184393430278
 20
292.7392084199794
 30
0.0
 11
792.1434393430273
 21
292.7392084199794
 31
0.0
  0
LINE
  5
8B1
330
1F
100
AcDbEntity
  8
0
  6
Continuous
 62
     7
 48
5.0
100
AcDbLine
 10
793.7184393430278
 20
291.6892084199793
 30
0.0
 11
793.7184393430278
 21
292.7392084199794
 31
0.0
  0
LINE
  5
8B2
330
1F
100
AcDbEntity
  8
0
  6
Continuous
 62
     7
 48
5.0
100
AcDbLine
 10
792.1434393430273
 20
291.6892084199793
 30
0.0
 11
793.7184393430278
 21
291.6892084199793
 31
0.0
  0
LINE
  5
8B3
330
1F
100
AcDbEntity
  8
0
  6
Continuous
 62
     7
 48
5.0
100
AcDbLine
 10
792.1434393430273
 20
290.1142084199793
 30
0.0
 11
792.1434393430273
 21
291.6892084199793
 31
0.0
  0
LINE
  5
8B4
330
1F
100
AcDbEntity
  8
0
  6
Continuous
 62
     7
 48
5.0
100
AcDbLine
 10
791.0934393430283
 20
290.1142084199793
 30
0.0
 11
792.1434393430273
 21
290.1142084199793
 31
0.0
  0
LINE
  5
8B5
330
1F
100
AcDbEntity
  8
0
  6
Continuous
 62
     7
 48
5.0
100
AcDbLine
 10
791.0934393430283
 20
291.6892084199793
 30
0.0
 11
791.0934393430283
 21
290.1142084199793
 31
0.0
  0
LINE
  5
8B6
330
1F
100
AcDbEntity
  8
0
  6
Continuous
 62
     7
 48
5.0
100
AcDbLine
 10
789.5184393430273
 20
291.6892084199793
 30
0.0
 11
791.0934393430283
 21
291.6892084199793
 31
0.0
  0
LINE
  5
8B7
330
1F
100
AcDbEntity
  8
0
  6
Continuous
 62
     7
 48
5.0
100
AcDbLine
 10
789.5184393430273
 20
292.7392084199794
 30
0.0
 11
789.5184393430273
 21
291.6892084199793
 31
0.0
  0
LINE
  5
8B8
330
1F
100
AcDbEntity
  8
0
  6
Continuous
 62
     7
 48
5.0
100
AcDbLine
 10
791.0934393430283
 20
292.7392084199794
 30
0.0
 11
789.5184393430273
 21
292.7392084199794
 31
0.0
  0
LINE
  5
8B9
330
1F
100
AcDbEntity
  8
0
  6
Continuous
 62
     7
 48
5.0
100
AcDbLine
 10
791.0934393430283
 20
294.3142084199795
 30
0.0
 11
791.0934393430283
 21
292.7392084199794
 31
0.0
  0
LINE
  5
8BA
330
1F
100
AcDbEntity
  8
0
  6
Continuous
 62
     7
 48
5.0
100
AcDbLine
 10
792.1434393430273
 20
294.3142084199795
 30
0.0
 11
791.0934393430283
 21
294.3142084199795
 31
0.0
  0
LINE
  5
8BB
330
1F
100
AcDbEntity
  8
0
  6
Continuous
 62
     7
 48
5.0
100
AcDbLine
 10
800.3080433430271
 20
288.7843064199793
 30
0.0
 11
800.3080433430271
 21
287.7343064199795
 31
0.0
  0
LINE
  5
8BC
330
1F
100
AcDbEntity
  8
0
  6
Continuous
 62
     7
 48
5.0
100
AcDbLine
 10
792.1434393430273
 20
302.3152084199793
 30
0.0
 11
792.1434393430273
 21
302.3152084199793
 31
0.0
  0
LINE
  5
8BD
330
1F
100
AcDbEntity
  8
0
  6
Continuous
 62
     7
 48
5.0
100
AcDbLine
 10
792.1434393430273
 20
300.7402084199792
 30
0.0
 11
792.1434393430273
 21
302.3152084199793
 31
0.0
  0
LINE
  5
8BE
330
1F
100
AcDbEntity
  8
0
  6
Continuous
 62
     7
 48
5.0
100
AcDbLine
 10
793.7184393430278
 20
300.7402084199792
 30
0.0
 11
792.1434393430273
 21
300.7402084199792
 31
0.0
  0
LINE
  5
8BF
330
1F
100
AcDbEntity
  8
0
  6
Continuous
 62
     7
 48
5.0
100
AcDbLine
 10
793.7184393430278
 20
299.6902084199793
 30
0.0
 11
793.7184393430278
 21
300.7402084199792
 31
0.0
  0
LINE
  5
8C0
330
1F
100
AcDbEntity
  8
0
  6
Continuous
 62
     7
 48
5.0
100
AcDbLine
 10
792.1434393430273
 20
299.6902084199793
 30
0.0
 11
793.7184393430278
 21
299.6902084199793
 31
0.0
  0
LINE
  5
8C1
330
1F
100
AcDbEntity
  8
0
  6
Continuous
 62
     7
 48
5.0
100
AcDbLine
 10
792.1434393430273
 20
298.1152084199793
 30
0.0
 11
792.1434393430273
 21
299.6902084199793
 31
0.0
  0
LINE
  5
8C2
330
1F
100
AcDbEntity
  8
0
  6
Continuous
 62
     7
 48
5.0
100
AcDbLine
 10
791.0934393430283
 20
298.1152084199793
 30
0.0
 11
792.1434393430273
 21
298.1152084199793
 31
0.0
  0
LINE
  5
8C3
330
1F
100
AcDbEntity
  8
0
  6
Continuous
 62
     7
 48
5.0
100
AcDbLine
 10
791.0934393430283
 20
299.6902084199793
 30
0.0
 11
791.0934393430283
 21
298.1152084199793
 31
0.0
  0
LINE
  5
8C4
330
1F
100
AcDbEntity
  8
0
  6
Continuous
 62
     7
 48
5.0
100
AcDbLine
 10
789.5184393430273
 20
299.6902084199793
 30
0.0
 11
791.0934393430283
 21
299.6902084199793
 31
0.0
  0
LINE
  5
8C5
330
1F
100
AcDbEntity
  8
0
  6
Continuous
 62
     7
 48
5.0
100
AcDbLine
 10
789.5184393430273
 20
300.7402084199792
 30
0.0
 11
789.5184393430273
 21
299.6902084199793
 31
0.0
  0
LINE
  5
8C6
330
1F
100
AcDbEntity
  8
0
  6
Continuous
 62
     7
 48
5.0
100
AcDbLine
 10
791.0934393430283
 20
300.7402084199792
 30
0.0
 11
789.5184393430273
 21
300.7402084199792
 31
0.0
  0
LINE
  5
8C7
330
1F
100
AcDbEntity
  8
0
  6
Continuous
 62
     7
 48
5.0
100
AcDbLine
 10
791.0934393430283
 20
302.3152084199793
 30
0.0
 11
791.0934393430283
 21
300.7402084199792
 31
0.0
  0
LINE
  5
8C8
330
1F
100
AcDbEntity
  8
0
  6
Continuous
 62
     7
 48
5.0
100
AcDbLine
 10
792.1434393430273
 20
302.3152084199793
 30
0.0
 11
791.0934393430283
 21
302.3152084199793
 31
0.0
  0
LINE
  5
8C9
330
1F
100
AcDbEntity
  8
0
  6
Continuous
 62
     7
 48
5.0
100
AcDbLine
 10
800.3080433430271
 20
296.7853064199793
 30
0.0
 11
800.3080433430271
 21
295.7353064199791
 31
0.0
  0
LINE
  5
8CA
330
1F
100
AcDbEntity
  8
0
  6
Continuous
 62
     7
 48
5.0
100
AcDbLine
 10
796.5896393430278
 20
295.4847724199794
 30
0.0
 11
787.1396393430273
 21
295.4847724199794
 31
0.0
  0
LINE
  5
8CB
330
1F
100
AcDbEntity
  8
0
  6
Continuous
 62
     7
 48
5.0
100
AcDbLine
 10
796.5896393430278
 20
296.8707724199795
 30
0.0
 11
787.1396393430273
 21
296.8707724199795
 31
0.0
  0
LINE
  5
8CC
330
1F
100
AcDbEntity
  8
0
  6
Continuous
 62
     7
 48
5.0
100
AcDbLine
 10
796.5896393430278
 20
287.4837724199796
 30
0.0
 11
787.1396393430273
 21
287.4837724199796
 31
0.0
  0
LINE
  5
8CD
330
1F
100
AcDbEntity
  8
0
  6
Continuous
 62
     7
 48
5.0
100
AcDbLine
 10
796.5896393430278
 20
288.8697724199793
 30
0.0
 11
787.1396393430273
 21
288.8697724199793
 31
0.0
  0
LINE
  5
8CE
330
1F
100
AcDbEntity
  8
0
  6
Continuous
 62
     7
 48
5.0
100
AcDbLine
 10
802.9330433430272
 20
280.7833064199793
 30
0.0
 11
802.9330433430272
 21
282.3583064199794
 31
0.0
  0
LINE
  5
8CF
330
1F
100
AcDbEntity
  8
0
  6
Continuous
 62
     7
 48
5.0
100
AcDbLine
 10
801.8830433430283
 20
282.3583064199794
 30
0.0
 11
801.8830433430283
 21
280.7833064199793
 31
0.0
  0
LINE
  5
8D0
330
1F
100
AcDbEntity
  8
0
  6
Continuous
 62
     7
 48
5.0
100
AcDbLine
 10
802.9330433430272
 20
266.3563064199795
 30
0.0
 11
802.9330433430272
 21
266.3563064199795
 31
0.0
  0
LINE
  5
8D1
330
1F
100
AcDbEntity
  8
0
  6
Continuous
 62
     7
 48
5.0
100
AcDbLine
 10
802.9330433430272
 20
264.7813064199795
 30
0.0
 11
802.9330433430272
 21
266.3563064199795
 31
0.0
  0
LINE
  5
8D2
330
1F
100
AcDbEntity
  8
0
  6
Continuous
 62
     7
 48
5.0
100
AcDbLine
 10
804.5080433430282
 20
264.7813064199795
 30
0.0
 11
802.9330433430272
 21
264.7813064199795
 31
0.0
  0
LINE
  5
8D3
330
1F
100
AcDbEntity
  8
0
  6
Continuous
 62
     7
 48
5.0
100
AcDbLine
 10
804.5080433430282
 20
263.7313064199795
 30
0.0
 11
804.5080433430282
 21
264.7813064199795
 31
0.0
  0
LINE
  5
8D4
330
1F
100
AcDbEntity
  8
0
  6
Continuous
 62
     7
 48
5.0
100
AcDbLine
 10
802.9330433430272
 20
263.7313064199795
 30
0.0
 11
804.5080433430282
 21
263.7313064199795
 31
0.0
  0
LINE
  5
8D5
330
1F
100
AcDbEntity
  8
0
  6
Continuous
 62
     7
 48
5.0
100
AcDbLine
 10
802.9330433430272
 20
262.1563064199794
 30
0.0
 11
802.9330433430272
 21
263.7313064199795
 31
0.0
  0
LINE
  5
8D6
330
1F
100
AcDbEntity
  8
0
  6
Continuous
 62
     7
 48
5.0
100
AcDbLine
 10
801.8830433430283
 20
262.1563064199794
 30
0.0
 11
802.9330433430272
 21
262.1563064199794
 31
0.0
  0
LINE
  5
8D7
330
1F
100
AcDbEntity
  8
0
  6
Continuous
 62
     7
 48
5.0
100
AcDbLine
 10
801.8830433430283
 20
263.7313064199795
 30
0.0
 11
801.8830433430283
 21
262.1563064199794
 31
0.0
  0
LINE
  5
8D8
330
1F
100
AcDbEntity
  8
0
  6
Continuous
 62
     7
 48
5.0
100
AcDbLine
 10
801.8830433430283
 20
266.3563064199795
 30
0.0
 11
801.8830433430283
 21
264.7813064199795
 31
0.0
  0
LINE
  5
8D9
330
1F
100
AcDbEntity
  8
0
  6
Continuous
 62
     7
 48
5.0
100
AcDbLine
 10
802.9330433430272
 20
266.3563064199795
 30
0.0
 11
801.8830433430283
 21
266.3563064199795
 31
0.0
  0
LINE
  5
8DA
330
1F
100
AcDbEntity
  8
0
  6
Continuous
 62
     7
 48
5.0
100
AcDbLine
 10
802.9330433430272
 20
274.3573064199793
 30
0.0
 11
802.9330433430272
 21
274.3573064199793
 31
0.0
  0
LINE
  5
8DB
330
1F
100
AcDbEntity
  8
0
  6
Continuous
 62
     7
 48
5.0
100
AcDbLine
 10
802.9330433430272
 20
272.7823064199794
 30
0.0
 11
802.9330433430272
 21
274.3573064199793
 31
0.0
  0
LINE
  5
8DC
330
1F
100
AcDbEntity
  8
0
  6
Continuous
 62
     7
 48
5.0
100
AcDbLine
 10
804.5080433430282
 20
272.7823064199794
 30
0.0
 11
802.9330433430272
 21
272.7823064199794
 31
0.0
  0
LINE
  5
8DD
330
1F
100
AcDbEntity
  8
0
  6
Continuous
 62
     7
 48
5.0
100
AcDbLine
 10
804.5080433430282
 20
271.7323064199795
 30
0.0
 11
804.5080433430282
 21
272.7823064199794
 31
0.0
  0
LINE
  5
8DE
330
1F
100
AcDbEntity
  8
0
  6
Continuous
 62
     7
 48
5.0
100
AcDbLine
 10
802.9330433430272
 20
271.7323064199795
 30
0.0
 11
804.5080433430282
 21
271.7323064199795
 31
0.0
  0
LINE
  5
8DF
330
1F
100
AcDbEntity
  8
0
  6
Continuous
 62
     7
 48
5.0
100
AcDbLine
 10
802.9330433430272
 20
270.1573064199795
 30
0.0
 11
802.9330433430272
 21
271.7323064199795
 31
0.0
  0
LINE
  5
8E0
330
1F
100
AcDbEntity
  8
0
  6
Continuous
 62
     7
 48
5.0
100
AcDbLine
 10
801.8830433430283
 20
270.1573064199795
 30
0.0
 11
802.9330433430272
 21
270.1573064199795
 31
0.0
  0
LINE
  5
8E1
330
1F
100
AcDbEntity
  8
0
  6
Continuous
 62
     7
 48
5.0
100
AcDbLine
 10
801.8830433430283
 20
271.7323064199795
 30
0.0
 11
801.8830433430283
 21
270.1573064199795
 31
0.0
  0
LINE
  5
8E2
330
1F
100
AcDbEntity
  8
0
  6
Continuous
 62
     7
 48
5.0
100
AcDbLine
 10
801.8830433430283
 20
274.3573064199793
 30
0.0
 11
801.8830433430283
 21
272.7823064199794
 31
0.0
  0
LINE
  5
8E3
330
1F
100
AcDbEntity
  8
0
  6
Continuous
 62
     7
 48
5.0
100
AcDbLine
 10
802.9330433430272
 20
274.3573064199793
 30
0.0
 11
801.8830433430283
 21
274.3573064199793
 31
0.0
  0
LINE
  5
8E4
330
1F
100
AcDbEntity
  8
0
  6
Continuous
 62
     7
 48
5.0
100
AcDbLine
 10
802.4080433430277
 20
275.4073044199791
 30
0.0
 11
802.4080433430277
 21
275.4073044199791
 31
0.0
  0
LINE
  5
8E5
330
1F
100
AcDbEntity
  8
0
  6
Continuous
 62
     7
 48
5.0
100
AcDbLine
 10
804.5080433430282
 20
280.7833064199793
 30
0.0
 11
802.9330433430272
 21
280.7833064199793
 31
0.0
  0
LINE
  5
8E6
330
1F
100
AcDbEntity
  8
0
  6
Continuous
 62
     7
 48
5.0
100
AcDbLine
 10
804.5080433430282
 20
279.7333064199793
 30
0.0
 11
804.5080433430282
 21
280.7833064199793
 31
0.0
  0
LINE
  5
8E7
330
1F
100
AcDbEntity
  8
0
  6
Continuous
 62
     7
 48
5.0
100
AcDbLine
 10
802.9330433430272
 20
279.7333064199793
 30
0.0
 11
804.5080433430282
 21
279.7333064199793
 31
0.0
  0
LINE
  5
8E8
330
1F
100
AcDbEntity
  8
0
  6
Continuous
 62
     7
 48
5.0
100
AcDbLine
 10
802.9330433430272
 20
278.1583064199791
 30
0.0
 11
802.9330433430272
 21
279.7333064199793
 31
0.0
  0
LINE
  5
8E9
330
1F
100
AcDbEntity
  8
0
  6
Continuous
 62
     7
 48
5.0
100
AcDbLine
 10
801.8830433430283
 20
278.1583064199791
 30
0.0
 11
802.9330433430272
 21
278.1583064199791
 31
0.0
  0
LINE
  5
8EA
330
1F
100
AcDbEntity
  8
0
  6
Continuous
 62
     7
 48
5.0
100
AcDbLine
 10
801.8830433430283
 20
279.7333064199793
 30
0.0
 11
801.8830433430283
 21
278.1583064199791
 31
0.0
  0
LINE
  5
8EB
330
1F
100
AcDbEntity
  8
0
  6
Continuous
 62
     7
 48
5.0
100
AcDbLine
 10
802.9330433430272
 20
282.3583064199794
 30
0.0
 11
802.9330433430272
 21
282.3583064199794
 31
0.0
  0
LINE
  5
8EC
330
1F
100
AcDbEntity
  8
0
  6
Continuous
 62
     7
 48
5.0
100
AcDbLine
 10
802.9330433430272
 20
282.3583064199794
 30
0.0
 11
801.8830433430283
 21
282.3583064199794
 31
0.0
  0
LINE
  5
8ED
330
1F
100
AcDbEntity
  8
0
  6
Continuous
 62
     7
 48
5.0
100
AcDbLine
 10
802.9330433430272
 20
290.3593064199796
 30
0.0
 11
802.9330433430272
 21
290.3593064199796
 31
0.0
  0
LINE
  5
8EE
330
1F
100
AcDbEntity
  8
0
  6
Continuous
 62
     7
 48
5.0
100
AcDbLine
 10
802.9330433430272
 20
288.7843064199793
 30
0.0
 11
802.9330433430272
 21
290.3593064199796
 31
0.0
  0
LINE
  5
8EF
330
1F
100
AcDbEntity
  8
0
  6
Continuous
 62
     7
 48
5.0
100
AcDbLine
 10
804.5080433430282
 20
288.7843064199793
 30
0.0
 11
802.9330433430272
 21
288.7843064199793
 31
0.0
  0
LINE
  5
8F0
330
1F
100
AcDbEntity
  8
0
  6
Continuous
 62
     7
 48
5.0
100
AcDbLine
 10
804.5080433430282
 20
287.7343064199795
 30
0.0
 11
804.5080433430282
 21
288.7843064199793
 31
0.0
  0
LINE
  5
8F1
330
1F
100
AcDbEntity
  8
0
  6
Continuous
 62
     7
 48
5.0
100
AcDbLine
 10
802.9330433430272
 20
287.7343064199795
 30
0.0
 11
804.5080433430282
 21
287.7343064199795
 31
0.0
  0
LINE
  5
8F2
330
1F
100
AcDbEntity
  8
0
  6
Continuous
 62
     7
 48
5.0
100
AcDbLine
 10
802.9330433430272
 20
286.1593064199794
 30
0.0
 11
802.9330433430272
 21
287.7343064199795
 31
0.0
  0
LINE
  5
8F3
330
1F
100
AcDbEntity
  8
0
  6
Continuous
 62
     7
 48
5.0
100
AcDbLine
 10
801.8830433430283
 20
286.1593064199794
 30
0.0
 11
802.9330433430272
 21
286.1593064199794
 31
0.0
  0
LINE
  5
8F4
330
1F
100
AcDbEntity
  8
0
  6
Continuous
 62
     7
 48
5.0
100
AcDbLine
 10
801.8830433430283
 20
287.7343064199795
 30
0.0
 11
801.8830433430283
 21
286.1593064199794
 31
0.0
  0
LINE
  5
8F5
330
1F
100
AcDbEntity
  8
0
  6
Continuous
 62
     7
 48
5.0
100
AcDbLine
 10
801.8830433430283
 20
290.3593064199796
 30
0.0
 11
801.8830433430283
 21
288.7843064199793
 31
0.0
  0
LINE
  5
8F6
330
1F
100
AcDbEntity
  8
0
  6
Continuous
 62
     7
 48
5.0
100
AcDbLine
 10
802.9330433430272
 20
290.3593064199796
 30
0.0
 11
801.8830433430283
 21
290.3593064199796
 31
0.0
  0
LINE
  5
8F7
330
1F
100
AcDbEntity
  8
0
  6
Continuous
 62
     7
 48
5.0
100
AcDbLine
 10
802.9330433430272
 20
298.3603064199793
 30
0.0
 11
802.9330433430272
 21
298.3603064199793
 31
0.0
  0
LINE
  5
8F8
330
1F
100
AcDbEntity
  8
0
  6
Continuous
 62
     7
 48
5.0
100
AcDbLine
 10
802.9330433430272
 20
296.7853064199793
 30
0.0
 11
802.9330433430272
 21
298.3603064199793
 31
0.0
  0
LINE
  5
8F9
330
1F
100
AcDbEntity
  8
0
  6
Continuous
 62
     7
 48
5.0
100
AcDbLine
 10
804.5080433430282
 20
296.7853064199793
 30
0.0
 11
802.9330433430272
 21
296.7853064199793
 31
0.0
  0
LINE
  5
8FA
330
1F
100
AcDbEntity
  8
0
  6
Continuous
 62
     7
 48
5.0
100
AcDbLine
 10
804.5080433430282
 20
295.7353064199791
 30
0.0
 11
804.5080433430282
 21
296.7853064199793
 31
0.0
  0
LINE
  5
8FB
330
1F
100
AcDbEntity
  8
0
  6
Continuous
 62
     7
 48
5.0
100
AcDbLine
 10
802.9330433430272
 20
295.7353064199791
 30
0.0
 11
804.5080433430282
 21
295.7353064199791
 31
0.0
  0
LINE
  5
8FC
330
1F
100
AcDbEntity
  8
0
  6
Continuous
 62
     7
 48
5.0
100
AcDbLine
 10
802.9330433430272
 20
294.1603064199793
 30
0.0
 11
802.9330433430272
 21
295.7353064199791
 31
0.0
  0
LINE
  5
8FD
330
1F
100
AcDbEntity
  8
0
  6
Continuous
 62
     7
 48
5.0
100
AcDbLine
 10
801.8830433430283
 20
294.1603064199793
 30
0.0
 11
802.9330433430272
 21
294.1603064199793
 31
0.0
  0
LINE
  5
8FE
330
1F
100
AcDbEntity
  8
0
  6
Continuous
 62
     7
 48
5.0
100
AcDbLine
 10
801.8830433430283
 20
295.7353064199791
 30
0.0
 11
801.8830433430283
 21
294.1603064199793
 31
0.0
  0
LINE
  5
8FF
330
1F
100
AcDbEntity
  8
0
  6
Continuous
 62
     7
 48
5.0
100
AcDbLine
 10
801.8830433430283
 20
298.3603064199793
 30
0.0
 11
801.8830433430283
 21
296.7853064199793
 31
0.0
  0
LINE
  5
900
330
1F
100
AcDbEntity
  8
0
  6
Continuous
 62
     7
 48
5.0
100
AcDbLine
 10
802.9330433430272
 20
298.3603064199793
 30
0.0
 11
801.8830433430283
 21
298.3603064199793
 31
0.0
  0
LINE
  5
901
330
1F
100
AcDbEntity
  8
0
  6
Continuous
 62
     7
 48
5.0
100
AcDbLine
 10
801.8830433430283
 20
302.1613064199795
 30
0.0
 11
802.9330433430272
 21
302.1613064199795
 31
0.0
  0
LINE
  5
902
330
1F
100
AcDbEntity
  8
0
  6
Continuous
 62
     7
100
AcDbLine
 10
869.0896393430282
 20
103.0590144199793
 30
0.0
 11
835.5896393430281
 21
103.0590144199793
 31
0.0
  0
LINE
  5
903
330
1F
100
AcDbEntity
  8
0
  6
Continuous
 62
     7
100
AcDbLine
 10
879.0896393430278
 20
118.0590144199795
 30
0.0
 11
851.0896393430277
 21
118.0590144199795
 31
0.0
  0
LINE
  5
904
330
1F
100
AcDbEntity
  8
0
  6
Continuous
 62
     7
100
AcDbLine
 10
833.5896393430278
 20
105.0590144199794
 30
0.0
 11
833.5896393430278
 21
116.0590144199793
 31
0.0
  0
ARC
  5
905
330
1F
100
AcDbEntity
  8
0
  6
Continuous
 62
     7
100
AcDbCircle
 10
835.5896378488774
 20
105.0590129258287
 30
0.0
 40
1.999998505850374
100
AcDbArc
 50
179.9999571957175
 51
270.0000428042919
  0
CIRCLE
  5
906
330
1F
100
AcDbEntity
  8
0
  6
Continuous
 62
     7
100
AcDbCircle
 10
844.0896422117962
 20
128.059041288748
 30
0.0
 40
3.839997131232212
  0
CIRCLE
  5
907
330
1F
100
AcDbEntity
  8
0
  6
Continuous
 62
     7
100
AcDbCircle
 10
844.0896422117962
 20
128.059041288748
 30
0.0
 40
2.995197131232778
  0
ARC
  5
908
330
1F
100
AcDbEntity
  8
0
  6
Continuous
 62
     7
100
AcDbCircle
 10
844.0896393430282
 20
128.0590144199794
 30
0.0
 40
5.0
100
AcDbArc
 50
0.0
 51
180.0
  0
LINE
  5
909
330
1F
100
AcDbEntity
  8
0
  6
Continuous
 62
     7
 48
6.0
100
AcDbLine
 10
846.0864413430277
 20
127.5598384199795
 30
0.0
 11
846.0864413430277
 21
127.5598384199795
 31
0.0
  0
LINE
  5
90A
330
1F
100
AcDbEntity
  8
0
  6
Continuous
 62
     7
 48
6.0
100
AcDbLine
 10
844.5888413430278
 20
127.5598384199795
 30
0.0
 11
846.0864413430277
 21
127.5598384199795
 31
0.0
  0
LINE
  5
90B
330
1F
100
AcDbEntity
  8
0
  6
Continuous
 62
     7
 48
6.0
100
AcDbLine
 10
844.5888413430278
 20
126.0622384199792
 30
0.0
 11
844.5888413430278
 21
127.5598384199795
 31
0.0
  0
LINE
  5
90C
330
1F
100
AcDbEntity
  8
0
  6
Continuous
 62
     7
 48
6.0
100
AcDbLine
 10
843.5904413430282
 20
126.0622384199792
 30
0.0
 11
844.5888413430278
 21
126.0622384199792
 31
0.0
  0
LINE
  5
90D
330
1F
100
AcDbEntity
  8
0
  6
Continuous
 62
     7
 48
6.0
100
AcDbLine
 10
843.5904413430282
 20
127.5598384199795
 30
0.0
 11
843.5904413430282
 21
126.0622384199792
 31
0.0
  0
LINE
  5
90E
330
1F
100
AcDbEntity
  8
0
  6
Continuous
 62
     7
 48
6.0
100
AcDbLine
 10
842.0928413430273
 20
127.5598384199795
 30
0.0
 11
843.5904413430282
 21
127.5598384199795
 31
0.0
  0
LINE
  5
90F
330
1F
100
AcDbEntity
  8
0
  6
Continuous
 62
     7
 48
6.0
100
AcDbLine
 10
842.0928413430273
 20
128.5582384199791
 30
0.0
 11
842.0928413430273
 21
127.5598384199795
 31
0.0
  0
LINE
  5
910
330
1F
100
AcDbEntity
  8
0
  6
Continuous
 62
     7
 48
6.0
100
AcDbLine
 10
843.5904413430282
 20
128.5582384199791
 30
0.0
 11
842.0928413430273
 21
128.5582384199791
 31
0.0
  0
LINE
  5
911
330
1F
100
AcDbEntity
  8
0
  6
Continuous
 62
     7
 48
6.0
100
AcDbLine
 10
843.5904413430282
 20
130.0558384199792
 30
0.0
 11
843.5904413430282
 21
128.5582384199791
 31
0.0
  0
LINE
  5
912
330
1F
100
AcDbEntity
  8
0
  6
Continuous
 62
     7
 48
6.0
100
AcDbLine
 10
844.5888413430278
 20
130.0558384199792
 30
0.0
 11
843.5904413430282
 21
130.0558384199792
 31
0.0
  0
LINE
  5
913
330
1F
100
AcDbEntity
  8
0
  6
Continuous
 62
     7
 48
6.0
100
AcDbLine
 10
844.5888413430278
 20
128.5582384199791
 30
0.0
 11
844.5888413430278
 21
130.0558384199792
 31
0.0
  0
LINE
  5
914
330
1F
100
AcDbEntity
  8
0
  6
Continuous
 62
     7
 48
6.0
100
AcDbLine
 10
846.0864413430277
 20
128.5582384199791
 30
0.0
 11
844.5888413430278
 21
128.5582384199791
 31
0.0
  0
LINE
  5
915
330
1F
100
AcDbEntity
  8
0
  6
Continuous
 62
     7
 48
6.0
100
AcDbLine
 10
846.0864413430277
 20
127.5598384199795
 30
0.0
 11
846.0864413430277
 21
128.5582384199791
 31
0.0
  0
ARC
  5
916
330
1F
100
AcDbEntity
  8
0
  6
Continuous
 62
     7
100
AcDbCircle
 10
829.0896398056302
 20
116.0590167976553
 30
0.0
 40
4.499999537397742
100
AcDbArc
 50
359.9999697264835
 51
26.38776908881746
  0
LINE
  5
917
330
1F
100
AcDbEntity
  8
0
  6
Continuous
 62
     7
100
AcDbLine
 10
839.0896393430281
 20
120.0590144199793
 30
0.0
 11
837.0896393430278
 21
118.0590144199795
 31
0.0
  0
LINE
  5
918
330
1F
100
AcDbEntity
  8
0
  6
Continuous
 62
     7
100
AcDbLine
 10
839.0896393430281
 20
128.0590144199794
 30
0.0
 11
839.0896393430281
 21
120.0590144199793
 31
0.0
  0
LINE
  5
919
330
1F
100
AcDbEntity
  8
0
  6
Continuous
 62
     7
100
AcDbLine
 10
849.0896393430283
 20
128.0590144199794
 30
0.0
 11
849.0896393430283
 21
120.0590144199793
 31
0.0
  0
LINE
  5
91A
330
1F
100
AcDbEntity
  8
0
  6
Continuous
 62
     7
100
AcDbLine
 10
851.0896393430277
 20
118.0590144199795
 30
0.0
 11
849.0896393430283
 21
120.0590144199793
 31
0.0
  0
LINE
  5
91B
330
1F
100
AcDbEntity
  8
0
  6
Continuous
 62
     7
100
AcDbLine
 10
874.0896393430283
 20
118.0590144199795
 30
0.0
 11
874.0896393430283
 21
108.0590144199794
 31
0.0
  0
ARC
  5
91C
330
1F
100
AcDbEntity
  8
0
  6
Continuous
 62
     7
100
AcDbCircle
 10
869.0896430784036
 20
108.0590106846033
 30
0.0
 40
4.99999626462548
100
AcDbArc
 50
269.9999571957111
 51
0.0000428042888088
  0
CIRCLE
  5
91D
330
1F
100
AcDbEntity
  8
0
  6
Continuous
 62
     7
100
AcDbCircle
 10
829.0896395842533
 20
390.0590326612046
 30
0.0
 40
2.999997758775448
  0
CIRCLE
  5
91E
330
1F
100
AcDbEntity
  8
0
  6
Continuous
 62
     7
100
AcDbCircle
 10
832.5665728371783
 20
329.8390129258291
 30
0.0
 40
1.999998505850147
  0
CIRCLE
  5
91F
330
1F
100
AcDbEntity
  8
0
  6
Continuous
 62
     7
100
AcDbCircle
 10
832.5665248371784
 20
334.9390129258285
 30
0.0
 40
1.999998505850147
  0
CIRCLE
  5
920
330
1F
100
AcDbEntity
  8
0
  6
Continuous
 62
     7
100
AcDbCircle
 10
832.5664768371778
 20
340.0390129258291
 30
0.0
 40
1.999998505850374
  0
CIRCLE
  5
921
330
1F
100
AcDbEntity
  8
0
  6
Continuous
 62
     7
100
AcDbCircle
 10
832.5664288371777
 20
347.5590129258288
 30
0.0
 40
1.999998505850147
  0
CIRCLE
  5
922
330
1F
100
AcDbEntity
  8
0
  6
Continuous
 62
     7
100
AcDbCircle
 10
832.5664428371782
 20
352.6590129258291
 30
0.0
 40
1.99999850585026
  0
CIRCLE
  5
923
330
1F
100
AcDbEntity
  8
0
  6
Continuous
 62
     7
100
AcDbCircle
 10
832.5664548371781
 20
357.7590129258293
 30
0.0
 40
1.999998505850374
  0
CIRCLE
  5
924
330
1F
100
AcDbEntity
  8
0
  6
Continuous
 62
     7
100
AcDbCircle
 10
832.5664688371777
 20
362.8590129258292
 30
0.0
 40
1.99999850585026
  0
CIRCLE
  5
925
330
1F
100
AcDbEntity
  8
0
  6
Continuous
 62
     7
100
AcDbCircle
 10
832.5664828371778
 20
367.9590129258284
 30
0.0
 40
1.999998505850147
  0
CIRCLE
  5
926
330
1F
100
AcDbEntity
  8
0
  6
Continuous
 62
     7
100
AcDbCircle
 10
832.5664948371782
 20
373.0590129258291
 30
0.0
 40
1.999998505850374
  0
ARC
  5
927
330
1F
100
AcDbEntity
  8
0
  6
Continuous
 62
     7
100
AcDbCircle
 10
829.0896393430278
 20
407.0590133218638
 30
0.0
 40
9.000000401883811
100
AcDbArc
 50
119.9999985228646
 51
60.00000147713524
  0
ARC
  5
928
330
1F
100
AcDbEntity
  8
0
  6
Continuous
 62
     7
100
AcDbCircle
 10
829.0896393430278
 20
416.0590144199793
 30
0.0
 40
4.499999999999769
100
AcDbArc
 50
0.0
 51
180.0
  0
LINE
  5
929
330
1F
100
AcDbEntity
  8
0
  6
Continuous
 62
     7
100
AcDbLine
 10
869.0896393430282
 20
428.0590144199791
 30
0.0
 11
789.0896393430282
 21
428.0590144199791
 31
0.0
  0
LINE
  5
92A
330
1F
100
AcDbEntity
  8
0
  6
Continuous
 62
     7
100
AcDbLine
 10
779.0896393430279
 20
398.0590144199796
 30
0.0
 11
879.0896393430278
 21
398.0590144199796
 31
0.0
  0
LINE
  5
92B
330
1F
100
AcDbEntity
  8
0
  6
Continuous
 62
     7
100
AcDbLine
 10
623.4774653430279
 20
347.5282064199794
 30
0.0
 11
623.4774653430279
 21
340.9132064199795
 31
0.0
  0
LINE
  5
92C
330
1F
100
AcDbEntity
  8
0
  6
Continuous
 62
     7
100
AcDbLine
 10
625.9774653430281
 20
345.2707064199793
 30
0.0
 11
625.9774653430281
 21
343.1707064199795
 31
0.0
  0
LINE
  5
92D
330
1F
100
AcDbEntity
  8
0
  6
Continuous
 62
     7
100
AcDbLine
 10
623.4774653430279
 20
341.5957064199793
 30
0.0
 11
624.4774653430279
 21
341.5957064199793
 31
0.0
  0
LINE
  5
92E
330
1F
100
AcDbEntity
  8
0
  6
Continuous
 62
     7
100
AcDbLine
 10
623.4774653430279
 20
333.5947064199795
 30
0.0
 11
624.4774653430279
 21
333.5947064199795
 31
0.0
  0
LINE
  5
92F
330
1F
100
AcDbEntity
  8
0
  6
Continuous
 62
     7
100
AcDbLine
 10
623.4774653430279
 20
338.8447064199795
 30
0.0
 11
624.4774653430279
 21
338.8447064199795
 31
0.0
  0
LINE
  5
930
330
1F
100
AcDbEntity
  8
0
  6
Continuous
 62
     7
100
AcDbLine
 10
623.4774653430279
 20
325.5937064199795
 30
0.0
 11
624.4774653430279
 21
325.5937064199795
 31
0.0
  0
LINE
  5
931
330
1F
100
AcDbEntity
  8
0
  6
Continuous
 62
     7
100
AcDbLine
 10
623.4774653430279
 20
330.8437064199793
 30
0.0
 11
624.4774653430279
 21
330.8437064199793
 31
0.0
  0
LINE
  5
932
330
1F
100
AcDbEntity
  8
0
  6
Continuous
 62
     7
100
AcDbLine
 10
623.4774653430279
 20
317.5927064199794
 30
0.0
 11
624.4774653430279
 21
317.5927064199794
 31
0.0
  0
LINE
  5
933
330
1F
100
AcDbEntity
  8
0
  6
Continuous
 62
     7
100
AcDbLine
 10
623.4774653430279
 20
322.8427064199795
 30
0.0
 11
624.4774653430279
 21
322.8427064199795
 31
0.0
  0
LINE
  5
934
330
1F
100
AcDbEntity
  8
0
  6
Continuous
 62
     7
100
AcDbLine
 10
623.4774653430279
 20
309.5917064199795
 30
0.0
 11
624.4774653430279
 21
309.5917064199795
 31
0.0
  0
LINE
  5
935
330
1F
100
AcDbEntity
  8
0
  6
Continuous
 62
     7
100
AcDbLine
 10
623.4774653430279
 20
314.8417064199795
 30
0.0
 11
624.4774653430279
 21
314.8417064199795
 31
0.0
  0
LINE
  5
936
330
1F
100
AcDbEntity
  8
0
  6
Continuous
 62
     7
100
AcDbLine
 10
623.4774653430279
 20
306.8407064199793
 30
0.0
 11
624.4774653430279
 21
306.8407064199793
 31
0.0
  0
LINE
  5
937
330
1F
100
AcDbEntity
  8
0
  6
Continuous
 62
     7
100
AcDbLine
 10
622.4774653430281
 20
307.5232064199795
 30
0.0
 11
628.4774653430281
 21
307.5232064199795
 31
0.0
  0
LINE
  5
938
330
1F
100
AcDbEntity
  8
0
  6
Continuous
 62
     7
100
AcDbLine
 10
622.4774653430281
 20
308.9092064199795
 30
0.0
 11
628.4774653430281
 21
308.9092064199795
 31
0.0
  0
LINE
  5
939
330
1F
100
AcDbEntity
  8
0
  6
Continuous
 62
     7
100
AcDbLine
 10
622.4774653430281
 20
315.5242064199796
 30
0.0
 11
628.4774653430281
 21
315.5242064199796
 31
0.0
  0
LINE
  5
93A
330
1F
100
AcDbEntity
  8
0
  6
Continuous
 62
     7
100
AcDbLine
 10
622.4774653430281
 20
316.9102064199794
 30
0.0
 11
628.4774653430281
 21
316.9102064199794
 31
0.0
  0
LINE
  5
93B
330
1F
100
AcDbEntity
  8
0
  6
Continuous
 62
     7
100
AcDbLine
 10
622.4774653430281
 20
323.5252064199794
 30
0.0
 11
628.4774653430281
 21
323.5252064199794
 31
0.0
  0
LINE
  5
93C
330
1F
100
AcDbEntity
  8
0
  6
Continuous
 62
     7
100
AcDbLine
 10
628.4774653430281
 20
324.9112064199793
 30
0.0
 11
622.4774653430281
 21
324.9112064199793
 31
0.0
  0
LINE
  5
93D
330
1F
100
AcDbEntity
  8
0
  6
Continuous
 62
     7
100
AcDbLine
 10
628.4774653430281
 20
332.9122064199795
 30
0.0
 11
622.4774653430281
 21
332.9122064199795
 31
0.0
  0
LINE
  5
93E
330
1F
100
AcDbEntity
  8
0
  6
Continuous
 62
     7
100
AcDbLine
 10
622.4774653430281
 20
331.5262064199793
 30
0.0
 11
628.4774653430281
 21
331.5262064199793
 31
0.0
  0
LINE
  5
93F
330
1F
100
AcDbEntity
  8
0
  6
Continuous
 62
     7
100
AcDbLine
 10
622.4774653430281
 20
339.5272064199795
 30
0.0
 11
628.4774653430281
 21
339.5272064199795
 31
0.0
  0
LINE
  5
940
330
1F
100
AcDbEntity
  8
0
  6
Continuous
 62
     7
100
AcDbLine
 10
628.4774653430281
 20
340.9132064199795
 30
0.0
 11
622.4774653430281
 21
340.9132064199795
 31
0.0
  0
LINE
  5
941
330
1F
100
AcDbEntity
  8
0
  6
Continuous
 62
     7
100
AcDbLine
 10
615.4774653430279
 20
327.5257064199795
 30
0.0
 11
615.4774653430279
 21
320.9107064199795
 31
0.0
  0
LINE
  5
942
330
1F
100
AcDbEntity
  8
0
  6
Continuous
 62
     7
100
AcDbLine
 10
617.9774653430281
 20
325.2682064199793
 30
0.0
 11
617.9774653430281
 21
323.1682064199795
 31
0.0
  0
LINE
  5
943
330
1F
100
AcDbEntity
  8
0
  6
Continuous
 62
     7
100
AcDbLine
 10
623.4774653430279
 20
323.5252064199794
 30
0.0
 11
623.4774653430279
 21
316.9102064199794
 31
0.0
  0
LINE
  5
944
330
1F
100
AcDbEntity
  8
0
  6
Continuous
 62
     7
100
AcDbLine
 10
615.4774653430279
 20
321.5932064199793
 30
0.0
 11
616.4774653430279
 21
321.5932064199793
 31
0.0
  0
LINE
  5
945
330
1F
100
AcDbEntity
  8
0
  6
Continuous
 62
     7
100
AcDbLine
 10
615.4774653430279
 20
319.5247064199794
 30
0.0
 11
615.4774653430279
 21
312.9097064199795
 31
0.0
  0
LINE
  5
946
330
1F
100
AcDbEntity
  8
0
  6
Continuous
 62
     7
100
AcDbLine
 10
615.4774653430279
 20
313.5922064199795
 30
0.0
 11
616.4774653430279
 21
313.5922064199795
 31
0.0
  0
LINE
  5
947
330
1F
100
AcDbEntity
  8
0
  6
Continuous
 62
     7
100
AcDbLine
 10
615.4774653430279
 20
318.8422064199794
 30
0.0
 11
616.4774653430279
 21
318.8422064199794
 31
0.0
  0
LINE
  5
948
330
1F
100
AcDbEntity
  8
0
  6
Continuous
 62
     7
100
AcDbLine
 10
617.9774653430281
 20
317.2672064199793
 30
0.0
 11
617.9774653430281
 21
315.1672064199793
 31
0.0
  0
LINE
  5
949
330
1F
100
AcDbEntity
  8
0
  6
Continuous
 62
     7
100
AcDbLine
 10
623.4774653430279
 20
315.5242064199796
 30
0.0
 11
623.4774653430279
 21
308.9092064199795
 31
0.0
  0
LINE
  5
94A
330
1F
100
AcDbEntity
  8
0
  6
Continuous
 62
     7
100
AcDbLine
 10
615.4774653430279
 20
311.5237064199793
 30
0.0
 11
615.4774653430279
 21
304.9087064199795
 31
0.0
  0
LINE
  5
94B
330
1F
100
AcDbEntity
  8
0
  6
Continuous
 62
     7
100
AcDbLine
 10
615.4774653430279
 20
305.5912064199795
 30
0.0
 11
616.4774653430279
 21
305.5912064199795
 31
0.0
  0
LINE
  5
94C
330
1F
100
AcDbEntity
  8
0
  6
Continuous
 62
     7
100
AcDbLine
 10
615.4774653430279
 20
310.8412064199796
 30
0.0
 11
616.4774653430279
 21
310.8412064199796
 31
0.0
  0
LINE
  5
94D
330
1F
100
AcDbEntity
  8
0
  6
Continuous
 62
     7
100
AcDbLine
 10
617.9774653430281
 20
309.2662064199795
 30
0.0
 11
617.9774653430281
 21
307.1662064199795
 31
0.0
  0
LINE
  5
94E
330
1F
100
AcDbEntity
  8
0
  6
Continuous
 62
     7
100
AcDbLine
 10
615.4774653430279
 20
302.8402064199795
 30
0.0
 11
616.4774653430279
 21
302.8402064199795
 31
0.0
  0
LINE
  5
94F
330
1F
100
AcDbEntity
  8
0
  6
Continuous
 62
     7
100
AcDbLine
 10
614.4774653430281
 20
303.5227064199795
 30
0.0
 11
622.4774653430281
 21
303.5227064199795
 31
0.0
  0
LINE
  5
950
330
1F
100
AcDbEntity
  8
0
  6
Continuous
 62
     7
100
AcDbLine
 10
622.4774653430281
 20
304.9087064199795
 30
0.0
 11
614.4774653430281
 21
304.9087064199795
 31
0.0
  0
LINE
  5
951
330
1F
100
AcDbEntity
  8
0
  6
Continuous
 62
     7
100
AcDbLine
 10
614.4774653430281
 20
311.5237064199793
 30
0.0
 11
622.4774653430281
 21
311.5237064199793
 31
0.0
  0
LINE
  5
952
330
1F
100
AcDbEntity
  8
0
  6
Continuous
 62
     7
100
AcDbLine
 10
622.4774653430281
 20
312.9097064199795
 30
0.0
 11
614.4774653430281
 21
312.9097064199795
 31
0.0
  0
LINE
  5
953
330
1F
100
AcDbEntity
  8
0
  6
Continuous
 62
     7
100
AcDbLine
 10
614.4774653430281
 20
319.5247064199794
 30
0.0
 11
622.4774653430281
 21
319.5247064199794
 31
0.0
  0
LINE
  5
954
330
1F
100
AcDbEntity
  8
0
  6
Continuous
 62
     7
100
AcDbLine
 10
622.4774653430281
 20
320.9107064199795
 30
0.0
 11
614.4774653430281
 21
320.9107064199795
 31
0.0
  0
ELLIPSE
  5
955
330
1F
100
AcDbEntity
  8
0
  6
Continuous
 62
     7
100
AcDbEllipse
 10
616.4774653430279
 20
309.2662064199795
 30
0.0
 11
0.0
 21
-1.575000047683715
 31
0.0
210
0.0
220
0.0
230
1.0
 40
0.9523809999999999
 41
1.570796326794896
 42
3.141592697301183
  0
ELLIPSE
  5
956
330
1F
100
AcDbEntity
  8
0
  6
Continuous
 62
     7
100
AcDbEllipse
 10
616.4774653430279
 20
307.1662064199795
 30
0.0
 11
0.0
 21
-1.575000047683715
 31
0.0
210
0.0
220
0.0
230
1.0
 40
0.9523809999999999
 41
0.0
 42
1.570796326794896
  0
ELLIPSE
  5
957
330
1F
100
AcDbEntity
  8
0
  6
Continuous
 62
     7
100
AcDbEllipse
 10
616.4774653430279
 20
317.2672064199793
 30
0.0
 11
0.0
 21
-1.575000047683715
 31
0.0
210
0.0
220
0.0
230
1.0
 40
0.9523809999999999
 41
1.570796326794896
 42
3.141592697301183
  0
ELLIPSE
  5
958
330
1F
100
AcDbEntity
  8
0
  6
Continuous
 62
     7
100
AcDbEllipse
 10
616.4774653430279
 20
315.1672064199793
 30
0.0
 11
0.0
 21
-1.575000047683715
 31
0.0
210
0.0
220
0.0
230
1.0
 40
0.9523809999999999
 41
0.0
 42
1.570796326794896
  0
ELLIPSE
  5
959
330
1F
100
AcDbEntity
  8
0
  6
Continuous
 62
     7
100
AcDbEllipse
 10
616.4774653430279
 20
323.1682064199795
 30
0.0
 11
0.0
 21
-1.575000047683715
 31
0.0
210
0.0
220
0.0
230
1.0
 40
0.9523809999999999
 41
0.0
 42
1.570796326794896
  0
LINE
  5
95A
330
1F
100
AcDbEntity
  8
0
  6
Continuous
 62
     7
100
AcDbLine
 10
615.4774653430279
 20
343.5277064199794
 30
0.0
 11
615.4774653430279
 21
336.9127064199795
 31
0.0
  0
LINE
  5
95B
330
1F
100
AcDbEntity
  8
0
  6
Continuous
 62
     7
100
AcDbLine
 10
615.4774653430279
 20
337.5952064199793
 30
0.0
 11
616.4774653430279
 21
337.5952064199793
 31
0.0
  0
LINE
  5
95C
330
1F
100
AcDbEntity
  8
0
  6
Continuous
 62
     7
100
AcDbLine
 10
615.4774653430279
 20
342.8452064199793
 30
0.0
 11
616.4774653430279
 21
342.8452064199793
 31
0.0
  0
LINE
  5
95D
330
1F
100
AcDbEntity
  8
0
  6
Continuous
 62
     7
100
AcDbLine
 10
617.9774653430281
 20
341.2702064199793
 30
0.0
 11
617.9774653430281
 21
339.1702064199793
 31
0.0
  0
LINE
  5
95E
330
1F
100
AcDbEntity
  8
0
  6
Continuous
 62
     7
100
AcDbLine
 10
623.4774653430279
 20
339.5272064199795
 30
0.0
 11
623.4774653430279
 21
332.9122064199795
 31
0.0
  0
LINE
  5
95F
330
1F
100
AcDbEntity
  8
0
  6
Continuous
 62
     7
100
AcDbLine
 10
615.4774653430279
 20
335.5267064199795
 30
0.0
 11
615.4774653430279
 21
328.9117064199795
 31
0.0
  0
LINE
  5
960
330
1F
100
AcDbEntity
  8
0
  6
Continuous
 62
     7
100
AcDbLine
 10
615.4774653430279
 20
329.5942064199793
 30
0.0
 11
616.4774653430279
 21
329.5942064199793
 31
0.0
  0
LINE
  5
961
330
1F
100
AcDbEntity
  8
0
  6
Continuous
 62
     7
100
AcDbLine
 10
615.4774653430279
 20
334.8442064199793
 30
0.0
 11
616.4774653430279
 21
334.8442064199793
 31
0.0
  0
LINE
  5
962
330
1F
100
AcDbEntity
  8
0
  6
Continuous
 62
     7
100
AcDbLine
 10
617.9774653430281
 20
333.2692064199793
 30
0.0
 11
617.9774653430281
 21
331.1692064199795
 31
0.0
  0
LINE
  5
963
330
1F
100
AcDbEntity
  8
0
  6
Continuous
 62
     7
100
AcDbLine
 10
623.4774653430279
 20
331.5262064199793
 30
0.0
 11
623.4774653430279
 21
324.9112064199793
 31
0.0
  0
LINE
  5
964
330
1F
100
AcDbEntity
  8
0
  6
Continuous
 62
     7
100
AcDbLine
 10
615.4774653430279
 20
326.8432064199795
 30
0.0
 11
616.4774653430279
 21
326.8432064199795
 31
0.0
  0
LINE
  5
965
330
1F
100
AcDbEntity
  8
0
  6
Continuous
 62
     7
100
AcDbLine
 10
614.4774653430281
 20
327.5257064199795
 30
0.0
 11
622.4774653430281
 21
327.5257064199795
 31
0.0
  0
LINE
  5
966
330
1F
100
AcDbEntity
  8
0
  6
Continuous
 62
     7
100
AcDbLine
 10
622.4774653430281
 20
328.9117064199795
 30
0.0
 11
614.4774653430281
 21
328.9117064199795
 31
0.0
  0
LINE
  5
967
330
1F
100
AcDbEntity
  8
0
  6
Continuous
 62
     7
100
AcDbLine
 10
614.4774653430281
 20
335.5267064199795
 30
0.0
 11
622.4774653430281
 21
335.5267064199795
 31
0.0
  0
LINE
  5
968
330
1F
100
AcDbEntity
  8
0
  6
Continuous
 62
     7
100
AcDbLine
 10
622.4774653430281
 20
336.9127064199795
 30
0.0
 11
614.4774653430281
 21
336.9127064199795
 31
0.0
  0
LINE
  5
969
330
1F
100
AcDbEntity
  8
0
  6
Continuous
 62
     7
100
AcDbLine
 10
614.4774653430281
 20
343.5277064199794
 30
0.0
 11
622.4774653430281
 21
343.5277064199794
 31
0.0
  0
ELLIPSE
  5
96A
330
1F
100
AcDbEntity
  8
0
  6
Continuous
 62
     7
100
AcDbEllipse
 10
616.4774653430279
 20
325.2682064199793
 30
0.0
 11
0.0
 21
-1.575000047683715
 31
0.0
210
0.0
220
0.0
230
1.0
 40
0.9523809999999999
 41
1.570796326794896
 42
3.141592697301183
  0
ELLIPSE
  5
96B
330
1F
100
AcDbEntity
  8
0
  6
Continuous
 62
     7
100
AcDbEllipse
 10
616.4774653430279
 20
333.2692064199793
 30
0.0
 11
0.0
 21
-1.575000047683715
 31
0.0
210
0.0
220
0.0
230
1.0
 40
0.9523809999999999
 41
1.570796326794896
 42
3.141592697301183
  0
ELLIPSE
  5
96C
330
1F
100
AcDbEntity
  8
0
  6
Continuous
 62
     7
100
AcDbEllipse
 10
616.4774653430279
 20
331.1692064199795
 30
0.0
 11
0.0
 21
-1.575000047683715
 31
0.0
210
0.0
220
0.0
230
1.0
 40
0.9523809999999999
 41
0.0
 42
1.570796326794896
  0
ELLIPSE
  5
96D
330
1F
100
AcDbEntity
  8
0
  6
Continuous
 62
     7
100
AcDbEllipse
 10
616.4774653430279
 20
341.2702064199793
 30
0.0
 11
0.0
 21
-1.575000047683715
 31
0.0
210
0.0
220
0.0
230
1.0
 40
0.9523809999999999
 41
1.570796326794896
 42
3.141592697301183
  0
ELLIPSE
  5
96E
330
1F
100
AcDbEntity
  8
0
  6
Continuous
 62
     7
100
AcDbEllipse
 10
616.4774653430279
 20
339.1702064199793
 30
0.0
 11
0.0
 21
-1.575000047683715
 31
0.0
210
0.0
220
0.0
230
1.0
 40
0.9523809999999999
 41
0.0
 42
1.570796326794896
  0
LINE
  5
96F
330
1F
100
AcDbEntity
  8
0
  6
Continuous
 62
     7
100
AcDbLine
 10
625.9774653430281
 20
321.2677064199795
 30
0.0
 11
625.9774653430281
 21
319.1677064199793
 31
0.0
  0
LINE
  5
970
330
1F
100
AcDbEntity
  8
0
  6
Continuous
 62
     7
100
AcDbLine
 10
625.9774653430281
 20
313.2667064199793
 30
0.0
 11
625.9774653430281
 21
311.1667064199793
 31
0.0
  0
LINE
  5
971
330
1F
100
AcDbEntity
  8
0
  6
Continuous
 62
     7
100
AcDbLine
 10
625.9774653430281
 20
305.2657064199795
 30
0.0
 11
625.9774653430281
 21
303.1657064199793
 31
0.0
  0
ELLIPSE
  5
972
330
1F
100
AcDbEntity
  8
0
  6
Continuous
 62
     7
100
AcDbEllipse
 10
624.4774653430279
 20
305.2657064199795
 30
0.0
 11
0.0
 21
-1.575000047683715
 31
0.0
210
0.0
220
0.0
230
1.0
 40
0.9523809999999999
 41
1.570796326794896
 42
3.141592697301183
  0
ELLIPSE
  5
973
330
1F
100
AcDbEntity
  8
0
  6
Continuous
 62
     7
100
AcDbEllipse
 10
624.4774653430279
 20
313.2667064199793
 30
0.0
 11
0.0
 21
-1.575000047683715
 31
0.0
210
0.0
220
0.0
230
1.0
 40
0.9523809999999999
 41
1.570796326794896
 42
3.141592697301183
  0
ELLIPSE
  5
974
330
1F
100
AcDbEntity
  8
0
  6
Continuous
 62
     7
100
AcDbEllipse
 10
624.4774653430279
 20
311.1667064199793
 30
0.0
 11
0.0
 21
-1.575000047683715
 31
0.0
210
0.0
220
0.0
230
1.0
 40
0.9523809999999999
 41
0.0
 42
1.570796326794896
  0
ELLIPSE
  5
975
330
1F
100
AcDbEntity
  8
0
  6
Continuous
 62
     7
100
AcDbEllipse
 10
624.4774653430279
 20
321.2677064199795
 30
0.0
 11
0.0
 21
-1.575000047683715
 31
0.0
210
0.0
220
0.0
230
1.0
 40
0.9523809999999999
 41
1.570796326794896
 42
3.141592697301183
  0
ELLIPSE
  5
976
330
1F
100
AcDbEntity
  8
0
  6
Continuous
 62
     7
100
AcDbEllipse
 10
624.4774653430279
 20
319.1677064199793
 30
0.0
 11
0.0
 21
-1.575000047683715
 31
0.0
210
0.0
220
0.0
230
1.0
 40
0.9523809999999999
 41
0.0
 42
1.570796326794896
  0
LINE
  5
977
330
1F
100
AcDbEntity
  8
0
  6
Continuous
 62
     7
100
AcDbLine
 10
625.9774653430281
 20
337.2697064199793
 30
0.0
 11
625.9774653430281
 21
335.1697064199793
 31
0.0
  0
LINE
  5
978
330
1F
100
AcDbEntity
  8
0
  6
Continuous
 62
     7
100
AcDbLine
 10
625.9774653430281
 20
329.2687064199793
 30
0.0
 11
625.9774653430281
 21
327.1687064199795
 31
0.0
  0
ELLIPSE
  5
979
330
1F
100
AcDbEntity
  8
0
  6
Continuous
 62
     7
100
AcDbEllipse
 10
624.4774653430279
 20
329.2687064199793
 30
0.0
 11
0.0
 21
-1.575000047683715
 31
0.0
210
0.0
220
0.0
230
1.0
 40
0.9523809999999999
 41
1.570796326794896
 42
3.141592697301183
  0
ELLIPSE
  5
97A
330
1F
100
AcDbEntity
  8
0
  6
Continuous
 62
     7
100
AcDbEllipse
 10
624.4774653430279
 20
327.1687064199795
 30
0.0
 11
0.0
 21
-1.575000047683715
 31
0.0
210
0.0
220
0.0
230
1.0
 40
0.9523809999999999
 41
0.0
 42
1.570796326794896
  0
ELLIPSE
  5
97B
330
1F
100
AcDbEntity
  8
0
  6
Continuous
 62
     7
100
AcDbEllipse
 10
624.4774653430279
 20
337.2697064199793
 30
0.0
 11
0.0
 21
-1.575000047683715
 31
0.0
210
0.0
220
0.0
230
1.0
 40
0.9523809999999999
 41
1.570796326794896
 42
3.141592697301183
  0
ELLIPSE
  5
97C
330
1F
100
AcDbEntity
  8
0
  6
Continuous
 62
     7
100
AcDbEllipse
 10
624.4774653430279
 20
335.1697064199793
 30
0.0
 11
0.0
 21
-1.575000047683715
 31
0.0
210
0.0
220
0.0
230
1.0
 40
0.9523809999999999
 41
0.0
 42
1.570796326794896
  0
ELLIPSE
  5
97D
330
1F
100
AcDbEntity
  8
0
  6
Continuous
 62
     7
100
AcDbEllipse
 10
624.4774653430279
 20
343.1707064199795
 30
0.0
 11
0.0
 21
-1.575000047683715
 31
0.0
210
0.0
220
0.0
230
1.0
 40
0.9523809999999999
 41
0.0
 42
1.570796326794896
  0
LINE
  5
97E
330
1F
100
AcDbEntity
  8
0
  6
Continuous
 62
     7
100
AcDbLine
 10
623.4774653430279
 20
365.5987064199794
 30
0.0
 11
624.4774653430279
 21
365.5987064199794
 31
0.0
  0
LINE
  5
97F
330
1F
100
AcDbEntity
  8
0
  6
Continuous
 62
     7
100
AcDbLine
 10
623.4774653430279
 20
370.8487064199794
 30
0.0
 11
624.4774653430279
 21
370.8487064199794
 31
0.0
  0
LINE
  5
980
330
1F
100
AcDbEntity
  8
0
  6
Continuous
 62
     7
100
AcDbLine
 10
623.4774653430279
 20
357.5977064199794
 30
0.0
 11
624.4774653430279
 21
357.5977064199794
 31
0.0
  0
LINE
  5
981
330
1F
100
AcDbEntity
  8
0
  6
Continuous
 62
     7
100
AcDbLine
 10
623.4774653430279
 20
362.8477064199793
 30
0.0
 11
624.4774653430279
 21
362.8477064199793
 31
0.0
  0
LINE
  5
982
330
1F
100
AcDbEntity
  8
0
  6
Continuous
 62
     7
100
AcDbLine
 10
623.4774653430279
 20
349.5967064199794
 30
0.0
 11
624.4774653430279
 21
349.5967064199794
 31
0.0
  0
LINE
  5
983
330
1F
100
AcDbEntity
  8
0
  6
Continuous
 62
     7
100
AcDbLine
 10
623.4774653430279
 20
354.8467064199793
 30
0.0
 11
624.4774653430279
 21
354.8467064199793
 31
0.0
  0
LINE
  5
984
330
1F
100
AcDbEntity
  8
0
  6
Continuous
 62
     7
100
AcDbLine
 10
623.4774653430279
 20
346.8457064199794
 30
0.0
 11
624.4774653430279
 21
346.8457064199794
 31
0.0
  0
LINE
  5
985
330
1F
100
AcDbEntity
  8
0
  6
Continuous
 62
     7
100
AcDbLine
 10
628.4774653430281
 20
376.9597064199794
 30
0.0
 11
609.089639343028
 21
376.9597064199794
 31
0.0
  0
LINE
  5
986
330
1F
100
AcDbEntity
  8
0
  6
Continuous
 62
     7
100
AcDbLine
 10
622.4774653430281
 20
347.5282064199794
 30
0.0
 11
628.4774653430281
 21
347.5282064199794
 31
0.0
  0
LINE
  5
987
330
1F
100
AcDbEntity
  8
0
  6
Continuous
 62
     7
100
AcDbLine
 10
628.4774653430281
 20
348.9142064199794
 30
0.0
 11
622.4774653430281
 21
348.9142064199794
 31
0.0
  0
LINE
  5
988
330
1F
100
AcDbEntity
  8
0
  6
Continuous
 62
     7
100
AcDbLine
 10
622.4774653430281
 20
355.5292064199793
 30
0.0
 11
628.4774653430281
 21
355.5292064199793
 31
0.0
  0
LINE
  5
989
330
1F
100
AcDbEntity
  8
0
  6
Continuous
 62
     7
100
AcDbLine
 10
628.4774653430281
 20
356.9152064199794
 30
0.0
 11
622.4774653430281
 21
356.9152064199794
 31
0.0
  0
LINE
  5
98A
330
1F
100
AcDbEntity
  8
0
  6
Continuous
 62
     7
100
AcDbLine
 10
622.4774653430281
 20
363.5302064199793
 30
0.0
 11
628.4774653430281
 21
363.5302064199793
 31
0.0
  0
LINE
  5
98B
330
1F
100
AcDbEntity
  8
0
  6
Continuous
 62
     7
100
AcDbLine
 10
628.4774653430281
 20
364.9162064199794
 30
0.0
 11
622.4774653430281
 21
364.9162064199794
 31
0.0
  0
LINE
  5
98C
330
1F
100
AcDbEntity
  8
0
  6
Continuous
 62
     7
100
AcDbLine
 10
622.4774653430281
 20
371.5312064199794
 30
0.0
 11
628.4774653430281
 21
371.5312064199794
 31
0.0
  0
LINE
  5
98D
330
1F
100
AcDbEntity
  8
0
  6
Continuous
 62
     7
100
AcDbLine
 10
622.4774653430281
 20
372.9592064199794
 30
0.0
 11
628.4774653430281
 21
372.9592064199794
 31
0.0
  0
LINE
  5
98E
330
1F
100
AcDbEntity
  8
0
  6
Continuous
 62
     7
100
AcDbLine
 10
609.089639343028
 20
378.0590144199793
 30
0.0
 11
634.089639343028
 21
378.0590144199793
 31
0.0
  0
LINE
  5
98F
330
1F
100
AcDbEntity
  8
0
  6
Continuous
 62
     7
100
AcDbLine
 10
623.4774653430279
 20
371.5312064199794
 30
0.0
 11
623.4774653430279
 21
364.9162064199794
 31
0.0
  0
LINE
  5
990
330
1F
100
AcDbEntity
  8
0
  6
Continuous
 62
     7
100
AcDbLine
 10
615.4774653430279
 20
367.5307064199794
 30
0.0
 11
615.4774653430279
 21
360.9157064199794
 31
0.0
  0
LINE
  5
991
330
1F
100
AcDbEntity
  8
0
  6
Continuous
 62
     7
100
AcDbLine
 10
617.9774653430281
 20
365.2732064199793
 30
0.0
 11
617.9774653430281
 21
363.1732064199794
 31
0.0
  0
LINE
  5
992
330
1F
100
AcDbEntity
  8
0
  6
Continuous
 62
     7
100
AcDbLine
 10
615.4774653430279
 20
361.5982064199794
 30
0.0
 11
616.4774653430279
 21
361.5982064199794
 31
0.0
  0
LINE
  5
993
330
1F
100
AcDbEntity
  8
0
  6
Continuous
 62
     7
100
AcDbLine
 10
623.4774653430279
 20
363.5302064199793
 30
0.0
 11
623.4774653430279
 21
356.9152064199794
 31
0.0
  0
LINE
  5
994
330
1F
100
AcDbEntity
  8
0
  6
Continuous
 62
     7
100
AcDbLine
 10
615.4774653430279
 20
359.5297064199793
 30
0.0
 11
615.4774653430279
 21
352.9147064199794
 31
0.0
  0
LINE
  5
995
330
1F
100
AcDbEntity
  8
0
  6
Continuous
 62
     7
100
AcDbLine
 10
615.4774653430279
 20
353.5972064199794
 30
0.0
 11
616.4774653430279
 21
353.5972064199794
 31
0.0
  0
LINE
  5
996
330
1F
100
AcDbEntity
  8
0
  6
Continuous
 62
     7
100
AcDbLine
 10
615.4774653430279
 20
358.8472064199793
 30
0.0
 11
616.4774653430279
 21
358.8472064199793
 31
0.0
  0
LINE
  5
997
330
1F
100
AcDbEntity
  8
0
  6
Continuous
 62
     7
100
AcDbLine
 10
617.9774653430281
 20
357.2722064199794
 30
0.0
 11
617.9774653430281
 21
355.1722064199793
 31
0.0
  0
LINE
  5
998
330
1F
100
AcDbEntity
  8
0
  6
Continuous
 62
     7
100
AcDbLine
 10
623.4774653430279
 20
355.5292064199793
 30
0.0
 11
623.4774653430279
 21
348.9142064199794
 31
0.0
  0
LINE
  5
999
330
1F
100
AcDbEntity
  8
0
  6
Continuous
 62
     7
100
AcDbLine
 10
615.4774653430279
 20
351.5287064199794
 30
0.0
 11
615.4774653430279
 21
344.9137064199796
 31
0.0
  0
LINE
  5
99A
330
1F
100
AcDbEntity
  8
0
  6
Continuous
 62
     7
100
AcDbLine
 10
615.4774653430279
 20
345.5962064199794
 30
0.0
 11
616.4774653430279
 21
345.5962064199794
 31
0.0
  0
LINE
  5
99B
330
1F
100
AcDbEntity
  8
0
  6
Continuous
 62
     7
100
AcDbLine
 10
615.4774653430279
 20
350.8462064199793
 30
0.0
 11
616.4774653430279
 21
350.8462064199793
 31
0.0
  0
LINE
  5
99C
330
1F
100
AcDbEntity
  8
0
  6
Continuous
 62
     7
100
AcDbLine
 10
617.9774653430281
 20
349.2712064199794
 30
0.0
 11
617.9774653430281
 21
347.1712064199794
 31
0.0
  0
LINE
  5
99D
330
1F
100
AcDbEntity
  8
0
  6
Continuous
 62
     7
100
AcDbLine
 10
622.4774653430281
 20
344.9137064199796
 30
0.0
 11
614.4774653430281
 21
344.9137064199796
 31
0.0
  0
LINE
  5
99E
330
1F
100
AcDbEntity
  8
0
  6
Continuous
 62
     7
100
AcDbLine
 10
614.4774653430281
 20
351.5287064199794
 30
0.0
 11
622.4774653430281
 21
351.5287064199794
 31
0.0
  0
LINE
  5
99F
330
1F
100
AcDbEntity
  8
0
  6
Continuous
 62
     7
100
AcDbLine
 10
622.4774653430281
 20
352.9147064199794
 30
0.0
 11
614.4774653430281
 21
352.9147064199794
 31
0.0
  0
LINE
  5
9A0
330
1F
100
AcDbEntity
  8
0
  6
Continuous
 62
     7
100
AcDbLine
 10
614.4774653430281
 20
359.5297064199793
 30
0.0
 11
622.4774653430281
 21
359.5297064199793
 31
0.0
  0
LINE
  5
9A1
330
1F
100
AcDbEntity
  8
0
  6
Continuous
 62
     7
100
AcDbLine
 10
622.4774653430281
 20
360.9157064199794
 30
0.0
 11
614.4774653430281
 21
360.9157064199794
 31
0.0
  0
ELLIPSE
  5
9A2
330
1F
100
AcDbEntity
  8
0
  6
Continuous
 62
     7
100
AcDbEllipse
 10
616.4774653430279
 20
349.2712064199794
 30
0.0
 11
0.0
 21
-1.575000047683715
 31
0.0
210
0.0
220
0.0
230
1.0
 40
0.9523809999999999
 41
1.570796326794896
 42
3.141592697301183
  0
ELLIPSE
  5
9A3
330
1F
100
AcDbEntity
  8
0
  6
Continuous
 62
     7
100
AcDbEllipse
 10
616.4774653430279
 20
347.1712064199794
 30
0.0
 11
0.0
 21
-1.575000047683715
 31
0.0
210
0.0
220
0.0
230
1.0
 40
0.9523809999999999
 41
0.0
 42
1.570796326794896
  0
ELLIPSE
  5
9A4
330
1F
100
AcDbEntity
  8
0
  6
Continuous
 62
     7
100
AcDbEllipse
 10
616.4774653430279
 20
357.2722064199794
 30
0.0
 11
0.0
 21
-1.575000047683715
 31
0.0
210
0.0
220
0.0
230
1.0
 40
0.9523809999999999
 41
1.570796326794896
 42
3.141592697301183
  0
ELLIPSE
  5
9A5
330
1F
100
AcDbEntity
  8
0
  6
Continuous
 62
     7
100
AcDbEllipse
 10
616.4774653430279
 20
355.1722064199793
 30
0.0
 11
0.0
 21
-1.575000047683715
 31
0.0
210
0.0
220
0.0
230
1.0
 40
0.9523809999999999
 41
0.0
 42
1.570796326794896
  0
ELLIPSE
  5
9A6
330
1F
100
AcDbEntity
  8
0
  6
Continuous
 62
     7
100
AcDbEllipse
 10
616.4774653430279
 20
363.1732064199794
 30
0.0
 11
0.0
 21
-1.575000047683715
 31
0.0
210
0.0
220
0.0
230
1.0
 40
0.9523809999999999
 41
0.0
 42
1.570796326794896
  0
LINE
  5
9A7
330
1F
100
AcDbEntity
  8
0
  6
Continuous
 62
     7
100
AcDbLine
 10
615.4774653430279
 20
375.5317064199794
 30
0.0
 11
615.4774653430279
 21
368.9167064199795
 31
0.0
  0
LINE
  5
9A8
330
1F
100
AcDbEntity
  8
0
  6
Continuous
 62
     7
100
AcDbLine
 10
615.4774653430279
 20
369.5992064199794
 30
0.0
 11
616.4774653430279
 21
369.5992064199794
 31
0.0
  0
LINE
  5
9A9
330
1F
100
AcDbEntity
  8
0
  6
Continuous
 62
     7
100
AcDbLine
 10
615.4774653430279
 20
374.8492064199794
 30
0.0
 11
616.4774653430279
 21
374.8492064199794
 31
0.0
  0
LINE
  5
9AA
330
1F
100
AcDbEntity
  8
0
  6
Continuous
 62
     7
100
AcDbLine
 10
617.9774653430281
 20
373.2742064199793
 30
0.0
 11
617.9774653430281
 21
371.1742064199794
 31
0.0
  0
LINE
  5
9AB
330
1F
100
AcDbEntity
  8
0
  6
Continuous
 62
     7
100
AcDbLine
 10
615.4774653430279
 20
366.8482064199794
 30
0.0
 11
616.4774653430279
 21
366.8482064199794
 31
0.0
  0
LINE
  5
9AC
330
1F
100
AcDbEntity
  8
0
  6
Continuous
 62
     7
100
AcDbLine
 10
614.4774653430281
 20
367.5307064199794
 30
0.0
 11
622.4774653430281
 21
367.5307064199794
 31
0.0
  0
LINE
  5
9AD
330
1F
100
AcDbEntity
  8
0
  6
Continuous
 62
     7
100
AcDbLine
 10
622.4774653430281
 20
368.9167064199795
 30
0.0
 11
614.4774653430281
 21
368.9167064199795
 31
0.0
  0
LINE
  5
9AE
330
1F
100
AcDbEntity
  8
0
  6
Continuous
 62
     7
100
AcDbLine
 10
622.4774653430281
 20
375.5317064199794
 30
0.0
 11
614.4774653430281
 21
375.5317064199794
 31
0.0
  0
ELLIPSE
  5
9AF
330
1F
100
AcDbEntity
  8
0
  6
Continuous
 62
     7
100
AcDbEllipse
 10
616.4774653430279
 20
365.2732064199793
 30
0.0
 11
0.0
 21
-1.575000047683715
 31
0.0
210
0.0
220
0.0
230
1.0
 40
0.9523809999999999
 41
1.570796326794896
 42
3.141592697301183
  0
ELLIPSE
  5
9B0
330
1F
100
AcDbEntity
  8
0
  6
Continuous
 62
     7
100
AcDbEllipse
 10
616.4774653430279
 20
373.2742064199793
 30
0.0
 11
0.0
 21
-1.575000047683715
 31
0.0
210
0.0
220
0.0
230
1.0
 40
0.9523809999999999
 41
1.570796326794896
 42
3.141592697301183
  0
ELLIPSE
  5
9B1
330
1F
100
AcDbEntity
  8
0
  6
Continuous
 62
     7
100
AcDbEllipse
 10
616.4774653430279
 20
371.1742064199794
 30
0.0
 11
0.0
 21
-1.575000047683715
 31
0.0
210
0.0
220
0.0
230
1.0
 40
0.9523809999999999
 41
0.0
 42
1.570796326794896
  0
LINE
  5
9B2
330
1F
100
AcDbEntity
  8
0
  6
Continuous
 62
     7
100
AcDbLine
 10
625.9774653430281
 20
361.2727064199795
 30
0.0
 11
625.9774653430281
 21
359.1727064199794
 31
0.0
  0
LINE
  5
9B3
330
1F
100
AcDbEntity
  8
0
  6
Continuous
 62
     7
100
AcDbLine
 10
625.9774653430281
 20
353.2717064199794
 30
0.0
 11
625.9774653430281
 21
351.1717064199795
 31
0.0
  0
ELLIPSE
  5
9B4
330
1F
100
AcDbEntity
  8
0
  6
Continuous
 62
     7
100
AcDbEllipse
 10
624.4774653430279
 20
345.2707064199793
 30
0.0
 11
0.0
 21
-1.575000047683715
 31
0.0
210
0.0
220
0.0
230
1.0
 40
0.9523809999999999
 41
1.570796326794896
 42
3.141592697301183
  0
ELLIPSE
  5
9B5
330
1F
100
AcDbEntity
  8
0
  6
Continuous
 62
     7
100
AcDbEllipse
 10
624.4774653430279
 20
353.2717064199794
 30
0.0
 11
0.0
 21
-1.575000047683715
 31
0.0
210
0.0
220
0.0
230
1.0
 40
0.9523809999999999
 41
1.570796326794896
 42
3.141592697301183
  0
ELLIPSE
  5
9B6
330
1F
100
AcDbEntity
  8
0
  6
Continuous
 62
     7
100
AcDbEllipse
 10
624.4774653430279
 20
351.1717064199795
 30
0.0
 11
0.0
 21
-1.575000047683715
 31
0.0
210
0.0
220
0.0
230
1.0
 40
0.9523809999999999
 41
0.0
 42
1.570796326794896
  0
ELLIPSE
  5
9B7
330
1F
100
AcDbEntity
  8
0
  6
Continuous
 62
     7
100
AcDbEllipse
 10
624.4774653430279
 20
361.2727064199795
 30
0.0
 11
0.0
 21
-1.575000047683715
 31
0.0
210
0.0
220
0.0
230
1.0
 40
0.9523809999999999
 41
1.570796326794896
 42
3.141592697301183
  0
ELLIPSE
  5
9B8
330
1F
100
AcDbEntity
  8
0
  6
Continuous
 62
     7
100
AcDbEllipse
 10
624.4774653430279
 20
359.1727064199794
 30
0.0
 11
0.0
 21
-1.575000047683715
 31
0.0
210
0.0
220
0.0
230
1.0
 40
0.9523809999999999
 41
0.0
 42
1.570796326794896
  0
LINE
  5
9B9
330
1F
100
AcDbEntity
  8
0
  6
Continuous
 62
     7
100
AcDbLine
 10
625.9774653430281
 20
369.2737064199794
 30
0.0
 11
625.9774653430281
 21
367.1737064199793
 31
0.0
  0
ELLIPSE
  5
9BA
330
1F
100
AcDbEntity
  8
0
  6
Continuous
 62
     7
100
AcDbEllipse
 10
624.4774653430279
 20
369.2737064199794
 30
0.0
 11
0.0
 21
-1.575000047683715
 31
0.0
210
0.0
220
0.0
230
1.0
 40
0.9523809999999999
 41
1.570796326794896
 42
3.141592697301183
  0
ELLIPSE
  5
9BB
330
1F
100
AcDbEntity
  8
0
  6
Continuous
 62
     7
100
AcDbEllipse
 10
624.4774653430279
 20
367.1737064199793
 30
0.0
 11
0.0
 21
-1.575000047683715
 31
0.0
210
0.0
220
0.0
230
1.0
 40
0.9523809999999999
 41
0.0
 42
1.570796326794896
  0
ELLIPSE
  5
9BC
330
1F
100
AcDbEntity
  8
0
  6
Continuous
 62
     7
100
AcDbEllipse
 10
637.089639343028
 20
390.0590384199787
 30
0.0
 11
0.0000000000000002
 21
-2.364390611648558
 31
0.0
210
0.0
220
0.0
230
1.0
 40
0.8481010000000001
 41
0.0
 42
3.141592697301183
  0
LINE
  5
9BD
330
1F
100
AcDbEntity
  8
0
  6
Continuous
 62
     7
 48
4.0
100
AcDbLine
 10
634.089639343028
 20
398.0590144199796
 30
0.0
 11
637.089639343028
 21
398.0590144199796
 31
0.0
  0
CIRCLE
  5
9BE
330
1F
100
AcDbEntity
  8
0
  6
Continuous
 62
     7
100
AcDbCircle
 10
802.4080409897406
 20
344.2663067732662
 30
0.0
 40
3.149997646714008
  0
LINE
  5
9BF
330
1F
100
AcDbEntity
  8
0
  6
Continuous
 62
     7
 48
5.0
100
AcDbLine
 10
804.5080433430282
 20
343.7413064199794
 30
0.0
 11
804.5080433430282
 21
344.7913064199795
 31
0.0
  0
LINE
  5
9C0
330
1F
100
AcDbEntity
  8
0
  6
Continuous
 62
     7
 48
5.0
100
AcDbLine
 10
800.3080433430271
 20
344.7913064199795
 30
0.0
 11
800.3080433430271
 21
343.7413064199794
 31
0.0
  0
CIRCLE
  5
9C1
330
1F
100
AcDbEntity
  8
0
  6
Continuous
 62
     7
100
AcDbCircle
 10
802.4080409897406
 20
336.2653067732657
 30
0.0
 40
3.149997646714008
  0
CIRCLE
  5
9C2
330
1F
100
AcDbEntity
  8
0
  6
Continuous
 62
     7
100
AcDbCircle
 10
802.4080409897406
 20
328.2643067732656
 30
0.0
 40
3.149997646714008
  0
CIRCLE
  5
9C3
330
1F
100
AcDbEntity
  8
0
  6
Continuous
 62
     7
100
AcDbCircle
 10
802.4080409897406
 20
320.2633067732663
 30
0.0
 40
3.149997646713896
  0
CIRCLE
  5
9C4
330
1F
100
AcDbEntity
  8
0
  6
Continuous
 62
     7
100
AcDbCircle
 10
802.4080409897406
 20
312.2623067732661
 30
0.0
 40
3.149997646713896
  0
LINE
  5
9C5
330
1F
100
AcDbEntity
  8
0
  6
Continuous
 62
     7
 48
5.0
100
AcDbLine
 10
800.3080433430271
 20
303.7363064199795
 30
0.0
 11
801.8830433430283
 21
303.7363064199795
 31
0.0
  0
LINE
  5
9C6
330
1F
100
AcDbEntity
  8
0
  6
Continuous
 62
     7
 48
5.0
100
AcDbLine
 10
801.8830433430283
 20
304.7863064199795
 30
0.0
 11
800.3080433430271
 21
304.7863064199795
 31
0.0
  0
LINE
  5
9C7
330
1F
100
AcDbEntity
  8
0
  6
Continuous
 62
     7
 48
5.0
100
AcDbLine
 10
800.3080433430271
 20
311.7373064199793
 30
0.0
 11
801.8830433430283
 21
311.7373064199793
 31
0.0
  0
LINE
  5
9C8
330
1F
100
AcDbEntity
  8
0
  6
Continuous
 62
     7
 48
5.0
100
AcDbLine
 10
801.8830433430283
 20
312.7873064199795
 30
0.0
 11
800.3080433430271
 21
312.7873064199795
 31
0.0
  0
LINE
  5
9C9
330
1F
100
AcDbEntity
  8
0
  6
Continuous
 62
     7
 48
5.0
100
AcDbLine
 10
800.3080433430271
 20
319.7383064199795
 30
0.0
 11
801.8830433430283
 21
319.7383064199795
 31
0.0
  0
LINE
  5
9CA
330
1F
100
AcDbEntity
  8
0
  6
Continuous
 62
     7
 48
5.0
100
AcDbLine
 10
801.8830433430283
 20
320.7883064199795
 30
0.0
 11
800.3080433430271
 21
320.7883064199795
 31
0.0
  0
LINE
  5
9CB
330
1F
100
AcDbEntity
  8
0
  6
Continuous
 62
     7
 48
5.0
100
AcDbLine
 10
800.3080433430271
 20
327.7393064199795
 30
0.0
 11
801.8830433430283
 21
327.7393064199795
 31
0.0
  0
LINE
  5
9CC
330
1F
100
AcDbEntity
  8
0
  6
Continuous
 62
     7
 48
5.0
100
AcDbLine
 10
801.8830433430283
 20
328.7893064199795
 30
0.0
 11
800.3080433430271
 21
328.7893064199795
 31
0.0
  0
LINE
  5
9CD
330
1F
100
AcDbEntity
  8
0
  6
Continuous
 62
     7
 48
5.0
100
AcDbLine
 10
800.3080433430271
 20
335.7403064199793
 30
0.0
 11
801.8830433430283
 21
335.7403064199793
 31
0.0
  0
LINE
  5
9CE
330
1F
100
AcDbEntity
  8
0
  6
Continuous
 62
     7
 48
5.0
100
AcDbLine
 10
801.8830433430283
 20
336.7903064199795
 30
0.0
 11
800.3080433430271
 21
336.7903064199795
 31
0.0
  0
LINE
  5
9CF
330
1F
100
AcDbEntity
  8
0
  6
Continuous
 62
     7
 48
5.0
100
AcDbLine
 10
800.3080433430271
 20
343.7413064199794
 30
0.0
 11
801.8830433430283
 21
343.7413064199794
 31
0.0
  0
LINE
  5
9D0
330
1F
100
AcDbEntity
  8
0
  6
Continuous
 62
     7
 48
5.0
100
AcDbLine
 10
807.0896393430283
 20
316.8732724199795
 30
0.0
 11
796.5896393430278
 21
316.8732724199795
 31
0.0
  0
LINE
  5
9D1
330
1F
100
AcDbEntity
  8
0
  6
Continuous
 62
     7
 48
5.0
100
AcDbLine
 10
807.0896393430283
 20
315.4872724199794
 30
0.0
 11
796.5896393430278
 21
315.4872724199794
 31
0.0
  0
LINE
  5
9D2
330
1F
100
AcDbEntity
  8
0
  6
Continuous
 62
     7
 48
5.0
100
AcDbLine
 10
807.0896393430283
 20
339.4902724199795
 30
0.0
 11
796.5896393430278
 21
339.4902724199795
 31
0.0
  0
LINE
  5
9D3
330
1F
100
AcDbEntity
  8
0
  6
Continuous
 62
     7
 48
5.0
100
AcDbLine
 10
807.0896393430283
 20
340.8762724199795
 30
0.0
 11
796.5896393430278
 21
340.8762724199795
 31
0.0
  0
LINE
  5
9D4
330
1F
100
AcDbEntity
  8
0
  6
Continuous
 62
     7
 48
5.0
100
AcDbLine
 10
807.0896393430283
 20
331.4892724199795
 30
0.0
 11
796.5896393430278
 21
331.4892724199795
 31
0.0
  0
LINE
  5
9D5
330
1F
100
AcDbEntity
  8
0
  6
Continuous
 62
     7
 48
5.0
100
AcDbLine
 10
807.0896393430283
 20
323.4882724199795
 30
0.0
 11
796.5896393430278
 21
323.4882724199795
 31
0.0
  0
LINE
  5
9D6
330
1F
100
AcDbEntity
  8
0
  6
Continuous
 62
     7
 48
5.0
100
AcDbLine
 10
807.0896393430283
 20
324.8742724199793
 30
0.0
 11
796.5896393430278
 21
324.8742724199793
 31
0.0
  0
LINE
  5
9D7
330
1F
100
AcDbEntity
  8
0
  6
Continuous
 62
     7
 48
5.0
100
AcDbLine
 10
807.0896393430283
 20
307.4862724199795
 30
0.0
 11
796.5896393430278
 21
307.4862724199795
 31
0.0
  0
LINE
  5
9D8
330
1F
100
AcDbEntity
  8
0
  6
Continuous
 62
     7
 48
5.0
100
AcDbLine
 10
807.0896393430283
 20
308.8722724199793
 30
0.0
 11
796.5896393430278
 21
308.8722724199793
 31
0.0
  0
CIRCLE
  5
9D9
330
1F
100
AcDbEntity
  8
0
  6
Continuous
 62
     7
100
AcDbCircle
 10
791.6184369897404
 20
324.2182087732661
 30
0.0
 40
3.149997646713896
  0
LINE
  5
9DA
330
1F
100
AcDbEntity
  8
0
  6
Continuous
 62
     7
 48
5.0
100
AcDbLine
 10
792.1434393430273
 20
322.1182084199793
 30
0.0
 11
792.1434393430273
 21
323.6932084199793
 31
0.0
  0
LINE
  5
9DB
330
1F
100
AcDbEntity
  8
0
  6
Continuous
 62
     7
 48
5.0
100
AcDbLine
 10
791.0934393430283
 20
323.6932084199793
 30
0.0
 11
791.0934393430283
 21
322.1182084199793
 31
0.0
  0
CIRCLE
  5
9DC
330
1F
100
AcDbEntity
  8
0
  6
Continuous
 62
     7
100
AcDbCircle
 10
791.6184369897404
 20
308.2162087732663
 30
0.0
 40
3.149997646713896
  0
CIRCLE
  5
9DD
330
1F
100
AcDbEntity
  8
0
  6
Continuous
 62
     7
100
AcDbCircle
 10
791.6184369897404
 20
316.2172087732662
 30
0.0
 40
3.149997646713896
  0
LINE
  5
9DE
330
1F
100
AcDbEntity
  8
0
  6
Continuous
 62
     7
 48
5.0
100
AcDbLine
 10
792.1434393430273
 20
310.3162084199794
 30
0.0
 11
792.1434393430273
 21
310.3162084199794
 31
0.0
  0
LINE
  5
9DF
330
1F
100
AcDbEntity
  8
0
  6
Continuous
 62
     7
 48
5.0
100
AcDbLine
 10
792.1434393430273
 20
308.7412084199791
 30
0.0
 11
792.1434393430273
 21
310.3162084199794
 31
0.0
  0
LINE
  5
9E0
330
1F
100
AcDbEntity
  8
0
  6
Continuous
 62
     7
 48
5.0
100
AcDbLine
 10
793.7184393430278
 20
308.7412084199791
 30
0.0
 11
792.1434393430273
 21
308.7412084199791
 31
0.0
  0
LINE
  5
9E1
330
1F
100
AcDbEntity
  8
0
  6
Continuous
 62
     7
 48
5.0
100
AcDbLine
 10
793.7184393430278
 20
307.6912084199793
 30
0.0
 11
793.7184393430278
 21
308.7412084199791
 31
0.0
  0
LINE
  5
9E2
330
1F
100
AcDbEntity
  8
0
  6
Continuous
 62
     7
 48
5.0
100
AcDbLine
 10
792.1434393430273
 20
307.6912084199793
 30
0.0
 11
793.7184393430278
 21
307.6912084199793
 31
0.0
  0
LINE
  5
9E3
330
1F
100
AcDbEntity
  8
0
  6
Continuous
 62
     7
 48
5.0
100
AcDbLine
 10
792.1434393430273
 20
306.1162084199793
 30
0.0
 11
792.1434393430273
 21
307.6912084199793
 31
0.0
  0
LINE
  5
9E4
330
1F
100
AcDbEntity
  8
0
  6
Continuous
 62
     7
 48
5.0
100
AcDbLine
 10
791.0934393430283
 20
306.1162084199793
 30
0.0
 11
792.1434393430273
 21
306.1162084199793
 31
0.0
  0
LINE
  5
9E5
330
1F
100
AcDbEntity
  8
0
  6
Continuous
 62
     7
 48
5.0
100
AcDbLine
 10
791.0934393430283
 20
307.6912084199793
 30
0.0
 11
791.0934393430283
 21
306.1162084199793
 31
0.0
  0
LINE
  5
9E6
330
1F
100
AcDbEntity
  8
0
  6
Continuous
 62
     7
 48
5.0
100
AcDbLine
 10
789.5184393430273
 20
307.6912084199793
 30
0.0
 11
791.0934393430283
 21
307.6912084199793
 31
0.0
  0
LINE
  5
9E7
330
1F
100
AcDbEntity
  8
0
  6
Continuous
 62
     7
 48
5.0
100
AcDbLine
 10
789.5184393430273
 20
308.7412084199791
 30
0.0
 11
789.5184393430273
 21
307.6912084199793
 31
0.0
  0
LINE
  5
9E8
330
1F
100
AcDbEntity
  8
0
  6
Continuous
 62
     7
 48
5.0
100
AcDbLine
 10
791.0934393430283
 20
308.7412084199791
 30
0.0
 11
789.5184393430273
 21
308.7412084199791
 31
0.0
  0
LINE
  5
9E9
330
1F
100
AcDbEntity
  8
0
  6
Continuous
 62
     7
 48
5.0
100
AcDbLine
 10
791.0934393430283
 20
310.3162084199794
 30
0.0
 11
791.0934393430283
 21
308.7412084199791
 31
0.0
  0
LINE
  5
9EA
330
1F
100
AcDbEntity
  8
0
  6
Continuous
 62
     7
 48
5.0
100
AcDbLine
 10
792.1434393430273
 20
310.3162084199794
 30
0.0
 11
791.0934393430283
 21
310.3162084199794
 31
0.0
  0
LINE
  5
9EB
330
1F
100
AcDbEntity
  8
0
  6
Continuous
 62
     7
 48
5.0
100
AcDbLine
 10
800.3080433430271
 20
304.7863064199795
 30
0.0
 11
800.3080433430271
 21
303.7363064199795
 31
0.0
  0
LINE
  5
9EC
330
1F
100
AcDbEntity
  8
0
  6
Continuous
 62
     7
 48
5.0
100
AcDbLine
 10
792.1434393430273
 20
318.3172084199793
 30
0.0
 11
792.1434393430273
 21
318.3172084199793
 31
0.0
  0
LINE
  5
9ED
330
1F
100
AcDbEntity
  8
0
  6
Continuous
 62
     7
 48
5.0
100
AcDbLine
 10
792.1434393430273
 20
316.7422084199793
 30
0.0
 11
792.1434393430273
 21
318.3172084199793
 31
0.0
  0
LINE
  5
9EE
330
1F
100
AcDbEntity
  8
0
  6
Continuous
 62
     7
 48
5.0
100
AcDbLine
 10
793.7184393430278
 20
316.7422084199793
 30
0.0
 11
792.1434393430273
 21
316.7422084199793
 31
0.0
  0
LINE
  5
9EF
330
1F
100
AcDbEntity
  8
0
  6
Continuous
 62
     7
 48
5.0
100
AcDbLine
 10
793.7184393430278
 20
315.6922084199793
 30
0.0
 11
793.7184393430278
 21
316.7422084199793
 31
0.0
  0
LINE
  5
9F0
330
1F
100
AcDbEntity
  8
0
  6
Continuous
 62
     7
 48
5.0
100
AcDbLine
 10
792.1434393430273
 20
315.6922084199793
 30
0.0
 11
793.7184393430278
 21
315.6922084199793
 31
0.0
  0
LINE
  5
9F1
330
1F
100
AcDbEntity
  8
0
  6
Continuous
 62
     7
 48
5.0
100
AcDbLine
 10
792.1434393430273
 20
314.1172084199795
 30
0.0
 11
792.1434393430273
 21
315.6922084199793
 31
0.0
  0
LINE
  5
9F2
330
1F
100
AcDbEntity
  8
0
  6
Continuous
 62
     7
 48
5.0
100
AcDbLine
 10
791.0934393430283
 20
314.1172084199795
 30
0.0
 11
792.1434393430273
 21
314.1172084199795
 31
0.0
  0
LINE
  5
9F3
330
1F
100
AcDbEntity
  8
0
  6
Continuous
 62
     7
 48
5.0
100
AcDbLine
 10
791.0934393430283
 20
315.6922084199793
 30
0.0
 11
791.0934393430283
 21
314.1172084199795
 31
0.0
  0
LINE
  5
9F4
330
1F
100
AcDbEntity
  8
0
  6
Continuous
 62
     7
 48
5.0
100
AcDbLine
 10
789.5184393430273
 20
315.6922084199793
 30
0.0
 11
791.0934393430283
 21
315.6922084199793
 31
0.0
  0
LINE
  5
9F5
330
1F
100
AcDbEntity
  8
0
  6
Continuous
 62
     7
 48
5.0
100
AcDbLine
 10
789.5184393430273
 20
316.7422084199793
 30
0.0
 11
789.5184393430273
 21
315.6922084199793
 31
0.0
  0
LINE
  5
9F6
330
1F
100
AcDbEntity
  8
0
  6
Continuous
 62
     7
 48
5.0
100
AcDbLine
 10
791.0934393430283
 20
316.7422084199793
 30
0.0
 11
789.5184393430273
 21
316.7422084199793
 31
0.0
  0
LINE
  5
9F7
330
1F
100
AcDbEntity
  8
0
  6
Continuous
 62
     7
 48
5.0
100
AcDbLine
 10
791.0934393430283
 20
318.3172084199793
 30
0.0
 11
791.0934393430283
 21
316.7422084199793
 31
0.0
  0
LINE
  5
9F8
330
1F
100
AcDbEntity
  8
0
  6
Continuous
 62
     7
 48
5.0
100
AcDbLine
 10
792.1434393430273
 20
318.3172084199793
 30
0.0
 11
791.0934393430283
 21
318.3172084199793
 31
0.0
  0
LINE
  5
9F9
330
1F
100
AcDbEntity
  8
0
  6
Continuous
 62
     7
 48
5.0
100
AcDbLine
 10
800.3080433430271
 20
312.7873064199795
 30
0.0
 11
800.3080433430271
 21
311.7373064199793
 31
0.0
  0
LINE
  5
9FA
330
1F
100
AcDbEntity
  8
0
  6
Continuous
 62
     7
 48
5.0
100
AcDbLine
 10
791.0934393430283
 20
322.1182084199793
 30
0.0
 11
792.1434393430273
 21
322.1182084199793
 31
0.0
  0
LINE
  5
9FB
330
1F
100
AcDbEntity
  8
0
  6
Continuous
 62
     7
 48
5.0
100
AcDbLine
 10
800.3080433430271
 20
320.7883064199795
 30
0.0
 11
800.3080433430271
 21
319.7383064199795
 31
0.0
  0
LINE
  5
9FC
330
1F
100
AcDbEntity
  8
0
  6
Continuous
 62
     7
 48
5.0
100
AcDbLine
 10
796.5896393430278
 20
319.4877724199793
 30
0.0
 11
787.1396393430273
 21
319.4877724199793
 31
0.0
  0
LINE
  5
9FD
330
1F
100
AcDbEntity
  8
0
  6
Continuous
 62
     7
 48
5.0
100
AcDbLine
 10
796.5896393430278
 20
320.8737724199794
 30
0.0
 11
787.1396393430273
 21
320.8737724199794
 31
0.0
  0
LINE
  5
9FE
330
1F
100
AcDbEntity
  8
0
  6
Continuous
 62
     7
 48
5.0
100
AcDbLine
 10
796.5896393430278
 20
311.4867724199795
 30
0.0
 11
787.1396393430273
 21
311.4867724199795
 31
0.0
  0
LINE
  5
9FF
330
1F
100
AcDbEntity
  8
0
  6
Continuous
 62
     7
 48
5.0
100
AcDbLine
 10
796.5896393430278
 20
312.8727724199795
 30
0.0
 11
787.1396393430273
 21
312.8727724199795
 31
0.0
  0
LINE
  5
A00
330
1F
100
AcDbEntity
  8
0
  6
Continuous
 62
     7
 48
5.0
100
AcDbLine
 10
796.5896393430278
 20
303.4857724199793
 30
0.0
 11
787.1396393430273
 21
303.4857724199793
 31
0.0
  0
LINE
  5
A01
330
1F
100
AcDbEntity
  8
0
  6
Continuous
 62
     7
 48
5.0
100
AcDbLine
 10
796.5896393430278
 20
304.8717724199795
 30
0.0
 11
787.1396393430273
 21
304.8717724199795
 31
0.0
  0
CIRCLE
  5
A02
330
1F
100
AcDbEntity
  8
0
  6
Continuous
 62
     7
100
AcDbCircle
 10
791.6184369897404
 20
332.2192087732656
 30
0.0
 40
3.149997646714008
  0
CIRCLE
  5
A03
330
1F
100
AcDbEntity
  8
0
  6
Continuous
 62
     7
100
AcDbCircle
 10
791.6184369897404
 20
340.2202087732656
 30
0.0
 40
3.149997646714008
  0
LINE
  5
A04
330
1F
100
AcDbEntity
  8
0
  6
Continuous
 62
     7
 48
5.0
100
AcDbLine
 10
792.1434393430273
 20
326.3182084199791
 30
0.0
 11
792.1434393430273
 21
326.3182084199791
 31
0.0
  0
LINE
  5
A05
330
1F
100
AcDbEntity
  8
0
  6
Continuous
 62
     7
 48
5.0
100
AcDbLine
 10
792.1434393430273
 20
324.7432084199793
 30
0.0
 11
792.1434393430273
 21
326.3182084199791
 31
0.0
  0
LINE
  5
A06
330
1F
100
AcDbEntity
  8
0
  6
Continuous
 62
     7
 48
5.0
100
AcDbLine
 10
793.7184393430278
 20
324.7432084199793
 30
0.0
 11
792.1434393430273
 21
324.7432084199793
 31
0.0
  0
LINE
  5
A07
330
1F
100
AcDbEntity
  8
0
  6
Continuous
 62
     7
 48
5.0
100
AcDbLine
 10
793.7184393430278
 20
323.6932084199793
 30
0.0
 11
793.7184393430278
 21
324.7432084199793
 31
0.0
  0
LINE
  5
A08
330
1F
100
AcDbEntity
  8
0
  6
Continuous
 62
     7
 48
5.0
100
AcDbLine
 10
792.1434393430273
 20
323.6932084199793
 30
0.0
 11
793.7184393430278
 21
323.6932084199793
 31
0.0
  0
LINE
  5
A09
330
1F
100
AcDbEntity
  8
0
  6
Continuous
 62
     7
 48
5.0
100
AcDbLine
 10
789.5184393430273
 20
323.6932084199793
 30
0.0
 11
791.0934393430283
 21
323.6932084199793
 31
0.0
  0
LINE
  5
A0A
330
1F
100
AcDbEntity
  8
0
  6
Continuous
 62
     7
 48
5.0
100
AcDbLine
 10
789.5184393430273
 20
324.7432084199793
 30
0.0
 11
789.5184393430273
 21
323.6932084199793
 31
0.0
  0
LINE
  5
A0B
330
1F
100
AcDbEntity
  8
0
  6
Continuous
 62
     7
 48
5.0
100
AcDbLine
 10
791.0934393430283
 20
324.7432084199793
 30
0.0
 11
789.5184393430273
 21
324.7432084199793
 31
0.0
  0
LINE
  5
A0C
330
1F
100
AcDbEntity
  8
0
  6
Continuous
 62
     7
 48
5.0
100
AcDbLine
 10
791.0934393430283
 20
326.3182084199791
 30
0.0
 11
791.0934393430283
 21
324.7432084199793
 31
0.0
  0
LINE
  5
A0D
330
1F
100
AcDbEntity
  8
0
  6
Continuous
 62
     7
 48
5.0
100
AcDbLine
 10
792.1434393430273
 20
326.3182084199791
 30
0.0
 11
791.0934393430283
 21
326.3182084199791
 31
0.0
  0
LINE
  5
A0E
330
1F
100
AcDbEntity
  8
0
  6
Continuous
 62
     7
 48
5.0
100
AcDbLine
 10
792.1434393430273
 20
334.3192084199793
 30
0.0
 11
792.1434393430273
 21
334.3192084199793
 31
0.0
  0
LINE
  5
A0F
330
1F
100
AcDbEntity
  8
0
  6
Continuous
 62
     7
 48
5.0
100
AcDbLine
 10
792.1434393430273
 20
332.7442084199791
 30
0.0
 11
792.1434393430273
 21
334.3192084199793
 31
0.0
  0
LINE
  5
A10
330
1F
100
AcDbEntity
  8
0
  6
Continuous
 62
     7
 48
5.0
100
AcDbLine
 10
793.7184393430278
 20
332.7442084199791
 30
0.0
 11
792.1434393430273
 21
332.7442084199791
 31
0.0
  0
LINE
  5
A11
330
1F
100
AcDbEntity
  8
0
  6
Continuous
 62
     7
 48
5.0
100
AcDbLine
 10
793.7184393430278
 20
331.6942084199795
 30
0.0
 11
793.7184393430278
 21
332.7442084199791
 31
0.0
  0
LINE
  5
A12
330
1F
100
AcDbEntity
  8
0
  6
Continuous
 62
     7
 48
5.0
100
AcDbLine
 10
792.1434393430273
 20
331.6942084199795
 30
0.0
 11
793.7184393430278
 21
331.6942084199795
 31
0.0
  0
LINE
  5
A13
330
1F
100
AcDbEntity
  8
0
  6
Continuous
 62
     7
 48
5.0
100
AcDbLine
 10
792.1434393430273
 20
330.1192084199791
 30
0.0
 11
792.1434393430273
 21
331.6942084199795
 31
0.0
  0
LINE
  5
A14
330
1F
100
AcDbEntity
  8
0
  6
Continuous
 62
     7
 48
5.0
100
AcDbLine
 10
791.0934393430283
 20
330.1192084199791
 30
0.0
 11
792.1434393430273
 21
330.1192084199791
 31
0.0
  0
LINE
  5
A15
330
1F
100
AcDbEntity
  8
0
  6
Continuous
 62
     7
 48
5.0
100
AcDbLine
 10
791.0934393430283
 20
331.6942084199795
 30
0.0
 11
791.0934393430283
 21
330.1192084199791
 31
0.0
  0
LINE
  5
A16
330
1F
100
AcDbEntity
  8
0
  6
Continuous
 62
     7
 48
5.0
100
AcDbLine
 10
789.5184393430273
 20
331.6942084199795
 30
0.0
 11
791.0934393430283
 21
331.6942084199795
 31
0.0
  0
LINE
  5
A17
330
1F
100
AcDbEntity
  8
0
  6
Continuous
 62
     7
 48
5.0
100
AcDbLine
 10
789.5184393430273
 20
332.7442084199791
 30
0.0
 11
789.5184393430273
 21
331.6942084199795
 31
0.0
  0
LINE
  5
A18
330
1F
100
AcDbEntity
  8
0
  6
Continuous
 62
     7
 48
5.0
100
AcDbLine
 10
791.0934393430283
 20
332.7442084199791
 30
0.0
 11
789.5184393430273
 21
332.7442084199791
 31
0.0
  0
LINE
  5
A19
330
1F
100
AcDbEntity
  8
0
  6
Continuous
 62
     7
 48
5.0
100
AcDbLine
 10
791.0934393430283
 20
334.3192084199793
 30
0.0
 11
791.0934393430283
 21
332.7442084199791
 31
0.0
  0
LINE
  5
A1A
330
1F
100
AcDbEntity
  8
0
  6
Continuous
 62
     7
 48
5.0
100
AcDbLine
 10
792.1434393430273
 20
334.3192084199793
 30
0.0
 11
791.0934393430283
 21
334.3192084199793
 31
0.0
  0
LINE
  5
A1B
330
1F
100
AcDbEntity
  8
0
  6
Continuous
 62
     7
 48
5.0
100
AcDbLine
 10
800.3080433430271
 20
328.7893064199795
 30
0.0
 11
800.3080433430271
 21
327.7393064199795
 31
0.0
  0
LINE
  5
A1C
330
1F
100
AcDbEntity
  8
0
  6
Continuous
 62
     7
 48
5.0
100
AcDbLine
 10
792.1434393430273
 20
342.3202084199793
 30
0.0
 11
792.1434393430273
 21
342.3202084199793
 31
0.0
  0
LINE
  5
A1D
330
1F
100
AcDbEntity
  8
0
  6
Continuous
 62
     7
 48
5.0
100
AcDbLine
 10
792.1434393430273
 20
340.7452084199795
 30
0.0
 11
792.1434393430273
 21
342.3202084199793
 31
0.0
  0
LINE
  5
A1E
330
1F
100
AcDbEntity
  8
0
  6
Continuous
 62
     7
 48
5.0
100
AcDbLine
 10
793.7184393430278
 20
340.7452084199795
 30
0.0
 11
792.1434393430273
 21
340.7452084199795
 31
0.0
  0
LINE
  5
A1F
330
1F
100
AcDbEntity
  8
0
  6
Continuous
 62
     7
 48
5.0
100
AcDbLine
 10
793.7184393430278
 20
339.6952084199793
 30
0.0
 11
793.7184393430278
 21
340.7452084199795
 31
0.0
  0
LINE
  5
A20
330
1F
100
AcDbEntity
  8
0
  6
Continuous
 62
     7
 48
5.0
100
AcDbLine
 10
792.1434393430273
 20
339.6952084199793
 30
0.0
 11
793.7184393430278
 21
339.6952084199793
 31
0.0
  0
LINE
  5
A21
330
1F
100
AcDbEntity
  8
0
  6
Continuous
 62
     7
 48
5.0
100
AcDbLine
 10
792.1434393430273
 20
338.1202084199795
 30
0.0
 11
792.1434393430273
 21
339.6952084199793
 31
0.0
  0
LINE
  5
A22
330
1F
100
AcDbEntity
  8
0
  6
Continuous
 62
     7
 48
5.0
100
AcDbLine
 10
791.0934393430283
 20
338.1202084199795
 30
0.0
 11
792.1434393430273
 21
338.1202084199795
 31
0.0
  0
LINE
  5
A23
330
1F
100
AcDbEntity
  8
0
  6
Continuous
 62
     7
 48
5.0
100
AcDbLine
 10
791.0934393430283
 20
339.6952084199793
 30
0.0
 11
791.0934393430283
 21
338.1202084199795
 31
0.0
  0
LINE
  5
A24
330
1F
100
AcDbEntity
  8
0
  6
Continuous
 62
     7
 48
5.0
100
AcDbLine
 10
789.5184393430273
 20
339.6952084199793
 30
0.0
 11
791.0934393430283
 21
339.6952084199793
 31
0.0
  0
LINE
  5
A25
330
1F
100
AcDbEntity
  8
0
  6
Continuous
 62
     7
 48
5.0
100
AcDbLine
 10
789.5184393430273
 20
340.7452084199795
 30
0.0
 11
789.5184393430273
 21
339.6952084199793
 31
0.0
  0
LINE
  5
A26
330
1F
100
AcDbEntity
  8
0
  6
Continuous
 62
     7
 48
5.0
100
AcDbLine
 10
791.0934393430283
 20
340.7452084199795
 30
0.0
 11
789.5184393430273
 21
340.7452084199795
 31
0.0
  0
LINE
  5
A27
330
1F
100
AcDbEntity
  8
0
  6
Continuous
 62
     7
 48
5.0
100
AcDbLine
 10
791.0934393430283
 20
342.3202084199793
 30
0.0
 11
791.0934393430283
 21
340.7452084199795
 31
0.0
  0
LINE
  5
A28
330
1F
100
AcDbEntity
  8
0
  6
Continuous
 62
     7
 48
5.0
100
AcDbLine
 10
792.1434393430273
 20
342.3202084199793
 30
0.0
 11
791.0934393430283
 21
342.3202084199793
 31
0.0
  0
LINE
  5
A29
330
1F
100
AcDbEntity
  8
0
  6
Continuous
 62
     7
 48
5.0
100
AcDbLine
 10
800.3080433430271
 20
336.7903064199795
 30
0.0
 11
800.3080433430271
 21
335.7403064199793
 31
0.0
  0
LINE
  5
A2A
330
1F
100
AcDbEntity
  8
0
  6
Continuous
 62
     7
 48
5.0
100
AcDbLine
 10
796.5896393430278
 20
343.4907724199795
 30
0.0
 11
787.1396393430273
 21
343.4907724199795
 31
0.0
  0
LINE
  5
A2B
330
1F
100
AcDbEntity
  8
0
  6
Continuous
 62
     7
 48
5.0
100
AcDbLine
 10
796.5896393430278
 20
335.4897724199795
 30
0.0
 11
787.1396393430273
 21
335.4897724199795
 31
0.0
  0
LINE
  5
A2C
330
1F
100
AcDbEntity
  8
0
  6
Continuous
 62
     7
 48
5.0
100
AcDbLine
 10
796.5896393430278
 20
336.8757724199795
 30
0.0
 11
787.1396393430273
 21
336.8757724199795
 31
0.0
  0
LINE
  5
A2D
330
1F
100
AcDbEntity
  8
0
  6
Continuous
 62
     7
 48
5.0
100
AcDbLine
 10
796.5896393430278
 20
327.4887724199795
 30
0.0
 11
787.1396393430273
 21
327.4887724199795
 31
0.0
  0
LINE
  5
A2E
330
1F
100
AcDbEntity
  8
0
  6
Continuous
 62
     7
 48
5.0
100
AcDbLine
 10
796.5896393430278
 20
328.8747724199795
 30
0.0
 11
787.1396393430273
 21
328.8747724199795
 31
0.0
  0
LINE
  5
A2F
330
1F
100
AcDbEntity
  8
0
  6
Continuous
 62
     7
 48
5.0
100
AcDbLine
 10
802.9330433430272
 20
306.3613064199793
 30
0.0
 11
802.9330433430272
 21
306.3613064199793
 31
0.0
  0
LINE
  5
A30
330
1F
100
AcDbEntity
  8
0
  6
Continuous
 62
     7
 48
5.0
100
AcDbLine
 10
802.9330433430272
 20
304.7863064199795
 30
0.0
 11
802.9330433430272
 21
306.3613064199793
 31
0.0
  0
LINE
  5
A31
330
1F
100
AcDbEntity
  8
0
  6
Continuous
 62
     7
 48
5.0
100
AcDbLine
 10
804.5080433430282
 20
304.7863064199795
 30
0.0
 11
802.9330433430272
 21
304.7863064199795
 31
0.0
  0
LINE
  5
A32
330
1F
100
AcDbEntity
  8
0
  6
Continuous
 62
     7
 48
5.0
100
AcDbLine
 10
804.5080433430282
 20
303.7363064199795
 30
0.0
 11
804.5080433430282
 21
304.7863064199795
 31
0.0
  0
LINE
  5
A33
330
1F
100
AcDbEntity
  8
0
  6
Continuous
 62
     7
 48
5.0
100
AcDbLine
 10
802.9330433430272
 20
303.7363064199795
 30
0.0
 11
804.5080433430282
 21
303.7363064199795
 31
0.0
  0
LINE
  5
A34
330
1F
100
AcDbEntity
  8
0
  6
Continuous
 62
     7
 48
5.0
100
AcDbLine
 10
801.8830433430283
 20
306.3613064199793
 30
0.0
 11
801.8830433430283
 21
304.7863064199795
 31
0.0
  0
LINE
  5
A35
330
1F
100
AcDbEntity
  8
0
  6
Continuous
 62
     7
 48
5.0
100
AcDbLine
 10
802.9330433430272
 20
306.3613064199793
 30
0.0
 11
801.8830433430283
 21
306.3613064199793
 31
0.0
  0
LINE
  5
A36
330
1F
100
AcDbEntity
  8
0
  6
Continuous
 62
     7
 48
5.0
100
AcDbLine
 10
802.9330433430272
 20
314.3623064199793
 30
0.0
 11
802.9330433430272
 21
314.3623064199793
 31
0.0
  0
LINE
  5
A37
330
1F
100
AcDbEntity
  8
0
  6
Continuous
 62
     7
 48
5.0
100
AcDbLine
 10
802.9330433430272
 20
312.7873064199795
 30
0.0
 11
802.9330433430272
 21
314.3623064199793
 31
0.0
  0
LINE
  5
A38
330
1F
100
AcDbEntity
  8
0
  6
Continuous
 62
     7
 48
5.0
100
AcDbLine
 10
804.5080433430282
 20
312.7873064199795
 30
0.0
 11
802.9330433430272
 21
312.7873064199795
 31
0.0
  0
LINE
  5
A39
330
1F
100
AcDbEntity
  8
0
  6
Continuous
 62
     7
 48
5.0
100
AcDbLine
 10
804.5080433430282
 20
311.7373064199793
 30
0.0
 11
804.5080433430282
 21
312.7873064199795
 31
0.0
  0
LINE
  5
A3A
330
1F
100
AcDbEntity
  8
0
  6
Continuous
 62
     7
 48
5.0
100
AcDbLine
 10
802.9330433430272
 20
311.7373064199793
 30
0.0
 11
804.5080433430282
 21
311.7373064199793
 31
0.0
  0
LINE
  5
A3B
330
1F
100
AcDbEntity
  8
0
  6
Continuous
 62
     7
 48
5.0
100
AcDbLine
 10
802.9330433430272
 20
310.1623064199795
 30
0.0
 11
802.9330433430272
 21
311.7373064199793
 31
0.0
  0
LINE
  5
A3C
330
1F
100
AcDbEntity
  8
0
  6
Continuous
 62
     7
 48
5.0
100
AcDbLine
 10
801.8830433430283
 20
310.1623064199795
 30
0.0
 11
802.9330433430272
 21
310.1623064199795
 31
0.0
  0
LINE
  5
A3D
330
1F
100
AcDbEntity
  8
0
  6
Continuous
 62
     7
 48
5.0
100
AcDbLine
 10
801.8830433430283
 20
311.7373064199793
 30
0.0
 11
801.8830433430283
 21
310.1623064199795
 31
0.0
  0
LINE
  5
A3E
330
1F
100
AcDbEntity
  8
0
  6
Continuous
 62
     7
 48
5.0
100
AcDbLine
 10
801.8830433430283
 20
314.3623064199793
 30
0.0
 11
801.8830433430283
 21
312.7873064199795
 31
0.0
  0
LINE
  5
A3F
330
1F
100
AcDbEntity
  8
0
  6
Continuous
 62
     7
 48
5.0
100
AcDbLine
 10
802.9330433430272
 20
314.3623064199793
 30
0.0
 11
801.8830433430283
 21
314.3623064199793
 31
0.0
  0
LINE
  5
A40
330
1F
100
AcDbEntity
  8
0
  6
Continuous
 62
     7
 48
5.0
100
AcDbLine
 10
802.9330433430272
 20
322.3633064199795
 30
0.0
 11
802.9330433430272
 21
322.3633064199795
 31
0.0
  0
LINE
  5
A41
330
1F
100
AcDbEntity
  8
0
  6
Continuous
 62
     7
 48
5.0
100
AcDbLine
 10
802.9330433430272
 20
320.7883064199795
 30
0.0
 11
802.9330433430272
 21
322.3633064199795
 31
0.0
  0
LINE
  5
A42
330
1F
100
AcDbEntity
  8
0
  6
Continuous
 62
     7
 48
5.0
100
AcDbLine
 10
804.5080433430282
 20
320.7883064199795
 30
0.0
 11
802.9330433430272
 21
320.7883064199795
 31
0.0
  0
LINE
  5
A43
330
1F
100
AcDbEntity
  8
0
  6
Continuous
 62
     7
 48
5.0
100
AcDbLine
 10
804.5080433430282
 20
319.7383064199795
 30
0.0
 11
804.5080433430282
 21
320.7883064199795
 31
0.0
  0
LINE
  5
A44
330
1F
100
AcDbEntity
  8
0
  6
Continuous
 62
     7
 48
5.0
100
AcDbLine
 10
802.9330433430272
 20
319.7383064199795
 30
0.0
 11
804.5080433430282
 21
319.7383064199795
 31
0.0
  0
LINE
  5
A45
330
1F
100
AcDbEntity
  8
0
  6
Continuous
 62
     7
 48
5.0
100
AcDbLine
 10
802.9330433430272
 20
318.1633064199793
 30
0.0
 11
802.9330433430272
 21
319.7383064199795
 31
0.0
  0
LINE
  5
A46
330
1F
100
AcDbEntity
  8
0
  6
Continuous
 62
     7
 48
5.0
100
AcDbLine
 10
801.8830433430283
 20
318.1633064199793
 30
0.0
 11
802.9330433430272
 21
318.1633064199793
 31
0.0
  0
LINE
  5
A47
330
1F
100
AcDbEntity
  8
0
  6
Continuous
 62
     7
 48
5.0
100
AcDbLine
 10
801.8830433430283
 20
319.7383064199795
 30
0.0
 11
801.8830433430283
 21
318.1633064199793
 31
0.0
  0
LINE
  5
A48
330
1F
100
AcDbEntity
  8
0
  6
Continuous
 62
     7
 48
5.0
100
AcDbLine
 10
801.8830433430283
 20
322.3633064199795
 30
0.0
 11
801.8830433430283
 21
320.7883064199795
 31
0.0
  0
LINE
  5
A49
330
1F
100
AcDbEntity
  8
0
  6
Continuous
 62
     7
 48
5.0
100
AcDbLine
 10
802.9330433430272
 20
322.3633064199795
 30
0.0
 11
801.8830433430283
 21
322.3633064199795
 31
0.0
  0
LINE
  5
A4A
330
1F
100
AcDbEntity
  8
0
  6
Continuous
 62
     7
 48
5.0
100
AcDbLine
 10
802.9330433430272
 20
330.3643064199795
 30
0.0
 11
802.9330433430272
 21
330.3643064199795
 31
0.0
  0
LINE
  5
A4B
330
1F
100
AcDbEntity
  8
0
  6
Continuous
 62
     7
 48
5.0
100
AcDbLine
 10
802.9330433430272
 20
328.7893064199795
 30
0.0
 11
802.9330433430272
 21
330.3643064199795
 31
0.0
  0
LINE
  5
A4C
330
1F
100
AcDbEntity
  8
0
  6
Continuous
 62
     7
 48
5.0
100
AcDbLine
 10
804.5080433430282
 20
328.7893064199795
 30
0.0
 11
802.9330433430272
 21
328.7893064199795
 31
0.0
  0
LINE
  5
A4D
330
1F
100
AcDbEntity
  8
0
  6
Continuous
 62
     7
 48
5.0
100
AcDbLine
 10
804.5080433430282
 20
327.7393064199795
 30
0.0
 11
804.5080433430282
 21
328.7893064199795
 31
0.0
  0
LINE
  5
A4E
330
1F
100
AcDbEntity
  8
0
  6
Continuous
 62
     7
 48
5.0
100
AcDbLine
 10
802.9330433430272
 20
327.7393064199795
 30
0.0
 11
804.5080433430282
 21
327.7393064199795
 31
0.0
  0
LINE
  5
A4F
330
1F
100
AcDbEntity
  8
0
  6
Continuous
 62
     7
 48
5.0
100
AcDbLine
 10
802.9330433430272
 20
326.1643064199795
 30
0.0
 11
802.9330433430272
 21
327.7393064199795
 31
0.0
  0
LINE
  5
A50
330
1F
100
AcDbEntity
  8
0
  6
Continuous
 62
     7
 48
5.0
100
AcDbLine
 10
801.8830433430283
 20
326.1643064199795
 30
0.0
 11
802.9330433430272
 21
326.1643064199795
 31
0.0
  0
LINE
  5
A51
330
1F
100
AcDbEntity
  8
0
  6
Continuous
 62
     7
 48
5.0
100
AcDbLine
 10
801.8830433430283
 20
327.7393064199795
 30
0.0
 11
801.8830433430283
 21
326.1643064199795
 31
0.0
  0
LINE
  5
A52
330
1F
100
AcDbEntity
  8
0
  6
Continuous
 62
     7
 48
5.0
100
AcDbLine
 10
801.8830433430283
 20
330.3643064199795
 30
0.0
 11
801.8830433430283
 21
328.7893064199795
 31
0.0
  0
LINE
  5
A53
330
1F
100
AcDbEntity
  8
0
  6
Continuous
 62
     7
 48
5.0
100
AcDbLine
 10
802.9330433430272
 20
330.3643064199795
 30
0.0
 11
801.8830433430283
 21
330.3643064199795
 31
0.0
  0
LINE
  5
A54
330
1F
100
AcDbEntity
  8
0
  6
Continuous
 62
     7
 48
5.0
100
AcDbLine
 10
802.9330433430272
 20
338.3653064199795
 30
0.0
 11
802.9330433430272
 21
338.3653064199795
 31
0.0
  0
LINE
  5
A55
330
1F
100
AcDbEntity
  8
0
  6
Continuous
 62
     7
 48
5.0
100
AcDbLine
 10
802.9330433430272
 20
336.7903064199795
 30
0.0
 11
802.9330433430272
 21
338.3653064199795
 31
0.0
  0
LINE
  5
A56
330
1F
100
AcDbEntity
  8
0
  6
Continuous
 62
     7
 48
5.0
100
AcDbLine
 10
804.5080433430282
 20
336.7903064199795
 30
0.0
 11
802.9330433430272
 21
336.7903064199795
 31
0.0
  0
LINE
  5
A57
330
1F
100
AcDbEntity
  8
0
  6
Continuous
 62
     7
 48
5.0
100
AcDbLine
 10
804.5080433430282
 20
335.7403064199793
 30
0.0
 11
804.5080433430282
 21
336.7903064199795
 31
0.0
  0
LINE
  5
A58
330
1F
100
AcDbEntity
  8
0
  6
Continuous
 62
     7
 48
5.0
100
AcDbLine
 10
802.9330433430272
 20
335.7403064199793
 30
0.0
 11
804.5080433430282
 21
335.7403064199793
 31
0.0
  0
LINE
  5
A59
330
1F
100
AcDbEntity
  8
0
  6
Continuous
 62
     7
 48
5.0
100
AcDbLine
 10
802.9330433430272
 20
334.1653064199795
 30
0.0
 11
802.9330433430272
 21
335.7403064199793
 31
0.0
  0
LINE
  5
A5A
330
1F
100
AcDbEntity
  8
0
  6
Continuous
 62
     7
 48
5.0
100
AcDbLine
 10
801.8830433430283
 20
334.1653064199795
 30
0.0
 11
802.9330433430272
 21
334.1653064199795
 31
0.0
  0
LINE
  5
A5B
330
1F
100
AcDbEntity
  8
0
  6
Continuous
 62
     7
 48
5.0
100
AcDbLine
 10
801.8830433430283
 20
335.7403064199793
 30
0.0
 11
801.8830433430283
 21
334.1653064199795
 31
0.0
  0
LINE
  5
A5C
330
1F
100
AcDbEntity
  8
0
  6
Continuous
 62
     7
 48
5.0
100
AcDbLine
 10
801.8830433430283
 20
338.3653064199795
 30
0.0
 11
801.8830433430283
 21
336.7903064199795
 31
0.0
  0
LINE
  5
A5D
330
1F
100
AcDbEntity
  8
0
  6
Continuous
 62
     7
 48
5.0
100
AcDbLine
 10
802.9330433430272
 20
338.3653064199795
 30
0.0
 11
801.8830433430283
 21
338.3653064199795
 31
0.0
  0
LINE
  5
A5E
330
1F
100
AcDbEntity
  8
0
  6
Continuous
 62
     7
 48
5.0
100
AcDbLine
 10
802.9330433430272
 20
343.7413064199794
 30
0.0
 11
804.5080433430282
 21
343.7413064199794
 31
0.0
  0
LINE
  5
A5F
330
1F
100
AcDbEntity
  8
0
  6
Continuous
 62
     7
 48
5.0
100
AcDbLine
 10
802.9330433430272
 20
342.1663064199794
 30
0.0
 11
802.9330433430272
 21
343.7413064199794
 31
0.0
  0
LINE
  5
A60
330
1F
100
AcDbEntity
  8
0
  6
Continuous
 62
     7
 48
5.0
100
AcDbLine
 10
801.8830433430283
 20
342.1663064199794
 30
0.0
 11
802.9330433430272
 21
342.1663064199794
 31
0.0
  0
LINE
  5
A61
330
1F
100
AcDbEntity
  8
0
  6
Continuous
 62
     7
 48
5.0
100
AcDbLine
 10
801.8830433430283
 20
343.7413064199794
 30
0.0
 11
801.8830433430283
 21
342.1663064199794
 31
0.0
  0
CIRCLE
  5
A62
330
1F
100
AcDbEntity
  8
0
  6
Continuous
 62
     7
100
AcDbCircle
 10
802.4080409897406
 20
368.2693067732663
 30
0.0
 40
3.149997646713896
  0
CIRCLE
  5
A63
330
1F
100
AcDbEntity
  8
0
  6
Continuous
 62
     7
100
AcDbCircle
 10
802.4080409897406
 20
360.2683067732663
 30
0.0
 40
3.149997646714008
  0
CIRCLE
  5
A64
330
1F
100
AcDbEntity
  8
0
  6
Continuous
 62
     7
100
AcDbCircle
 10
802.4080409897406
 20
352.2673067732656
 30
0.0
 40
3.149997646713896
  0
LINE
  5
A65
330
1F
100
AcDbEntity
  8
0
  6
Continuous
 62
     7
 48
5.0
100
AcDbLine
 10
801.8830433430283
 20
344.7913064199795
 30
0.0
 11
800.3080433430271
 21
344.7913064199795
 31
0.0
  0
LINE
  5
A66
330
1F
100
AcDbEntity
  8
0
  6
Continuous
 62
     7
 48
5.0
100
AcDbLine
 10
800.3080433430271
 20
351.7423064199794
 30
0.0
 11
801.8830433430283
 21
351.7423064199794
 31
0.0
  0
LINE
  5
A67
330
1F
100
AcDbEntity
  8
0
  6
Continuous
 62
     7
 48
5.0
100
AcDbLine
 10
801.8830433430283
 20
352.7923064199796
 30
0.0
 11
800.3080433430271
 21
352.7923064199796
 31
0.0
  0
LINE
  5
A68
330
1F
100
AcDbEntity
  8
0
  6
Continuous
 62
     7
 48
5.0
100
AcDbLine
 10
800.3080433430271
 20
359.7433064199794
 30
0.0
 11
801.8830433430283
 21
359.7433064199794
 31
0.0
  0
LINE
  5
A69
330
1F
100
AcDbEntity
  8
0
  6
Continuous
 62
     7
 48
5.0
100
AcDbLine
 10
801.8830433430283
 20
360.7933064199794
 30
0.0
 11
800.3080433430271
 21
360.7933064199794
 31
0.0
  0
LINE
  5
A6A
330
1F
100
AcDbEntity
  8
0
  6
Continuous
 62
     7
 48
5.0
100
AcDbLine
 10
800.3080433430271
 20
367.7443064199793
 30
0.0
 11
801.8830433430283
 21
367.7443064199793
 31
0.0
  0
LINE
  5
A6B
330
1F
100
AcDbEntity
  8
0
  6
Continuous
 62
     7
 48
5.0
100
AcDbLine
 10
801.8830433430283
 20
368.7943064199794
 30
0.0
 11
800.3080433430271
 21
368.7943064199794
 31
0.0
  0
LINE
  5
A6C
330
1F
100
AcDbEntity
  8
0
  6
Continuous
 62
     7
 48
5.0
100
AcDbLine
 10
807.0896393430283
 20
371.4942724199793
 30
0.0
 11
796.5896393430278
 21
371.4942724199793
 31
0.0
  0
LINE
  5
A6D
330
1F
100
AcDbEntity
  8
0
  6
Continuous
 62
     7
 48
5.0
100
AcDbLine
 10
807.0896393430283
 20
372.8802724199794
 30
0.0
 11
796.5896393430278
 21
372.8802724199794
 31
0.0
  0
LINE
  5
A6E
330
1F
100
AcDbEntity
  8
0
  6
Continuous
 62
     7
 48
5.0
100
AcDbLine
 10
807.0896393430283
 20
376.8807724199794
 30
0.0
 11
787.1396393430273
 21
376.8807724199794
 31
0.0
  0
LINE
  5
A6F
330
1F
100
AcDbEntity
  8
0
  6
Continuous
 62
     7
 48
5.0
100
AcDbLine
 10
807.0896393430283
 20
363.4932724199793
 30
0.0
 11
796.5896393430278
 21
363.4932724199793
 31
0.0
  0
LINE
  5
A70
330
1F
100
AcDbEntity
  8
0
  6
Continuous
 62
     7
 48
5.0
100
AcDbLine
 10
807.0896393430283
 20
364.8792724199795
 30
0.0
 11
796.5896393430278
 21
364.8792724199795
 31
0.0
  0
LINE
  5
A71
330
1F
100
AcDbEntity
  8
0
  6
Continuous
 62
     7
 48
5.0
100
AcDbLine
 10
807.0896393430283
 20
355.4922724199794
 30
0.0
 11
796.5896393430278
 21
355.4922724199794
 31
0.0
  0
LINE
  5
A72
330
1F
100
AcDbEntity
  8
0
  6
Continuous
 62
     7
 48
5.0
100
AcDbLine
 10
807.0896393430283
 20
356.8782724199794
 30
0.0
 11
796.5896393430278
 21
356.8782724199794
 31
0.0
  0
LINE
  5
A73
330
1F
100
AcDbEntity
  8
0
  6
Continuous
 62
     7
 48
5.0
100
AcDbLine
 10
807.0896393430283
 20
347.4912724199794
 30
0.0
 11
796.5896393430278
 21
347.4912724199794
 31
0.0
  0
LINE
  5
A74
330
1F
100
AcDbEntity
  8
0
  6
Continuous
 62
     7
 48
5.0
100
AcDbLine
 10
807.0896393430283
 20
348.8772724199794
 30
0.0
 11
796.5896393430278
 21
348.8772724199794
 31
0.0
  0
LINE
  5
A75
330
1F
100
AcDbEntity
  8
0
  6
Continuous
 62
     7
100
AcDbLine
 10
779.0896393430279
 20
378.0590144199793
 30
0.0
 11
807.0896393430283
 21
378.0590144199793
 31
0.0
  0
CIRCLE
  5
A76
330
1F
100
AcDbEntity
  8
0
  6
Continuous
 62
     7
100
AcDbCircle
 10
791.6184369897404
 20
364.2232087732661
 30
0.0
 40
3.149997646714008
  0
LINE
  5
A77
330
1F
100
AcDbEntity
  8
0
  6
Continuous
 62
     7
 48
5.0
100
AcDbLine
 10
792.1434393430273
 20
364.7482084199793
 30
0.0
 11
792.1434393430273
 21
366.3232084199793
 31
0.0
  0
LINE
  5
A78
330
1F
100
AcDbEntity
  8
0
  6
Continuous
 62
     7
 48
5.0
100
AcDbLine
 10
791.0934393430283
 20
366.3232084199793
 30
0.0
 11
791.0934393430283
 21
364.7482084199793
 31
0.0
  0
CIRCLE
  5
A79
330
1F
100
AcDbEntity
  8
0
  6
Continuous
 62
     7
100
AcDbCircle
 10
791.6184369897404
 20
348.2212087732662
 30
0.0
 40
3.149997646714008
  0
CIRCLE
  5
A7A
330
1F
100
AcDbEntity
  8
0
  6
Continuous
 62
     7
100
AcDbCircle
 10
791.6184369897404
 20
356.2222087732663
 30
0.0
 40
3.149997646713896
  0
LINE
  5
A7B
330
1F
100
AcDbEntity
  8
0
  6
Continuous
 62
     7
 48
5.0
100
AcDbLine
 10
792.1434393430273
 20
350.3212084199795
 30
0.0
 11
792.1434393430273
 21
350.3212084199795
 31
0.0
  0
LINE
  5
A7C
330
1F
100
AcDbEntity
  8
0
  6
Continuous
 62
     7
 48
5.0
100
AcDbLine
 10
792.1434393430273
 20
348.7462084199793
 30
0.0
 11
792.1434393430273
 21
350.3212084199795
 31
0.0
  0
LINE
  5
A7D
330
1F
100
AcDbEntity
  8
0
  6
Continuous
 62
     7
 48
5.0
100
AcDbLine
 10
793.7184393430278
 20
348.7462084199793
 30
0.0
 11
792.1434393430273
 21
348.7462084199793
 31
0.0
  0
LINE
  5
A7E
330
1F
100
AcDbEntity
  8
0
  6
Continuous
 62
     7
 48
5.0
100
AcDbLine
 10
793.7184393430278
 20
347.6962084199795
 30
0.0
 11
793.7184393430278
 21
348.7462084199793
 31
0.0
  0
LINE
  5
A7F
330
1F
100
AcDbEntity
  8
0
  6
Continuous
 62
     7
 48
5.0
100
AcDbLine
 10
792.1434393430273
 20
347.6962084199795
 30
0.0
 11
793.7184393430278
 21
347.6962084199795
 31
0.0
  0
LINE
  5
A80
330
1F
100
AcDbEntity
  8
0
  6
Continuous
 62
     7
 48
5.0
100
AcDbLine
 10
792.1434393430273
 20
346.1212084199793
 30
0.0
 11
792.1434393430273
 21
347.6962084199795
 31
0.0
  0
LINE
  5
A81
330
1F
100
AcDbEntity
  8
0
  6
Continuous
 62
     7
 48
5.0
100
AcDbLine
 10
791.0934393430283
 20
346.1212084199793
 30
0.0
 11
792.1434393430273
 21
346.1212084199793
 31
0.0
  0
LINE
  5
A82
330
1F
100
AcDbEntity
  8
0
  6
Continuous
 62
     7
 48
5.0
100
AcDbLine
 10
791.0934393430283
 20
347.6962084199795
 30
0.0
 11
791.0934393430283
 21
346.1212084199793
 31
0.0
  0
LINE
  5
A83
330
1F
100
AcDbEntity
  8
0
  6
Continuous
 62
     7
 48
5.0
100
AcDbLine
 10
789.5184393430273
 20
347.6962084199795
 30
0.0
 11
791.0934393430283
 21
347.6962084199795
 31
0.0
  0
LINE
  5
A84
330
1F
100
AcDbEntity
  8
0
  6
Continuous
 62
     7
 48
5.0
100
AcDbLine
 10
789.5184393430273
 20
348.7462084199793
 30
0.0
 11
789.5184393430273
 21
347.6962084199795
 31
0.0
  0
LINE
  5
A85
330
1F
100
AcDbEntity
  8
0
  6
Continuous
 62
     7
 48
5.0
100
AcDbLine
 10
791.0934393430283
 20
348.7462084199793
 30
0.0
 11
789.5184393430273
 21
348.7462084199793
 31
0.0
  0
LINE
  5
A86
330
1F
100
AcDbEntity
  8
0
  6
Continuous
 62
     7
 48
5.0
100
AcDbLine
 10
791.0934393430283
 20
350.3212084199795
 30
0.0
 11
791.0934393430283
 21
348.7462084199793
 31
0.0
  0
LINE
  5
A87
330
1F
100
AcDbEntity
  8
0
  6
Continuous
 62
     7
 48
5.0
100
AcDbLine
 10
792.1434393430273
 20
350.3212084199795
 30
0.0
 11
791.0934393430283
 21
350.3212084199795
 31
0.0
  0
LINE
  5
A88
330
1F
100
AcDbEntity
  8
0
  6
Continuous
 62
     7
 48
5.0
100
AcDbLine
 10
792.1434393430273
 20
358.3222084199794
 30
0.0
 11
792.1434393430273
 21
358.3222084199794
 31
0.0
  0
LINE
  5
A89
330
1F
100
AcDbEntity
  8
0
  6
Continuous
 62
     7
 48
5.0
100
AcDbLine
 10
792.1434393430273
 20
356.7472084199794
 30
0.0
 11
792.1434393430273
 21
358.3222084199794
 31
0.0
  0
LINE
  5
A8A
330
1F
100
AcDbEntity
  8
0
  6
Continuous
 62
     7
 48
5.0
100
AcDbLine
 10
793.7184393430278
 20
356.7472084199794
 30
0.0
 11
792.1434393430273
 21
356.7472084199794
 31
0.0
  0
LINE
  5
A8B
330
1F
100
AcDbEntity
  8
0
  6
Continuous
 62
     7
 48
5.0
100
AcDbLine
 10
793.7184393430278
 20
355.6972084199794
 30
0.0
 11
793.7184393430278
 21
356.7472084199794
 31
0.0
  0
LINE
  5
A8C
330
1F
100
AcDbEntity
  8
0
  6
Continuous
 62
     7
 48
5.0
100
AcDbLine
 10
792.1434393430273
 20
355.6972084199794
 30
0.0
 11
793.7184393430278
 21
355.6972084199794
 31
0.0
  0
LINE
  5
A8D
330
1F
100
AcDbEntity
  8
0
  6
Continuous
 62
     7
 48
5.0
100
AcDbLine
 10
792.1434393430273
 20
354.1222084199794
 30
0.0
 11
792.1434393430273
 21
355.6972084199794
 31
0.0
  0
LINE
  5
A8E
330
1F
100
AcDbEntity
  8
0
  6
Continuous
 62
     7
 48
5.0
100
AcDbLine
 10
791.0934393430283
 20
354.1222084199794
 30
0.0
 11
792.1434393430273
 21
354.1222084199794
 31
0.0
  0
LINE
  5
A8F
330
1F
100
AcDbEntity
  8
0
  6
Continuous
 62
     7
 48
5.0
100
AcDbLine
 10
791.0934393430283
 20
355.6972084199794
 30
0.0
 11
791.0934393430283
 21
354.1222084199794
 31
0.0
  0
LINE
  5
A90
330
1F
100
AcDbEntity
  8
0
  6
Continuous
 62
     7
 48
5.0
100
AcDbLine
 10
789.5184393430273
 20
355.6972084199794
 30
0.0
 11
791.0934393430283
 21
355.6972084199794
 31
0.0
  0
LINE
  5
A91
330
1F
100
AcDbEntity
  8
0
  6
Continuous
 62
     7
 48
5.0
100
AcDbLine
 10
789.5184393430273
 20
356.7472084199794
 30
0.0
 11
789.5184393430273
 21
355.6972084199794
 31
0.0
  0
LINE
  5
A92
330
1F
100
AcDbEntity
  8
0
  6
Continuous
 62
     7
 48
5.0
100
AcDbLine
 10
791.0934393430283
 20
356.7472084199794
 30
0.0
 11
789.5184393430273
 21
356.7472084199794
 31
0.0
  0
LINE
  5
A93
330
1F
100
AcDbEntity
  8
0
  6
Continuous
 62
     7
 48
5.0
100
AcDbLine
 10
791.0934393430283
 20
358.3222084199794
 30
0.0
 11
791.0934393430283
 21
356.7472084199794
 31
0.0
  0
LINE
  5
A94
330
1F
100
AcDbEntity
  8
0
  6
Continuous
 62
     7
 48
5.0
100
AcDbLine
 10
792.1434393430273
 20
358.3222084199794
 30
0.0
 11
791.0934393430283
 21
358.3222084199794
 31
0.0
  0
LINE
  5
A95
330
1F
100
AcDbEntity
  8
0
  6
Continuous
 62
     7
 48
5.0
100
AcDbLine
 10
791.6184393430278
 20
359.3722064199794
 30
0.0
 11
791.6184393430278
 21
359.3722064199794
 31
0.0
  0
LINE
  5
A96
330
1F
100
AcDbEntity
  8
0
  6
Continuous
 62
     7
 48
5.0
100
AcDbLine
 10
800.3080433430271
 20
352.7923064199796
 30
0.0
 11
800.3080433430271
 21
351.7423064199794
 31
0.0
  0
LINE
  5
A97
330
1F
100
AcDbEntity
  8
0
  6
Continuous
 62
     7
 48
5.0
100
AcDbLine
 10
793.7184393430278
 20
364.7482084199793
 30
0.0
 11
792.1434393430273
 21
364.7482084199793
 31
0.0
  0
LINE
  5
A98
330
1F
100
AcDbEntity
  8
0
  6
Continuous
 62
     7
 48
5.0
100
AcDbLine
 10
793.7184393430278
 20
363.6982084199793
 30
0.0
 11
793.7184393430278
 21
364.7482084199793
 31
0.0
  0
LINE
  5
A99
330
1F
100
AcDbEntity
  8
0
  6
Continuous
 62
     7
 48
5.0
100
AcDbLine
 10
792.1434393430273
 20
363.6982084199793
 30
0.0
 11
793.7184393430278
 21
363.6982084199793
 31
0.0
  0
LINE
  5
A9A
330
1F
100
AcDbEntity
  8
0
  6
Continuous
 62
     7
 48
5.0
100
AcDbLine
 10
792.1434393430273
 20
362.1232084199793
 30
0.0
 11
792.1434393430273
 21
363.6982084199793
 31
0.0
  0
LINE
  5
A9B
330
1F
100
AcDbEntity
  8
0
  6
Continuous
 62
     7
 48
5.0
100
AcDbLine
 10
791.0934393430283
 20
362.1232084199793
 30
0.0
 11
792.1434393430273
 21
362.1232084199793
 31
0.0
  0
LINE
  5
A9C
330
1F
100
AcDbEntity
  8
0
  6
Continuous
 62
     7
 48
5.0
100
AcDbLine
 10
791.0934393430283
 20
363.6982084199793
 30
0.0
 11
791.0934393430283
 21
362.1232084199793
 31
0.0
  0
LINE
  5
A9D
330
1F
100
AcDbEntity
  8
0
  6
Continuous
 62
     7
 48
5.0
100
AcDbLine
 10
789.5184393430273
 20
363.6982084199793
 30
0.0
 11
791.0934393430283
 21
363.6982084199793
 31
0.0
  0
LINE
  5
A9E
330
1F
100
AcDbEntity
  8
0
  6
Continuous
 62
     7
 48
5.0
100
AcDbLine
 10
789.5184393430273
 20
364.7482084199793
 30
0.0
 11
789.5184393430273
 21
363.6982084199793
 31
0.0
  0
LINE
  5
A9F
330
1F
100
AcDbEntity
  8
0
  6
Continuous
 62
     7
 48
5.0
100
AcDbLine
 10
791.0934393430283
 20
364.7482084199793
 30
0.0
 11
789.5184393430273
 21
364.7482084199793
 31
0.0
  0
LINE
  5
AA0
330
1F
100
AcDbEntity
  8
0
  6
Continuous
 62
     7
 48
5.0
100
AcDbLine
 10
800.3080433430271
 20
360.7933064199794
 30
0.0
 11
800.3080433430271
 21
359.7433064199794
 31
0.0
  0
LINE
  5
AA1
330
1F
100
AcDbEntity
  8
0
  6
Continuous
 62
     7
 48
5.0
100
AcDbLine
 10
796.5896393430278
 20
359.4927724199793
 30
0.0
 11
787.1396393430273
 21
359.4927724199793
 31
0.0
  0
LINE
  5
AA2
330
1F
100
AcDbEntity
  8
0
  6
Continuous
 62
     7
 48
5.0
100
AcDbLine
 10
796.5896393430278
 20
360.8787724199795
 30
0.0
 11
787.1396393430273
 21
360.8787724199795
 31
0.0
  0
LINE
  5
AA3
330
1F
100
AcDbEntity
  8
0
  6
Continuous
 62
     7
 48
5.0
100
AcDbLine
 10
796.5896393430278
 20
351.4917724199793
 30
0.0
 11
787.1396393430273
 21
351.4917724199793
 31
0.0
  0
LINE
  5
AA4
330
1F
100
AcDbEntity
  8
0
  6
Continuous
 62
     7
 48
5.0
100
AcDbLine
 10
796.5896393430278
 20
352.8777724199794
 30
0.0
 11
787.1396393430273
 21
352.8777724199794
 31
0.0
  0
LINE
  5
AA5
330
1F
100
AcDbEntity
  8
0
  6
Continuous
 62
     7
 48
5.0
100
AcDbLine
 10
796.5896393430278
 20
344.8767724199793
 30
0.0
 11
787.1396393430273
 21
344.8767724199793
 31
0.0
  0
CIRCLE
  5
AA6
330
1F
100
AcDbEntity
  8
0
  6
Continuous
 62
     7
100
AcDbCircle
 10
791.6184369897404
 20
372.2242087732666
 30
0.0
 40
3.149997646713896
  0
LINE
  5
AA7
330
1F
100
AcDbEntity
  8
0
  6
Continuous
 62
     7
 48
5.0
100
AcDbLine
 10
792.1434393430273
 20
366.3232084199793
 30
0.0
 11
792.1434393430273
 21
366.3232084199793
 31
0.0
  0
LINE
  5
AA8
330
1F
100
AcDbEntity
  8
0
  6
Continuous
 62
     7
 48
5.0
100
AcDbLine
 10
792.1434393430273
 20
366.3232084199793
 30
0.0
 11
791.0934393430283
 21
366.3232084199793
 31
0.0
  0
LINE
  5
AA9
330
1F
100
AcDbEntity
  8
0
  6
Continuous
 62
     7
 48
5.0
100
AcDbLine
 10
791.6184393430278
 20
367.3732064199794
 30
0.0
 11
791.6184393430278
 21
367.3732064199794
 31
0.0
  0
LINE
  5
AAA
330
1F
100
AcDbEntity
  8
0
  6
Continuous
 62
     7
 48
5.0
100
AcDbLine
 10
792.1434393430273
 20
374.324208419979
 30
0.0
 11
792.1434393430273
 21
374.324208419979
 31
0.0
  0
LINE
  5
AAB
330
1F
100
AcDbEntity
  8
0
  6
Continuous
 62
     7
 48
5.0
100
AcDbLine
 10
792.1434393430273
 20
372.7492084199794
 30
0.0
 11
792.1434393430273
 21
374.324208419979
 31
0.0
  0
LINE
  5
AAC
330
1F
100
AcDbEntity
  8
0
  6
Continuous
 62
     7
 48
5.0
100
AcDbLine
 10
793.7184393430278
 20
372.7492084199794
 30
0.0
 11
792.1434393430273
 21
372.7492084199794
 31
0.0
  0
LINE
  5
AAD
330
1F
100
AcDbEntity
  8
0
  6
Continuous
 62
     7
 48
5.0
100
AcDbLine
 10
793.7184393430278
 20
371.6992084199794
 30
0.0
 11
793.7184393430278
 21
372.7492084199794
 31
0.0
  0
LINE
  5
AAE
330
1F
100
AcDbEntity
  8
0
  6
Continuous
 62
     7
 48
5.0
100
AcDbLine
 10
792.1434393430273
 20
371.6992084199794
 30
0.0
 11
793.7184393430278
 21
371.6992084199794
 31
0.0
  0
LINE
  5
AAF
330
1F
100
AcDbEntity
  8
0
  6
Continuous
 62
     7
 48
5.0
100
AcDbLine
 10
792.1434393430273
 20
370.1242084199793
 30
0.0
 11
792.1434393430273
 21
371.6992084199794
 31
0.0
  0
LINE
  5
AB0
330
1F
100
AcDbEntity
  8
0
  6
Continuous
 62
     7
 48
5.0
100
AcDbLine
 10
791.0934393430283
 20
370.1242084199793
 30
0.0
 11
792.1434393430273
 21
370.1242084199793
 31
0.0
  0
LINE
  5
AB1
330
1F
100
AcDbEntity
  8
0
  6
Continuous
 62
     7
 48
5.0
100
AcDbLine
 10
791.0934393430283
 20
371.6992084199794
 30
0.0
 11
791.0934393430283
 21
370.1242084199793
 31
0.0
  0
LINE
  5
AB2
330
1F
100
AcDbEntity
  8
0
  6
Continuous
 62
     7
 48
5.0
100
AcDbLine
 10
789.5184393430273
 20
371.6992084199794
 30
0.0
 11
791.0934393430283
 21
371.6992084199794
 31
0.0
  0
LINE
  5
AB3
330
1F
100
AcDbEntity
  8
0
  6
Continuous
 62
     7
 48
5.0
100
AcDbLine
 10
789.5184393430273
 20
372.7492084199794
 30
0.0
 11
789.5184393430273
 21
371.6992084199794
 31
0.0
  0
LINE
  5
AB4
330
1F
100
AcDbEntity
  8
0
  6
Continuous
 62
     7
 48
5.0
100
AcDbLine
 10
791.0934393430283
 20
372.7492084199794
 30
0.0
 11
789.5184393430273
 21
372.7492084199794
 31
0.0
  0
LINE
  5
AB5
330
1F
100
AcDbEntity
  8
0
  6
Continuous
 62
     7
 48
5.0
100
AcDbLine
 10
791.0934393430283
 20
374.324208419979
 30
0.0
 11
791.0934393430283
 21
372.7492084199794
 31
0.0
  0
LINE
  5
AB6
330
1F
100
AcDbEntity
  8
0
  6
Continuous
 62
     7
 48
5.0
100
AcDbLine
 10
792.1434393430273
 20
374.324208419979
 30
0.0
 11
791.0934393430283
 21
374.324208419979
 31
0.0
  0
LINE
  5
AB7
330
1F
100
AcDbEntity
  8
0
  6
Continuous
 62
     7
 48
5.0
100
AcDbLine
 10
800.3080433430271
 20
368.7943064199794
 30
0.0
 11
800.3080433430271
 21
367.7443064199793
 31
0.0
  0
LINE
  5
AB8
330
1F
100
AcDbEntity
  8
0
  6
Continuous
 62
     7
 48
5.0
100
AcDbLine
 10
796.5896393430278
 20
375.4947724199794
 30
0.0
 11
787.1396393430273
 21
375.4947724199794
 31
0.0
  0
LINE
  5
AB9
330
1F
100
AcDbEntity
  8
0
  6
Continuous
 62
     7
 48
5.0
100
AcDbLine
 10
796.5896393430278
 20
367.4937724199793
 30
0.0
 11
787.1396393430273
 21
367.4937724199793
 31
0.0
  0
LINE
  5
ABA
330
1F
100
AcDbEntity
  8
0
  6
Continuous
 62
     7
 48
5.0
100
AcDbLine
 10
796.5896393430278
 20
368.8797724199794
 30
0.0
 11
787.1396393430273
 21
368.8797724199794
 31
0.0
  0
LINE
  5
ABB
330
1F
100
AcDbEntity
  8
0
  6
Continuous
 62
     7
 48
5.0
100
AcDbLine
 10
802.9330433430272
 20
346.3663064199794
 30
0.0
 11
802.9330433430272
 21
346.3663064199794
 31
0.0
  0
LINE
  5
ABC
330
1F
100
AcDbEntity
  8
0
  6
Continuous
 62
     7
 48
5.0
100
AcDbLine
 10
802.9330433430272
 20
344.7913064199795
 30
0.0
 11
802.9330433430272
 21
346.3663064199794
 31
0.0
  0
LINE
  5
ABD
330
1F
100
AcDbEntity
  8
0
  6
Continuous
 62
     7
 48
5.0
100
AcDbLine
 10
804.5080433430282
 20
344.7913064199795
 30
0.0
 11
802.9330433430272
 21
344.7913064199795
 31
0.0
  0
LINE
  5
ABE
330
1F
100
AcDbEntity
  8
0
  6
Continuous
 62
     7
 48
5.0
100
AcDbLine
 10
801.8830433430283
 20
346.3663064199794
 30
0.0
 11
801.8830433430283
 21
344.7913064199795
 31
0.0
  0
LINE
  5
ABF
330
1F
100
AcDbEntity
  8
0
  6
Continuous
 62
     7
 48
5.0
100
AcDbLine
 10
802.9330433430272
 20
346.3663064199794
 30
0.0
 11
801.8830433430283
 21
346.3663064199794
 31
0.0
  0
LINE
  5
AC0
330
1F
100
AcDbEntity
  8
0
  6
Continuous
 62
     7
 48
5.0
100
AcDbLine
 10
802.9330433430272
 20
354.3673064199794
 30
0.0
 11
802.9330433430272
 21
354.3673064199794
 31
0.0
  0
LINE
  5
AC1
330
1F
100
AcDbEntity
  8
0
  6
Continuous
 62
     7
 48
5.0
100
AcDbLine
 10
802.9330433430272
 20
352.7923064199796
 30
0.0
 11
802.9330433430272
 21
354.3673064199794
 31
0.0
  0
LINE
  5
AC2
330
1F
100
AcDbEntity
  8
0
  6
Continuous
 62
     7
 48
5.0
100
AcDbLine
 10
804.5080433430282
 20
352.7923064199796
 30
0.0
 11
802.9330433430272
 21
352.7923064199796
 31
0.0
  0
LINE
  5
AC3
330
1F
100
AcDbEntity
  8
0
  6
Continuous
 62
     7
 48
5.0
100
AcDbLine
 10
804.5080433430282
 20
351.7423064199794
 30
0.0
 11
804.5080433430282
 21
352.7923064199796
 31
0.0
  0
LINE
  5
AC4
330
1F
100
AcDbEntity
  8
0
  6
Continuous
 62
     7
 48
5.0
100
AcDbLine
 10
802.9330433430272
 20
351.7423064199794
 30
0.0
 11
804.5080433430282
 21
351.7423064199794
 31
0.0
  0
LINE
  5
AC5
330
1F
100
AcDbEntity
  8
0
  6
Continuous
 62
     7
 48
5.0
100
AcDbLine
 10
802.9330433430272
 20
350.1673064199794
 30
0.0
 11
802.9330433430272
 21
351.7423064199794
 31
0.0
  0
LINE
  5
AC6
330
1F
100
AcDbEntity
  8
0
  6
Continuous
 62
     7
 48
5.0
100
AcDbLine
 10
801.8830433430283
 20
350.1673064199794
 30
0.0
 11
802.9330433430272
 21
350.1673064199794
 31
0.0
  0
LINE
  5
AC7
330
1F
100
AcDbEntity
  8
0
  6
Continuous
 62
     7
 48
5.0
100
AcDbLine
 10
801.8830433430283
 20
351.7423064199794
 30
0.0
 11
801.8830433430283
 21
350.1673064199794
 31
0.0
  0
LINE
  5
AC8
330
1F
100
AcDbEntity
  8
0
  6
Continuous
 62
     7
 48
5.0
100
AcDbLine
 10
801.8830433430283
 20
354.3673064199794
 30
0.0
 11
801.8830433430283
 21
352.7923064199796
 31
0.0
  0
LINE
  5
AC9
330
1F
100
AcDbEntity
  8
0
  6
Continuous
 62
     7
 48
5.0
100
AcDbLine
 10
802.9330433430272
 20
354.3673064199794
 30
0.0
 11
801.8830433430283
 21
354.3673064199794
 31
0.0
  0
LINE
  5
ACA
330
1F
100
AcDbEntity
  8
0
  6
Continuous
 62
     7
 48
5.0
100
AcDbLine
 10
802.9330433430272
 20
362.3683064199795
 30
0.0
 11
802.9330433430272
 21
362.3683064199795
 31
0.0
  0
LINE
  5
ACB
330
1F
100
AcDbEntity
  8
0
  6
Continuous
 62
     7
 48
5.0
100
AcDbLine
 10
802.9330433430272
 20
360.7933064199794
 30
0.0
 11
802.9330433430272
 21
362.3683064199795
 31
0.0
  0
LINE
  5
ACC
330
1F
100
AcDbEntity
  8
0
  6
Continuous
 62
     7
 48
5.0
100
AcDbLine
 10
804.5080433430282
 20
360.7933064199794
 30
0.0
 11
802.9330433430272
 21
360.7933064199794
 31
0.0
  0
LINE
  5
ACD
330
1F
100
AcDbEntity
  8
0
  6
Continuous
 62
     7
 48
5.0
100
AcDbLine
 10
804.5080433430282
 20
359.7433064199794
 30
0.0
 11
804.5080433430282
 21
360.7933064199794
 31
0.0
  0
LINE
  5
ACE
330
1F
100
AcDbEntity
  8
0
  6
Continuous
 62
     7
 48
5.0
100
AcDbLine
 10
802.9330433430272
 20
359.7433064199794
 30
0.0
 11
804.5080433430282
 21
359.7433064199794
 31
0.0
  0
LINE
  5
ACF
330
1F
100
AcDbEntity
  8
0
  6
Continuous
 62
     7
 48
5.0
100
AcDbLine
 10
802.9330433430272
 20
358.1683064199795
 30
0.0
 11
802.9330433430272
 21
359.7433064199794
 31
0.0
  0
LINE
  5
AD0
330
1F
100
AcDbEntity
  8
0
  6
Continuous
 62
     7
 48
5.0
100
AcDbLine
 10
801.8830433430283
 20
358.1683064199795
 30
0.0
 11
802.9330433430272
 21
358.1683064199795
 31
0.0
  0
LINE
  5
AD1
330
1F
100
AcDbEntity
  8
0
  6
Continuous
 62
     7
 48
5.0
100
AcDbLine
 10
801.8830433430283
 20
359.7433064199794
 30
0.0
 11
801.8830433430283
 21
358.1683064199795
 31
0.0
  0
LINE
  5
AD2
330
1F
100
AcDbEntity
  8
0
  6
Continuous
 62
     7
 48
5.0
100
AcDbLine
 10
801.8830433430283
 20
362.3683064199795
 30
0.0
 11
801.8830433430283
 21
360.7933064199794
 31
0.0
  0
LINE
  5
AD3
330
1F
100
AcDbEntity
  8
0
  6
Continuous
 62
     7
 48
5.0
100
AcDbLine
 10
802.9330433430272
 20
362.3683064199795
 30
0.0
 11
801.8830433430283
 21
362.3683064199795
 31
0.0
  0
LINE
  5
AD4
330
1F
100
AcDbEntity
  8
0
  6
Continuous
 62
     7
 48
5.0
100
AcDbLine
 10
802.9330433430272
 20
370.3693064199796
 30
0.0
 11
802.9330433430272
 21
370.3693064199796
 31
0.0
  0
LINE
  5
AD5
330
1F
100
AcDbEntity
  8
0
  6
Continuous
 62
     7
 48
5.0
100
AcDbLine
 10
802.9330433430272
 20
368.7943064199794
 30
0.0
 11
802.9330433430272
 21
370.3693064199796
 31
0.0
  0
LINE
  5
AD6
330
1F
100
AcDbEntity
  8
0
  6
Continuous
 62
     7
 48
5.0
100
AcDbLine
 10
804.5080433430282
 20
368.7943064199794
 30
0.0
 11
802.9330433430272
 21
368.7943064199794
 31
0.0
  0
LINE
  5
AD7
330
1F
100
AcDbEntity
  8
0
  6
Continuous
 62
     7
 48
5.0
100
AcDbLine
 10
804.5080433430282
 20
367.7443064199793
 30
0.0
 11
804.5080433430282
 21
368.7943064199794
 31
0.0
  0
LINE
  5
AD8
330
1F
100
AcDbEntity
  8
0
  6
Continuous
 62
     7
 48
5.0
100
AcDbLine
 10
802.9330433430272
 20
367.7443064199793
 30
0.0
 11
804.5080433430282
 21
367.7443064199793
 31
0.0
  0
LINE
  5
AD9
330
1F
100
AcDbEntity
  8
0
  6
Continuous
 62
     7
 48
5.0
100
AcDbLine
 10
802.9330433430272
 20
366.1693064199794
 30
0.0
 11
802.9330433430272
 21
367.7443064199793
 31
0.0
  0
LINE
  5
ADA
330
1F
100
AcDbEntity
  8
0
  6
Continuous
 62
     7
 48
5.0
100
AcDbLine
 10
801.8830433430283
 20
366.1693064199794
 30
0.0
 11
802.9330433430272
 21
366.1693064199794
 31
0.0
  0
LINE
  5
ADB
330
1F
100
AcDbEntity
  8
0
  6
Continuous
 62
     7
 48
5.0
100
AcDbLine
 10
801.8830433430283
 20
367.7443064199793
 30
0.0
 11
801.8830433430283
 21
366.1693064199794
 31
0.0
  0
LINE
  5
ADC
330
1F
100
AcDbEntity
  8
0
  6
Continuous
 62
     7
 48
5.0
100
AcDbLine
 10
801.8830433430283
 20
370.3693064199796
 30
0.0
 11
801.8830433430283
 21
368.7943064199794
 31
0.0
  0
LINE
  5
ADD
330
1F
100
AcDbEntity
  8
0
  6
Continuous
 62
     7
 48
5.0
100
AcDbLine
 10
802.9330433430272
 20
370.3693064199796
 30
0.0
 11
801.8830433430283
 21
370.3693064199796
 31
0.0
  0
ARC
  5
ADE
330
1F
100
AcDbEntity
  8
0
  6
Continuous
 62
     7
100
AcDbCircle
 10
789.0896356076516
 20
423.0590181553546
 30
0.0
 40
4.99999626462548
100
AcDbArc
 50
89.99995719571119
 51
180.0000428042823
  0
LINE
  5
ADF
330
1F
100
AcDbEntity
  8
0
  6
Continuous
 62
     7
100
AcDbLine
 10
784.0896393430278
 20
423.0590144199794
 30
0.0
 11
784.0896393430278
 21
398.0590144199796
 31
0.0
  0
CIRCLE
  5
AE0
330
1F
100
AcDbEntity
  8
0
  6
Continuous
 62
     7
100
AcDbCircle
 10
798.0896395842533
 20
390.0590406612046
 30
0.0
 40
2.99999775877522
  0
LINE
  5
AE1
330
1F
100
AcDbEntity
  8
0
  6
Continuous
 62
     7
 48
6.0
100
AcDbLine
 10
800.0896393430274
 20
389.5590384199789
 30
0.0
 11
800.0896393430274
 21
389.5590384199789
 31
0.0
  0
LINE
  5
AE2
330
1F
100
AcDbEntity
  8
0
  6
Continuous
 62
     7
 48
6.0
100
AcDbLine
 10
798.5896393430282
 20
389.5590384199789
 30
0.0
 11
800.0896393430274
 21
389.5590384199789
 31
0.0
  0
LINE
  5
AE3
330
1F
100
AcDbEntity
  8
0
  6
Continuous
 62
     7
 48
6.0
100
AcDbLine
 10
798.5896393430282
 20
388.0590384199789
 30
0.0
 11
798.5896393430282
 21
389.5590384199789
 31
0.0
  0
LINE
  5
AE4
330
1F
100
AcDbEntity
  8
0
  6
Continuous
 62
     7
 48
6.0
100
AcDbLine
 10
797.5896393430282
 20
388.0590384199789
 30
0.0
 11
798.5896393430282
 21
388.0590384199789
 31
0.0
  0
LINE
  5
AE5
330
1F
100
AcDbEntity
  8
0
  6
Continuous
 62
     7
 48
6.0
100
AcDbLine
 10
797.5896393430282
 20
389.5590384199789
 30
0.0
 11
797.5896393430282
 21
388.0590384199789
 31
0.0
  0
LINE
  5
AE6
330
1F
100
AcDbEntity
  8
0
  6
Continuous
 62
     7
 48
6.0
100
AcDbLine
 10
796.0896393430277
 20
389.5590384199789
 30
0.0
 11
797.5896393430282
 21
389.5590384199789
 31
0.0
  0
LINE
  5
AE7
330
1F
100
AcDbEntity
  8
0
  6
Continuous
 62
     7
 48
6.0
100
AcDbLine
 10
796.0896393430277
 20
390.5590384199788
 30
0.0
 11
796.0896393430277
 21
389.5590384199789
 31
0.0
  0
LINE
  5
AE8
330
1F
100
AcDbEntity
  8
0
  6
Continuous
 62
     7
 48
6.0
100
AcDbLine
 10
797.5896393430282
 20
390.5590384199788
 30
0.0
 11
796.0896393430277
 21
390.5590384199788
 31
0.0
  0
LINE
  5
AE9
330
1F
100
AcDbEntity
  8
0
  6
Continuous
 62
     7
 48
6.0
100
AcDbLine
 10
797.5896393430282
 20
392.0590384199791
 30
0.0
 11
797.5896393430282
 21
390.5590384199788
 31
0.0
  0
LINE
  5
AEA
330
1F
100
AcDbEntity
  8
0
  6
Continuous
 62
     7
 48
6.0
100
AcDbLine
 10
798.5896393430282
 20
392.0590384199791
 30
0.0
 11
797.5896393430282
 21
392.0590384199791
 31
0.0
  0
LINE
  5
AEB
330
1F
100
AcDbEntity
  8
0
  6
Continuous
 62
     7
 48
6.0
100
AcDbLine
 10
798.5896393430282
 20
390.5590384199788
 30
0.0
 11
798.5896393430282
 21
392.0590384199791
 31
0.0
  0
LINE
  5
AEC
330
1F
100
AcDbEntity
  8
0
  6
Continuous
 62
     7
 48
6.0
100
AcDbLine
 10
800.0896393430274
 20
390.5590384199788
 30
0.0
 11
798.5896393430282
 21
390.5590384199788
 31
0.0
  0
LINE
  5
AED
330
1F
100
AcDbEntity
  8
0
  6
Continuous
 62
     7
 48
6.0
100
AcDbLine
 10
800.0896393430274
 20
389.5590384199789
 30
0.0
 11
800.0896393430274
 21
390.5590384199788
 31
0.0
  0
LINE
  5
AEE
330
1F
100
AcDbEntity
  8
0
  6
Continuous
 62
     7
 48
6.0
100
AcDbLine
 10
831.0896393430281
 20
389.5590304199794
 30
0.0
 11
831.0896393430281
 21
389.5590304199794
 31
0.0
  0
LINE
  5
AEF
330
1F
100
AcDbEntity
  8
0
  6
Continuous
 62
     7
 48
6.0
100
AcDbLine
 10
829.5896393430274
 20
389.5590304199794
 30
0.0
 11
831.0896393430281
 21
389.5590304199794
 31
0.0
  0
LINE
  5
AF0
330
1F
100
AcDbEntity
  8
0
  6
Continuous
 62
     7
 48
6.0
100
AcDbLine
 10
829.5896393430274
 20
388.0590304199788
 30
0.0
 11
829.5896393430274
 21
389.5590304199794
 31
0.0
  0
LINE
  5
AF1
330
1F
100
AcDbEntity
  8
0
  6
Continuous
 62
     7
 48
6.0
100
AcDbLine
 10
828.5896393430283
 20
388.0590304199788
 30
0.0
 11
829.5896393430274
 21
388.0590304199788
 31
0.0
  0
LINE
  5
AF2
330
1F
100
AcDbEntity
  8
0
  6
Continuous
 62
     7
 48
6.0
100
AcDbLine
 10
828.5896393430283
 20
389.5590304199794
 30
0.0
 11
828.5896393430283
 21
388.0590304199788
 31
0.0
  0
LINE
  5
AF3
330
1F
100
AcDbEntity
  8
0
  6
Continuous
 62
     7
 48
6.0
100
AcDbLine
 10
827.0896393430282
 20
389.5590304199794
 30
0.0
 11
828.5896393430283
 21
389.5590304199794
 31
0.0
  0
LINE
  5
AF4
330
1F
100
AcDbEntity
  8
0
  6
Continuous
 62
     7
 48
6.0
100
AcDbLine
 10
827.0896393430282
 20
390.5590304199792
 30
0.0
 11
827.0896393430282
 21
389.5590304199794
 31
0.0
  0
LINE
  5
AF5
330
1F
100
AcDbEntity
  8
0
  6
Continuous
 62
     7
 48
6.0
100
AcDbLine
 10
828.5896393430283
 20
390.5590304199792
 30
0.0
 11
827.0896393430282
 21
390.5590304199792
 31
0.0
  0
LINE
  5
AF6
330
1F
100
AcDbEntity
  8
0
  6
Continuous
 62
     7
 48
6.0
100
AcDbLine
 10
828.5896393430283
 20
392.0590304199791
 30
0.0
 11
828.5896393430283
 21
390.5590304199792
 31
0.0
  0
LINE
  5
AF7
330
1F
100
AcDbEntity
  8
0
  6
Continuous
 62
     7
 48
6.0
100
AcDbLine
 10
829.5896393430274
 20
392.0590304199791
 30
0.0
 11
828.5896393430283
 21
392.0590304199791
 31
0.0
  0
LINE
  5
AF8
330
1F
100
AcDbEntity
  8
0
  6
Continuous
 62
     7
 48
6.0
100
AcDbLine
 10
829.5896393430274
 20
390.5590304199792
 30
0.0
 11
829.5896393430274
 21
392.0590304199791
 31
0.0
  0
LINE
  5
AF9
330
1F
100
AcDbEntity
  8
0
  6
Continuous
 62
     7
 48
6.0
100
AcDbLine
 10
831.0896393430281
 20
390.5590304199792
 30
0.0
 11
829.5896393430274
 21
390.5590304199792
 31
0.0
  0
LINE
  5
AFA
330
1F
100
AcDbEntity
  8
0
  6
Continuous
 62
     7
 48
6.0
100
AcDbLine
 10
831.0896393430281
 20
389.5590304199794
 30
0.0
 11
831.0896393430281
 21
390.5590304199792
 31
0.0
  0
LINE
  5
AFB
330
1F
100
AcDbEntity
  8
0
  6
Continuous
 62
     7
100
AcDbLine
 10
824.5896393430278
 20
414.8532424199794
 30
0.0
 11
824.5896393430278
 21
416.0590144199793
 31
0.0
  0
CIRCLE
  5
AFC
330
1F
100
AcDbEntity
  8
0
  6
Continuous
 62
     7
100
AcDbCircle
 10
854.0896415842533
 20
347.0590121787537
 30
0.0
 40
2.999997758775106
  0
CIRCLE
  5
AFD
330
1F
100
AcDbEntity
  8
0
  6
Continuous
 62
     7
100
AcDbCircle
 10
844.0896415842532
 20
347.0590121787537
 30
0.0
 40
2.999997758775106
  0
CIRCLE
  5
AFE
330
1F
100
AcDbEntity
  8
0
  6
Continuous
 62
     7
100
AcDbCircle
 10
861.0896415842532
 20
312.0590121787536
 30
0.0
 40
2.99999775877522
  0
LINE
  5
AFF
330
1F
100
AcDbEntity
  8
0
  6
Continuous
 62
     7
100
AcDbLine
 10
838.0896393430278
 20
328.0590144199793
 30
0.0
 11
838.0896393430278
 21
320.0590144199793
 31
0.0
  0
LINE
  5
B00
330
1F
100
AcDbEntity
  8
0
  6
Continuous
 62
     7
100
AcDbLine
 10
860.0896393430282
 20
328.0590144199793
 30
0.0
 11
860.0896393430282
 21
320.0590144199793
 31
0.0
  0
CIRCLE
  5
B01
330
1F
100
AcDbEntity
  8
0
  6
Continuous
 62
     7
100
AcDbCircle
 10
849.0896415842533
 20
312.0590121787536
 30
0.0
 40
2.99999775877522
  0
LINE
  5
B02
330
1F
100
AcDbEntity
  8
0
  6
Continuous
 62
     7
100
AcDbLine
 10
838.0896393430278
 20
320.0590144199793
 30
0.0
 11
860.0896393430282
 21
320.0590144199793
 31
0.0
  0
CIRCLE
  5
B03
330
1F
100
AcDbEntity
  8
0
  6
Continuous
 62
     7
100
AcDbCircle
 10
837.0896415842533
 20
312.0590121787536
 30
0.0
 40
2.99999775877533
  0
LINE
  5
B04
330
1F
100
AcDbEntity
  8
0
  6
Continuous
 62
     7
100
AcDbLine
 10
838.0896393430278
 20
332.0590144199793
 30
0.0
 11
860.0896393430282
 21
332.0590144199793
 31
0.0
  0
LINE
  5
B05
330
1F
100
AcDbEntity
  8
0
  6
Continuous
 62
     7
100
AcDbLine
 10
838.0896393430278
 20
340.0590144199793
 30
0.0
 11
860.0896393430282
 21
340.0590144199793
 31
0.0
  0
LINE
  5
B06
330
1F
100
AcDbEntity
  8
0
  6
Continuous
 62
     7
100
AcDbLine
 10
838.0896393430278
 20
328.0590144199793
 30
0.0
 11
860.0896393430282
 21
328.0590144199793
 31
0.0
  0
LINE
  5
B07
330
1F
100
AcDbEntity
  8
0
  6
Continuous
 62
     7
100
AcDbLine
 10
838.0896393430278
 20
340.0590144199793
 30
0.0
 11
838.0896393430278
 21
332.0590144199793
 31
0.0
  0
LINE
  5
B08
330
1F
100
AcDbEntity
  8
0
  6
Continuous
 62
     7
100
AcDbLine
 10
860.0896393430282
 20
340.0590144199793
 30
0.0
 11
860.0896393430282
 21
332.0590144199793
 31
0.0
  0
CIRCLE
  5
B09
330
1F
100
AcDbEntity
  8
0
  6
Continuous
 62
     7
100
AcDbCircle
 10
844.0896415842532
 20
360.0590121787536
 30
0.0
 40
2.99999775877522
  0
CIRCLE
  5
B0A
330
1F
100
AcDbEntity
  8
0
  6
Continuous
 62
     7
100
AcDbCircle
 10
854.0896415842533
 20
360.0590121787536
 30
0.0
 40
2.99999775877522
  0
CIRCLE
  5
B0B
330
1F
100
AcDbEntity
  8
0
  6
Continuous
 62
     7
100
AcDbCircle
 10
844.0896415842532
 20
373.0590121787536
 30
0.0
 40
2.99999775877522
  0
CIRCLE
  5
B0C
330
1F
100
AcDbEntity
  8
0
  6
Continuous
 62
     7
100
AcDbCircle
 10
854.0896415842533
 20
373.0590121787536
 30
0.0
 40
2.99999775877522
  0
ARC
  5
B0D
330
1F
100
AcDbEntity
  8
0
  6
Continuous
 62
     7
100
AcDbCircle
 10
869.0896430784039
 20
423.0590181553546
 30
0.0
 40
4.999996264625368
100
AcDbArc
 50
359.9999571957143
 51
90.00004280428877
  0
LINE
  5
B0E
330
1F
100
AcDbEntity
  8
0
  6
Continuous
 62
     7
100
AcDbLine
 10
833.5896393430278
 20
414.8532424199794
 30
0.0
 11
833.5896393430278
 21
416.0590144199793
 31
0.0
  0
LINE
  5
B0F
330
1F
100
AcDbEntity
  8
0
  6
Continuous
 62
     7
100
AcDbLine
 10
874.0896393430283
 20
398.0590144199796
 30
0.0
 11
874.0896393430283
 21
423.0590144199794
 31
0.0
  0
ENDSEC
  0
SECTION
  2
OBJECTS
  0
DICTIONARY
  5
C
330
0
100
AcDbDictionary
281
     1
  3
ACAD_GROUP
350
D
  3
ACAD_LAYOUT
350
1A
  3
ACAD_MLINESTYLE
350
17
  3
ACAD_PLOTSETTINGS
350
19
  3
ACAD_PLOTSTYLENAME
350
E
  0
DICTIONARY
  5
D
102
{ACAD_REACTORS
330
C
102
}
330
C
100
AcDbDictionary
281
     1
  0
DICTIONARY
  5
1A
102
{ACAD_REACTORS
330
C
102
}
330
C
100
AcDbDictionary
281
     1
  3
Model
350
22
  3
ﾚｲｱｳﾄ1
350
51
  3
ﾚｲｱｳﾄ2
350
56
  0
DICTIONARY
  5
17
102
{ACAD_REACTORS
330
C
102
}
330
C
100
AcDbDictionary
281
     1
  3
Standard
350
18
  0
DICTIONARY
  5
19
102
{ACAD_REACTORS
330
C
102
}
330
C
100
AcDbDictionary
281
     1
  0
ACDBDICTIONARYWDFLT
  5
E
102
{ACAD_REACTORS
330
C
102
}
330
C
100
AcDbDictionary
281
     1
  3
Normal
350
F
100
AcDbDictionaryWithDefault
340
F
  0
LAYOUT
  5
22
102
{ACAD_REACTORS
330
1A
102
}
330
1A
100
AcDbPlotSettings
  1

  2
none_device
  4
ANSI_A_(8.50_x_11.00_Inches)
  6

 40
6.349999904632567
 41
19.04999923706053
 42
6.350006103515625
 43
19.04998779296875
 44
215.8999938964841
 45
279.3999938964843
 46
0.0
 47
0.0
 48
0.0
 49
0.0
140
0.0
141
0.0
142
1.0
143
78.436453180766
 70
 11952
 72
     0
 73
     1
 74
     0
  7

 75
     0
147
0.0127491741332998
148
0.0
149
0.0
100
AcDbLayout
  1
Model
 70
     1
 71
     0
 10
0.0
 20
0.0
 11
12.0
 21
9.0
 12
0.0
 22
0.0
 32
0.0
 14
0.0
 24
0.0
 34
0.0
 15
0.0
 25
0.0
 35
0.0
146
0.0
 13
0.0
 23
0.0
 33
0.0
 16
1.0
 26
0.0
 36
0.0
 17
0.0
 27
1.0
 37
0.0
 76
     0
330
1F
  0
LAYOUT
  5
51
102
{ACAD_REACTORS
330
1A
102
}
330
1A
100
AcDbPlotSettings
  1

  2
None
  4

  6

 40
0.0
 41
0.0
 42
0.0
 43
0.0
 44
0.0
 45
0.0
 46
0.0
 47
0.0
 48
0.0
 49
0.0
140
0.0
141
0.0
142
1.0
143
1.0
 70
   688
 72
     0
 73
     0
 74
     5
  7

 75
    16
147
1.0
148
0.0
149
0.0
100
AcDbLayout
  1
ﾚｲｱｳﾄ1
 70
     1
 71
     1
 10
0.0
 20
0.0
 11
12.0
 21
9.0
 12
0.0
 22
0.0
 32
0.0
 14
0.0
 24
0.0
 34
0.0
 15
0.0
 25
0.0
 35
0.0
146
0.0
 13
0.0
 23
0.0
 33
0.0
 16
1.0
 26
0.0
 36
0.0
 17
0.0
 27
1.0
 37
0.0
 76
     0
330
50
  0
LAYOUT
  5
56
102
{ACAD_REACTORS
330
1A
102
}
330
1A
100
AcDbPlotSettings
  1

  2
None
  4

  6

 40
0.0
 41
0.0
 42
0.0
 43
0.0
 44
0.0
 45
0.0
 46
0.0
 47
0.0
 48
0.0
 49
0.0
140
0.0
141
0.0
142
1.0
143
1.0
 70
   688
 72
     0
 73
     0
 74
     5
  7

 75
    16
147
1.0
148
0.0
149
0.0
100
AcDbLayout
  1
ﾚｲｱｳﾄ2
 70
     1
 71
     2
 10
0.0
 20
0.0
 11
12.0
 21
9.0
 12
0.0
 22
0.0
 32
0.0
 14
0.0
 24
0.0
 34
0.0
 15
0.0
 25
0.0
 35
0.0
146
0.0
 13
0.0
 23
0.0
 33
0.0
 16
1.0
 26
0.0
 36
0.0
 17
0.0
 27
1.0
 37
0.0
 76
     0
330
55
  0
MLINESTYLE
  5
18
102
{ACAD_REACTORS
330
17
102
}
330
17
100
AcDbMlineStyle
  2
STANDARD
 70
     0
  3

 62
   256
 51
90.0
 52
90.0
 71
     2
 49
0.5
 62
   256
  6
BYLAYER
 49
-0.5
 62
   256
  6
BYLAYER
  0
ACDBPLACEHOLDER
  5
F
102
{ACAD_REACTORS
330
E
102
}
330
E
  0
ENDSEC
  0
EOF
