  0
SECTION
  2
HEADER
  9
$ACADVER
  1
AC1015
  9
$ACADMAINTVER
 70
    10
  9
$DWGCODEPAGE
  3
ANSI_932
  9
$INSBASE
 10
0.0
 20
0.0
 30
0.0
  9
$EXTMIN
 10
528.0988882189713
 20
188.0852463521958
 30
-5.294369999999998
  9
$EXTMAX
 10
1091.616533658972
 20
516.3989583521966
 30
5.294369999999998
  9
$LIMMIN
 10
0.0
 20
0.0
  9
$LIMMAX
 10
420.0
 20
297.0
  9
$ORTHOMODE
 70
     0
  9
$REGENMODE
 70
     1
  9
$FILLMODE
 70
     1
  9
$QTEXTMODE
 70
     0
  9
$MIRRTEXT
 70
     1
  9
$LTSCALE
 40
1.0
  9
$ATTMODE
 70
     1
  9
$TEXTSIZE
 40
2.5
  9
$TRACEWID
 40
1.0
  9
$TEXTSTYLE
  7
Standard
  9
$CLAYER
  8
0
  9
$CELTYPE
  6
ByLayer
  9
$CECOLOR
 62
   256
  9
$CELTSCALE
 40
1.0
  9
$DISPSILH
 70
     0
  9
$DIMSCALE
 40
1.0
  9
$DIMASZ
 40
2.5
  9
$DIMEXO
 40
0.625
  9
$DIMDLI
 40
3.75
  9
$DIMRND
 40
0.0
  9
$DIMDLE
 40
0.0
  9
$DIMEXE
 40
1.25
  9
$DIMTP
 40
0.0
  9
$DIMTM
 40
0.0
  9
$DIMTXT
 40
2.5
  9
$DIMCEN
 40
2.5
  9
$DIMTSZ
 40
0.0
  9
$DIMTOL
 70
     0
  9
$DIMLIM
 70
     0
  9
$DIMTIH
 70
     0
  9
$DIMTOH
 70
     0
  9
$DIMSE1
 70
     0
  9
$DIMSE2
 70
     0
  9
$DIMTAD
 70
     1
  9
$DIMZIN
 70
     8
  9
$DIMBLK
  1

  9
$DIMASO
 70
     1
  9
$DIMSHO
 70
     1
  9
$DIMPOST
  1

  9
$DIMAPOST
  1

  9
$DIMALT
 70
     0
  9
$DIMALTD
 70
     3
  9
$DIMALTF
 40
0.03937007874016
  9
$DIMLFAC
 40
1.0
  9
$DIMTOFL
 70
     1
  9
$DIMTVP
 40
0.0
  9
$DIMTIX
 70
     0
  9
$DIMSOXD
 70
     0
  9
$DIMSAH
 70
     0
  9
$DIMBLK1
  1

  9
$DIMBLK2
  1

  9
$DIMSTYLE
  2
ISO-25
  9
$DIMCLRD
 70
     0
  9
$DIMCLRE
 70
     0
  9
$DIMCLRT
 70
     0
  9
$DIMTFAC
 40
1.0
  9
$DIMGAP
 40
0.625
  9
$DIMJUST
 70
     0
  9
$DIMSD1
 70
     0
  9
$DIMSD2
 70
     0
  9
$DIMTOLJ
 70
     0
  9
$DIMTZIN
 70
     8
  9
$DIMALTZ
 70
     0
  9
$DIMALTTZ
 70
     0
  9
$DIMUPT
 70
     0
  9
$DIMDEC
 70
     2
  9
$DIMTDEC
 70
     2
  9
$DIMALTU
 70
     2
  9
$DIMALTTD
 70
     3
  9
$DIMTXSTY
  7
Standard
  9
$DIMAUNIT
 70
     0
  9
$DIMADEC
 70
     0
  9
$DIMALTRND
 40
0.0
  9
$DIMAZIN
 70
     0
  9
$DIMDSEP
 70
    44
  9
$DIMATFIT
 70
     3
  9
$DIMFRAC
 70
     0
  9
$DIMLDRBLK
  1

  9
$DIMLUNIT
 70
     2
  9
$DIMLWD
 70
    -2
  9
$DIMLWE
 70
    -2
  9
$DIMTMOVE
 70
     0
  9
$LUNITS
 70
     2
  9
$LUPREC
 70
     4
  9
$SKETCHINC
 40
1.0
  9
$FILLETRAD
 40
10.0
  9
$AUNITS
 70
     0
  9
$AUPREC
 70
     0
  9
$MENU
  1
.
  9
$ELEVATION
 40
0.0
  9
$PELEVATION
 40
0.0
  9
$THICKNESS
 40
0.0
  9
$LIMCHECK
 70
     0
  9
$CHAMFERA
 40
10.0
  9
$CHAMFERB
 40
10.0
  9
$CHAMFERC
 40
20.0
  9
$CHAMFERD
 40
0.0
  9
$SKPOLY
 70
     0
  9
$TDCREATE
 40
2456499.794046504
  9
$TDUCREATE
 40
2456499.419046504
  9
$TDUPDATE
 40
2456500.624180833
  9
$TDUUPDATE
 40
2456500.249180833
  9
$TDINDWG
 40
0.0169570255
  9
$TDUSRTIMER
 40
0.0169564815
  9
$USRTIMER
 70
     1
  9
$ANGBASE
 50
0.0
  9
$ANGDIR
 70
     0
  9
$PDMODE
 70
     0
  9
$PDSIZE
 40
0.0
  9
$PLINEWID
 40
0.0
  9
$SPLFRAME
 70
     0
  9
$SPLINETYPE
 70
     6
  9
$SPLINESEGS
 70
     8
  9
$HANDSEED
  5
A44
  9
$SURFTAB1
 70
     6
  9
$SURFTAB2
 70
     6
  9
$SURFTYPE
 70
     6
  9
$SURFU
 70
     6
  9
$SURFV
 70
     6
  9
$UCSBASE
  2

  9
$UCSNAME
  2

  9
$UCSORG
 10
0.0
 20
0.0
 30
0.0
  9
$UCSXDIR
 10
1.0
 20
0.0
 30
0.0
  9
$UCSYDIR
 10
0.0
 20
1.0
 30
0.0
  9
$UCSORTHOREF
  2

  9
$UCSORTHOVIEW
 70
     0
  9
$UCSORGTOP
 10
0.0
 20
0.0
 30
0.0
  9
$UCSORGBOTTOM
 10
0.0
 20
0.0
 30
0.0
  9
$UCSORGLEFT
 10
0.0
 20
0.0
 30
0.0
  9
$UCSORGRIGHT
 10
0.0
 20
0.0
 30
0.0
  9
$UCSORGFRONT
 10
0.0
 20
0.0
 30
0.0
  9
$UCSORGBACK
 10
0.0
 20
0.0
 30
0.0
  9
$PUCSBASE
  2

  9
$PUCSNAME
  2

  9
$PUCSORG
 10
0.0
 20
0.0
 30
0.0
  9
$PUCSXDIR
 10
1.0
 20
0.0
 30
0.0
  9
$PUCSYDIR
 10
0.0
 20
1.0
 30
0.0
  9
$PUCSORTHOREF
  2

  9
$PUCSORTHOVIEW
 70
     0
  9
$PUCSORGTOP
 10
0.0
 20
0.0
 30
0.0
  9
$PUCSORGBOTTOM
 10
0.0
 20
0.0
 30
0.0
  9
$PUCSORGLEFT
 10
0.0
 20
0.0
 30
0.0
  9
$PUCSORGRIGHT
 10
0.0
 20
0.0
 30
0.0
  9
$PUCSORGFRONT
 10
0.0
 20
0.0
 30
0.0
  9
$PUCSORGBACK
 10
0.0
 20
0.0
 30
0.0
  9
$USERI1
 70
     0
  9
$USERI2
 70
     0
  9
$USERI3
 70
     0
  9
$USERI4
 70
     0
  9
$USERI5
 70
     0
  9
$USERR1
 40
0.0
  9
$USERR2
 40
0.0
  9
$USERR3
 40
0.0
  9
$USERR4
 40
0.0
  9
$USERR5
 40
0.0
  9
$WORLDVIEW
 70
     1
  9
$SHADEDGE
 70
     3
  9
$SHADEDIF
 70
    70
  9
$TILEMODE
 70
     1
  9
$MAXACTVP
 70
    64
  9
$PINSBASE
 10
0.0
 20
0.0
 30
0.0
  9
$PLIMCHECK
 70
     0
  9
$PEXTMIN
 10
0.0
 20
0.0
 30
0.0
  9
$PEXTMAX
 10
0.0
 20
0.0
 30
0.0
  9
$PLIMMIN
 10
0.0
 20
0.0
  9
$PLIMMAX
 10
12.0
 20
9.0
  9
$UNITMODE
 70
     0
  9
$VISRETAIN
 70
     1
  9
$PLINEGEN
 70
     0
  9
$PSLTSCALE
 70
     1
  9
$TREEDEPTH
 70
  3020
  9
$CMLSTYLE
  2
Standard
  9
$CMLJUST
 70
     0
  9
$CMLSCALE
 40
20.0
  9
$PROXYGRAPHICS
 70
     1
  9
$MEASUREMENT
 70
     1
  9
$CELWEIGHT
370
    -1
  9
$ENDCAPS
280
     0
  9
$JOINSTYLE
280
     0
  9
$LWDISPLAY
290
     0
  9
$INSUNITS
 70
     4
  9
$HYPERLINKBASE
  1

  9
$STYLESHEET
  1

  9
$XEDIT
290
     1
  9
$CEPSNTYPE
380
     0
  9
$PSTYLEMODE
290
     1
  9
$FINGERPRINTGUID
  2
{FDEAD578-A652-11D2-9A35-0060089B3A3F}
  9
$VERSIONGUID
  2
{776E65B0-18AA-4F17-B36C-8B025BAC9D10}
  9
$EXTNAMES
290
     1
  9
$PSVPSCALE
 40
0.0
  9
$OLESTARTUP
290
     0
  0
ENDSEC
  0
SECTION
  2
CLASSES
  0
CLASS
  1
ACDBDICTIONARYWDFLT
  2
AcDbDictionaryWithDefault
  3
AutoCAD 2000
 90
        0
280
     0
281
     0
  0
CLASS
  1
ACDBPLACEHOLDER
  2
AcDbPlaceHolder
  3
AutoCAD 2000
 90
        0
280
     0
281
     0
  0
CLASS
  1
LAYOUT
  2
AcDbLayout
  3
AutoCAD 2000
 90
        0
280
     0
281
     0
  0
ENDSEC
  0
SECTION
  2
TABLES
  0
TABLE
  2
VPORT
  5
8
330
0
100
AcDbSymbolTable
 70
     2
  0
VPORT
  5
A43
330
8
100
AcDbSymbolTableRecord
100
AcDbViewportTableRecord
  2
*Active
 70
     0
 10
0.0
 20
0.0
 11
1.0
 21
1.0
 12
807.8643219925021
 22
353.4598174582908
 13
0.0
 23
0.0
 14
10.0
 24
10.0
 15
10.0
 25
10.0
 16
0.0
 26
0.0
 36
1.0
 17
0.0
 27
0.0
 37
0.0
 40
405.7028736434326
 41
1.781954887218045
 42
50.0
 43
0.0
 44
0.0
 50
0.0
 51
0.0
 71
     0
 72
   100
 73
     1
 74
     3
 75
     0
 76
     0
 77
     0
 78
     0
281
     0
 65
     1
110
0.0
120
0.0
130
0.0
111
1.0
121
0.0
131
0.0
112
0.0
122
1.0
132
0.0
 79
     0
146
0.0
  0
ENDTAB
  0
TABLE
  2
LTYPE
  5
5
330
0
100
AcDbSymbolTable
 70
     2
  0
LTYPE
  5
14
330
5
100
AcDbSymbolTableRecord
100
AcDbLinetypeTableRecord
  2
ByBlock
 70
     0
  3

 72
    65
 73
     0
 40
0.0
  0
LTYPE
  5
15
330
5
100
AcDbSymbolTableRecord
100
AcDbLinetypeTableRecord
  2
ByLayer
 70
     0
  3

 72
    65
 73
     0
 40
0.0
  0
LTYPE
  5
16
330
5
100
AcDbSymbolTableRecord
100
AcDbLinetypeTableRecord
  2
Continuous
 70
     0
  3
Solid line
 72
    65
 73
     0
 40
0.0
  0
LTYPE
  5
67
330
5
100
AcDbSymbolTableRecord
100
AcDbLinetypeTableRecord
  2
DASHED
 70
     0
  3
DASHED
 72
    65
 73
     2
 40
0.75
 49
0.5
 74
     0
 49
-0.25
 74
     0
  0
ENDTAB
  0
TABLE
  2
LAYER
  5
2
330
0
100
AcDbSymbolTable
 70
     1
  0
LAYER
  5
10
330
2
100
AcDbSymbolTableRecord
100
AcDbLayerTableRecord
  2
0
 70
     0
 62
     7
  6
Continuous
370
    -3
390
F
  0
ENDTAB
  0
TABLE
  2
STYLE
  5
3
330
0
100
AcDbSymbolTable
 70
     2
  0
STYLE
  5
11
330
3
100
AcDbSymbolTableRecord
100
AcDbTextStyleTableRecord
  2
Standard
 70
     0
 40
0.0
 41
1.0
 50
0.0
 71
     0
 42
2.5
  3
txt
  4

  0
STYLE
  5
68
330
3
100
AcDbSymbolTableRecord
100
AcDbTextStyleTableRecord
  2
_TCW_TXTSTY_1
 70
     0
 40
0.0
 41
1.0
 50
0.0
 71
     0
 42
0.69697
  3
MS PGothic.ttf
  4

1001
ACAD
1000
ＭＳ Ｐゴシック
1071
    32802
  0
ENDTAB
  0
TABLE
  2
VIEW
  5
6
330
0
100
AcDbSymbolTable
 70
     0
  0
ENDTAB
  0
TABLE
  2
UCS
  5
7
330
0
100
AcDbSymbolTable
 70
     0
  0
ENDTAB
  0
TABLE
  2
APPID
  5
9
330
0
100
AcDbSymbolTable
 70
     2
  0
APPID
  5
12
330
9
100
AcDbSymbolTableRecord
100
AcDbRegAppTableRecord
  2
ACAD
 70
     0
  0
APPID
  5
6A
330
9
100
AcDbSymbolTableRecord
100
AcDbRegAppTableRecord
  2
TCAD
 70
     0
  0
ENDTAB
  0
TABLE
  2
DIMSTYLE
  5
A
330
0
100
AcDbSymbolTable
 70
     2
100
AcDbDimStyleTable
 71
     1
340
27
  0
DIMSTYLE
105
27
330
A
100
AcDbSymbolTableRecord
100
AcDbDimStyleTableRecord
  2
ISO-25
 70
     0
 41
2.5
 42
0.625
 43
3.75
 44
1.25
 73
     0
 74
     0
 77
     1
 78
     8
140
2.5
141
2.5
143
0.03937007874016
147
0.625
171
     3
172
     1
271
     2
272
     2
274
     3
278
    44
283
     0
284
     8
340
11
  0
DIMSTYLE
105
69
330
A
100
AcDbSymbolTableRecord
100
AcDbDimStyleTableRecord
  2
STANDARD
 70
     0
  3
<>
  4
<>
 41
3.0
 42
0.5
 43
7.5
 44
1.0
 45
0.1
 73
     0
 74
     0
 77
     1
 78
     8
140
2.439394
143
0.5
144
2.0
147
0.5
148
0.01
176
     7
177
     7
178
     7
179
     2
271
     2
272
     2
285
     8
286
     8
340
68
341
61
342
61
  0
ENDTAB
  0
TABLE
  2
BLOCK_RECORD
  5
1
330
0
100
AcDbSymbolTable
 70
     1
  0
BLOCK_RECORD
  5
1F
330
1
100
AcDbSymbolTableRecord
100
AcDbBlockTableRecord
  2
*Model_Space
340
22
  0
BLOCK_RECORD
  5
50
330
1
100
AcDbSymbolTableRecord
100
AcDbBlockTableRecord
  2
*Paper_Space
340
51
  0
BLOCK_RECORD
  5
61
330
1
100
AcDbSymbolTableRecord
100
AcDbBlockTableRecord
  2
_OPEN
340
0
  0
ENDTAB
  0
ENDSEC
  0
SECTION
  2
BLOCKS
  0
BLOCK
  5
20
330
1F
100
AcDbEntity
  8
0
100
AcDbBlockBegin
  2
*Model_Space
 70
     0
 10
0.0
 20
0.0
 30
0.0
  3
*Model_Space
  1

  0
ENDBLK
  5
21
330
1F
100
AcDbEntity
  8
0
100
AcDbBlockEnd
  0
BLOCK
  5
52
330
50
100
AcDbEntity
 67
     1
  8
0
100
AcDbBlockBegin
  2
*Paper_Space
 70
     0
 10
0.0
 20
0.0
 30
0.0
  3
*Paper_Space
  1

  0
ENDBLK
  5
53
330
50
100
AcDbEntity
 67
     1
  8
0
100
AcDbBlockEnd
  0
BLOCK
  5
65
330
61
100
AcDbEntity
  8
0
100
AcDbBlockBegin
  2
_OPEN
 70
     0
 10
0.0
 20
0.0
 30
0.0
  3
_OPEN
  1

  0
LINE
  5
62
330
61
100
AcDbEntity
  8
0
  6
ByBlock
 62
     0
100
AcDbLine
 10
-1.0
 20
0.166667
 30
0.0
 11
0.0
 21
0.0
 31
0.0
  0
LINE
  5
63
330
61
100
AcDbEntity
  8
0
  6
ByBlock
 62
     0
100
AcDbLine
 10
0.0
 20
0.0
 30
0.0
 11
-1.0
 21
-0.166667
 31
0.0
  0
LINE
  5
64
330
61
100
AcDbEntity
  8
0
  6
ByBlock
 62
     0
100
AcDbLine
 10
0.0
 20
0.0
 30
0.0
 11
-1.0
 21
0.0
 31
0.0
  0
ENDBLK
  5
66
330
61
100
AcDbEntity
  8
0
100
AcDbBlockEnd
  0
ENDSEC
  0
SECTION
  2
ENTITIES
  0
LINE
  5
340
330
1F
100
AcDbEntity
  8
0
  6
Continuous
 62
     7
100
AcDbLine
 10
685.1165336589716
 20
387.7421068346466
 30
5.294369999999998
 11
707.116533658972
 21
387.7421068346466
 31
5.294369999999998
  0
LINE
  5
341
330
1F
100
AcDbEntity
  8
0
  6
Continuous
 62
     7
100
AcDbLine
 10
685.1165336589716
 20
399.7421068346469
 30
5.294369999999998
 11
707.116533658972
 21
399.7421068346469
 31
5.294369999999998
  0
LINE
  5
342
330
1F
100
AcDbEntity
  8
0
  6
Continuous
 62
     7
100
AcDbLine
 10
685.1165336589716
 20
391.7421068346466
 30
5.294369999999998
 11
707.116533658972
 21
391.7421068346466
 31
5.294369999999998
  0
LINE
  5
343
330
1F
100
AcDbEntity
  8
0
  6
Continuous
 62
     7
100
AcDbLine
 10
685.1165336589716
 20
379.7421068346466
 30
5.294369999999998
 11
707.116533658972
 21
379.7421068346466
 31
5.294369999999998
  0
CIRCLE
  5
344
330
1F
100
AcDbEntity
  8
0
  6
Continuous
 62
     7
100
AcDbCircle
 10
696.1165359001969
 20
371.7421045934207
 30
5.294369999999998
 40
2.99999775877522
  0
LINE
  5
345
330
1F
100
AcDbEntity
  8
0
  6
Continuous
 62
     7
100
AcDbLine
 10
540.116533658972
 20
204.7421023521963
 30
-5.294369999999998
 11
725.1165336589723
 21
204.7421023521963
 31
-5.294369999999998
  0
LINE
  5
346
330
1F
100
AcDbEntity
  8
0
  6
Continuous
 62
     7
100
AcDbLine
 10
723.616533658972
 20
189.7421023521964
 30
-5.294369999999998
 11
639.116533658972
 21
189.7421023521964
 31
-5.294369999999998
  0
LINE
  5
347
330
1F
100
AcDbEntity
  8
0
  6
Continuous
 62
     7
100
AcDbLine
 10
541.616533658972
 20
514.7421023521965
 30
-5.294369999999998
 11
723.616533658972
 21
514.7421023521965
 31
-5.294369999999998
  0
LINE
  5
348
330
1F
100
AcDbEntity
  8
0
  6
Continuous
 62
     7
100
AcDbLine
 10
732.816533658972
 20
484.7421023521961
 30
-5.294369999999998
 11
532.4165336589722
 21
484.7421023521961
 31
-5.294369999999998
  0
ARC
  5
349
330
1F
100
AcDbEntity
  8
0
  6
DASHED
 62
     4
 48
5.0
100
AcDbCircle
 10
700.4165321648217
 20
212.7421008580461
 30
-5.294369999999998
 40
1.999998505850147
100
AcDbArc
 50
179.9999571957112
 51
270.0000428042887
  0
LINE
  5
34A
330
1F
100
AcDbEntity
  8
0
  6
Continuous
 62
     7
100
AcDbLine
 10
532.4165336589722
 20
482.7421023521959
 30
-5.294369999999998
 11
532.4165336589722
 21
206.7421023521963
 31
-5.294369999999998
  0
LINE
  5
34B
330
1F
100
AcDbEntity
  8
0
  6
Continuous
 62
     7
100
AcDbLine
 10
532.4165336589722
 20
204.7421023521963
 30
-5.294369999999998
 11
532.4165336589722
 21
484.7421023521961
 31
-5.294369999999998
  0
LINE
  5
34C
330
1F
100
AcDbEntity
  8
0
  6
Continuous
 62
     7
100
AcDbLine
 10
626.1165336589717
 20
189.7421023521964
 30
-5.294369999999998
 11
541.616533658972
 21
189.7421023521964
 31
-5.294369999999998
  0
ARC
  5
34D
330
1F
100
AcDbEntity
  8
0
  6
DASHED
 62
     4
 48
5.0
100
AcDbCircle
 10
562.4165351531228
 20
212.7421008580461
 30
-5.294369999999998
 40
1.999998505850204
100
AcDbArc
 50
269.9999571957111
 51
0.0000428042888088
  0
LINE
  5
34E
330
1F
100
AcDbEntity
  8
0
  6
DASHED
 62
     4
 48
5.0
100
AcDbLine
 10
548.4165336589722
 20
227.4628523521963
 30
-5.294369999999998
 11
548.4165336589722
 21
212.7421023521963
 31
-5.294369999999998
  0
LINE
  5
34F
330
1F
100
AcDbEntity
  8
0
  6
Continuous
 62
     7
100
AcDbLine
 10
534.4165336589724
 20
204.7421023521963
 30
-5.294369999999998
 11
536.1165336589721
 21
204.7421023521963
 31
-5.294369999999998
  0
LINE
  5
350
330
1F
100
AcDbEntity
  8
0
  6
Continuous
 62
     7
100
AcDbLine
 10
533.6165336589721
 20
197.7421023521963
 30
-5.294369999999998
 11
533.6165336589721
 21
204.7421023521963
 31
-5.294369999999998
  0
LINE
  5
351
330
1F
100
AcDbEntity
  8
0
  6
Continuous
 62
     7
100
AcDbLine
 10
532.4165336589722
 20
204.7421023521963
 30
-5.294369999999998
 11
540.116533658972
 21
204.7421023521963
 31
-5.294369999999998
  0
LINE
  5
352
330
1F
100
AcDbEntity
  8
0
  6
DASHED
 62
     4
 48
5.0
100
AcDbLine
 10
550.416533658972
 20
210.7421023521963
 30
-5.294369999999998
 11
562.4165336589724
 21
210.7421023521963
 31
-5.294369999999998
  0
ARC
  5
353
330
1F
100
AcDbEntity
  8
0
  6
DASHED
 62
     4
 48
5.0
100
AcDbCircle
 10
550.4165321648216
 20
212.7421008580461
 30
-5.294369999999998
 40
1.999998505850147
100
AcDbArc
 50
179.9999571957112
 51
270.0000428042887
  0
LINE
  5
354
330
1F
100
AcDbEntity
  8
0
  6
Continuous
 62
     7
100
AcDbLine
 10
530.4165336589724
 20
231.1421163521962
 30
-5.294369999999998
 11
531.4165336589724
 21
231.1421163521962
 31
-5.294369999999998
  0
LINE
  5
355
330
1F
100
AcDbEntity
  8
0
  6
Continuous
 62
     7
100
AcDbLine
 10
530.4165336589724
 20
238.3421163521961
 30
-5.294369999999998
 11
531.4165336589724
 21
238.3421163521961
 31
-5.294369999999998
  0
LINE
  5
356
330
1F
100
AcDbEntity
  8
0
  6
Continuous
 62
     7
100
AcDbLine
 10
528.4965336589721
 20
236.4221163521961
 30
-5.294369999999998
 11
528.4965336589721
 21
233.0621163521964
 31
-5.294369999999998
  0
LINE
  5
357
330
1F
100
AcDbEntity
  8
0
  6
Continuous
 62
     7
 48
6.0
100
AcDbLine
 10
540.116535658972
 20
239.2421163521962
 30
-5.294369999999998
 11
540.116535658972
 21
239.2421163521962
 31
-5.294369999999998
  0
LINE
  5
358
330
1F
100
AcDbEntity
  8
0
  6
Continuous
 62
     7
 48
6.0
100
AcDbLine
 10
538.6165356589721
 20
239.2421163521962
 30
-5.294369999999998
 11
540.116535658972
 21
239.2421163521962
 31
-5.294369999999998
  0
LINE
  5
359
330
1F
100
AcDbEntity
  8
0
  6
Continuous
 62
     7
 48
6.0
100
AcDbLine
 10
538.6165356589721
 20
237.7421163521962
 30
-5.294369999999998
 11
538.6165356589721
 21
239.2421163521962
 31
-5.294369999999998
  0
LINE
  5
35A
330
1F
100
AcDbEntity
  8
0
  6
Continuous
 62
     7
 48
6.0
100
AcDbLine
 10
537.6165356589721
 20
237.7421163521962
 30
-5.294369999999998
 11
538.6165356589721
 21
237.7421163521962
 31
-5.294369999999998
  0
LINE
  5
35B
330
1F
100
AcDbEntity
  8
0
  6
Continuous
 62
     7
 48
6.0
100
AcDbLine
 10
537.6165356589721
 20
239.2421163521962
 30
-5.294369999999998
 11
537.6165356589721
 21
237.7421163521962
 31
-5.294369999999998
  0
LINE
  5
35C
330
1F
100
AcDbEntity
  8
0
  6
Continuous
 62
     7
 48
6.0
100
AcDbLine
 10
536.1165356589721
 20
239.2421163521962
 30
-5.294369999999998
 11
537.6165356589721
 21
239.2421163521962
 31
-5.294369999999998
  0
LINE
  5
35D
330
1F
100
AcDbEntity
  8
0
  6
Continuous
 62
     7
 48
6.0
100
AcDbLine
 10
536.1165356589721
 20
240.2421163521962
 30
-5.294369999999998
 11
536.1165356589721
 21
239.2421163521962
 31
-5.294369999999998
  0
LINE
  5
35E
330
1F
100
AcDbEntity
  8
0
  6
Continuous
 62
     7
 48
6.0
100
AcDbLine
 10
537.6165356589721
 20
240.2421163521962
 30
-5.294369999999998
 11
536.1165356589721
 21
240.2421163521962
 31
-5.294369999999998
  0
LINE
  5
35F
330
1F
100
AcDbEntity
  8
0
  6
Continuous
 62
     7
 48
6.0
100
AcDbLine
 10
537.6165356589721
 20
241.7421163521962
 30
-5.294369999999998
 11
537.6165356589721
 21
240.2421163521962
 31
-5.294369999999998
  0
LINE
  5
360
330
1F
100
AcDbEntity
  8
0
  6
Continuous
 62
     7
 48
6.0
100
AcDbLine
 10
538.6165356589721
 20
241.7421163521962
 30
-5.294369999999998
 11
537.6165356589721
 21
241.7421163521962
 31
-5.294369999999998
  0
LINE
  5
361
330
1F
100
AcDbEntity
  8
0
  6
Continuous
 62
     7
 48
6.0
100
AcDbLine
 10
538.6165356589721
 20
240.2421163521962
 30
-5.294369999999998
 11
538.6165356589721
 21
241.7421163521962
 31
-5.294369999999998
  0
LINE
  5
362
330
1F
100
AcDbEntity
  8
0
  6
Continuous
 62
     7
 48
6.0
100
AcDbLine
 10
540.116535658972
 20
240.2421163521962
 30
-5.294369999999998
 11
538.6165356589721
 21
240.2421163521962
 31
-5.294369999999998
  0
LINE
  5
363
330
1F
100
AcDbEntity
  8
0
  6
Continuous
 62
     7
 48
6.0
100
AcDbLine
 10
540.116535658972
 20
239.2421163521962
 30
-5.294369999999998
 11
540.116535658972
 21
240.2421163521962
 31
-5.294369999999998
  0
LINE
  5
364
330
1F
100
AcDbEntity
  8
0
  6
Continuous
 62
     7
100
AcDbLine
 10
531.4165336589724
 20
229.702114352196
 30
-5.294369999999998
 11
532.4165336589722
 21
229.702114352196
 31
-5.294369999999998
  0
LINE
  5
365
330
1F
100
AcDbEntity
  8
0
  6
Continuous
 62
     7
100
AcDbLine
 10
531.4165336589724
 20
239.7821143521964
 30
-5.294369999999998
 11
532.4165336589722
 21
239.7821143521964
 31
-5.294369999999998
  0
LINE
  5
366
330
1F
100
AcDbEntity
  8
0
  6
Continuous
 62
     7
100
AcDbLine
 10
532.4165336589722
 20
239.7821143521964
 30
-5.294369999999998
 11
532.4165336589722
 21
229.702114352196
 31
-5.294369999999998
  0
LINE
  5
367
330
1F
100
AcDbEntity
  8
0
  6
Continuous
 62
     7
100
AcDbLine
 10
531.4165336589724
 20
239.7821143521964
 30
-5.294369999999998
 11
531.4165336589724
 21
229.702114352196
 31
-5.294369999999998
  0
LINE
  5
368
330
1F
100
AcDbEntity
  8
0
  6
DASHED
 62
     4
 48
5.0
100
AcDbLine
 10
564.4165336589724
 20
212.7421023521963
 30
-5.294369999999998
 11
564.4165336589724
 21
227.6894423521962
 31
-5.294369999999998
  0
LINE
  5
369
330
1F
100
AcDbEntity
  8
0
  6
DASHED
 62
     4
 48
5.0
100
AcDbLine
 10
592.416533658972
 20
212.7421023521963
 30
-5.294369999999998
 11
592.416533658972
 21
227.6894423521962
 31
-5.294369999999998
  0
LINE
  5
36A
330
1F
100
AcDbEntity
  8
0
  6
DASHED
 62
     4
 48
5.0
100
AcDbLine
 10
576.4165336589724
 20
227.4628523521963
 30
-5.294369999999998
 11
576.4165336589724
 21
212.7421023521963
 31
-5.294369999999998
  0
LINE
  5
36B
330
1F
100
AcDbEntity
  8
0
  6
DASHED
 62
     4
 48
5.0
100
AcDbLine
 10
625.416533658972
 20
212.7421023521963
 30
-5.294369999999998
 11
625.416533658972
 21
227.6894423521962
 31
-5.294369999999998
  0
LINE
  5
36C
330
1F
100
AcDbEntity
  8
0
  6
DASHED
 62
     4
 48
5.0
100
AcDbLine
 10
609.4165336589724
 20
227.4628523521963
 30
-5.294369999999998
 11
609.4165336589724
 21
212.7421023521963
 31
-5.294369999999998
  0
LINE
  5
36D
330
1F
100
AcDbEntity
  8
0
  6
DASHED
 62
     4
 48
5.0
100
AcDbLine
 10
653.4165336589722
 20
212.7421023521963
 30
-5.294369999999998
 11
653.4165336589722
 21
227.6894423521962
 31
-5.294369999999998
  0
LINE
  5
36E
330
1F
100
AcDbEntity
  8
0
  6
DASHED
 62
     4
 48
5.0
100
AcDbLine
 10
637.4165336589724
 20
227.4628523521963
 30
-5.294369999999998
 11
637.4165336589724
 21
212.7421023521963
 31
-5.294369999999998
  0
LINE
  5
36F
330
1F
100
AcDbEntity
  8
0
  6
DASHED
 62
     4
 48
5.0
100
AcDbLine
 10
686.4165336589723
 20
212.7421023521963
 30
-5.294369999999998
 11
686.4165336589723
 21
227.6894423521962
 31
-5.294369999999998
  0
LINE
  5
370
330
1F
100
AcDbEntity
  8
0
  6
DASHED
 62
     4
 48
5.0
100
AcDbLine
 10
670.4165336589724
 20
227.4628523521963
 30
-5.294369999999998
 11
670.4165336589724
 21
212.7421023521963
 31
-5.294369999999998
  0
LINE
  5
371
330
1F
100
AcDbEntity
  8
0
  6
DASHED
 62
     4
 48
5.0
100
AcDbLine
 10
578.4165336589722
 20
210.7421023521963
 30
-5.294369999999998
 11
590.4165336589723
 21
210.7421023521963
 31
-5.294369999999998
  0
ARC
  5
372
330
1F
100
AcDbEntity
  8
0
  6
DASHED
 62
     4
 48
5.0
100
AcDbCircle
 10
578.4165321648218
 20
212.7421008580461
 30
-5.294369999999998
 40
1.999998505850147
100
AcDbArc
 50
179.9999571957112
 51
270.0000428042887
  0
ARC
  5
373
330
1F
100
AcDbEntity
  8
0
  6
DASHED
 62
     4
 48
5.0
100
AcDbCircle
 10
590.4165351531226
 20
212.7421008580461
 30
-5.294369999999998
 40
1.999998505850204
100
AcDbArc
 50
269.9999571957111
 51
0.0000428042888088
  0
LINE
  5
374
330
1F
100
AcDbEntity
  8
0
  6
Continuous
 62
     7
100
AcDbLine
 10
628.116533658972
 20
191.7421023521963
 30
-5.294369999999998
 11
628.116533658972
 21
202.7421023521963
 31
-5.294369999999998
  0
LINE
  5
375
330
1F
100
AcDbEntity
  8
0
  6
DASHED
 62
     4
 48
5.0
100
AcDbLine
 10
611.4165336589723
 20
210.7421023521963
 30
-5.294369999999998
 11
623.4165336589718
 21
210.7421023521963
 31
-5.294369999999998
  0
ARC
  5
376
330
1F
100
AcDbEntity
  8
0
  6
DASHED
 62
     4
 48
5.0
100
AcDbCircle
 10
611.4165321648219
 20
212.7421008580461
 30
-5.294369999999998
 40
1.999998505850147
100
AcDbArc
 50
179.9999571957112
 51
270.0000428042887
  0
ARC
  5
377
330
1F
100
AcDbEntity
  8
0
  6
DASHED
 62
     4
 48
5.0
100
AcDbCircle
 10
623.4165351531226
 20
212.7421008580461
 30
-5.294369999999998
 40
1.999998505850204
100
AcDbArc
 50
269.9999571957111
 51
0.0000428042888088
  0
LINE
  5
378
330
1F
100
AcDbEntity
  8
0
  6
Continuous
 62
     7
100
AcDbLine
 10
637.1165336589722
 20
191.7421023521963
 30
-5.294369999999998
 11
637.1165336589722
 21
202.7421023521963
 31
-5.294369999999998
  0
LINE
  5
379
330
1F
100
AcDbEntity
  8
0
  6
DASHED
 62
     4
 48
5.0
100
AcDbLine
 10
639.4165336589724
 20
210.7421023521963
 30
-5.294369999999998
 11
651.4165336589724
 21
210.7421023521963
 31
-5.294369999999998
  0
ARC
  5
37A
330
1F
100
AcDbEntity
  8
0
  6
DASHED
 62
     4
 48
5.0
100
AcDbCircle
 10
639.416532164822
 20
212.7421008580461
 30
-5.294369999999998
 40
1.999998505850147
100
AcDbArc
 50
179.9999571957112
 51
270.0000428042887
  0
ARC
  5
37B
330
1F
100
AcDbEntity
  8
0
  6
DASHED
 62
     4
 48
5.0
100
AcDbCircle
 10
651.4165351531228
 20
212.7421008580461
 30
-5.294369999999998
 40
1.999998505850204
100
AcDbArc
 50
269.9999571957111
 51
0.0000428042888088
  0
LINE
  5
37C
330
1F
100
AcDbEntity
  8
0
  6
DASHED
 62
     4
 48
5.0
100
AcDbLine
 10
672.4165336589724
 20
210.7421023521963
 30
-5.294369999999998
 11
684.4165336589724
 21
210.7421023521963
 31
-5.294369999999998
  0
ARC
  5
37D
330
1F
100
AcDbEntity
  8
0
  6
DASHED
 62
     4
 48
5.0
100
AcDbCircle
 10
672.4165321648217
 20
212.7421008580461
 30
-5.294369999999998
 40
1.999998505850147
100
AcDbArc
 50
179.9999571957112
 51
270.0000428042887
  0
ARC
  5
37E
330
1F
100
AcDbEntity
  8
0
  6
DASHED
 62
     4
 48
5.0
100
AcDbCircle
 10
684.4165351531228
 20
212.7421008580461
 30
-5.294369999999998
 40
1.999998505850204
100
AcDbArc
 50
269.9999571957111
 51
0.0000428042888088
  0
LINE
  5
37F
330
1F
100
AcDbEntity
  8
0
  6
DASHED
 62
     4
 48
5.0
100
AcDbLine
 10
678.5265336589718
 20
459.4421023521961
 30
-5.294369999999998
 11
562.9065336589722
 21
459.4421023521961
 31
-5.294369999999998
  0
LINE
  5
380
330
1F
100
AcDbEntity
  8
0
  6
DASHED
 62
     4
 48
5.0
100
AcDbLine
 10
678.5265336589718
 20
449.4421023521962
 30
-5.294369999999998
 11
562.9065336589722
 21
449.4421023521962
 31
-5.294369999999998
  0
LINE
  5
381
330
1F
100
AcDbEntity
  8
0
  6
DASHED
 62
     4
 48
5.0
100
AcDbLine
 10
678.5265336589718
 20
468.4421023521961
 30
-5.294369999999998
 11
562.9065336589722
 21
468.4421023521961
 31
-5.294369999999998
  0
LINE
  5
382
330
1F
100
AcDbEntity
  8
0
  6
Continuous
 62
     7
100
AcDbLine
 10
539.8665336589721
 20
393.7421023521961
 30
-5.294369999999998
 11
539.8665336589721
 21
432.3054183521965
 31
-5.294369999999998
  0
LINE
  5
383
330
1F
100
AcDbEntity
  8
0
  6
Continuous
 62
     7
100
AcDbLine
 10
536.3665336589721
 20
393.7421023521961
 30
-5.294369999999998
 11
536.3665336589721
 21
432.3054183521965
 31
-5.294369999999998
  0
LINE
  5
384
330
1F
100
AcDbEntity
  8
0
  6
Continuous
 62
     7
100
AcDbLine
 10
530.4165336589724
 20
431.1421163521962
 30
-5.294369999999998
 11
531.4165336589724
 21
431.1421163521962
 31
-5.294369999999998
  0
LINE
  5
385
330
1F
100
AcDbEntity
  8
0
  6
Continuous
 62
     7
100
AcDbLine
 10
530.4165336589724
 20
438.3421163521961
 30
-5.294369999999998
 11
531.4165336589724
 21
438.3421163521961
 31
-5.294369999999998
  0
LINE
  5
386
330
1F
100
AcDbEntity
  8
0
  6
Continuous
 62
     7
100
AcDbLine
 10
528.4965336589721
 20
436.422116352196
 30
-5.294369999999998
 11
528.4965336589721
 21
433.0621163521964
 31
-5.294369999999998
  0
LINE
  5
387
330
1F
100
AcDbEntity
  8
0
  6
Continuous
 62
     7
100
AcDbLine
 10
539.8665336589721
 20
437.1788143521963
 30
-5.294369999999998
 11
539.8665336589721
 21
472.1452283521966
 31
-5.294369999999998
  0
LINE
  5
388
330
1F
100
AcDbEntity
  8
0
  6
Continuous
 62
     7
100
AcDbLine
 10
536.3665336589721
 20
437.1788143521963
 30
-5.294369999999998
 11
536.3665336589721
 21
472.1452283521966
 31
-5.294369999999998
  0
LINE
  5
38A
330
1F
100
AcDbEntity
  8
0
  6
Continuous
 62
     7
 48
6.0
100
AcDbLine
 10
540.116535658972
 20
434.242116352196
 30
-5.294369999999998
 11
540.116535658972
 21
434.242116352196
 31
-5.294369999999998
  0
LINE
  5
38B
330
1F
100
AcDbEntity
  8
0
  6
Continuous
 62
     7
 48
6.0
100
AcDbLine
 10
538.6165356589721
 20
434.242116352196
 30
-5.294369999999998
 11
540.116535658972
 21
434.242116352196
 31
-5.294369999999998
  0
LINE
  5
38C
330
1F
100
AcDbEntity
  8
0
  6
Continuous
 62
     7
 48
6.0
100
AcDbLine
 10
538.6165356589721
 20
432.7421163521959
 30
-5.294369999999998
 11
538.6165356589721
 21
434.242116352196
 31
-5.294369999999998
  0
LINE
  5
38D
330
1F
100
AcDbEntity
  8
0
  6
Continuous
 62
     7
 48
6.0
100
AcDbLine
 10
537.6165356589721
 20
432.7421163521959
 30
-5.294369999999998
 11
538.6165356589721
 21
432.7421163521959
 31
-5.294369999999998
  0
LINE
  5
38E
330
1F
100
AcDbEntity
  8
0
  6
Continuous
 62
     7
 48
6.0
100
AcDbLine
 10
537.6165356589721
 20
434.242116352196
 30
-5.294369999999998
 11
537.6165356589721
 21
432.7421163521959
 31
-5.294369999999998
  0
LINE
  5
38F
330
1F
100
AcDbEntity
  8
0
  6
Continuous
 62
     7
 48
6.0
100
AcDbLine
 10
536.1165356589721
 20
434.242116352196
 30
-5.294369999999998
 11
537.6165356589721
 21
434.242116352196
 31
-5.294369999999998
  0
LINE
  5
390
330
1F
100
AcDbEntity
  8
0
  6
Continuous
 62
     7
 48
6.0
100
AcDbLine
 10
536.1165356589721
 20
435.242116352196
 30
-5.294369999999998
 11
536.1165356589721
 21
434.242116352196
 31
-5.294369999999998
  0
LINE
  5
391
330
1F
100
AcDbEntity
  8
0
  6
Continuous
 62
     7
 48
6.0
100
AcDbLine
 10
537.6165356589721
 20
435.242116352196
 30
-5.294369999999998
 11
536.1165356589721
 21
435.242116352196
 31
-5.294369999999998
  0
LINE
  5
392
330
1F
100
AcDbEntity
  8
0
  6
Continuous
 62
     7
 48
6.0
100
AcDbLine
 10
537.6165356589721
 20
436.7421163521959
 30
-5.294369999999998
 11
537.6165356589721
 21
435.242116352196
 31
-5.294369999999998
  0
LINE
  5
393
330
1F
100
AcDbEntity
  8
0
  6
Continuous
 62
     7
 48
6.0
100
AcDbLine
 10
538.6165356589721
 20
436.7421163521959
 30
-5.294369999999998
 11
537.6165356589721
 21
436.7421163521959
 31
-5.294369999999998
  0
LINE
  5
394
330
1F
100
AcDbEntity
  8
0
  6
Continuous
 62
     7
 48
6.0
100
AcDbLine
 10
538.6165356589721
 20
435.242116352196
 30
-5.294369999999998
 11
538.6165356589721
 21
436.7421163521959
 31
-5.294369999999998
  0
LINE
  5
395
330
1F
100
AcDbEntity
  8
0
  6
Continuous
 62
     7
 48
6.0
100
AcDbLine
 10
540.116535658972
 20
435.242116352196
 30
-5.294369999999998
 11
538.6165356589721
 21
435.242116352196
 31
-5.294369999999998
  0
LINE
  5
396
330
1F
100
AcDbEntity
  8
0
  6
Continuous
 62
     7
 48
6.0
100
AcDbLine
 10
540.116535658972
 20
434.242116352196
 30
-5.294369999999998
 11
540.116535658972
 21
435.242116352196
 31
-5.294369999999998
  0
LINE
  5
397
330
1F
100
AcDbEntity
  8
0
  6
Continuous
 62
     7
100
AcDbLine
 10
531.4165336589724
 20
429.7021143521959
 30
-5.294369999999998
 11
532.4165336589722
 21
429.7021143521959
 31
-5.294369999999998
  0
LINE
  5
398
330
1F
100
AcDbEntity
  8
0
  6
Continuous
 62
     7
100
AcDbLine
 10
531.4165336589724
 20
439.7821143521963
 30
-5.294369999999998
 11
532.4165336589722
 21
439.7821143521963
 31
-5.294369999999998
  0
LINE
  5
399
330
1F
100
AcDbEntity
  8
0
  6
Continuous
 62
     7
100
AcDbLine
 10
532.4165336589722
 20
439.7821143521963
 30
-5.294369999999998
 11
532.4165336589722
 21
429.7021143521959
 31
-5.294369999999998
  0
LINE
  5
39A
330
1F
100
AcDbEntity
  8
0
  6
Continuous
 62
     7
100
AcDbLine
 10
531.4165336589724
 20
439.7821143521963
 30
-5.294369999999998
 11
531.4165336589724
 21
429.7021143521959
 31
-5.294369999999998
  0
LINE
  5
39B
330
1F
100
AcDbEntity
  8
0
  6
Continuous
 62
     7
100
AcDbLine
 10
533.6165336589721
 20
484.7421023521961
 30
-5.294369999999998
 11
533.6165336589721
 21
506.7421023521959
 31
-5.294369999999998
  0
LINE
  5
39C
330
1F
100
AcDbEntity
  8
0
  6
DASHED
 62
     4
 48
5.0
100
AcDbLine
 10
630.1817096589725
 20
463.6765783521959
 30
-5.294369999999998
 11
631.6817096589724
 21
463.6765783521959
 31
-5.294369999999998
  0
LINE
  5
39D
330
1F
100
AcDbEntity
  8
0
  6
DASHED
 62
     4
 48
5.0
100
AcDbLine
 10
631.6817096589724
 20
464.6765783521962
 30
-5.294369999999998
 11
630.1817096589725
 21
464.6765783521962
 31
-5.294369999999998
  0
LINE
  5
39E
330
1F
100
AcDbEntity
  8
0
  6
DASHED
 62
     4
 48
5.0
100
AcDbLine
 10
597.4351356589718
 20
451.9007643521965
 30
-5.294369999999998
 11
598.435135658972
 21
451.9007643521965
 31
-5.294369999999998
  0
LINE
  5
39F
330
1F
100
AcDbEntity
  8
0
  6
DASHED
 62
     4
 48
5.0
100
AcDbLine
 10
598.435135658972
 20
455.9007643521962
 30
-5.294369999999998
 11
597.4351356589718
 21
455.9007643521962
 31
-5.294369999999998
  0
LINE
  5
3A0
330
1F
100
AcDbEntity
  8
0
  6
DASHED
 62
     4
 48
5.0
100
AcDbLine
 10
564.2265336589722
 20
449.4421023521962
 30
-5.294369999999998
 11
564.2265336589722
 21
459.4421023521961
 31
-5.294369999999998
  0
LINE
  5
3A1
330
1F
100
AcDbEntity
  8
0
  6
DASHED
 62
     4
 48
5.0
100
AcDbLine
 10
571.846533658972
 20
449.4421023521962
 30
-5.294369999999998
 11
571.846533658972
 21
459.4421023521961
 31
-5.294369999999998
  0
LINE
  5
3A2
330
1F
100
AcDbEntity
  8
0
  6
DASHED
 62
     4
 48
5.0
100
AcDbLine
 10
570.5265336589722
 20
449.4421023521962
 30
-5.294369999999998
 11
570.5265336589722
 21
459.4421023521961
 31
-5.294369999999998
  0
LINE
  5
3A3
330
1F
100
AcDbEntity
  8
0
  6
DASHED
 62
     4
 48
5.0
100
AcDbLine
 10
579.4665336589718
 20
449.4421023521962
 30
-5.294369999999998
 11
579.4665336589718
 21
459.4421023521961
 31
-5.294369999999998
  0
LINE
  5
3A4
330
1F
100
AcDbEntity
  8
0
  6
DASHED
 62
     4
 48
5.0
100
AcDbLine
 10
578.1465336589724
 20
449.4421023521962
 30
-5.294369999999998
 11
578.1465336589724
 21
459.4421023521961
 31
-5.294369999999998
  0
LINE
  5
3A5
330
1F
100
AcDbEntity
  8
0
  6
DASHED
 62
     4
 48
5.0
100
AcDbLine
 10
587.0865336589722
 20
449.4421023521962
 30
-5.294369999999998
 11
587.0865336589722
 21
459.4421023521961
 31
-5.294369999999998
  0
LINE
  5
3A6
330
1F
100
AcDbEntity
  8
0
  6
DASHED
 62
     4
 48
5.0
100
AcDbLine
 10
585.7665336589724
 20
449.4421023521962
 30
-5.294369999999998
 11
585.7665336589724
 21
459.4421023521961
 31
-5.294369999999998
  0
LINE
  5
3A7
330
1F
100
AcDbEntity
  8
0
  6
DASHED
 62
     4
 48
5.0
100
AcDbLine
 10
594.7065336589718
 20
449.4421023521962
 30
-5.294369999999998
 11
594.7065336589718
 21
459.4421023521961
 31
-5.294369999999998
  0
LINE
  5
3A8
330
1F
100
AcDbEntity
  8
0
  6
DASHED
 62
     4
 48
5.0
100
AcDbLine
 10
593.3865336589722
 20
449.4421023521962
 30
-5.294369999999998
 11
593.3865336589722
 21
459.4421023521961
 31
-5.294369999999998
  0
LINE
  5
3A9
330
1F
100
AcDbEntity
  8
0
  6
DASHED
 62
     4
 48
5.0
100
AcDbLine
 10
595.935135658972
 20
454.4007643521961
 30
-5.294369999999998
 11
595.935135658972
 21
453.4007643521961
 31
-5.294369999999998
  0
LINE
  5
3AA
330
1F
100
AcDbEntity
  8
0
  6
DASHED
 62
     4
 48
5.0
100
AcDbLine
 10
588.3151356589722
 20
454.4007643521961
 30
-5.294369999999998
 11
588.3151356589722
 21
453.4007643521961
 31
-5.294369999999998
  0
LINE
  5
3AB
330
1F
100
AcDbEntity
  8
0
  6
DASHED
 62
     4
 48
5.0
100
AcDbLine
 10
592.3151356589722
 20
453.4007643521961
 30
-5.294369999999998
 11
592.3151356589722
 21
454.4007643521961
 31
-5.294369999999998
  0
LINE
  5
3AC
330
1F
100
AcDbEntity
  8
0
  6
DASHED
 62
     4
 48
5.0
100
AcDbLine
 10
580.6951356589725
 20
454.4007643521961
 30
-5.294369999999998
 11
580.6951356589725
 21
453.4007643521961
 31
-5.294369999999998
  0
LINE
  5
3AD
330
1F
100
AcDbEntity
  8
0
  6
DASHED
 62
     4
 48
5.0
100
AcDbLine
 10
584.695135658972
 20
453.4007643521961
 30
-5.294369999999998
 11
584.695135658972
 21
454.4007643521961
 31
-5.294369999999998
  0
LINE
  5
3AE
330
1F
100
AcDbEntity
  8
0
  6
DASHED
 62
     4
 48
5.0
100
AcDbLine
 10
573.0751356589722
 20
454.4007643521961
 30
-5.294369999999998
 11
573.0751356589722
 21
453.4007643521961
 31
-5.294369999999998
  0
LINE
  5
3AF
330
1F
100
AcDbEntity
  8
0
  6
DASHED
 62
     4
 48
5.0
100
AcDbLine
 10
577.0751356589722
 20
453.4007643521961
 30
-5.294369999999998
 11
577.0751356589722
 21
454.4007643521961
 31
-5.294369999999998
  0
LINE
  5
3B0
330
1F
100
AcDbEntity
  8
0
  6
DASHED
 62
     4
 48
5.0
100
AcDbLine
 10
565.4551356589725
 20
454.4007643521961
 30
-5.294369999999998
 11
565.4551356589725
 21
453.4007643521961
 31
-5.294369999999998
  0
LINE
  5
3B1
330
1F
100
AcDbEntity
  8
0
  6
DASHED
 62
     4
 48
5.0
100
AcDbLine
 10
569.4551356589722
 20
453.4007643521961
 30
-5.294369999999998
 11
569.4551356589722
 21
454.4007643521961
 31
-5.294369999999998
  0
LINE
  5
3B2
330
1F
100
AcDbEntity
  8
0
  6
DASHED
 62
     4
 48
5.0
100
AcDbLine
 10
580.6951356589725
 20
453.4007643521961
 30
-5.294369999999998
 11
582.1951356589722
 21
453.4007643521961
 31
-5.294369999999998
  0
LINE
  5
3B3
330
1F
100
AcDbEntity
  8
0
  6
DASHED
 62
     4
 48
5.0
100
AcDbLine
 10
577.0751356589722
 20
453.4007643521961
 30
-5.294369999999998
 11
577.0751356589722
 21
453.4007643521961
 31
-5.294369999999998
  0
LINE
  5
3B4
330
1F
100
AcDbEntity
  8
0
  6
DASHED
 62
     4
 48
5.0
100
AcDbLine
 10
575.575135658972
 20
453.4007643521961
 30
-5.294369999999998
 11
577.0751356589722
 21
453.4007643521961
 31
-5.294369999999998
  0
LINE
  5
3B5
330
1F
100
AcDbEntity
  8
0
  6
DASHED
 62
     4
 48
5.0
100
AcDbLine
 10
575.575135658972
 20
451.9007643521965
 30
-5.294369999999998
 11
575.575135658972
 21
453.4007643521961
 31
-5.294369999999998
  0
LINE
  5
3B6
330
1F
100
AcDbEntity
  8
0
  6
DASHED
 62
     4
 48
5.0
100
AcDbLine
 10
574.5751356589724
 20
451.9007643521965
 30
-5.294369999999998
 11
575.575135658972
 21
451.9007643521965
 31
-5.294369999999998
  0
LINE
  5
3B7
330
1F
100
AcDbEntity
  8
0
  6
DASHED
 62
     4
 48
5.0
100
AcDbLine
 10
574.5751356589724
 20
453.4007643521961
 30
-5.294369999999998
 11
574.5751356589724
 21
451.9007643521965
 31
-5.294369999999998
  0
LINE
  5
3B8
330
1F
100
AcDbEntity
  8
0
  6
DASHED
 62
     4
 48
5.0
100
AcDbLine
 10
573.0751356589722
 20
453.4007643521961
 30
-5.294369999999998
 11
574.5751356589724
 21
453.4007643521961
 31
-5.294369999999998
  0
LINE
  5
3B9
330
1F
100
AcDbEntity
  8
0
  6
DASHED
 62
     4
 48
5.0
100
AcDbLine
 10
569.4551356589722
 20
453.4007643521961
 30
-5.294369999999998
 11
569.4551356589722
 21
453.4007643521961
 31
-5.294369999999998
  0
LINE
  5
3BA
330
1F
100
AcDbEntity
  8
0
  6
DASHED
 62
     4
 48
5.0
100
AcDbLine
 10
567.955135658972
 20
453.4007643521961
 30
-5.294369999999998
 11
569.4551356589722
 21
453.4007643521961
 31
-5.294369999999998
  0
LINE
  5
3BB
330
1F
100
AcDbEntity
  8
0
  6
DASHED
 62
     4
 48
5.0
100
AcDbLine
 10
567.955135658972
 20
451.9007643521965
 30
-5.294369999999998
 11
567.955135658972
 21
453.4007643521961
 31
-5.294369999999998
  0
LINE
  5
3BC
330
1F
100
AcDbEntity
  8
0
  6
DASHED
 62
     4
 48
5.0
100
AcDbLine
 10
566.9551356589722
 20
451.9007643521965
 30
-5.294369999999998
 11
567.955135658972
 21
451.9007643521965
 31
-5.294369999999998
  0
LINE
  5
3BD
330
1F
100
AcDbEntity
  8
0
  6
DASHED
 62
     4
 48
5.0
100
AcDbLine
 10
566.9551356589722
 20
453.4007643521961
 30
-5.294369999999998
 11
566.9551356589722
 21
451.9007643521965
 31
-5.294369999999998
  0
LINE
  5
3BE
330
1F
100
AcDbEntity
  8
0
  6
DASHED
 62
     4
 48
5.0
100
AcDbLine
 10
565.4551356589725
 20
453.4007643521961
 30
-5.294369999999998
 11
566.9551356589722
 21
453.4007643521961
 31
-5.294369999999998
  0
LINE
  5
3BF
330
1F
100
AcDbEntity
  8
0
  6
DASHED
 62
     4
 48
5.0
100
AcDbLine
 10
597.4351356589718
 20
453.4007643521961
 30
-5.294369999999998
 11
597.4351356589718
 21
451.9007643521965
 31
-5.294369999999998
  0
LINE
  5
3C0
330
1F
100
AcDbEntity
  8
0
  6
DASHED
 62
     4
 48
5.0
100
AcDbLine
 10
595.935135658972
 20
453.4007643521961
 30
-5.294369999999998
 11
597.4351356589718
 21
453.4007643521961
 31
-5.294369999999998
  0
LINE
  5
3C1
330
1F
100
AcDbEntity
  8
0
  6
DASHED
 62
     4
 48
5.0
100
AcDbLine
 10
592.3151356589722
 20
453.4007643521961
 30
-5.294369999999998
 11
592.3151356589722
 21
453.4007643521961
 31
-5.294369999999998
  0
LINE
  5
3C2
330
1F
100
AcDbEntity
  8
0
  6
DASHED
 62
     4
 48
5.0
100
AcDbLine
 10
590.8151356589723
 20
453.4007643521961
 30
-5.294369999999998
 11
592.3151356589722
 21
453.4007643521961
 31
-5.294369999999998
  0
LINE
  5
3C3
330
1F
100
AcDbEntity
  8
0
  6
DASHED
 62
     4
 48
5.0
100
AcDbLine
 10
590.8151356589723
 20
451.9007643521965
 30
-5.294369999999998
 11
590.8151356589723
 21
453.4007643521961
 31
-5.294369999999998
  0
LINE
  5
3C4
330
1F
100
AcDbEntity
  8
0
  6
DASHED
 62
     4
 48
5.0
100
AcDbLine
 10
589.8151356589722
 20
451.9007643521965
 30
-5.294369999999998
 11
590.8151356589723
 21
451.9007643521965
 31
-5.294369999999998
  0
LINE
  5
3C5
330
1F
100
AcDbEntity
  8
0
  6
DASHED
 62
     4
 48
5.0
100
AcDbLine
 10
589.8151356589722
 20
453.4007643521961
 30
-5.294369999999998
 11
589.8151356589722
 21
451.9007643521965
 31
-5.294369999999998
  0
LINE
  5
3C6
330
1F
100
AcDbEntity
  8
0
  6
DASHED
 62
     4
 48
5.0
100
AcDbLine
 10
588.3151356589722
 20
453.4007643521961
 30
-5.294369999999998
 11
589.8151356589722
 21
453.4007643521961
 31
-5.294369999999998
  0
LINE
  5
3C7
330
1F
100
AcDbEntity
  8
0
  6
DASHED
 62
     4
 48
5.0
100
AcDbLine
 10
584.695135658972
 20
453.4007643521961
 30
-5.294369999999998
 11
584.695135658972
 21
453.4007643521961
 31
-5.294369999999998
  0
LINE
  5
3C8
330
1F
100
AcDbEntity
  8
0
  6
DASHED
 62
     4
 48
5.0
100
AcDbLine
 10
583.195135658972
 20
453.4007643521961
 30
-5.294369999999998
 11
584.695135658972
 21
453.4007643521961
 31
-5.294369999999998
  0
LINE
  5
3C9
330
1F
100
AcDbEntity
  8
0
  6
DASHED
 62
     4
 48
5.0
100
AcDbLine
 10
583.195135658972
 20
451.9007643521965
 30
-5.294369999999998
 11
583.195135658972
 21
453.4007643521961
 31
-5.294369999999998
  0
LINE
  5
3CA
330
1F
100
AcDbEntity
  8
0
  6
DASHED
 62
     4
 48
5.0
100
AcDbLine
 10
582.1951356589722
 20
451.9007643521965
 30
-5.294369999999998
 11
583.195135658972
 21
451.9007643521965
 31
-5.294369999999998
  0
LINE
  5
3CB
330
1F
100
AcDbEntity
  8
0
  6
DASHED
 62
     4
 48
5.0
100
AcDbLine
 10
582.1951356589722
 20
453.4007643521961
 30
-5.294369999999998
 11
582.1951356589722
 21
451.9007643521965
 31
-5.294369999999998
  0
LINE
  5
3CC
330
1F
100
AcDbEntity
  8
0
  6
DASHED
 62
     4
 48
5.0
100
AcDbLine
 10
582.1951356589722
 20
454.4007643521961
 30
-5.294369999999998
 11
580.6951356589725
 21
454.4007643521961
 31
-5.294369999999998
  0
LINE
  5
3CD
330
1F
100
AcDbEntity
  8
0
  6
DASHED
 62
     4
 48
5.0
100
AcDbLine
 10
566.7165336589721
 20
459.4421023521961
 30
-5.294369999999998
 11
566.7165336589721
 21
468.4421023521961
 31
-5.294369999999998
  0
LINE
  5
3CE
330
1F
100
AcDbEntity
  8
0
  6
DASHED
 62
     4
 48
5.0
100
AcDbLine
 10
575.6565336589722
 20
459.4421023521961
 30
-5.294369999999998
 11
575.6565336589722
 21
468.4421023521961
 31
-5.294369999999998
  0
LINE
  5
3CF
330
1F
100
AcDbEntity
  8
0
  6
DASHED
 62
     4
 48
5.0
100
AcDbLine
 10
574.3365336589723
 20
459.4421023521961
 30
-5.294369999999998
 11
574.3365336589723
 21
468.4421023521961
 31
-5.294369999999998
  0
LINE
  5
3D0
330
1F
100
AcDbEntity
  8
0
  6
DASHED
 62
     4
 48
5.0
100
AcDbLine
 10
574.5751356589724
 20
454.4007643521961
 30
-5.294369999999998
 11
573.0751356589722
 21
454.4007643521961
 31
-5.294369999999998
  0
LINE
  5
3D1
330
1F
100
AcDbEntity
  8
0
  6
DASHED
 62
     4
 48
5.0
100
AcDbLine
 10
574.5751356589724
 20
455.9007643521962
 30
-5.294369999999998
 11
574.5751356589724
 21
454.4007643521961
 31
-5.294369999999998
  0
LINE
  5
3D2
330
1F
100
AcDbEntity
  8
0
  6
DASHED
 62
     4
 48
5.0
100
AcDbLine
 10
575.575135658972
 20
455.9007643521962
 30
-5.294369999999998
 11
574.5751356589724
 21
455.9007643521962
 31
-5.294369999999998
  0
LINE
  5
3D3
330
1F
100
AcDbEntity
  8
0
  6
DASHED
 62
     4
 48
5.0
100
AcDbLine
 10
575.575135658972
 20
454.4007643521961
 30
-5.294369999999998
 11
575.575135658972
 21
455.9007643521962
 31
-5.294369999999998
  0
LINE
  5
3D4
330
1F
100
AcDbEntity
  8
0
  6
DASHED
 62
     4
 48
5.0
100
AcDbLine
 10
577.0751356589722
 20
454.4007643521961
 30
-5.294369999999998
 11
575.575135658972
 21
454.4007643521961
 31
-5.294369999999998
  0
LINE
  5
3D5
330
1F
100
AcDbEntity
  8
0
  6
DASHED
 62
     4
 48
5.0
100
AcDbLine
 10
580.8417096589724
 20
463.6765783521959
 30
-5.294369999999998
 11
580.8417096589724
 21
463.6765783521959
 31
-5.294369999999998
  0
LINE
  5
3D6
330
1F
100
AcDbEntity
  8
0
  6
DASHED
 62
     4
 48
5.0
100
AcDbLine
 10
579.3417096589722
 20
463.6765783521959
 30
-5.294369999999998
 11
580.8417096589724
 21
463.6765783521959
 31
-5.294369999999998
  0
LINE
  5
3D7
330
1F
100
AcDbEntity
  8
0
  6
DASHED
 62
     4
 48
5.0
100
AcDbLine
 10
579.3417096589722
 20
462.1765783521964
 30
-5.294369999999998
 11
579.3417096589722
 21
463.6765783521959
 31
-5.294369999999998
  0
LINE
  5
3D8
330
1F
100
AcDbEntity
  8
0
  6
DASHED
 62
     4
 48
5.0
100
AcDbLine
 10
578.3417096589722
 20
462.1765783521964
 30
-5.294369999999998
 11
579.3417096589722
 21
462.1765783521964
 31
-5.294369999999998
  0
LINE
  5
3D9
330
1F
100
AcDbEntity
  8
0
  6
DASHED
 62
     4
 48
5.0
100
AcDbLine
 10
578.3417096589722
 20
463.6765783521959
 30
-5.294369999999998
 11
578.3417096589722
 21
462.1765783521964
 31
-5.294369999999998
  0
LINE
  5
3DA
330
1F
100
AcDbEntity
  8
0
  6
DASHED
 62
     4
 48
5.0
100
AcDbLine
 10
576.8417096589724
 20
463.6765783521959
 30
-5.294369999999998
 11
578.3417096589722
 21
463.6765783521959
 31
-5.294369999999998
  0
LINE
  5
3DB
330
1F
100
AcDbEntity
  8
0
  6
DASHED
 62
     4
 48
5.0
100
AcDbLine
 10
576.8417096589724
 20
464.6765783521962
 30
-5.294369999999998
 11
576.8417096589724
 21
463.6765783521959
 31
-5.294369999999998
  0
LINE
  5
3DC
330
1F
100
AcDbEntity
  8
0
  6
DASHED
 62
     4
 48
5.0
100
AcDbLine
 10
578.3417096589722
 20
464.6765783521962
 30
-5.294369999999998
 11
576.8417096589724
 21
464.6765783521962
 31
-5.294369999999998
  0
LINE
  5
3DD
330
1F
100
AcDbEntity
  8
0
  6
DASHED
 62
     4
 48
5.0
100
AcDbLine
 10
578.3417096589722
 20
466.1765783521964
 30
-5.294369999999998
 11
578.3417096589722
 21
464.6765783521962
 31
-5.294369999999998
  0
LINE
  5
3DE
330
1F
100
AcDbEntity
  8
0
  6
DASHED
 62
     4
 48
5.0
100
AcDbLine
 10
579.3417096589722
 20
466.1765783521964
 30
-5.294369999999998
 11
578.3417096589722
 21
466.1765783521964
 31
-5.294369999999998
  0
LINE
  5
3DF
330
1F
100
AcDbEntity
  8
0
  6
DASHED
 62
     4
 48
5.0
100
AcDbLine
 10
579.3417096589722
 20
464.6765783521962
 30
-5.294369999999998
 11
579.3417096589722
 21
466.1765783521964
 31
-5.294369999999998
  0
LINE
  5
3E0
330
1F
100
AcDbEntity
  8
0
  6
DASHED
 62
     4
 48
5.0
100
AcDbLine
 10
580.8417096589724
 20
464.6765783521962
 30
-5.294369999999998
 11
579.3417096589722
 21
464.6765783521962
 31
-5.294369999999998
  0
LINE
  5
3E1
330
1F
100
AcDbEntity
  8
0
  6
DASHED
 62
     4
 48
5.0
100
AcDbLine
 10
580.8417096589724
 20
463.6765783521959
 30
-5.294369999999998
 11
580.8417096589724
 21
464.6765783521962
 31
-5.294369999999998
  0
LINE
  5
3E2
330
1F
100
AcDbEntity
  8
0
  6
DASHED
 62
     4
 48
5.0
100
AcDbLine
 10
566.9551356589722
 20
454.4007643521961
 30
-5.294369999999998
 11
565.4551356589725
 21
454.4007643521961
 31
-5.294369999999998
  0
LINE
  5
3E3
330
1F
100
AcDbEntity
  8
0
  6
DASHED
 62
     4
 48
5.0
100
AcDbLine
 10
566.9551356589722
 20
455.9007643521962
 30
-5.294369999999998
 11
566.9551356589722
 21
454.4007643521961
 31
-5.294369999999998
  0
LINE
  5
3E4
330
1F
100
AcDbEntity
  8
0
  6
DASHED
 62
     4
 48
5.0
100
AcDbLine
 10
567.955135658972
 20
455.9007643521962
 30
-5.294369999999998
 11
566.9551356589722
 21
455.9007643521962
 31
-5.294369999999998
  0
LINE
  5
3E5
330
1F
100
AcDbEntity
  8
0
  6
DASHED
 62
     4
 48
5.0
100
AcDbLine
 10
567.955135658972
 20
454.4007643521961
 30
-5.294369999999998
 11
567.955135658972
 21
455.9007643521962
 31
-5.294369999999998
  0
LINE
  5
3E6
330
1F
100
AcDbEntity
  8
0
  6
DASHED
 62
     4
 48
5.0
100
AcDbLine
 10
569.4551356589722
 20
454.4007643521961
 30
-5.294369999999998
 11
567.955135658972
 21
454.4007643521961
 31
-5.294369999999998
  0
LINE
  5
3E7
330
1F
100
AcDbEntity
  8
0
  6
DASHED
 62
     4
 48
5.0
100
AcDbLine
 10
573.2217096589722
 20
463.6765783521959
 30
-5.294369999999998
 11
573.2217096589722
 21
463.6765783521959
 31
-5.294369999999998
  0
LINE
  5
3E8
330
1F
100
AcDbEntity
  8
0
  6
DASHED
 62
     4
 48
5.0
100
AcDbLine
 10
571.7217096589725
 20
463.6765783521959
 30
-5.294369999999998
 11
573.2217096589722
 21
463.6765783521959
 31
-5.294369999999998
  0
LINE
  5
3E9
330
1F
100
AcDbEntity
  8
0
  6
DASHED
 62
     4
 48
5.0
100
AcDbLine
 10
571.7217096589725
 20
462.1765783521964
 30
-5.294369999999998
 11
571.7217096589725
 21
463.6765783521959
 31
-5.294369999999998
  0
LINE
  5
3EA
330
1F
100
AcDbEntity
  8
0
  6
DASHED
 62
     4
 48
5.0
100
AcDbLine
 10
570.7217096589723
 20
462.1765783521964
 30
-5.294369999999998
 11
571.7217096589725
 21
462.1765783521964
 31
-5.294369999999998
  0
LINE
  5
3EB
330
1F
100
AcDbEntity
  8
0
  6
DASHED
 62
     4
 48
5.0
100
AcDbLine
 10
570.7217096589723
 20
463.6765783521959
 30
-5.294369999999998
 11
570.7217096589723
 21
462.1765783521964
 31
-5.294369999999998
  0
LINE
  5
3EC
330
1F
100
AcDbEntity
  8
0
  6
DASHED
 62
     4
 48
5.0
100
AcDbLine
 10
569.2217096589722
 20
463.6765783521959
 30
-5.294369999999998
 11
570.7217096589723
 21
463.6765783521959
 31
-5.294369999999998
  0
LINE
  5
3ED
330
1F
100
AcDbEntity
  8
0
  6
DASHED
 62
     4
 48
5.0
100
AcDbLine
 10
569.2217096589722
 20
464.6765783521962
 30
-5.294369999999998
 11
569.2217096589722
 21
463.6765783521959
 31
-5.294369999999998
  0
LINE
  5
3EE
330
1F
100
AcDbEntity
  8
0
  6
DASHED
 62
     4
 48
5.0
100
AcDbLine
 10
570.7217096589723
 20
464.6765783521962
 30
-5.294369999999998
 11
569.2217096589722
 21
464.6765783521962
 31
-5.294369999999998
  0
LINE
  5
3EF
330
1F
100
AcDbEntity
  8
0
  6
DASHED
 62
     4
 48
5.0
100
AcDbLine
 10
570.7217096589723
 20
466.1765783521964
 30
-5.294369999999998
 11
570.7217096589723
 21
464.6765783521962
 31
-5.294369999999998
  0
LINE
  5
3F0
330
1F
100
AcDbEntity
  8
0
  6
DASHED
 62
     4
 48
5.0
100
AcDbLine
 10
571.7217096589725
 20
466.1765783521964
 30
-5.294369999999998
 11
570.7217096589723
 21
466.1765783521964
 31
-5.294369999999998
  0
LINE
  5
3F1
330
1F
100
AcDbEntity
  8
0
  6
DASHED
 62
     4
 48
5.0
100
AcDbLine
 10
571.7217096589725
 20
464.6765783521962
 30
-5.294369999999998
 11
571.7217096589725
 21
466.1765783521964
 31
-5.294369999999998
  0
LINE
  5
3F2
330
1F
100
AcDbEntity
  8
0
  6
DASHED
 62
     4
 48
5.0
100
AcDbLine
 10
573.2217096589722
 20
464.6765783521962
 30
-5.294369999999998
 11
571.7217096589725
 21
464.6765783521962
 31
-5.294369999999998
  0
LINE
  5
3F3
330
1F
100
AcDbEntity
  8
0
  6
DASHED
 62
     4
 48
5.0
100
AcDbLine
 10
573.2217096589722
 20
463.6765783521959
 30
-5.294369999999998
 11
573.2217096589722
 21
464.6765783521962
 31
-5.294369999999998
  0
LINE
  5
3F4
330
1F
100
AcDbEntity
  8
0
  6
DASHED
 62
     4
 48
5.0
100
AcDbLine
 10
583.2765336589724
 20
459.4421023521961
 30
-5.294369999999998
 11
583.2765336589724
 21
468.4421023521961
 31
-5.294369999999998
  0
LINE
  5
3F5
330
1F
100
AcDbEntity
  8
0
  6
DASHED
 62
     4
 48
5.0
100
AcDbLine
 10
581.9565336589721
 20
459.4421023521961
 30
-5.294369999999998
 11
581.9565336589721
 21
468.4421023521961
 31
-5.294369999999998
  0
LINE
  5
3F6
330
1F
100
AcDbEntity
  8
0
  6
DASHED
 62
     4
 48
5.0
100
AcDbLine
 10
590.8965336589722
 20
459.4421023521961
 30
-5.294369999999998
 11
590.8965336589722
 21
468.4421023521961
 31
-5.294369999999998
  0
LINE
  5
3F7
330
1F
100
AcDbEntity
  8
0
  6
DASHED
 62
     4
 48
5.0
100
AcDbLine
 10
589.5765336589723
 20
459.4421023521961
 30
-5.294369999999998
 11
589.5765336589723
 21
468.4421023521961
 31
-5.294369999999998
  0
LINE
  5
3F8
330
1F
100
AcDbEntity
  8
0
  6
DASHED
 62
     4
 48
5.0
100
AcDbLine
 10
597.1965336589724
 20
459.4421023521961
 30
-5.294369999999998
 11
597.1965336589724
 21
468.4421023521961
 31
-5.294369999999998
  0
LINE
  5
3F9
330
1F
100
AcDbEntity
  8
0
  6
DASHED
 62
     4
 48
5.0
100
AcDbLine
 10
597.4351356589718
 20
454.4007643521961
 30
-5.294369999999998
 11
595.935135658972
 21
454.4007643521961
 31
-5.294369999999998
  0
LINE
  5
3FA
330
1F
100
AcDbEntity
  8
0
  6
DASHED
 62
     4
 48
5.0
100
AcDbLine
 10
597.4351356589718
 20
455.9007643521962
 30
-5.294369999999998
 11
597.4351356589718
 21
454.4007643521961
 31
-5.294369999999998
  0
LINE
  5
3FB
330
1F
100
AcDbEntity
  8
0
  6
DASHED
 62
     4
 48
5.0
100
AcDbLine
 10
589.8151356589722
 20
454.4007643521961
 30
-5.294369999999998
 11
588.3151356589722
 21
454.4007643521961
 31
-5.294369999999998
  0
LINE
  5
3FC
330
1F
100
AcDbEntity
  8
0
  6
DASHED
 62
     4
 48
5.0
100
AcDbLine
 10
589.8151356589722
 20
455.9007643521962
 30
-5.294369999999998
 11
589.8151356589722
 21
454.4007643521961
 31
-5.294369999999998
  0
LINE
  5
3FD
330
1F
100
AcDbEntity
  8
0
  6
DASHED
 62
     4
 48
5.0
100
AcDbLine
 10
590.8151356589723
 20
455.9007643521962
 30
-5.294369999999998
 11
589.8151356589722
 21
455.9007643521962
 31
-5.294369999999998
  0
LINE
  5
3FE
330
1F
100
AcDbEntity
  8
0
  6
DASHED
 62
     4
 48
5.0
100
AcDbLine
 10
590.8151356589723
 20
454.4007643521961
 30
-5.294369999999998
 11
590.8151356589723
 21
455.9007643521962
 31
-5.294369999999998
  0
LINE
  5
3FF
330
1F
100
AcDbEntity
  8
0
  6
DASHED
 62
     4
 48
5.0
100
AcDbLine
 10
592.3151356589722
 20
454.4007643521961
 30
-5.294369999999998
 11
590.8151356589723
 21
454.4007643521961
 31
-5.294369999999998
  0
LINE
  5
400
330
1F
100
AcDbEntity
  8
0
  6
DASHED
 62
     4
 48
5.0
100
AcDbLine
 10
596.0817096589722
 20
463.6765783521959
 30
-5.294369999999998
 11
596.0817096589722
 21
463.6765783521959
 31
-5.294369999999998
  0
LINE
  5
401
330
1F
100
AcDbEntity
  8
0
  6
DASHED
 62
     4
 48
5.0
100
AcDbLine
 10
594.5817096589722
 20
463.6765783521959
 30
-5.294369999999998
 11
596.0817096589722
 21
463.6765783521959
 31
-5.294369999999998
  0
LINE
  5
402
330
1F
100
AcDbEntity
  8
0
  6
DASHED
 62
     4
 48
5.0
100
AcDbLine
 10
594.5817096589722
 20
462.1765783521964
 30
-5.294369999999998
 11
594.5817096589722
 21
463.6765783521959
 31
-5.294369999999998
  0
LINE
  5
403
330
1F
100
AcDbEntity
  8
0
  6
DASHED
 62
     4
 48
5.0
100
AcDbLine
 10
593.5817096589723
 20
462.1765783521964
 30
-5.294369999999998
 11
594.5817096589722
 21
462.1765783521964
 31
-5.294369999999998
  0
LINE
  5
404
330
1F
100
AcDbEntity
  8
0
  6
DASHED
 62
     4
 48
5.0
100
AcDbLine
 10
593.5817096589723
 20
463.6765783521959
 30
-5.294369999999998
 11
593.5817096589723
 21
462.1765783521964
 31
-5.294369999999998
  0
LINE
  5
405
330
1F
100
AcDbEntity
  8
0
  6
DASHED
 62
     4
 48
5.0
100
AcDbLine
 10
592.0817096589727
 20
463.6765783521959
 30
-5.294369999999998
 11
593.5817096589723
 21
463.6765783521959
 31
-5.294369999999998
  0
LINE
  5
406
330
1F
100
AcDbEntity
  8
0
  6
DASHED
 62
     4
 48
5.0
100
AcDbLine
 10
592.0817096589727
 20
464.6765783521962
 30
-5.294369999999998
 11
592.0817096589727
 21
463.6765783521959
 31
-5.294369999999998
  0
LINE
  5
407
330
1F
100
AcDbEntity
  8
0
  6
DASHED
 62
     4
 48
5.0
100
AcDbLine
 10
593.5817096589723
 20
464.6765783521962
 30
-5.294369999999998
 11
592.0817096589727
 21
464.6765783521962
 31
-5.294369999999998
  0
LINE
  5
408
330
1F
100
AcDbEntity
  8
0
  6
DASHED
 62
     4
 48
5.0
100
AcDbLine
 10
593.5817096589723
 20
466.1765783521964
 30
-5.294369999999998
 11
593.5817096589723
 21
464.6765783521962
 31
-5.294369999999998
  0
LINE
  5
409
330
1F
100
AcDbEntity
  8
0
  6
DASHED
 62
     4
 48
5.0
100
AcDbLine
 10
594.5817096589722
 20
466.1765783521964
 30
-5.294369999999998
 11
593.5817096589723
 21
466.1765783521964
 31
-5.294369999999998
  0
LINE
  5
40A
330
1F
100
AcDbEntity
  8
0
  6
DASHED
 62
     4
 48
5.0
100
AcDbLine
 10
594.5817096589722
 20
464.6765783521962
 30
-5.294369999999998
 11
594.5817096589722
 21
466.1765783521964
 31
-5.294369999999998
  0
LINE
  5
40B
330
1F
100
AcDbEntity
  8
0
  6
DASHED
 62
     4
 48
5.0
100
AcDbLine
 10
596.0817096589722
 20
464.6765783521962
 30
-5.294369999999998
 11
594.5817096589722
 21
464.6765783521962
 31
-5.294369999999998
  0
LINE
  5
40C
330
1F
100
AcDbEntity
  8
0
  6
DASHED
 62
     4
 48
5.0
100
AcDbLine
 10
596.0817096589722
 20
463.6765783521959
 30
-5.294369999999998
 11
596.0817096589722
 21
464.6765783521962
 31
-5.294369999999998
  0
LINE
  5
40D
330
1F
100
AcDbEntity
  8
0
  6
DASHED
 62
     4
 48
5.0
100
AcDbLine
 10
582.1951356589722
 20
455.9007643521962
 30
-5.294369999999998
 11
582.1951356589722
 21
454.4007643521961
 31
-5.294369999999998
  0
LINE
  5
40E
330
1F
100
AcDbEntity
  8
0
  6
DASHED
 62
     4
 48
5.0
100
AcDbLine
 10
583.195135658972
 20
455.9007643521962
 30
-5.294369999999998
 11
582.1951356589722
 21
455.9007643521962
 31
-5.294369999999998
  0
LINE
  5
40F
330
1F
100
AcDbEntity
  8
0
  6
DASHED
 62
     4
 48
5.0
100
AcDbLine
 10
583.195135658972
 20
454.4007643521961
 30
-5.294369999999998
 11
583.195135658972
 21
455.9007643521962
 31
-5.294369999999998
  0
LINE
  5
410
330
1F
100
AcDbEntity
  8
0
  6
DASHED
 62
     4
 48
5.0
100
AcDbLine
 10
584.695135658972
 20
454.4007643521961
 30
-5.294369999999998
 11
583.195135658972
 21
454.4007643521961
 31
-5.294369999999998
  0
LINE
  5
411
330
1F
100
AcDbEntity
  8
0
  6
DASHED
 62
     4
 48
5.0
100
AcDbLine
 10
588.461709658972
 20
463.6765783521959
 30
-5.294369999999998
 11
588.461709658972
 21
463.6765783521959
 31
-5.294369999999998
  0
LINE
  5
412
330
1F
100
AcDbEntity
  8
0
  6
DASHED
 62
     4
 48
5.0
100
AcDbLine
 10
586.9617096589725
 20
463.6765783521959
 30
-5.294369999999998
 11
588.461709658972
 21
463.6765783521959
 31
-5.294369999999998
  0
LINE
  5
413
330
1F
100
AcDbEntity
  8
0
  6
DASHED
 62
     4
 48
5.0
100
AcDbLine
 10
586.9617096589725
 20
462.1765783521964
 30
-5.294369999999998
 11
586.9617096589725
 21
463.6765783521959
 31
-5.294369999999998
  0
LINE
  5
414
330
1F
100
AcDbEntity
  8
0
  6
DASHED
 62
     4
 48
5.0
100
AcDbLine
 10
585.9617096589723
 20
462.1765783521964
 30
-5.294369999999998
 11
586.9617096589725
 21
462.1765783521964
 31
-5.294369999999998
  0
LINE
  5
415
330
1F
100
AcDbEntity
  8
0
  6
DASHED
 62
     4
 48
5.0
100
AcDbLine
 10
585.9617096589723
 20
463.6765783521959
 30
-5.294369999999998
 11
585.9617096589723
 21
462.1765783521964
 31
-5.294369999999998
  0
LINE
  5
416
330
1F
100
AcDbEntity
  8
0
  6
DASHED
 62
     4
 48
5.0
100
AcDbLine
 10
584.4617096589722
 20
463.6765783521959
 30
-5.294369999999998
 11
585.9617096589723
 21
463.6765783521959
 31
-5.294369999999998
  0
LINE
  5
417
330
1F
100
AcDbEntity
  8
0
  6
DASHED
 62
     4
 48
5.0
100
AcDbLine
 10
584.4617096589722
 20
464.6765783521962
 30
-5.294369999999998
 11
584.4617096589722
 21
463.6765783521959
 31
-5.294369999999998
  0
LINE
  5
418
330
1F
100
AcDbEntity
  8
0
  6
DASHED
 62
     4
 48
5.0
100
AcDbLine
 10
585.9617096589723
 20
464.6765783521962
 30
-5.294369999999998
 11
584.4617096589722
 21
464.6765783521962
 31
-5.294369999999998
  0
LINE
  5
419
330
1F
100
AcDbEntity
  8
0
  6
DASHED
 62
     4
 48
5.0
100
AcDbLine
 10
585.9617096589723
 20
466.1765783521964
 30
-5.294369999999998
 11
585.9617096589723
 21
464.6765783521962
 31
-5.294369999999998
  0
LINE
  5
41A
330
1F
100
AcDbEntity
  8
0
  6
DASHED
 62
     4
 48
5.0
100
AcDbLine
 10
586.9617096589725
 20
466.1765783521964
 30
-5.294369999999998
 11
585.9617096589723
 21
466.1765783521964
 31
-5.294369999999998
  0
LINE
  5
41B
330
1F
100
AcDbEntity
  8
0
  6
DASHED
 62
     4
 48
5.0
100
AcDbLine
 10
586.9617096589725
 20
464.6765783521962
 30
-5.294369999999998
 11
586.9617096589725
 21
466.1765783521964
 31
-5.294369999999998
  0
LINE
  5
41C
330
1F
100
AcDbEntity
  8
0
  6
DASHED
 62
     4
 48
5.0
100
AcDbLine
 10
588.461709658972
 20
464.6765783521962
 30
-5.294369999999998
 11
586.9617096589725
 21
464.6765783521962
 31
-5.294369999999998
  0
LINE
  5
41D
330
1F
100
AcDbEntity
  8
0
  6
DASHED
 62
     4
 48
5.0
100
AcDbLine
 10
588.461709658972
 20
463.6765783521959
 30
-5.294369999999998
 11
588.461709658972
 21
464.6765783521962
 31
-5.294369999999998
  0
LINE
  5
41E
330
1F
100
AcDbEntity
  8
0
  6
DASHED
 62
     4
 48
5.0
100
AcDbLine
 10
602.3265336589722
 20
449.4421023521962
 30
-5.294369999999998
 11
602.3265336589722
 21
459.4421023521961
 31
-5.294369999999998
  0
LINE
  5
41F
330
1F
100
AcDbEntity
  8
0
  6
DASHED
 62
     4
 48
5.0
100
AcDbLine
 10
601.0065336589721
 20
449.4421023521962
 30
-5.294369999999998
 11
601.0065336589721
 21
459.4421023521961
 31
-5.294369999999998
  0
LINE
  5
420
330
1F
100
AcDbEntity
  8
0
  6
DASHED
 62
     4
 48
5.0
100
AcDbLine
 10
609.9465336589722
 20
449.4421023521962
 30
-5.294369999999998
 11
609.9465336589722
 21
459.4421023521961
 31
-5.294369999999998
  0
LINE
  5
421
330
1F
100
AcDbEntity
  8
0
  6
DASHED
 62
     4
 48
5.0
100
AcDbLine
 10
608.6265336589722
 20
449.4421023521962
 30
-5.294369999999998
 11
608.6265336589722
 21
459.4421023521961
 31
-5.294369999999998
  0
LINE
  5
422
330
1F
100
AcDbEntity
  8
0
  6
DASHED
 62
     4
 48
5.0
100
AcDbLine
 10
625.1865336589722
 20
449.4421023521962
 30
-5.294369999999998
 11
625.1865336589722
 21
459.4421023521961
 31
-5.294369999999998
  0
LINE
  5
423
330
1F
100
AcDbEntity
  8
0
  6
DASHED
 62
     4
 48
5.0
100
AcDbLine
 10
623.8665336589722
 20
449.4421023521962
 30
-5.294369999999998
 11
623.8665336589722
 21
459.4421023521961
 31
-5.294369999999998
  0
LINE
  5
424
330
1F
100
AcDbEntity
  8
0
  6
DASHED
 62
     4
 48
5.0
100
AcDbLine
 10
616.2465336589721
 20
449.4421023521962
 30
-5.294369999999998
 11
616.2465336589721
 21
459.4421023521961
 31
-5.294369999999998
  0
LINE
  5
425
330
1F
100
AcDbEntity
  8
0
  6
DASHED
 62
     4
 48
5.0
100
AcDbLine
 10
617.566533658972
 20
449.4421023521962
 30
-5.294369999999998
 11
617.566533658972
 21
459.4421023521961
 31
-5.294369999999998
  0
LINE
  5
426
330
1F
100
AcDbEntity
  8
0
  6
DASHED
 62
     4
 48
5.0
100
AcDbLine
 10
626.4151356589721
 20
454.4007643521961
 30
-5.294369999999998
 11
626.4151356589721
 21
453.4007643521961
 31
-5.294369999999998
  0
LINE
  5
427
330
1F
100
AcDbEntity
  8
0
  6
DASHED
 62
     4
 48
5.0
100
AcDbLine
 10
630.4151356589718
 20
453.4007643521961
 30
-5.294369999999998
 11
630.4151356589718
 21
454.4007643521961
 31
-5.294369999999998
  0
LINE
  5
428
330
1F
100
AcDbEntity
  8
0
  6
DASHED
 62
     4
 48
5.0
100
AcDbLine
 10
618.7951356589718
 20
454.4007643521961
 30
-5.294369999999998
 11
618.7951356589718
 21
453.4007643521961
 31
-5.294369999999998
  0
LINE
  5
429
330
1F
100
AcDbEntity
  8
0
  6
DASHED
 62
     4
 48
5.0
100
AcDbLine
 10
622.7951356589717
 20
453.4007643521961
 30
-5.294369999999998
 11
622.7951356589717
 21
454.4007643521961
 31
-5.294369999999998
  0
LINE
  5
42A
330
1F
100
AcDbEntity
  8
0
  6
DASHED
 62
     4
 48
5.0
100
AcDbLine
 10
611.1751356589718
 20
454.4007643521961
 30
-5.294369999999998
 11
611.1751356589718
 21
453.4007643521961
 31
-5.294369999999998
  0
LINE
  5
42B
330
1F
100
AcDbEntity
  8
0
  6
DASHED
 62
     4
 48
5.0
100
AcDbLine
 10
615.1751356589718
 20
453.4007643521961
 30
-5.294369999999998
 11
615.1751356589718
 21
454.4007643521961
 31
-5.294369999999998
  0
LINE
  5
42C
330
1F
100
AcDbEntity
  8
0
  6
DASHED
 62
     4
 48
5.0
100
AcDbLine
 10
603.5551356589721
 20
454.4007643521961
 30
-5.294369999999998
 11
603.5551356589721
 21
453.4007643521961
 31
-5.294369999999998
  0
LINE
  5
42D
330
1F
100
AcDbEntity
  8
0
  6
DASHED
 62
     4
 48
5.0
100
AcDbLine
 10
607.5551356589723
 20
453.4007643521961
 30
-5.294369999999998
 11
607.5551356589723
 21
454.4007643521961
 31
-5.294369999999998
  0
LINE
  5
42E
330
1F
100
AcDbEntity
  8
0
  6
DASHED
 62
     4
 48
5.0
100
AcDbLine
 10
599.935135658972
 20
453.4007643521961
 30
-5.294369999999998
 11
599.935135658972
 21
454.4007643521961
 31
-5.294369999999998
  0
LINE
  5
42F
330
1F
100
AcDbEntity
  8
0
  6
DASHED
 62
     4
 48
5.0
100
AcDbLine
 10
613.675135658972
 20
453.4007643521961
 30
-5.294369999999998
 11
615.1751356589718
 21
453.4007643521961
 31
-5.294369999999998
  0
LINE
  5
430
330
1F
100
AcDbEntity
  8
0
  6
DASHED
 62
     4
 48
5.0
100
AcDbLine
 10
613.675135658972
 20
451.9007643521965
 30
-5.294369999999998
 11
613.675135658972
 21
453.4007643521961
 31
-5.294369999999998
  0
LINE
  5
431
330
1F
100
AcDbEntity
  8
0
  6
DASHED
 62
     4
 48
5.0
100
AcDbLine
 10
612.675135658972
 20
451.9007643521965
 30
-5.294369999999998
 11
613.675135658972
 21
451.9007643521965
 31
-5.294369999999998
  0
LINE
  5
432
330
1F
100
AcDbEntity
  8
0
  6
DASHED
 62
     4
 48
5.0
100
AcDbLine
 10
612.675135658972
 20
453.4007643521961
 30
-5.294369999999998
 11
612.675135658972
 21
451.9007643521965
 31
-5.294369999999998
  0
LINE
  5
433
330
1F
100
AcDbEntity
  8
0
  6
DASHED
 62
     4
 48
5.0
100
AcDbLine
 10
611.1751356589718
 20
453.4007643521961
 30
-5.294369999999998
 11
612.675135658972
 21
453.4007643521961
 31
-5.294369999999998
  0
LINE
  5
434
330
1F
100
AcDbEntity
  8
0
  6
DASHED
 62
     4
 48
5.0
100
AcDbLine
 10
607.5551356589723
 20
453.4007643521961
 30
-5.294369999999998
 11
607.5551356589723
 21
453.4007643521961
 31
-5.294369999999998
  0
LINE
  5
435
330
1F
100
AcDbEntity
  8
0
  6
DASHED
 62
     4
 48
5.0
100
AcDbLine
 10
606.055135658972
 20
453.4007643521961
 30
-5.294369999999998
 11
607.5551356589723
 21
453.4007643521961
 31
-5.294369999999998
  0
LINE
  5
436
330
1F
100
AcDbEntity
  8
0
  6
DASHED
 62
     4
 48
5.0
100
AcDbLine
 10
606.055135658972
 20
451.9007643521965
 30
-5.294369999999998
 11
606.055135658972
 21
453.4007643521961
 31
-5.294369999999998
  0
LINE
  5
437
330
1F
100
AcDbEntity
  8
0
  6
DASHED
 62
     4
 48
5.0
100
AcDbLine
 10
605.055135658972
 20
451.9007643521965
 30
-5.294369999999998
 11
606.055135658972
 21
451.9007643521965
 31
-5.294369999999998
  0
LINE
  5
438
330
1F
100
AcDbEntity
  8
0
  6
DASHED
 62
     4
 48
5.0
100
AcDbLine
 10
605.055135658972
 20
453.4007643521961
 30
-5.294369999999998
 11
605.055135658972
 21
451.9007643521965
 31
-5.294369999999998
  0
LINE
  5
439
330
1F
100
AcDbEntity
  8
0
  6
DASHED
 62
     4
 48
5.0
100
AcDbLine
 10
603.5551356589721
 20
453.4007643521961
 30
-5.294369999999998
 11
605.055135658972
 21
453.4007643521961
 31
-5.294369999999998
  0
LINE
  5
43A
330
1F
100
AcDbEntity
  8
0
  6
DASHED
 62
     4
 48
5.0
100
AcDbLine
 10
599.935135658972
 20
453.4007643521961
 30
-5.294369999999998
 11
599.935135658972
 21
453.4007643521961
 31
-5.294369999999998
  0
LINE
  5
43B
330
1F
100
AcDbEntity
  8
0
  6
DASHED
 62
     4
 48
5.0
100
AcDbLine
 10
598.435135658972
 20
453.4007643521961
 30
-5.294369999999998
 11
599.935135658972
 21
453.4007643521961
 31
-5.294369999999998
  0
LINE
  5
43C
330
1F
100
AcDbEntity
  8
0
  6
DASHED
 62
     4
 48
5.0
100
AcDbLine
 10
598.435135658972
 20
451.9007643521965
 30
-5.294369999999998
 11
598.435135658972
 21
453.4007643521961
 31
-5.294369999999998
  0
LINE
  5
43D
330
1F
100
AcDbEntity
  8
0
  6
DASHED
 62
     4
 48
5.0
100
AcDbLine
 10
630.4151356589718
 20
453.4007643521961
 30
-5.294369999999998
 11
630.4151356589718
 21
453.4007643521961
 31
-5.294369999999998
  0
LINE
  5
43E
330
1F
100
AcDbEntity
  8
0
  6
DASHED
 62
     4
 48
5.0
100
AcDbLine
 10
628.9151356589719
 20
453.4007643521961
 30
-5.294369999999998
 11
630.4151356589718
 21
453.4007643521961
 31
-5.294369999999998
  0
LINE
  5
43F
330
1F
100
AcDbEntity
  8
0
  6
DASHED
 62
     4
 48
5.0
100
AcDbLine
 10
628.9151356589719
 20
451.9007643521965
 30
-5.294369999999998
 11
628.9151356589719
 21
453.4007643521961
 31
-5.294369999999998
  0
LINE
  5
440
330
1F
100
AcDbEntity
  8
0
  6
DASHED
 62
     4
 48
5.0
100
AcDbLine
 10
627.9151356589721
 20
451.9007643521965
 30
-5.294369999999998
 11
628.9151356589719
 21
451.9007643521965
 31
-5.294369999999998
  0
LINE
  5
441
330
1F
100
AcDbEntity
  8
0
  6
DASHED
 62
     4
 48
5.0
100
AcDbLine
 10
627.9151356589721
 20
453.4007643521961
 30
-5.294369999999998
 11
627.9151356589721
 21
451.9007643521965
 31
-5.294369999999998
  0
LINE
  5
442
330
1F
100
AcDbEntity
  8
0
  6
DASHED
 62
     4
 48
5.0
100
AcDbLine
 10
626.4151356589721
 20
453.4007643521961
 30
-5.294369999999998
 11
627.9151356589721
 21
453.4007643521961
 31
-5.294369999999998
  0
LINE
  5
443
330
1F
100
AcDbEntity
  8
0
  6
DASHED
 62
     4
 48
5.0
100
AcDbLine
 10
622.7951356589717
 20
453.4007643521961
 30
-5.294369999999998
 11
622.7951356589717
 21
453.4007643521961
 31
-5.294369999999998
  0
LINE
  5
444
330
1F
100
AcDbEntity
  8
0
  6
DASHED
 62
     4
 48
5.0
100
AcDbLine
 10
621.295135658972
 20
453.4007643521961
 30
-5.294369999999998
 11
622.7951356589717
 21
453.4007643521961
 31
-5.294369999999998
  0
LINE
  5
445
330
1F
100
AcDbEntity
  8
0
  6
DASHED
 62
     4
 48
5.0
100
AcDbLine
 10
621.295135658972
 20
451.9007643521965
 30
-5.294369999999998
 11
621.295135658972
 21
453.4007643521961
 31
-5.294369999999998
  0
LINE
  5
446
330
1F
100
AcDbEntity
  8
0
  6
DASHED
 62
     4
 48
5.0
100
AcDbLine
 10
620.295135658972
 20
451.9007643521965
 30
-5.294369999999998
 11
621.295135658972
 21
451.9007643521965
 31
-5.294369999999998
  0
LINE
  5
447
330
1F
100
AcDbEntity
  8
0
  6
DASHED
 62
     4
 48
5.0
100
AcDbLine
 10
620.295135658972
 20
453.4007643521961
 30
-5.294369999999998
 11
620.295135658972
 21
451.9007643521965
 31
-5.294369999999998
  0
LINE
  5
448
330
1F
100
AcDbEntity
  8
0
  6
DASHED
 62
     4
 48
5.0
100
AcDbLine
 10
618.7951356589718
 20
453.4007643521961
 30
-5.294369999999998
 11
620.295135658972
 21
453.4007643521961
 31
-5.294369999999998
  0
LINE
  5
449
330
1F
100
AcDbEntity
  8
0
  6
DASHED
 62
     4
 48
5.0
100
AcDbLine
 10
615.1751356589718
 20
453.4007643521961
 30
-5.294369999999998
 11
615.1751356589718
 21
453.4007643521961
 31
-5.294369999999998
  0
LINE
  5
44A
330
1F
100
AcDbEntity
  8
0
  6
DASHED
 62
     4
 48
5.0
100
AcDbLine
 10
615.1751356589718
 20
454.4007643521961
 30
-5.294369999999998
 11
613.675135658972
 21
454.4007643521961
 31
-5.294369999999998
  0
LINE
  5
44B
330
1F
100
AcDbEntity
  8
0
  6
DASHED
 62
     4
 48
5.0
100
AcDbLine
 10
598.5165336589724
 20
459.4421023521961
 30
-5.294369999999998
 11
598.5165336589724
 21
468.4421023521961
 31
-5.294369999999998
  0
LINE
  5
44C
330
1F
100
AcDbEntity
  8
0
  6
DASHED
 62
     4
 48
5.0
100
AcDbLine
 10
606.1365336589722
 20
459.4421023521961
 30
-5.294369999999998
 11
606.1365336589722
 21
468.4421023521961
 31
-5.294369999999998
  0
LINE
  5
44D
330
1F
100
AcDbEntity
  8
0
  6
DASHED
 62
     4
 48
5.0
100
AcDbLine
 10
604.816533658972
 20
459.4421023521961
 30
-5.294369999999998
 11
604.816533658972
 21
468.4421023521961
 31
-5.294369999999998
  0
LINE
  5
44E
330
1F
100
AcDbEntity
  8
0
  6
DASHED
 62
     4
 48
5.0
100
AcDbLine
 10
613.756533658972
 20
459.4421023521961
 30
-5.294369999999998
 11
613.756533658972
 21
468.4421023521961
 31
-5.294369999999998
  0
LINE
  5
44F
330
1F
100
AcDbEntity
  8
0
  6
DASHED
 62
     4
 48
5.0
100
AcDbLine
 10
612.436533658972
 20
459.4421023521961
 30
-5.294369999999998
 11
612.436533658972
 21
468.4421023521961
 31
-5.294369999999998
  0
LINE
  5
450
330
1F
100
AcDbEntity
  8
0
  6
DASHED
 62
     4
 48
5.0
100
AcDbLine
 10
612.675135658972
 20
454.4007643521961
 30
-5.294369999999998
 11
611.1751356589718
 21
454.4007643521961
 31
-5.294369999999998
  0
LINE
  5
451
330
1F
100
AcDbEntity
  8
0
  6
DASHED
 62
     4
 48
5.0
100
AcDbLine
 10
612.675135658972
 20
455.9007643521962
 30
-5.294369999999998
 11
612.675135658972
 21
454.4007643521961
 31
-5.294369999999998
  0
LINE
  5
452
330
1F
100
AcDbEntity
  8
0
  6
DASHED
 62
     4
 48
5.0
100
AcDbLine
 10
613.675135658972
 20
455.9007643521962
 30
-5.294369999999998
 11
612.675135658972
 21
455.9007643521962
 31
-5.294369999999998
  0
LINE
  5
453
330
1F
100
AcDbEntity
  8
0
  6
DASHED
 62
     4
 48
5.0
100
AcDbLine
 10
613.675135658972
 20
454.4007643521961
 30
-5.294369999999998
 11
613.675135658972
 21
455.9007643521962
 31
-5.294369999999998
  0
LINE
  5
454
330
1F
100
AcDbEntity
  8
0
  6
DASHED
 62
     4
 48
5.0
100
AcDbLine
 10
605.055135658972
 20
454.4007643521961
 30
-5.294369999999998
 11
603.5551356589721
 21
454.4007643521961
 31
-5.294369999999998
  0
LINE
  5
455
330
1F
100
AcDbEntity
  8
0
  6
DASHED
 62
     4
 48
5.0
100
AcDbLine
 10
605.055135658972
 20
455.9007643521962
 30
-5.294369999999998
 11
605.055135658972
 21
454.4007643521961
 31
-5.294369999999998
  0
LINE
  5
456
330
1F
100
AcDbEntity
  8
0
  6
DASHED
 62
     4
 48
5.0
100
AcDbLine
 10
606.055135658972
 20
455.9007643521962
 30
-5.294369999999998
 11
605.055135658972
 21
455.9007643521962
 31
-5.294369999999998
  0
LINE
  5
457
330
1F
100
AcDbEntity
  8
0
  6
DASHED
 62
     4
 48
5.0
100
AcDbLine
 10
606.055135658972
 20
454.4007643521961
 30
-5.294369999999998
 11
606.055135658972
 21
455.9007643521962
 31
-5.294369999999998
  0
LINE
  5
458
330
1F
100
AcDbEntity
  8
0
  6
DASHED
 62
     4
 48
5.0
100
AcDbLine
 10
607.5551356589723
 20
454.4007643521961
 30
-5.294369999999998
 11
606.055135658972
 21
454.4007643521961
 31
-5.294369999999998
  0
LINE
  5
459
330
1F
100
AcDbEntity
  8
0
  6
DASHED
 62
     4
 48
5.0
100
AcDbLine
 10
611.3217096589724
 20
463.6765783521959
 30
-5.294369999999998
 11
611.3217096589724
 21
463.6765783521959
 31
-5.294369999999998
  0
LINE
  5
45A
330
1F
100
AcDbEntity
  8
0
  6
DASHED
 62
     4
 48
5.0
100
AcDbLine
 10
609.8217096589722
 20
463.6765783521959
 30
-5.294369999999998
 11
611.3217096589724
 21
463.6765783521959
 31
-5.294369999999998
  0
LINE
  5
45B
330
1F
100
AcDbEntity
  8
0
  6
DASHED
 62
     4
 48
5.0
100
AcDbLine
 10
609.8217096589722
 20
462.1765783521964
 30
-5.294369999999998
 11
609.8217096589722
 21
463.6765783521959
 31
-5.294369999999998
  0
LINE
  5
45C
330
1F
100
AcDbEntity
  8
0
  6
DASHED
 62
     4
 48
5.0
100
AcDbLine
 10
608.8217096589723
 20
462.1765783521964
 30
-5.294369999999998
 11
609.8217096589722
 21
462.1765783521964
 31
-5.294369999999998
  0
LINE
  5
45D
330
1F
100
AcDbEntity
  8
0
  6
DASHED
 62
     4
 48
5.0
100
AcDbLine
 10
608.8217096589723
 20
463.6765783521959
 30
-5.294369999999998
 11
608.8217096589723
 21
462.1765783521964
 31
-5.294369999999998
  0
LINE
  5
45E
330
1F
100
AcDbEntity
  8
0
  6
DASHED
 62
     4
 48
5.0
100
AcDbLine
 10
607.3217096589722
 20
463.6765783521959
 30
-5.294369999999998
 11
608.8217096589723
 21
463.6765783521959
 31
-5.294369999999998
  0
LINE
  5
45F
330
1F
100
AcDbEntity
  8
0
  6
DASHED
 62
     4
 48
5.0
100
AcDbLine
 10
607.3217096589722
 20
464.6765783521962
 30
-5.294369999999998
 11
607.3217096589722
 21
463.6765783521959
 31
-5.294369999999998
  0
LINE
  5
460
330
1F
100
AcDbEntity
  8
0
  6
DASHED
 62
     4
 48
5.0
100
AcDbLine
 10
608.8217096589723
 20
464.6765783521962
 30
-5.294369999999998
 11
607.3217096589722
 21
464.6765783521962
 31
-5.294369999999998
  0
LINE
  5
461
330
1F
100
AcDbEntity
  8
0
  6
DASHED
 62
     4
 48
5.0
100
AcDbLine
 10
608.8217096589723
 20
466.1765783521964
 30
-5.294369999999998
 11
608.8217096589723
 21
464.6765783521962
 31
-5.294369999999998
  0
LINE
  5
462
330
1F
100
AcDbEntity
  8
0
  6
DASHED
 62
     4
 48
5.0
100
AcDbLine
 10
609.8217096589722
 20
466.1765783521964
 30
-5.294369999999998
 11
608.8217096589723
 21
466.1765783521964
 31
-5.294369999999998
  0
LINE
  5
463
330
1F
100
AcDbEntity
  8
0
  6
DASHED
 62
     4
 48
5.0
100
AcDbLine
 10
609.8217096589722
 20
464.6765783521962
 30
-5.294369999999998
 11
609.8217096589722
 21
466.1765783521964
 31
-5.294369999999998
  0
LINE
  5
464
330
1F
100
AcDbEntity
  8
0
  6
DASHED
 62
     4
 48
5.0
100
AcDbLine
 10
611.3217096589724
 20
464.6765783521962
 30
-5.294369999999998
 11
609.8217096589722
 21
464.6765783521962
 31
-5.294369999999998
  0
LINE
  5
465
330
1F
100
AcDbEntity
  8
0
  6
DASHED
 62
     4
 48
5.0
100
AcDbLine
 10
611.3217096589724
 20
463.6765783521959
 30
-5.294369999999998
 11
611.3217096589724
 21
464.6765783521962
 31
-5.294369999999998
  0
LINE
  5
466
330
1F
100
AcDbEntity
  8
0
  6
DASHED
 62
     4
 48
5.0
100
AcDbLine
 10
598.435135658972
 20
454.4007643521961
 30
-5.294369999999998
 11
598.435135658972
 21
455.9007643521962
 31
-5.294369999999998
  0
LINE
  5
467
330
1F
100
AcDbEntity
  8
0
  6
DASHED
 62
     4
 48
5.0
100
AcDbLine
 10
599.935135658972
 20
454.4007643521961
 30
-5.294369999999998
 11
598.435135658972
 21
454.4007643521961
 31
-5.294369999999998
  0
LINE
  5
468
330
1F
100
AcDbEntity
  8
0
  6
DASHED
 62
     4
 48
5.0
100
AcDbLine
 10
603.7017096589722
 20
463.6765783521959
 30
-5.294369999999998
 11
603.7017096589722
 21
463.6765783521959
 31
-5.294369999999998
  0
LINE
  5
469
330
1F
100
AcDbEntity
  8
0
  6
DASHED
 62
     4
 48
5.0
100
AcDbLine
 10
602.2017096589722
 20
463.6765783521959
 30
-5.294369999999998
 11
603.7017096589722
 21
463.6765783521959
 31
-5.294369999999998
  0
LINE
  5
46A
330
1F
100
AcDbEntity
  8
0
  6
DASHED
 62
     4
 48
5.0
100
AcDbLine
 10
602.2017096589722
 20
462.1765783521964
 30
-5.294369999999998
 11
602.2017096589722
 21
463.6765783521959
 31
-5.294369999999998
  0
LINE
  5
46B
330
1F
100
AcDbEntity
  8
0
  6
DASHED
 62
     4
 48
5.0
100
AcDbLine
 10
601.2017096589723
 20
462.1765783521964
 30
-5.294369999999998
 11
602.2017096589722
 21
462.1765783521964
 31
-5.294369999999998
  0
LINE
  5
46C
330
1F
100
AcDbEntity
  8
0
  6
DASHED
 62
     4
 48
5.0
100
AcDbLine
 10
601.2017096589723
 20
463.6765783521959
 30
-5.294369999999998
 11
601.2017096589723
 21
462.1765783521964
 31
-5.294369999999998
  0
LINE
  5
46D
330
1F
100
AcDbEntity
  8
0
  6
DASHED
 62
     4
 48
5.0
100
AcDbLine
 10
599.7017096589725
 20
463.6765783521959
 30
-5.294369999999998
 11
601.2017096589723
 21
463.6765783521959
 31
-5.294369999999998
  0
LINE
  5
46E
330
1F
100
AcDbEntity
  8
0
  6
DASHED
 62
     4
 48
5.0
100
AcDbLine
 10
599.7017096589725
 20
464.6765783521962
 30
-5.294369999999998
 11
599.7017096589725
 21
463.6765783521959
 31
-5.294369999999998
  0
LINE
  5
46F
330
1F
100
AcDbEntity
  8
0
  6
DASHED
 62
     4
 48
5.0
100
AcDbLine
 10
601.2017096589723
 20
464.6765783521962
 30
-5.294369999999998
 11
599.7017096589725
 21
464.6765783521962
 31
-5.294369999999998
  0
LINE
  5
470
330
1F
100
AcDbEntity
  8
0
  6
DASHED
 62
     4
 48
5.0
100
AcDbLine
 10
601.2017096589723
 20
466.1765783521964
 30
-5.294369999999998
 11
601.2017096589723
 21
464.6765783521962
 31
-5.294369999999998
  0
LINE
  5
471
330
1F
100
AcDbEntity
  8
0
  6
DASHED
 62
     4
 48
5.0
100
AcDbLine
 10
602.2017096589722
 20
466.1765783521964
 30
-5.294369999999998
 11
601.2017096589723
 21
466.1765783521964
 31
-5.294369999999998
  0
LINE
  5
472
330
1F
100
AcDbEntity
  8
0
  6
DASHED
 62
     4
 48
5.0
100
AcDbLine
 10
602.2017096589722
 20
464.6765783521962
 30
-5.294369999999998
 11
602.2017096589722
 21
466.1765783521964
 31
-5.294369999999998
  0
LINE
  5
473
330
1F
100
AcDbEntity
  8
0
  6
DASHED
 62
     4
 48
5.0
100
AcDbLine
 10
603.7017096589722
 20
464.6765783521962
 30
-5.294369999999998
 11
602.2017096589722
 21
464.6765783521962
 31
-5.294369999999998
  0
LINE
  5
474
330
1F
100
AcDbEntity
  8
0
  6
DASHED
 62
     4
 48
5.0
100
AcDbLine
 10
603.7017096589722
 20
463.6765783521959
 30
-5.294369999999998
 11
603.7017096589722
 21
464.6765783521962
 31
-5.294369999999998
  0
LINE
  5
475
330
1F
100
AcDbEntity
  8
0
  6
DASHED
 62
     4
 48
5.0
100
AcDbLine
 10
621.3765336589716
 20
459.4421023521961
 30
-5.294369999999998
 11
621.3765336589716
 21
468.4421023521961
 31
-5.294369999999998
  0
LINE
  5
476
330
1F
100
AcDbEntity
  8
0
  6
DASHED
 62
     4
 48
5.0
100
AcDbLine
 10
620.056533658972
 20
459.4421023521961
 30
-5.294369999999998
 11
620.056533658972
 21
468.4421023521961
 31
-5.294369999999998
  0
LINE
  5
477
330
1F
100
AcDbEntity
  8
0
  6
DASHED
 62
     4
 48
5.0
100
AcDbLine
 10
628.9965336589717
 20
459.4421023521961
 30
-5.294369999999998
 11
628.9965336589717
 21
468.4421023521961
 31
-5.294369999999998
  0
LINE
  5
478
330
1F
100
AcDbEntity
  8
0
  6
DASHED
 62
     4
 48
5.0
100
AcDbLine
 10
627.676533658972
 20
459.4421023521961
 30
-5.294369999999998
 11
627.676533658972
 21
468.4421023521961
 31
-5.294369999999998
  0
LINE
  5
479
330
1F
100
AcDbEntity
  8
0
  6
DASHED
 62
     4
 48
5.0
100
AcDbLine
 10
627.9151356589721
 20
454.4007643521961
 30
-5.294369999999998
 11
626.4151356589721
 21
454.4007643521961
 31
-5.294369999999998
  0
LINE
  5
47A
330
1F
100
AcDbEntity
  8
0
  6
DASHED
 62
     4
 48
5.0
100
AcDbLine
 10
627.9151356589721
 20
455.9007643521962
 30
-5.294369999999998
 11
627.9151356589721
 21
454.4007643521961
 31
-5.294369999999998
  0
LINE
  5
47B
330
1F
100
AcDbEntity
  8
0
  6
DASHED
 62
     4
 48
5.0
100
AcDbLine
 10
628.9151356589719
 20
455.9007643521962
 30
-5.294369999999998
 11
627.9151356589721
 21
455.9007643521962
 31
-5.294369999999998
  0
LINE
  5
47C
330
1F
100
AcDbEntity
  8
0
  6
DASHED
 62
     4
 48
5.0
100
AcDbLine
 10
628.9151356589719
 20
454.4007643521961
 30
-5.294369999999998
 11
628.9151356589719
 21
455.9007643521962
 31
-5.294369999999998
  0
LINE
  5
47D
330
1F
100
AcDbEntity
  8
0
  6
DASHED
 62
     4
 48
5.0
100
AcDbLine
 10
630.4151356589718
 20
454.4007643521961
 30
-5.294369999999998
 11
628.9151356589719
 21
454.4007643521961
 31
-5.294369999999998
  0
LINE
  5
47E
330
1F
100
AcDbEntity
  8
0
  6
DASHED
 62
     4
 48
5.0
100
AcDbLine
 10
630.1817096589725
 20
464.6765783521962
 30
-5.294369999999998
 11
630.1817096589725
 21
463.6765783521959
 31
-5.294369999999998
  0
LINE
  5
47F
330
1F
100
AcDbEntity
  8
0
  6
DASHED
 62
     4
 48
5.0
100
AcDbLine
 10
620.295135658972
 20
454.4007643521961
 30
-5.294369999999998
 11
618.7951356589718
 21
454.4007643521961
 31
-5.294369999999998
  0
LINE
  5
480
330
1F
100
AcDbEntity
  8
0
  6
DASHED
 62
     4
 48
5.0
100
AcDbLine
 10
620.295135658972
 20
455.9007643521962
 30
-5.294369999999998
 11
620.295135658972
 21
454.4007643521961
 31
-5.294369999999998
  0
LINE
  5
481
330
1F
100
AcDbEntity
  8
0
  6
DASHED
 62
     4
 48
5.0
100
AcDbLine
 10
621.295135658972
 20
455.9007643521962
 30
-5.294369999999998
 11
620.295135658972
 21
455.9007643521962
 31
-5.294369999999998
  0
LINE
  5
482
330
1F
100
AcDbEntity
  8
0
  6
DASHED
 62
     4
 48
5.0
100
AcDbLine
 10
621.295135658972
 20
454.4007643521961
 30
-5.294369999999998
 11
621.295135658972
 21
455.9007643521962
 31
-5.294369999999998
  0
LINE
  5
483
330
1F
100
AcDbEntity
  8
0
  6
DASHED
 62
     4
 48
5.0
100
AcDbLine
 10
622.7951356589717
 20
454.4007643521961
 30
-5.294369999999998
 11
621.295135658972
 21
454.4007643521961
 31
-5.294369999999998
  0
LINE
  5
484
330
1F
100
AcDbEntity
  8
0
  6
DASHED
 62
     4
 48
5.0
100
AcDbLine
 10
626.5617096589722
 20
463.6765783521959
 30
-5.294369999999998
 11
626.5617096589722
 21
463.6765783521959
 31
-5.294369999999998
  0
LINE
  5
485
330
1F
100
AcDbEntity
  8
0
  6
DASHED
 62
     4
 48
5.0
100
AcDbLine
 10
625.0617096589722
 20
463.6765783521959
 30
-5.294369999999998
 11
626.5617096589722
 21
463.6765783521959
 31
-5.294369999999998
  0
LINE
  5
486
330
1F
100
AcDbEntity
  8
0
  6
DASHED
 62
     4
 48
5.0
100
AcDbLine
 10
625.0617096589722
 20
462.1765783521964
 30
-5.294369999999998
 11
625.0617096589722
 21
463.6765783521959
 31
-5.294369999999998
  0
LINE
  5
487
330
1F
100
AcDbEntity
  8
0
  6
DASHED
 62
     4
 48
5.0
100
AcDbLine
 10
624.0617096589724
 20
462.1765783521964
 30
-5.294369999999998
 11
625.0617096589722
 21
462.1765783521964
 31
-5.294369999999998
  0
LINE
  5
488
330
1F
100
AcDbEntity
  8
0
  6
DASHED
 62
     4
 48
5.0
100
AcDbLine
 10
624.0617096589724
 20
463.6765783521959
 30
-5.294369999999998
 11
624.0617096589724
 21
462.1765783521964
 31
-5.294369999999998
  0
LINE
  5
489
330
1F
100
AcDbEntity
  8
0
  6
DASHED
 62
     4
 48
5.0
100
AcDbLine
 10
622.5617096589727
 20
463.6765783521959
 30
-5.294369999999998
 11
624.0617096589724
 21
463.6765783521959
 31
-5.294369999999998
  0
LINE
  5
48A
330
1F
100
AcDbEntity
  8
0
  6
DASHED
 62
     4
 48
5.0
100
AcDbLine
 10
622.5617096589727
 20
464.6765783521962
 30
-5.294369999999998
 11
622.5617096589727
 21
463.6765783521959
 31
-5.294369999999998
  0
LINE
  5
48B
330
1F
100
AcDbEntity
  8
0
  6
DASHED
 62
     4
 48
5.0
100
AcDbLine
 10
624.0617096589724
 20
464.6765783521962
 30
-5.294369999999998
 11
622.5617096589727
 21
464.6765783521962
 31
-5.294369999999998
  0
LINE
  5
48C
330
1F
100
AcDbEntity
  8
0
  6
DASHED
 62
     4
 48
5.0
100
AcDbLine
 10
624.0617096589724
 20
466.1765783521964
 30
-5.294369999999998
 11
624.0617096589724
 21
464.6765783521962
 31
-5.294369999999998
  0
LINE
  5
48D
330
1F
100
AcDbEntity
  8
0
  6
DASHED
 62
     4
 48
5.0
100
AcDbLine
 10
625.0617096589722
 20
466.1765783521964
 30
-5.294369999999998
 11
624.0617096589724
 21
466.1765783521964
 31
-5.294369999999998
  0
LINE
  5
48E
330
1F
100
AcDbEntity
  8
0
  6
DASHED
 62
     4
 48
5.0
100
AcDbLine
 10
625.0617096589722
 20
464.6765783521962
 30
-5.294369999999998
 11
625.0617096589722
 21
466.1765783521964
 31
-5.294369999999998
  0
LINE
  5
48F
330
1F
100
AcDbEntity
  8
0
  6
DASHED
 62
     4
 48
5.0
100
AcDbLine
 10
626.5617096589722
 20
464.6765783521962
 30
-5.294369999999998
 11
625.0617096589722
 21
464.6765783521962
 31
-5.294369999999998
  0
LINE
  5
490
330
1F
100
AcDbEntity
  8
0
  6
DASHED
 62
     4
 48
5.0
100
AcDbLine
 10
626.5617096589722
 20
463.6765783521959
 30
-5.294369999999998
 11
626.5617096589722
 21
464.6765783521962
 31
-5.294369999999998
  0
LINE
  5
491
330
1F
100
AcDbEntity
  8
0
  6
DASHED
 62
     4
 48
5.0
100
AcDbLine
 10
618.9417096589722
 20
463.6765783521959
 30
-5.294369999999998
 11
618.9417096589722
 21
463.6765783521959
 31
-5.294369999999998
  0
LINE
  5
492
330
1F
100
AcDbEntity
  8
0
  6
DASHED
 62
     4
 48
5.0
100
AcDbLine
 10
617.4417096589725
 20
463.6765783521959
 30
-5.294369999999998
 11
618.9417096589722
 21
463.6765783521959
 31
-5.294369999999998
  0
LINE
  5
493
330
1F
100
AcDbEntity
  8
0
  6
DASHED
 62
     4
 48
5.0
100
AcDbLine
 10
617.4417096589725
 20
462.1765783521964
 30
-5.294369999999998
 11
617.4417096589725
 21
463.6765783521959
 31
-5.294369999999998
  0
LINE
  5
494
330
1F
100
AcDbEntity
  8
0
  6
DASHED
 62
     4
 48
5.0
100
AcDbLine
 10
616.4417096589724
 20
462.1765783521964
 30
-5.294369999999998
 11
617.4417096589725
 21
462.1765783521964
 31
-5.294369999999998
  0
LINE
  5
495
330
1F
100
AcDbEntity
  8
0
  6
DASHED
 62
     4
 48
5.0
100
AcDbLine
 10
616.4417096589724
 20
463.6765783521959
 30
-5.294369999999998
 11
616.4417096589724
 21
462.1765783521964
 31
-5.294369999999998
  0
LINE
  5
496
330
1F
100
AcDbEntity
  8
0
  6
DASHED
 62
     4
 48
5.0
100
AcDbLine
 10
614.9417096589724
 20
463.6765783521959
 30
-5.294369999999998
 11
616.4417096589724
 21
463.6765783521959
 31
-5.294369999999998
  0
LINE
  5
497
330
1F
100
AcDbEntity
  8
0
  6
DASHED
 62
     4
 48
5.0
100
AcDbLine
 10
614.9417096589724
 20
464.6765783521962
 30
-5.294369999999998
 11
614.9417096589724
 21
463.6765783521959
 31
-5.294369999999998
  0
LINE
  5
498
330
1F
100
AcDbEntity
  8
0
  6
DASHED
 62
     4
 48
5.0
100
AcDbLine
 10
616.4417096589724
 20
464.6765783521962
 30
-5.294369999999998
 11
614.9417096589724
 21
464.6765783521962
 31
-5.294369999999998
  0
LINE
  5
499
330
1F
100
AcDbEntity
  8
0
  6
DASHED
 62
     4
 48
5.0
100
AcDbLine
 10
616.4417096589724
 20
466.1765783521964
 30
-5.294369999999998
 11
616.4417096589724
 21
464.6765783521962
 31
-5.294369999999998
  0
LINE
  5
49A
330
1F
100
AcDbEntity
  8
0
  6
DASHED
 62
     4
 48
5.0
100
AcDbLine
 10
617.4417096589725
 20
466.1765783521964
 30
-5.294369999999998
 11
616.4417096589724
 21
466.1765783521964
 31
-5.294369999999998
  0
LINE
  5
49B
330
1F
100
AcDbEntity
  8
0
  6
DASHED
 62
     4
 48
5.0
100
AcDbLine
 10
617.4417096589725
 20
464.6765783521962
 30
-5.294369999999998
 11
617.4417096589725
 21
466.1765783521964
 31
-5.294369999999998
  0
LINE
  5
49C
330
1F
100
AcDbEntity
  8
0
  6
DASHED
 62
     4
 48
5.0
100
AcDbLine
 10
618.9417096589722
 20
464.6765783521962
 30
-5.294369999999998
 11
617.4417096589725
 21
464.6765783521962
 31
-5.294369999999998
  0
LINE
  5
49D
330
1F
100
AcDbEntity
  8
0
  6
DASHED
 62
     4
 48
5.0
100
AcDbLine
 10
618.9417096589722
 20
463.6765783521959
 30
-5.294369999999998
 11
618.9417096589722
 21
464.6765783521962
 31
-5.294369999999998
  0
LINE
  5
49E
330
1F
100
AcDbEntity
  8
0
  6
Continuous
 62
     7
100
AcDbLine
 10
628.116533658972
 20
501.536330352196
 30
-5.294369999999998
 11
628.116533658972
 21
502.7421023521959
 31
-5.294369999999998
  0
LINE
  5
49F
330
1F
100
AcDbEntity
  8
0
  6
DASHED
 62
     4
 48
5.0
100
AcDbLine
 10
664.5151356589721
 20
453.4007643521961
 30
-5.294369999999998
 11
666.0151356589721
 21
453.4007643521961
 31
-5.294369999999998
  0
LINE
  5
4A0
330
1F
100
AcDbEntity
  8
0
  6
DASHED
 62
     4
 48
5.0
100
AcDbLine
 10
666.0151356589721
 20
454.4007643521961
 30
-5.294369999999998
 11
664.5151356589721
 21
454.4007643521961
 31
-5.294369999999998
  0
LINE
  5
4A1
330
1F
100
AcDbEntity
  8
0
  6
DASHED
 62
     4
 48
5.0
100
AcDbLine
 10
663.1617096589718
 20
463.6765783521959
 30
-5.294369999999998
 11
664.6617096589717
 21
463.6765783521959
 31
-5.294369999999998
  0
LINE
  5
4A2
330
1F
100
AcDbEntity
  8
0
  6
DASHED
 62
     4
 48
5.0
100
AcDbLine
 10
664.6617096589717
 20
464.6765783521962
 30
-5.294369999999998
 11
663.1617096589718
 21
464.6765783521962
 31
-5.294369999999998
  0
LINE
  5
4A3
330
1F
100
AcDbEntity
  8
0
  6
DASHED
 62
     4
 48
5.0
100
AcDbLine
 10
631.4865336589718
 20
449.4421023521962
 30
-5.294369999999998
 11
631.4865336589718
 21
459.4421023521961
 31
-5.294369999999998
  0
LINE
  5
4A4
330
1F
100
AcDbEntity
  8
0
  6
DASHED
 62
     4
 48
5.0
100
AcDbLine
 10
640.4265336589721
 20
449.4421023521962
 30
-5.294369999999998
 11
640.4265336589721
 21
459.4421023521961
 31
-5.294369999999998
  0
LINE
  5
4A5
330
1F
100
AcDbEntity
  8
0
  6
DASHED
 62
     4
 48
5.0
100
AcDbLine
 10
639.1065336589722
 20
449.4421023521962
 30
-5.294369999999998
 11
639.1065336589722
 21
459.4421023521961
 31
-5.294369999999998
  0
LINE
  5
4A6
330
1F
100
AcDbEntity
  8
0
  6
DASHED
 62
     4
 48
5.0
100
AcDbLine
 10
648.0465336589718
 20
449.4421023521962
 30
-5.294369999999998
 11
648.0465336589718
 21
459.4421023521961
 31
-5.294369999999998
  0
LINE
  5
4A7
330
1F
100
AcDbEntity
  8
0
  6
DASHED
 62
     4
 48
5.0
100
AcDbLine
 10
646.7265336589722
 20
449.4421023521962
 30
-5.294369999999998
 11
646.7265336589722
 21
459.4421023521961
 31
-5.294369999999998
  0
LINE
  5
4A8
330
1F
100
AcDbEntity
  8
0
  6
DASHED
 62
     4
 48
5.0
100
AcDbLine
 10
655.6665336589722
 20
449.4421023521962
 30
-5.294369999999998
 11
655.6665336589722
 21
459.4421023521961
 31
-5.294369999999998
  0
LINE
  5
4A9
330
1F
100
AcDbEntity
  8
0
  6
DASHED
 62
     4
 48
5.0
100
AcDbLine
 10
654.3465336589722
 20
449.4421023521962
 30
-5.294369999999998
 11
654.3465336589722
 21
459.4421023521961
 31
-5.294369999999998
  0
LINE
  5
4AA
330
1F
100
AcDbEntity
  8
0
  6
DASHED
 62
     4
 48
5.0
100
AcDbLine
 10
663.2865336589718
 20
449.4421023521962
 30
-5.294369999999998
 11
663.2865336589718
 21
459.4421023521961
 31
-5.294369999999998
  0
LINE
  5
4AB
330
1F
100
AcDbEntity
  8
0
  6
DASHED
 62
     4
 48
5.0
100
AcDbLine
 10
661.9665336589719
 20
449.4421023521962
 30
-5.294369999999998
 11
661.9665336589719
 21
459.4421023521961
 31
-5.294369999999998
  0
LINE
  5
4AC
330
1F
100
AcDbEntity
  8
0
  6
DASHED
 62
     4
 48
5.0
100
AcDbLine
 10
664.5151356589721
 20
454.4007643521961
 30
-5.294369999999998
 11
664.5151356589721
 21
453.4007643521961
 31
-5.294369999999998
  0
LINE
  5
4AD
330
1F
100
AcDbEntity
  8
0
  6
DASHED
 62
     4
 48
5.0
100
AcDbLine
 10
656.8951356589718
 20
454.4007643521961
 30
-5.294369999999998
 11
656.8951356589718
 21
453.4007643521961
 31
-5.294369999999998
  0
LINE
  5
4AE
330
1F
100
AcDbEntity
  8
0
  6
DASHED
 62
     4
 48
5.0
100
AcDbLine
 10
660.8951356589718
 20
453.4007643521961
 30
-5.294369999999998
 11
660.8951356589718
 21
454.4007643521961
 31
-5.294369999999998
  0
LINE
  5
4AF
330
1F
100
AcDbEntity
  8
0
  6
DASHED
 62
     4
 48
5.0
100
AcDbLine
 10
649.2751356589721
 20
454.4007643521961
 30
-5.294369999999998
 11
649.2751356589721
 21
453.4007643521961
 31
-5.294369999999998
  0
LINE
  5
4B0
330
1F
100
AcDbEntity
  8
0
  6
DASHED
 62
     4
 48
5.0
100
AcDbLine
 10
653.2751356589722
 20
453.4007643521961
 30
-5.294369999999998
 11
653.2751356589722
 21
454.4007643521961
 31
-5.294369999999998
  0
LINE
  5
4B1
330
1F
100
AcDbEntity
  8
0
  6
DASHED
 62
     4
 48
5.0
100
AcDbLine
 10
641.6551356589718
 20
454.4007643521961
 30
-5.294369999999998
 11
641.6551356589718
 21
453.4007643521961
 31
-5.294369999999998
  0
LINE
  5
4B2
330
1F
100
AcDbEntity
  8
0
  6
DASHED
 62
     4
 48
5.0
100
AcDbLine
 10
645.6551356589718
 20
453.4007643521961
 30
-5.294369999999998
 11
645.6551356589718
 21
454.4007643521961
 31
-5.294369999999998
  0
LINE
  5
4B3
330
1F
100
AcDbEntity
  8
0
  6
DASHED
 62
     4
 48
5.0
100
AcDbLine
 10
634.0351356589722
 20
454.4007643521961
 30
-5.294369999999998
 11
634.0351356589722
 21
453.4007643521961
 31
-5.294369999999998
  0
LINE
  5
4B4
330
1F
100
AcDbEntity
  8
0
  6
DASHED
 62
     4
 48
5.0
100
AcDbLine
 10
638.0351356589719
 20
453.4007643521961
 30
-5.294369999999998
 11
638.0351356589719
 21
454.4007643521961
 31
-5.294369999999998
  0
LINE
  5
4B5
330
1F
100
AcDbEntity
  8
0
  6
DASHED
 62
     4
 48
5.0
100
AcDbLine
 10
645.6551356589718
 20
453.4007643521961
 30
-5.294369999999998
 11
645.6551356589718
 21
453.4007643521961
 31
-5.294369999999998
  0
LINE
  5
4B6
330
1F
100
AcDbEntity
  8
0
  6
DASHED
 62
     4
 48
5.0
100
AcDbLine
 10
644.155135658972
 20
453.4007643521961
 30
-5.294369999999998
 11
645.6551356589718
 21
453.4007643521961
 31
-5.294369999999998
  0
LINE
  5
4B7
330
1F
100
AcDbEntity
  8
0
  6
DASHED
 62
     4
 48
5.0
100
AcDbLine
 10
644.155135658972
 20
451.9007643521965
 30
-5.294369999999998
 11
644.155135658972
 21
453.4007643521961
 31
-5.294369999999998
  0
LINE
  5
4B8
330
1F
100
AcDbEntity
  8
0
  6
DASHED
 62
     4
 48
5.0
100
AcDbLine
 10
643.155135658972
 20
451.9007643521965
 30
-5.294369999999998
 11
644.155135658972
 21
451.9007643521965
 31
-5.294369999999998
  0
LINE
  5
4B9
330
1F
100
AcDbEntity
  8
0
  6
DASHED
 62
     4
 48
5.0
100
AcDbLine
 10
643.155135658972
 20
453.4007643521961
 30
-5.294369999999998
 11
643.155135658972
 21
451.9007643521965
 31
-5.294369999999998
  0
LINE
  5
4BA
330
1F
100
AcDbEntity
  8
0
  6
DASHED
 62
     4
 48
5.0
100
AcDbLine
 10
641.6551356589718
 20
453.4007643521961
 30
-5.294369999999998
 11
643.155135658972
 21
453.4007643521961
 31
-5.294369999999998
  0
LINE
  5
4BB
330
1F
100
AcDbEntity
  8
0
  6
DASHED
 62
     4
 48
5.0
100
AcDbLine
 10
638.0351356589719
 20
453.4007643521961
 30
-5.294369999999998
 11
638.0351356589719
 21
453.4007643521961
 31
-5.294369999999998
  0
LINE
  5
4BC
330
1F
100
AcDbEntity
  8
0
  6
DASHED
 62
     4
 48
5.0
100
AcDbLine
 10
636.5351356589719
 20
453.4007643521961
 30
-5.294369999999998
 11
638.0351356589719
 21
453.4007643521961
 31
-5.294369999999998
  0
LINE
  5
4BD
330
1F
100
AcDbEntity
  8
0
  6
DASHED
 62
     4
 48
5.0
100
AcDbLine
 10
636.5351356589719
 20
451.9007643521965
 30
-5.294369999999998
 11
636.5351356589719
 21
453.4007643521961
 31
-5.294369999999998
  0
LINE
  5
4BE
330
1F
100
AcDbEntity
  8
0
  6
DASHED
 62
     4
 48
5.0
100
AcDbLine
 10
635.5351356589721
 20
451.9007643521965
 30
-5.294369999999998
 11
636.5351356589719
 21
451.9007643521965
 31
-5.294369999999998
  0
LINE
  5
4BF
330
1F
100
AcDbEntity
  8
0
  6
DASHED
 62
     4
 48
5.0
100
AcDbLine
 10
635.5351356589721
 20
453.4007643521961
 30
-5.294369999999998
 11
635.5351356589721
 21
451.9007643521965
 31
-5.294369999999998
  0
LINE
  5
4C0
330
1F
100
AcDbEntity
  8
0
  6
DASHED
 62
     4
 48
5.0
100
AcDbLine
 10
634.0351356589722
 20
453.4007643521961
 30
-5.294369999999998
 11
635.5351356589721
 21
453.4007643521961
 31
-5.294369999999998
  0
LINE
  5
4C1
330
1F
100
AcDbEntity
  8
0
  6
DASHED
 62
     4
 48
5.0
100
AcDbLine
 10
660.8951356589718
 20
453.4007643521961
 30
-5.294369999999998
 11
660.8951356589718
 21
453.4007643521961
 31
-5.294369999999998
  0
LINE
  5
4C2
330
1F
100
AcDbEntity
  8
0
  6
DASHED
 62
     4
 48
5.0
100
AcDbLine
 10
659.3951356589719
 20
453.4007643521961
 30
-5.294369999999998
 11
660.8951356589718
 21
453.4007643521961
 31
-5.294369999999998
  0
LINE
  5
4C3
330
1F
100
AcDbEntity
  8
0
  6
DASHED
 62
     4
 48
5.0
100
AcDbLine
 10
659.3951356589719
 20
451.9007643521965
 30
-5.294369999999998
 11
659.3951356589719
 21
453.4007643521961
 31
-5.294369999999998
  0
LINE
  5
4C4
330
1F
100
AcDbEntity
  8
0
  6
DASHED
 62
     4
 48
5.0
100
AcDbLine
 10
658.395135658972
 20
451.9007643521965
 30
-5.294369999999998
 11
659.3951356589719
 21
451.9007643521965
 31
-5.294369999999998
  0
LINE
  5
4C5
330
1F
100
AcDbEntity
  8
0
  6
DASHED
 62
     4
 48
5.0
100
AcDbLine
 10
658.395135658972
 20
453.4007643521961
 30
-5.294369999999998
 11
658.395135658972
 21
451.9007643521965
 31
-5.294369999999998
  0
LINE
  5
4C6
330
1F
100
AcDbEntity
  8
0
  6
DASHED
 62
     4
 48
5.0
100
AcDbLine
 10
656.8951356589718
 20
453.4007643521961
 30
-5.294369999999998
 11
658.395135658972
 21
453.4007643521961
 31
-5.294369999999998
  0
LINE
  5
4C7
330
1F
100
AcDbEntity
  8
0
  6
DASHED
 62
     4
 48
5.0
100
AcDbLine
 10
653.2751356589722
 20
453.4007643521961
 30
-5.294369999999998
 11
653.2751356589722
 21
453.4007643521961
 31
-5.294369999999998
  0
LINE
  5
4C8
330
1F
100
AcDbEntity
  8
0
  6
DASHED
 62
     4
 48
5.0
100
AcDbLine
 10
651.775135658972
 20
453.4007643521961
 30
-5.294369999999998
 11
653.2751356589722
 21
453.4007643521961
 31
-5.294369999999998
  0
LINE
  5
4C9
330
1F
100
AcDbEntity
  8
0
  6
DASHED
 62
     4
 48
5.0
100
AcDbLine
 10
651.775135658972
 20
451.9007643521965
 30
-5.294369999999998
 11
651.775135658972
 21
453.4007643521961
 31
-5.294369999999998
  0
LINE
  5
4CA
330
1F
100
AcDbEntity
  8
0
  6
DASHED
 62
     4
 48
5.0
100
AcDbLine
 10
650.7751356589721
 20
451.9007643521965
 30
-5.294369999999998
 11
651.775135658972
 21
451.9007643521965
 31
-5.294369999999998
  0
LINE
  5
4CB
330
1F
100
AcDbEntity
  8
0
  6
DASHED
 62
     4
 48
5.0
100
AcDbLine
 10
650.7751356589721
 20
453.4007643521961
 30
-5.294369999999998
 11
650.7751356589721
 21
451.9007643521965
 31
-5.294369999999998
  0
LINE
  5
4CC
330
1F
100
AcDbEntity
  8
0
  6
DASHED
 62
     4
 48
5.0
100
AcDbLine
 10
649.2751356589721
 20
453.4007643521961
 30
-5.294369999999998
 11
650.7751356589721
 21
453.4007643521961
 31
-5.294369999999998
  0
LINE
  5
4CD
330
1F
100
AcDbEntity
  8
0
  6
DASHED
 62
     4
 48
5.0
100
AcDbLine
 10
646.9217096589718
 20
462.1765783521964
 30
-5.294369999999998
 11
647.9217096589718
 21
462.1765783521964
 31
-5.294369999999998
  0
LINE
  5
4CE
330
1F
100
AcDbEntity
  8
0
  6
DASHED
 62
     4
 48
5.0
100
AcDbLine
 10
647.9217096589718
 20
466.1765783521964
 30
-5.294369999999998
 11
646.9217096589718
 21
466.1765783521964
 31
-5.294369999999998
  0
LINE
  5
4CF
330
1F
100
AcDbEntity
  8
0
  6
DASHED
 62
     4
 48
5.0
100
AcDbLine
 10
636.6165336589719
 20
459.4421023521961
 30
-5.294369999999998
 11
636.6165336589719
 21
468.4421023521961
 31
-5.294369999999998
  0
LINE
  5
4D0
330
1F
100
AcDbEntity
  8
0
  6
DASHED
 62
     4
 48
5.0
100
AcDbLine
 10
635.2965336589725
 20
459.4421023521961
 30
-5.294369999999998
 11
635.2965336589725
 21
468.4421023521961
 31
-5.294369999999998
  0
LINE
  5
4D1
330
1F
100
AcDbEntity
  8
0
  6
DASHED
 62
     4
 48
5.0
100
AcDbLine
 10
644.236533658972
 20
459.4421023521961
 30
-5.294369999999998
 11
644.236533658972
 21
468.4421023521961
 31
-5.294369999999998
  0
LINE
  5
4D2
330
1F
100
AcDbEntity
  8
0
  6
DASHED
 62
     4
 48
5.0
100
AcDbLine
 10
642.9165336589727
 20
459.4421023521961
 30
-5.294369999999998
 11
642.9165336589727
 21
468.4421023521961
 31
-5.294369999999998
  0
LINE
  5
4D3
330
1F
100
AcDbEntity
  8
0
  6
DASHED
 62
     4
 48
5.0
100
AcDbLine
 10
643.155135658972
 20
454.4007643521961
 30
-5.294369999999998
 11
641.6551356589718
 21
454.4007643521961
 31
-5.294369999999998
  0
LINE
  5
4D4
330
1F
100
AcDbEntity
  8
0
  6
DASHED
 62
     4
 48
5.0
100
AcDbLine
 10
643.155135658972
 20
455.9007643521962
 30
-5.294369999999998
 11
643.155135658972
 21
454.4007643521961
 31
-5.294369999999998
  0
LINE
  5
4D5
330
1F
100
AcDbEntity
  8
0
  6
DASHED
 62
     4
 48
5.0
100
AcDbLine
 10
644.155135658972
 20
455.9007643521962
 30
-5.294369999999998
 11
643.155135658972
 21
455.9007643521962
 31
-5.294369999999998
  0
LINE
  5
4D6
330
1F
100
AcDbEntity
  8
0
  6
DASHED
 62
     4
 48
5.0
100
AcDbLine
 10
644.155135658972
 20
454.4007643521961
 30
-5.294369999999998
 11
644.155135658972
 21
455.9007643521962
 31
-5.294369999999998
  0
LINE
  5
4D7
330
1F
100
AcDbEntity
  8
0
  6
DASHED
 62
     4
 48
5.0
100
AcDbLine
 10
645.6551356589718
 20
454.4007643521961
 30
-5.294369999999998
 11
644.155135658972
 21
454.4007643521961
 31
-5.294369999999998
  0
LINE
  5
4D8
330
1F
100
AcDbEntity
  8
0
  6
DASHED
 62
     4
 48
5.0
100
AcDbLine
 10
646.9217096589718
 20
463.6765783521959
 30
-5.294369999999998
 11
646.9217096589718
 21
462.1765783521964
 31
-5.294369999999998
  0
LINE
  5
4D9
330
1F
100
AcDbEntity
  8
0
  6
DASHED
 62
     4
 48
5.0
100
AcDbLine
 10
645.421709658972
 20
463.6765783521959
 30
-5.294369999999998
 11
646.9217096589718
 21
463.6765783521959
 31
-5.294369999999998
  0
LINE
  5
4DA
330
1F
100
AcDbEntity
  8
0
  6
DASHED
 62
     4
 48
5.0
100
AcDbLine
 10
645.421709658972
 20
464.6765783521962
 30
-5.294369999999998
 11
645.421709658972
 21
463.6765783521959
 31
-5.294369999999998
  0
LINE
  5
4DB
330
1F
100
AcDbEntity
  8
0
  6
DASHED
 62
     4
 48
5.0
100
AcDbLine
 10
646.9217096589718
 20
464.6765783521962
 30
-5.294369999999998
 11
645.421709658972
 21
464.6765783521962
 31
-5.294369999999998
  0
LINE
  5
4DC
330
1F
100
AcDbEntity
  8
0
  6
DASHED
 62
     4
 48
5.0
100
AcDbLine
 10
646.9217096589718
 20
466.1765783521964
 30
-5.294369999999998
 11
646.9217096589718
 21
464.6765783521962
 31
-5.294369999999998
  0
LINE
  5
4DD
330
1F
100
AcDbEntity
  8
0
  6
DASHED
 62
     4
 48
5.0
100
AcDbLine
 10
635.5351356589721
 20
454.4007643521961
 30
-5.294369999999998
 11
634.0351356589722
 21
454.4007643521961
 31
-5.294369999999998
  0
LINE
  5
4DE
330
1F
100
AcDbEntity
  8
0
  6
DASHED
 62
     4
 48
5.0
100
AcDbLine
 10
635.5351356589721
 20
455.9007643521962
 30
-5.294369999999998
 11
635.5351356589721
 21
454.4007643521961
 31
-5.294369999999998
  0
LINE
  5
4DF
330
1F
100
AcDbEntity
  8
0
  6
DASHED
 62
     4
 48
5.0
100
AcDbLine
 10
636.5351356589719
 20
455.9007643521962
 30
-5.294369999999998
 11
635.5351356589721
 21
455.9007643521962
 31
-5.294369999999998
  0
LINE
  5
4E0
330
1F
100
AcDbEntity
  8
0
  6
DASHED
 62
     4
 48
5.0
100
AcDbLine
 10
636.5351356589719
 20
454.4007643521961
 30
-5.294369999999998
 11
636.5351356589719
 21
455.9007643521962
 31
-5.294369999999998
  0
LINE
  5
4E1
330
1F
100
AcDbEntity
  8
0
  6
DASHED
 62
     4
 48
5.0
100
AcDbLine
 10
638.0351356589719
 20
454.4007643521961
 30
-5.294369999999998
 11
636.5351356589719
 21
454.4007643521961
 31
-5.294369999999998
  0
LINE
  5
4E2
330
1F
100
AcDbEntity
  8
0
  6
DASHED
 62
     4
 48
5.0
100
AcDbLine
 10
641.801709658972
 20
463.6765783521959
 30
-5.294369999999998
 11
641.801709658972
 21
463.6765783521959
 31
-5.294369999999998
  0
LINE
  5
4E3
330
1F
100
AcDbEntity
  8
0
  6
DASHED
 62
     4
 48
5.0
100
AcDbLine
 10
640.3017096589721
 20
463.6765783521959
 30
-5.294369999999998
 11
641.801709658972
 21
463.6765783521959
 31
-5.294369999999998
  0
LINE
  5
4E4
330
1F
100
AcDbEntity
  8
0
  6
DASHED
 62
     4
 48
5.0
100
AcDbLine
 10
640.3017096589721
 20
462.1765783521964
 30
-5.294369999999998
 11
640.3017096589721
 21
463.6765783521959
 31
-5.294369999999998
  0
LINE
  5
4E5
330
1F
100
AcDbEntity
  8
0
  6
DASHED
 62
     4
 48
5.0
100
AcDbLine
 10
639.3017096589719
 20
462.1765783521964
 30
-5.294369999999998
 11
640.3017096589721
 21
462.1765783521964
 31
-5.294369999999998
  0
LINE
  5
4E6
330
1F
100
AcDbEntity
  8
0
  6
DASHED
 62
     4
 48
5.0
100
AcDbLine
 10
639.3017096589719
 20
463.6765783521959
 30
-5.294369999999998
 11
639.3017096589719
 21
462.1765783521964
 31
-5.294369999999998
  0
LINE
  5
4E7
330
1F
100
AcDbEntity
  8
0
  6
DASHED
 62
     4
 48
5.0
100
AcDbLine
 10
637.801709658972
 20
463.6765783521959
 30
-5.294369999999998
 11
639.3017096589719
 21
463.6765783521959
 31
-5.294369999999998
  0
LINE
  5
4E8
330
1F
100
AcDbEntity
  8
0
  6
DASHED
 62
     4
 48
5.0
100
AcDbLine
 10
637.801709658972
 20
464.6765783521962
 30
-5.294369999999998
 11
637.801709658972
 21
463.6765783521959
 31
-5.294369999999998
  0
LINE
  5
4E9
330
1F
100
AcDbEntity
  8
0
  6
DASHED
 62
     4
 48
5.0
100
AcDbLine
 10
639.3017096589719
 20
464.6765783521962
 30
-5.294369999999998
 11
637.801709658972
 21
464.6765783521962
 31
-5.294369999999998
  0
LINE
  5
4EA
330
1F
100
AcDbEntity
  8
0
  6
DASHED
 62
     4
 48
5.0
100
AcDbLine
 10
639.3017096589719
 20
466.1765783521964
 30
-5.294369999999998
 11
639.3017096589719
 21
464.6765783521962
 31
-5.294369999999998
  0
LINE
  5
4EB
330
1F
100
AcDbEntity
  8
0
  6
DASHED
 62
     4
 48
5.0
100
AcDbLine
 10
640.3017096589721
 20
466.1765783521964
 30
-5.294369999999998
 11
639.3017096589719
 21
466.1765783521964
 31
-5.294369999999998
  0
LINE
  5
4EC
330
1F
100
AcDbEntity
  8
0
  6
DASHED
 62
     4
 48
5.0
100
AcDbLine
 10
640.3017096589721
 20
464.6765783521962
 30
-5.294369999999998
 11
640.3017096589721
 21
466.1765783521964
 31
-5.294369999999998
  0
LINE
  5
4ED
330
1F
100
AcDbEntity
  8
0
  6
DASHED
 62
     4
 48
5.0
100
AcDbLine
 10
641.801709658972
 20
464.6765783521962
 30
-5.294369999999998
 11
640.3017096589721
 21
464.6765783521962
 31
-5.294369999999998
  0
LINE
  5
4EE
330
1F
100
AcDbEntity
  8
0
  6
DASHED
 62
     4
 48
5.0
100
AcDbLine
 10
641.801709658972
 20
463.6765783521959
 30
-5.294369999999998
 11
641.801709658972
 21
464.6765783521962
 31
-5.294369999999998
  0
LINE
  5
4EF
330
1F
100
AcDbEntity
  8
0
  6
DASHED
 62
     4
 48
5.0
100
AcDbLine
 10
634.181709658972
 20
463.6765783521959
 30
-5.294369999999998
 11
634.181709658972
 21
463.6765783521959
 31
-5.294369999999998
  0
LINE
  5
4F0
330
1F
100
AcDbEntity
  8
0
  6
DASHED
 62
     4
 48
5.0
100
AcDbLine
 10
632.6817096589723
 20
463.6765783521959
 30
-5.294369999999998
 11
634.181709658972
 21
463.6765783521959
 31
-5.294369999999998
  0
LINE
  5
4F1
330
1F
100
AcDbEntity
  8
0
  6
DASHED
 62
     4
 48
5.0
100
AcDbLine
 10
632.6817096589723
 20
462.1765783521964
 30
-5.294369999999998
 11
632.6817096589723
 21
463.6765783521959
 31
-5.294369999999998
  0
LINE
  5
4F2
330
1F
100
AcDbEntity
  8
0
  6
DASHED
 62
     4
 48
5.0
100
AcDbLine
 10
631.6817096589724
 20
462.1765783521964
 30
-5.294369999999998
 11
632.6817096589723
 21
462.1765783521964
 31
-5.294369999999998
  0
LINE
  5
4F3
330
1F
100
AcDbEntity
  8
0
  6
DASHED
 62
     4
 48
5.0
100
AcDbLine
 10
631.6817096589724
 20
463.6765783521959
 30
-5.294369999999998
 11
631.6817096589724
 21
462.1765783521964
 31
-5.294369999999998
  0
LINE
  5
4F4
330
1F
100
AcDbEntity
  8
0
  6
DASHED
 62
     4
 48
5.0
100
AcDbLine
 10
631.6817096589724
 20
466.1765783521964
 30
-5.294369999999998
 11
631.6817096589724
 21
464.6765783521962
 31
-5.294369999999998
  0
LINE
  5
4F5
330
1F
100
AcDbEntity
  8
0
  6
DASHED
 62
     4
 48
5.0
100
AcDbLine
 10
632.6817096589723
 20
466.1765783521964
 30
-5.294369999999998
 11
631.6817096589724
 21
466.1765783521964
 31
-5.294369999999998
  0
LINE
  5
4F6
330
1F
100
AcDbEntity
  8
0
  6
DASHED
 62
     4
 48
5.0
100
AcDbLine
 10
632.6817096589723
 20
464.6765783521962
 30
-5.294369999999998
 11
632.6817096589723
 21
466.1765783521964
 31
-5.294369999999998
  0
LINE
  5
4F7
330
1F
100
AcDbEntity
  8
0
  6
DASHED
 62
     4
 48
5.0
100
AcDbLine
 10
634.181709658972
 20
464.6765783521962
 30
-5.294369999999998
 11
632.6817096589723
 21
464.6765783521962
 31
-5.294369999999998
  0
LINE
  5
4F8
330
1F
100
AcDbEntity
  8
0
  6
DASHED
 62
     4
 48
5.0
100
AcDbLine
 10
634.181709658972
 20
463.6765783521959
 30
-5.294369999999998
 11
634.181709658972
 21
464.6765783521962
 31
-5.294369999999998
  0
LINE
  5
4F9
330
1F
100
AcDbEntity
  8
0
  6
DASHED
 62
     4
 48
5.0
100
AcDbLine
 10
651.8565336589721
 20
459.4421023521961
 30
-5.294369999999998
 11
651.8565336589721
 21
468.4421023521961
 31
-5.294369999999998
  0
LINE
  5
4FA
330
1F
100
AcDbEntity
  8
0
  6
DASHED
 62
     4
 48
5.0
100
AcDbLine
 10
650.5365336589724
 20
459.4421023521961
 30
-5.294369999999998
 11
650.5365336589724
 21
468.4421023521961
 31
-5.294369999999998
  0
LINE
  5
4FB
330
1F
100
AcDbEntity
  8
0
  6
DASHED
 62
     4
 48
5.0
100
AcDbLine
 10
659.4765336589719
 20
459.4421023521961
 30
-5.294369999999998
 11
659.4765336589719
 21
468.4421023521961
 31
-5.294369999999998
  0
LINE
  5
4FC
330
1F
100
AcDbEntity
  8
0
  6
DASHED
 62
     4
 48
5.0
100
AcDbLine
 10
658.1565336589719
 20
459.4421023521961
 30
-5.294369999999998
 11
658.1565336589719
 21
468.4421023521961
 31
-5.294369999999998
  0
LINE
  5
4FD
330
1F
100
AcDbEntity
  8
0
  6
DASHED
 62
     4
 48
5.0
100
AcDbLine
 10
658.395135658972
 20
454.4007643521961
 30
-5.294369999999998
 11
656.8951356589718
 21
454.4007643521961
 31
-5.294369999999998
  0
LINE
  5
4FE
330
1F
100
AcDbEntity
  8
0
  6
DASHED
 62
     4
 48
5.0
100
AcDbLine
 10
658.395135658972
 20
455.9007643521962
 30
-5.294369999999998
 11
658.395135658972
 21
454.4007643521961
 31
-5.294369999999998
  0
LINE
  5
4FF
330
1F
100
AcDbEntity
  8
0
  6
DASHED
 62
     4
 48
5.0
100
AcDbLine
 10
659.3951356589719
 20
455.9007643521962
 30
-5.294369999999998
 11
658.395135658972
 21
455.9007643521962
 31
-5.294369999999998
  0
LINE
  5
500
330
1F
100
AcDbEntity
  8
0
  6
DASHED
 62
     4
 48
5.0
100
AcDbLine
 10
659.3951356589719
 20
454.4007643521961
 30
-5.294369999999998
 11
659.3951356589719
 21
455.9007643521962
 31
-5.294369999999998
  0
LINE
  5
501
330
1F
100
AcDbEntity
  8
0
  6
DASHED
 62
     4
 48
5.0
100
AcDbLine
 10
660.8951356589718
 20
454.4007643521961
 30
-5.294369999999998
 11
659.3951356589719
 21
454.4007643521961
 31
-5.294369999999998
  0
LINE
  5
502
330
1F
100
AcDbEntity
  8
0
  6
DASHED
 62
     4
 48
5.0
100
AcDbLine
 10
663.1617096589718
 20
462.1765783521964
 30
-5.294369999999998
 11
663.1617096589718
 21
463.6765783521959
 31
-5.294369999999998
  0
LINE
  5
503
330
1F
100
AcDbEntity
  8
0
  6
DASHED
 62
     4
 48
5.0
100
AcDbLine
 10
662.1617096589718
 20
462.1765783521964
 30
-5.294369999999998
 11
663.1617096589718
 21
462.1765783521964
 31
-5.294369999999998
  0
LINE
  5
504
330
1F
100
AcDbEntity
  8
0
  6
DASHED
 62
     4
 48
5.0
100
AcDbLine
 10
662.1617096589718
 20
463.6765783521959
 30
-5.294369999999998
 11
662.1617096589718
 21
462.1765783521964
 31
-5.294369999999998
  0
LINE
  5
505
330
1F
100
AcDbEntity
  8
0
  6
DASHED
 62
     4
 48
5.0
100
AcDbLine
 10
660.661709658972
 20
463.6765783521959
 30
-5.294369999999998
 11
662.1617096589718
 21
463.6765783521959
 31
-5.294369999999998
  0
LINE
  5
506
330
1F
100
AcDbEntity
  8
0
  6
DASHED
 62
     4
 48
5.0
100
AcDbLine
 10
660.661709658972
 20
464.6765783521962
 30
-5.294369999999998
 11
660.661709658972
 21
463.6765783521959
 31
-5.294369999999998
  0
LINE
  5
507
330
1F
100
AcDbEntity
  8
0
  6
DASHED
 62
     4
 48
5.0
100
AcDbLine
 10
662.1617096589718
 20
464.6765783521962
 30
-5.294369999999998
 11
660.661709658972
 21
464.6765783521962
 31
-5.294369999999998
  0
LINE
  5
508
330
1F
100
AcDbEntity
  8
0
  6
DASHED
 62
     4
 48
5.0
100
AcDbLine
 10
662.1617096589718
 20
466.1765783521964
 30
-5.294369999999998
 11
662.1617096589718
 21
464.6765783521962
 31
-5.294369999999998
  0
LINE
  5
509
330
1F
100
AcDbEntity
  8
0
  6
DASHED
 62
     4
 48
5.0
100
AcDbLine
 10
663.1617096589718
 20
466.1765783521964
 30
-5.294369999999998
 11
662.1617096589718
 21
466.1765783521964
 31
-5.294369999999998
  0
LINE
  5
50A
330
1F
100
AcDbEntity
  8
0
  6
DASHED
 62
     4
 48
5.0
100
AcDbLine
 10
663.1617096589718
 20
464.6765783521962
 30
-5.294369999999998
 11
663.1617096589718
 21
466.1765783521964
 31
-5.294369999999998
  0
LINE
  5
50B
330
1F
100
AcDbEntity
  8
0
  6
DASHED
 62
     4
 48
5.0
100
AcDbLine
 10
650.7751356589721
 20
454.4007643521961
 30
-5.294369999999998
 11
649.2751356589721
 21
454.4007643521961
 31
-5.294369999999998
  0
LINE
  5
50C
330
1F
100
AcDbEntity
  8
0
  6
DASHED
 62
     4
 48
5.0
100
AcDbLine
 10
650.7751356589721
 20
455.9007643521962
 30
-5.294369999999998
 11
650.7751356589721
 21
454.4007643521961
 31
-5.294369999999998
  0
LINE
  5
50D
330
1F
100
AcDbEntity
  8
0
  6
DASHED
 62
     4
 48
5.0
100
AcDbLine
 10
651.775135658972
 20
455.9007643521962
 30
-5.294369999999998
 11
650.7751356589721
 21
455.9007643521962
 31
-5.294369999999998
  0
LINE
  5
50E
330
1F
100
AcDbEntity
  8
0
  6
DASHED
 62
     4
 48
5.0
100
AcDbLine
 10
651.775135658972
 20
454.4007643521961
 30
-5.294369999999998
 11
651.775135658972
 21
455.9007643521962
 31
-5.294369999999998
  0
LINE
  5
50F
330
1F
100
AcDbEntity
  8
0
  6
DASHED
 62
     4
 48
5.0
100
AcDbLine
 10
653.2751356589722
 20
454.4007643521961
 30
-5.294369999999998
 11
651.775135658972
 21
454.4007643521961
 31
-5.294369999999998
  0
LINE
  5
510
330
1F
100
AcDbEntity
  8
0
  6
DASHED
 62
     4
 48
5.0
100
AcDbLine
 10
657.0417096589721
 20
463.6765783521959
 30
-5.294369999999998
 11
657.0417096589721
 21
463.6765783521959
 31
-5.294369999999998
  0
LINE
  5
511
330
1F
100
AcDbEntity
  8
0
  6
DASHED
 62
     4
 48
5.0
100
AcDbLine
 10
655.5417096589721
 20
463.6765783521959
 30
-5.294369999999998
 11
657.0417096589721
 21
463.6765783521959
 31
-5.294369999999998
  0
LINE
  5
512
330
1F
100
AcDbEntity
  8
0
  6
DASHED
 62
     4
 48
5.0
100
AcDbLine
 10
655.5417096589721
 20
462.1765783521964
 30
-5.294369999999998
 11
655.5417096589721
 21
463.6765783521959
 31
-5.294369999999998
  0
LINE
  5
513
330
1F
100
AcDbEntity
  8
0
  6
DASHED
 62
     4
 48
5.0
100
AcDbLine
 10
654.5417096589719
 20
462.1765783521964
 30
-5.294369999999998
 11
655.5417096589721
 21
462.1765783521964
 31
-5.294369999999998
  0
LINE
  5
514
330
1F
100
AcDbEntity
  8
0
  6
DASHED
 62
     4
 48
5.0
100
AcDbLine
 10
654.5417096589719
 20
463.6765783521959
 30
-5.294369999999998
 11
654.5417096589719
 21
462.1765783521964
 31
-5.294369999999998
  0
LINE
  5
515
330
1F
100
AcDbEntity
  8
0
  6
DASHED
 62
     4
 48
5.0
100
AcDbLine
 10
653.0417096589721
 20
463.6765783521959
 30
-5.294369999999998
 11
654.5417096589719
 21
463.6765783521959
 31
-5.294369999999998
  0
LINE
  5
516
330
1F
100
AcDbEntity
  8
0
  6
DASHED
 62
     4
 48
5.0
100
AcDbLine
 10
653.0417096589721
 20
464.6765783521962
 30
-5.294369999999998
 11
653.0417096589721
 21
463.6765783521959
 31
-5.294369999999998
  0
LINE
  5
517
330
1F
100
AcDbEntity
  8
0
  6
DASHED
 62
     4
 48
5.0
100
AcDbLine
 10
654.5417096589719
 20
464.6765783521962
 30
-5.294369999999998
 11
653.0417096589721
 21
464.6765783521962
 31
-5.294369999999998
  0
LINE
  5
518
330
1F
100
AcDbEntity
  8
0
  6
DASHED
 62
     4
 48
5.0
100
AcDbLine
 10
654.5417096589719
 20
466.1765783521964
 30
-5.294369999999998
 11
654.5417096589719
 21
464.6765783521962
 31
-5.294369999999998
  0
LINE
  5
519
330
1F
100
AcDbEntity
  8
0
  6
DASHED
 62
     4
 48
5.0
100
AcDbLine
 10
655.5417096589721
 20
466.1765783521964
 30
-5.294369999999998
 11
654.5417096589719
 21
466.1765783521964
 31
-5.294369999999998
  0
LINE
  5
51A
330
1F
100
AcDbEntity
  8
0
  6
DASHED
 62
     4
 48
5.0
100
AcDbLine
 10
655.5417096589721
 20
464.6765783521962
 30
-5.294369999999998
 11
655.5417096589721
 21
466.1765783521964
 31
-5.294369999999998
  0
LINE
  5
51B
330
1F
100
AcDbEntity
  8
0
  6
DASHED
 62
     4
 48
5.0
100
AcDbLine
 10
657.0417096589721
 20
464.6765783521962
 30
-5.294369999999998
 11
655.5417096589721
 21
464.6765783521962
 31
-5.294369999999998
  0
LINE
  5
51C
330
1F
100
AcDbEntity
  8
0
  6
DASHED
 62
     4
 48
5.0
100
AcDbLine
 10
657.0417096589721
 20
463.6765783521959
 30
-5.294369999999998
 11
657.0417096589721
 21
464.6765783521962
 31
-5.294369999999998
  0
LINE
  5
51D
330
1F
100
AcDbEntity
  8
0
  6
DASHED
 62
     4
 48
5.0
100
AcDbLine
 10
649.421709658972
 20
463.6765783521959
 30
-5.294369999999998
 11
649.421709658972
 21
463.6765783521959
 31
-5.294369999999998
  0
LINE
  5
51E
330
1F
100
AcDbEntity
  8
0
  6
DASHED
 62
     4
 48
5.0
100
AcDbLine
 10
647.9217096589718
 20
463.6765783521959
 30
-5.294369999999998
 11
649.421709658972
 21
463.6765783521959
 31
-5.294369999999998
  0
LINE
  5
51F
330
1F
100
AcDbEntity
  8
0
  6
DASHED
 62
     4
 48
5.0
100
AcDbLine
 10
647.9217096589718
 20
462.1765783521964
 30
-5.294369999999998
 11
647.9217096589718
 21
463.6765783521959
 31
-5.294369999999998
  0
LINE
  5
520
330
1F
100
AcDbEntity
  8
0
  6
DASHED
 62
     4
 48
5.0
100
AcDbLine
 10
647.9217096589718
 20
464.6765783521962
 30
-5.294369999999998
 11
647.9217096589718
 21
466.1765783521964
 31
-5.294369999999998
  0
LINE
  5
521
330
1F
100
AcDbEntity
  8
0
  6
DASHED
 62
     4
 48
5.0
100
AcDbLine
 10
649.421709658972
 20
464.6765783521962
 30
-5.294369999999998
 11
647.9217096589718
 21
464.6765783521962
 31
-5.294369999999998
  0
LINE
  5
522
330
1F
100
AcDbEntity
  8
0
  6
DASHED
 62
     4
 48
5.0
100
AcDbLine
 10
649.421709658972
 20
463.6765783521959
 30
-5.294369999999998
 11
649.421709658972
 21
464.6765783521962
 31
-5.294369999999998
  0
LINE
  5
523
330
1F
100
AcDbEntity
  8
0
  6
DASHED
 62
     4
 48
5.0
100
AcDbLine
 10
678.5265336589718
 20
449.4421023521962
 30
-5.294369999999998
 11
678.5265336589718
 21
468.4421023521961
 31
-5.294369999999998
  0
LINE
  5
524
330
1F
100
AcDbEntity
  8
0
  6
DASHED
 62
     4
 48
5.0
100
AcDbLine
 10
677.2065336589722
 20
449.4421023521962
 30
-5.294369999999998
 11
677.2065336589722
 21
459.4421023521961
 31
-5.294369999999998
  0
LINE
  5
525
330
1F
100
AcDbEntity
  8
0
  6
DASHED
 62
     4
 48
5.0
100
AcDbLine
 10
670.9065336589721
 20
449.4421023521962
 30
-5.294369999999998
 11
670.9065336589721
 21
459.4421023521961
 31
-5.294369999999998
  0
LINE
  5
526
330
1F
100
AcDbEntity
  8
0
  6
DASHED
 62
     4
 48
5.0
100
AcDbLine
 10
669.5865336589722
 20
449.4421023521962
 30
-5.294369999999998
 11
669.5865336589722
 21
459.4421023521961
 31
-5.294369999999998
  0
LINE
  5
527
330
1F
100
AcDbEntity
  8
0
  6
DASHED
 62
     4
 48
5.0
100
AcDbLine
 10
672.1351356589724
 20
454.4007643521961
 30
-5.294369999999998
 11
672.1351356589724
 21
453.4007643521961
 31
-5.294369999999998
  0
LINE
  5
528
330
1F
100
AcDbEntity
  8
0
  6
DASHED
 62
     4
 48
5.0
100
AcDbLine
 10
676.1351356589724
 20
453.4007643521961
 30
-5.294369999999998
 11
676.1351356589724
 21
454.4007643521961
 31
-5.294369999999998
  0
LINE
  5
529
330
1F
100
AcDbEntity
  8
0
  6
DASHED
 62
     4
 48
5.0
100
AcDbLine
 10
668.5151356589722
 20
453.4007643521961
 30
-5.294369999999998
 11
668.5151356589722
 21
454.4007643521961
 31
-5.294369999999998
  0
LINE
  5
52A
330
1F
100
AcDbEntity
  8
0
  6
DASHED
 62
     4
 48
5.0
100
AcDbLine
 10
676.1351356589724
 20
453.4007643521961
 30
-5.294369999999998
 11
676.1351356589724
 21
453.4007643521961
 31
-5.294369999999998
  0
LINE
  5
52B
330
1F
100
AcDbEntity
  8
0
  6
DASHED
 62
     4
 48
5.0
100
AcDbLine
 10
674.635135658972
 20
453.4007643521961
 30
-5.294369999999998
 11
676.1351356589724
 21
453.4007643521961
 31
-5.294369999999998
  0
LINE
  5
52C
330
1F
100
AcDbEntity
  8
0
  6
DASHED
 62
     4
 48
5.0
100
AcDbLine
 10
674.635135658972
 20
451.9007643521965
 30
-5.294369999999998
 11
674.635135658972
 21
453.4007643521961
 31
-5.294369999999998
  0
LINE
  5
52D
330
1F
100
AcDbEntity
  8
0
  6
DASHED
 62
     4
 48
5.0
100
AcDbLine
 10
673.6351356589717
 20
451.9007643521965
 30
-5.294369999999998
 11
674.635135658972
 21
451.9007643521965
 31
-5.294369999999998
  0
LINE
  5
52E
330
1F
100
AcDbEntity
  8
0
  6
DASHED
 62
     4
 48
5.0
100
AcDbLine
 10
673.6351356589717
 20
453.4007643521961
 30
-5.294369999999998
 11
673.6351356589717
 21
451.9007643521965
 31
-5.294369999999998
  0
LINE
  5
52F
330
1F
100
AcDbEntity
  8
0
  6
DASHED
 62
     4
 48
5.0
100
AcDbLine
 10
672.1351356589724
 20
453.4007643521961
 30
-5.294369999999998
 11
673.6351356589717
 21
453.4007643521961
 31
-5.294369999999998
  0
LINE
  5
530
330
1F
100
AcDbEntity
  8
0
  6
DASHED
 62
     4
 48
5.0
100
AcDbLine
 10
668.5151356589722
 20
453.4007643521961
 30
-5.294369999999998
 11
668.5151356589722
 21
453.4007643521961
 31
-5.294369999999998
  0
LINE
  5
531
330
1F
100
AcDbEntity
  8
0
  6
DASHED
 62
     4
 48
5.0
100
AcDbLine
 10
667.0151356589715
 20
453.4007643521961
 30
-5.294369999999998
 11
668.5151356589722
 21
453.4007643521961
 31
-5.294369999999998
  0
LINE
  5
532
330
1F
100
AcDbEntity
  8
0
  6
DASHED
 62
     4
 48
5.0
100
AcDbLine
 10
667.0151356589715
 20
451.9007643521965
 30
-5.294369999999998
 11
667.0151356589715
 21
453.4007643521961
 31
-5.294369999999998
  0
LINE
  5
533
330
1F
100
AcDbEntity
  8
0
  6
DASHED
 62
     4
 48
5.0
100
AcDbLine
 10
666.0151356589721
 20
451.9007643521965
 30
-5.294369999999998
 11
667.0151356589715
 21
451.9007643521965
 31
-5.294369999999998
  0
LINE
  5
534
330
1F
100
AcDbEntity
  8
0
  6
DASHED
 62
     4
 48
5.0
100
AcDbLine
 10
666.0151356589721
 20
453.4007643521961
 30
-5.294369999999998
 11
666.0151356589721
 21
451.9007643521965
 31
-5.294369999999998
  0
LINE
  5
535
330
1F
100
AcDbEntity
  8
0
  6
DASHED
 62
     4
 48
5.0
100
AcDbLine
 10
667.0965336589717
 20
459.4421023521961
 30
-5.294369999999998
 11
667.0965336589717
 21
468.4421023521961
 31
-5.294369999999998
  0
LINE
  5
536
330
1F
100
AcDbEntity
  8
0
  6
DASHED
 62
     4
 48
5.0
100
AcDbLine
 10
665.7765336589724
 20
459.4421023521961
 30
-5.294369999999998
 11
665.7765336589724
 21
468.4421023521961
 31
-5.294369999999998
  0
LINE
  5
537
330
1F
100
AcDbEntity
  8
0
  6
DASHED
 62
     4
 48
5.0
100
AcDbLine
 10
674.716533658972
 20
459.4421023521961
 30
-5.294369999999998
 11
674.716533658972
 21
468.4421023521961
 31
-5.294369999999998
  0
LINE
  5
538
330
1F
100
AcDbEntity
  8
0
  6
DASHED
 62
     4
 48
5.0
100
AcDbLine
 10
673.3965336589724
 20
459.4421023521961
 30
-5.294369999999998
 11
673.3965336589724
 21
468.4421023521961
 31
-5.294369999999998
  0
LINE
  5
539
330
1F
100
AcDbEntity
  8
0
  6
DASHED
 62
     4
 48
5.0
100
AcDbLine
 10
673.6351356589717
 20
454.4007643521961
 30
-5.294369999999998
 11
672.1351356589724
 21
454.4007643521961
 31
-5.294369999999998
  0
LINE
  5
53A
330
1F
100
AcDbEntity
  8
0
  6
DASHED
 62
     4
 48
5.0
100
AcDbLine
 10
673.6351356589717
 20
455.9007643521962
 30
-5.294369999999998
 11
673.6351356589717
 21
454.4007643521961
 31
-5.294369999999998
  0
LINE
  5
53B
330
1F
100
AcDbEntity
  8
0
  6
DASHED
 62
     4
 48
5.0
100
AcDbLine
 10
674.635135658972
 20
455.9007643521962
 30
-5.294369999999998
 11
673.6351356589717
 21
455.9007643521962
 31
-5.294369999999998
  0
LINE
  5
53C
330
1F
100
AcDbEntity
  8
0
  6
DASHED
 62
     4
 48
5.0
100
AcDbLine
 10
674.635135658972
 20
454.4007643521961
 30
-5.294369999999998
 11
674.635135658972
 21
455.9007643521962
 31
-5.294369999999998
  0
LINE
  5
53D
330
1F
100
AcDbEntity
  8
0
  6
DASHED
 62
     4
 48
5.0
100
AcDbLine
 10
676.1351356589724
 20
454.4007643521961
 30
-5.294369999999998
 11
674.635135658972
 21
454.4007643521961
 31
-5.294369999999998
  0
LINE
  5
53E
330
1F
100
AcDbEntity
  8
0
  6
DASHED
 62
     4
 48
5.0
100
AcDbLine
 10
666.0151356589721
 20
455.9007643521962
 30
-5.294369999999998
 11
666.0151356589721
 21
454.4007643521961
 31
-5.294369999999998
  0
LINE
  5
53F
330
1F
100
AcDbEntity
  8
0
  6
DASHED
 62
     4
 48
5.0
100
AcDbLine
 10
667.0151356589715
 20
455.9007643521962
 30
-5.294369999999998
 11
666.0151356589721
 21
455.9007643521962
 31
-5.294369999999998
  0
LINE
  5
540
330
1F
100
AcDbEntity
  8
0
  6
DASHED
 62
     4
 48
5.0
100
AcDbLine
 10
667.0151356589715
 20
454.4007643521961
 30
-5.294369999999998
 11
667.0151356589715
 21
455.9007643521962
 31
-5.294369999999998
  0
LINE
  5
541
330
1F
100
AcDbEntity
  8
0
  6
DASHED
 62
     4
 48
5.0
100
AcDbLine
 10
668.5151356589722
 20
454.4007643521961
 30
-5.294369999999998
 11
667.0151356589715
 21
454.4007643521961
 31
-5.294369999999998
  0
LINE
  5
542
330
1F
100
AcDbEntity
  8
0
  6
DASHED
 62
     4
 48
5.0
100
AcDbLine
 10
672.2817096589721
 20
463.6765783521959
 30
-5.294369999999998
 11
672.2817096589721
 21
463.6765783521959
 31
-5.294369999999998
  0
LINE
  5
543
330
1F
100
AcDbEntity
  8
0
  6
DASHED
 62
     4
 48
5.0
100
AcDbLine
 10
670.7817096589718
 20
463.6765783521959
 30
-5.294369999999998
 11
672.2817096589721
 21
463.6765783521959
 31
-5.294369999999998
  0
LINE
  5
544
330
1F
100
AcDbEntity
  8
0
  6
DASHED
 62
     4
 48
5.0
100
AcDbLine
 10
670.7817096589718
 20
462.1765783521964
 30
-5.294369999999998
 11
670.7817096589718
 21
463.6765783521959
 31
-5.294369999999998
  0
LINE
  5
545
330
1F
100
AcDbEntity
  8
0
  6
DASHED
 62
     4
 48
5.0
100
AcDbLine
 10
669.7817096589719
 20
462.1765783521964
 30
-5.294369999999998
 11
670.7817096589718
 21
462.1765783521964
 31
-5.294369999999998
  0
LINE
  5
546
330
1F
100
AcDbEntity
  8
0
  6
DASHED
 62
     4
 48
5.0
100
AcDbLine
 10
669.7817096589719
 20
463.6765783521959
 30
-5.294369999999998
 11
669.7817096589719
 21
462.1765783521964
 31
-5.294369999999998
  0
LINE
  5
547
330
1F
100
AcDbEntity
  8
0
  6
DASHED
 62
     4
 48
5.0
100
AcDbLine
 10
668.2817096589721
 20
463.6765783521959
 30
-5.294369999999998
 11
669.7817096589719
 21
463.6765783521959
 31
-5.294369999999998
  0
LINE
  5
548
330
1F
100
AcDbEntity
  8
0
  6
DASHED
 62
     4
 48
5.0
100
AcDbLine
 10
668.2817096589721
 20
464.6765783521962
 30
-5.294369999999998
 11
668.2817096589721
 21
463.6765783521959
 31
-5.294369999999998
  0
LINE
  5
549
330
1F
100
AcDbEntity
  8
0
  6
DASHED
 62
     4
 48
5.0
100
AcDbLine
 10
669.7817096589719
 20
464.6765783521962
 30
-5.294369999999998
 11
668.2817096589721
 21
464.6765783521962
 31
-5.294369999999998
  0
LINE
  5
54A
330
1F
100
AcDbEntity
  8
0
  6
DASHED
 62
     4
 48
5.0
100
AcDbLine
 10
669.7817096589719
 20
466.1765783521964
 30
-5.294369999999998
 11
669.7817096589719
 21
464.6765783521962
 31
-5.294369999999998
  0
LINE
  5
54B
330
1F
100
AcDbEntity
  8
0
  6
DASHED
 62
     4
 48
5.0
100
AcDbLine
 10
670.7817096589718
 20
466.1765783521964
 30
-5.294369999999998
 11
669.7817096589719
 21
466.1765783521964
 31
-5.294369999999998
  0
LINE
  5
54C
330
1F
100
AcDbEntity
  8
0
  6
DASHED
 62
     4
 48
5.0
100
AcDbLine
 10
670.7817096589718
 20
464.6765783521962
 30
-5.294369999999998
 11
670.7817096589718
 21
466.1765783521964
 31
-5.294369999999998
  0
LINE
  5
54D
330
1F
100
AcDbEntity
  8
0
  6
DASHED
 62
     4
 48
5.0
100
AcDbLine
 10
672.2817096589721
 20
464.6765783521962
 30
-5.294369999999998
 11
670.7817096589718
 21
464.6765783521962
 31
-5.294369999999998
  0
LINE
  5
54E
330
1F
100
AcDbEntity
  8
0
  6
DASHED
 62
     4
 48
5.0
100
AcDbLine
 10
672.2817096589721
 20
463.6765783521959
 30
-5.294369999999998
 11
672.2817096589721
 21
464.6765783521962
 31
-5.294369999999998
  0
LINE
  5
54F
330
1F
100
AcDbEntity
  8
0
  6
DASHED
 62
     4
 48
5.0
100
AcDbLine
 10
664.6617096589717
 20
463.6765783521959
 30
-5.294369999999998
 11
664.6617096589717
 21
463.6765783521959
 31
-5.294369999999998
  0
LINE
  5
550
330
1F
100
AcDbEntity
  8
0
  6
DASHED
 62
     4
 48
5.0
100
AcDbLine
 10
664.6617096589717
 20
463.6765783521959
 30
-5.294369999999998
 11
664.6617096589717
 21
464.6765783521962
 31
-5.294369999999998
  0
LINE
  5
551
330
1F
100
AcDbEntity
  8
0
  6
Continuous
 62
     7
100
AcDbLine
 10
637.1165336589722
 20
501.536330352196
 30
-5.294369999999998
 11
637.1165336589722
 21
502.7421023521959
 31
-5.294369999999998
  0
ARC
  5
552
330
1F
100
AcDbEntity
  8
0
  6
Continuous
 62
     7
100
AcDbCircle
 10
541.6165276823704
 20
197.7420963755946
 30
5.294369999999998
 40
7.999994023400756
100
AcDbArc
 50
179.9999571957112
 51
270.0000428042823
  0
ARC
  5
553
330
1F
100
AcDbEntity
  8
0
  6
Continuous
 62
     7
100
AcDbCircle
 10
538.1165336589721
 20
204.7421023521963
 30
5.294369999999998
 40
2.0
100
AcDbArc
 50
0.0
 51
180.0
  0
ARC
  5
554
330
1F
100
AcDbEntity
  8
0
  6
Continuous
 62
     7
100
AcDbCircle
 10
534.4165321648216
 20
206.7421008580461
 30
5.294369999999998
 40
1.999998505850147
100
AcDbArc
 50
179.9999571957112
 51
270.0000428042887
  0
CIRCLE
  5
555
330
1F
100
AcDbEntity
  8
0
  6
DASHED
 62
     4
370
     0
100
AcDbCircle
 10
556.4165355266601
 20
217.7421042198841
 30
5.294369999999998
 40
2.499998132312644
  0
LINE
  5
556
330
1F
100
AcDbEntity
  8
0
  6
DASHED
 62
     4
 48
5.0
100
AcDbLine
 10
558.9165336589724
 20
217.7421023521963
 30
5.294369999999998
 11
558.9165336589724
 21
217.7421023521963
 31
5.294369999999998
  0
ARC
  5
557
330
1F
100
AcDbEntity
  8
0
  6
Continuous
 62
     7
100
AcDbCircle
 10
530.4165322245872
 20
233.062114917812
 30
5.294369999999998
 40
1.919998565616278
100
AcDbArc
 50
179.9999571957175
 51
270.0000428042887
  0
ARC
  5
558
330
1F
100
AcDbEntity
  8
0
  6
Continuous
 62
     7
100
AcDbCircle
 10
530.4165322245872
 20
236.4221177865803
 30
5.294369999999998
 40
1.919998565616164
100
AcDbArc
 50
89.9999571957047
 51
180.0000428042823
  0
CIRCLE
  5
559
330
1F
100
AcDbEntity
  8
0
  6
Continuous
 62
     7
370
     0
100
AcDbCircle
 10
538.1165359001973
 20
239.7421185934216
 30
5.294369999999998
 40
2.99999775877522
  0
ARC
  5
55A
330
1F
100
AcDbEntity
  8
0
  6
Continuous
 62
     7
100
AcDbCircle
 10
538.1165326589721
 20
234.7421010189108
 30
5.294369999999998
 40
4.000000066637806
100
AcDbArc
 50
126.8697715955473
 51
53.13022840445241
  0
ARC
  5
55B
330
1F
100
AcDbEntity
  8
0
  6
Continuous
 62
     7
100
AcDbCircle
 10
632.616533658972
 20
202.7421023521963
 30
5.294369999999998
 40
4.50000000000011
100
AcDbArc
 50
0.0
 51
180.0
  0
LINE
  5
55C
330
1F
100
AcDbEntity
  8
0
  6
DASHED
 62
     4
 48
5.0
100
AcDbLine
 10
586.9165336589722
 20
217.7421023521963
 30
5.294369999999998
 11
586.9165336589722
 21
217.7421023521963
 31
5.294369999999998
  0
CIRCLE
  5
55D
330
1F
100
AcDbEntity
  8
0
  6
DASHED
 62
     4
370
     0
100
AcDbCircle
 10
584.4165355266599
 20
217.7421042198841
 30
5.294369999999998
 40
2.499998132312644
  0
ARC
  5
55E
330
1F
100
AcDbEntity
  8
0
  6
Continuous
 62
     7
100
AcDbCircle
 10
626.1165351531222
 20
191.7421008580461
 30
5.294369999999998
 40
1.999998505850204
100
AcDbArc
 50
269.9999571957111
 51
0.0000428042888088
  0
CIRCLE
  5
55F
330
1F
100
AcDbEntity
  8
0
  6
DASHED
 62
     4
370
     0
100
AcDbCircle
 10
617.4165355266599
 20
217.7421042198841
 30
5.294369999999998
 40
2.499998132312644
  0
ARC
  5
560
330
1F
100
AcDbEntity
  8
0
  6
Continuous
 62
     7
100
AcDbCircle
 10
639.1165321648218
 20
191.7421008580455
 30
5.294369999999998
 40
1.999998505850033
100
AcDbArc
 50
179.9999571957079
 51
270.0000428042823
  0
CIRCLE
  5
561
330
1F
100
AcDbEntity
  8
0
  6
DASHED
 62
     4
370
     0
100
AcDbCircle
 10
645.4165355266598
 20
217.7421042198841
 30
5.294369999999998
 40
2.499998132312644
  0
CIRCLE
  5
562
330
1F
100
AcDbEntity
  8
0
  6
DASHED
 62
     4
370
     0
100
AcDbCircle
 10
678.4165355266602
 20
217.7421042198841
 30
5.294369999999998
 40
2.499998132312644
  0
ARC
  5
563
330
1F
100
AcDbEntity
  8
0
  6
Continuous
 62
     7
100
AcDbCircle
 10
538.1165336589721
 20
393.7421023521961
 30
5.294369999999998
 40
1.750000000000112
100
AcDbArc
 50
180.0
 51
0.0
  0
ARC
  5
564
330
1F
100
AcDbEntity
  8
0
  6
Continuous
 62
     7
100
AcDbCircle
 10
530.4165322245872
 20
433.0621149178121
 30
5.294369999999998
 40
1.919998565616278
100
AcDbArc
 50
179.9999571957175
 51
270.0000428042887
  0
ARC
  5
565
330
1F
100
AcDbEntity
  8
0
  6
Continuous
 62
     7
100
AcDbCircle
 10
530.4165322245872
 20
436.4221177865805
 30
5.294369999999998
 40
1.91999856561605
100
AcDbArc
 50
89.9999571957047
 51
180.0000428042789
  0
CIRCLE
  5
566
330
1F
100
AcDbEntity
  8
0
  6
Continuous
 62
     7
370
     0
100
AcDbCircle
 10
538.1165359001973
 20
434.7421185934218
 30
5.294369999999998
 40
2.99999775877533
  0
ARC
  5
567
330
1F
100
AcDbEntity
  8
0
  6
Continuous
 62
     7
100
AcDbCircle
 10
538.1165336589721
 20
475.7421023145576
 30
5.294369999999998
 40
4.00000028763898
100
AcDbArc
 50
295.9444777677891
 51
244.0555222322108
  0
ARC
  5
568
330
1F
100
AcDbEntity
  8
0
  6
Continuous
 62
     7
100
AcDbCircle
 10
534.4165321648221
 20
482.7421038463461
 30
5.294369999999998
 40
1.999998505850374
100
AcDbArc
 50
89.99995719571769
 51
180.0000428042919
  0
ARC
  5
569
330
1F
100
AcDbEntity
  8
0
  6
Continuous
 62
     7
100
AcDbCircle
 10
541.6165276823704
 20
506.7421083287978
 30
5.294369999999998
 40
7.99999402340093
100
AcDbArc
 50
89.99995719571119
 51
180.0000428042888
  0
CIRCLE
  5
56A
330
1F
100
AcDbEntity
  8
0
  6
Continuous
 62
     7
100
AcDbCircle
 10
679.5933771531222
 20
427.6421053404958
 30
5.294369999999998
 40
1.999998505850147
  0
CIRCLE
  5
56B
330
1F
100
AcDbEntity
  8
0
  6
Continuous
 62
     7
100
AcDbCircle
 10
684.1165359001971
 20
371.7421045934207
 30
5.294369999999998
 40
2.99999775877533
  0
CIRCLE
  5
56C
330
1F
100
AcDbEntity
  8
0
  6
Continuous
 62
     7
100
AcDbCircle
 10
679.5933711531216
 20
399.7221053404965
 30
5.294369999999998
 40
1.999998505850374
  0
CIRCLE
  5
56D
330
1F
100
AcDbEntity
  8
0
  6
Continuous
 62
     7
100
AcDbCircle
 10
679.5934191531221
 20
394.6221053404959
 30
5.294369999999998
 40
1.999998505850147
  0
CIRCLE
  5
56E
330
1F
100
AcDbEntity
  8
0
  6
Continuous
 62
     7
100
AcDbCircle
 10
679.5934671531226
 20
389.5221053404961
 30
5.294369999999998
 40
1.999998505850147
  0
LINE
  5
56F
330
1F
100
AcDbEntity
  8
0
  6
Continuous
 62
     7
100
AcDbLine
 10
685.1165336589716
 20
399.7421068346469
 30
5.294369999999998
 11
685.1165336589716
 21
391.7421068346466
 31
5.294369999999998
  0
LINE
  5
570
330
1F
100
AcDbEntity
  8
0
  6
Continuous
 62
     7
100
AcDbLine
 10
685.1165336589716
 20
387.7421068346466
 30
5.294369999999998
 11
685.1165336589716
 21
379.7421068346466
 31
5.294369999999998
  0
CIRCLE
  5
571
330
1F
100
AcDbEntity
  8
0
  6
Continuous
 62
     7
100
AcDbCircle
 10
679.5933631531217
 20
422.5421053404966
 30
5.294369999999998
 40
1.99999850585026
  0
CIRCLE
  5
572
330
1F
100
AcDbEntity
  8
0
  6
Continuous
 62
     7
100
AcDbCircle
 10
679.593349153122
 20
417.4421053404966
 30
5.294369999999998
 40
1.999998505850374
  0
CIRCLE
  5
573
330
1F
100
AcDbEntity
  8
0
  6
Continuous
 62
     7
100
AcDbCircle
 10
679.5933371531227
 20
412.3421053404966
 30
5.294369999999998
 40
1.99999850585026
  0
CIRCLE
  5
574
330
1F
100
AcDbEntity
  8
0
  6
Continuous
 62
     7
100
AcDbCircle
 10
679.5933231531221
 20
407.2421053404959
 30
5.294369999999998
 40
1.999998505850147
  0
CIRCLE
  5
575
330
1F
100
AcDbEntity
  8
0
  6
Continuous
 62
     7
100
AcDbCircle
 10
691.1165359001972
 20
419.742104593421
 30
5.294369999999998
 40
2.99999775877522
  0
CIRCLE
  5
576
330
1F
100
AcDbEntity
  8
0
  6
Continuous
 62
     7
100
AcDbCircle
 10
691.1165359001972
 20
406.7421045934208
 30
5.294369999999998
 40
2.999997758775106
  0
CIRCLE
  5
577
330
1F
100
AcDbEntity
  8
0
  6
DASHED
 62
     4
370
     0
100
AcDbCircle
 10
632.1817099001975
 20
464.1765805934217
 30
5.294369999999984
 40
2.999997758775326
  0
CIRCLE
  5
578
330
1F
100
AcDbEntity
  8
0
  6
DASHED
 62
     4
370
     0
100
AcDbCircle
 10
628.4151379001977
 20
453.9007665934217
 30
5.294369999999984
 40
2.999997758775326
  0
ARC
  5
579
330
1F
100
AcDbEntity
  8
0
  6
Continuous
 62
     7
100
AcDbCircle
 10
632.616533658972
 20
502.7421023521959
 30
5.294369999999998
 40
4.50000000000011
100
AcDbArc
 50
0.0
 51
180.0
  0
ARC
  5
57A
330
1F
100
AcDbEntity
  8
0
  6
Continuous
 62
     7
100
AcDbCircle
 10
632.616533658972
 20
493.7421012540801
 30
5.294369999999998
 40
9.00000040188441
100
AcDbArc
 50
119.9999985228618
 51
60.00000147713807
  0
CIRCLE
  5
57B
330
1F
100
AcDbEntity
  8
0
  6
DASHED
 62
     4
370
     0
100
AcDbCircle
 10
597.9351379001975
 20
453.9007665934217
 30
5.294369999999984
 40
2.999997758775326
  0
CIRCLE
  5
57C
330
1F
100
AcDbEntity
  8
0
  6
DASHED
 62
     4
370
     0
100
AcDbCircle
 10
590.3151379001975
 20
453.9007665934217
 30
5.294369999999984
 40
2.999997758775326
  0
CIRCLE
  5
57D
330
1F
100
AcDbEntity
  8
0
  6
DASHED
 62
     4
370
     0
100
AcDbCircle
 10
582.695137900198
 20
453.9007665934217
 30
5.294369999999984
 40
2.999997758775443
  0
CIRCLE
  5
57E
330
1F
100
AcDbEntity
  8
0
  6
DASHED
 62
     4
370
     0
100
AcDbCircle
 10
575.0751379001975
 20
453.9007665934217
 30
5.294369999999984
 40
2.999997758775443
  0
CIRCLE
  5
57F
330
1F
100
AcDbEntity
  8
0
  6
DASHED
 62
     4
370
     0
100
AcDbCircle
 10
567.4551379001977
 20
453.9007665934217
 30
5.294369999999984
 40
2.999997758775443
  0
CIRCLE
  5
580
330
1F
100
AcDbEntity
  8
0
  6
DASHED
 62
     4
370
     0
100
AcDbCircle
 10
578.8417099001981
 20
464.1765805934217
 30
5.294369999999984
 40
2.999997758775443
  0
CIRCLE
  5
581
330
1F
100
AcDbEntity
  8
0
  6
DASHED
 62
     4
370
     0
100
AcDbCircle
 10
571.2217099001978
 20
464.1765805934217
 30
5.294369999999984
 40
2.999997758775443
  0
CIRCLE
  5
582
330
1F
100
AcDbEntity
  8
0
  6
DASHED
 62
     4
370
     0
100
AcDbCircle
 10
586.4617099001979
 20
464.1765805934217
 30
5.294369999999984
 40
2.999997758775443
  0
CIRCLE
  5
583
330
1F
100
AcDbEntity
  8
0
  6
DASHED
 62
     4
370
     0
100
AcDbCircle
 10
594.0817099001979
 20
464.1765805934217
 30
5.294369999999984
 40
2.999997758775326
  0
CIRCLE
  5
584
330
1F
100
AcDbEntity
  8
0
  6
DASHED
 62
     4
370
     0
100
AcDbCircle
 10
620.7951379001976
 20
453.9007665934217
 30
5.294369999999984
 40
2.999997758775326
  0
CIRCLE
  5
585
330
1F
100
AcDbEntity
  8
0
  6
DASHED
 62
     4
370
     0
100
AcDbCircle
 10
613.1751379001977
 20
453.9007665934217
 30
5.294369999999984
 40
2.999997758775326
  0
CIRCLE
  5
586
330
1F
100
AcDbEntity
  8
0
  6
DASHED
 62
     4
370
     0
100
AcDbCircle
 10
605.5551379001972
 20
453.9007665934217
 30
5.294369999999984
 40
2.999997758775326
  0
CIRCLE
  5
587
330
1F
100
AcDbEntity
  8
0
  6
DASHED
 62
     4
370
     0
100
AcDbCircle
 10
616.9417099001978
 20
464.1765805934217
 30
5.294369999999984
 40
2.999997758775326
  0
CIRCLE
  5
588
330
1F
100
AcDbEntity
  8
0
  6
DASHED
 62
     4
370
     0
100
AcDbCircle
 10
601.7017099001975
 20
464.1765805934217
 30
5.294369999999984
 40
2.999997758775326
  0
CIRCLE
  5
589
330
1F
100
AcDbEntity
  8
0
  6
DASHED
 62
     4
370
     0
100
AcDbCircle
 10
609.3217099001975
 20
464.1765805934217
 30
5.294369999999984
 40
2.999997758775326
  0
CIRCLE
  5
58A
330
1F
100
AcDbEntity
  8
0
  6
DASHED
 62
     4
370
     0
100
AcDbCircle
 10
624.5617099001975
 20
464.1765805934217
 30
5.294369999999984
 40
2.999997758775326
  0
CIRCLE
  5
58B
330
1F
100
AcDbEntity
  8
0
  6
DASHED
 62
     4
370
     0
100
AcDbCircle
 10
662.6617099001975
 20
464.1765805934217
 30
5.294369999999984
 40
2.999997758775326
  0
CIRCLE
  5
58C
330
1F
100
AcDbEntity
  8
0
  6
DASHED
 62
     4
370
     0
100
AcDbCircle
 10
666.5151379001976
 20
453.9007665934217
 30
5.294369999999984
 40
2.999997758775326
  0
CIRCLE
  5
58D
330
1F
100
AcDbEntity
  8
0
  6
DASHED
 62
     4
370
     0
100
AcDbCircle
 10
658.8951379001979
 20
453.9007665934217
 30
5.294369999999984
 40
2.999997758775326
  0
CIRCLE
  5
58E
330
1F
100
AcDbEntity
  8
0
  6
DASHED
 62
     4
370
     0
100
AcDbCircle
 10
651.2751379001977
 20
453.9007665934217
 30
5.294369999999984
 40
2.999997758775326
  0
CIRCLE
  5
58F
330
1F
100
AcDbEntity
  8
0
  6
DASHED
 62
     4
370
     0
100
AcDbCircle
 10
643.6551379001977
 20
453.9007665934217
 30
5.294369999999984
 40
2.999997758775326
  0
CIRCLE
  5
590
330
1F
100
AcDbEntity
  8
0
  6
DASHED
 62
     4
370
     0
100
AcDbCircle
 10
636.0351379001976
 20
453.9007665934217
 30
5.294369999999984
 40
2.999997758775326
  0
CIRCLE
  5
591
330
1F
100
AcDbEntity
  8
0
  6
DASHED
 62
     4
370
     0
100
AcDbCircle
 10
647.4217099001975
 20
464.1765805934217
 30
5.294369999999984
 40
2.999997758775326
  0
CIRCLE
  5
592
330
1F
100
AcDbEntity
  8
0
  6
DASHED
 62
     4
370
     0
100
AcDbCircle
 10
639.8017099001974
 20
464.1765805934217
 30
5.294369999999984
 40
2.999997758775326
  0
CIRCLE
  5
593
330
1F
100
AcDbEntity
  8
0
  6
DASHED
 62
     4
370
     0
100
AcDbCircle
 10
655.0417099001974
 20
464.1765805934217
 30
5.294369999999984
 40
2.999997758775326
  0
CIRCLE
  5
594
330
1F
100
AcDbEntity
  8
0
  6
DASHED
 62
     4
370
     0
100
AcDbCircle
 10
674.1351379001971
 20
453.9007665934217
 30
5.294369999999984
 40
2.999997758775326
  0
CIRCLE
  5
595
330
1F
100
AcDbEntity
  8
0
  6
Continuous
 62
     7
100
AcDbCircle
 10
679.5933891531221
 20
432.7421053404965
 30
5.294369999999998
 40
1.999998505850374
  0
CIRCLE
  5
596
330
1F
100
AcDbEntity
  8
0
  6
Continuous
 62
     7
100
AcDbCircle
 10
691.1165359001972
 20
432.7421045934212
 30
5.294369999999998
 40
2.99999775877522
  0
CIRCLE
  5
597
330
1F
100
AcDbEntity
  8
0
  6
DASHED
 62
     4
370
     0
100
AcDbCircle
 10
670.2817099001972
 20
464.1765805934217
 30
5.294369999999984
 40
2.999997758775326
  0
LINE
  5
598
330
1F
100
AcDbEntity
  8
0
  6
Continuous
 62
     7
100
AcDbLine
 10
1091.616533658972
 20
484.7421023521961
 30
-5.294369999999998
 11
891.4165336589721
 21
484.7421023521961
 31
-5.294369999999998
  0
LINE
  5
599
330
1F
100
AcDbEntity
  8
0
  6
Continuous
 62
     7
100
AcDbLine
 10
891.4165336589721
 20
204.7421023521963
 30
-5.294369999999998
 11
1091.616533658972
 21
204.7421023521963
 31
-5.294369999999998
  0
LINE
  5
59A
330
1F
100
AcDbEntity
  8
0
  6
Continuous
 62
     7
100
AcDbLine
 10
732.816533658972
 20
206.7421023521963
 30
-5.294369999999998
 11
732.816533658972
 21
482.7421023521959
 31
-5.294369999999998
  0
LINE
  5
59B
330
1F
100
AcDbEntity
  8
0
  6
Continuous
 62
     7
100
AcDbLine
 10
732.816533658972
 20
484.7421023521961
 30
-5.294369999999998
 11
732.816533658972
 21
204.7421023521963
 31
-5.294369999999998
  0
LINE
  5
59C
330
1F
100
AcDbEntity
  8
0
  6
Continuous
 62
     7
100
AcDbLine
 10
892.6165336589724
 20
484.7421023521961
 30
-5.294369999999998
 11
892.6165336589724
 21
204.7421023521963
 31
-5.294369999999998
  0
LINE
  5
59D
330
1F
100
AcDbEntity
  8
0
  6
Continuous
 62
     7
100
AcDbLine
 10
891.4165336589721
 20
484.7421023521961
 30
-5.294369999999998
 11
891.4165336589721
 21
204.7421023521963
 31
-5.294369999999998
  0
LINE
  5
59E
330
1F
100
AcDbEntity
  8
0
  6
DASHED
 62
     4
 48
5.0
100
AcDbLine
 10
714.4165336589723
 20
212.7421023521963
 30
-5.294369999999998
 11
714.4165336589723
 21
227.6894423521962
 31
-5.294369999999998
  0
LINE
  5
59F
330
1F
100
AcDbEntity
  8
0
  6
DASHED
 62
     4
 48
5.0
100
AcDbLine
 10
698.4165336589718
 20
227.4628523521963
 30
-5.294369999999998
 11
698.4165336589718
 21
212.7421023521963
 31
-5.294369999999998
  0
LINE
  5
5A0
330
1F
100
AcDbEntity
  8
0
  6
Continuous
 62
     7
100
AcDbLine
 10
725.1165336589723
 20
204.7421023521963
 30
-5.294369999999998
 11
732.816533658972
 21
204.7421023521963
 31
-5.294369999999998
  0
ARC
  5
5A1
330
1F
100
AcDbEntity
  8
0
  6
DASHED
 62
     4
 48
5.0
100
AcDbCircle
 10
712.4165351531226
 20
212.7421008580461
 30
-5.294369999999998
 40
1.999998505850204
100
AcDbArc
 50
269.9999571957111
 51
0.0000428042888088
  0
LINE
  5
5A2
330
1F
100
AcDbEntity
  8
0
  6
DASHED
 62
     4
 48
5.0
100
AcDbLine
 10
700.416533658972
 20
210.7421023521963
 30
-5.294369999999998
 11
712.4165336589722
 21
210.7421023521963
 31
-5.294369999999998
  0
LINE
  5
5A3
330
1F
100
AcDbEntity
  8
0
  6
Continuous
 62
     7
100
AcDbLine
 10
729.1165336589723
 20
204.7421023521963
 30
-5.294369999999998
 11
730.816533658972
 21
204.7421023521963
 31
-5.294369999999998
  0
LINE
  5
5A4
330
1F
100
AcDbEntity
  8
0
  6
Continuous
 62
     7
100
AcDbLine
 10
731.616533658972
 20
204.7421023521963
 30
-5.294369999999998
 11
731.616533658972
 21
197.7421023521963
 31
-5.294369999999998
  0
LINE
  5
5A5
330
1F
100
AcDbEntity
  8
0
  6
Continuous
 62
     7
 48
6.0
100
AcDbLine
 10
729.1165356589718
 20
239.2421163521962
 30
-5.294369999999998
 11
729.1165356589718
 21
239.2421163521962
 31
-5.294369999999998
  0
LINE
  5
5A6
330
1F
100
AcDbEntity
  8
0
  6
Continuous
 62
     7
 48
6.0
100
AcDbLine
 10
727.616535658972
 20
239.2421163521962
 30
-5.294369999999998
 11
729.1165356589718
 21
239.2421163521962
 31
-5.294369999999998
  0
LINE
  5
5A7
330
1F
100
AcDbEntity
  8
0
  6
Continuous
 62
     7
 48
6.0
100
AcDbLine
 10
727.616535658972
 20
237.7421163521962
 30
-5.294369999999998
 11
727.616535658972
 21
239.2421163521962
 31
-5.294369999999998
  0
LINE
  5
5A8
330
1F
100
AcDbEntity
  8
0
  6
Continuous
 62
     7
 48
6.0
100
AcDbLine
 10
726.616535658972
 20
237.7421163521962
 30
-5.294369999999998
 11
727.616535658972
 21
237.7421163521962
 31
-5.294369999999998
  0
LINE
  5
5A9
330
1F
100
AcDbEntity
  8
0
  6
Continuous
 62
     7
 48
6.0
100
AcDbLine
 10
726.616535658972
 20
239.2421163521962
 30
-5.294369999999998
 11
726.616535658972
 21
237.7421163521962
 31
-5.294369999999998
  0
LINE
  5
5AA
330
1F
100
AcDbEntity
  8
0
  6
Continuous
 62
     7
 48
6.0
100
AcDbLine
 10
725.1165356589718
 20
239.2421163521962
 30
-5.294369999999998
 11
726.616535658972
 21
239.2421163521962
 31
-5.294369999999998
  0
LINE
  5
5AB
330
1F
100
AcDbEntity
  8
0
  6
Continuous
 62
     7
 48
6.0
100
AcDbLine
 10
725.1165356589718
 20
240.2421163521962
 30
-5.294369999999998
 11
725.1165356589718
 21
239.2421163521962
 31
-5.294369999999998
  0
LINE
  5
5AC
330
1F
100
AcDbEntity
  8
0
  6
Continuous
 62
     7
 48
6.0
100
AcDbLine
 10
726.616535658972
 20
240.2421163521962
 30
-5.294369999999998
 11
725.1165356589718
 21
240.2421163521962
 31
-5.294369999999998
  0
LINE
  5
5AD
330
1F
100
AcDbEntity
  8
0
  6
Continuous
 62
     7
 48
6.0
100
AcDbLine
 10
726.616535658972
 20
241.7421163521962
 30
-5.294369999999998
 11
726.616535658972
 21
240.2421163521962
 31
-5.294369999999998
  0
LINE
  5
5AE
330
1F
100
AcDbEntity
  8
0
  6
Continuous
 62
     7
 48
6.0
100
AcDbLine
 10
727.616535658972
 20
241.7421163521962
 30
-5.294369999999998
 11
726.616535658972
 21
241.7421163521962
 31
-5.294369999999998
  0
LINE
  5
5AF
330
1F
100
AcDbEntity
  8
0
  6
Continuous
 62
     7
 48
6.0
100
AcDbLine
 10
727.616535658972
 20
240.2421163521962
 30
-5.294369999999998
 11
727.616535658972
 21
241.7421163521962
 31
-5.294369999999998
  0
LINE
  5
5B0
330
1F
100
AcDbEntity
  8
0
  6
Continuous
 62
     7
 48
6.0
100
AcDbLine
 10
729.1165356589718
 20
240.2421163521962
 30
-5.294369999999998
 11
727.616535658972
 21
240.2421163521962
 31
-5.294369999999998
  0
LINE
  5
5B1
330
1F
100
AcDbEntity
  8
0
  6
Continuous
 62
     7
 48
6.0
100
AcDbLine
 10
729.1165356589718
 20
239.2421163521962
 30
-5.294369999999998
 11
729.1165356589718
 21
240.2421163521962
 31
-5.294369999999998
  0
LINE
  5
5B2
330
1F
100
AcDbEntity
  8
0
  6
Continuous
 62
     7
100
AcDbLine
 10
733.816533658972
 20
229.702114352196
 30
-5.294369999999998
 11
732.816533658972
 21
229.702114352196
 31
-5.294369999999998
  0
LINE
  5
5B3
330
1F
100
AcDbEntity
  8
0
  6
Continuous
 62
     7
100
AcDbLine
 10
733.816533658972
 20
239.7821143521964
 30
-5.294369999999998
 11
732.816533658972
 21
239.7821143521964
 31
-5.294369999999998
  0
LINE
  5
5B4
330
1F
100
AcDbEntity
  8
0
  6
Continuous
 62
     7
100
AcDbLine
 10
734.816533658972
 20
231.1421163521962
 30
-5.294369999999998
 11
733.816533658972
 21
231.1421163521962
 31
-5.294369999999998
  0
LINE
  5
5B5
330
1F
100
AcDbEntity
  8
0
  6
Continuous
 62
     7
100
AcDbLine
 10
734.816533658972
 20
238.3421163521961
 30
-5.294369999999998
 11
733.816533658972
 21
238.3421163521961
 31
-5.294369999999998
  0
LINE
  5
5B6
330
1F
100
AcDbEntity
  8
0
  6
Continuous
 62
     7
100
AcDbLine
 10
732.816533658972
 20
239.7821143521964
 30
-5.294369999999998
 11
732.816533658972
 21
229.702114352196
 31
-5.294369999999998
  0
LINE
  5
5B7
330
1F
100
AcDbEntity
  8
0
  6
Continuous
 62
     7
100
AcDbLine
 10
733.816533658972
 20
239.7821143521964
 30
-5.294369999999998
 11
733.816533658972
 21
229.702114352196
 31
-5.294369999999998
  0
LINE
  5
5B8
330
1F
100
AcDbEntity
  8
0
  6
Continuous
 62
     7
100
AcDbLine
 10
736.7365336589723
 20
236.4221163521961
 30
-5.294369999999998
 11
736.7365336589723
 21
233.0621163521964
 31
-5.294369999999998
  0
LINE
  5
5B9
330
1F
100
AcDbEntity
  8
0
  6
Continuous
 62
     7
100
AcDbLine
 10
728.8665336589716
 20
393.7421023521961
 30
-5.294369999999998
 11
728.8665336589716
 21
432.3054183521965
 31
-5.294369999999998
  0
LINE
  5
5BA
330
1F
100
AcDbEntity
  8
0
  6
Continuous
 62
     7
100
AcDbLine
 10
725.366533658972
 20
393.7421023521961
 30
-5.294369999999998
 11
725.366533658972
 21
432.3054183521965
 31
-5.294369999999998
  0
LINE
  5
5BB
330
1F
100
AcDbEntity
  8
0
  6
Continuous
 62
     7
100
AcDbLine
 10
728.8665336589716
 20
437.1788143521963
 30
-5.294369999999998
 11
728.8665336589716
 21
472.1452283521966
 31
-5.294369999999998
  0
LINE
  5
5BC
330
1F
100
AcDbEntity
  8
0
  6
Continuous
 62
     7
100
AcDbLine
 10
725.366533658972
 20
437.1788143521963
 30
-5.294369999999998
 11
725.366533658972
 21
472.1452283521966
 31
-5.294369999999998
  0
LINE
  5
5BD
330
1F
100
AcDbEntity
  8
0
  6
Continuous
 62
     7
 48
6.0
100
AcDbLine
 10
729.1165356589718
 20
434.242116352196
 30
-5.294369999999998
 11
729.1165356589718
 21
434.242116352196
 31
-5.294369999999998
  0
LINE
  5
5BE
330
1F
100
AcDbEntity
  8
0
  6
Continuous
 62
     7
 48
6.0
100
AcDbLine
 10
727.616535658972
 20
434.242116352196
 30
-5.294369999999998
 11
729.1165356589718
 21
434.242116352196
 31
-5.294369999999998
  0
LINE
  5
5BF
330
1F
100
AcDbEntity
  8
0
  6
Continuous
 62
     7
 48
6.0
100
AcDbLine
 10
727.616535658972
 20
432.7421163521959
 30
-5.294369999999998
 11
727.616535658972
 21
434.242116352196
 31
-5.294369999999998
  0
LINE
  5
5C0
330
1F
100
AcDbEntity
  8
0
  6
Continuous
 62
     7
 48
6.0
100
AcDbLine
 10
726.616535658972
 20
432.7421163521959
 30
-5.294369999999998
 11
727.616535658972
 21
432.7421163521959
 31
-5.294369999999998
  0
LINE
  5
5C1
330
1F
100
AcDbEntity
  8
0
  6
Continuous
 62
     7
 48
6.0
100
AcDbLine
 10
726.616535658972
 20
434.242116352196
 30
-5.294369999999998
 11
726.616535658972
 21
432.7421163521959
 31
-5.294369999999998
  0
LINE
  5
5C2
330
1F
100
AcDbEntity
  8
0
  6
Continuous
 62
     7
 48
6.0
100
AcDbLine
 10
725.1165356589718
 20
434.242116352196
 30
-5.294369999999998
 11
726.616535658972
 21
434.242116352196
 31
-5.294369999999998
  0
LINE
  5
5C3
330
1F
100
AcDbEntity
  8
0
  6
Continuous
 62
     7
 48
6.0
100
AcDbLine
 10
725.1165356589718
 20
435.242116352196
 30
-5.294369999999998
 11
725.1165356589718
 21
434.242116352196
 31
-5.294369999999998
  0
LINE
  5
5C4
330
1F
100
AcDbEntity
  8
0
  6
Continuous
 62
     7
 48
6.0
100
AcDbLine
 10
726.616535658972
 20
435.242116352196
 30
-5.294369999999998
 11
725.1165356589718
 21
435.242116352196
 31
-5.294369999999998
  0
LINE
  5
5C5
330
1F
100
AcDbEntity
  8
0
  6
Continuous
 62
     7
 48
6.0
100
AcDbLine
 10
726.616535658972
 20
436.7421163521959
 30
-5.294369999999998
 11
726.616535658972
 21
435.242116352196
 31
-5.294369999999998
  0
LINE
  5
5C6
330
1F
100
AcDbEntity
  8
0
  6
Continuous
 62
     7
 48
6.0
100
AcDbLine
 10
727.616535658972
 20
436.7421163521959
 30
-5.294369999999998
 11
726.616535658972
 21
436.7421163521959
 31
-5.294369999999998
  0
LINE
  5
5C7
330
1F
100
AcDbEntity
  8
0
  6
Continuous
 62
     7
 48
6.0
100
AcDbLine
 10
727.616535658972
 20
435.242116352196
 30
-5.294369999999998
 11
727.616535658972
 21
436.7421163521959
 31
-5.294369999999998
  0
LINE
  5
5C8
330
1F
100
AcDbEntity
  8
0
  6
Continuous
 62
     7
 48
6.0
100
AcDbLine
 10
729.1165356589718
 20
435.242116352196
 30
-5.294369999999998
 11
727.616535658972
 21
435.242116352196
 31
-5.294369999999998
  0
LINE
  5
5C9
330
1F
100
AcDbEntity
  8
0
  6
Continuous
 62
     7
 48
6.0
100
AcDbLine
 10
729.1165356589718
 20
434.242116352196
 30
-5.294369999999998
 11
729.1165356589718
 21
435.242116352196
 31
-5.294369999999998
  0
LINE
  5
5CA
330
1F
100
AcDbEntity
  8
0
  6
Continuous
 62
     7
100
AcDbLine
 10
733.816533658972
 20
429.7021143521959
 30
-5.294369999999998
 11
732.816533658972
 21
429.7021143521959
 31
-5.294369999999998
  0
LINE
  5
5CB
330
1F
100
AcDbEntity
  8
0
  6
Continuous
 62
     7
100
AcDbLine
 10
733.816533658972
 20
439.7821143521963
 30
-5.294369999999998
 11
732.816533658972
 21
439.7821143521963
 31
-5.294369999999998
  0
LINE
  5
5CC
330
1F
100
AcDbEntity
  8
0
  6
Continuous
 62
     7
100
AcDbLine
 10
734.816533658972
 20
431.1421163521962
 30
-5.294369999999998
 11
733.816533658972
 21
431.1421163521962
 31
-5.294369999999998
  0
LINE
  5
5CD
330
1F
100
AcDbEntity
  8
0
  6
Continuous
 62
     7
100
AcDbLine
 10
734.816533658972
 20
438.3421163521961
 30
-5.294369999999998
 11
733.816533658972
 21
438.3421163521961
 31
-5.294369999999998
  0
LINE
  5
5CE
330
1F
100
AcDbEntity
  8
0
  6
Continuous
 62
     7
100
AcDbLine
 10
732.816533658972
 20
439.7821143521963
 30
-5.294369999999998
 11
732.816533658972
 21
429.7021143521959
 31
-5.294369999999998
  0
LINE
  5
5CF
330
1F
100
AcDbEntity
  8
0
  6
Continuous
 62
     7
100
AcDbLine
 10
733.816533658972
 20
439.7821143521963
 30
-5.294369999999998
 11
733.816533658972
 21
429.7021143521959
 31
-5.294369999999998
  0
LINE
  5
5D0
330
1F
100
AcDbEntity
  8
0
  6
Continuous
 62
     7
100
AcDbLine
 10
736.7365336589723
 20
436.422116352196
 30
-5.294369999999998
 11
736.7365336589723
 21
433.0621163521964
 31
-5.294369999999998
  0
LINE
  5
5D1
330
1F
100
AcDbEntity
  8
0
  6
Continuous
 62
     7
100
AcDbLine
 10
731.616533658972
 20
506.7421023521959
 30
-5.294369999999998
 11
731.616533658972
 21
484.7421023521961
 31
-5.294369999999998
  0
LINE
  5
5D2
330
1F
100
AcDbEntity
  8
0
  6
Continuous
 62
     7
100
AcDbLine
 10
1091.616533658972
 20
189.7421023521964
 30
-5.294369999999998
 11
1091.616533658972
 21
514.7421023521965
 31
-5.294369999999998
  0
LINE
  5
5D3
330
1F
100
AcDbEntity
  8
0
  6
DASHED
 62
     4
 48
5.0
100
AcDbLine
 10
1000.116511658972
 20
210.7421143521963
 30
-5.294369999999998
 11
1000.116511658972
 21
229.4921143521964
 31
-5.294369999999998
  0
LINE
  5
5D4
330
1F
100
AcDbEntity
  8
0
  6
DASHED
 62
     4
 48
5.0
100
AcDbLine
 10
997.1165116589723
 20
229.301362352196
 30
-5.294369999999998
 11
997.1165116589723
 21
210.7421143521963
 31
-5.294369999999998
  0
LINE
  5
5D5
330
1F
100
AcDbEntity
  8
0
  6
DASHED
 62
     4
 48
5.0
100
AcDbLine
 10
997.1165116589723
 20
210.7421143521963
 30
-5.294369999999998
 11
1000.116511658972
 21
210.7421143521963
 31
-5.294369999999998
  0
LINE
  5
5D6
330
1F
100
AcDbEntity
  8
0
  6
Continuous
 62
     7
100
AcDbLine
 10
1090.416533658972
 20
189.7421023521964
 30
-5.294369999999998
 11
1090.416533658972
 21
204.7421023521963
 31
-5.294369999999998
  0
LINE
  5
5D7
330
1F
100
AcDbEntity
  8
0
  6
Continuous
 62
     7
100
AcDbLine
 10
1090.416533658972
 20
189.7421023521964
 30
-5.294369999999998
 11
1091.616533658972
 21
189.7421023521964
 31
-5.294369999999998
  0
LINE
  5
5D8
330
1F
100
AcDbEntity
  8
0
  6
Continuous
 62
     7
 48
6.0
100
AcDbLine
 10
1031.996513658971
 20
233.9621163521961
 30
-5.294369999999998
 11
1034.336513658972
 21
233.9621163521961
 31
-5.294369999999998
  0
LINE
  5
5D9
330
1F
100
AcDbEntity
  8
0
  6
Continuous
 62
     7
 48
6.0
100
AcDbLine
 10
1034.336513658972
 20
235.5221163521963
 30
-5.294369999999998
 11
1031.996513658971
 21
235.5221163521963
 31
-5.294369999999998
  0
LINE
  5
5DA
330
1F
100
AcDbEntity
  8
0
  6
Continuous
 62
     7
 48
6.0
100
AcDbLine
 10
1031.996513658971
 20
235.5221163521963
 30
-5.294369999999998
 11
1031.996513658971
 21
233.9621163521961
 31
-5.294369999999998
  0
LINE
  5
5DB
330
1F
100
AcDbEntity
  8
0
  6
Continuous
 62
     7
 48
6.0
100
AcDbLine
 10
1038.236513658971
 20
233.9621163521961
 30
-5.294369999999998
 11
1038.236513658971
 21
233.9621163521961
 31
-5.294369999999998
  0
LINE
  5
5DC
330
1F
100
AcDbEntity
  8
0
  6
Continuous
 62
     7
 48
6.0
100
AcDbLine
 10
1035.896513658972
 20
233.9621163521961
 30
-5.294369999999998
 11
1038.236513658971
 21
233.9621163521961
 31
-5.294369999999998
  0
LINE
  5
5DD
330
1F
100
AcDbEntity
  8
0
  6
Continuous
 62
     7
 48
6.0
100
AcDbLine
 10
1035.896513658972
 20
231.622116352196
 30
-5.294369999999998
 11
1035.896513658972
 21
233.9621163521961
 31
-5.294369999999998
  0
LINE
  5
5DE
330
1F
100
AcDbEntity
  8
0
  6
Continuous
 62
     7
 48
6.0
100
AcDbLine
 10
1034.336513658972
 20
231.622116352196
 30
-5.294369999999998
 11
1035.896513658972
 21
231.622116352196
 31
-5.294369999999998
  0
LINE
  5
5DF
330
1F
100
AcDbEntity
  8
0
  6
Continuous
 62
     7
 48
6.0
100
AcDbLine
 10
1034.336513658972
 20
233.9621163521961
 30
-5.294369999999998
 11
1034.336513658972
 21
231.622116352196
 31
-5.294369999999998
  0
LINE
  5
5E0
330
1F
100
AcDbEntity
  8
0
  6
Continuous
 62
     7
 48
6.0
100
AcDbLine
 10
1034.336513658972
 20
237.8621163521961
 30
-5.294369999999998
 11
1034.336513658972
 21
235.5221163521963
 31
-5.294369999999998
  0
LINE
  5
5E1
330
1F
100
AcDbEntity
  8
0
  6
Continuous
 62
     7
 48
6.0
100
AcDbLine
 10
1035.896513658972
 20
237.8621163521961
 30
-5.294369999999998
 11
1034.336513658972
 21
237.8621163521961
 31
-5.294369999999998
  0
LINE
  5
5E2
330
1F
100
AcDbEntity
  8
0
  6
Continuous
 62
     7
 48
6.0
100
AcDbLine
 10
1035.896513658972
 20
235.5221163521963
 30
-5.294369999999998
 11
1035.896513658972
 21
237.8621163521961
 31
-5.294369999999998
  0
LINE
  5
5E3
330
1F
100
AcDbEntity
  8
0
  6
Continuous
 62
     7
 48
6.0
100
AcDbLine
 10
1038.236513658971
 20
235.5221163521963
 30
-5.294369999999998
 11
1035.896513658972
 21
235.5221163521963
 31
-5.294369999999998
  0
LINE
  5
5E4
330
1F
100
AcDbEntity
  8
0
  6
Continuous
 62
     7
 48
6.0
100
AcDbLine
 10
1038.236513658971
 20
233.9621163521961
 30
-5.294369999999998
 11
1038.236513658971
 21
235.5221163521963
 31
-5.294369999999998
  0
LINE
  5
5E5
330
1F
100
AcDbEntity
  8
0
  6
Continuous
 62
     7
 48
6.0
100
AcDbLine
 10
1031.996513658971
 20
433.9621163521959
 30
-5.294369999999998
 11
1034.336513658972
 21
433.9621163521959
 31
-5.294369999999998
  0
LINE
  5
5E6
330
1F
100
AcDbEntity
  8
0
  6
Continuous
 62
     7
 48
6.0
100
AcDbLine
 10
1034.336513658972
 20
435.5221163521965
 30
-5.294369999999998
 11
1031.996513658971
 21
435.5221163521965
 31
-5.294369999999998
  0
LINE
  5
5E7
330
1F
100
AcDbEntity
  8
0
  6
Continuous
 62
     7
 48
6.0
100
AcDbLine
 10
1031.996513658971
 20
435.5221163521965
 30
-5.294369999999998
 11
1031.996513658971
 21
433.9621163521959
 31
-5.294369999999998
  0
LINE
  5
5E8
330
1F
100
AcDbEntity
  8
0
  6
Continuous
 62
     7
 48
6.0
100
AcDbLine
 10
1038.236513658971
 20
433.9621163521959
 30
-5.294369999999998
 11
1038.236513658971
 21
433.9621163521959
 31
-5.294369999999998
  0
LINE
  5
5E9
330
1F
100
AcDbEntity
  8
0
  6
Continuous
 62
     7
 48
6.0
100
AcDbLine
 10
1035.896513658972
 20
433.9621163521959
 30
-5.294369999999998
 11
1038.236513658971
 21
433.9621163521959
 31
-5.294369999999998
  0
LINE
  5
5EA
330
1F
100
AcDbEntity
  8
0
  6
Continuous
 62
     7
 48
6.0
100
AcDbLine
 10
1035.896513658972
 20
431.622116352196
 30
-5.294369999999998
 11
1035.896513658972
 21
433.9621163521959
 31
-5.294369999999998
  0
LINE
  5
5EB
330
1F
100
AcDbEntity
  8
0
  6
Continuous
 62
     7
 48
6.0
100
AcDbLine
 10
1034.336513658972
 20
431.622116352196
 30
-5.294369999999998
 11
1035.896513658972
 21
431.622116352196
 31
-5.294369999999998
  0
LINE
  5
5EC
330
1F
100
AcDbEntity
  8
0
  6
Continuous
 62
     7
 48
6.0
100
AcDbLine
 10
1034.336513658972
 20
433.9621163521959
 30
-5.294369999999998
 11
1034.336513658972
 21
431.622116352196
 31
-5.294369999999998
  0
LINE
  5
5ED
330
1F
100
AcDbEntity
  8
0
  6
Continuous
 62
     7
 48
6.0
100
AcDbLine
 10
1034.336513658972
 20
437.8621163521962
 30
-5.294369999999998
 11
1034.336513658972
 21
435.5221163521965
 31
-5.294369999999998
  0
LINE
  5
5EE
330
1F
100
AcDbEntity
  8
0
  6
Continuous
 62
     7
 48
6.0
100
AcDbLine
 10
1035.896513658972
 20
437.8621163521962
 30
-5.294369999999998
 11
1034.336513658972
 21
437.8621163521962
 31
-5.294369999999998
  0
LINE
  5
5EF
330
1F
100
AcDbEntity
  8
0
  6
Continuous
 62
     7
 48
6.0
100
AcDbLine
 10
1035.896513658972
 20
435.5221163521965
 30
-5.294369999999998
 11
1035.896513658972
 21
437.8621163521962
 31
-5.294369999999998
  0
LINE
  5
5F0
330
1F
100
AcDbEntity
  8
0
  6
Continuous
 62
     7
 48
6.0
100
AcDbLine
 10
1038.236513658971
 20
435.5221163521965
 30
-5.294369999999998
 11
1035.896513658972
 21
435.5221163521965
 31
-5.294369999999998
  0
LINE
  5
5F1
330
1F
100
AcDbEntity
  8
0
  6
Continuous
 62
     7
 48
6.0
100
AcDbLine
 10
1038.236513658971
 20
433.9621163521959
 30
-5.294369999999998
 11
1038.236513658971
 21
435.5221163521965
 31
-5.294369999999998
  0
LINE
  5
5F2
330
1F
100
AcDbEntity
  8
0
  6
Continuous
 62
     7
100
AcDbLine
 10
1090.416533658972
 20
484.7421023521961
 30
-5.294369999999998
 11
1090.416533658972
 21
514.7421023521965
 31
-5.294369999999998
  0
LINE
  5
5F3
330
1F
100
AcDbEntity
  8
0
  6
Continuous
 62
     7
100
AcDbLine
 10
1091.616533658972
 20
514.7421023521965
 30
-5.294369999999998
 11
1090.416533658972
 21
514.7421023521965
 31
-5.294369999999998
  0
ARC
  5
5F4
330
1F
100
AcDbEntity
  8
0
  6
Continuous
 62
     7
100
AcDbCircle
 10
730.8165351531229
 20
206.7421008580461
 30
5.294369999999998
 40
1.999998505850204
100
AcDbArc
 50
269.9999571957111
 51
0.0000428042888088
  0
ARC
  5
5F5
330
1F
100
AcDbEntity
  8
0
  6
Continuous
 62
     7
100
AcDbCircle
 10
723.6165396355731
 20
197.7420963755946
 30
5.294369999999998
 40
7.999994023400817
100
AcDbArc
 50
269.9999571957111
 51
0.0000428042888088
  0
CIRCLE
  5
5F6
330
1F
100
AcDbEntity
  8
0
  6
DASHED
 62
     4
370
     0
100
AcDbCircle
 10
706.4165355266602
 20
217.7421042198841
 30
5.294369999999998
 40
2.499998132312644
  0
LINE
  5
5F7
330
1F
100
AcDbEntity
  8
0
  6
DASHED
 62
     4
 48
5.0
100
AcDbLine
 10
708.9165336589722
 20
217.7421023521963
 30
5.294369999999998
 11
708.9165336589722
 21
217.7421023521963
 31
5.294369999999998
  0
ARC
  5
5F8
330
1F
100
AcDbEntity
  8
0
  6
Continuous
 62
     7
100
AcDbCircle
 10
727.1165336589716
 20
204.7421023521963
 30
5.294369999999998
 40
2.0
100
AcDbArc
 50
0.0
 51
180.0
  0
CIRCLE
  5
5F9
330
1F
100
AcDbEntity
  8
0
  6
Continuous
 62
     7
370
     0
100
AcDbCircle
 10
727.1165359001972
 20
239.7421185934216
 30
5.294369999999998
 40
2.99999775877522
  0
ARC
  5
5FA
330
1F
100
AcDbEntity
  8
0
  6
Continuous
 62
     7
100
AcDbCircle
 10
727.1165326589721
 20
234.7421010189108
 30
5.294369999999998
 40
4.000000066637806
100
AcDbArc
 50
126.8697715955473
 51
53.13022840445241
  0
ARC
  5
5FB
330
1F
100
AcDbEntity
  8
0
  6
Continuous
 62
     7
100
AcDbCircle
 10
734.8165350933568
 20
233.062114917812
 30
5.294369999999998
 40
1.919998565616164
100
AcDbArc
 50
269.9999571957111
 51
0.0000428042855519
  0
ARC
  5
5FC
330
1F
100
AcDbEntity
  8
0
  6
Continuous
 62
     7
100
AcDbCircle
 10
734.8165350933568
 20
236.4221177865803
 30
5.294369999999998
 40
1.91999856561605
100
AcDbArc
 50
359.9999571957177
 51
90.00004280428877
  0
ELLIPSE
  5
5FD
330
1F
100
AcDbEntity
  8
0
  6
Continuous
 62
     7
100
AcDbEllipse
 10
891.4165316589723
 20
239.742102352196
 30
5.294369999999998
 11
0.0
 21
-3.0
 31
0.0
210
0.0
220
0.0
230
1.0
 40
0.8380139999999999
 41
3.141592697301183
 42
6.283185263468196
  0
CIRCLE
  5
5FE
330
1F
100
AcDbEntity
  8
0
  6
Continuous
 62
     7
100
AcDbCircle
 10
708.1165359001969
 20
371.7421045934207
 30
5.294369999999998
 40
2.99999775877522
  0
LINE
  5
5FF
330
1F
100
AcDbEntity
  8
0
  6
Continuous
 62
     7
100
AcDbLine
 10
707.116533658972
 20
399.7421068346469
 30
5.294369999999998
 11
707.116533658972
 21
391.7421068346466
 31
5.294369999999998
  0
LINE
  5
600
330
1F
100
AcDbEntity
  8
0
  6
Continuous
 62
     7
100
AcDbLine
 10
707.116533658972
 20
387.7421068346466
 30
5.294369999999998
 11
707.116533658972
 21
379.7421068346466
 31
5.294369999999998
  0
ARC
  5
601
330
1F
100
AcDbEntity
  8
0
  6
Continuous
 62
     7
100
AcDbCircle
 10
727.1165336589716
 20
393.7421023521961
 30
5.294369999999998
 40
1.75
100
AcDbArc
 50
180.0
 51
0.0
  0
CIRCLE
  5
602
330
1F
100
AcDbEntity
  8
0
  6
Continuous
 62
     7
100
AcDbCircle
 10
701.1165359001973
 20
419.742104593421
 30
5.294369999999998
 40
2.99999775877522
  0
CIRCLE
  5
603
330
1F
100
AcDbEntity
  8
0
  6
Continuous
 62
     7
100
AcDbCircle
 10
701.1165359001973
 20
406.7421045934208
 30
5.294369999999998
 40
2.999997758775106
  0
CIRCLE
  5
604
330
1F
100
AcDbEntity
  8
0
  6
Continuous
 62
     7
100
AcDbCircle
 10
701.1165359001973
 20
432.7421045934212
 30
5.294369999999998
 40
2.99999775877522
  0
CIRCLE
  5
605
330
1F
100
AcDbEntity
  8
0
  6
Continuous
 62
     7
370
     0
100
AcDbCircle
 10
727.1165359001972
 20
434.7421185934218
 30
5.294369999999998
 40
2.99999775877533
  0
ARC
  5
606
330
1F
100
AcDbEntity
  8
0
  6
Continuous
 62
     7
100
AcDbCircle
 10
727.1165336589716
 20
475.7421023145572
 30
5.294369999999998
 40
4.000000287638878
100
AcDbArc
 50
295.9444777677891
 51
244.0555222322108
  0
ARC
  5
607
330
1F
100
AcDbEntity
  8
0
  6
Continuous
 62
     7
100
AcDbCircle
 10
734.8165350933568
 20
433.0621149178121
 30
5.294369999999998
 40
1.919998565616164
100
AcDbArc
 50
269.9999571957111
 51
0.0000428042855519
  0
ARC
  5
608
330
1F
100
AcDbEntity
  8
0
  6
Continuous
 62
     7
100
AcDbCircle
 10
734.8165350933568
 20
436.4221177865807
 30
5.294369999999998
 40
1.919998565615935
100
AcDbArc
 50
359.9999571957177
 51
90.00004280428877
  0
ARC
  5
609
330
1F
100
AcDbEntity
  8
0
  6
Continuous
 62
     7
100
AcDbCircle
 10
730.8165351531224
 20
482.7421038463461
 30
5.294369999999998
 40
1.999998505850374
100
AcDbArc
 50
359.9999571957078
 51
90.0000428042823
  0
ARC
  5
60A
330
1F
100
AcDbEntity
  8
0
  6
Continuous
 62
     7
100
AcDbCircle
 10
723.6165396355731
 20
506.7421083287978
 30
5.294369999999998
 40
7.99999402340093
100
AcDbArc
 50
359.9999571957112
 51
90.0000428042823
  0
ELLIPSE
  5
60B
330
1F
100
AcDbEntity
  8
0
  6
Continuous
 62
     7
100
AcDbEllipse
 10
891.4165316589723
 20
434.7421023521961
 30
5.294369999999998
 11
0.0
 21
-3.0
 31
0.0
210
0.0
220
0.0
230
1.0
 40
0.8380139999999999
 41
3.141592697301183
 42
6.283185263468196
  0
CIRCLE
  5
60C
330
1F
100
AcDbEntity
  8
0
  6
Continuous
 62
     7
370
     0
100
AcDbCircle
 10
1035.116516141423
 20
234.7421188346476
 30
5.294369999999998
 40
5.999995517550666
  0
CIRCLE
  5
60D
330
1F
100
AcDbEntity
  8
0
  6
Continuous
 62
     7
370
     0
100
AcDbCircle
 10
1035.116516141423
 20
234.7421188346476
 30
5.294369999999998
 40
4.679995517551206
  0
CIRCLE
  5
60E
330
1F
100
AcDbEntity
  8
0
  6
Continuous
 62
     7
370
     0
100
AcDbCircle
 10
1035.116516141423
 20
434.7421188346476
 30
5.294369999999998
 40
5.999995517550666
  0
CIRCLE
  5
60F
330
1F
100
AcDbEntity
  8
0
  6
Continuous
 62
     7
370
     0
100
AcDbCircle
 10
1035.116516141423
 20
434.7421188346476
 30
5.294369999999998
 40
4.679995517551206
  0
LINE
  5
A3A
330
1F
100
AcDbEntity
  8
0
  6
DASHED
 62
     4
 48
5.0
100
AcDbLine
 10
562.9065336589722
 20
449.4421023521962
 30
-5.294369999999998
 11
562.9065336589722
 21
468.4421023521961
 31
-5.294369999999998
  0
ENDSEC
  0
SECTION
  2
OBJECTS
  0
DICTIONARY
  5
C
330
0
100
AcDbDictionary
281
     1
  3
ACAD_GROUP
350
D
  3
ACAD_LAYOUT
350
1A
  3
ACAD_MLINESTYLE
350
17
  3
ACAD_PLOTSETTINGS
350
19
  3
ACAD_PLOTSTYLENAME
350
E
  0
DICTIONARY
  5
D
102
{ACAD_REACTORS
330
C
102
}
330
C
100
AcDbDictionary
281
     1
  0
DICTIONARY
  5
1A
102
{ACAD_REACTORS
330
C
102
}
330
C
100
AcDbDictionary
281
     1
  3
Model
350
22
  3
ﾚｲｱｳﾄ1
350
51
  0
DICTIONARY
  5
17
102
{ACAD_REACTORS
330
C
102
}
330
C
100
AcDbDictionary
281
     1
  3
Standard
350
18
  0
DICTIONARY
  5
19
102
{ACAD_REACTORS
330
C
102
}
330
C
100
AcDbDictionary
281
     1
  0
ACDBDICTIONARYWDFLT
  5
E
102
{ACAD_REACTORS
330
C
102
}
330
C
100
AcDbDictionary
281
     1
  3
Normal
350
F
100
AcDbDictionaryWithDefault
340
F
  0
LAYOUT
  5
22
102
{ACAD_REACTORS
330
1A
102
}
330
1A
100
AcDbPlotSettings
  1

  2
none_device
  4
ANSI_A_(8.50_x_11.00_Inches)
  6

 40
6.349999904632567
 41
19.04999923706053
 42
6.350006103515625
 43
19.04998779296875
 44
215.8999938964841
 45
279.3999938964843
 46
0.0
 47
0.0
 48
0.0
 49
0.0
140
0.0
141
0.0
142
1.0
143
78.436453180766
 70
 11952
 72
     0
 73
     1
 74
     0
  7

 75
     0
147
0.0127491741332998
148
0.0
149
0.0
100
AcDbLayout
  1
Model
 70
     1
 71
     0
 10
0.0
 20
0.0
 11
12.0
 21
9.0
 12
0.0
 22
0.0
 32
0.0
 14
0.0
 24
0.0
 34
0.0
 15
0.0
 25
0.0
 35
0.0
146
0.0
 13
0.0
 23
0.0
 33
0.0
 16
1.0
 26
0.0
 36
0.0
 17
0.0
 27
1.0
 37
0.0
 76
     0
330
1F
  0
LAYOUT
  5
51
102
{ACAD_REACTORS
330
1A
102
}
330
1A
100
AcDbPlotSettings
  1

  2
None
  4

  6

 40
0.0
 41
0.0
 42
0.0
 43
0.0
 44
0.0
 45
0.0
 46
0.0
 47
0.0
 48
0.0
 49
0.0
140
0.0
141
0.0
142
1.0
143
1.0
 70
   688
 72
     0
 73
     0
 74
     5
  7

 75
    16
147
1.0
148
0.0
149
0.0
100
AcDbLayout
  1
ﾚｲｱｳﾄ1
 70
     1
 71
     1
 10
0.0
 20
0.0
 11
12.0
 21
9.0
 12
0.0
 22
0.0
 32
0.0
 14
0.0
 24
0.0
 34
0.0
 15
0.0
 25
0.0
 35
0.0
146
0.0
 13
0.0
 23
0.0
 33
0.0
 16
1.0
 26
0.0
 36
0.0
 17
0.0
 27
1.0
 37
0.0
 76
     0
330
50
  0
MLINESTYLE
  5
18
102
{ACAD_REACTORS
330
17
102
}
330
17
100
AcDbMlineStyle
  2
STANDARD
 70
     0
  3

 62
   256
 51
90.0
 52
90.0
 71
     2
 49
0.5
 62
   256
  6
BYLAYER
 49
-0.5
 62
   256
  6
BYLAYER
  0
ACDBPLACEHOLDER
  5
F
102
{ACAD_REACTORS
330
E
102
}
330
E
  0
ENDSEC
  0
EOF
