  0
SECTION
  2
HEADER
  9
$ACADVER
  1
AC1015
  9
$ACADMAINTVER
 70
    10
  9
$DWGCODEPAGE
  3
ANSI_932
  9
$INSBASE
 10
0.0
 20
0.0
 30
0.0
  9
$EXTMIN
 10
358.2880826005244
 20
275.3270606608867
 30
-27.57701219793246
  9
$EXTMAX
 10
921.8057280405268
 20
603.640772660888
 30
4.221005039104992
  9
$LIMMIN
 10
0.0
 20
0.0
  9
$LIMMAX
 10
420.0
 20
297.0
  9
$ORTHOMODE
 70
     1
  9
$REGENMODE
 70
     1
  9
$FILLMODE
 70
     1
  9
$QTEXTMODE
 70
     0
  9
$MIRRTEXT
 70
     1
  9
$LTSCALE
 40
1.0
  9
$ATTMODE
 70
     1
  9
$TEXTSIZE
 40
2.5
  9
$TRACEWID
 40
1.0
  9
$TEXTSTYLE
  7
Standard
  9
$CLAYER
  8
0
  9
$CELTYPE
  6
ByLayer
  9
$CECOLOR
 62
   256
  9
$CELTSCALE
 40
1.0
  9
$DISPSILH
 70
     0
  9
$DIMSCALE
 40
1.0
  9
$DIMASZ
 40
2.5
  9
$DIMEXO
 40
0.625
  9
$DIMDLI
 40
3.75
  9
$DIMRND
 40
0.0
  9
$DIMDLE
 40
0.0
  9
$DIMEXE
 40
1.25
  9
$DIMTP
 40
0.0
  9
$DIMTM
 40
0.0
  9
$DIMTXT
 40
2.5
  9
$DIMCEN
 40
2.5
  9
$DIMTSZ
 40
0.0
  9
$DIMTOL
 70
     0
  9
$DIMLIM
 70
     0
  9
$DIMTIH
 70
     0
  9
$DIMTOH
 70
     0
  9
$DIMSE1
 70
     0
  9
$DIMSE2
 70
     0
  9
$DIMTAD
 70
     1
  9
$DIMZIN
 70
     8
  9
$DIMBLK
  1

  9
$DIMASO
 70
     1
  9
$DIMSHO
 70
     1
  9
$DIMPOST
  1

  9
$DIMAPOST
  1

  9
$DIMALT
 70
     0
  9
$DIMALTD
 70
     3
  9
$DIMALTF
 40
0.03937007874016
  9
$DIMLFAC
 40
1.0
  9
$DIMTOFL
 70
     1
  9
$DIMTVP
 40
0.0
  9
$DIMTIX
 70
     0
  9
$DIMSOXD
 70
     0
  9
$DIMSAH
 70
     0
  9
$DIMBLK1
  1

  9
$DIMBLK2
  1

  9
$DIMSTYLE
  2
ISO-25
  9
$DIMCLRD
 70
     0
  9
$DIMCLRE
 70
     0
  9
$DIMCLRT
 70
     0
  9
$DIMTFAC
 40
1.0
  9
$DIMGAP
 40
0.625
  9
$DIMJUST
 70
     0
  9
$DIMSD1
 70
     0
  9
$DIMSD2
 70
     0
  9
$DIMTOLJ
 70
     0
  9
$DIMTZIN
 70
     8
  9
$DIMALTZ
 70
     0
  9
$DIMALTTZ
 70
     0
  9
$DIMUPT
 70
     0
  9
$DIMDEC
 70
     2
  9
$DIMTDEC
 70
     2
  9
$DIMALTU
 70
     2
  9
$DIMALTTD
 70
     3
  9
$DIMTXSTY
  7
Standard
  9
$DIMAUNIT
 70
     0
  9
$DIMADEC
 70
     0
  9
$DIMALTRND
 40
0.0
  9
$DIMAZIN
 70
     0
  9
$DIMDSEP
 70
    44
  9
$DIMATFIT
 70
     3
  9
$DIMFRAC
 70
     0
  9
$DIMLDRBLK
  1

  9
$DIMLUNIT
 70
     2
  9
$DIMLWD
 70
    -2
  9
$DIMLWE
 70
    -2
  9
$DIMTMOVE
 70
     0
  9
$LUNITS
 70
     2
  9
$LUPREC
 70
     4
  9
$SKETCHINC
 40
1.0
  9
$FILLETRAD
 40
10.0
  9
$AUNITS
 70
     0
  9
$AUPREC
 70
     0
  9
$MENU
  1
.
  9
$ELEVATION
 40
0.0
  9
$PELEVATION
 40
0.0
  9
$THICKNESS
 40
0.0
  9
$LIMCHECK
 70
     0
  9
$CHAMFERA
 40
10.0
  9
$CHAMFERB
 40
10.0
  9
$CHAMFERC
 40
20.0
  9
$CHAMFERD
 40
0.0
  9
$SKPOLY
 70
     0
  9
$TDCREATE
 40
2456499.800125879
  9
$TDUCREATE
 40
2456499.425125879
  9
$TDUPDATE
 40
2456500.623945937
  9
$TDUUPDATE
 40
2456500.248945937
  9
$TDINDWG
 40
0.0974444329
  9
$TDUSRTIMER
 40
0.0974439005
  9
$USRTIMER
 70
     1
  9
$ANGBASE
 50
0.0
  9
$ANGDIR
 70
     0
  9
$PDMODE
 70
     0
  9
$PDSIZE
 40
0.0
  9
$PLINEWID
 40
0.0
  9
$SPLFRAME
 70
     0
  9
$SPLINETYPE
 70
     6
  9
$SPLINESEGS
 70
     8
  9
$HANDSEED
  5
CCD
  9
$SURFTAB1
 70
     6
  9
$SURFTAB2
 70
     6
  9
$SURFTYPE
 70
     6
  9
$SURFU
 70
     6
  9
$SURFV
 70
     6
  9
$UCSBASE
  2

  9
$UCSNAME
  2

  9
$UCSORG
 10
0.0
 20
0.0
 30
0.0
  9
$UCSXDIR
 10
1.0
 20
0.0
 30
0.0
  9
$UCSYDIR
 10
0.0
 20
1.0
 30
0.0
  9
$UCSORTHOREF
  2

  9
$UCSORTHOVIEW
 70
     0
  9
$UCSORGTOP
 10
0.0
 20
0.0
 30
0.0
  9
$UCSORGBOTTOM
 10
0.0
 20
0.0
 30
0.0
  9
$UCSORGLEFT
 10
0.0
 20
0.0
 30
0.0
  9
$UCSORGRIGHT
 10
0.0
 20
0.0
 30
0.0
  9
$UCSORGFRONT
 10
0.0
 20
0.0
 30
0.0
  9
$UCSORGBACK
 10
0.0
 20
0.0
 30
0.0
  9
$PUCSBASE
  2

  9
$PUCSNAME
  2

  9
$PUCSORG
 10
0.0
 20
0.0
 30
0.0
  9
$PUCSXDIR
 10
1.0
 20
0.0
 30
0.0
  9
$PUCSYDIR
 10
0.0
 20
1.0
 30
0.0
  9
$PUCSORTHOREF
  2

  9
$PUCSORTHOVIEW
 70
     0
  9
$PUCSORGTOP
 10
0.0
 20
0.0
 30
0.0
  9
$PUCSORGBOTTOM
 10
0.0
 20
0.0
 30
0.0
  9
$PUCSORGLEFT
 10
0.0
 20
0.0
 30
0.0
  9
$PUCSORGRIGHT
 10
0.0
 20
0.0
 30
0.0
  9
$PUCSORGFRONT
 10
0.0
 20
0.0
 30
0.0
  9
$PUCSORGBACK
 10
0.0
 20
0.0
 30
0.0
  9
$USERI1
 70
     0
  9
$USERI2
 70
     0
  9
$USERI3
 70
     0
  9
$USERI4
 70
     0
  9
$USERI5
 70
     0
  9
$USERR1
 40
0.0
  9
$USERR2
 40
0.0
  9
$USERR3
 40
0.0
  9
$USERR4
 40
0.0
  9
$USERR5
 40
0.0
  9
$WORLDVIEW
 70
     1
  9
$SHADEDGE
 70
     3
  9
$SHADEDIF
 70
    70
  9
$TILEMODE
 70
     1
  9
$MAXACTVP
 70
    64
  9
$PINSBASE
 10
0.0
 20
0.0
 30
0.0
  9
$PLIMCHECK
 70
     0
  9
$PEXTMIN
 10
0.0
 20
0.0
 30
0.0
  9
$PEXTMAX
 10
0.0
 20
0.0
 30
0.0
  9
$PLIMMIN
 10
0.0
 20
0.0
  9
$PLIMMAX
 10
12.0
 20
9.0
  9
$UNITMODE
 70
     0
  9
$VISRETAIN
 70
     1
  9
$PLINEGEN
 70
     0
  9
$PSLTSCALE
 70
     1
  9
$TREEDEPTH
 70
  3020
  9
$CMLSTYLE
  2
Standard
  9
$CMLJUST
 70
     0
  9
$CMLSCALE
 40
20.0
  9
$PROXYGRAPHICS
 70
     1
  9
$MEASUREMENT
 70
     1
  9
$CELWEIGHT
370
    -1
  9
$ENDCAPS
280
     0
  9
$JOINSTYLE
280
     0
  9
$LWDISPLAY
290
     0
  9
$INSUNITS
 70
     4
  9
$HYPERLINKBASE
  1

  9
$STYLESHEET
  1

  9
$XEDIT
290
     1
  9
$CEPSNTYPE
380
     0
  9
$PSTYLEMODE
290
     1
  9
$FINGERPRINTGUID
  2
{FDEAD578-A652-11D2-9A35-0060089B3A3F}
  9
$VERSIONGUID
  2
{F8777466-02B3-4ECF-9EBF-F2136920E5AB}
  9
$EXTNAMES
290
     1
  9
$PSVPSCALE
 40
0.0
  9
$OLESTARTUP
290
     0
  0
ENDSEC
  0
SECTION
  2
CLASSES
  0
CLASS
  1
ACDBDICTIONARYWDFLT
  2
AcDbDictionaryWithDefault
  3
AutoCAD 2000
 90
        0
280
     0
281
     0
  0
CLASS
  1
ACDBPLACEHOLDER
  2
AcDbPlaceHolder
  3
AutoCAD 2000
 90
        0
280
     0
281
     0
  0
CLASS
  1
LAYOUT
  2
AcDbLayout
  3
AutoCAD 2000
 90
        0
280
     0
281
     0
  0
ENDSEC
  0
SECTION
  2
TABLES
  0
TABLE
  2
VPORT
  5
8
330
0
100
AcDbSymbolTable
 70
     2
  0
VPORT
  5
CCC
330
8
100
AcDbSymbolTableRecord
100
AcDbViewportTableRecord
  2
*Active
 70
     0
 10
0.0
 20
0.0
 11
1.0
 21
1.0
 12
625.0166854816557
 22
426.0397737259272
 13
0.0
 23
0.0
 14
10.0
 24
10.0
 15
10.0
 25
10.0
 16
0.0
 26
0.0
 36
1.0
 17
0.0
 27
0.0
 37
0.0
 40
520.9641500492384
 41
1.781954887218045
 42
50.0
 43
0.0
 44
0.0
 50
0.0
 51
0.0
 71
     0
 72
   100
 73
     1
 74
     3
 75
     0
 76
     0
 77
     0
 78
     0
281
     0
 65
     1
110
0.0
120
0.0
130
0.0
111
1.0
121
0.0
131
0.0
112
0.0
122
1.0
132
0.0
 79
     0
146
0.0
  0
ENDTAB
  0
TABLE
  2
LTYPE
  5
5
330
0
100
AcDbSymbolTable
 70
     2
  0
LTYPE
  5
14
330
5
100
AcDbSymbolTableRecord
100
AcDbLinetypeTableRecord
  2
ByBlock
 70
     0
  3

 72
    65
 73
     0
 40
0.0
  0
LTYPE
  5
15
330
5
100
AcDbSymbolTableRecord
100
AcDbLinetypeTableRecord
  2
ByLayer
 70
     0
  3

 72
    65
 73
     0
 40
0.0
  0
LTYPE
  5
16
330
5
100
AcDbSymbolTableRecord
100
AcDbLinetypeTableRecord
  2
Continuous
 70
     0
  3
Solid line
 72
    65
 73
     0
 40
0.0
  0
LTYPE
  5
61
330
5
100
AcDbSymbolTableRecord
100
AcDbLinetypeTableRecord
  2
DASHED
 70
     0
  3
DASHED
 72
    65
 73
     2
 40
0.75
 49
0.5
 74
     0
 49
-0.25
 74
     0
  0
ENDTAB
  0
TABLE
  2
LAYER
  5
2
330
0
100
AcDbSymbolTable
 70
     1
  0
LAYER
  5
10
330
2
100
AcDbSymbolTableRecord
100
AcDbLayerTableRecord
  2
0
 70
     0
 62
     7
  6
Continuous
370
    -3
390
F
  0
ENDTAB
  0
TABLE
  2
STYLE
  5
3
330
0
100
AcDbSymbolTable
 70
     1
  0
STYLE
  5
11
330
3
100
AcDbSymbolTableRecord
100
AcDbTextStyleTableRecord
  2
Standard
 70
     0
 40
0.0
 41
1.0
 50
0.0
 71
     0
 42
2.5
  3
txt
  4

  0
ENDTAB
  0
TABLE
  2
VIEW
  5
6
330
0
100
AcDbSymbolTable
 70
     0
  0
ENDTAB
  0
TABLE
  2
UCS
  5
7
330
0
100
AcDbSymbolTable
 70
     0
  0
ENDTAB
  0
TABLE
  2
APPID
  5
9
330
0
100
AcDbSymbolTable
 70
     1
  0
APPID
  5
12
330
9
100
AcDbSymbolTableRecord
100
AcDbRegAppTableRecord
  2
ACAD
 70
     0
  0
ENDTAB
  0
TABLE
  2
DIMSTYLE
  5
A
330
0
100
AcDbSymbolTable
 70
     1
100
AcDbDimStyleTable
 71
     1
340
27
  0
DIMSTYLE
105
27
330
A
100
AcDbSymbolTableRecord
100
AcDbDimStyleTableRecord
  2
ISO-25
 70
     0
 41
2.5
 42
0.625
 43
3.75
 44
1.25
 73
     0
 74
     0
 77
     1
 78
     8
140
2.5
141
2.5
143
0.03937007874016
147
0.625
171
     3
172
     1
271
     2
272
     2
274
     3
278
    44
283
     0
284
     8
340
11
  0
ENDTAB
  0
TABLE
  2
BLOCK_RECORD
  5
1
330
0
100
AcDbSymbolTable
 70
     0
  0
BLOCK_RECORD
  5
1F
330
1
100
AcDbSymbolTableRecord
100
AcDbBlockTableRecord
  2
*Model_Space
340
22
  0
BLOCK_RECORD
  5
50
330
1
100
AcDbSymbolTableRecord
100
AcDbBlockTableRecord
  2
*Paper_Space
340
51
  0
ENDTAB
  0
ENDSEC
  0
SECTION
  2
BLOCKS
  0
BLOCK
  5
20
330
1F
100
AcDbEntity
  8
0
100
AcDbBlockBegin
  2
*Model_Space
 70
     0
 10
0.0
 20
0.0
 30
0.0
  3
*Model_Space
  1

  0
ENDBLK
  5
21
330
1F
100
AcDbEntity
  8
0
100
AcDbBlockEnd
  0
BLOCK
  5
52
330
50
100
AcDbEntity
 67
     1
  8
0
100
AcDbBlockBegin
  2
*Paper_Space
 70
     0
 10
0.0
 20
0.0
 30
0.0
  3
*Paper_Space
  1

  0
ENDBLK
  5
53
330
50
100
AcDbEntity
 67
     1
  8
0
100
AcDbBlockEnd
  0
ENDSEC
  0
SECTION
  2
ENTITIES
  0
LINE
  5
4EC
330
1F
100
AcDbEntity
  8
0
  6
Continuous
 62
     7
100
AcDbLine
 10
358.6857280405244
 20
523.6639306608877
 30
4.210405960092526
 11
358.6857280405244
 21
520.3039306608879
 31
4.210405960092526
  0
LINE
  5
4ED
330
1F
100
AcDbEntity
  8
0
  6
Continuous
 62
     7
100
AcDbLine
 10
721.6057280405258
 20
502.4839166608883
 30
-6.378334039907494
 11
720.1057280405258
 21
502.4839166608883
 31
-6.378334039907494
  0
ARC
  5
4EE
330
1F
100
AcDbEntity
  8
0
  6
Continuous
 62
     7
100
AcDbCircle
 10
720.1057265463754
 20
500.4839181550378
 30
-6.378334039907494
 40
1.999998505850379
100
AcDbArc
 50
89.99995719571119
 51
180.0000428042888
  0
ARC
  5
4EF
330
1F
100
AcDbEntity
  8
0
  6
Continuous
 62
     7
100
AcDbCircle
 10
720.1057265463748
 20
400.4839177210461
 30
4.221005039104992
 40
1.999998505850149
100
AcDbArc
 50
179.9999571957209
 51
270.0000428042953
  0
LINE
  5
4F0
330
1F
100
AcDbEntity
  8
0
  6
Continuous
 62
     7
100
AcDbLine
 10
720.1057280405255
 20
398.4839192151968
 30
4.221005039104992
 11
721.6057280405258
 21
398.4839192151968
 31
4.221005039104992
  0
LINE
  5
4F1
330
1F
100
AcDbEntity
  8
0
  6
Continuous
 62
     7
100
AcDbLine
 10
718.1057280405249
 20
500.4839166608881
 30
-6.378334039907494
 11
718.1057280405249
 21
400.4839191660757
 31
-6.378334039907494
  0
LINE
  5
4FA
330
1F
100
AcDbEntity
  8
0
  6
Continuous
 62
     7
100
AcDbLine
 10
418.541555642815
 20
499.4839167451583
 30
-16.97767311891998
 11
418.541555642815
 21
499.4839167451583
 31
-16.97767311891998
  0
CIRCLE
  5
680
330
1F
100
AcDbEntity
  8
0
  6
Continuous
 62
     7
370
     0
100
AcDbCircle
 10
865.3057105229773
 20
521.9839331433393
 30
4.210405960092526
 40
4.679995517551216
  0
CIRCLE
  5
681
330
1F
100
AcDbEntity
  8
0
  6
Continuous
 62
     7
370
     0
100
AcDbCircle
 10
865.3057105229773
 20
521.9839331433393
 30
4.210405960092526
 40
5.999995517550683
  0
CIRCLE
  5
682
330
1F
100
AcDbEntity
  8
0
  6
Continuous
 62
     7
370
     0
100
AcDbCircle
 10
865.3057105229773
 20
321.9839331433385
 30
4.210405960092526
 40
4.679995517551216
  0
CIRCLE
  5
683
330
1F
100
AcDbEntity
  8
0
  6
Continuous
 62
     7
370
     0
100
AcDbCircle
 10
865.3057105229773
 20
321.9839331433385
 30
4.210405960092526
 40
5.999995517550683
  0
ELLIPSE
  5
684
330
1F
100
AcDbEntity
  8
0
  6
Continuous
 62
     7
100
AcDbEllipse
 10
721.6057260405261
 20
521.9839166608879
 30
4.210405960092526
 11
0.0
 21
-3.000000000000006
 31
0.0
210
0.0
220
0.0
230
1.0
 40
0.8380139999999999
 41
3.141592697301183
 42
6.283185263468196
  0
ARC
  5
685
330
1F
100
AcDbEntity
  8
0
  6
Continuous
 62
     7
100
AcDbCircle
 10
553.8057340171262
 20
593.9839226374893
 30
4.210405960092526
 40
7.999994023400951
100
AcDbArc
 50
359.9999571957112
 51
90.00004280428553
  0
ARC
  5
686
330
1F
100
AcDbEntity
  8
0
  6
Continuous
 62
     7
100
AcDbCircle
 10
561.0057295346758
 20
569.9839181550377
 30
4.210405960092526
 40
1.999998505850379
100
AcDbArc
 50
359.9999571957078
 51
90.0000428042823
  0
ARC
  5
687
330
1F
100
AcDbEntity
  8
0
  6
Continuous
 62
     7
100
AcDbCircle
 10
565.00572947491
 20
523.6639320952725
 30
4.210405960092526
 40
1.919998565615941
100
AcDbArc
 50
359.9999571957177
 51
90.00004280429207
  0
ARC
  5
688
330
1F
100
AcDbEntity
  8
0
  6
Continuous
 62
     7
100
AcDbCircle
 10
565.00572947491
 20
520.3039292265035
 30
4.210405960092526
 40
1.919998565616166
100
AcDbArc
 50
269.9999571957111
 51
0.0000428042855519
  0
ARC
  5
689
330
1F
100
AcDbEntity
  8
0
  6
Continuous
 62
     7
100
AcDbCircle
 10
557.3057280405255
 20
562.9839166232492
 30
4.210405960092526
 40
4.000000287638888
100
AcDbArc
 50
295.944477767792
 51
244.0555222322079
  0
CIRCLE
  5
68A
330
1F
100
AcDbEntity
  8
0
  6
Continuous
 62
     7
370
     0
100
AcDbCircle
 10
557.3057302817511
 20
521.9839329021136
 30
4.210405960092526
 40
2.999997758775338
  0
CIRCLE
  5
68B
330
1F
100
AcDbEntity
  8
0
  6
Continuous
 62
     7
100
AcDbCircle
 10
531.3057302817511
 20
519.9839189021126
 30
4.210405960092526
 40
2.999997758775228
  0
CIRCLE
  5
68C
330
1F
100
AcDbEntity
  8
0
  6
Continuous
 62
     7
100
AcDbCircle
 10
531.3057302817511
 20
493.9839189021126
 30
4.210405960092526
 40
2.999997758775113
  0
CIRCLE
  5
68D
330
1F
100
AcDbEntity
  8
0
  6
Continuous
 62
     7
100
AcDbCircle
 10
531.3057302817511
 20
506.9839189021126
 30
4.210405960092526
 40
2.999997758775228
  0
ARC
  5
68E
330
1F
100
AcDbEntity
  8
0
  6
Continuous
 62
     7
100
AcDbCircle
 10
557.3057280405255
 20
480.9839166608879
 30
4.210405960092526
 40
1.750000000000004
100
AcDbArc
 50
180.0
 51
0.0
  0
LINE
  5
68F
330
1F
100
AcDbEntity
  8
0
  6
Continuous
 62
     7
100
AcDbLine
 10
537.3057280405252
 20
474.983921143338
 30
4.210405960092526
 11
537.3057280405252
 21
466.9839211433382
 31
4.210405960092526
  0
LINE
  5
690
330
1F
100
AcDbEntity
  8
0
  6
Continuous
 62
     7
100
AcDbLine
 10
537.3057280405252
 20
486.9839211433383
 30
4.210405960092526
 11
537.3057280405252
 21
478.9839211433383
 31
4.210405960092526
  0
CIRCLE
  5
691
330
1F
100
AcDbEntity
  8
0
  6
Continuous
 62
     7
100
AcDbCircle
 10
538.3057302817507
 20
458.9839189021118
 30
4.210405960092526
 40
2.999997758775228
  0
ELLIPSE
  5
692
330
1F
100
AcDbEntity
  8
0
  6
Continuous
 62
     7
100
AcDbEllipse
 10
721.6057260405261
 20
326.9839166608873
 30
4.210405960092526
 11
0.0
 21
-3.000000000000006
 31
0.0
210
0.0
220
0.0
230
1.0
 40
0.8380139999999999
 41
3.141592697301183
 42
6.283185263468196
  0
ARC
  5
693
330
1F
100
AcDbEntity
  8
0
  6
Continuous
 62
     7
100
AcDbCircle
 10
565.00572947491
 20
323.6639320952716
 30
4.210405960092526
 40
1.919998565616053
100
AcDbArc
 50
359.9999571957177
 51
90.00004280428877
  0
ARC
  5
694
330
1F
100
AcDbEntity
  8
0
  6
Continuous
 62
     7
100
AcDbCircle
 10
565.00572947491
 20
320.3039292265031
 30
4.210405960092526
 40
1.919998565616166
100
AcDbArc
 50
269.9999571957111
 51
0.0000428042855519
  0
ARC
  5
695
330
1F
100
AcDbEntity
  8
0
  6
Continuous
 62
     7
100
AcDbCircle
 10
557.3057270405255
 20
321.9839153276021
 30
4.210405960092526
 40
4.000000066637817
100
AcDbArc
 50
126.8697715955449
 51
53.130228404455
  0
CIRCLE
  5
696
330
1F
100
AcDbEntity
  8
0
  6
Continuous
 62
     7
370
     0
100
AcDbCircle
 10
557.3057302817511
 20
326.9839329021123
 30
4.210405960092526
 40
2.999997758775228
  0
ARC
  5
697
330
1F
100
AcDbEntity
  8
0
  6
Continuous
 62
     7
100
AcDbCircle
 10
557.3057280405255
 20
291.9839166608872
 30
4.210405960092526
 40
2.000000000000003
100
AcDbArc
 50
0.0
 51
180.0
  0
LINE
  5
698
330
1F
100
AcDbEntity
  8
0
  6
DASHED
 62
     4
 48
5.0
100
AcDbLine
 10
539.1057280405258
 20
304.9839166608872
 30
4.210405960092526
 11
539.1057280405258
 21
304.9839166608872
 31
4.210405960092526
  0
CIRCLE
  5
699
330
1F
100
AcDbEntity
  8
0
  6
DASHED
 62
     4
370
     0
100
AcDbCircle
 10
536.6057299082133
 20
304.9839185285751
 30
4.210405960092526
 40
2.499998132312649
  0
ARC
  5
69A
330
1F
100
AcDbEntity
  8
0
  6
Continuous
 62
     7
100
AcDbCircle
 10
553.8057340171262
 20
284.9839106842853
 30
4.210405960092526
 40
7.999994023400838
100
AcDbArc
 50
269.9999571957144
 51
0.0000428042888088
  0
ARC
  5
69B
330
1F
100
AcDbEntity
  8
0
  6
Continuous
 62
     7
100
AcDbCircle
 10
561.0057295346758
 20
293.9839151667369
 30
4.210405960092526
 40
1.999998505850209
100
AcDbArc
 50
269.9999571957111
 51
0.0000428042888088
  0
LINE
  5
69C
330
1F
100
AcDbEntity
  8
0
  6
Continuous
 62
     7
100
AcDbLine
 10
921.8057280405268
 20
601.9839166608882
 30
-6.378334039907497
 11
920.6057280405268
 21
601.9839166608882
 31
-6.378334039907497
  0
LINE
  5
69D
330
1F
100
AcDbEntity
  8
0
  6
Continuous
 62
     7
100
AcDbLine
 10
920.6057280405268
 20
571.9839166608882
 30
-6.378334039907497
 11
920.6057280405268
 21
601.9839166608882
 31
-6.378334039907497
  0
LINE
  5
69E
330
1F
100
AcDbEntity
  8
0
  6
Continuous
 62
     7
 48
6.0
100
AcDbLine
 10
868.4257080405267
 20
521.2039306608876
 30
-6.378334039907497
 11
868.4257080405267
 21
522.7639306608883
 31
-6.378334039907497
  0
LINE
  5
69F
330
1F
100
AcDbEntity
  8
0
  6
Continuous
 62
     7
 48
6.0
100
AcDbLine
 10
868.4257080405267
 20
522.7639306608883
 30
-6.378334039907497
 11
866.0857080405262
 21
522.7639306608883
 31
-6.378334039907497
  0
LINE
  5
6A0
330
1F
100
AcDbEntity
  8
0
  6
Continuous
 62
     7
 48
6.0
100
AcDbLine
 10
866.0857080405262
 20
522.7639306608883
 30
-6.378334039907497
 11
866.0857080405262
 21
525.1039306608877
 31
-6.378334039907497
  0
LINE
  5
6A1
330
1F
100
AcDbEntity
  8
0
  6
Continuous
 62
     7
 48
6.0
100
AcDbLine
 10
866.0857080405262
 20
525.1039306608877
 30
-6.378334039907497
 11
864.525708040527
 21
525.1039306608877
 31
-6.378334039907497
  0
LINE
  5
6A2
330
1F
100
AcDbEntity
  8
0
  6
Continuous
 62
     7
 48
6.0
100
AcDbLine
 10
864.525708040527
 20
525.1039306608877
 30
-6.378334039907497
 11
864.525708040527
 21
522.7639306608883
 31
-6.378334039907497
  0
LINE
  5
6A3
330
1F
100
AcDbEntity
  8
0
  6
Continuous
 62
     7
 48
6.0
100
AcDbLine
 10
864.525708040527
 20
521.2039306608876
 30
-6.378334039907497
 11
864.525708040527
 21
518.8639306608875
 31
-6.378334039907497
  0
LINE
  5
6A4
330
1F
100
AcDbEntity
  8
0
  6
Continuous
 62
     7
 48
6.0
100
AcDbLine
 10
864.525708040527
 20
518.8639306608875
 30
-6.378334039907497
 11
866.0857080405262
 21
518.8639306608875
 31
-6.378334039907497
  0
LINE
  5
6A5
330
1F
100
AcDbEntity
  8
0
  6
Continuous
 62
     7
 48
6.0
100
AcDbLine
 10
866.0857080405262
 20
518.8639306608875
 30
-6.378334039907497
 11
866.0857080405262
 21
521.2039306608876
 31
-6.378334039907497
  0
LINE
  5
6A6
330
1F
100
AcDbEntity
  8
0
  6
Continuous
 62
     7
 48
6.0
100
AcDbLine
 10
866.0857080405262
 20
521.2039306608876
 30
-6.378334039907497
 11
868.4257080405267
 21
521.2039306608876
 31
-6.378334039907497
  0
LINE
  5
6A7
330
1F
100
AcDbEntity
  8
0
  6
Continuous
 62
     7
 48
6.0
100
AcDbLine
 10
868.4257080405267
 20
521.2039306608876
 30
-6.378334039907497
 11
868.4257080405267
 21
521.2039306608876
 31
-6.378334039907497
  0
LINE
  5
6A8
330
1F
100
AcDbEntity
  8
0
  6
Continuous
 62
     7
 48
6.0
100
AcDbLine
 10
862.1857080405261
 20
522.7639306608883
 30
-6.378334039907497
 11
862.1857080405261
 21
521.2039306608876
 31
-6.378334039907497
  0
LINE
  5
6A9
330
1F
100
AcDbEntity
  8
0
  6
Continuous
 62
     7
 48
6.0
100
AcDbLine
 10
864.525708040527
 20
522.7639306608883
 30
-6.378334039907497
 11
862.1857080405261
 21
522.7639306608883
 31
-6.378334039907497
  0
LINE
  5
6AA
330
1F
100
AcDbEntity
  8
0
  6
Continuous
 62
     7
 48
6.0
100
AcDbLine
 10
862.1857080405261
 20
521.2039306608876
 30
-6.378334039907497
 11
864.525708040527
 21
521.2039306608876
 31
-6.378334039907497
  0
LINE
  5
6AB
330
1F
100
AcDbEntity
  8
0
  6
Continuous
 62
     7
 48
6.0
100
AcDbLine
 10
868.4257080405267
 20
321.2039306608871
 30
-6.378334039907497
 11
868.4257080405267
 21
322.7639306608872
 31
-6.378334039907497
  0
LINE
  5
6AC
330
1F
100
AcDbEntity
  8
0
  6
Continuous
 62
     7
 48
6.0
100
AcDbLine
 10
868.4257080405267
 20
322.7639306608872
 30
-6.378334039907497
 11
866.0857080405262
 21
322.7639306608872
 31
-6.378334039907497
  0
LINE
  5
6AD
330
1F
100
AcDbEntity
  8
0
  6
Continuous
 62
     7
 48
6.0
100
AcDbLine
 10
866.0857080405262
 20
322.7639306608872
 30
-6.378334039907497
 11
866.0857080405262
 21
325.1039306608871
 31
-6.378334039907497
  0
LINE
  5
6AE
330
1F
100
AcDbEntity
  8
0
  6
Continuous
 62
     7
 48
6.0
100
AcDbLine
 10
866.0857080405262
 20
325.1039306608871
 30
-6.378334039907497
 11
864.525708040527
 21
325.1039306608871
 31
-6.378334039907497
  0
LINE
  5
6AF
330
1F
100
AcDbEntity
  8
0
  6
Continuous
 62
     7
 48
6.0
100
AcDbLine
 10
864.525708040527
 20
325.1039306608871
 30
-6.378334039907497
 11
864.525708040527
 21
322.7639306608872
 31
-6.378334039907497
  0
LINE
  5
6B0
330
1F
100
AcDbEntity
  8
0
  6
Continuous
 62
     7
 48
6.0
100
AcDbLine
 10
864.525708040527
 20
321.2039306608871
 30
-6.378334039907497
 11
864.525708040527
 21
318.8639306608873
 31
-6.378334039907497
  0
LINE
  5
6B1
330
1F
100
AcDbEntity
  8
0
  6
Continuous
 62
     7
 48
6.0
100
AcDbLine
 10
864.525708040527
 20
318.8639306608873
 30
-6.378334039907497
 11
866.0857080405262
 21
318.8639306608873
 31
-6.378334039907497
  0
LINE
  5
6B2
330
1F
100
AcDbEntity
  8
0
  6
Continuous
 62
     7
 48
6.0
100
AcDbLine
 10
866.0857080405262
 20
318.8639306608873
 30
-6.378334039907497
 11
866.0857080405262
 21
321.2039306608871
 31
-6.378334039907497
  0
LINE
  5
6B3
330
1F
100
AcDbEntity
  8
0
  6
Continuous
 62
     7
 48
6.0
100
AcDbLine
 10
866.0857080405262
 20
321.2039306608871
 30
-6.378334039907497
 11
868.4257080405267
 21
321.2039306608871
 31
-6.378334039907497
  0
LINE
  5
6B4
330
1F
100
AcDbEntity
  8
0
  6
Continuous
 62
     7
 48
6.0
100
AcDbLine
 10
868.4257080405267
 20
321.2039306608871
 30
-6.378334039907497
 11
868.4257080405267
 21
321.2039306608871
 31
-6.378334039907497
  0
LINE
  5
6B5
330
1F
100
AcDbEntity
  8
0
  6
Continuous
 62
     7
 48
6.0
100
AcDbLine
 10
862.1857080405261
 20
322.7639306608872
 30
-6.378334039907497
 11
862.1857080405261
 21
321.2039306608871
 31
-6.378334039907497
  0
LINE
  5
6B6
330
1F
100
AcDbEntity
  8
0
  6
Continuous
 62
     7
 48
6.0
100
AcDbLine
 10
864.525708040527
 20
322.7639306608872
 30
-6.378334039907497
 11
862.1857080405261
 21
322.7639306608872
 31
-6.378334039907497
  0
LINE
  5
6B7
330
1F
100
AcDbEntity
  8
0
  6
Continuous
 62
     7
 48
6.0
100
AcDbLine
 10
862.1857080405261
 20
321.2039306608871
 30
-6.378334039907497
 11
864.525708040527
 21
321.2039306608871
 31
-6.378334039907497
  0
LINE
  5
6B8
330
1F
100
AcDbEntity
  8
0
  6
Continuous
 62
     7
100
AcDbLine
 10
920.6057280405268
 20
276.9839166608874
 30
-6.378334039907497
 11
921.8057280405268
 21
276.9839166608874
 31
-6.378334039907497
  0
LINE
  5
6B9
330
1F
100
AcDbEntity
  8
0
  6
Continuous
 62
     7
100
AcDbLine
 10
920.6057280405268
 20
276.9839166608874
 30
-6.378334039907497
 11
920.6057280405268
 21
291.9839166608872
 31
-6.378334039907497
  0
LINE
  5
6BA
330
1F
100
AcDbEntity
  8
0
  6
DASHED
 62
     4
 48
5.0
100
AcDbLine
 10
827.3057060405268
 20
297.9839286608875
 30
-6.378334039907497
 11
830.3057060405267
 21
297.9839286608875
 31
-6.378334039907497
  0
LINE
  5
6BB
330
1F
100
AcDbEntity
  8
0
  6
DASHED
 62
     4
 48
5.0
100
AcDbLine
 10
827.3057060405268
 20
316.5431766608873
 30
-6.378334039907497
 11
827.3057060405268
 21
297.9839286608875
 31
-6.378334039907497
  0
LINE
  5
6BC
330
1F
100
AcDbEntity
  8
0
  6
DASHED
 62
     4
 48
5.0
100
AcDbLine
 10
830.3057060405267
 20
297.9839286608875
 30
-6.378334039907497
 11
830.3057060405267
 21
316.7339286608874
 31
-6.378334039907497
  0
LINE
  5
6BD
330
1F
100
AcDbEntity
  8
0
  6
Continuous
 62
     7
100
AcDbLine
 10
921.8057280405268
 20
276.9839166608874
 30
-6.378334039907497
 11
921.8057280405268
 21
601.9839166608882
 31
-6.378334039907497
  0
LINE
  5
6BE
330
1F
100
AcDbEntity
  8
0
  6
Continuous
 62
     7
100
AcDbLine
 10
561.8057280405253
 20
593.9839166608874
 30
-6.378334039907497
 11
561.8057280405253
 21
571.9839166608882
 31
-6.378334039907497
  0
LINE
  5
6BF
330
1F
100
AcDbEntity
  8
0
  6
Continuous
 62
     7
100
AcDbLine
 10
566.9257280405259
 20
523.6639306608881
 30
-6.378334039907497
 11
566.9257280405259
 21
520.3039306608879
 31
-6.378334039907497
  0
LINE
  5
6C0
330
1F
100
AcDbEntity
  8
0
  6
Continuous
 62
     7
100
AcDbLine
 10
564.0057280405252
 20
527.0239286608881
 30
-6.378334039907497
 11
564.0057280405252
 21
516.9439286608875
 31
-6.378334039907497
  0
LINE
  5
6C1
330
1F
100
AcDbEntity
  8
0
  6
Continuous
 62
     7
100
AcDbLine
 10
563.0057280405261
 20
527.0239286608881
 30
-6.378334039907497
 11
563.0057280405261
 21
516.9439286608875
 31
-6.378334039907497
  0
LINE
  5
6C2
330
1F
100
AcDbEntity
  8
0
  6
Continuous
 62
     7
100
AcDbLine
 10
565.0057280405254
 20
525.5839306608873
 30
-6.378334039907497
 11
564.0057280405252
 21
525.5839306608873
 31
-6.378334039907497
  0
LINE
  5
6C3
330
1F
100
AcDbEntity
  8
0
  6
Continuous
 62
     7
100
AcDbLine
 10
565.0057280405254
 20
518.3839306608881
 30
-6.378334039907497
 11
564.0057280405252
 21
518.3839306608881
 31
-6.378334039907497
  0
LINE
  5
6C4
330
1F
100
AcDbEntity
  8
0
  6
Continuous
 62
     7
100
AcDbLine
 10
564.0057280405252
 20
527.0239286608881
 30
-6.378334039907497
 11
563.0057280405261
 21
527.0239286608881
 31
-6.378334039907497
  0
LINE
  5
6C5
330
1F
100
AcDbEntity
  8
0
  6
Continuous
 62
     7
100
AcDbLine
 10
564.0057280405252
 20
516.9439286608875
 30
-6.378334039907497
 11
563.0057280405261
 21
516.9439286608875
 31
-6.378334039907497
  0
LINE
  5
6C6
330
1F
100
AcDbEntity
  8
0
  6
Continuous
 62
     7
 48
6.0
100
AcDbLine
 10
559.3057300405248
 20
521.4839306608877
 30
-6.378334039907497
 11
559.3057300405248
 21
522.4839306608878
 31
-6.378334039907497
  0
LINE
  5
6C7
330
1F
100
AcDbEntity
  8
0
  6
Continuous
 62
     7
 48
6.0
100
AcDbLine
 10
559.3057300405248
 20
522.4839306608878
 30
-6.378334039907497
 11
557.8057300405255
 21
522.4839306608878
 31
-6.378334039907497
  0
LINE
  5
6C8
330
1F
100
AcDbEntity
  8
0
  6
Continuous
 62
     7
 48
6.0
100
AcDbLine
 10
557.8057300405255
 20
522.4839306608878
 30
-6.378334039907497
 11
557.8057300405255
 21
523.9839306608877
 31
-6.378334039907497
  0
LINE
  5
6C9
330
1F
100
AcDbEntity
  8
0
  6
Continuous
 62
     7
 48
6.0
100
AcDbLine
 10
557.8057300405255
 20
523.9839306608877
 30
-6.378334039907497
 11
556.8057300405253
 21
523.9839306608877
 31
-6.378334039907497
  0
LINE
  5
6CA
330
1F
100
AcDbEntity
  8
0
  6
Continuous
 62
     7
 48
6.0
100
AcDbLine
 10
556.8057300405253
 20
523.9839306608877
 30
-6.378334039907497
 11
556.8057300405253
 21
522.4839306608878
 31
-6.378334039907497
  0
LINE
  5
6CB
330
1F
100
AcDbEntity
  8
0
  6
Continuous
 62
     7
 48
6.0
100
AcDbLine
 10
556.8057300405253
 20
522.4839306608878
 30
-6.378334039907497
 11
555.3057300405249
 21
522.4839306608878
 31
-6.378334039907497
  0
LINE
  5
6CC
330
1F
100
AcDbEntity
  8
0
  6
Continuous
 62
     7
 48
6.0
100
AcDbLine
 10
555.3057300405249
 20
522.4839306608878
 30
-6.378334039907497
 11
555.3057300405249
 21
521.4839306608877
 31
-6.378334039907497
  0
LINE
  5
6CD
330
1F
100
AcDbEntity
  8
0
  6
Continuous
 62
     7
 48
6.0
100
AcDbLine
 10
555.3057300405249
 20
521.4839306608877
 30
-6.378334039907497
 11
556.8057300405253
 21
521.4839306608877
 31
-6.378334039907497
  0
LINE
  5
6CE
330
1F
100
AcDbEntity
  8
0
  6
Continuous
 62
     7
 48
6.0
100
AcDbLine
 10
556.8057300405253
 20
521.4839306608877
 30
-6.378334039907497
 11
556.8057300405253
 21
519.9839306608875
 31
-6.378334039907497
  0
LINE
  5
6CF
330
1F
100
AcDbEntity
  8
0
  6
Continuous
 62
     7
 48
6.0
100
AcDbLine
 10
556.8057300405253
 20
519.9839306608875
 30
-6.378334039907497
 11
557.8057300405255
 21
519.9839306608875
 31
-6.378334039907497
  0
LINE
  5
6D0
330
1F
100
AcDbEntity
  8
0
  6
Continuous
 62
     7
 48
6.0
100
AcDbLine
 10
557.8057300405255
 20
519.9839306608875
 30
-6.378334039907497
 11
557.8057300405255
 21
521.4839306608877
 31
-6.378334039907497
  0
LINE
  5
6D1
330
1F
100
AcDbEntity
  8
0
  6
Continuous
 62
     7
 48
6.0
100
AcDbLine
 10
557.8057300405255
 20
521.4839306608877
 30
-6.378334039907497
 11
559.3057300405248
 21
521.4839306608877
 31
-6.378334039907497
  0
LINE
  5
6D2
330
1F
100
AcDbEntity
  8
0
  6
Continuous
 62
     7
 48
6.0
100
AcDbLine
 10
559.3057300405248
 20
521.4839306608877
 30
-6.378334039907497
 11
559.3057300405248
 21
521.4839306608877
 31
-6.378334039907497
  0
LINE
  5
6D3
330
1F
100
AcDbEntity
  8
0
  6
Continuous
 62
     7
100
AcDbLine
 10
555.5557280405255
 20
524.4206286608882
 30
-6.378334039907497
 11
555.5557280405255
 21
559.3870426608882
 31
-6.378334039907497
  0
LINE
  5
6D4
330
1F
100
AcDbEntity
  8
0
  6
Continuous
 62
     7
100
AcDbLine
 10
559.055728040526
 20
524.4206286608882
 30
-6.378334039907497
 11
559.055728040526
 21
559.3870426608882
 31
-6.378334039907497
  0
LINE
  5
6D5
330
1F
100
AcDbEntity
  8
0
  6
Continuous
 62
     7
100
AcDbLine
 10
555.5557280405255
 20
480.9839166608879
 30
-6.378334039907497
 11
555.5557280405255
 21
519.5472326608883
 31
-6.378334039907497
  0
LINE
  5
6D6
330
1F
100
AcDbEntity
  8
0
  6
Continuous
 62
     7
100
AcDbLine
 10
559.055728040526
 20
480.9839166608879
 30
-6.378334039907497
 11
559.055728040526
 21
519.5472326608883
 31
-6.378334039907497
  0
LINE
  5
6D7
330
1F
100
AcDbEntity
  8
0
  6
Continuous
 62
     7
100
AcDbLine
 10
566.9257280405259
 20
323.6639306608876
 30
-6.378334039907497
 11
566.9257280405259
 21
320.3039306608876
 31
-6.378334039907497
  0
LINE
  5
6D8
330
1F
100
AcDbEntity
  8
0
  6
Continuous
 62
     7
100
AcDbLine
 10
564.0057280405252
 20
327.0239286608873
 30
-6.378334039907497
 11
564.0057280405252
 21
316.9439286608873
 31
-6.378334039907497
  0
LINE
  5
6D9
330
1F
100
AcDbEntity
  8
0
  6
Continuous
 62
     7
100
AcDbLine
 10
563.0057280405261
 20
327.0239286608873
 30
-6.378334039907497
 11
563.0057280405261
 21
316.9439286608873
 31
-6.378334039907497
  0
LINE
  5
6DA
330
1F
100
AcDbEntity
  8
0
  6
Continuous
 62
     7
100
AcDbLine
 10
565.0057280405254
 20
325.5839306608871
 30
-6.378334039907497
 11
564.0057280405252
 21
325.5839306608871
 31
-6.378334039907497
  0
LINE
  5
6DB
330
1F
100
AcDbEntity
  8
0
  6
Continuous
 62
     7
100
AcDbLine
 10
565.0057280405254
 20
318.3839306608873
 30
-6.378334039907497
 11
564.0057280405252
 21
318.3839306608873
 31
-6.378334039907497
  0
LINE
  5
6DC
330
1F
100
AcDbEntity
  8
0
  6
Continuous
 62
     7
100
AcDbLine
 10
564.0057280405252
 20
327.0239286608873
 30
-6.378334039907497
 11
563.0057280405261
 21
327.0239286608873
 31
-6.378334039907497
  0
LINE
  5
6DD
330
1F
100
AcDbEntity
  8
0
  6
Continuous
 62
     7
100
AcDbLine
 10
564.0057280405252
 20
316.9439286608873
 30
-6.378334039907497
 11
563.0057280405261
 21
316.9439286608873
 31
-6.378334039907497
  0
LINE
  5
6DE
330
1F
100
AcDbEntity
  8
0
  6
Continuous
 62
     7
 48
6.0
100
AcDbLine
 10
559.3057300405248
 20
326.4839306608872
 30
-6.378334039907497
 11
559.3057300405248
 21
327.4839306608872
 31
-6.378334039907497
  0
LINE
  5
6DF
330
1F
100
AcDbEntity
  8
0
  6
Continuous
 62
     7
 48
6.0
100
AcDbLine
 10
559.3057300405248
 20
327.4839306608872
 30
-6.378334039907497
 11
557.8057300405255
 21
327.4839306608872
 31
-6.378334039907497
  0
LINE
  5
6E0
330
1F
100
AcDbEntity
  8
0
  6
Continuous
 62
     7
 48
6.0
100
AcDbLine
 10
557.8057300405255
 20
327.4839306608872
 30
-6.378334039907497
 11
557.8057300405255
 21
328.9839306608873
 31
-6.378334039907497
  0
LINE
  5
6E1
330
1F
100
AcDbEntity
  8
0
  6
Continuous
 62
     7
 48
6.0
100
AcDbLine
 10
557.8057300405255
 20
328.9839306608873
 30
-6.378334039907497
 11
556.8057300405253
 21
328.9839306608873
 31
-6.378334039907497
  0
LINE
  5
6E2
330
1F
100
AcDbEntity
  8
0
  6
Continuous
 62
     7
 48
6.0
100
AcDbLine
 10
556.8057300405253
 20
328.9839306608873
 30
-6.378334039907497
 11
556.8057300405253
 21
327.4839306608872
 31
-6.378334039907497
  0
LINE
  5
6E3
330
1F
100
AcDbEntity
  8
0
  6
Continuous
 62
     7
 48
6.0
100
AcDbLine
 10
556.8057300405253
 20
327.4839306608872
 30
-6.378334039907497
 11
555.3057300405249
 21
327.4839306608872
 31
-6.378334039907497
  0
LINE
  5
6E4
330
1F
100
AcDbEntity
  8
0
  6
Continuous
 62
     7
 48
6.0
100
AcDbLine
 10
555.3057300405249
 20
327.4839306608872
 30
-6.378334039907497
 11
555.3057300405249
 21
326.4839306608872
 31
-6.378334039907497
  0
LINE
  5
6E5
330
1F
100
AcDbEntity
  8
0
  6
Continuous
 62
     7
 48
6.0
100
AcDbLine
 10
555.3057300405249
 20
326.4839306608872
 30
-6.378334039907497
 11
556.8057300405253
 21
326.4839306608872
 31
-6.378334039907497
  0
LINE
  5
6E6
330
1F
100
AcDbEntity
  8
0
  6
Continuous
 62
     7
 48
6.0
100
AcDbLine
 10
556.8057300405253
 20
326.4839306608872
 30
-6.378334039907497
 11
556.8057300405253
 21
324.9839306608873
 31
-6.378334039907497
  0
LINE
  5
6E7
330
1F
100
AcDbEntity
  8
0
  6
Continuous
 62
     7
 48
6.0
100
AcDbLine
 10
556.8057300405253
 20
324.9839306608873
 30
-6.378334039907497
 11
557.8057300405255
 21
324.9839306608873
 31
-6.378334039907497
  0
LINE
  5
6E8
330
1F
100
AcDbEntity
  8
0
  6
Continuous
 62
     7
 48
6.0
100
AcDbLine
 10
557.8057300405255
 20
324.9839306608873
 30
-6.378334039907497
 11
557.8057300405255
 21
326.4839306608872
 31
-6.378334039907497
  0
LINE
  5
6E9
330
1F
100
AcDbEntity
  8
0
  6
Continuous
 62
     7
 48
6.0
100
AcDbLine
 10
557.8057300405255
 20
326.4839306608872
 30
-6.378334039907497
 11
559.3057300405248
 21
326.4839306608872
 31
-6.378334039907497
  0
LINE
  5
6EA
330
1F
100
AcDbEntity
  8
0
  6
Continuous
 62
     7
 48
6.0
100
AcDbLine
 10
559.3057300405248
 20
326.4839306608872
 30
-6.378334039907497
 11
559.3057300405248
 21
326.4839306608872
 31
-6.378334039907497
  0
LINE
  5
6EB
330
1F
100
AcDbEntity
  8
0
  6
Continuous
 62
     7
100
AcDbLine
 10
561.8057280405253
 20
291.9839166608872
 30
-6.378334039907497
 11
561.8057280405253
 21
284.9839166608875
 31
-6.378334039907497
  0
LINE
  5
6EC
330
1F
100
AcDbEntity
  8
0
  6
Continuous
 62
     7
100
AcDbLine
 10
559.3057280405255
 20
291.9839166608872
 30
-6.378334039907497
 11
561.0057280405259
 21
291.9839166608872
 31
-6.378334039907497
  0
LINE
  5
6ED
330
1F
100
AcDbEntity
  8
0
  6
DASHED
 62
     4
 48
5.0
100
AcDbLine
 10
530.6057280405258
 20
297.9839166608872
 30
-6.378334039907497
 11
542.6057280405252
 21
297.9839166608872
 31
-6.378334039907497
  0
ARC
  5
6EE
330
1F
100
AcDbEntity
  8
0
  6
DASHED
 62
     4
 48
5.0
100
AcDbCircle
 10
542.6057295346764
 20
299.9839151667371
 30
-6.378334039907497
 40
1.999998505850209
100
AcDbArc
 50
269.9999571957111
 51
0.0000428042888088
  0
LINE
  5
6EF
330
1F
100
AcDbEntity
  8
0
  6
Continuous
 62
     7
100
AcDbLine
 10
555.3057280405255
 20
291.9839166608872
 30
-6.378334039907497
 11
563.0057280405261
 21
291.9839166608872
 31
-6.378334039907497
  0
LINE
  5
6F0
330
1F
100
AcDbEntity
  8
0
  6
DASHED
 62
     4
 48
5.0
100
AcDbLine
 10
528.6057280405255
 20
314.7046666608873
 30
-6.378334039907497
 11
528.6057280405255
 21
299.9839166608873
 31
-6.378334039907497
  0
LINE
  5
6F1
330
1F
100
AcDbEntity
  8
0
  6
DASHED
 62
     4
 48
5.0
100
AcDbLine
 10
544.6057280405258
 20
299.9839166608873
 30
-6.378334039907497
 11
544.6057280405258
 21
314.9312566608871
 31
-6.378334039907497
  0
LINE
  5
6F2
330
1F
100
AcDbEntity
  8
0
  6
Continuous
 62
     7
100
AcDbLine
 10
721.6057280405258
 20
571.9839166608882
 30
-6.378334039907497
 11
721.6057280405258
 21
291.9839166608872
 31
-6.378334039907497
  0
LINE
  5
6F3
330
1F
100
AcDbEntity
  8
0
  6
Continuous
 62
     7
100
AcDbLine
 10
722.8057280405262
 20
571.9839166608882
 30
-6.378334039907497
 11
722.8057280405262
 21
291.9839166608872
 31
-6.378334039907497
  0
LINE
  5
6F4
330
1F
100
AcDbEntity
  8
0
  6
Continuous
 62
     7
100
AcDbLine
 10
563.0057280405261
 20
571.9839166608882
 30
-6.378334039907497
 11
563.0057280405261
 21
291.9839166608872
 31
-6.378334039907497
  0
LINE
  5
6F5
330
1F
100
AcDbEntity
  8
0
  6
Continuous
 62
     7
100
AcDbLine
 10
563.0057280405261
 20
293.9839166608873
 30
-6.378334039907497
 11
563.0057280405261
 21
569.9839166608876
 31
-6.378334039907497
  0
LINE
  5
6F6
330
1F
100
AcDbEntity
  8
0
  6
Continuous
 62
     7
100
AcDbLine
 10
721.6057280405258
 20
291.9839166608872
 30
-6.378334039907497
 11
921.8057280405268
 21
291.9839166608872
 31
-6.378334039907497
  0
LINE
  5
6F7
330
1F
100
AcDbEntity
  8
0
  6
Continuous
 62
     7
100
AcDbLine
 10
921.8057280405268
 20
571.9839166608882
 30
-6.378334039907497
 11
721.6057280405258
 21
571.9839166608882
 31
-6.378334039907497
  0
CIRCLE
  5
6F8
330
1F
100
AcDbEntity
  8
0
  6
DASHED
 62
     4
370
     0
100
AcDbCircle
 10
500.4523304751003
 20
551.4191327539998
 30
4.208574315048383
 40
2.99947881780339
  0
CIRCLE
  5
6F9
330
1F
100
AcDbEntity
  8
0
  6
Continuous
 62
     7
100
AcDbCircle
 10
521.3057302817508
 20
519.9839189021126
 30
4.210405960092526
 40
2.999997758775228
  0
CIRCLE
  5
6FA
330
1F
100
AcDbEntity
  8
0
  6
Continuous
 62
     7
100
AcDbCircle
 10
509.7825835346756
 20
519.9839196491881
 30
4.210405960092526
 40
1.999998505850379
  0
CIRCLE
  5
6FB
330
1F
100
AcDbEntity
  8
0
  6
DASHED
 62
     4
370
     0
100
AcDbCircle
 10
504.3050919073785
 20
541.1450962689631
 30
4.208574315048383
 40
2.99947881780339
  0
CIRCLE
  5
6FC
330
1F
100
AcDbEntity
  8
0
  6
DASHED
 62
     4
370
     0
100
AcDbCircle
 10
485.2149666972073
 20
551.4191327539998
 30
4.208574315048383
 40
2.99947881780339
  0
CIRCLE
  5
6FD
330
1F
100
AcDbEntity
  8
0
  6
DASHED
 62
     4
370
     0
100
AcDbCircle
 10
469.9776029193143
 20
551.4191327539998
 30
4.208574315048383
 40
2.99947881780339
  0
CIRCLE
  5
6FE
330
1F
100
AcDbEntity
  8
0
  6
DASHED
 62
     4
370
     0
100
AcDbCircle
 10
477.5962848082608
 20
551.4191327539998
 30
4.208574315048383
 40
2.99947881780339
  0
CIRCLE
  5
6FF
330
1F
100
AcDbEntity
  8
0
  6
DASHED
 62
     4
370
     0
100
AcDbCircle
 10
466.211682462646
 20
541.1450962689631
 30
4.208574315048383
 40
2.99947881780339
  0
CIRCLE
  5
700
330
1F
100
AcDbEntity
  8
0
  6
DASHED
 62
     4
370
     0
100
AcDbCircle
 10
473.8303643515925
 20
541.1450962689631
 30
4.208574315048383
 40
2.99947881780339
  0
CIRCLE
  5
701
330
1F
100
AcDbEntity
  8
0
  6
DASHED
 62
     4
370
     0
100
AcDbCircle
 10
481.449046240539
 20
541.1450962689631
 30
4.208574315048383
 40
2.99947881780339
  0
CIRCLE
  5
702
330
1F
100
AcDbEntity
  8
0
  6
DASHED
 62
     4
370
     0
100
AcDbCircle
 10
489.0677281294856
 20
541.1450962689631
 30
4.208574315048383
 40
2.99947881780339
  0
CIRCLE
  5
703
330
1F
100
AcDbEntity
  8
0
  6
DASHED
 62
     4
370
     0
100
AcDbCircle
 10
496.6864100184323
 20
541.1450962689631
 30
4.208574315048383
 40
2.99947881780339
  0
CIRCLE
  5
704
330
1F
100
AcDbEntity
  8
0
  6
DASHED
 62
     4
370
     0
100
AcDbCircle
 10
492.8336485861538
 20
551.4191327539998
 30
4.208574315048383
 40
2.99947881780339
  0
CIRCLE
  5
705
330
1F
100
AcDbEntity
  8
0
  6
DASHED
 62
     4
370
     0
100
AcDbCircle
 10
454.7402391414211
 20
551.4191327539998
 30
4.208574315048383
 40
2.99947881780339
  0
CIRCLE
  5
706
330
1F
100
AcDbEntity
  8
0
  6
DASHED
 62
     4
370
     0
100
AcDbCircle
 10
439.5028753635285
 20
551.4191327539998
 30
4.208574315048383
 40
2.99947881780339
  0
CIRCLE
  5
707
330
1F
100
AcDbEntity
  8
0
  6
DASHED
 62
     4
370
     0
100
AcDbCircle
 10
431.884193474582
 20
551.4191327539998
 30
4.208574315048383
 40
2.99947881780339
  0
CIRCLE
  5
708
330
1F
100
AcDbEntity
  8
0
  6
DASHED
 62
     4
370
     0
100
AcDbCircle
 10
447.1215572524746
 20
551.4191327539998
 30
4.208574315048383
 40
2.99947881780339
  0
CIRCLE
  5
709
330
1F
100
AcDbEntity
  8
0
  6
DASHED
 62
     4
370
     0
100
AcDbCircle
 10
435.7369549068595
 20
541.1450962689631
 30
4.208574315048383
 40
2.99947881780339
  0
CIRCLE
  5
70A
330
1F
100
AcDbEntity
  8
0
  6
DASHED
 62
     4
370
     0
100
AcDbCircle
 10
443.3556367958062
 20
541.1450962689631
 30
4.208574315048383
 40
2.99947881780339
  0
CIRCLE
  5
70B
330
1F
100
AcDbEntity
  8
0
  6
DASHED
 62
     4
370
     0
100
AcDbCircle
 10
450.9743186847526
 20
541.1450962689631
 30
4.208574315048383
 40
2.99947881780339
  0
CIRCLE
  5
70C
330
1F
100
AcDbEntity
  8
0
  6
DASHED
 62
     4
370
     0
100
AcDbCircle
 10
424.2655115856355
 20
551.4191327539998
 30
4.208574315048383
 40
2.99947881780339
  0
CIRCLE
  5
70D
330
1F
100
AcDbEntity
  8
0
  6
DASHED
 62
     4
370
     0
100
AcDbCircle
 10
416.646829696689
 20
551.4191327539998
 30
4.208574315048383
 40
2.999478817803506
  0
CIRCLE
  5
70E
330
1F
100
AcDbEntity
  8
0
  6
DASHED
 62
     4
370
     0
100
AcDbCircle
 10
401.4094659187958
 20
551.4191327539998
 30
4.208574315048383
 40
2.999478817803506
  0
CIRCLE
  5
70F
330
1F
100
AcDbEntity
  8
0
  6
DASHED
 62
     4
370
     0
100
AcDbCircle
 10
409.0281478077423
 20
551.4191327539998
 30
4.208574315048383
 40
2.999478817803506
  0
CIRCLE
  5
710
330
1F
100
AcDbEntity
  8
0
  6
DASHED
 62
     4
370
     0
100
AcDbCircle
 10
397.643545462127
 20
541.1450962689631
 30
4.208574315048383
 40
2.999478817803506
  0
CIRCLE
  5
711
330
1F
100
AcDbEntity
  8
0
  6
DASHED
 62
     4
370
     0
100
AcDbCircle
 10
405.2622273510733
 20
541.1450962689631
 30
4.208574315048383
 40
2.999478817803506
  0
CIRCLE
  5
712
330
1F
100
AcDbEntity
  8
0
  6
DASHED
 62
     4
370
     0
100
AcDbCircle
 10
412.8809092400198
 20
541.1450962689631
 30
4.208574315048383
 40
2.999478817803506
  0
CIRCLE
  5
713
330
1F
100
AcDbEntity
  8
0
  6
DASHED
 62
     4
370
     0
100
AcDbCircle
 10
420.4995911289665
 20
541.1450962689631
 30
4.208574315048383
 40
2.99947881780339
  0
CIRCLE
  5
714
330
1F
100
AcDbEntity
  8
0
  6
DASHED
 62
     4
370
     0
100
AcDbCircle
 10
428.1182730179128
 20
541.1450962689631
 30
4.208574315048383
 40
2.99947881780339
  0
ARC
  5
715
330
1F
100
AcDbEntity
  8
0
  6
Continuous
 62
     7
100
AcDbCircle
 10
462.805728040525
 20
580.9839155627718
 30
4.210405960092526
 40
9.000000401884435
100
AcDbArc
 50
119.9999985228646
 51
60.00000147713524
  0
ARC
  5
716
330
1F
100
AcDbEntity
  8
0
  6
Continuous
 62
     7
100
AcDbCircle
 10
462.805728040525
 20
589.9839166608877
 30
4.210405960092526
 40
4.500000000000122
100
AcDbArc
 50
0.0
 51
180.0
  0
CIRCLE
  5
717
330
1F
100
AcDbEntity
  8
0
  6
DASHED
 62
     4
370
     0
100
AcDbCircle
 10
458.5930005736993
 20
541.1450962689631
 30
4.208574315048383
 40
2.99947881780339
  0
CIRCLE
  5
718
330
1F
100
AcDbEntity
  8
0
  6
DASHED
 62
     4
370
     0
100
AcDbCircle
 10
462.3589210303678
 20
551.4191327539998
 30
4.208574315048383
 40
2.99947881780339
  0
CIRCLE
  5
719
330
1F
100
AcDbEntity
  8
0
  6
Continuous
 62
     7
100
AcDbCircle
 10
521.3057302817508
 20
493.9839189021126
 30
4.210405960092526
 40
2.999997758775113
  0
CIRCLE
  5
71A
330
1F
100
AcDbEntity
  8
0
  6
Continuous
 62
     7
100
AcDbCircle
 10
521.3057302817508
 20
506.9839189021126
 30
4.210405960092526
 40
2.999997758775228
  0
CIRCLE
  5
71B
330
1F
100
AcDbEntity
  8
0
  6
Continuous
 62
     7
100
AcDbCircle
 10
509.7825175346754
 20
494.4839196491876
 30
4.210405960092526
 40
1.999998505850149
  0
CIRCLE
  5
71C
330
1F
100
AcDbEntity
  8
0
  6
Continuous
 62
     7
100
AcDbCircle
 10
509.7825315346759
 20
499.5839196491881
 30
4.210405960092526
 40
1.999998505850264
  0
CIRCLE
  5
71D
330
1F
100
AcDbEntity
  8
0
  6
Continuous
 62
     7
100
AcDbCircle
 10
509.7825435346758
 20
504.6839196491881
 30
4.210405960092526
 40
1.999998505850379
  0
CIRCLE
  5
71E
330
1F
100
AcDbEntity
  8
0
  6
Continuous
 62
     7
100
AcDbCircle
 10
509.7825575346752
 20
509.7839196491885
 30
4.210405960092526
 40
1.999998505850264
  0
LINE
  5
71F
330
1F
100
AcDbEntity
  8
0
  6
Continuous
 62
     7
100
AcDbLine
 10
515.3057280405246
 20
474.983921143338
 30
4.210405960092526
 11
515.3057280405246
 21
466.9839211433382
 31
4.210405960092526
  0
LINE
  5
720
330
1F
100
AcDbEntity
  8
0
  6
Continuous
 62
     7
100
AcDbLine
 10
515.3057280405246
 20
486.9839211433383
 30
4.210405960092526
 11
515.3057280405246
 21
478.9839211433383
 31
4.210405960092526
  0
CIRCLE
  5
721
330
1F
100
AcDbEntity
  8
0
  6
Continuous
 62
     7
100
AcDbCircle
 10
509.7826615346757
 20
476.7639196491876
 30
4.210405960092526
 40
1.999998505850149
  0
CIRCLE
  5
722
330
1F
100
AcDbEntity
  8
0
  6
Continuous
 62
     7
100
AcDbCircle
 10
509.7826135346751
 20
481.863919649187
 30
4.210405960092526
 40
1.999998505850149
  0
CIRCLE
  5
723
330
1F
100
AcDbEntity
  8
0
  6
Continuous
 62
     7
100
AcDbCircle
 10
509.7825655346754
 20
486.9639196491881
 30
4.210405960092526
 40
1.999998505850379
  0
CIRCLE
  5
724
330
1F
100
AcDbEntity
  8
0
  6
Continuous
 62
     7
100
AcDbCircle
 10
514.3057302817508
 20
458.9839189021118
 30
4.210405960092526
 40
2.999997758775338
  0
CIRCLE
  5
725
330
1F
100
AcDbEntity
  8
0
  6
Continuous
 62
     7
100
AcDbCircle
 10
509.7825715346752
 20
514.8839196491873
 30
4.210405960092526
 40
1.999998505850149
  0
ARC
  5
726
330
1F
100
AcDbEntity
  8
0
  6
Continuous
 62
     7
100
AcDbCircle
 10
371.8057220639233
 20
593.9839226374893
 30
4.210405960092526
 40
7.999994023400951
100
AcDbArc
 50
89.99995719571442
 51
180.0000428042888
  0
ARC
  5
727
330
1F
100
AcDbEntity
  8
0
  6
Continuous
 62
     7
100
AcDbCircle
 10
364.6057265463749
 20
569.9839181550377
 30
4.210405960092526
 40
1.999998505850379
100
AcDbArc
 50
89.99995719571769
 51
180.0000428042919
  0
ARC
  5
728
330
1F
100
AcDbEntity
  8
0
  6
Continuous
 62
     7
100
AcDbCircle
 10
368.3057280405249
 20
562.9839166232492
 30
4.210405960092526
 40
4.000000287638988
100
AcDbArc
 50
295.944477767792
 51
244.0555222322079
  0
CIRCLE
  5
729
330
1F
100
AcDbEntity
  8
0
  6
Continuous
 62
     7
370
     0
100
AcDbCircle
 10
368.3057302817503
 20
521.9839329021136
 30
4.210405960092526
 40
2.999997758775338
  0
ARC
  5
72A
330
1F
100
AcDbEntity
  8
0
  6
Continuous
 62
     7
100
AcDbCircle
 10
360.6057266061401
 20
523.6639320952722
 30
4.210405960092526
 40
1.919998565616053
100
AcDbArc
 50
89.9999571957047
 51
180.0000428042789
  0
ARC
  5
72B
330
1F
100
AcDbEntity
  8
0
  6
Continuous
 62
     7
100
AcDbCircle
 10
360.6057266061401
 20
520.3039292265035
 30
4.210405960092526
 40
1.919998565616283
100
AcDbArc
 50
179.9999571957175
 51
270.0000428042919
  0
ARC
  5
72C
330
1F
100
AcDbEntity
  8
0
  6
Continuous
 62
     7
100
AcDbCircle
 10
368.3057280405249
 20
480.9839166608879
 30
4.210405960092526
 40
1.750000000000118
100
AcDbArc
 50
180.0
 51
0.0
  0
CIRCLE
  5
72D
330
1F
100
AcDbEntity
  8
0
  6
DASHED
 62
     4
370
     0
100
AcDbCircle
 10
508.6057299082137
 20
304.9839185285751
 30
4.210405960092526
 40
2.499998132312649
  0
CIRCLE
  5
72E
330
1F
100
AcDbEntity
  8
0
  6
DASHED
 62
     4
370
     0
100
AcDbCircle
 10
475.6057299082129
 20
304.9839185285751
 30
4.210405960092526
 40
2.499998132312649
  0
ARC
  5
72F
330
1F
100
AcDbEntity
  8
0
  6
Continuous
 62
     7
100
AcDbCircle
 10
469.3057265463749
 20
278.9839151667365
 30
4.210405960092526
 40
1.999998505850039
100
AcDbArc
 50
179.9999571957079
 51
270.0000428042855
  0
CIRCLE
  5
730
330
1F
100
AcDbEntity
  8
0
  6
DASHED
 62
     4
370
     0
100
AcDbCircle
 10
447.6057299082131
 20
304.9839185285751
 30
4.210405960092526
 40
2.499998132312649
  0
ARC
  5
731
330
1F
100
AcDbEntity
  8
0
  6
Continuous
 62
     7
100
AcDbCircle
 10
456.3057295346752
 20
278.9839151667365
 30
4.210405960092526
 40
1.999998505850209
100
AcDbArc
 50
269.9999571957111
 51
0.0000428042888088
  0
CIRCLE
  5
732
330
1F
100
AcDbEntity
  8
0
  6
DASHED
 62
     4
370
     0
100
AcDbCircle
 10
414.6057299082128
 20
304.9839185285751
 30
4.210405960092526
 40
2.499998132312649
  0
LINE
  5
733
330
1F
100
AcDbEntity
  8
0
  6
DASHED
 62
     4
 48
5.0
100
AcDbLine
 10
417.1057280405253
 20
304.9839166608872
 30
4.210405960092526
 11
417.1057280405253
 21
304.9839166608872
 31
4.210405960092526
  0
ARC
  5
734
330
1F
100
AcDbEntity
  8
0
  6
Continuous
 62
     7
100
AcDbCircle
 10
462.805728040525
 20
289.9839166608872
 30
4.210405960092526
 40
4.500000000000122
100
AcDbArc
 50
0.0
 51
180.0
  0
ARC
  5
735
330
1F
100
AcDbEntity
  8
0
  6
Continuous
 62
     7
100
AcDbCircle
 10
368.3057270405249
 20
321.9839153276021
 30
4.210405960092526
 40
4.000000066637817
100
AcDbArc
 50
126.8697715955449
 51
53.130228404455
  0
CIRCLE
  5
736
330
1F
100
AcDbEntity
  8
0
  6
Continuous
 62
     7
370
     0
100
AcDbCircle
 10
368.3057302817503
 20
326.9839329021123
 30
4.210405960092526
 40
2.999997758775228
  0
ARC
  5
737
330
1F
100
AcDbEntity
  8
0
  6
Continuous
 62
     7
100
AcDbCircle
 10
360.6057266061401
 20
323.6639320952716
 30
4.210405960092526
 40
1.919998565616166
100
AcDbArc
 50
89.99995719570794
 51
180.0000428042823
  0
ARC
  5
738
330
1F
100
AcDbEntity
  8
0
  6
Continuous
 62
     7
100
AcDbCircle
 10
360.6057266061401
 20
320.3039292265031
 30
4.210405960092526
 40
1.919998565616283
100
AcDbArc
 50
179.9999571957175
 51
270.0000428042919
  0
LINE
  5
739
330
1F
100
AcDbEntity
  8
0
  6
DASHED
 62
     4
 48
5.0
100
AcDbLine
 10
389.1057280405252
 20
304.9839166608872
 30
4.210405960092526
 11
389.1057280405252
 21
304.9839166608872
 31
4.210405960092526
  0
CIRCLE
  5
73A
330
1F
100
AcDbEntity
  8
0
  6
DASHED
 62
     4
370
     0
100
AcDbCircle
 10
386.6057299082133
 20
304.9839185285751
 30
4.210405960092526
 40
2.499998132312649
  0
ARC
  5
73B
330
1F
100
AcDbEntity
  8
0
  6
Continuous
 62
     7
100
AcDbCircle
 10
364.6057265463749
 20
293.9839151667369
 30
4.210405960092526
 40
1.999998505850149
100
AcDbArc
 50
179.9999571957112
 51
270.0000428042887
  0
ARC
  5
73C
330
1F
100
AcDbEntity
  8
0
  6
Continuous
 62
     7
100
AcDbCircle
 10
368.3057280405249
 20
291.9839166608872
 30
4.210405960092526
 40
2.000000000000003
100
AcDbArc
 50
0.0
 51
180.0
  0
ARC
  5
73D
330
1F
100
AcDbEntity
  8
0
  6
Continuous
 62
     7
100
AcDbCircle
 10
371.8057220639233
 20
284.9839106842853
 30
4.210405960092526
 40
7.999994023400777
100
AcDbArc
 50
179.9999571957112
 51
270.0000428042855
  0
LINE
  5
73E
330
1F
100
AcDbEntity
  8
0
  6
Continuous
 62
     7
100
AcDbLine
 10
467.3057280405256
 20
588.778144660888
 30
-6.378334039907497
 11
467.3057280405256
 21
589.9839166608877
 31
-6.378334039907497
  0
LINE
  5
73F
330
1F
100
AcDbEntity
  8
0
  6
DASHED
 62
     4
 48
5.0
100
AcDbLine
 10
494.8333023840636
 20
550.9192170033887
 30
-6.378334039907497
 11
494.8333023840636
 21
551.9190440229362
 31
-6.378334039907497
  0
LINE
  5
740
330
1F
100
AcDbEntity
  8
0
  6
DASHED
 62
     4
 48
5.0
100
AcDbLine
 10
494.8333023840636
 20
550.9192170033887
 30
-6.378334039907497
 11
494.8333023840636
 21
550.9192170033887
 31
-6.378334039907497
  0
LINE
  5
741
330
1F
100
AcDbEntity
  8
0
  6
DASHED
 62
     4
 48
5.0
100
AcDbLine
 10
502.4519842730101
 20
550.9192170033887
 30
-6.378334039907497
 11
502.4519842730101
 21
551.9190440229362
 31
-6.378334039907497
  0
LINE
  5
742
330
1F
100
AcDbEntity
  8
0
  6
DASHED
 62
     4
 48
5.0
100
AcDbLine
 10
502.4519842730101
 20
551.9190440229362
 30
-6.378334039907497
 11
500.9522437436904
 21
551.9190440229362
 31
-6.378334039907497
  0
LINE
  5
743
330
1F
100
AcDbEntity
  8
0
  6
DASHED
 62
     4
 48
5.0
100
AcDbLine
 10
500.9522437436904
 20
551.9190440229362
 30
-6.378334039907497
 11
500.9522437436904
 21
553.4187845522564
 31
-6.378334039907497
  0
LINE
  5
744
330
1F
100
AcDbEntity
  8
0
  6
DASHED
 62
     4
 48
5.0
100
AcDbLine
 10
500.9522437436904
 20
553.4187845522564
 30
-6.378334039907497
 11
499.9524167241432
 21
553.4187845522564
 31
-6.378334039907497
  0
LINE
  5
745
330
1F
100
AcDbEntity
  8
0
  6
DASHED
 62
     4
 48
5.0
100
AcDbLine
 10
499.9524167241432
 20
553.4187845522564
 30
-6.378334039907497
 11
499.9524167241432
 21
551.9190440229362
 31
-6.378334039907497
  0
LINE
  5
746
330
1F
100
AcDbEntity
  8
0
  6
DASHED
 62
     4
 48
5.0
100
AcDbLine
 10
499.9524167241432
 20
551.9190440229362
 30
-6.378334039907497
 11
498.4526761948231
 21
551.9190440229362
 31
-6.378334039907497
  0
LINE
  5
747
330
1F
100
AcDbEntity
  8
0
  6
DASHED
 62
     4
 48
5.0
100
AcDbLine
 10
498.4526761948231
 20
551.9190440229362
 30
-6.378334039907497
 11
498.4526761948231
 21
550.9192170033887
 31
-6.378334039907497
  0
LINE
  5
748
330
1F
100
AcDbEntity
  8
0
  6
DASHED
 62
     4
 48
5.0
100
AcDbLine
 10
498.4526761948231
 20
550.9192170033887
 30
-6.378334039907497
 11
499.9524167241432
 21
550.9192170033887
 31
-6.378334039907497
  0
LINE
  5
749
330
1F
100
AcDbEntity
  8
0
  6
DASHED
 62
     4
 48
5.0
100
AcDbLine
 10
499.9524167241432
 20
550.9192170033887
 30
-6.378334039907497
 11
499.9524167241432
 21
549.4194764740692
 31
-6.378334039907497
  0
LINE
  5
74A
330
1F
100
AcDbEntity
  8
0
  6
DASHED
 62
     4
 48
5.0
100
AcDbLine
 10
499.9524167241432
 20
549.4194764740692
 30
-6.378334039907497
 11
500.9522437436904
 21
549.4194764740692
 31
-6.378334039907497
  0
LINE
  5
74B
330
1F
100
AcDbEntity
  8
0
  6
DASHED
 62
     4
 48
5.0
100
AcDbLine
 10
500.9522437436904
 20
549.4194764740692
 30
-6.378334039907497
 11
500.9522437436904
 21
550.9192170033887
 31
-6.378334039907497
  0
LINE
  5
74C
330
1F
100
AcDbEntity
  8
0
  6
DASHED
 62
     4
 48
5.0
100
AcDbLine
 10
500.9522437436904
 20
550.9192170033887
 30
-6.378334039907497
 11
502.4519842730101
 21
550.9192170033887
 31
-6.378334039907497
  0
LINE
  5
74D
330
1F
100
AcDbEntity
  8
0
  6
DASHED
 62
     4
 48
5.0
100
AcDbLine
 10
502.4519842730101
 20
550.9192170033887
 30
-6.378334039907497
 11
502.4519842730101
 21
550.9192170033887
 31
-6.378334039907497
  0
LINE
  5
74E
330
1F
100
AcDbEntity
  8
0
  6
DASHED
 62
     4
 48
5.0
100
AcDbLine
 10
498.6860618166883
 20
541.6450075378986
 30
-6.378334039907497
 11
497.1863212873675
 21
541.6450075378986
 31
-6.378334039907497
  0
LINE
  5
74F
330
1F
100
AcDbEntity
  8
0
  6
DASHED
 62
     4
 48
5.0
100
AcDbLine
 10
497.1863212873675
 20
541.6450075378986
 30
-6.378334039907497
 11
497.1863212873675
 21
543.1447480672192
 31
-6.378334039907497
  0
LINE
  5
750
330
1F
100
AcDbEntity
  8
0
  6
DASHED
 62
     4
 48
5.0
100
AcDbLine
 10
497.1863212873675
 20
543.1447480672192
 30
-6.378334039907497
 11
496.1864942678205
 21
543.1447480672192
 31
-6.378334039907497
  0
LINE
  5
751
330
1F
100
AcDbEntity
  8
0
  6
DASHED
 62
     4
 48
5.0
100
AcDbLine
 10
496.1864942678205
 20
543.1447480672192
 30
-6.378334039907497
 11
496.1864942678205
 21
541.6450075378986
 31
-6.378334039907497
  0
LINE
  5
752
330
1F
100
AcDbEntity
  8
0
  6
DASHED
 62
     4
 48
5.0
100
AcDbLine
 10
506.3047437056348
 20
541.6450075378986
 30
-6.378334039907497
 11
504.805003176314
 21
541.6450075378986
 31
-6.378334039907497
  0
LINE
  5
753
330
1F
100
AcDbEntity
  8
0
  6
DASHED
 62
     4
 48
5.0
100
AcDbLine
 10
504.805003176314
 20
541.6450075378986
 30
-6.378334039907497
 11
504.805003176314
 21
543.1447480672192
 31
-6.378334039907497
  0
LINE
  5
754
330
1F
100
AcDbEntity
  8
0
  6
DASHED
 62
     4
 48
5.0
100
AcDbLine
 10
504.805003176314
 20
543.1447480672192
 30
-6.378334039907497
 11
503.8051761567669
 21
543.1447480672192
 31
-6.378334039907497
  0
LINE
  5
755
330
1F
100
AcDbEntity
  8
0
  6
DASHED
 62
     4
 48
5.0
100
AcDbLine
 10
503.8051761567669
 20
543.1447480672192
 30
-6.378334039907497
 11
503.8051761567669
 21
541.6450075378986
 31
-6.378334039907497
  0
LINE
  5
756
330
1F
100
AcDbEntity
  8
0
  6
DASHED
 62
     4
 48
5.0
100
AcDbLine
 10
503.8051761567669
 20
541.6450075378986
 30
-6.378334039907497
 11
502.3054356274471
 21
541.6450075378986
 31
-6.378334039907497
  0
LINE
  5
757
330
1F
100
AcDbEntity
  8
0
  6
DASHED
 62
     4
 48
5.0
100
AcDbLine
 10
503.5666154302497
 20
546.685473484967
 30
-6.378334039907497
 11
503.5666154302497
 21
555.6839166608881
 31
-6.378334039907497
  0
LINE
  5
758
330
1F
100
AcDbEntity
  8
0
  6
DASHED
 62
     4
 48
5.0
100
AcDbLine
 10
504.8863870960511
 20
546.685473484967
 30
-6.378334039907497
 11
504.8863870960511
 21
555.6839166608881
 31
-6.378334039907497
  0
LINE
  5
759
330
1F
100
AcDbEntity
  8
0
  6
DASHED
 62
     4
 48
5.0
100
AcDbLine
 10
495.9479335413033
 20
546.685473484967
 30
-6.378334039907497
 11
495.9479335413033
 21
555.6839166608881
 31
-6.378334039907497
  0
LINE
  5
75A
330
1F
100
AcDbEntity
  8
0
  6
DASHED
 62
     4
 48
5.0
100
AcDbLine
 10
497.2677052071047
 20
546.685473484967
 30
-6.378334039907497
 11
497.2677052071047
 21
555.6839166608881
 31
-6.378334039907497
  0
LINE
  5
75B
330
1F
100
AcDbEntity
  8
0
  6
DASHED
 62
     4
 48
5.0
100
AcDbLine
 10
496.1864942678205
 20
540.6451805183523
 30
-6.378334039907497
 11
496.1864942678205
 21
539.1454399890319
 31
-6.378334039907497
  0
LINE
  5
75C
330
1F
100
AcDbEntity
  8
0
  6
DASHED
 62
     4
 48
5.0
100
AcDbLine
 10
496.1864942678205
 20
539.1454399890319
 30
-6.378334039907497
 11
497.1863212873675
 21
539.1454399890319
 31
-6.378334039907497
  0
LINE
  5
75D
330
1F
100
AcDbEntity
  8
0
  6
DASHED
 62
     4
 48
5.0
100
AcDbLine
 10
497.1863212873675
 20
539.1454399890319
 30
-6.378334039907497
 11
497.1863212873675
 21
540.6451805183523
 31
-6.378334039907497
  0
LINE
  5
75E
330
1F
100
AcDbEntity
  8
0
  6
DASHED
 62
     4
 48
5.0
100
AcDbLine
 10
497.1863212873675
 20
540.6451805183523
 30
-6.378334039907497
 11
498.6860618166883
 21
540.6451805183523
 31
-6.378334039907497
  0
LINE
  5
75F
330
1F
100
AcDbEntity
  8
0
  6
DASHED
 62
     4
 48
5.0
100
AcDbLine
 10
498.6860618166883
 20
540.6451805183523
 30
-6.378334039907497
 11
498.6860618166883
 21
540.6451805183523
 31
-6.378334039907497
  0
LINE
  5
760
330
1F
100
AcDbEntity
  8
0
  6
DASHED
 62
     4
 48
5.0
100
AcDbLine
 10
502.3054356274471
 20
540.6451805183523
 30
-6.378334039907497
 11
503.8051761567669
 21
540.6451805183523
 31
-6.378334039907497
  0
LINE
  5
761
330
1F
100
AcDbEntity
  8
0
  6
DASHED
 62
     4
 48
5.0
100
AcDbLine
 10
503.8051761567669
 20
540.6451805183523
 30
-6.378334039907497
 11
503.8051761567669
 21
539.1454399890319
 31
-6.378334039907497
  0
LINE
  5
762
330
1F
100
AcDbEntity
  8
0
  6
DASHED
 62
     4
 48
5.0
100
AcDbLine
 10
503.8051761567669
 20
539.1454399890319
 30
-6.378334039907497
 11
504.805003176314
 21
539.1454399890319
 31
-6.378334039907497
  0
LINE
  5
763
330
1F
100
AcDbEntity
  8
0
  6
DASHED
 62
     4
 48
5.0
100
AcDbLine
 10
504.805003176314
 20
539.1454399890319
 30
-6.378334039907497
 11
504.805003176314
 21
540.6451805183523
 31
-6.378334039907497
  0
LINE
  5
764
330
1F
100
AcDbEntity
  8
0
  6
DASHED
 62
     4
 48
5.0
100
AcDbLine
 10
504.805003176314
 20
540.6451805183523
 30
-6.378334039907497
 11
506.3047437056348
 21
540.6451805183523
 31
-6.378334039907497
  0
LINE
  5
765
330
1F
100
AcDbEntity
  8
0
  6
DASHED
 62
     4
 48
5.0
100
AcDbLine
 10
506.3047437056348
 20
540.6451805183523
 30
-6.378334039907497
 11
506.3047437056348
 21
540.6451805183523
 31
-6.378334039907497
  0
LINE
  5
766
330
1F
100
AcDbEntity
  8
0
  6
DASHED
 62
     4
 48
5.0
100
AcDbLine
 10
498.6860618166883
 20
540.6451805183523
 30
-6.378334039907497
 11
498.6860618166883
 21
541.6450075378986
 31
-6.378334039907497
  0
LINE
  5
767
330
1F
100
AcDbEntity
  8
0
  6
DASHED
 62
     4
 48
5.0
100
AcDbLine
 10
506.3047437056348
 20
540.6451805183523
 30
-6.378334039907497
 11
506.3047437056348
 21
541.6450075378986
 31
-6.378334039907497
  0
LINE
  5
768
330
1F
100
AcDbEntity
  8
0
  6
DASHED
 62
     4
 48
5.0
100
AcDbLine
 10
502.3054356274471
 20
541.6450075378986
 30
-6.378334039907497
 11
502.3054356274471
 21
540.6451805183523
 31
-6.378334039907497
  0
LINE
  5
769
330
1F
100
AcDbEntity
  8
0
  6
DASHED
 62
     4
 48
5.0
100
AcDbLine
 10
499.7572744857765
 20
536.6872032894991
 30
-6.378334039907497
 11
499.7572744857765
 21
546.685473484967
 31
-6.378334039907497
  0
LINE
  5
76A
330
1F
100
AcDbEntity
  8
0
  6
DASHED
 62
     4
 48
5.0
100
AcDbLine
 10
501.0770461515781
 20
536.6872032894991
 30
-6.378334039907497
 11
501.0770461515781
 21
546.685473484967
 31
-6.378334039907497
  0
LINE
  5
76B
330
1F
100
AcDbEntity
  8
0
  6
DASHED
 62
     4
 48
5.0
100
AcDbLine
 10
507.3759563747231
 20
536.6872032894991
 30
-6.378334039907497
 11
507.3759563747231
 21
546.685473484967
 31
-6.378334039907497
  0
LINE
  5
76C
330
1F
100
AcDbEntity
  8
0
  6
DASHED
 62
     4
 48
5.0
100
AcDbLine
 10
508.6957280405249
 20
536.6872032894991
 30
-6.378334039907497
 11
508.6957280405249
 21
555.6839166608881
 31
-6.378334039907497
  0
LINE
  5
76D
330
1F
100
AcDbEntity
  8
0
  6
DASHED
 62
     4
 48
5.0
100
AcDbLine
 10
479.5959386061706
 20
550.9192170033887
 30
-6.378334039907497
 11
479.5959386061706
 21
551.9190440229362
 31
-6.378334039907497
  0
LINE
  5
76E
330
1F
100
AcDbEntity
  8
0
  6
DASHED
 62
     4
 48
5.0
100
AcDbLine
 10
479.5959386061706
 20
551.9190440229362
 30
-6.378334039907497
 11
478.0961980768508
 21
551.9190440229362
 31
-6.378334039907497
  0
LINE
  5
76F
330
1F
100
AcDbEntity
  8
0
  6
DASHED
 62
     4
 48
5.0
100
AcDbLine
 10
478.0961980768508
 20
551.9190440229362
 30
-6.378334039907497
 11
478.0961980768508
 21
553.4187845522564
 31
-6.378334039907497
  0
LINE
  5
770
330
1F
100
AcDbEntity
  8
0
  6
DASHED
 62
     4
 48
5.0
100
AcDbLine
 10
478.0961980768508
 20
549.4194764740692
 30
-6.378334039907497
 11
478.0961980768508
 21
550.9192170033887
 31
-6.378334039907497
  0
LINE
  5
771
330
1F
100
AcDbEntity
  8
0
  6
DASHED
 62
     4
 48
5.0
100
AcDbLine
 10
478.0961980768508
 20
550.9192170033887
 30
-6.378334039907497
 11
479.5959386061706
 21
550.9192170033887
 31
-6.378334039907497
  0
LINE
  5
772
330
1F
100
AcDbEntity
  8
0
  6
DASHED
 62
     4
 48
5.0
100
AcDbLine
 10
479.5959386061706
 20
550.9192170033887
 30
-6.378334039907497
 11
479.5959386061706
 21
550.9192170033887
 31
-6.378334039907497
  0
LINE
  5
773
330
1F
100
AcDbEntity
  8
0
  6
DASHED
 62
     4
 48
5.0
100
AcDbLine
 10
487.2146204951171
 20
550.9192170033887
 30
-6.378334039907497
 11
487.2146204951171
 21
551.9190440229362
 31
-6.378334039907497
  0
LINE
  5
774
330
1F
100
AcDbEntity
  8
0
  6
DASHED
 62
     4
 48
5.0
100
AcDbLine
 10
487.2146204951171
 20
551.9190440229362
 30
-6.378334039907497
 11
485.7148799657974
 21
551.9190440229362
 31
-6.378334039907497
  0
LINE
  5
775
330
1F
100
AcDbEntity
  8
0
  6
DASHED
 62
     4
 48
5.0
100
AcDbLine
 10
485.7148799657974
 20
551.9190440229362
 30
-6.378334039907497
 11
485.7148799657974
 21
553.4187845522564
 31
-6.378334039907497
  0
LINE
  5
776
330
1F
100
AcDbEntity
  8
0
  6
DASHED
 62
     4
 48
5.0
100
AcDbLine
 10
485.7148799657974
 20
553.4187845522564
 30
-6.378334039907497
 11
484.7150529462501
 21
553.4187845522564
 31
-6.378334039907497
  0
LINE
  5
777
330
1F
100
AcDbEntity
  8
0
  6
DASHED
 62
     4
 48
5.0
100
AcDbLine
 10
484.7150529462501
 20
553.4187845522564
 30
-6.378334039907497
 11
484.7150529462501
 21
551.9190440229362
 31
-6.378334039907497
  0
LINE
  5
778
330
1F
100
AcDbEntity
  8
0
  6
DASHED
 62
     4
 48
5.0
100
AcDbLine
 10
484.7150529462501
 20
551.9190440229362
 30
-6.378334039907497
 11
483.2153124169297
 21
551.9190440229362
 31
-6.378334039907497
  0
LINE
  5
779
330
1F
100
AcDbEntity
  8
0
  6
DASHED
 62
     4
 48
5.0
100
AcDbLine
 10
483.2153124169297
 20
551.9190440229362
 30
-6.378334039907497
 11
483.2153124169297
 21
550.9192170033887
 31
-6.378334039907497
  0
LINE
  5
77A
330
1F
100
AcDbEntity
  8
0
  6
DASHED
 62
     4
 48
5.0
100
AcDbLine
 10
483.2153124169297
 20
550.9192170033887
 30
-6.378334039907497
 11
484.7150529462501
 21
550.9192170033887
 31
-6.378334039907497
  0
LINE
  5
77B
330
1F
100
AcDbEntity
  8
0
  6
DASHED
 62
     4
 48
5.0
100
AcDbLine
 10
484.7150529462501
 20
550.9192170033887
 30
-6.378334039907497
 11
484.7150529462501
 21
549.4194764740692
 31
-6.378334039907497
  0
LINE
  5
77C
330
1F
100
AcDbEntity
  8
0
  6
DASHED
 62
     4
 48
5.0
100
AcDbLine
 10
484.7150529462501
 20
549.4194764740692
 30
-6.378334039907497
 11
485.7148799657974
 21
549.4194764740692
 31
-6.378334039907497
  0
LINE
  5
77D
330
1F
100
AcDbEntity
  8
0
  6
DASHED
 62
     4
 48
5.0
100
AcDbLine
 10
485.7148799657974
 20
549.4194764740692
 30
-6.378334039907497
 11
485.7148799657974
 21
550.9192170033887
 31
-6.378334039907497
  0
LINE
  5
77E
330
1F
100
AcDbEntity
  8
0
  6
DASHED
 62
     4
 48
5.0
100
AcDbLine
 10
485.7148799657974
 20
550.9192170033887
 30
-6.378334039907497
 11
487.2146204951171
 21
550.9192170033887
 31
-6.378334039907497
  0
LINE
  5
77F
330
1F
100
AcDbEntity
  8
0
  6
DASHED
 62
     4
 48
5.0
100
AcDbLine
 10
487.2146204951171
 20
550.9192170033887
 30
-6.378334039907497
 11
487.2146204951171
 21
550.9192170033887
 31
-6.378334039907497
  0
LINE
  5
780
330
1F
100
AcDbEntity
  8
0
  6
DASHED
 62
     4
 48
5.0
100
AcDbLine
 10
483.4486980387946
 20
541.6450075378986
 30
-6.378334039907497
 11
481.9489575094745
 21
541.6450075378986
 31
-6.378334039907497
  0
LINE
  5
781
330
1F
100
AcDbEntity
  8
0
  6
DASHED
 62
     4
 48
5.0
100
AcDbLine
 10
481.9489575094745
 20
541.6450075378986
 30
-6.378334039907497
 11
481.9489575094745
 21
543.1447480672192
 31
-6.378334039907497
  0
LINE
  5
782
330
1F
100
AcDbEntity
  8
0
  6
DASHED
 62
     4
 48
5.0
100
AcDbLine
 10
481.9489575094745
 20
543.1447480672192
 30
-6.378334039907497
 11
480.9491304899278
 21
543.1447480672192
 31
-6.378334039907497
  0
LINE
  5
783
330
1F
100
AcDbEntity
  8
0
  6
DASHED
 62
     4
 48
5.0
100
AcDbLine
 10
480.9491304899278
 20
543.1447480672192
 30
-6.378334039907497
 11
480.9491304899278
 21
541.6450075378986
 31
-6.378334039907497
  0
LINE
  5
784
330
1F
100
AcDbEntity
  8
0
  6
DASHED
 62
     4
 48
5.0
100
AcDbLine
 10
480.9491304899278
 20
541.6450075378986
 30
-6.378334039907497
 11
479.4493899606079
 21
541.6450075378986
 31
-6.378334039907497
  0
LINE
  5
785
330
1F
100
AcDbEntity
  8
0
  6
DASHED
 62
     4
 48
5.0
100
AcDbLine
 10
493.3335618547437
 20
551.9190440229362
 30
-6.378334039907497
 11
493.3335618547437
 21
553.4187845522564
 31
-6.378334039907497
  0
LINE
  5
786
330
1F
100
AcDbEntity
  8
0
  6
DASHED
 62
     4
 48
5.0
100
AcDbLine
 10
493.3335618547437
 20
553.4187845522564
 30
-6.378334039907497
 11
492.3337348351966
 21
553.4187845522564
 31
-6.378334039907497
  0
LINE
  5
787
330
1F
100
AcDbEntity
  8
0
  6
DASHED
 62
     4
 48
5.0
100
AcDbLine
 10
492.3337348351966
 20
553.4187845522564
 30
-6.378334039907497
 11
492.3337348351966
 21
551.9190440229362
 31
-6.378334039907497
  0
LINE
  5
788
330
1F
100
AcDbEntity
  8
0
  6
DASHED
 62
     4
 48
5.0
100
AcDbLine
 10
492.3337348351966
 20
551.9190440229362
 30
-6.378334039907497
 11
490.8339943058764
 21
551.9190440229362
 31
-6.378334039907497
  0
LINE
  5
789
330
1F
100
AcDbEntity
  8
0
  6
DASHED
 62
     4
 48
5.0
100
AcDbLine
 10
490.8339943058764
 20
551.9190440229362
 30
-6.378334039907497
 11
490.8339943058764
 21
550.9192170033887
 31
-6.378334039907497
  0
LINE
  5
78A
330
1F
100
AcDbEntity
  8
0
  6
DASHED
 62
     4
 48
5.0
100
AcDbLine
 10
490.8339943058764
 20
550.9192170033887
 30
-6.378334039907497
 11
492.3337348351966
 21
550.9192170033887
 31
-6.378334039907497
  0
LINE
  5
78B
330
1F
100
AcDbEntity
  8
0
  6
DASHED
 62
     4
 48
5.0
100
AcDbLine
 10
492.3337348351966
 20
550.9192170033887
 30
-6.378334039907497
 11
492.3337348351966
 21
549.4194764740692
 31
-6.378334039907497
  0
LINE
  5
78C
330
1F
100
AcDbEntity
  8
0
  6
DASHED
 62
     4
 48
5.0
100
AcDbLine
 10
492.3337348351966
 20
549.4194764740692
 30
-6.378334039907497
 11
493.3335618547437
 21
549.4194764740692
 31
-6.378334039907497
  0
LINE
  5
78D
330
1F
100
AcDbEntity
  8
0
  6
DASHED
 62
     4
 48
5.0
100
AcDbLine
 10
493.3335618547437
 20
549.4194764740692
 30
-6.378334039907497
 11
493.3335618547437
 21
550.9192170033887
 31
-6.378334039907497
  0
LINE
  5
78E
330
1F
100
AcDbEntity
  8
0
  6
DASHED
 62
     4
 48
5.0
100
AcDbLine
 10
491.0673799277407
 20
541.6450075378986
 30
-6.378334039907497
 11
489.5676393984207
 21
541.6450075378986
 31
-6.378334039907497
  0
LINE
  5
78F
330
1F
100
AcDbEntity
  8
0
  6
DASHED
 62
     4
 48
5.0
100
AcDbLine
 10
489.5676393984207
 20
541.6450075378986
 30
-6.378334039907497
 11
489.5676393984207
 21
543.1447480672192
 31
-6.378334039907497
  0
LINE
  5
790
330
1F
100
AcDbEntity
  8
0
  6
DASHED
 62
     4
 48
5.0
100
AcDbLine
 10
489.5676393984207
 20
543.1447480672192
 30
-6.378334039907497
 11
488.5678123788739
 21
543.1447480672192
 31
-6.378334039907497
  0
LINE
  5
791
330
1F
100
AcDbEntity
  8
0
  6
DASHED
 62
     4
 48
5.0
100
AcDbLine
 10
488.5678123788739
 20
543.1447480672192
 30
-6.378334039907497
 11
488.5678123788739
 21
541.6450075378986
 31
-6.378334039907497
  0
LINE
  5
792
330
1F
100
AcDbEntity
  8
0
  6
DASHED
 62
     4
 48
5.0
100
AcDbLine
 10
488.5678123788739
 20
541.6450075378986
 30
-6.378334039907497
 11
487.0680718495536
 21
541.6450075378986
 31
-6.378334039907497
  0
LINE
  5
793
330
1F
100
AcDbEntity
  8
0
  6
DASHED
 62
     4
 48
5.0
100
AcDbLine
 10
488.3292516523567
 20
546.685473484967
 30
-6.378334039907497
 11
488.3292516523567
 21
555.6839166608881
 31
-6.378334039907497
  0
LINE
  5
794
330
1F
100
AcDbEntity
  8
0
  6
DASHED
 62
     4
 48
5.0
100
AcDbLine
 10
489.6490233181581
 20
546.685473484967
 30
-6.378334039907497
 11
489.6490233181581
 21
555.6839166608881
 31
-6.378334039907497
  0
LINE
  5
795
330
1F
100
AcDbEntity
  8
0
  6
DASHED
 62
     4
 48
5.0
100
AcDbLine
 10
480.7105697634102
 20
546.685473484967
 30
-6.378334039907497
 11
480.7105697634102
 21
555.6839166608881
 31
-6.378334039907497
  0
LINE
  5
796
330
1F
100
AcDbEntity
  8
0
  6
DASHED
 62
     4
 48
5.0
100
AcDbLine
 10
482.0303414292115
 20
546.685473484967
 30
-6.378334039907497
 11
482.0303414292115
 21
555.6839166608881
 31
-6.378334039907497
  0
LINE
  5
797
330
1F
100
AcDbEntity
  8
0
  6
DASHED
 62
     4
 48
5.0
100
AcDbLine
 10
464.358574828278
 20
550.9192170033887
 30
-6.378334039907497
 11
464.358574828278
 21
551.9190440229362
 31
-6.378334039907497
  0
LINE
  5
798
330
1F
100
AcDbEntity
  8
0
  6
DASHED
 62
     4
 48
5.0
100
AcDbLine
 10
464.358574828278
 20
551.9190440229362
 30
-6.378334039907497
 11
462.8588342989575
 21
551.9190440229362
 31
-6.378334039907497
  0
LINE
  5
799
330
1F
100
AcDbEntity
  8
0
  6
DASHED
 62
     4
 48
5.0
100
AcDbLine
 10
462.8588342989575
 20
551.9190440229362
 30
-6.378334039907497
 11
462.8588342989575
 21
553.4187845522564
 31
-6.378334039907497
  0
LINE
  5
79A
330
1F
100
AcDbEntity
  8
0
  6
DASHED
 62
     4
 48
5.0
100
AcDbLine
 10
462.8588342989575
 20
553.4187845522564
 30
-6.378334039907497
 11
461.859007279411
 21
553.4187845522564
 31
-6.378334039907497
  0
LINE
  5
79B
330
1F
100
AcDbEntity
  8
0
  6
DASHED
 62
     4
 48
5.0
100
AcDbLine
 10
461.859007279411
 20
553.4187845522564
 30
-6.378334039907497
 11
461.859007279411
 21
551.9190440229362
 31
-6.378334039907497
  0
LINE
  5
79C
330
1F
100
AcDbEntity
  8
0
  6
DASHED
 62
     4
 48
5.0
100
AcDbLine
 10
461.859007279411
 20
550.9192170033887
 30
-6.378334039907497
 11
461.859007279411
 21
549.4194764740692
 31
-6.378334039907497
  0
LINE
  5
79D
330
1F
100
AcDbEntity
  8
0
  6
DASHED
 62
     4
 48
5.0
100
AcDbLine
 10
461.859007279411
 20
549.4194764740692
 30
-6.378334039907497
 11
462.8588342989575
 21
549.4194764740692
 31
-6.378334039907497
  0
LINE
  5
79E
330
1F
100
AcDbEntity
  8
0
  6
DASHED
 62
     4
 48
5.0
100
AcDbLine
 10
462.8588342989575
 20
549.4194764740692
 30
-6.378334039907497
 11
462.8588342989575
 21
550.9192170033887
 31
-6.378334039907497
  0
LINE
  5
79F
330
1F
100
AcDbEntity
  8
0
  6
DASHED
 62
     4
 48
5.0
100
AcDbLine
 10
462.8588342989575
 20
550.9192170033887
 30
-6.378334039907497
 11
464.358574828278
 21
550.9192170033887
 31
-6.378334039907497
  0
LINE
  5
7A0
330
1F
100
AcDbEntity
  8
0
  6
DASHED
 62
     4
 48
5.0
100
AcDbLine
 10
464.358574828278
 20
550.9192170033887
 30
-6.378334039907497
 11
464.358574828278
 21
550.9192170033887
 31
-6.378334039907497
  0
LINE
  5
7A1
330
1F
100
AcDbEntity
  8
0
  6
DASHED
 62
     4
 48
5.0
100
AcDbLine
 10
471.9772567172243
 20
550.9192170033887
 30
-6.378334039907497
 11
471.9772567172243
 21
551.9190440229362
 31
-6.378334039907497
  0
LINE
  5
7A2
330
1F
100
AcDbEntity
  8
0
  6
DASHED
 62
     4
 48
5.0
100
AcDbLine
 10
471.9772567172243
 20
551.9190440229362
 30
-6.378334039907497
 11
470.4775161879042
 21
551.9190440229362
 31
-6.378334039907497
  0
LINE
  5
7A3
330
1F
100
AcDbEntity
  8
0
  6
DASHED
 62
     4
 48
5.0
100
AcDbLine
 10
470.4775161879042
 20
551.9190440229362
 30
-6.378334039907497
 11
470.4775161879042
 21
553.4187845522564
 31
-6.378334039907497
  0
LINE
  5
7A4
330
1F
100
AcDbEntity
  8
0
  6
DASHED
 62
     4
 48
5.0
100
AcDbLine
 10
470.4775161879042
 20
553.4187845522564
 30
-6.378334039907497
 11
469.4776891683575
 21
553.4187845522564
 31
-6.378334039907497
  0
LINE
  5
7A5
330
1F
100
AcDbEntity
  8
0
  6
DASHED
 62
     4
 48
5.0
100
AcDbLine
 10
469.4776891683575
 20
553.4187845522564
 30
-6.378334039907497
 11
469.4776891683575
 21
551.9190440229362
 31
-6.378334039907497
  0
LINE
  5
7A6
330
1F
100
AcDbEntity
  8
0
  6
DASHED
 62
     4
 48
5.0
100
AcDbLine
 10
469.4776891683575
 20
551.9190440229362
 30
-6.378334039907497
 11
467.9779486390373
 21
551.9190440229362
 31
-6.378334039907497
  0
LINE
  5
7A7
330
1F
100
AcDbEntity
  8
0
  6
DASHED
 62
     4
 48
5.0
100
AcDbLine
 10
467.9779486390373
 20
551.9190440229362
 30
-6.378334039907497
 11
467.9779486390373
 21
550.9192170033887
 31
-6.378334039907497
  0
LINE
  5
7A8
330
1F
100
AcDbEntity
  8
0
  6
DASHED
 62
     4
 48
5.0
100
AcDbLine
 10
467.9779486390373
 20
550.9192170033887
 30
-6.378334039907497
 11
469.4776891683575
 21
550.9192170033887
 31
-6.378334039907497
  0
LINE
  5
7A9
330
1F
100
AcDbEntity
  8
0
  6
DASHED
 62
     4
 48
5.0
100
AcDbLine
 10
469.4776891683575
 20
550.9192170033887
 30
-6.378334039907497
 11
469.4776891683575
 21
549.4194764740692
 31
-6.378334039907497
  0
LINE
  5
7AA
330
1F
100
AcDbEntity
  8
0
  6
DASHED
 62
     4
 48
5.0
100
AcDbLine
 10
469.4776891683575
 20
549.4194764740692
 30
-6.378334039907497
 11
470.4775161879042
 21
549.4194764740692
 31
-6.378334039907497
  0
LINE
  5
7AB
330
1F
100
AcDbEntity
  8
0
  6
DASHED
 62
     4
 48
5.0
100
AcDbLine
 10
470.4775161879042
 20
549.4194764740692
 30
-6.378334039907497
 11
470.4775161879042
 21
550.9192170033887
 31
-6.378334039907497
  0
LINE
  5
7AC
330
1F
100
AcDbEntity
  8
0
  6
DASHED
 62
     4
 48
5.0
100
AcDbLine
 10
470.4775161879042
 20
550.9192170033887
 30
-6.378334039907497
 11
471.9772567172243
 21
550.9192170033887
 31
-6.378334039907497
  0
LINE
  5
7AD
330
1F
100
AcDbEntity
  8
0
  6
DASHED
 62
     4
 48
5.0
100
AcDbLine
 10
471.9772567172243
 20
550.9192170033887
 30
-6.378334039907497
 11
471.9772567172243
 21
550.9192170033887
 31
-6.378334039907497
  0
LINE
  5
7AE
330
1F
100
AcDbEntity
  8
0
  6
DASHED
 62
     4
 48
5.0
100
AcDbLine
 10
468.2113342609016
 20
541.6450075378986
 30
-6.378334039907497
 11
466.7115937315813
 21
541.6450075378986
 31
-6.378334039907497
  0
LINE
  5
7AF
330
1F
100
AcDbEntity
  8
0
  6
DASHED
 62
     4
 48
5.0
100
AcDbLine
 10
466.7115937315813
 20
541.6450075378986
 30
-6.378334039907497
 11
466.7115937315813
 21
543.1447480672192
 31
-6.378334039907497
  0
LINE
  5
7B0
330
1F
100
AcDbEntity
  8
0
  6
DASHED
 62
     4
 48
5.0
100
AcDbLine
 10
466.7115937315813
 20
543.1447480672192
 30
-6.378334039907497
 11
465.7117667120346
 21
543.1447480672192
 31
-6.378334039907497
  0
LINE
  5
7B1
330
1F
100
AcDbEntity
  8
0
  6
DASHED
 62
     4
 48
5.0
100
AcDbLine
 10
465.7117667120346
 20
543.1447480672192
 30
-6.378334039907497
 11
465.7117667120346
 21
541.6450075378986
 31
-6.378334039907497
  0
LINE
  5
7B2
330
1F
100
AcDbEntity
  8
0
  6
DASHED
 62
     4
 48
5.0
100
AcDbLine
 10
465.7117667120346
 20
541.6450075378986
 30
-6.378334039907497
 11
464.2120261827148
 21
541.6450075378986
 31
-6.378334039907497
  0
LINE
  5
7B3
330
1F
100
AcDbEntity
  8
0
  6
DASHED
 62
     4
 48
5.0
100
AcDbLine
 10
477.0963710573036
 20
553.4187845522564
 30
-6.378334039907497
 11
477.0963710573036
 21
551.9190440229362
 31
-6.378334039907497
  0
LINE
  5
7B4
330
1F
100
AcDbEntity
  8
0
  6
DASHED
 62
     4
 48
5.0
100
AcDbLine
 10
477.0963710573036
 20
551.9190440229362
 30
-6.378334039907497
 11
475.5966305279834
 21
551.9190440229362
 31
-6.378334039907497
  0
LINE
  5
7B5
330
1F
100
AcDbEntity
  8
0
  6
DASHED
 62
     4
 48
5.0
100
AcDbLine
 10
475.5966305279834
 20
551.9190440229362
 30
-6.378334039907497
 11
475.5966305279834
 21
550.9192170033887
 31
-6.378334039907497
  0
LINE
  5
7B6
330
1F
100
AcDbEntity
  8
0
  6
DASHED
 62
     4
 48
5.0
100
AcDbLine
 10
475.5966305279834
 20
550.9192170033887
 30
-6.378334039907497
 11
477.0963710573036
 21
550.9192170033887
 31
-6.378334039907497
  0
LINE
  5
7B7
330
1F
100
AcDbEntity
  8
0
  6
DASHED
 62
     4
 48
5.0
100
AcDbLine
 10
477.0963710573036
 20
550.9192170033887
 30
-6.378334039907497
 11
477.0963710573036
 21
549.4194764740692
 31
-6.378334039907497
  0
LINE
  5
7B8
330
1F
100
AcDbEntity
  8
0
  6
DASHED
 62
     4
 48
5.0
100
AcDbLine
 10
475.8300161498481
 20
541.6450075378986
 30
-6.378334039907497
 11
474.3302756205278
 21
541.6450075378986
 31
-6.378334039907497
  0
LINE
  5
7B9
330
1F
100
AcDbEntity
  8
0
  6
DASHED
 62
     4
 48
5.0
100
AcDbLine
 10
474.3302756205278
 20
541.6450075378986
 30
-6.378334039907497
 11
474.3302756205278
 21
543.1447480672192
 31
-6.378334039907497
  0
LINE
  5
7BA
330
1F
100
AcDbEntity
  8
0
  6
DASHED
 62
     4
 48
5.0
100
AcDbLine
 10
474.3302756205278
 20
543.1447480672192
 30
-6.378334039907497
 11
473.3304486009813
 21
543.1447480672192
 31
-6.378334039907497
  0
LINE
  5
7BB
330
1F
100
AcDbEntity
  8
0
  6
DASHED
 62
     4
 48
5.0
100
AcDbLine
 10
473.3304486009813
 20
543.1447480672192
 30
-6.378334039907497
 11
473.3304486009813
 21
541.6450075378986
 31
-6.378334039907497
  0
LINE
  5
7BC
330
1F
100
AcDbEntity
  8
0
  6
DASHED
 62
     4
 48
5.0
100
AcDbLine
 10
473.3304486009813
 20
541.6450075378986
 30
-6.378334039907497
 11
471.8307080716614
 21
541.6450075378986
 31
-6.378334039907497
  0
LINE
  5
7BD
330
1F
100
AcDbEntity
  8
0
  6
DASHED
 62
     4
 48
5.0
100
AcDbLine
 10
473.0918878744637
 20
546.685473484967
 30
-6.378334039907497
 11
473.0918878744637
 21
555.6839166608881
 31
-6.378334039907497
  0
LINE
  5
7BE
330
1F
100
AcDbEntity
  8
0
  6
DASHED
 62
     4
 48
5.0
100
AcDbLine
 10
474.4116595402651
 20
546.685473484967
 30
-6.378334039907497
 11
474.4116595402651
 21
555.6839166608881
 31
-6.378334039907497
  0
LINE
  5
7BF
330
1F
100
AcDbEntity
  8
0
  6
DASHED
 62
     4
 48
5.0
100
AcDbLine
 10
465.4732059855173
 20
546.685473484967
 30
-6.378334039907497
 11
465.4732059855173
 21
555.6839166608881
 31
-6.378334039907497
  0
LINE
  5
7C0
330
1F
100
AcDbEntity
  8
0
  6
DASHED
 62
     4
 48
5.0
100
AcDbLine
 10
466.7929776513182
 20
546.685473484967
 30
-6.378334039907497
 11
466.7929776513182
 21
555.6839166608881
 31
-6.378334039907497
  0
LINE
  5
7C1
330
1F
100
AcDbEntity
  8
0
  6
DASHED
 62
     4
 48
5.0
100
AcDbLine
 10
478.0961980768508
 20
553.4187845522564
 30
-6.378334039907497
 11
477.0963710573036
 21
553.4187845522564
 31
-6.378334039907497
  0
LINE
  5
7C2
330
1F
100
AcDbEntity
  8
0
  6
DASHED
 62
     4
 48
5.0
100
AcDbLine
 10
477.0963710573036
 20
549.4194764740692
 30
-6.378334039907497
 11
478.0961980768508
 21
549.4194764740692
 31
-6.378334039907497
  0
LINE
  5
7C3
330
1F
100
AcDbEntity
  8
0
  6
DASHED
 62
     4
 48
5.0
100
AcDbLine
 10
479.4493899606079
 20
540.6451805183523
 30
-6.378334039907497
 11
480.9491304899278
 21
540.6451805183523
 31
-6.378334039907497
  0
LINE
  5
7C4
330
1F
100
AcDbEntity
  8
0
  6
DASHED
 62
     4
 48
5.0
100
AcDbLine
 10
480.9491304899278
 20
540.6451805183523
 30
-6.378334039907497
 11
480.9491304899278
 21
539.1454399890319
 31
-6.378334039907497
  0
LINE
  5
7C5
330
1F
100
AcDbEntity
  8
0
  6
DASHED
 62
     4
 48
5.0
100
AcDbLine
 10
480.9491304899278
 20
539.1454399890319
 30
-6.378334039907497
 11
481.9489575094745
 21
539.1454399890319
 31
-6.378334039907497
  0
LINE
  5
7C6
330
1F
100
AcDbEntity
  8
0
  6
DASHED
 62
     4
 48
5.0
100
AcDbLine
 10
481.9489575094745
 20
539.1454399890319
 30
-6.378334039907497
 11
481.9489575094745
 21
540.6451805183523
 31
-6.378334039907497
  0
LINE
  5
7C7
330
1F
100
AcDbEntity
  8
0
  6
DASHED
 62
     4
 48
5.0
100
AcDbLine
 10
481.9489575094745
 20
540.6451805183523
 30
-6.378334039907497
 11
483.4486980387946
 21
540.6451805183523
 31
-6.378334039907497
  0
LINE
  5
7C8
330
1F
100
AcDbEntity
  8
0
  6
DASHED
 62
     4
 48
5.0
100
AcDbLine
 10
483.4486980387946
 20
540.6451805183523
 30
-6.378334039907497
 11
483.4486980387946
 21
540.6451805183523
 31
-6.378334039907497
  0
LINE
  5
7C9
330
1F
100
AcDbEntity
  8
0
  6
DASHED
 62
     4
 48
5.0
100
AcDbLine
 10
487.0680718495536
 20
540.6451805183523
 30
-6.378334039907497
 11
488.5678123788739
 21
540.6451805183523
 31
-6.378334039907497
  0
LINE
  5
7CA
330
1F
100
AcDbEntity
  8
0
  6
DASHED
 62
     4
 48
5.0
100
AcDbLine
 10
488.5678123788739
 20
540.6451805183523
 30
-6.378334039907497
 11
488.5678123788739
 21
539.1454399890319
 31
-6.378334039907497
  0
LINE
  5
7CB
330
1F
100
AcDbEntity
  8
0
  6
DASHED
 62
     4
 48
5.0
100
AcDbLine
 10
488.5678123788739
 20
539.1454399890319
 30
-6.378334039907497
 11
489.5676393984207
 21
539.1454399890319
 31
-6.378334039907497
  0
LINE
  5
7CC
330
1F
100
AcDbEntity
  8
0
  6
DASHED
 62
     4
 48
5.0
100
AcDbLine
 10
489.5676393984207
 20
539.1454399890319
 30
-6.378334039907497
 11
489.5676393984207
 21
540.6451805183523
 31
-6.378334039907497
  0
LINE
  5
7CD
330
1F
100
AcDbEntity
  8
0
  6
DASHED
 62
     4
 48
5.0
100
AcDbLine
 10
489.5676393984207
 20
540.6451805183523
 30
-6.378334039907497
 11
491.0673799277407
 21
540.6451805183523
 31
-6.378334039907497
  0
LINE
  5
7CE
330
1F
100
AcDbEntity
  8
0
  6
DASHED
 62
     4
 48
5.0
100
AcDbLine
 10
491.0673799277407
 20
540.6451805183523
 30
-6.378334039907497
 11
491.0673799277407
 21
540.6451805183523
 31
-6.378334039907497
  0
LINE
  5
7CF
330
1F
100
AcDbEntity
  8
0
  6
DASHED
 62
     4
 48
5.0
100
AcDbLine
 10
464.2120261827148
 20
540.6451805183523
 30
-6.378334039907497
 11
465.7117667120346
 21
540.6451805183523
 31
-6.378334039907497
  0
LINE
  5
7D0
330
1F
100
AcDbEntity
  8
0
  6
DASHED
 62
     4
 48
5.0
100
AcDbLine
 10
465.7117667120346
 20
540.6451805183523
 30
-6.378334039907497
 11
465.7117667120346
 21
539.1454399890319
 31
-6.378334039907497
  0
LINE
  5
7D1
330
1F
100
AcDbEntity
  8
0
  6
DASHED
 62
     4
 48
5.0
100
AcDbLine
 10
465.7117667120346
 20
539.1454399890319
 30
-6.378334039907497
 11
466.7115937315813
 21
539.1454399890319
 31
-6.378334039907497
  0
LINE
  5
7D2
330
1F
100
AcDbEntity
  8
0
  6
DASHED
 62
     4
 48
5.0
100
AcDbLine
 10
466.7115937315813
 20
539.1454399890319
 30
-6.378334039907497
 11
466.7115937315813
 21
540.6451805183523
 31
-6.378334039907497
  0
LINE
  5
7D3
330
1F
100
AcDbEntity
  8
0
  6
DASHED
 62
     4
 48
5.0
100
AcDbLine
 10
466.7115937315813
 20
540.6451805183523
 30
-6.378334039907497
 11
468.2113342609016
 21
540.6451805183523
 31
-6.378334039907497
  0
LINE
  5
7D4
330
1F
100
AcDbEntity
  8
0
  6
DASHED
 62
     4
 48
5.0
100
AcDbLine
 10
468.2113342609016
 20
540.6451805183523
 30
-6.378334039907497
 11
468.2113342609016
 21
540.6451805183523
 31
-6.378334039907497
  0
LINE
  5
7D5
330
1F
100
AcDbEntity
  8
0
  6
DASHED
 62
     4
 48
5.0
100
AcDbLine
 10
471.8307080716614
 20
540.6451805183523
 30
-6.378334039907497
 11
473.3304486009813
 21
540.6451805183523
 31
-6.378334039907497
  0
LINE
  5
7D6
330
1F
100
AcDbEntity
  8
0
  6
DASHED
 62
     4
 48
5.0
100
AcDbLine
 10
473.3304486009813
 20
540.6451805183523
 30
-6.378334039907497
 11
473.3304486009813
 21
539.1454399890319
 31
-6.378334039907497
  0
LINE
  5
7D7
330
1F
100
AcDbEntity
  8
0
  6
DASHED
 62
     4
 48
5.0
100
AcDbLine
 10
473.3304486009813
 20
539.1454399890319
 30
-6.378334039907497
 11
474.3302756205278
 21
539.1454399890319
 31
-6.378334039907497
  0
LINE
  5
7D8
330
1F
100
AcDbEntity
  8
0
  6
DASHED
 62
     4
 48
5.0
100
AcDbLine
 10
474.3302756205278
 20
539.1454399890319
 30
-6.378334039907497
 11
474.3302756205278
 21
540.6451805183523
 31
-6.378334039907497
  0
LINE
  5
7D9
330
1F
100
AcDbEntity
  8
0
  6
DASHED
 62
     4
 48
5.0
100
AcDbLine
 10
474.3302756205278
 20
540.6451805183523
 30
-6.378334039907497
 11
475.8300161498481
 21
540.6451805183523
 31
-6.378334039907497
  0
LINE
  5
7DA
330
1F
100
AcDbEntity
  8
0
  6
DASHED
 62
     4
 48
5.0
100
AcDbLine
 10
475.8300161498481
 20
540.6451805183523
 30
-6.378334039907497
 11
475.8300161498481
 21
540.6451805183523
 31
-6.378334039907497
  0
LINE
  5
7DB
330
1F
100
AcDbEntity
  8
0
  6
DASHED
 62
     4
 48
5.0
100
AcDbLine
 10
468.2113342609016
 20
540.6451805183523
 30
-6.378334039907497
 11
468.2113342609016
 21
541.6450075378986
 31
-6.378334039907497
  0
LINE
  5
7DC
330
1F
100
AcDbEntity
  8
0
  6
DASHED
 62
     4
 48
5.0
100
AcDbLine
 10
464.2120261827148
 20
541.6450075378986
 30
-6.378334039907497
 11
464.2120261827148
 21
540.6451805183523
 31
-6.378334039907497
  0
LINE
  5
7DD
330
1F
100
AcDbEntity
  8
0
  6
DASHED
 62
     4
 48
5.0
100
AcDbLine
 10
475.8300161498481
 20
540.6451805183523
 30
-6.378334039907497
 11
475.8300161498481
 21
541.6450075378986
 31
-6.378334039907497
  0
LINE
  5
7DE
330
1F
100
AcDbEntity
  8
0
  6
DASHED
 62
     4
 48
5.0
100
AcDbLine
 10
471.8307080716614
 20
541.6450075378986
 30
-6.378334039907497
 11
471.8307080716614
 21
540.6451805183523
 31
-6.378334039907497
  0
LINE
  5
7DF
330
1F
100
AcDbEntity
  8
0
  6
DASHED
 62
     4
 48
5.0
100
AcDbLine
 10
483.4486980387946
 20
540.6451805183523
 30
-6.378334039907497
 11
483.4486980387946
 21
541.6450075378986
 31
-6.378334039907497
  0
LINE
  5
7E0
330
1F
100
AcDbEntity
  8
0
  6
DASHED
 62
     4
 48
5.0
100
AcDbLine
 10
479.4493899606079
 20
541.6450075378986
 30
-6.378334039907497
 11
479.4493899606079
 21
540.6451805183523
 31
-6.378334039907497
  0
LINE
  5
7E1
330
1F
100
AcDbEntity
  8
0
  6
DASHED
 62
     4
 48
5.0
100
AcDbLine
 10
491.0673799277407
 20
540.6451805183523
 30
-6.378334039907497
 11
491.0673799277407
 21
541.6450075378986
 31
-6.378334039907497
  0
LINE
  5
7E2
330
1F
100
AcDbEntity
  8
0
  6
DASHED
 62
     4
 48
5.0
100
AcDbLine
 10
487.0680718495536
 20
541.6450075378986
 30
-6.378334039907497
 11
487.0680718495536
 21
540.6451805183523
 31
-6.378334039907497
  0
LINE
  5
7E3
330
1F
100
AcDbEntity
  8
0
  6
DASHED
 62
     4
 48
5.0
100
AcDbLine
 10
494.6867537385005
 20
541.6450075378986
 30
-6.378334039907497
 11
494.6867537385005
 21
540.6451805183523
 31
-6.378334039907497
  0
LINE
  5
7E4
330
1F
100
AcDbEntity
  8
0
  6
DASHED
 62
     4
 48
5.0
100
AcDbLine
 10
492.13859259683
 20
536.6872032894991
 30
-6.378334039907497
 11
492.13859259683
 21
546.685473484967
 31
-6.378334039907497
  0
LINE
  5
7E5
330
1F
100
AcDbEntity
  8
0
  6
DASHED
 62
     4
 48
5.0
100
AcDbLine
 10
493.4583642626318
 20
536.6872032894991
 30
-6.378334039907497
 11
493.4583642626318
 21
546.685473484967
 31
-6.378334039907497
  0
LINE
  5
7E6
330
1F
100
AcDbEntity
  8
0
  6
DASHED
 62
     4
 48
5.0
100
AcDbLine
 10
484.5199107078835
 20
536.6872032894991
 30
-6.378334039907497
 11
484.5199107078835
 21
546.685473484967
 31
-6.378334039907497
  0
LINE
  5
7E7
330
1F
100
AcDbEntity
  8
0
  6
DASHED
 62
     4
 48
5.0
100
AcDbLine
 10
485.8396823736851
 20
536.6872032894991
 30
-6.378334039907497
 11
485.8396823736851
 21
546.685473484967
 31
-6.378334039907497
  0
LINE
  5
7E8
330
1F
100
AcDbEntity
  8
0
  6
DASHED
 62
     4
 48
5.0
100
AcDbLine
 10
476.901228818937
 20
536.6872032894991
 30
-6.378334039907497
 11
476.901228818937
 21
546.685473484967
 31
-6.378334039907497
  0
LINE
  5
7E9
330
1F
100
AcDbEntity
  8
0
  6
DASHED
 62
     4
 48
5.0
100
AcDbLine
 10
478.2210004847388
 20
536.6872032894991
 30
-6.378334039907497
 11
478.2210004847388
 21
546.685473484967
 31
-6.378334039907497
  0
LINE
  5
7EA
330
1F
100
AcDbEntity
  8
0
  6
DASHED
 62
     4
 48
5.0
100
AcDbLine
 10
469.2825469299907
 20
536.6872032894991
 30
-6.378334039907497
 11
469.2825469299907
 21
546.685473484967
 31
-6.378334039907497
  0
LINE
  5
7EB
330
1F
100
AcDbEntity
  8
0
  6
DASHED
 62
     4
 48
5.0
100
AcDbLine
 10
470.6023185957922
 20
536.6872032894991
 30
-6.378334039907497
 11
470.6023185957922
 21
546.685473484967
 31
-6.378334039907497
  0
LINE
  5
7EC
330
1F
100
AcDbEntity
  8
0
  6
DASHED
 62
     4
 48
5.0
100
AcDbLine
 10
461.6638650410441
 20
536.6872032894991
 30
-6.378334039907497
 11
461.6638650410441
 21
546.685473484967
 31
-6.378334039907497
  0
LINE
  5
7ED
330
1F
100
AcDbEntity
  8
0
  6
DASHED
 62
     4
 48
5.0
100
AcDbLine
 10
494.8333023840636
 20
551.9190440229362
 30
-6.378334039907497
 11
493.3335618547437
 21
551.9190440229362
 31
-6.378334039907497
  0
LINE
  5
7EE
330
1F
100
AcDbEntity
  8
0
  6
DASHED
 62
     4
 48
5.0
100
AcDbLine
 10
493.3335618547437
 20
550.9192170033887
 30
-6.378334039907497
 11
494.8333023840636
 21
550.9192170033887
 31
-6.378334039907497
  0
LINE
  5
7EF
330
1F
100
AcDbEntity
  8
0
  6
DASHED
 62
     4
 48
5.0
100
AcDbLine
 10
496.1864942678205
 20
541.6450075378986
 30
-6.378334039907497
 11
494.6867537385005
 21
541.6450075378986
 31
-6.378334039907497
  0
LINE
  5
7F0
330
1F
100
AcDbEntity
  8
0
  6
DASHED
 62
     4
 48
5.0
100
AcDbLine
 10
494.6867537385005
 20
540.6451805183523
 30
-6.378334039907497
 11
496.1864942678205
 21
540.6451805183523
 31
-6.378334039907497
  0
LINE
  5
7F1
330
1F
100
AcDbEntity
  8
0
  6
Continuous
 62
     7
100
AcDbLine
 10
458.3057280405249
 20
588.778144660888
 30
-6.378334039907497
 11
458.3057280405249
 21
589.9839166608877
 31
-6.378334039907497
  0
LINE
  5
7F2
330
1F
100
AcDbEntity
  8
0
  6
DASHED
 62
     4
 48
5.0
100
AcDbLine
 10
449.1212110503848
 20
550.9192170033887
 30
-6.378334039907497
 11
449.1212110503848
 21
551.9190440229362
 31
-6.378334039907497
  0
LINE
  5
7F3
330
1F
100
AcDbEntity
  8
0
  6
DASHED
 62
     4
 48
5.0
100
AcDbLine
 10
449.1212110503848
 20
551.9190440229362
 30
-6.378334039907497
 11
447.6214705210646
 21
551.9190440229362
 31
-6.378334039907497
  0
LINE
  5
7F4
330
1F
100
AcDbEntity
  8
0
  6
DASHED
 62
     4
 48
5.0
100
AcDbLine
 10
447.6214705210646
 20
551.9190440229362
 30
-6.378334039907497
 11
447.6214705210646
 21
553.4187845522564
 31
-6.378334039907497
  0
LINE
  5
7F5
330
1F
100
AcDbEntity
  8
0
  6
DASHED
 62
     4
 48
5.0
100
AcDbLine
 10
447.6214705210646
 20
553.4187845522564
 30
-6.378334039907497
 11
446.6216435015177
 21
553.4187845522564
 31
-6.378334039907497
  0
LINE
  5
7F6
330
1F
100
AcDbEntity
  8
0
  6
DASHED
 62
     4
 48
5.0
100
AcDbLine
 10
446.6216435015177
 20
553.4187845522564
 30
-6.378334039907497
 11
446.6216435015177
 21
551.9190440229362
 31
-6.378334039907497
  0
LINE
  5
7F7
330
1F
100
AcDbEntity
  8
0
  6
DASHED
 62
     4
 48
5.0
100
AcDbLine
 10
446.6216435015177
 20
551.9190440229362
 30
-6.378334039907497
 11
445.1219029721976
 21
551.9190440229362
 31
-6.378334039907497
  0
LINE
  5
7F8
330
1F
100
AcDbEntity
  8
0
  6
DASHED
 62
     4
 48
5.0
100
AcDbLine
 10
445.1219029721976
 20
551.9190440229362
 30
-6.378334039907497
 11
445.1219029721976
 21
550.9192170033887
 31
-6.378334039907497
  0
LINE
  5
7F9
330
1F
100
AcDbEntity
  8
0
  6
DASHED
 62
     4
 48
5.0
100
AcDbLine
 10
445.1219029721976
 20
550.9192170033887
 30
-6.378334039907497
 11
446.6216435015177
 21
550.9192170033887
 31
-6.378334039907497
  0
LINE
  5
7FA
330
1F
100
AcDbEntity
  8
0
  6
DASHED
 62
     4
 48
5.0
100
AcDbLine
 10
446.6216435015177
 20
550.9192170033887
 30
-6.378334039907497
 11
446.6216435015177
 21
549.4194764740692
 31
-6.378334039907497
  0
LINE
  5
7FB
330
1F
100
AcDbEntity
  8
0
  6
DASHED
 62
     4
 48
5.0
100
AcDbLine
 10
446.6216435015177
 20
549.4194764740692
 30
-6.378334039907497
 11
447.6214705210646
 21
549.4194764740692
 31
-6.378334039907497
  0
LINE
  5
7FC
330
1F
100
AcDbEntity
  8
0
  6
DASHED
 62
     4
 48
5.0
100
AcDbLine
 10
447.6214705210646
 20
549.4194764740692
 30
-6.378334039907497
 11
447.6214705210646
 21
550.9192170033887
 31
-6.378334039907497
  0
LINE
  5
7FD
330
1F
100
AcDbEntity
  8
0
  6
DASHED
 62
     4
 48
5.0
100
AcDbLine
 10
447.6214705210646
 20
550.9192170033887
 30
-6.378334039907497
 11
449.1212110503848
 21
550.9192170033887
 31
-6.378334039907497
  0
LINE
  5
7FE
330
1F
100
AcDbEntity
  8
0
  6
DASHED
 62
     4
 48
5.0
100
AcDbLine
 10
449.1212110503848
 20
550.9192170033887
 30
-6.378334039907497
 11
449.1212110503848
 21
550.9192170033887
 31
-6.378334039907497
  0
LINE
  5
7FF
330
1F
100
AcDbEntity
  8
0
  6
DASHED
 62
     4
 48
5.0
100
AcDbLine
 10
456.7398929393313
 20
550.9192170033887
 30
-6.378334039907497
 11
456.7398929393313
 21
551.9190440229362
 31
-6.378334039907497
  0
LINE
  5
800
330
1F
100
AcDbEntity
  8
0
  6
DASHED
 62
     4
 48
5.0
100
AcDbLine
 10
456.7398929393313
 20
551.9190440229362
 30
-6.378334039907497
 11
455.2401524100111
 21
551.9190440229362
 31
-6.378334039907497
  0
LINE
  5
801
330
1F
100
AcDbEntity
  8
0
  6
DASHED
 62
     4
 48
5.0
100
AcDbLine
 10
455.2401524100111
 20
551.9190440229362
 30
-6.378334039907497
 11
455.2401524100111
 21
553.4187845522564
 31
-6.378334039907497
  0
LINE
  5
802
330
1F
100
AcDbEntity
  8
0
  6
DASHED
 62
     4
 48
5.0
100
AcDbLine
 10
455.2401524100111
 20
553.4187845522564
 30
-6.378334039907497
 11
454.2403253904644
 21
553.4187845522564
 31
-6.378334039907497
  0
LINE
  5
803
330
1F
100
AcDbEntity
  8
0
  6
DASHED
 62
     4
 48
5.0
100
AcDbLine
 10
454.2403253904644
 20
553.4187845522564
 30
-6.378334039907497
 11
454.2403253904644
 21
551.9190440229362
 31
-6.378334039907497
  0
LINE
  5
804
330
1F
100
AcDbEntity
  8
0
  6
DASHED
 62
     4
 48
5.0
100
AcDbLine
 10
454.2403253904644
 20
551.9190440229362
 30
-6.378334039907497
 11
452.7405848611443
 21
551.9190440229362
 31
-6.378334039907497
  0
LINE
  5
805
330
1F
100
AcDbEntity
  8
0
  6
DASHED
 62
     4
 48
5.0
100
AcDbLine
 10
452.7405848611443
 20
551.9190440229362
 30
-6.378334039907497
 11
452.7405848611443
 21
550.9192170033887
 31
-6.378334039907497
  0
LINE
  5
806
330
1F
100
AcDbEntity
  8
0
  6
DASHED
 62
     4
 48
5.0
100
AcDbLine
 10
452.7405848611443
 20
550.9192170033887
 30
-6.378334039907497
 11
454.2403253904644
 21
550.9192170033887
 31
-6.378334039907497
  0
LINE
  5
807
330
1F
100
AcDbEntity
  8
0
  6
DASHED
 62
     4
 48
5.0
100
AcDbLine
 10
454.2403253904644
 20
550.9192170033887
 30
-6.378334039907497
 11
454.2403253904644
 21
549.4194764740692
 31
-6.378334039907497
  0
LINE
  5
808
330
1F
100
AcDbEntity
  8
0
  6
DASHED
 62
     4
 48
5.0
100
AcDbLine
 10
454.2403253904644
 20
549.4194764740692
 30
-6.378334039907497
 11
455.2401524100111
 21
549.4194764740692
 31
-6.378334039907497
  0
LINE
  5
809
330
1F
100
AcDbEntity
  8
0
  6
DASHED
 62
     4
 48
5.0
100
AcDbLine
 10
455.2401524100111
 20
549.4194764740692
 30
-6.378334039907497
 11
455.2401524100111
 21
550.9192170033887
 31
-6.378334039907497
  0
LINE
  5
80A
330
1F
100
AcDbEntity
  8
0
  6
DASHED
 62
     4
 48
5.0
100
AcDbLine
 10
455.2401524100111
 20
550.9192170033887
 30
-6.378334039907497
 11
456.7398929393313
 21
550.9192170033887
 31
-6.378334039907497
  0
LINE
  5
80B
330
1F
100
AcDbEntity
  8
0
  6
DASHED
 62
     4
 48
5.0
100
AcDbLine
 10
456.7398929393313
 20
550.9192170033887
 30
-6.378334039907497
 11
456.7398929393313
 21
550.9192170033887
 31
-6.378334039907497
  0
LINE
  5
80C
330
1F
100
AcDbEntity
  8
0
  6
DASHED
 62
     4
 48
5.0
100
AcDbLine
 10
452.9739704830085
 20
541.6450075378986
 30
-6.378334039907497
 11
451.4742299536882
 21
541.6450075378986
 31
-6.378334039907497
  0
LINE
  5
80D
330
1F
100
AcDbEntity
  8
0
  6
DASHED
 62
     4
 48
5.0
100
AcDbLine
 10
451.4742299536882
 20
541.6450075378986
 30
-6.378334039907497
 11
451.4742299536882
 21
543.1447480672192
 31
-6.378334039907497
  0
LINE
  5
80E
330
1F
100
AcDbEntity
  8
0
  6
DASHED
 62
     4
 48
5.0
100
AcDbLine
 10
451.4742299536882
 20
543.1447480672192
 30
-6.378334039907497
 11
450.4744029341414
 21
543.1447480672192
 31
-6.378334039907497
  0
LINE
  5
80F
330
1F
100
AcDbEntity
  8
0
  6
DASHED
 62
     4
 48
5.0
100
AcDbLine
 10
450.4744029341414
 20
543.1447480672192
 30
-6.378334039907497
 11
450.4744029341414
 21
541.6450075378986
 31
-6.378334039907497
  0
LINE
  5
810
330
1F
100
AcDbEntity
  8
0
  6
DASHED
 62
     4
 48
5.0
100
AcDbLine
 10
450.4744029341414
 20
541.6450075378986
 30
-6.378334039907497
 11
448.9746624048213
 21
541.6450075378986
 31
-6.378334039907497
  0
LINE
  5
811
330
1F
100
AcDbEntity
  8
0
  6
DASHED
 62
     4
 48
5.0
100
AcDbLine
 10
460.3592667500907
 20
551.9190440229362
 30
-6.378334039907497
 11
460.3592667500907
 21
550.9192170033887
 31
-6.378334039907497
  0
LINE
  5
812
330
1F
100
AcDbEntity
  8
0
  6
DASHED
 62
     4
 48
5.0
100
AcDbLine
 10
460.5926523719552
 20
541.6450075378986
 30
-6.378334039907497
 11
459.0929118426346
 21
541.6450075378986
 31
-6.378334039907497
  0
LINE
  5
813
330
1F
100
AcDbEntity
  8
0
  6
DASHED
 62
     4
 48
5.0
100
AcDbLine
 10
459.0929118426346
 20
541.6450075378986
 30
-6.378334039907497
 11
459.0929118426346
 21
543.1447480672192
 31
-6.378334039907497
  0
LINE
  5
814
330
1F
100
AcDbEntity
  8
0
  6
DASHED
 62
     4
 48
5.0
100
AcDbLine
 10
459.0929118426346
 20
543.1447480672192
 30
-6.378334039907497
 11
458.0930848230881
 21
543.1447480672192
 31
-6.378334039907497
  0
LINE
  5
815
330
1F
100
AcDbEntity
  8
0
  6
DASHED
 62
     4
 48
5.0
100
AcDbLine
 10
458.0930848230881
 20
543.1447480672192
 30
-6.378334039907497
 11
458.0930848230881
 21
541.6450075378986
 31
-6.378334039907497
  0
LINE
  5
816
330
1F
100
AcDbEntity
  8
0
  6
DASHED
 62
     4
 48
5.0
100
AcDbLine
 10
458.0930848230881
 20
541.6450075378986
 30
-6.378334039907497
 11
456.5933442937681
 21
541.6450075378986
 31
-6.378334039907497
  0
LINE
  5
817
330
1F
100
AcDbEntity
  8
0
  6
DASHED
 62
     4
 48
5.0
100
AcDbLine
 10
457.8545240965706
 20
546.685473484967
 30
-6.378334039907497
 11
457.8545240965706
 21
555.6839166608881
 31
-6.378334039907497
  0
LINE
  5
818
330
1F
100
AcDbEntity
  8
0
  6
DASHED
 62
     4
 48
5.0
100
AcDbLine
 10
459.1742957623717
 20
546.685473484967
 30
-6.378334039907497
 11
459.1742957623717
 21
555.6839166608881
 31
-6.378334039907497
  0
LINE
  5
819
330
1F
100
AcDbEntity
  8
0
  6
DASHED
 62
     4
 48
5.0
100
AcDbLine
 10
450.2358422076236
 20
546.685473484967
 30
-6.378334039907497
 11
450.2358422076236
 21
555.6839166608881
 31
-6.378334039907497
  0
LINE
  5
81A
330
1F
100
AcDbEntity
  8
0
  6
DASHED
 62
     4
 48
5.0
100
AcDbLine
 10
451.5556138734252
 20
546.685473484967
 30
-6.378334039907497
 11
451.5556138734252
 21
555.6839166608881
 31
-6.378334039907497
  0
LINE
  5
81B
330
1F
100
AcDbEntity
  8
0
  6
DASHED
 62
     4
 48
5.0
100
AcDbLine
 10
433.8838472724916
 20
550.9192170033887
 30
-6.378334039907497
 11
433.8838472724916
 21
551.9190440229362
 31
-6.378334039907497
  0
LINE
  5
81C
330
1F
100
AcDbEntity
  8
0
  6
DASHED
 62
     4
 48
5.0
100
AcDbLine
 10
433.8838472724916
 20
551.9190440229362
 30
-6.378334039907497
 11
432.3841067431714
 21
551.9190440229362
 31
-6.378334039907497
  0
LINE
  5
81D
330
1F
100
AcDbEntity
  8
0
  6
DASHED
 62
     4
 48
5.0
100
AcDbLine
 10
432.3841067431714
 20
551.9190440229362
 30
-6.378334039907497
 11
432.3841067431714
 21
553.4187845522564
 31
-6.378334039907497
  0
LINE
  5
81E
330
1F
100
AcDbEntity
  8
0
  6
DASHED
 62
     4
 48
5.0
100
AcDbLine
 10
432.3841067431714
 20
553.4187845522564
 30
-6.378334039907497
 11
431.3842797236246
 21
553.4187845522564
 31
-6.378334039907497
  0
LINE
  5
81F
330
1F
100
AcDbEntity
  8
0
  6
DASHED
 62
     4
 48
5.0
100
AcDbLine
 10
431.3842797236246
 20
553.4187845522564
 30
-6.378334039907497
 11
431.3842797236246
 21
551.9190440229362
 31
-6.378334039907497
  0
LINE
  5
820
330
1F
100
AcDbEntity
  8
0
  6
DASHED
 62
     4
 48
5.0
100
AcDbLine
 10
431.3842797236246
 20
551.9190440229362
 30
-6.378334039907497
 11
429.8845391943043
 21
551.9190440229362
 31
-6.378334039907497
  0
LINE
  5
821
330
1F
100
AcDbEntity
  8
0
  6
DASHED
 62
     4
 48
5.0
100
AcDbLine
 10
429.8845391943043
 20
551.9190440229362
 30
-6.378334039907497
 11
429.8845391943043
 21
550.9192170033887
 31
-6.378334039907497
  0
LINE
  5
822
330
1F
100
AcDbEntity
  8
0
  6
DASHED
 62
     4
 48
5.0
100
AcDbLine
 10
429.8845391943043
 20
550.9192170033887
 30
-6.378334039907497
 11
431.3842797236246
 21
550.9192170033887
 31
-6.378334039907497
  0
LINE
  5
823
330
1F
100
AcDbEntity
  8
0
  6
DASHED
 62
     4
 48
5.0
100
AcDbLine
 10
431.3842797236246
 20
550.9192170033887
 30
-6.378334039907497
 11
431.3842797236246
 21
549.4194764740692
 31
-6.378334039907497
  0
LINE
  5
824
330
1F
100
AcDbEntity
  8
0
  6
DASHED
 62
     4
 48
5.0
100
AcDbLine
 10
431.3842797236246
 20
549.4194764740692
 30
-6.378334039907497
 11
432.3841067431714
 21
549.4194764740692
 31
-6.378334039907497
  0
LINE
  5
825
330
1F
100
AcDbEntity
  8
0
  6
DASHED
 62
     4
 48
5.0
100
AcDbLine
 10
432.3841067431714
 20
549.4194764740692
 30
-6.378334039907497
 11
432.3841067431714
 21
550.9192170033887
 31
-6.378334039907497
  0
LINE
  5
826
330
1F
100
AcDbEntity
  8
0
  6
DASHED
 62
     4
 48
5.0
100
AcDbLine
 10
432.3841067431714
 20
550.9192170033887
 30
-6.378334039907497
 11
433.8838472724916
 21
550.9192170033887
 31
-6.378334039907497
  0
LINE
  5
827
330
1F
100
AcDbEntity
  8
0
  6
DASHED
 62
     4
 48
5.0
100
AcDbLine
 10
433.8838472724916
 20
550.9192170033887
 30
-6.378334039907497
 11
433.8838472724916
 21
550.9192170033887
 31
-6.378334039907497
  0
LINE
  5
828
330
1F
100
AcDbEntity
  8
0
  6
DASHED
 62
     4
 48
5.0
100
AcDbLine
 10
430.1179248161687
 20
541.6450075378986
 30
-6.378334039907497
 11
428.6181842868485
 21
541.6450075378986
 31
-6.378334039907497
  0
LINE
  5
829
330
1F
100
AcDbEntity
  8
0
  6
DASHED
 62
     4
 48
5.0
100
AcDbLine
 10
428.6181842868485
 20
541.6450075378986
 30
-6.378334039907497
 11
428.6181842868485
 21
543.1447480672192
 31
-6.378334039907497
  0
LINE
  5
82A
330
1F
100
AcDbEntity
  8
0
  6
DASHED
 62
     4
 48
5.0
100
AcDbLine
 10
441.5025291614383
 20
550.9192170033887
 30
-6.378334039907497
 11
441.5025291614383
 21
551.9190440229362
 31
-6.378334039907497
  0
LINE
  5
82B
330
1F
100
AcDbEntity
  8
0
  6
DASHED
 62
     4
 48
5.0
100
AcDbLine
 10
441.5025291614383
 20
551.9190440229362
 30
-6.378334039907497
 11
440.0027886321181
 21
551.9190440229362
 31
-6.378334039907497
  0
LINE
  5
82C
330
1F
100
AcDbEntity
  8
0
  6
DASHED
 62
     4
 48
5.0
100
AcDbLine
 10
440.0027886321181
 20
551.9190440229362
 30
-6.378334039907497
 11
440.0027886321181
 21
553.4187845522564
 31
-6.378334039907497
  0
LINE
  5
82D
330
1F
100
AcDbEntity
  8
0
  6
DASHED
 62
     4
 48
5.0
100
AcDbLine
 10
440.0027886321181
 20
553.4187845522564
 30
-6.378334039907497
 11
439.0029616125714
 21
553.4187845522564
 31
-6.378334039907497
  0
LINE
  5
82E
330
1F
100
AcDbEntity
  8
0
  6
DASHED
 62
     4
 48
5.0
100
AcDbLine
 10
439.0029616125714
 20
553.4187845522564
 30
-6.378334039907497
 11
439.0029616125714
 21
551.9190440229362
 31
-6.378334039907497
  0
LINE
  5
82F
330
1F
100
AcDbEntity
  8
0
  6
DASHED
 62
     4
 48
5.0
100
AcDbLine
 10
439.0029616125714
 20
551.9190440229362
 30
-6.378334039907497
 11
437.5032210832511
 21
551.9190440229362
 31
-6.378334039907497
  0
LINE
  5
830
330
1F
100
AcDbEntity
  8
0
  6
DASHED
 62
     4
 48
5.0
100
AcDbLine
 10
437.5032210832511
 20
551.9190440229362
 30
-6.378334039907497
 11
437.5032210832511
 21
550.9192170033887
 31
-6.378334039907497
  0
LINE
  5
831
330
1F
100
AcDbEntity
  8
0
  6
DASHED
 62
     4
 48
5.0
100
AcDbLine
 10
437.5032210832511
 20
550.9192170033887
 30
-6.378334039907497
 11
439.0029616125714
 21
550.9192170033887
 31
-6.378334039907497
  0
LINE
  5
832
330
1F
100
AcDbEntity
  8
0
  6
DASHED
 62
     4
 48
5.0
100
AcDbLine
 10
439.0029616125714
 20
550.9192170033887
 30
-6.378334039907497
 11
439.0029616125714
 21
549.4194764740692
 31
-6.378334039907497
  0
LINE
  5
833
330
1F
100
AcDbEntity
  8
0
  6
DASHED
 62
     4
 48
5.0
100
AcDbLine
 10
439.0029616125714
 20
549.4194764740692
 30
-6.378334039907497
 11
440.0027886321181
 21
549.4194764740692
 31
-6.378334039907497
  0
LINE
  5
834
330
1F
100
AcDbEntity
  8
0
  6
DASHED
 62
     4
 48
5.0
100
AcDbLine
 10
440.0027886321181
 20
549.4194764740692
 30
-6.378334039907497
 11
440.0027886321181
 21
550.9192170033887
 31
-6.378334039907497
  0
LINE
  5
835
330
1F
100
AcDbEntity
  8
0
  6
DASHED
 62
     4
 48
5.0
100
AcDbLine
 10
440.0027886321181
 20
550.9192170033887
 30
-6.378334039907497
 11
441.5025291614383
 21
550.9192170033887
 31
-6.378334039907497
  0
LINE
  5
836
330
1F
100
AcDbEntity
  8
0
  6
DASHED
 62
     4
 48
5.0
100
AcDbLine
 10
441.5025291614383
 20
550.9192170033887
 30
-6.378334039907497
 11
441.5025291614383
 21
550.9192170033887
 31
-6.378334039907497
  0
LINE
  5
837
330
1F
100
AcDbEntity
  8
0
  6
DASHED
 62
     4
 48
5.0
100
AcDbLine
 10
437.7366067051155
 20
541.6450075378986
 30
-6.378334039907497
 11
436.2368661757951
 21
541.6450075378986
 31
-6.378334039907497
  0
LINE
  5
838
330
1F
100
AcDbEntity
  8
0
  6
DASHED
 62
     4
 48
5.0
100
AcDbLine
 10
436.2368661757951
 20
541.6450075378986
 30
-6.378334039907497
 11
436.2368661757951
 21
543.1447480672192
 31
-6.378334039907497
  0
LINE
  5
839
330
1F
100
AcDbEntity
  8
0
  6
DASHED
 62
     4
 48
5.0
100
AcDbLine
 10
436.2368661757951
 20
543.1447480672192
 30
-6.378334039907497
 11
435.2370391562483
 21
543.1447480672192
 31
-6.378334039907497
  0
LINE
  5
83A
330
1F
100
AcDbEntity
  8
0
  6
DASHED
 62
     4
 48
5.0
100
AcDbLine
 10
435.2370391562483
 20
543.1447480672192
 30
-6.378334039907497
 11
435.2370391562483
 21
541.6450075378986
 31
-6.378334039907497
  0
LINE
  5
83B
330
1F
100
AcDbEntity
  8
0
  6
DASHED
 62
     4
 48
5.0
100
AcDbLine
 10
435.2370391562483
 20
541.6450075378986
 30
-6.378334039907497
 11
433.7372986269281
 21
541.6450075378986
 31
-6.378334039907497
  0
LINE
  5
83C
330
1F
100
AcDbEntity
  8
0
  6
DASHED
 62
     4
 48
5.0
100
AcDbLine
 10
443.8555480647416
 20
541.6450075378986
 30
-6.378334039907497
 11
443.8555480647416
 21
543.1447480672192
 31
-6.378334039907497
  0
LINE
  5
83D
330
1F
100
AcDbEntity
  8
0
  6
DASHED
 62
     4
 48
5.0
100
AcDbLine
 10
443.8555480647416
 20
543.1447480672192
 30
-6.378334039907497
 11
442.8557210451951
 21
543.1447480672192
 31
-6.378334039907497
  0
LINE
  5
83E
330
1F
100
AcDbEntity
  8
0
  6
DASHED
 62
     4
 48
5.0
100
AcDbLine
 10
442.8557210451951
 20
543.1447480672192
 30
-6.378334039907497
 11
442.8557210451951
 21
541.6450075378986
 31
-6.378334039907497
  0
LINE
  5
83F
330
1F
100
AcDbEntity
  8
0
  6
DASHED
 62
     4
 48
5.0
100
AcDbLine
 10
442.8557210451951
 20
541.6450075378986
 30
-6.378334039907497
 11
441.3559805158747
 21
541.6450075378986
 31
-6.378334039907497
  0
LINE
  5
840
330
1F
100
AcDbEntity
  8
0
  6
DASHED
 62
     4
 48
5.0
100
AcDbLine
 10
442.6171603186771
 20
546.685473484967
 30
-6.378334039907497
 11
442.6171603186771
 21
555.6839166608881
 31
-6.378334039907497
  0
LINE
  5
841
330
1F
100
AcDbEntity
  8
0
  6
DASHED
 62
     4
 48
5.0
100
AcDbLine
 10
443.9369319844786
 20
546.685473484967
 30
-6.378334039907497
 11
443.9369319844786
 21
555.6839166608881
 31
-6.378334039907497
  0
LINE
  5
842
330
1F
100
AcDbEntity
  8
0
  6
DASHED
 62
     4
 48
5.0
100
AcDbLine
 10
434.9984784297309
 20
546.685473484967
 30
-6.378334039907497
 11
434.9984784297309
 21
555.6839166608881
 31
-6.378334039907497
  0
LINE
  5
843
330
1F
100
AcDbEntity
  8
0
  6
DASHED
 62
     4
 48
5.0
100
AcDbLine
 10
436.3182500955327
 20
546.685473484967
 30
-6.378334039907497
 11
436.3182500955327
 21
555.6839166608881
 31
-6.378334039907497
  0
LINE
  5
844
330
1F
100
AcDbEntity
  8
0
  6
DASHED
 62
     4
 48
5.0
100
AcDbLine
 10
428.6995682065861
 20
546.685473484967
 30
-6.378334039907497
 11
428.6995682065861
 21
555.6839166608881
 31
-6.378334039907497
  0
LINE
  5
845
330
1F
100
AcDbEntity
  8
0
  6
DASHED
 62
     4
 48
5.0
100
AcDbLine
 10
445.3552885940618
 20
541.6450075378986
 30
-6.378334039907497
 11
443.8555480647416
 21
541.6450075378986
 31
-6.378334039907497
  0
LINE
  5
846
330
1F
100
AcDbEntity
  8
0
  6
DASHED
 62
     4
 48
5.0
100
AcDbLine
 10
445.3552885940618
 20
540.6451805183523
 30
-6.378334039907497
 11
445.3552885940618
 21
540.6451805183523
 31
-6.378334039907497
  0
LINE
  5
847
330
1F
100
AcDbEntity
  8
0
  6
DASHED
 62
     4
 48
5.0
100
AcDbLine
 10
448.9746624048213
 20
540.6451805183523
 30
-6.378334039907497
 11
450.4744029341414
 21
540.6451805183523
 31
-6.378334039907497
  0
LINE
  5
848
330
1F
100
AcDbEntity
  8
0
  6
DASHED
 62
     4
 48
5.0
100
AcDbLine
 10
450.4744029341414
 20
540.6451805183523
 30
-6.378334039907497
 11
450.4744029341414
 21
539.1454399890319
 31
-6.378334039907497
  0
LINE
  5
849
330
1F
100
AcDbEntity
  8
0
  6
DASHED
 62
     4
 48
5.0
100
AcDbLine
 10
450.4744029341414
 20
539.1454399890319
 30
-6.378334039907497
 11
451.4742299536882
 21
539.1454399890319
 31
-6.378334039907497
  0
LINE
  5
84A
330
1F
100
AcDbEntity
  8
0
  6
DASHED
 62
     4
 48
5.0
100
AcDbLine
 10
451.4742299536882
 20
539.1454399890319
 30
-6.378334039907497
 11
451.4742299536882
 21
540.6451805183523
 31
-6.378334039907497
  0
LINE
  5
84B
330
1F
100
AcDbEntity
  8
0
  6
DASHED
 62
     4
 48
5.0
100
AcDbLine
 10
451.4742299536882
 20
540.6451805183523
 30
-6.378334039907497
 11
452.9739704830085
 21
540.6451805183523
 31
-6.378334039907497
  0
LINE
  5
84C
330
1F
100
AcDbEntity
  8
0
  6
DASHED
 62
     4
 48
5.0
100
AcDbLine
 10
452.9739704830085
 20
540.6451805183523
 30
-6.378334039907497
 11
452.9739704830085
 21
540.6451805183523
 31
-6.378334039907497
  0
LINE
  5
84D
330
1F
100
AcDbEntity
  8
0
  6
DASHED
 62
     4
 48
5.0
100
AcDbLine
 10
456.5933442937681
 20
540.6451805183523
 30
-6.378334039907497
 11
458.0930848230881
 21
540.6451805183523
 31
-6.378334039907497
  0
LINE
  5
84E
330
1F
100
AcDbEntity
  8
0
  6
DASHED
 62
     4
 48
5.0
100
AcDbLine
 10
458.0930848230881
 20
540.6451805183523
 30
-6.378334039907497
 11
458.0930848230881
 21
539.1454399890319
 31
-6.378334039907497
  0
LINE
  5
84F
330
1F
100
AcDbEntity
  8
0
  6
DASHED
 62
     4
 48
5.0
100
AcDbLine
 10
458.0930848230881
 20
539.1454399890319
 30
-6.378334039907497
 11
459.0929118426346
 21
539.1454399890319
 31
-6.378334039907497
  0
LINE
  5
850
330
1F
100
AcDbEntity
  8
0
  6
DASHED
 62
     4
 48
5.0
100
AcDbLine
 10
459.0929118426346
 20
539.1454399890319
 30
-6.378334039907497
 11
459.0929118426346
 21
540.6451805183523
 31
-6.378334039907497
  0
LINE
  5
851
330
1F
100
AcDbEntity
  8
0
  6
DASHED
 62
     4
 48
5.0
100
AcDbLine
 10
459.0929118426346
 20
540.6451805183523
 30
-6.378334039907497
 11
460.5926523719552
 21
540.6451805183523
 31
-6.378334039907497
  0
LINE
  5
852
330
1F
100
AcDbEntity
  8
0
  6
DASHED
 62
     4
 48
5.0
100
AcDbLine
 10
460.5926523719552
 20
540.6451805183523
 30
-6.378334039907497
 11
460.5926523719552
 21
540.6451805183523
 31
-6.378334039907497
  0
LINE
  5
853
330
1F
100
AcDbEntity
  8
0
  6
DASHED
 62
     4
 48
5.0
100
AcDbLine
 10
428.6181842868485
 20
539.1454399890319
 30
-6.378334039907497
 11
428.6181842868485
 21
540.6451805183523
 31
-6.378334039907497
  0
LINE
  5
854
330
1F
100
AcDbEntity
  8
0
  6
DASHED
 62
     4
 48
5.0
100
AcDbLine
 10
428.6181842868485
 20
540.6451805183523
 30
-6.378334039907497
 11
430.1179248161687
 21
540.6451805183523
 31
-6.378334039907497
  0
LINE
  5
855
330
1F
100
AcDbEntity
  8
0
  6
DASHED
 62
     4
 48
5.0
100
AcDbLine
 10
430.1179248161687
 20
540.6451805183523
 30
-6.378334039907497
 11
430.1179248161687
 21
540.6451805183523
 31
-6.378334039907497
  0
LINE
  5
856
330
1F
100
AcDbEntity
  8
0
  6
DASHED
 62
     4
 48
5.0
100
AcDbLine
 10
433.7372986269281
 20
540.6451805183523
 30
-6.378334039907497
 11
435.2370391562483
 21
540.6451805183523
 31
-6.378334039907497
  0
LINE
  5
857
330
1F
100
AcDbEntity
  8
0
  6
DASHED
 62
     4
 48
5.0
100
AcDbLine
 10
435.2370391562483
 20
540.6451805183523
 30
-6.378334039907497
 11
435.2370391562483
 21
539.1454399890319
 31
-6.378334039907497
  0
LINE
  5
858
330
1F
100
AcDbEntity
  8
0
  6
DASHED
 62
     4
 48
5.0
100
AcDbLine
 10
435.2370391562483
 20
539.1454399890319
 30
-6.378334039907497
 11
436.2368661757951
 21
539.1454399890319
 31
-6.378334039907497
  0
LINE
  5
859
330
1F
100
AcDbEntity
  8
0
  6
DASHED
 62
     4
 48
5.0
100
AcDbLine
 10
436.2368661757951
 20
539.1454399890319
 30
-6.378334039907497
 11
436.2368661757951
 21
540.6451805183523
 31
-6.378334039907497
  0
LINE
  5
85A
330
1F
100
AcDbEntity
  8
0
  6
DASHED
 62
     4
 48
5.0
100
AcDbLine
 10
436.2368661757951
 20
540.6451805183523
 30
-6.378334039907497
 11
437.7366067051155
 21
540.6451805183523
 31
-6.378334039907497
  0
LINE
  5
85B
330
1F
100
AcDbEntity
  8
0
  6
DASHED
 62
     4
 48
5.0
100
AcDbLine
 10
437.7366067051155
 20
540.6451805183523
 30
-6.378334039907497
 11
437.7366067051155
 21
540.6451805183523
 31
-6.378334039907497
  0
LINE
  5
85C
330
1F
100
AcDbEntity
  8
0
  6
DASHED
 62
     4
 48
5.0
100
AcDbLine
 10
441.3559805158747
 20
540.6451805183523
 30
-6.378334039907497
 11
442.8557210451951
 21
540.6451805183523
 31
-6.378334039907497
  0
LINE
  5
85D
330
1F
100
AcDbEntity
  8
0
  6
DASHED
 62
     4
 48
5.0
100
AcDbLine
 10
442.8557210451951
 20
540.6451805183523
 30
-6.378334039907497
 11
442.8557210451951
 21
539.1454399890319
 31
-6.378334039907497
  0
LINE
  5
85E
330
1F
100
AcDbEntity
  8
0
  6
DASHED
 62
     4
 48
5.0
100
AcDbLine
 10
442.8557210451951
 20
539.1454399890319
 30
-6.378334039907497
 11
443.8555480647416
 21
539.1454399890319
 31
-6.378334039907497
  0
LINE
  5
85F
330
1F
100
AcDbEntity
  8
0
  6
DASHED
 62
     4
 48
5.0
100
AcDbLine
 10
443.8555480647416
 20
539.1454399890319
 30
-6.378334039907497
 11
443.8555480647416
 21
540.6451805183523
 31
-6.378334039907497
  0
LINE
  5
860
330
1F
100
AcDbEntity
  8
0
  6
DASHED
 62
     4
 48
5.0
100
AcDbLine
 10
443.8555480647416
 20
540.6451805183523
 30
-6.378334039907497
 11
445.3552885940618
 21
540.6451805183523
 31
-6.378334039907497
  0
LINE
  5
861
330
1F
100
AcDbEntity
  8
0
  6
DASHED
 62
     4
 48
5.0
100
AcDbLine
 10
430.1179248161687
 20
540.6451805183523
 30
-6.378334039907497
 11
430.1179248161687
 21
541.6450075378986
 31
-6.378334039907497
  0
LINE
  5
862
330
1F
100
AcDbEntity
  8
0
  6
DASHED
 62
     4
 48
5.0
100
AcDbLine
 10
437.7366067051155
 20
540.6451805183523
 30
-6.378334039907497
 11
437.7366067051155
 21
541.6450075378986
 31
-6.378334039907497
  0
LINE
  5
863
330
1F
100
AcDbEntity
  8
0
  6
DASHED
 62
     4
 48
5.0
100
AcDbLine
 10
433.7372986269281
 20
541.6450075378986
 30
-6.378334039907497
 11
433.7372986269281
 21
540.6451805183523
 31
-6.378334039907497
  0
LINE
  5
864
330
1F
100
AcDbEntity
  8
0
  6
DASHED
 62
     4
 48
5.0
100
AcDbLine
 10
445.3552885940618
 20
540.6451805183523
 30
-6.378334039907497
 11
445.3552885940618
 21
541.6450075378986
 31
-6.378334039907497
  0
LINE
  5
865
330
1F
100
AcDbEntity
  8
0
  6
DASHED
 62
     4
 48
5.0
100
AcDbLine
 10
441.3559805158747
 20
541.6450075378986
 30
-6.378334039907497
 11
441.3559805158747
 21
540.6451805183523
 31
-6.378334039907497
  0
LINE
  5
866
330
1F
100
AcDbEntity
  8
0
  6
DASHED
 62
     4
 48
5.0
100
AcDbLine
 10
452.9739704830085
 20
540.6451805183523
 30
-6.378334039907497
 11
452.9739704830085
 21
541.6450075378986
 31
-6.378334039907497
  0
LINE
  5
867
330
1F
100
AcDbEntity
  8
0
  6
DASHED
 62
     4
 48
5.0
100
AcDbLine
 10
448.9746624048213
 20
541.6450075378986
 30
-6.378334039907497
 11
448.9746624048213
 21
540.6451805183523
 31
-6.378334039907497
  0
LINE
  5
868
330
1F
100
AcDbEntity
  8
0
  6
DASHED
 62
     4
 48
5.0
100
AcDbLine
 10
460.5926523719552
 20
540.6451805183523
 30
-6.378334039907497
 11
460.5926523719552
 21
541.6450075378986
 31
-6.378334039907497
  0
LINE
  5
869
330
1F
100
AcDbEntity
  8
0
  6
DASHED
 62
     4
 48
5.0
100
AcDbLine
 10
456.5933442937681
 20
541.6450075378986
 30
-6.378334039907497
 11
456.5933442937681
 21
540.6451805183523
 31
-6.378334039907497
  0
LINE
  5
86A
330
1F
100
AcDbEntity
  8
0
  6
DASHED
 62
     4
 48
5.0
100
AcDbLine
 10
447.7462729289524
 20
536.6872032894991
 30
-6.378334039907497
 11
447.7462729289524
 21
546.685473484967
 31
-6.378334039907497
  0
LINE
  5
86B
330
1F
100
AcDbEntity
  8
0
  6
DASHED
 62
     4
 48
5.0
100
AcDbLine
 10
446.4265012631501
 20
536.6872032894991
 30
-6.378334039907497
 11
446.4265012631501
 21
546.685473484967
 31
-6.378334039907497
  0
LINE
  5
86C
330
1F
100
AcDbEntity
  8
0
  6
DASHED
 62
     4
 48
5.0
100
AcDbLine
 10
454.0451831520974
 20
536.6872032894991
 30
-6.378334039907497
 11
454.0451831520974
 21
546.685473484967
 31
-6.378334039907497
  0
LINE
  5
86D
330
1F
100
AcDbEntity
  8
0
  6
DASHED
 62
     4
 48
5.0
100
AcDbLine
 10
455.364954817899
 20
536.6872032894991
 30
-6.378334039907497
 11
455.364954817899
 21
546.685473484967
 31
-6.378334039907497
  0
LINE
  5
86E
330
1F
100
AcDbEntity
  8
0
  6
DASHED
 62
     4
 48
5.0
100
AcDbLine
 10
438.8078193742036
 20
536.6872032894991
 30
-6.378334039907497
 11
438.8078193742036
 21
546.685473484967
 31
-6.378334039907497
  0
LINE
  5
86F
330
1F
100
AcDbEntity
  8
0
  6
DASHED
 62
     4
 48
5.0
100
AcDbLine
 10
440.127591040006
 20
536.6872032894991
 30
-6.378334039907497
 11
440.127591040006
 21
546.685473484967
 31
-6.378334039907497
  0
LINE
  5
870
330
1F
100
AcDbEntity
  8
0
  6
DASHED
 62
     4
 48
5.0
100
AcDbLine
 10
431.1891374852571
 20
536.6872032894991
 30
-6.378334039907497
 11
431.1891374852571
 21
546.685473484967
 31
-6.378334039907497
  0
LINE
  5
871
330
1F
100
AcDbEntity
  8
0
  6
DASHED
 62
     4
 48
5.0
100
AcDbLine
 10
432.5089091510593
 20
536.6872032894991
 30
-6.378334039907497
 11
432.5089091510593
 21
546.685473484967
 31
-6.378334039907497
  0
LINE
  5
872
330
1F
100
AcDbEntity
  8
0
  6
DASHED
 62
     4
 48
5.0
100
AcDbLine
 10
418.6464834945984
 20
550.9192170033887
 30
-6.378334039907497
 11
418.6464834945984
 21
551.9190440229362
 31
-6.378334039907497
  0
LINE
  5
873
330
1F
100
AcDbEntity
  8
0
  6
DASHED
 62
     4
 48
5.0
100
AcDbLine
 10
418.6464834945984
 20
551.9190440229362
 30
-6.378334039907497
 11
417.1467429652784
 21
551.9190440229362
 31
-6.378334039907497
  0
LINE
  5
874
330
1F
100
AcDbEntity
  8
0
  6
DASHED
 62
     4
 48
5.0
100
AcDbLine
 10
417.1467429652784
 20
551.9190440229362
 30
-6.378334039907497
 11
417.1467429652784
 21
553.4187845522564
 31
-6.378334039907497
  0
LINE
  5
875
330
1F
100
AcDbEntity
  8
0
  6
DASHED
 62
     4
 48
5.0
100
AcDbLine
 10
417.1467429652784
 20
553.4187845522564
 30
-6.378334039907497
 11
416.1469159457315
 21
553.4187845522564
 31
-6.378334039907497
  0
LINE
  5
876
330
1F
100
AcDbEntity
  8
0
  6
DASHED
 62
     4
 48
5.0
100
AcDbLine
 10
416.1469159457315
 20
553.4187845522564
 30
-6.378334039907497
 11
416.1469159457315
 21
551.9190440229362
 31
-6.378334039907497
  0
LINE
  5
877
330
1F
100
AcDbEntity
  8
0
  6
DASHED
 62
     4
 48
5.0
100
AcDbLine
 10
416.1469159457315
 20
551.9190440229362
 30
-6.378334039907497
 11
414.6471754164113
 21
551.9190440229362
 31
-6.378334039907497
  0
LINE
  5
878
330
1F
100
AcDbEntity
  8
0
  6
DASHED
 62
     4
 48
5.0
100
AcDbLine
 10
414.6471754164113
 20
551.9190440229362
 30
-6.378334039907497
 11
414.6471754164113
 21
550.9192170033887
 31
-6.378334039907497
  0
LINE
  5
879
330
1F
100
AcDbEntity
  8
0
  6
DASHED
 62
     4
 48
5.0
100
AcDbLine
 10
414.6471754164113
 20
550.9192170033887
 30
-6.378334039907497
 11
416.1469159457315
 21
550.9192170033887
 31
-6.378334039907497
  0
LINE
  5
87A
330
1F
100
AcDbEntity
  8
0
  6
DASHED
 62
     4
 48
5.0
100
AcDbLine
 10
416.1469159457315
 20
550.9192170033887
 30
-6.378334039907497
 11
416.1469159457315
 21
549.4194764740692
 31
-6.378334039907497
  0
LINE
  5
87B
330
1F
100
AcDbEntity
  8
0
  6
DASHED
 62
     4
 48
5.0
100
AcDbLine
 10
416.1469159457315
 20
549.4194764740692
 30
-6.378334039907497
 11
417.1467429652784
 21
549.4194764740692
 31
-6.378334039907497
  0
LINE
  5
87C
330
1F
100
AcDbEntity
  8
0
  6
DASHED
 62
     4
 48
5.0
100
AcDbLine
 10
417.1467429652784
 20
549.4194764740692
 30
-6.378334039907497
 11
417.1467429652784
 21
550.9192170033887
 31
-6.378334039907497
  0
LINE
  5
87D
330
1F
100
AcDbEntity
  8
0
  6
DASHED
 62
     4
 48
5.0
100
AcDbLine
 10
417.1467429652784
 20
550.9192170033887
 30
-6.378334039907497
 11
418.6464834945984
 21
550.9192170033887
 31
-6.378334039907497
  0
LINE
  5
87E
330
1F
100
AcDbEntity
  8
0
  6
DASHED
 62
     4
 48
5.0
100
AcDbLine
 10
418.6464834945984
 20
550.9192170033887
 30
-6.378334039907497
 11
418.6464834945984
 21
550.9192170033887
 31
-6.378334039907497
  0
LINE
  5
87F
330
1F
100
AcDbEntity
  8
0
  6
DASHED
 62
     4
 48
5.0
100
AcDbLine
 10
414.8805610382758
 20
541.6450075378986
 30
-6.378334039907497
 11
413.3808205089555
 21
541.6450075378986
 31
-6.378334039907497
  0
LINE
  5
880
330
1F
100
AcDbEntity
  8
0
  6
DASHED
 62
     4
 48
5.0
100
AcDbLine
 10
413.3808205089555
 20
541.6450075378986
 30
-6.378334039907497
 11
413.3808205089555
 21
543.1447480672192
 31
-6.378334039907497
  0
LINE
  5
881
330
1F
100
AcDbEntity
  8
0
  6
DASHED
 62
     4
 48
5.0
100
AcDbLine
 10
413.3808205089555
 20
543.1447480672192
 30
-6.378334039907497
 11
412.3809934894092
 21
543.1447480672192
 31
-6.378334039907497
  0
LINE
  5
882
330
1F
100
AcDbEntity
  8
0
  6
DASHED
 62
     4
 48
5.0
100
AcDbLine
 10
412.3809934894092
 20
543.1447480672192
 30
-6.378334039907497
 11
412.3809934894092
 21
541.6450075378986
 31
-6.378334039907497
  0
LINE
  5
883
330
1F
100
AcDbEntity
  8
0
  6
DASHED
 62
     4
 48
5.0
100
AcDbLine
 10
426.265165383545
 20
550.9192170033887
 30
-6.378334039907497
 11
426.265165383545
 21
551.9190440229362
 31
-6.378334039907497
  0
LINE
  5
884
330
1F
100
AcDbEntity
  8
0
  6
DASHED
 62
     4
 48
5.0
100
AcDbLine
 10
426.265165383545
 20
551.9190440229362
 30
-6.378334039907497
 11
424.7654248542247
 21
551.9190440229362
 31
-6.378334039907497
  0
LINE
  5
885
330
1F
100
AcDbEntity
  8
0
  6
DASHED
 62
     4
 48
5.0
100
AcDbLine
 10
424.7654248542247
 20
551.9190440229362
 30
-6.378334039907497
 11
424.7654248542247
 21
553.4187845522564
 31
-6.378334039907497
  0
LINE
  5
886
330
1F
100
AcDbEntity
  8
0
  6
DASHED
 62
     4
 48
5.0
100
AcDbLine
 10
424.7654248542247
 20
553.4187845522564
 30
-6.378334039907497
 11
423.765597834678
 21
553.4187845522564
 31
-6.378334039907497
  0
LINE
  5
887
330
1F
100
AcDbEntity
  8
0
  6
DASHED
 62
     4
 48
5.0
100
AcDbLine
 10
423.765597834678
 20
553.4187845522564
 30
-6.378334039907497
 11
423.765597834678
 21
551.9190440229362
 31
-6.378334039907497
  0
LINE
  5
888
330
1F
100
AcDbEntity
  8
0
  6
DASHED
 62
     4
 48
5.0
100
AcDbLine
 10
423.765597834678
 20
551.9190440229362
 30
-6.378334039907497
 11
422.2658573053577
 21
551.9190440229362
 31
-6.378334039907497
  0
LINE
  5
889
330
1F
100
AcDbEntity
  8
0
  6
DASHED
 62
     4
 48
5.0
100
AcDbLine
 10
422.2658573053577
 20
551.9190440229362
 30
-6.378334039907497
 11
422.2658573053577
 21
550.9192170033887
 31
-6.378334039907497
  0
LINE
  5
88A
330
1F
100
AcDbEntity
  8
0
  6
DASHED
 62
     4
 48
5.0
100
AcDbLine
 10
422.2658573053577
 20
550.9192170033887
 30
-6.378334039907497
 11
423.765597834678
 21
550.9192170033887
 31
-6.378334039907497
  0
LINE
  5
88B
330
1F
100
AcDbEntity
  8
0
  6
DASHED
 62
     4
 48
5.0
100
AcDbLine
 10
423.765597834678
 20
550.9192170033887
 30
-6.378334039907497
 11
423.765597834678
 21
549.4194764740692
 31
-6.378334039907497
  0
LINE
  5
88C
330
1F
100
AcDbEntity
  8
0
  6
DASHED
 62
     4
 48
5.0
100
AcDbLine
 10
423.765597834678
 20
549.4194764740692
 30
-6.378334039907497
 11
424.7654248542247
 21
549.4194764740692
 31
-6.378334039907497
  0
LINE
  5
88D
330
1F
100
AcDbEntity
  8
0
  6
DASHED
 62
     4
 48
5.0
100
AcDbLine
 10
424.7654248542247
 20
549.4194764740692
 30
-6.378334039907497
 11
424.7654248542247
 21
550.9192170033887
 31
-6.378334039907497
  0
LINE
  5
88E
330
1F
100
AcDbEntity
  8
0
  6
DASHED
 62
     4
 48
5.0
100
AcDbLine
 10
424.7654248542247
 20
550.9192170033887
 30
-6.378334039907497
 11
426.265165383545
 21
550.9192170033887
 31
-6.378334039907497
  0
LINE
  5
88F
330
1F
100
AcDbEntity
  8
0
  6
DASHED
 62
     4
 48
5.0
100
AcDbLine
 10
426.265165383545
 20
550.9192170033887
 30
-6.378334039907497
 11
426.265165383545
 21
550.9192170033887
 31
-6.378334039907497
  0
LINE
  5
890
330
1F
100
AcDbEntity
  8
0
  6
DASHED
 62
     4
 48
5.0
100
AcDbLine
 10
422.4992429272224
 20
541.6450075378986
 30
-6.378334039907497
 11
420.9995023979018
 21
541.6450075378986
 31
-6.378334039907497
  0
LINE
  5
891
330
1F
100
AcDbEntity
  8
0
  6
DASHED
 62
     4
 48
5.0
100
AcDbLine
 10
420.9995023979018
 20
541.6450075378986
 30
-6.378334039907497
 11
420.9995023979018
 21
543.1447480672192
 31
-6.378334039907497
  0
LINE
  5
892
330
1F
100
AcDbEntity
  8
0
  6
DASHED
 62
     4
 48
5.0
100
AcDbLine
 10
420.9995023979018
 20
543.1447480672192
 30
-6.378334039907497
 11
419.9996753783557
 21
543.1447480672192
 31
-6.378334039907497
  0
LINE
  5
893
330
1F
100
AcDbEntity
  8
0
  6
DASHED
 62
     4
 48
5.0
100
AcDbLine
 10
419.9996753783557
 20
543.1447480672192
 30
-6.378334039907497
 11
419.9996753783557
 21
541.6450075378986
 31
-6.378334039907497
  0
LINE
  5
894
330
1F
100
AcDbEntity
  8
0
  6
DASHED
 62
     4
 48
5.0
100
AcDbLine
 10
419.9996753783557
 20
541.6450075378986
 30
-6.378334039907497
 11
418.4999348490353
 21
541.6450075378986
 31
-6.378334039907497
  0
LINE
  5
895
330
1F
100
AcDbEntity
  8
0
  6
DASHED
 62
     4
 48
5.0
100
AcDbLine
 10
427.6183572673017
 20
543.1447480672192
 30
-6.378334039907497
 11
427.6183572673017
 21
541.6450075378986
 31
-6.378334039907497
  0
LINE
  5
896
330
1F
100
AcDbEntity
  8
0
  6
DASHED
 62
     4
 48
5.0
100
AcDbLine
 10
427.6183572673017
 20
541.6450075378986
 30
-6.378334039907497
 11
426.1186167379815
 21
541.6450075378986
 31
-6.378334039907497
  0
LINE
  5
897
330
1F
100
AcDbEntity
  8
0
  6
DASHED
 62
     4
 48
5.0
100
AcDbLine
 10
427.3797965407845
 20
546.685473484967
 30
-6.378334039907497
 11
427.3797965407845
 21
555.6839166608881
 31
-6.378334039907497
  0
LINE
  5
898
330
1F
100
AcDbEntity
  8
0
  6
DASHED
 62
     4
 48
5.0
100
AcDbLine
 10
419.7611146518378
 20
546.685473484967
 30
-6.378334039907497
 11
419.7611146518378
 21
555.6839166608881
 31
-6.378334039907497
  0
LINE
  5
899
330
1F
100
AcDbEntity
  8
0
  6
DASHED
 62
     4
 48
5.0
100
AcDbLine
 10
421.0808863176397
 20
546.685473484967
 30
-6.378334039907497
 11
421.0808863176397
 21
555.6839166608881
 31
-6.378334039907497
  0
LINE
  5
89A
330
1F
100
AcDbEntity
  8
0
  6
DASHED
 62
     4
 48
5.0
100
AcDbLine
 10
412.1424327628906
 20
546.685473484967
 30
-6.378334039907497
 11
412.1424327628906
 21
555.6839166608881
 31
-6.378334039907497
  0
LINE
  5
89B
330
1F
100
AcDbEntity
  8
0
  6
DASHED
 62
     4
 48
5.0
100
AcDbLine
 10
413.4622044286931
 20
546.685473484967
 30
-6.378334039907497
 11
413.4622044286931
 21
555.6839166608881
 31
-6.378334039907497
  0
LINE
  5
89C
330
1F
100
AcDbEntity
  8
0
  6
DASHED
 62
     4
 48
5.0
100
AcDbLine
 10
403.4091197167054
 20
550.9192170033887
 30
-6.378334039907497
 11
403.4091197167054
 21
551.9190440229362
 31
-6.378334039907497
  0
LINE
  5
89D
330
1F
100
AcDbEntity
  8
0
  6
DASHED
 62
     4
 48
5.0
100
AcDbLine
 10
403.4091197167054
 20
551.9190440229362
 30
-6.378334039907497
 11
401.9093791873851
 21
551.9190440229362
 31
-6.378334039907497
  0
LINE
  5
89E
330
1F
100
AcDbEntity
  8
0
  6
DASHED
 62
     4
 48
5.0
100
AcDbLine
 10
401.9093791873851
 20
551.9190440229362
 30
-6.378334039907497
 11
401.9093791873851
 21
553.4187845522564
 31
-6.378334039907497
  0
LINE
  5
89F
330
1F
100
AcDbEntity
  8
0
  6
DASHED
 62
     4
 48
5.0
100
AcDbLine
 10
401.9093791873851
 20
553.4187845522564
 30
-6.378334039907497
 11
400.9095521678383
 21
553.4187845522564
 31
-6.378334039907497
  0
LINE
  5
8A0
330
1F
100
AcDbEntity
  8
0
  6
DASHED
 62
     4
 48
5.0
100
AcDbLine
 10
400.9095521678383
 20
553.4187845522564
 30
-6.378334039907497
 11
400.9095521678383
 21
551.9190440229362
 31
-6.378334039907497
  0
LINE
  5
8A1
330
1F
100
AcDbEntity
  8
0
  6
DASHED
 62
     4
 48
5.0
100
AcDbLine
 10
400.9095521678383
 20
551.9190440229362
 30
-6.378334039907497
 11
399.4098116385183
 21
551.9190440229362
 31
-6.378334039907497
  0
LINE
  5
8A2
330
1F
100
AcDbEntity
  8
0
  6
DASHED
 62
     4
 48
5.0
100
AcDbLine
 10
399.4098116385183
 20
551.9190440229362
 30
-6.378334039907497
 11
399.4098116385183
 21
550.9192170033887
 31
-6.378334039907497
  0
LINE
  5
8A3
330
1F
100
AcDbEntity
  8
0
  6
DASHED
 62
     4
 48
5.0
100
AcDbLine
 10
399.4098116385183
 20
550.9192170033887
 30
-6.378334039907497
 11
400.9095521678383
 21
550.9192170033887
 31
-6.378334039907497
  0
LINE
  5
8A4
330
1F
100
AcDbEntity
  8
0
  6
DASHED
 62
     4
 48
5.0
100
AcDbLine
 10
400.9095521678383
 20
550.9192170033887
 30
-6.378334039907497
 11
400.9095521678383
 21
549.4194764740692
 31
-6.378334039907497
  0
LINE
  5
8A5
330
1F
100
AcDbEntity
  8
0
  6
DASHED
 62
     4
 48
5.0
100
AcDbLine
 10
400.9095521678383
 20
549.4194764740692
 30
-6.378334039907497
 11
401.9093791873851
 21
549.4194764740692
 31
-6.378334039907497
  0
LINE
  5
8A6
330
1F
100
AcDbEntity
  8
0
  6
DASHED
 62
     4
 48
5.0
100
AcDbLine
 10
401.9093791873851
 20
549.4194764740692
 30
-6.378334039907497
 11
401.9093791873851
 21
550.9192170033887
 31
-6.378334039907497
  0
LINE
  5
8A7
330
1F
100
AcDbEntity
  8
0
  6
DASHED
 62
     4
 48
5.0
100
AcDbLine
 10
401.9093791873851
 20
550.9192170033887
 30
-6.378334039907497
 11
403.4091197167054
 21
550.9192170033887
 31
-6.378334039907497
  0
LINE
  5
8A8
330
1F
100
AcDbEntity
  8
0
  6
DASHED
 62
     4
 48
5.0
100
AcDbLine
 10
403.4091197167054
 20
550.9192170033887
 30
-6.378334039907497
 11
403.4091197167054
 21
550.9192170033887
 31
-6.378334039907497
  0
LINE
  5
8A9
330
1F
100
AcDbEntity
  8
0
  6
DASHED
 62
     4
 48
5.0
100
AcDbLine
 10
399.6431972603826
 20
541.6450075378986
 30
-6.378334039907497
 11
398.1434567310623
 21
541.6450075378986
 31
-6.378334039907497
  0
LINE
  5
8AA
330
1F
100
AcDbEntity
  8
0
  6
DASHED
 62
     4
 48
5.0
100
AcDbLine
 10
398.1434567310623
 20
541.6450075378986
 30
-6.378334039907497
 11
398.1434567310623
 21
543.1447480672192
 31
-6.378334039907497
  0
LINE
  5
8AB
330
1F
100
AcDbEntity
  8
0
  6
DASHED
 62
     4
 48
5.0
100
AcDbLine
 10
398.1434567310623
 20
543.1447480672192
 30
-6.378334039907497
 11
397.143629711516
 21
543.1447480672192
 31
-6.378334039907497
  0
LINE
  5
8AC
330
1F
100
AcDbEntity
  8
0
  6
DASHED
 62
     4
 48
5.0
100
AcDbLine
 10
397.143629711516
 20
543.1447480672192
 30
-6.378334039907497
 11
397.143629711516
 21
541.6450075378986
 31
-6.378334039907497
  0
LINE
  5
8AD
330
1F
100
AcDbEntity
  8
0
  6
DASHED
 62
     4
 48
5.0
100
AcDbLine
 10
397.143629711516
 20
541.6450075378986
 30
-6.378334039907497
 11
395.6438891821958
 21
541.6450075378986
 31
-6.378334039907497
  0
LINE
  5
8AE
330
1F
100
AcDbEntity
  8
0
  6
DASHED
 62
     4
 48
5.0
100
AcDbLine
 10
411.027801605652
 20
550.9192170033887
 30
-6.378334039907497
 11
411.027801605652
 21
551.9190440229362
 31
-6.378334039907497
  0
LINE
  5
8AF
330
1F
100
AcDbEntity
  8
0
  6
DASHED
 62
     4
 48
5.0
100
AcDbLine
 10
411.027801605652
 20
551.9190440229362
 30
-6.378334039907497
 11
409.5280610763317
 21
551.9190440229362
 31
-6.378334039907497
  0
LINE
  5
8B0
330
1F
100
AcDbEntity
  8
0
  6
DASHED
 62
     4
 48
5.0
100
AcDbLine
 10
409.5280610763317
 20
551.9190440229362
 30
-6.378334039907497
 11
409.5280610763317
 21
553.4187845522564
 31
-6.378334039907497
  0
LINE
  5
8B1
330
1F
100
AcDbEntity
  8
0
  6
DASHED
 62
     4
 48
5.0
100
AcDbLine
 10
409.5280610763317
 20
553.4187845522564
 30
-6.378334039907497
 11
408.5282340567851
 21
553.4187845522564
 31
-6.378334039907497
  0
LINE
  5
8B2
330
1F
100
AcDbEntity
  8
0
  6
DASHED
 62
     4
 48
5.0
100
AcDbLine
 10
408.5282340567851
 20
553.4187845522564
 30
-6.378334039907497
 11
408.5282340567851
 21
551.9190440229362
 31
-6.378334039907497
  0
LINE
  5
8B3
330
1F
100
AcDbEntity
  8
0
  6
DASHED
 62
     4
 48
5.0
100
AcDbLine
 10
408.5282340567851
 20
551.9190440229362
 30
-6.378334039907497
 11
407.0284935274647
 21
551.9190440229362
 31
-6.378334039907497
  0
LINE
  5
8B4
330
1F
100
AcDbEntity
  8
0
  6
DASHED
 62
     4
 48
5.0
100
AcDbLine
 10
407.0284935274647
 20
551.9190440229362
 30
-6.378334039907497
 11
407.0284935274647
 21
550.9192170033887
 31
-6.378334039907497
  0
LINE
  5
8B5
330
1F
100
AcDbEntity
  8
0
  6
DASHED
 62
     4
 48
5.0
100
AcDbLine
 10
407.0284935274647
 20
550.9192170033887
 30
-6.378334039907497
 11
408.5282340567851
 21
550.9192170033887
 31
-6.378334039907497
  0
LINE
  5
8B6
330
1F
100
AcDbEntity
  8
0
  6
DASHED
 62
     4
 48
5.0
100
AcDbLine
 10
408.5282340567851
 20
550.9192170033887
 30
-6.378334039907497
 11
408.5282340567851
 21
549.4194764740692
 31
-6.378334039907497
  0
LINE
  5
8B7
330
1F
100
AcDbEntity
  8
0
  6
DASHED
 62
     4
 48
5.0
100
AcDbLine
 10
408.5282340567851
 20
549.4194764740692
 30
-6.378334039907497
 11
409.5280610763317
 21
549.4194764740692
 31
-6.378334039907497
  0
LINE
  5
8B8
330
1F
100
AcDbEntity
  8
0
  6
DASHED
 62
     4
 48
5.0
100
AcDbLine
 10
409.5280610763317
 20
549.4194764740692
 30
-6.378334039907497
 11
409.5280610763317
 21
550.9192170033887
 31
-6.378334039907497
  0
LINE
  5
8B9
330
1F
100
AcDbEntity
  8
0
  6
DASHED
 62
     4
 48
5.0
100
AcDbLine
 10
409.5280610763317
 20
550.9192170033887
 30
-6.378334039907497
 11
411.027801605652
 21
550.9192170033887
 31
-6.378334039907497
  0
LINE
  5
8BA
330
1F
100
AcDbEntity
  8
0
  6
DASHED
 62
     4
 48
5.0
100
AcDbLine
 10
411.027801605652
 20
550.9192170033887
 30
-6.378334039907497
 11
411.027801605652
 21
550.9192170033887
 31
-6.378334039907497
  0
LINE
  5
8BB
330
1F
100
AcDbEntity
  8
0
  6
DASHED
 62
     4
 48
5.0
100
AcDbLine
 10
407.2618791493292
 20
541.6450075378986
 30
-6.378334039907497
 11
405.7621386200088
 21
541.6450075378986
 31
-6.378334039907497
  0
LINE
  5
8BC
330
1F
100
AcDbEntity
  8
0
  6
DASHED
 62
     4
 48
5.0
100
AcDbLine
 10
405.7621386200088
 20
541.6450075378986
 30
-6.378334039907497
 11
405.7621386200088
 21
543.1447480672192
 31
-6.378334039907497
  0
LINE
  5
8BD
330
1F
100
AcDbEntity
  8
0
  6
DASHED
 62
     4
 48
5.0
100
AcDbLine
 10
405.7621386200088
 20
543.1447480672192
 30
-6.378334039907497
 11
404.7623116004625
 21
543.1447480672192
 31
-6.378334039907497
  0
LINE
  5
8BE
330
1F
100
AcDbEntity
  8
0
  6
DASHED
 62
     4
 48
5.0
100
AcDbLine
 10
404.7623116004625
 20
543.1447480672192
 30
-6.378334039907497
 11
404.7623116004625
 21
541.6450075378986
 31
-6.378334039907497
  0
LINE
  5
8BF
330
1F
100
AcDbEntity
  8
0
  6
DASHED
 62
     4
 48
5.0
100
AcDbLine
 10
404.7623116004625
 20
541.6450075378986
 30
-6.378334039907497
 11
403.2625710711423
 21
541.6450075378986
 31
-6.378334039907497
  0
LINE
  5
8C0
330
1F
100
AcDbEntity
  8
0
  6
DASHED
 62
     4
 48
5.0
100
AcDbLine
 10
404.523750873944
 20
546.685473484967
 30
-6.378334039907497
 11
404.523750873944
 21
555.6839166608881
 31
-6.378334039907497
  0
LINE
  5
8C1
330
1F
100
AcDbEntity
  8
0
  6
DASHED
 62
     4
 48
5.0
100
AcDbLine
 10
405.8435225397466
 20
546.685473484967
 30
-6.378334039907497
 11
405.8435225397466
 21
555.6839166608881
 31
-6.378334039907497
  0
LINE
  5
8C2
330
1F
100
AcDbEntity
  8
0
  6
DASHED
 62
     4
 48
5.0
100
AcDbLine
 10
396.9050689849976
 20
546.685473484967
 30
-6.378334039907497
 11
396.9050689849976
 21
555.6839166608881
 31
-6.378334039907497
  0
LINE
  5
8C3
330
1F
100
AcDbEntity
  8
0
  6
DASHED
 62
     4
 48
5.0
100
AcDbLine
 10
412.3809934894092
 20
541.6450075378986
 30
-6.378334039907497
 11
410.881252960089
 21
541.6450075378986
 31
-6.378334039907497
  0
LINE
  5
8C4
330
1F
100
AcDbEntity
  8
0
  6
DASHED
 62
     4
 48
5.0
100
AcDbLine
 10
412.3809934894092
 20
540.6451805183523
 30
-6.378334039907497
 11
412.3809934894092
 21
539.1454399890319
 31
-6.378334039907497
  0
LINE
  5
8C5
330
1F
100
AcDbEntity
  8
0
  6
DASHED
 62
     4
 48
5.0
100
AcDbLine
 10
412.3809934894092
 20
539.1454399890319
 30
-6.378334039907497
 11
413.3808205089555
 21
539.1454399890319
 31
-6.378334039907497
  0
LINE
  5
8C6
330
1F
100
AcDbEntity
  8
0
  6
DASHED
 62
     4
 48
5.0
100
AcDbLine
 10
413.3808205089555
 20
539.1454399890319
 30
-6.378334039907497
 11
413.3808205089555
 21
540.6451805183523
 31
-6.378334039907497
  0
LINE
  5
8C7
330
1F
100
AcDbEntity
  8
0
  6
DASHED
 62
     4
 48
5.0
100
AcDbLine
 10
413.3808205089555
 20
540.6451805183523
 30
-6.378334039907497
 11
414.8805610382758
 21
540.6451805183523
 31
-6.378334039907497
  0
LINE
  5
8C8
330
1F
100
AcDbEntity
  8
0
  6
DASHED
 62
     4
 48
5.0
100
AcDbLine
 10
414.8805610382758
 20
540.6451805183523
 30
-6.378334039907497
 11
414.8805610382758
 21
540.6451805183523
 31
-6.378334039907497
  0
LINE
  5
8C9
330
1F
100
AcDbEntity
  8
0
  6
DASHED
 62
     4
 48
5.0
100
AcDbLine
 10
418.4999348490353
 20
540.6451805183523
 30
-6.378334039907497
 11
419.9996753783557
 21
540.6451805183523
 31
-6.378334039907497
  0
LINE
  5
8CA
330
1F
100
AcDbEntity
  8
0
  6
DASHED
 62
     4
 48
5.0
100
AcDbLine
 10
419.9996753783557
 20
540.6451805183523
 30
-6.378334039907497
 11
419.9996753783557
 21
539.1454399890319
 31
-6.378334039907497
  0
LINE
  5
8CB
330
1F
100
AcDbEntity
  8
0
  6
DASHED
 62
     4
 48
5.0
100
AcDbLine
 10
419.9996753783557
 20
539.1454399890319
 30
-6.378334039907497
 11
420.9995023979018
 21
539.1454399890319
 31
-6.378334039907497
  0
LINE
  5
8CC
330
1F
100
AcDbEntity
  8
0
  6
DASHED
 62
     4
 48
5.0
100
AcDbLine
 10
420.9995023979018
 20
539.1454399890319
 30
-6.378334039907497
 11
420.9995023979018
 21
540.6451805183523
 31
-6.378334039907497
  0
LINE
  5
8CD
330
1F
100
AcDbEntity
  8
0
  6
DASHED
 62
     4
 48
5.0
100
AcDbLine
 10
420.9995023979018
 20
540.6451805183523
 30
-6.378334039907497
 11
422.4992429272224
 21
540.6451805183523
 31
-6.378334039907497
  0
LINE
  5
8CE
330
1F
100
AcDbEntity
  8
0
  6
DASHED
 62
     4
 48
5.0
100
AcDbLine
 10
422.4992429272224
 20
540.6451805183523
 30
-6.378334039907497
 11
422.4992429272224
 21
540.6451805183523
 31
-6.378334039907497
  0
LINE
  5
8CF
330
1F
100
AcDbEntity
  8
0
  6
DASHED
 62
     4
 48
5.0
100
AcDbLine
 10
426.1186167379815
 20
540.6451805183523
 30
-6.378334039907497
 11
427.6183572673017
 21
540.6451805183523
 31
-6.378334039907497
  0
LINE
  5
8D0
330
1F
100
AcDbEntity
  8
0
  6
DASHED
 62
     4
 48
5.0
100
AcDbLine
 10
427.6183572673017
 20
540.6451805183523
 30
-6.378334039907497
 11
427.6183572673017
 21
539.1454399890319
 31
-6.378334039907497
  0
LINE
  5
8D1
330
1F
100
AcDbEntity
  8
0
  6
DASHED
 62
     4
 48
5.0
100
AcDbLine
 10
395.6438891821958
 20
540.6451805183523
 30
-6.378334039907497
 11
397.143629711516
 21
540.6451805183523
 31
-6.378334039907497
  0
LINE
  5
8D2
330
1F
100
AcDbEntity
  8
0
  6
DASHED
 62
     4
 48
5.0
100
AcDbLine
 10
397.143629711516
 20
540.6451805183523
 30
-6.378334039907497
 11
397.143629711516
 21
539.1454399890319
 31
-6.378334039907497
  0
LINE
  5
8D3
330
1F
100
AcDbEntity
  8
0
  6
DASHED
 62
     4
 48
5.0
100
AcDbLine
 10
397.143629711516
 20
539.1454399890319
 30
-6.378334039907497
 11
398.1434567310623
 21
539.1454399890319
 31
-6.378334039907497
  0
LINE
  5
8D4
330
1F
100
AcDbEntity
  8
0
  6
DASHED
 62
     4
 48
5.0
100
AcDbLine
 10
398.1434567310623
 20
539.1454399890319
 30
-6.378334039907497
 11
398.1434567310623
 21
540.6451805183523
 31
-6.378334039907497
  0
LINE
  5
8D5
330
1F
100
AcDbEntity
  8
0
  6
DASHED
 62
     4
 48
5.0
100
AcDbLine
 10
398.1434567310623
 20
540.6451805183523
 30
-6.378334039907497
 11
399.6431972603826
 21
540.6451805183523
 31
-6.378334039907497
  0
LINE
  5
8D6
330
1F
100
AcDbEntity
  8
0
  6
DASHED
 62
     4
 48
5.0
100
AcDbLine
 10
399.6431972603826
 20
540.6451805183523
 30
-6.378334039907497
 11
399.6431972603826
 21
540.6451805183523
 31
-6.378334039907497
  0
LINE
  5
8D7
330
1F
100
AcDbEntity
  8
0
  6
DASHED
 62
     4
 48
5.0
100
AcDbLine
 10
403.2625710711423
 20
540.6451805183523
 30
-6.378334039907497
 11
404.7623116004625
 21
540.6451805183523
 31
-6.378334039907497
  0
LINE
  5
8D8
330
1F
100
AcDbEntity
  8
0
  6
DASHED
 62
     4
 48
5.0
100
AcDbLine
 10
404.7623116004625
 20
540.6451805183523
 30
-6.378334039907497
 11
404.7623116004625
 21
539.1454399890319
 31
-6.378334039907497
  0
LINE
  5
8D9
330
1F
100
AcDbEntity
  8
0
  6
DASHED
 62
     4
 48
5.0
100
AcDbLine
 10
404.7623116004625
 20
539.1454399890319
 30
-6.378334039907497
 11
405.7621386200088
 21
539.1454399890319
 31
-6.378334039907497
  0
LINE
  5
8DA
330
1F
100
AcDbEntity
  8
0
  6
DASHED
 62
     4
 48
5.0
100
AcDbLine
 10
405.7621386200088
 20
539.1454399890319
 30
-6.378334039907497
 11
405.7621386200088
 21
540.6451805183523
 31
-6.378334039907497
  0
LINE
  5
8DB
330
1F
100
AcDbEntity
  8
0
  6
DASHED
 62
     4
 48
5.0
100
AcDbLine
 10
405.7621386200088
 20
540.6451805183523
 30
-6.378334039907497
 11
407.2618791493292
 21
540.6451805183523
 31
-6.378334039907497
  0
LINE
  5
8DC
330
1F
100
AcDbEntity
  8
0
  6
DASHED
 62
     4
 48
5.0
100
AcDbLine
 10
407.2618791493292
 20
540.6451805183523
 30
-6.378334039907497
 11
407.2618791493292
 21
540.6451805183523
 31
-6.378334039907497
  0
LINE
  5
8DD
330
1F
100
AcDbEntity
  8
0
  6
DASHED
 62
     4
 48
5.0
100
AcDbLine
 10
410.881252960089
 20
540.6451805183523
 30
-6.378334039907497
 11
412.3809934894092
 21
540.6451805183523
 31
-6.378334039907497
  0
LINE
  5
8DE
330
1F
100
AcDbEntity
  8
0
  6
DASHED
 62
     4
 48
5.0
100
AcDbLine
 10
399.6431972603826
 20
540.6451805183523
 30
-6.378334039907497
 11
399.6431972603826
 21
541.6450075378986
 31
-6.378334039907497
  0
LINE
  5
8DF
330
1F
100
AcDbEntity
  8
0
  6
DASHED
 62
     4
 48
5.0
100
AcDbLine
 10
395.6438891821958
 20
541.6450075378986
 30
-6.378334039907497
 11
395.6438891821958
 21
540.6451805183523
 31
-6.378334039907497
  0
LINE
  5
8E0
330
1F
100
AcDbEntity
  8
0
  6
DASHED
 62
     4
 48
5.0
100
AcDbLine
 10
407.2618791493292
 20
540.6451805183523
 30
-6.378334039907497
 11
407.2618791493292
 21
541.6450075378986
 31
-6.378334039907497
  0
LINE
  5
8E1
330
1F
100
AcDbEntity
  8
0
  6
DASHED
 62
     4
 48
5.0
100
AcDbLine
 10
403.2625710711423
 20
541.6450075378986
 30
-6.378334039907497
 11
403.2625710711423
 21
540.6451805183523
 31
-6.378334039907497
  0
LINE
  5
8E2
330
1F
100
AcDbEntity
  8
0
  6
DASHED
 62
     4
 48
5.0
100
AcDbLine
 10
414.8805610382758
 20
540.6451805183523
 30
-6.378334039907497
 11
414.8805610382758
 21
541.6450075378986
 31
-6.378334039907497
  0
LINE
  5
8E3
330
1F
100
AcDbEntity
  8
0
  6
DASHED
 62
     4
 48
5.0
100
AcDbLine
 10
410.881252960089
 20
541.6450075378986
 30
-6.378334039907497
 11
410.881252960089
 21
540.6451805183523
 31
-6.378334039907497
  0
LINE
  5
8E4
330
1F
100
AcDbEntity
  8
0
  6
DASHED
 62
     4
 48
5.0
100
AcDbLine
 10
422.4992429272224
 20
540.6451805183523
 30
-6.378334039907497
 11
422.4992429272224
 21
541.6450075378986
 31
-6.378334039907497
  0
LINE
  5
8E5
330
1F
100
AcDbEntity
  8
0
  6
DASHED
 62
     4
 48
5.0
100
AcDbLine
 10
418.4999348490353
 20
541.6450075378986
 30
-6.378334039907497
 11
418.4999348490353
 21
540.6451805183523
 31
-6.378334039907497
  0
LINE
  5
8E6
330
1F
100
AcDbEntity
  8
0
  6
DASHED
 62
     4
 48
5.0
100
AcDbLine
 10
426.1186167379815
 20
541.6450075378986
 30
-6.378334039907497
 11
426.1186167379815
 21
540.6451805183523
 31
-6.378334039907497
  0
LINE
  5
8E7
330
1F
100
AcDbEntity
  8
0
  6
DASHED
 62
     4
 48
5.0
100
AcDbLine
 10
423.5704555963112
 20
536.6872032894991
 30
-6.378334039907497
 11
423.5704555963112
 21
546.685473484967
 31
-6.378334039907497
  0
LINE
  5
8E8
330
1F
100
AcDbEntity
  8
0
  6
DASHED
 62
     4
 48
5.0
100
AcDbLine
 10
424.8902272621124
 20
536.6872032894991
 30
-6.378334039907497
 11
424.8902272621124
 21
546.685473484967
 31
-6.378334039907497
  0
LINE
  5
8E9
330
1F
100
AcDbEntity
  8
0
  6
DASHED
 62
     4
 48
5.0
100
AcDbLine
 10
415.9517737073646
 20
536.6872032894991
 30
-6.378334039907497
 11
415.9517737073646
 21
546.685473484967
 31
-6.378334039907497
  0
LINE
  5
8EA
330
1F
100
AcDbEntity
  8
0
  6
DASHED
 62
     4
 48
5.0
100
AcDbLine
 10
417.2715453731659
 20
536.6872032894991
 30
-6.378334039907497
 11
417.2715453731659
 21
546.685473484967
 31
-6.378334039907497
  0
LINE
  5
8EB
330
1F
100
AcDbEntity
  8
0
  6
DASHED
 62
     4
 48
5.0
100
AcDbLine
 10
408.3330918184181
 20
536.6872032894991
 30
-6.378334039907497
 11
408.3330918184181
 21
546.685473484967
 31
-6.378334039907497
  0
LINE
  5
8EC
330
1F
100
AcDbEntity
  8
0
  6
DASHED
 62
     4
 48
5.0
100
AcDbLine
 10
409.6528634842194
 20
536.6872032894991
 30
-6.378334039907497
 11
409.6528634842194
 21
546.685473484967
 31
-6.378334039907497
  0
LINE
  5
8ED
330
1F
100
AcDbEntity
  8
0
  6
DASHED
 62
     4
 48
5.0
100
AcDbLine
 10
400.7144099294713
 20
536.6872032894991
 30
-6.378334039907497
 11
400.7144099294713
 21
546.685473484967
 31
-6.378334039907497
  0
LINE
  5
8EE
330
1F
100
AcDbEntity
  8
0
  6
DASHED
 62
     4
 48
5.0
100
AcDbLine
 10
402.0341815952725
 20
536.6872032894991
 30
-6.378334039907497
 11
402.0341815952725
 21
546.685473484967
 31
-6.378334039907497
  0
LINE
  5
8EF
330
1F
100
AcDbEntity
  8
0
  6
DASHED
 62
     4
 48
5.0
100
AcDbLine
 10
394.4154997063266
 20
536.6872032894991
 30
-6.378334039907497
 11
394.4154997063266
 21
546.685473484967
 31
-6.378334039907497
  0
LINE
  5
8F0
330
1F
100
AcDbEntity
  8
0
  6
DASHED
 62
     4
 48
5.0
100
AcDbLine
 10
428.6181842868485
 20
543.1447480672192
 30
-6.378334039907497
 11
427.6183572673017
 21
543.1447480672192
 31
-6.378334039907497
  0
LINE
  5
8F1
330
1F
100
AcDbEntity
  8
0
  6
DASHED
 62
     4
 48
5.0
100
AcDbLine
 10
427.6183572673017
 20
539.1454399890319
 30
-6.378334039907497
 11
428.6181842868485
 21
539.1454399890319
 31
-6.378334039907497
  0
LINE
  5
8F2
330
1F
100
AcDbEntity
  8
0
  6
DASHED
 62
     4
 48
5.0
100
AcDbLine
 10
461.859007279411
 20
551.9190440229362
 30
-6.378334039907497
 11
460.3592667500907
 21
551.9190440229362
 31
-6.378334039907497
  0
LINE
  5
8F3
330
1F
100
AcDbEntity
  8
0
  6
DASHED
 62
     4
 48
5.0
100
AcDbLine
 10
460.3592667500907
 20
550.9192170033887
 30
-6.378334039907497
 11
461.859007279411
 21
550.9192170033887
 31
-6.378334039907497
  0
LINE
  5
8F4
330
1F
100
AcDbEntity
  8
0
  6
Continuous
 62
     7
100
AcDbLine
 10
363.8057280405253
 20
571.9839166608882
 30
-6.378334039907497
 11
363.8057280405253
 21
593.9839166608874
 31
-6.378334039907497
  0
LINE
  5
8F5
330
1F
100
AcDbEntity
  8
0
  6
Continuous
 62
     7
100
AcDbLine
 10
361.6057280405251
 20
527.0239286608881
 30
-6.378334039907497
 11
361.6057280405251
 21
516.9439286608875
 31
-6.378334039907497
  0
LINE
  5
8F6
330
1F
100
AcDbEntity
  8
0
  6
Continuous
 62
     7
100
AcDbLine
 10
362.6057280405249
 20
527.0239286608881
 30
-6.378334039907497
 11
362.6057280405249
 21
516.9439286608875
 31
-6.378334039907497
  0
LINE
  5
8F7
330
1F
100
AcDbEntity
  8
0
  6
Continuous
 62
     7
100
AcDbLine
 10
361.6057280405251
 20
527.0239286608881
 30
-6.378334039907497
 11
362.6057280405249
 21
527.0239286608881
 31
-6.378334039907497
  0
LINE
  5
8F8
330
1F
100
AcDbEntity
  8
0
  6
Continuous
 62
     7
100
AcDbLine
 10
361.6057280405251
 20
516.9439286608875
 30
-6.378334039907497
 11
362.6057280405249
 21
516.9439286608875
 31
-6.378334039907497
  0
LINE
  5
8F9
330
1F
100
AcDbEntity
  8
0
  6
Continuous
 62
     7
 48
6.0
100
AcDbLine
 10
370.3057300405248
 20
521.4839306608877
 30
-6.378334039907497
 11
370.3057300405248
 21
522.4839306608878
 31
-6.378334039907497
  0
LINE
  5
8FA
330
1F
100
AcDbEntity
  8
0
  6
Continuous
 62
     7
 48
6.0
100
AcDbLine
 10
370.3057300405248
 20
522.4839306608878
 30
-6.378334039907497
 11
368.8057300405249
 21
522.4839306608878
 31
-6.378334039907497
  0
LINE
  5
8FB
330
1F
100
AcDbEntity
  8
0
  6
Continuous
 62
     7
 48
6.0
100
AcDbLine
 10
368.8057300405249
 20
522.4839306608878
 30
-6.378334039907497
 11
368.8057300405249
 21
523.9839306608877
 31
-6.378334039907497
  0
LINE
  5
8FC
330
1F
100
AcDbEntity
  8
0
  6
Continuous
 62
     7
 48
6.0
100
AcDbLine
 10
368.8057300405249
 20
523.9839306608877
 30
-6.378334039907497
 11
367.8057300405249
 21
523.9839306608877
 31
-6.378334039907497
  0
LINE
  5
8FD
330
1F
100
AcDbEntity
  8
0
  6
Continuous
 62
     7
 48
6.0
100
AcDbLine
 10
367.8057300405249
 20
523.9839306608877
 30
-6.378334039907497
 11
367.8057300405249
 21
522.4839306608878
 31
-6.378334039907497
  0
LINE
  5
8FE
330
1F
100
AcDbEntity
  8
0
  6
Continuous
 62
     7
 48
6.0
100
AcDbLine
 10
367.8057300405249
 20
522.4839306608878
 30
-6.378334039907497
 11
366.3057300405249
 21
522.4839306608878
 31
-6.378334039907497
  0
LINE
  5
8FF
330
1F
100
AcDbEntity
  8
0
  6
Continuous
 62
     7
 48
6.0
100
AcDbLine
 10
366.3057300405249
 20
522.4839306608878
 30
-6.378334039907497
 11
366.3057300405249
 21
521.4839306608877
 31
-6.378334039907497
  0
LINE
  5
900
330
1F
100
AcDbEntity
  8
0
  6
Continuous
 62
     7
 48
6.0
100
AcDbLine
 10
366.3057300405249
 20
521.4839306608877
 30
-6.378334039907497
 11
367.8057300405249
 21
521.4839306608877
 31
-6.378334039907497
  0
LINE
  5
901
330
1F
100
AcDbEntity
  8
0
  6
Continuous
 62
     7
 48
6.0
100
AcDbLine
 10
367.8057300405249
 20
521.4839306608877
 30
-6.378334039907497
 11
367.8057300405249
 21
519.9839306608875
 31
-6.378334039907497
  0
LINE
  5
902
330
1F
100
AcDbEntity
  8
0
  6
Continuous
 62
     7
 48
6.0
100
AcDbLine
 10
367.8057300405249
 20
519.9839306608875
 30
-6.378334039907497
 11
368.8057300405249
 21
519.9839306608875
 31
-6.378334039907497
  0
LINE
  5
903
330
1F
100
AcDbEntity
  8
0
  6
Continuous
 62
     7
 48
6.0
100
AcDbLine
 10
368.8057300405249
 20
519.9839306608875
 30
-6.378334039907497
 11
368.8057300405249
 21
521.4839306608877
 31
-6.378334039907497
  0
LINE
  5
904
330
1F
100
AcDbEntity
  8
0
  6
Continuous
 62
     7
 48
6.0
100
AcDbLine
 10
368.8057300405249
 20
521.4839306608877
 30
-6.378334039907497
 11
370.3057300405248
 21
521.4839306608877
 31
-6.378334039907497
  0
LINE
  5
905
330
1F
100
AcDbEntity
  8
0
  6
Continuous
 62
     7
 48
6.0
100
AcDbLine
 10
370.3057300405248
 20
521.4839306608877
 30
-6.378334039907497
 11
370.3057300405248
 21
521.4839306608877
 31
-6.378334039907497
  0
LINE
  5
906
330
1F
100
AcDbEntity
  8
0
  6
DASHED
 62
     4
 48
5.0
100
AcDbLine
 10
393.0957280405248
 20
536.6872032894991
 30
-6.378334039907497
 11
393.0957280405248
 21
555.6839166608881
 31
-6.378334039907497
  0
LINE
  5
907
330
1F
100
AcDbEntity
  8
0
  6
Continuous
 62
     7
100
AcDbLine
 10
366.5557280405248
 20
524.4206286608882
 30
-6.378334039907497
 11
366.5557280405248
 21
559.3870426608882
 31
-6.378334039907497
  0
LINE
  5
908
330
1F
100
AcDbEntity
  8
0
  6
Continuous
 62
     7
100
AcDbLine
 10
370.0557280405253
 20
524.4206286608882
 30
-6.378334039907497
 11
370.0557280405253
 21
559.3870426608882
 31
-6.378334039907497
  0
LINE
  5
909
330
1F
100
AcDbEntity
  8
0
  6
Continuous
 62
     7
100
AcDbLine
 10
358.6857280405248
 20
523.6639306608881
 30
-6.378334039907497
 11
358.6857280405248
 21
520.3039306608879
 31
-6.378334039907497
  0
LINE
  5
90A
330
1F
100
AcDbEntity
  8
0
  6
Continuous
 62
     7
100
AcDbLine
 10
360.6057280405252
 20
525.5839306608873
 30
-6.378334039907497
 11
361.6057280405251
 21
525.5839306608873
 31
-6.378334039907497
  0
LINE
  5
90B
330
1F
100
AcDbEntity
  8
0
  6
Continuous
 62
     7
100
AcDbLine
 10
360.6057280405252
 20
518.3839306608881
 30
-6.378334039907497
 11
361.6057280405251
 21
518.3839306608881
 31
-6.378334039907497
  0
LINE
  5
90C
330
1F
100
AcDbEntity
  8
0
  6
Continuous
 62
     7
100
AcDbLine
 10
366.5557280405248
 20
480.9839166608879
 30
-6.378334039907497
 11
366.5557280405248
 21
519.5472326608883
 31
-6.378334039907497
  0
LINE
  5
90D
330
1F
100
AcDbEntity
  8
0
  6
Continuous
 62
     7
100
AcDbLine
 10
370.0557280405253
 20
480.9839166608879
 30
-6.378334039907497
 11
370.0557280405253
 21
519.5472326608883
 31
-6.378334039907497
  0
LINE
  5
90E
330
1F
100
AcDbEntity
  8
0
  6
DASHED
 62
     4
 48
5.0
100
AcDbLine
 10
508.6957280405249
 20
555.6839166608881
 30
-6.378334039907497
 11
393.0957280405248
 21
555.6839166608881
 31
-6.378334039907497
  0
LINE
  5
90F
330
1F
100
AcDbEntity
  8
0
  6
DASHED
 62
     4
 48
5.0
100
AcDbLine
 10
508.6957280405249
 20
536.6872032894991
 30
-6.378334039907497
 11
393.0957280405248
 21
536.6872032894991
 31
-6.378334039907497
  0
LINE
  5
910
330
1F
100
AcDbEntity
  8
0
  6
DASHED
 62
     4
 48
5.0
100
AcDbLine
 10
508.6957280405249
 20
546.685473484967
 30
-6.378334039907497
 11
393.0957280405248
 21
546.685473484967
 31
-6.378334039907497
  0
ARC
  5
911
330
1F
100
AcDbEntity
  8
0
  6
DASHED
 62
     4
 48
5.0
100
AcDbCircle
 10
514.6057295346762
 20
299.9839151667371
 30
-6.378334039907497
 40
1.999998505850209
100
AcDbArc
 50
269.9999571957111
 51
0.0000428042888088
  0
ARC
  5
912
330
1F
100
AcDbEntity
  8
0
  6
DASHED
 62
     4
 48
5.0
100
AcDbCircle
 10
502.6057265463752
 20
299.9839151667371
 30
-6.378334039907497
 40
1.999998505850149
100
AcDbArc
 50
179.9999571957112
 51
270.0000428042887
  0
LINE
  5
913
330
1F
100
AcDbEntity
  8
0
  6
DASHED
 62
     4
 48
5.0
100
AcDbLine
 10
502.6057280405257
 20
297.9839166608872
 30
-6.378334039907497
 11
514.6057280405257
 21
297.9839166608872
 31
-6.378334039907497
  0
ARC
  5
914
330
1F
100
AcDbEntity
  8
0
  6
DASHED
 62
     4
 48
5.0
100
AcDbCircle
 10
481.6057295346761
 20
299.9839151667371
 30
-6.378334039907497
 40
1.999998505850209
100
AcDbArc
 50
269.9999571957111
 51
0.0000428042888088
  0
ARC
  5
915
330
1F
100
AcDbEntity
  8
0
  6
DASHED
 62
     4
 48
5.0
100
AcDbCircle
 10
469.6057265463752
 20
299.9839151667371
 30
-6.378334039907497
 40
1.999998505850149
100
AcDbArc
 50
179.9999571957112
 51
270.0000428042887
  0
LINE
  5
916
330
1F
100
AcDbEntity
  8
0
  6
DASHED
 62
     4
 48
5.0
100
AcDbLine
 10
469.6057280405256
 20
297.9839166608872
 30
-6.378334039907497
 11
481.6057280405257
 21
297.9839166608872
 31
-6.378334039907497
  0
LINE
  5
917
330
1F
100
AcDbEntity
  8
0
  6
Continuous
 62
     7
100
AcDbLine
 10
467.3057280405256
 20
278.9839166608874
 30
-6.378334039907497
 11
467.3057280405256
 21
289.9839166608872
 31
-6.378334039907497
  0
ARC
  5
918
330
1F
100
AcDbEntity
  8
0
  6
DASHED
 62
     4
 48
5.0
100
AcDbCircle
 10
453.6057295346759
 20
299.9839151667371
 30
-6.378334039907497
 40
1.999998505850209
100
AcDbArc
 50
269.9999571957111
 51
0.0000428042888088
  0
ARC
  5
919
330
1F
100
AcDbEntity
  8
0
  6
DASHED
 62
     4
 48
5.0
100
AcDbCircle
 10
441.6057265463749
 20
299.9839151667371
 30
-6.378334039907497
 40
1.999998505850149
100
AcDbArc
 50
179.9999571957112
 51
270.0000428042887
  0
LINE
  5
91A
330
1F
100
AcDbEntity
  8
0
  6
DASHED
 62
     4
 48
5.0
100
AcDbLine
 10
441.6057280405254
 20
297.9839166608872
 30
-6.378334039907497
 11
453.6057280405252
 21
297.9839166608872
 31
-6.378334039907497
  0
LINE
  5
91B
330
1F
100
AcDbEntity
  8
0
  6
Continuous
 62
     7
100
AcDbLine
 10
458.3057280405249
 20
278.9839166608874
 30
-6.378334039907497
 11
458.3057280405249
 21
289.9839166608872
 31
-6.378334039907497
  0
ARC
  5
91C
330
1F
100
AcDbEntity
  8
0
  6
DASHED
 62
     4
 48
5.0
100
AcDbCircle
 10
420.6057295346758
 20
299.9839151667371
 30
-6.378334039907497
 40
1.999998505850209
100
AcDbArc
 50
269.9999571957111
 51
0.0000428042888088
  0
ARC
  5
91D
330
1F
100
AcDbEntity
  8
0
  6
DASHED
 62
     4
 48
5.0
100
AcDbCircle
 10
408.6057265463749
 20
299.9839151667371
 30
-6.378334039907497
 40
1.999998505850149
100
AcDbArc
 50
179.9999571957112
 51
270.0000428042887
  0
LINE
  5
91E
330
1F
100
AcDbEntity
  8
0
  6
DASHED
 62
     4
 48
5.0
100
AcDbLine
 10
408.6057280405253
 20
297.9839166608872
 30
-6.378334039907497
 11
420.6057280405252
 21
297.9839166608872
 31
-6.378334039907497
  0
LINE
  5
91F
330
1F
100
AcDbEntity
  8
0
  6
DASHED
 62
     4
 48
5.0
100
AcDbLine
 10
500.6057280405256
 20
314.7046666608873
 30
-6.378334039907497
 11
500.6057280405256
 21
299.9839166608873
 31
-6.378334039907497
  0
LINE
  5
920
330
1F
100
AcDbEntity
  8
0
  6
DASHED
 62
     4
 48
5.0
100
AcDbLine
 10
516.6057280405258
 20
299.9839166608873
 30
-6.378334039907497
 11
516.6057280405258
 21
314.9312566608871
 31
-6.378334039907497
  0
LINE
  5
921
330
1F
100
AcDbEntity
  8
0
  6
DASHED
 62
     4
 48
5.0
100
AcDbLine
 10
467.6057280405256
 20
314.7046666608873
 30
-6.378334039907497
 11
467.6057280405256
 21
299.9839166608873
 31
-6.378334039907497
  0
LINE
  5
922
330
1F
100
AcDbEntity
  8
0
  6
DASHED
 62
     4
 48
5.0
100
AcDbLine
 10
483.6057280405254
 20
299.9839166608873
 30
-6.378334039907497
 11
483.6057280405254
 21
314.9312566608871
 31
-6.378334039907497
  0
LINE
  5
923
330
1F
100
AcDbEntity
  8
0
  6
DASHED
 62
     4
 48
5.0
100
AcDbLine
 10
439.6057280405255
 20
314.7046666608873
 30
-6.378334039907497
 11
439.6057280405255
 21
299.9839166608873
 31
-6.378334039907497
  0
LINE
  5
924
330
1F
100
AcDbEntity
  8
0
  6
DASHED
 62
     4
 48
5.0
100
AcDbLine
 10
455.6057280405256
 20
299.9839166608873
 30
-6.378334039907497
 11
455.6057280405256
 21
314.9312566608871
 31
-6.378334039907497
  0
LINE
  5
925
330
1F
100
AcDbEntity
  8
0
  6
DASHED
 62
     4
 48
5.0
100
AcDbLine
 10
406.6057280405255
 20
314.7046666608873
 30
-6.378334039907497
 11
406.6057280405255
 21
299.9839166608873
 31
-6.378334039907497
  0
LINE
  5
926
330
1F
100
AcDbEntity
  8
0
  6
DASHED
 62
     4
 48
5.0
100
AcDbLine
 10
422.6057280405255
 20
299.9839166608873
 30
-6.378334039907497
 11
422.6057280405255
 21
314.9312566608871
 31
-6.378334039907497
  0
LINE
  5
927
330
1F
100
AcDbEntity
  8
0
  6
DASHED
 62
     4
 48
5.0
100
AcDbLine
 10
394.6057280405252
 20
299.9839166608873
 30
-6.378334039907497
 11
394.6057280405252
 21
314.9312566608871
 31
-6.378334039907497
  0
LINE
  5
928
330
1F
100
AcDbEntity
  8
0
  6
Continuous
 62
     7
100
AcDbLine
 10
361.6057280405251
 20
327.0239286608873
 30
-6.378334039907497
 11
361.6057280405251
 21
316.9439286608873
 31
-6.378334039907497
  0
LINE
  5
929
330
1F
100
AcDbEntity
  8
0
  6
Continuous
 62
     7
100
AcDbLine
 10
362.6057280405249
 20
327.0239286608873
 30
-6.378334039907497
 11
362.6057280405249
 21
316.9439286608873
 31
-6.378334039907497
  0
LINE
  5
92A
330
1F
100
AcDbEntity
  8
0
  6
Continuous
 62
     7
100
AcDbLine
 10
361.6057280405251
 20
327.0239286608873
 30
-6.378334039907497
 11
362.6057280405249
 21
327.0239286608873
 31
-6.378334039907497
  0
LINE
  5
92B
330
1F
100
AcDbEntity
  8
0
  6
Continuous
 62
     7
100
AcDbLine
 10
361.6057280405251
 20
316.9439286608873
 30
-6.378334039907497
 11
362.6057280405249
 21
316.9439286608873
 31
-6.378334039907497
  0
LINE
  5
92C
330
1F
100
AcDbEntity
  8
0
  6
Continuous
 62
     7
 48
6.0
100
AcDbLine
 10
370.3057300405248
 20
326.4839306608872
 30
-6.378334039907497
 11
370.3057300405248
 21
327.4839306608872
 31
-6.378334039907497
  0
LINE
  5
92D
330
1F
100
AcDbEntity
  8
0
  6
Continuous
 62
     7
 48
6.0
100
AcDbLine
 10
370.3057300405248
 20
327.4839306608872
 30
-6.378334039907497
 11
368.8057300405249
 21
327.4839306608872
 31
-6.378334039907497
  0
LINE
  5
92E
330
1F
100
AcDbEntity
  8
0
  6
Continuous
 62
     7
 48
6.0
100
AcDbLine
 10
368.8057300405249
 20
327.4839306608872
 30
-6.378334039907497
 11
368.8057300405249
 21
328.9839306608873
 31
-6.378334039907497
  0
LINE
  5
92F
330
1F
100
AcDbEntity
  8
0
  6
Continuous
 62
     7
 48
6.0
100
AcDbLine
 10
368.8057300405249
 20
328.9839306608873
 30
-6.378334039907497
 11
367.8057300405249
 21
328.9839306608873
 31
-6.378334039907497
  0
LINE
  5
930
330
1F
100
AcDbEntity
  8
0
  6
Continuous
 62
     7
 48
6.0
100
AcDbLine
 10
367.8057300405249
 20
328.9839306608873
 30
-6.378334039907497
 11
367.8057300405249
 21
327.4839306608872
 31
-6.378334039907497
  0
LINE
  5
931
330
1F
100
AcDbEntity
  8
0
  6
Continuous
 62
     7
 48
6.0
100
AcDbLine
 10
367.8057300405249
 20
327.4839306608872
 30
-6.378334039907497
 11
366.3057300405249
 21
327.4839306608872
 31
-6.378334039907497
  0
LINE
  5
932
330
1F
100
AcDbEntity
  8
0
  6
Continuous
 62
     7
 48
6.0
100
AcDbLine
 10
366.3057300405249
 20
327.4839306608872
 30
-6.378334039907497
 11
366.3057300405249
 21
326.4839306608872
 31
-6.378334039907497
  0
LINE
  5
933
330
1F
100
AcDbEntity
  8
0
  6
Continuous
 62
     7
 48
6.0
100
AcDbLine
 10
366.3057300405249
 20
326.4839306608872
 30
-6.378334039907497
 11
367.8057300405249
 21
326.4839306608872
 31
-6.378334039907497
  0
LINE
  5
934
330
1F
100
AcDbEntity
  8
0
  6
Continuous
 62
     7
 48
6.0
100
AcDbLine
 10
367.8057300405249
 20
326.4839306608872
 30
-6.378334039907497
 11
367.8057300405249
 21
324.9839306608873
 31
-6.378334039907497
  0
LINE
  5
935
330
1F
100
AcDbEntity
  8
0
  6
Continuous
 62
     7
 48
6.0
100
AcDbLine
 10
367.8057300405249
 20
324.9839306608873
 30
-6.378334039907497
 11
368.8057300405249
 21
324.9839306608873
 31
-6.378334039907497
  0
LINE
  5
936
330
1F
100
AcDbEntity
  8
0
  6
Continuous
 62
     7
 48
6.0
100
AcDbLine
 10
368.8057300405249
 20
324.9839306608873
 30
-6.378334039907497
 11
368.8057300405249
 21
326.4839306608872
 31
-6.378334039907497
  0
LINE
  5
937
330
1F
100
AcDbEntity
  8
0
  6
Continuous
 62
     7
 48
6.0
100
AcDbLine
 10
368.8057300405249
 20
326.4839306608872
 30
-6.378334039907497
 11
370.3057300405248
 21
326.4839306608872
 31
-6.378334039907497
  0
LINE
  5
938
330
1F
100
AcDbEntity
  8
0
  6
Continuous
 62
     7
 48
6.0
100
AcDbLine
 10
370.3057300405248
 20
326.4839306608872
 30
-6.378334039907497
 11
370.3057300405248
 21
326.4839306608872
 31
-6.378334039907497
  0
LINE
  5
939
330
1F
100
AcDbEntity
  8
0
  6
Continuous
 62
     7
100
AcDbLine
 10
358.6857280405248
 20
323.6639306608876
 30
-6.378334039907497
 11
358.6857280405248
 21
320.3039306608876
 31
-6.378334039907497
  0
LINE
  5
93A
330
1F
100
AcDbEntity
  8
0
  6
Continuous
 62
     7
100
AcDbLine
 10
360.6057280405252
 20
325.5839306608871
 30
-6.378334039907497
 11
361.6057280405251
 21
325.5839306608871
 31
-6.378334039907497
  0
LINE
  5
93B
330
1F
100
AcDbEntity
  8
0
  6
Continuous
 62
     7
100
AcDbLine
 10
360.6057280405252
 20
318.3839306608873
 30
-6.378334039907497
 11
361.6057280405251
 21
318.3839306608873
 31
-6.378334039907497
  0
ARC
  5
93C
330
1F
100
AcDbEntity
  8
0
  6
DASHED
 62
     4
 48
5.0
100
AcDbCircle
 10
380.6057265463749
 20
299.9839151667371
 30
-6.378334039907497
 40
1.999998505850149
100
AcDbArc
 50
179.9999571957112
 51
270.0000428042887
  0
LINE
  5
93D
330
1F
100
AcDbEntity
  8
0
  6
DASHED
 62
     4
 48
5.0
100
AcDbLine
 10
380.6057280405251
 20
297.9839166608872
 30
-6.378334039907497
 11
392.6057280405252
 21
297.9839166608872
 31
-6.378334039907497
  0
LINE
  5
93E
330
1F
100
AcDbEntity
  8
0
  6
Continuous
 62
     7
100
AcDbLine
 10
362.6057280405249
 20
291.9839166608872
 30
-6.378334039907497
 11
370.3057280405249
 21
291.9839166608872
 31
-6.378334039907497
  0
LINE
  5
93F
330
1F
100
AcDbEntity
  8
0
  6
Continuous
 62
     7
100
AcDbLine
 10
363.8057280405253
 20
284.9839166608875
 30
-6.378334039907497
 11
363.8057280405253
 21
291.9839166608872
 31
-6.378334039907497
  0
LINE
  5
940
330
1F
100
AcDbEntity
  8
0
  6
Continuous
 62
     7
100
AcDbLine
 10
364.6057280405254
 20
291.9839166608872
 30
-6.378334039907497
 11
366.3057280405249
 21
291.9839166608872
 31
-6.378334039907497
  0
LINE
  5
941
330
1F
100
AcDbEntity
  8
0
  6
DASHED
 62
     4
 48
5.0
100
AcDbLine
 10
378.6057280405249
 20
314.7046666608873
 30
-6.378334039907497
 11
378.6057280405249
 21
299.9839166608873
 31
-6.378334039907497
  0
ARC
  5
942
330
1F
100
AcDbEntity
  8
0
  6
DASHED
 62
     4
 48
5.0
100
AcDbCircle
 10
392.6057295346756
 20
299.9839151667371
 30
-6.378334039907497
 40
1.999998505850209
100
AcDbArc
 50
269.9999571957111
 51
0.0000428042888088
  0
LINE
  5
943
330
1F
100
AcDbEntity
  8
0
  6
Continuous
 62
     7
100
AcDbLine
 10
456.3057280405247
 20
276.9839166608874
 30
-6.378334039907497
 11
371.8057280405253
 21
276.9839166608874
 31
-6.378334039907497
  0
LINE
  5
944
330
1F
100
AcDbEntity
  8
0
  6
Continuous
 62
     7
100
AcDbLine
 10
362.6057280405249
 20
291.9839166608872
 30
-6.378334039907497
 11
362.6057280405249
 21
571.9839166608882
 31
-6.378334039907497
  0
LINE
  5
945
330
1F
100
AcDbEntity
  8
0
  6
Continuous
 62
     7
100
AcDbLine
 10
362.6057280405249
 20
569.9839166608876
 30
-6.378334039907497
 11
362.6057280405249
 21
293.9839166608873
 31
-6.378334039907497
  0
ARC
  5
946
330
1F
100
AcDbEntity
  8
0
  6
DASHED
 62
     4
 48
5.0
100
AcDbCircle
 10
530.6057265463753
 20
299.9839151667371
 30
-6.378334039907497
 40
1.999998505850149
100
AcDbArc
 50
179.9999571957112
 51
270.0000428042887
  0
LINE
  5
947
330
1F
100
AcDbEntity
  8
0
  6
Continuous
 62
     7
100
AcDbLine
 10
563.0057280405261
 20
571.9839166608882
 30
-6.378334039907497
 11
362.6057280405249
 21
571.9839166608882
 31
-6.378334039907497
  0
LINE
  5
948
330
1F
100
AcDbEntity
  8
0
  6
Continuous
 62
     7
100
AcDbLine
 10
371.8057280405253
 20
601.9839166608882
 30
-6.378334039907497
 11
553.8057280405253
 21
601.9839166608882
 31
-6.378334039907497
  0
LINE
  5
949
330
1F
100
AcDbEntity
  8
0
  6
Continuous
 62
     7
100
AcDbLine
 10
553.8057280405253
 20
276.9839166608874
 30
-6.378334039907497
 11
469.3057280405247
 21
276.9839166608874
 31
-6.378334039907497
  0
LINE
  5
94A
330
1F
100
AcDbEntity
  8
0
  6
Continuous
 62
     7
100
AcDbLine
 10
370.3057280405249
 20
291.9839166608872
 30
-6.378334039907497
 11
555.3057280405255
 21
291.9839166608872
 31
-6.378334039907497
  0
CIRCLE
  5
94B
330
1F
100
AcDbEntity
  8
0
  6
Continuous
 62
     7
100
AcDbCircle
 10
526.3057302817503
 20
458.9839189021118
 30
4.210405960092526
 40
2.999997758775228
  0
LINE
  5
94C
330
1F
100
AcDbEntity
  8
0
  6
Continuous
 62
     7
100
AcDbLine
 10
515.3057280405246
 20
466.9839211433382
 30
4.210405960092526
 11
537.3057280405252
 21
466.9839211433382
 31
4.210405960092526
  0
LINE
  5
94D
330
1F
100
AcDbEntity
  8
0
  6
Continuous
 62
     7
100
AcDbLine
 10
515.3057280405246
 20
478.9839211433383
 30
4.210405960092526
 11
537.3057280405252
 21
478.9839211433383
 31
4.210405960092526
  0
LINE
  5
94E
330
1F
100
AcDbEntity
  8
0
  6
Continuous
 62
     7
100
AcDbLine
 10
515.3057280405246
 20
486.9839211433383
 30
4.210405960092526
 11
537.3057280405252
 21
486.9839211433383
 31
4.210405960092526
  0
LINE
  5
94F
330
1F
100
AcDbEntity
  8
0
  6
Continuous
 62
     7
100
AcDbLine
 10
515.3057280405246
 20
474.983921143338
 30
4.210405960092526
 11
537.3057280405252
 21
474.983921143338
 31
4.210405960092526
  0
CIRCLE
  5
B06
330
1F
100
AcDbEntity
  8
0
100
AcDbCircle
 10
420.805729967589
 20
440.4839207984132
 30
-16.97767311891998
 40
3.499997299275431
  0
ARC
  5
B07
330
1F
100
AcDbEntity
  8
0
  6
Continuous
 62
     7
100
AcDbCircle
 10
430.8057271072192
 20
438.9839182204908
 30
-16.97767311891998
 40
3.99999990175737
100
AcDbArc
 50
180.0
 51
0.0
  0
CIRCLE
  5
B08
330
1F
100
AcDbEntity
  8
0
100
AcDbCircle
 10
430.8057297219823
 20
440.4839207984132
 30
-16.97767311891998
 40
3.499997299275549
  0
ARC
  5
B09
330
1F
100
AcDbEntity
  8
0
  6
Continuous
 62
     7
100
AcDbCircle
 10
410.8057275984324
 20
438.9839182204908
 30
-16.97767311891998
 40
3.999999901757303
100
AcDbArc
 50
180.0
 51
0.0
  0
CIRCLE
  5
B0A
330
1F
100
AcDbEntity
  8
0
100
AcDbCircle
 10
410.8057302131957
 20
440.4839207984132
 30
-16.97767311891998
 40
3.499997299275549
  0
ARC
  5
B0B
330
1F
100
AcDbEntity
  8
0
  6
Continuous
 62
     7
100
AcDbCircle
 10
400.8057278440395
 20
438.9839182204908
 30
-16.97767311891998
 40
3.999999901757303
100
AcDbArc
 50
180.0
 51
0.0
  0
CIRCLE
  5
B0C
330
1F
100
AcDbEntity
  8
0
100
AcDbCircle
 10
400.8057304588025
 20
440.4839207984132
 30
-16.97767311891998
 40
3.499997299275549
  0
ARC
  5
B0D
330
1F
100
AcDbEntity
  8
0
  6
Continuous
 62
     7
100
AcDbCircle
 10
420.8057273528257
 20
438.9839182204908
 30
-16.97767311891998
 40
3.9999999017572
100
AcDbArc
 50
180.0
 51
0.0
  0
LINE
  5
B0E
330
1F
100
AcDbEntity
  8
0
  6
Continuous
 62
     7
100
AcDbLine
 10
393.8057280159638
 20
492.4839169064951
 30
-27.57701219793246
 11
393.8057280159638
 21
429.9839184415372
 31
-27.57701219793246
  0
LINE
  5
B0F
330
1F
100
AcDbEntity
  8
0
  6
Continuous
 62
     7
100
AcDbLine
 10
437.8057269352942
 20
492.4839169064951
 30
-27.57701219793246
 11
437.8057269352942
 21
429.9839184415372
 31
-27.57701219793246
  0
LINE
  5
B10
330
1F
100
AcDbEntity
  8
0
  6
Continuous
 62
     7
100
AcDbLine
 10
437.8057269352942
 20
492.4839169064951
 30
-27.57701219793246
 11
437.8057269352942
 21
429.9839184415372
 31
-27.57701219793246
  0
LINE
  5
B11
330
1F
100
AcDbEntity
  8
0
  6
Continuous
 62
     7
100
AcDbLine
 10
393.8057280159638
 20
492.4839169064951
 30
-27.57701219793246
 11
393.8057280159638
 21
429.9839184415372
 31
-27.57701219793246
  0
LINE
  5
B12
330
1F
100
AcDbEntity
  8
0
  6
Continuous
 62
     7
100
AcDbLine
 10
440.8057268616127
 20
500.4839167100096
 30
-27.57701219793246
 11
440.8057268616127
 21
400.4839191660766
 31
-27.57701219793246
  0
LINE
  5
B13
330
1F
100
AcDbEntity
  8
0
  6
Continuous
 62
     7
100
AcDbLine
 10
390.8057280896458
 20
500.4839167100096
 30
-27.57701219793246
 11
390.8057280896458
 21
400.4839191660766
 31
-27.57701219793246
  0
LINE
  5
B14
330
1F
100
AcDbEntity
  8
0
  6
Continuous
 62
     7
100
AcDbLine
 10
416.8057274510681
 20
423.6839185962698
 30
-27.57701219793246
 11
424.8057272545831
 21
423.6839185962698
 31
-27.57701219793246
  0
LINE
  5
B15
330
1F
100
AcDbEntity
  8
0
  6
Continuous
 62
     7
100
AcDbLine
 10
416.8057274510681
 20
410.2839189253828
 30
-27.57701219793246
 11
424.8057272545831
 21
410.2839189253828
 31
-27.57701219793246
  0
LINE
  5
B16
330
1F
100
AcDbEntity
  8
0
  6
Continuous
 62
     7
100
AcDbLine
 10
399.5557278747396
 20
409.9839189327507
 30
-27.57701219793246
 11
432.0557270765188
 21
409.9839189327507
 31
-27.57701219793246
  0
LINE
  5
B17
330
1F
100
AcDbEntity
  8
0
  6
Continuous
 62
     7
100
AcDbLine
 10
399.5557278747396
 20
423.9839185889015
 30
-27.57701219793246
 11
432.0557270765188
 21
423.9839185889015
 31
-27.57701219793246
  0
LINE
  5
B18
330
1F
100
AcDbEntity
  8
0
  6
Continuous
 62
     7
100
AcDbLine
 10
400.7557278452676
 20
411.1839189032775
 30
-27.57701219793246
 11
430.8557271059916
 21
411.1839189032775
 31
-27.57701219793246
  0
LINE
  5
B19
330
1F
100
AcDbEntity
  8
0
  6
Continuous
 62
     7
100
AcDbLine
 10
400.7557278452676
 20
422.7839186183743
 30
-27.57701219793246
 11
430.8557271059916
 21
422.7839186183743
 31
-27.57701219793246
  0
LINE
  5
B1A
330
1F
100
AcDbEntity
  8
0
  6
Continuous
 62
     7
100
AcDbLine
 10
399.05572788702
 20
409.483918945031
 30
-27.57701219793246
 11
432.5557270642383
 21
409.483918945031
 31
-27.57701219793246
  0
LINE
  5
B1B
330
1F
100
AcDbEntity
  8
0
  6
Continuous
 62
     7
100
AcDbLine
 10
399.05572788702
 20
424.4839185766206
 30
-27.57701219793246
 11
432.5557270642383
 21
424.4839185766206
 31
-27.57701219793246
  0
LINE
  5
B1C
330
1F
100
AcDbEntity
  8
0
  6
Continuous
 62
     7
100
AcDbLine
 10
394.8057279914032
 20
428.9839184660983
 30
-27.57701219793246
 11
436.805726959855
 21
428.9839184660983
 31
-27.57701219793246
  0
LINE
  5
B1D
330
1F
100
AcDbEntity
  8
0
  6
Continuous
 62
     7
100
AcDbLine
 10
394.8057279914032
 20
428.9839184660983
 30
-27.57701219793246
 11
436.805726959855
 21
428.9839184660983
 31
-27.57701219793246
  0
LINE
  5
B1E
330
1F
100
AcDbEntity
  8
0
  6
Continuous
 62
     7
100
AcDbLine
 10
411.8057275738721
 20
401.4839191415155
 30
-27.57701219793246
 11
411.8057275738721
 21
398.483919215198
 31
-27.57701219793246
  0
LINE
  5
B1F
330
1F
100
AcDbEntity
  8
0
  6
Continuous
 62
     7
100
AcDbLine
 10
419.8057273773866
 20
401.4839191415155
 30
-27.57701219793246
 11
419.8057273773866
 21
398.483919215198
 31
-27.57701219793246
  0
LINE
  5
B20
330
1F
100
AcDbEntity
  8
0
  6
Continuous
 62
     7
100
AcDbLine
 10
399.5557278747396
 20
423.9839185889015
 30
-27.57701219793246
 11
399.5557278747396
 21
409.9839189327507
 31
-27.57701219793246
  0
LINE
  5
B21
330
1F
100
AcDbEntity
  8
0
  6
Continuous
 62
     7
100
AcDbLine
 10
400.7557278452676
 20
422.7839186183743
 30
-27.57701219793246
 11
400.7557278452676
 21
411.1839189032775
 31
-27.57701219793246
  0
LINE
  5
B22
330
1F
100
AcDbEntity
  8
0
  6
Continuous
 62
     7
100
AcDbLine
 10
399.05572788702
 20
424.4839185766206
 30
-27.57701219793246
 11
399.05572788702
 21
409.483918945031
 31
-27.57701219793246
  0
LINE
  5
B23
330
1F
100
AcDbEntity
  8
0
  6
Continuous
 62
     7
100
AcDbLine
 10
399.8557278673718
 20
423.6839185962698
 30
-27.57701219793246
 11
399.8557278673718
 21
417.9839187362648
 31
-27.57701219793246
  0
LINE
  5
B24
330
1F
100
AcDbEntity
  8
0
  6
Continuous
 62
     7
100
AcDbLine
 10
404.8057277457965
 20
410.4839189204701
 30
-27.57701219793246
 11
406.8057276966753
 21
410.4839189204701
 31
-27.57701219793246
  0
LINE
  5
B25
330
1F
100
AcDbEntity
  8
0
  6
Continuous
 62
     7
100
AcDbLine
 10
404.8057277457965
 20
410.4839189204701
 30
-27.57701219793246
 11
404.8057277457965
 21
409.9839189327507
 31
-27.57701219793246
  0
LINE
  5
B26
330
1F
100
AcDbEntity
  8
0
  6
Continuous
 62
     7
100
AcDbLine
 10
400.0557278624598
 20
417.9839187362648
 30
-27.57701219793246
 11
400.0557278624598
 21
415.9839187853868
 31
-27.57701219793246
  0
LINE
  5
B27
330
1F
100
AcDbEntity
  8
0
  6
Continuous
 62
     7
100
AcDbLine
 10
399.5557278747396
 20
415.9839187853868
 30
-27.57701219793246
 11
400.0557278624598
 21
415.9839187853868
 31
-27.57701219793246
  0
LINE
  5
B28
330
1F
100
AcDbEntity
  8
0
  6
Continuous
 62
     7
100
AcDbLine
 10
399.5557278747396
 20
417.9839187362648
 30
-27.57701219793246
 11
400.0557278624598
 21
417.9839187362648
 31
-27.57701219793246
  0
LINE
  5
B29
330
1F
100
AcDbEntity
  8
0
  6
Continuous
 62
     7
100
AcDbLine
 10
399.5557278747396
 20
409.9839189327507
 30
-27.57701219793246
 11
399.05572788702
 21
409.483918945031
 31
-27.57701219793246
  0
LINE
  5
B2A
330
1F
100
AcDbEntity
  8
0
  6
Continuous
 62
     7
100
AcDbLine
 10
399.8557278673718
 20
415.9839187853868
 30
-27.57701219793246
 11
399.8557278673718
 21
410.2839189253828
 31
-27.57701219793246
  0
LINE
  5
B2B
330
1F
100
AcDbEntity
  8
0
  6
Continuous
 62
     7
100
AcDbLine
 10
400.7557278452676
 20
411.1839189032775
 30
-27.57701219793246
 11
399.8557278673718
 21
410.2839189253828
 31
-27.57701219793246
  0
LINE
  5
B2C
330
1F
100
AcDbEntity
  8
0
  6
Continuous
 62
     7
100
AcDbLine
 10
399.8557278673718
 20
410.2839189253828
 30
-27.57701219793246
 11
404.8057277457965
 21
410.2839189253828
 31
-27.57701219793246
  0
LINE
  5
B2D
330
1F
100
AcDbEntity
  8
0
  6
Continuous
 62
     7
100
AcDbLine
 10
415.3057274879094
 20
401.9839191292361
 30
-27.57701219793246
 11
413.8057275247503
 21
401.9839191292361
 31
-27.57701219793246
  0
LINE
  5
B2E
330
1F
100
AcDbEntity
  8
0
  6
Continuous
 62
     7
100
AcDbLine
 10
413.8057275247503
 20
400.9839191537968
 30
-27.57701219793246
 11
415.3057274879094
 21
400.9839191537968
 31
-27.57701219793246
  0
LINE
  5
B2F
330
1F
100
AcDbEntity
  8
0
  6
Continuous
 62
     7
100
AcDbLine
 10
413.8057275247503
 20
401.9839191292361
 30
-27.57701219793246
 11
413.8057275247503
 21
400.9839191537968
 31
-27.57701219793246
  0
LINE
  5
B30
330
1F
100
AcDbEntity
  8
0
  6
Continuous
 62
     7
100
AcDbLine
 10
417.8057274265079
 20
400.9839191537968
 30
-27.57701219793246
 11
417.8057274265079
 21
401.9839191292361
 31
-27.57701219793246
  0
LINE
  5
B31
330
1F
100
AcDbEntity
  8
0
  6
Continuous
 62
     7
100
AcDbLine
 10
416.3057274633493
 20
403.4839190923945
 30
-27.57701219793246
 11
415.3057274879094
 21
403.4839190923945
 31
-27.57701219793246
  0
LINE
  5
B32
330
1F
100
AcDbEntity
  8
0
  6
Continuous
 62
     7
100
AcDbLine
 10
415.3057274879094
 20
403.4839190923945
 30
-27.57701219793246
 11
415.3057274879094
 21
401.9839191292361
 31
-27.57701219793246
  0
LINE
  5
B33
330
1F
100
AcDbEntity
  8
0
  6
Continuous
 62
     7
100
AcDbLine
 10
415.3057274879094
 20
400.9839191537968
 30
-27.57701219793246
 11
415.3057274879094
 21
399.4839191906376
 31
-27.57701219793246
  0
LINE
  5
B34
330
1F
100
AcDbEntity
  8
0
  6
Continuous
 62
     7
100
AcDbLine
 10
415.3057274879094
 20
399.4839191906376
 30
-27.57701219793246
 11
416.3057274633493
 21
399.4839191906376
 31
-27.57701219793246
  0
LINE
  5
B35
330
1F
100
AcDbEntity
  8
0
  6
Continuous
 62
     7
100
AcDbLine
 10
416.3057274633493
 20
399.4839191906376
 30
-27.57701219793246
 11
416.3057274633493
 21
400.9839191537968
 31
-27.57701219793246
  0
LINE
  5
B36
330
1F
100
AcDbEntity
  8
0
  6
Continuous
 62
     7
100
AcDbLine
 10
416.3057274633493
 20
401.9839191292361
 30
-27.57701219793246
 11
416.3057274633493
 21
403.4839190923945
 31
-27.57701219793246
  0
LINE
  5
B37
330
1F
100
AcDbEntity
  8
0
  6
Continuous
 62
     7
100
AcDbLine
 10
416.3057274633493
 20
403.4839190923945
 30
-27.57701219793246
 11
416.3057274633493
 21
403.4839190923945
 31
-27.57701219793246
  0
LINE
  5
B38
330
1F
100
AcDbEntity
  8
0
  6
Continuous
 62
     7
100
AcDbLine
 10
416.3057274633493
 20
400.9839191537968
 30
-27.57701219793246
 11
417.8057274265079
 21
400.9839191537968
 31
-27.57701219793246
  0
LINE
  5
B39
330
1F
100
AcDbEntity
  8
0
  6
Continuous
 62
     7
100
AcDbLine
 10
417.8057274265079
 20
401.9839191292361
 30
-27.57701219793246
 11
416.3057274633493
 21
401.9839191292361
 31
-27.57701219793246
  0
LINE
  5
B3A
330
1F
100
AcDbEntity
  8
0
  6
Continuous
 62
     7
100
AcDbLine
 10
406.8057276966753
 20
410.2839189253828
 30
-27.57701219793246
 11
414.8057275001899
 21
410.2839189253828
 31
-27.57701219793246
  0
LINE
  5
B3B
330
1F
100
AcDbEntity
  8
0
  6
Continuous
 62
     7
100
AcDbLine
 10
406.8057276966753
 20
410.4839189204701
 30
-27.57701219793246
 11
406.8057276966753
 21
409.9839189327507
 31
-27.57701219793246
  0
LINE
  5
B3C
330
1F
100
AcDbEntity
  8
0
  6
Continuous
 62
     7
100
AcDbLine
 10
414.8057275001899
 20
410.4839189204701
 30
-27.57701219793246
 11
416.8057274510681
 21
410.4839189204701
 31
-27.57701219793246
  0
LINE
  5
B3D
330
1F
100
AcDbEntity
  8
0
  6
Continuous
 62
     7
100
AcDbLine
 10
416.8057274510681
 20
410.4839189204701
 30
-27.57701219793246
 11
416.8057274510681
 21
409.9839189327507
 31
-27.57701219793246
  0
LINE
  5
B3E
330
1F
100
AcDbEntity
  8
0
  6
Continuous
 62
     7
100
AcDbLine
 10
414.8057275001899
 20
410.4839189204701
 30
-27.57701219793246
 11
414.8057275001899
 21
409.9839189327507
 31
-27.57701219793246
  0
LINE
  5
B3F
330
1F
100
AcDbEntity
  8
0
  6
Continuous
 62
     7
100
AcDbLine
 10
404.8057277457965
 20
423.4839186011816
 30
-27.57701219793246
 11
406.8057276966753
 21
423.4839186011816
 31
-27.57701219793246
  0
LINE
  5
B40
330
1F
100
AcDbEntity
  8
0
  6
Continuous
 62
     7
100
AcDbLine
 10
404.8057277457965
 20
423.9839185889015
 30
-27.57701219793246
 11
404.8057277457965
 21
423.4839186011816
 31
-27.57701219793246
  0
LINE
  5
B41
330
1F
100
AcDbEntity
  8
0
  6
Continuous
 62
     7
100
AcDbLine
 10
399.5557278747396
 20
423.9839185889015
 30
-27.57701219793246
 11
399.05572788702
 21
424.4839185766206
 31
-27.57701219793246
  0
LINE
  5
B42
330
1F
100
AcDbEntity
  8
0
  6
Continuous
 62
     7
100
AcDbLine
 10
400.7557278452676
 20
422.7839186183743
 30
-27.57701219793246
 11
399.8557278673718
 21
423.6839185962698
 31
-27.57701219793246
  0
LINE
  5
B43
330
1F
100
AcDbEntity
  8
0
  6
Continuous
 62
     7
100
AcDbLine
 10
399.8557278673718
 20
423.6839185962698
 30
-27.57701219793246
 11
404.8057277457965
 21
423.6839185962698
 31
-27.57701219793246
  0
LINE
  5
B44
330
1F
100
AcDbEntity
  8
0
  6
Continuous
 62
     7
100
AcDbLine
 10
406.8057276966753
 20
423.6839185962698
 30
-27.57701219793246
 11
414.8057275001899
 21
423.6839185962698
 31
-27.57701219793246
  0
LINE
  5
B45
330
1F
100
AcDbEntity
  8
0
  6
Continuous
 62
     7
100
AcDbLine
 10
406.8057276966753
 20
423.9839185889015
 30
-27.57701219793246
 11
406.8057276966753
 21
423.4839186011816
 31
-27.57701219793246
  0
LINE
  5
B46
330
1F
100
AcDbEntity
  8
0
  6
Continuous
 62
     7
100
AcDbLine
 10
414.8057275001899
 20
423.9839185889015
 30
-27.57701219793246
 11
414.8057275001899
 21
423.4839186011816
 31
-27.57701219793246
  0
LINE
  5
B47
330
1F
100
AcDbEntity
  8
0
  6
Continuous
 62
     7
100
AcDbLine
 10
416.8057274510681
 20
423.9839185889015
 30
-27.57701219793246
 11
416.8057274510681
 21
423.4839186011816
 31
-27.57701219793246
  0
LINE
  5
B48
330
1F
100
AcDbEntity
  8
0
  6
Continuous
 62
     7
100
AcDbLine
 10
414.8057275001899
 20
423.4839186011816
 30
-27.57701219793246
 11
416.8057274510681
 21
423.4839186011816
 31
-27.57701219793246
  0
LINE
  5
B49
330
1F
100
AcDbEntity
  8
0
  6
Continuous
 62
     7
100
AcDbLine
 10
432.0557270765188
 20
423.9839185889015
 30
-27.57701219793246
 11
432.0557270765188
 21
409.9839189327507
 31
-27.57701219793246
  0
LINE
  5
B4A
330
1F
100
AcDbEntity
  8
0
  6
Continuous
 62
     7
100
AcDbLine
 10
430.8557271059916
 20
422.7839186183743
 30
-27.57701219793246
 11
430.8557271059916
 21
411.1839189032775
 31
-27.57701219793246
  0
LINE
  5
B4B
330
1F
100
AcDbEntity
  8
0
  6
Continuous
 62
     7
100
AcDbLine
 10
432.5557270642383
 20
424.4839185766206
 30
-27.57701219793246
 11
432.5557270642383
 21
409.483918945031
 31
-27.57701219793246
  0
LINE
  5
B4C
330
1F
100
AcDbEntity
  8
0
  6
Continuous
 62
     7
100
AcDbLine
 10
431.7557270838868
 20
423.6839185962698
 30
-27.57701219793246
 11
431.7557270838868
 21
417.9839187362648
 31
-27.57701219793246
  0
LINE
  5
B4D
330
1F
100
AcDbEntity
  8
0
  6
Continuous
 62
     7
100
AcDbLine
 10
431.5557270887986
 20
415.9839187853868
 30
-27.57701219793246
 11
432.0557270765188
 21
415.9839187853868
 31
-27.57701219793246
  0
LINE
  5
B4E
330
1F
100
AcDbEntity
  8
0
  6
Continuous
 62
     7
100
AcDbLine
 10
431.5557270887986
 20
417.9839187362648
 30
-27.57701219793246
 11
432.0557270765188
 21
417.9839187362648
 31
-27.57701219793246
  0
LINE
  5
B4F
330
1F
100
AcDbEntity
  8
0
  6
Continuous
 62
     7
100
AcDbLine
 10
426.8057272054615
 20
410.2839189253828
 30
-27.57701219793246
 11
431.7557270838868
 21
410.2839189253828
 31
-27.57701219793246
  0
LINE
  5
B50
330
1F
100
AcDbEntity
  8
0
  6
Continuous
 62
     7
100
AcDbLine
 10
431.7557270838868
 20
410.2839189253828
 30
-27.57701219793246
 11
430.8557271059916
 21
411.1839189032775
 31
-27.57701219793246
  0
LINE
  5
B51
330
1F
100
AcDbEntity
  8
0
  6
Continuous
 62
     7
100
AcDbLine
 10
431.5557270887986
 20
417.9839187362648
 30
-27.57701219793246
 11
431.5557270887986
 21
415.9839187853868
 31
-27.57701219793246
  0
LINE
  5
B52
330
1F
100
AcDbEntity
  8
0
  6
Continuous
 62
     7
100
AcDbLine
 10
424.8057272545831
 20
410.4839189204701
 30
-27.57701219793246
 11
426.8057272054615
 21
410.4839189204701
 31
-27.57701219793246
  0
LINE
  5
B53
330
1F
100
AcDbEntity
  8
0
  6
Continuous
 62
     7
100
AcDbLine
 10
426.8057272054615
 20
410.4839189204701
 30
-27.57701219793246
 11
426.8057272054615
 21
409.9839189327507
 31
-27.57701219793246
  0
LINE
  5
B54
330
1F
100
AcDbEntity
  8
0
  6
Continuous
 62
     7
100
AcDbLine
 10
424.8057272545831
 20
410.4839189204701
 30
-27.57701219793246
 11
424.8057272545831
 21
409.9839189327507
 31
-27.57701219793246
  0
LINE
  5
B55
330
1F
100
AcDbEntity
  8
0
  6
Continuous
 62
     7
100
AcDbLine
 10
432.0557270765188
 20
409.9839189327507
 30
-27.57701219793246
 11
432.5557270642383
 21
409.483918945031
 31
-27.57701219793246
  0
LINE
  5
B56
330
1F
100
AcDbEntity
  8
0
  6
Continuous
 62
     7
100
AcDbLine
 10
431.7557270838868
 20
415.9839187853868
 30
-27.57701219793246
 11
431.7557270838868
 21
410.2839189253828
 31
-27.57701219793246
  0
LINE
  5
B57
330
1F
100
AcDbEntity
  8
0
  6
Continuous
 62
     7
100
AcDbLine
 10
426.8057272054615
 20
423.6839185962698
 30
-27.57701219793246
 11
431.7557270838868
 21
423.6839185962698
 31
-27.57701219793246
  0
LINE
  5
B58
330
1F
100
AcDbEntity
  8
0
  6
Continuous
 62
     7
100
AcDbLine
 10
431.7557270838868
 20
423.6839185962698
 30
-27.57701219793246
 11
430.8557271059916
 21
422.7839186183743
 31
-27.57701219793246
  0
LINE
  5
B59
330
1F
100
AcDbEntity
  8
0
  6
Continuous
 62
     7
100
AcDbLine
 10
426.8057272054615
 20
423.9839185889015
 30
-27.57701219793246
 11
426.8057272054615
 21
423.4839186011816
 31
-27.57701219793246
  0
LINE
  5
B5A
330
1F
100
AcDbEntity
  8
0
  6
Continuous
 62
     7
100
AcDbLine
 10
424.8057272545831
 20
423.9839185889015
 30
-27.57701219793246
 11
424.8057272545831
 21
423.4839186011816
 31
-27.57701219793246
  0
LINE
  5
B5B
330
1F
100
AcDbEntity
  8
0
  6
Continuous
 62
     7
100
AcDbLine
 10
424.8057272545831
 20
423.4839186011816
 30
-27.57701219793246
 11
426.8057272054615
 21
423.4839186011816
 31
-27.57701219793246
  0
LINE
  5
B5C
330
1F
100
AcDbEntity
  8
0
  6
Continuous
 62
     7
100
AcDbLine
 10
432.0557270765188
 20
423.9839185889015
 30
-27.57701219793246
 11
432.5557270642383
 21
424.4839185766206
 31
-27.57701219793246
  0
LINE
  5
B5D
330
1F
100
AcDbEntity
  8
0
  6
Continuous
 62
     7
100
AcDbLine
 10
392.8057280405239
 20
398.483919215198
 30
-16.97767311891998
 11
438.8057269107337
 21
398.483919215198
 31
-16.97767311891998
  0
ARC
  5
B5F
330
1F
100
AcDbEntity
  8
0
  6
Continuous
 62
     7
100
AcDbCircle
 10
392.8057265463743
 20
400.4839176719261
 30
-16.97767311891998
 40
1.999998456728933
100
AcDbArc
 50
179.9999571957112
 51
270.0000428042823
  0
ARC
  5
B60
330
1F
100
AcDbEntity
  8
0
  6
Continuous
 62
     7
100
AcDbCircle
 10
415.8057274756289
 20
401.4839191415155
 30
-16.97767311891998
 40
3.999999901757254
100
AcDbArc
 50
0.0
 51
180.0
  0
LINE
  5
B61
330
1F
100
AcDbEntity
  8
0
  6
Continuous
 62
     7
100
AcDbLine
 10
418.5557274080877
 20
401.4839191415155
 30
-16.97767311891998
 11
418.5557274080877
 21
401.4839191415155
 31
-16.97767311891998
  0
ARC
  5
B63
330
1F
100
AcDbEntity
  8
0
  6
Continuous
 62
     7
100
AcDbCircle
 10
394.8057272443278
 20
429.9839176944622
 30
-16.97767311891998
 40
0.9999992283644674
100
AcDbArc
 50
179.9999571957144
 51
270.0000428042823
  0
ARC
  5
B64
330
1F
100
AcDbEntity
  8
0
  6
Continuous
 62
     7
100
AcDbCircle
 10
394.8057272443278
 20
429.9839176944622
 30
-16.97767311891998
 40
0.9999992283644674
100
AcDbArc
 50
179.9999571957144
 51
270.0000428042823
  0
ARC
  5
B65
330
1F
100
AcDbEntity
  8
0
  6
Continuous
 62
     7
100
AcDbCircle
 10
438.8057284048839
 20
400.4839176719261
 30
-16.97767311891998
 40
1.999998456728933
100
AcDbArc
 50
269.9999571957111
 51
0.0000428042888088
  0
ARC
  5
B66
330
1F
100
AcDbEntity
  8
0
  6
Continuous
 62
     7
100
AcDbCircle
 10
436.8057277069302
 20
429.9839176944622
 30
-16.97767311891998
 40
0.9999992283645241
100
AcDbArc
 50
269.9999571957111
 51
0.0000428042855519
  0
ARC
  5
B67
330
1F
100
AcDbEntity
  8
0
  6
Continuous
 62
     7
100
AcDbCircle
 10
436.8057277069302
 20
429.9839176944622
 30
-16.97767311891998
 40
0.9999992283645241
100
AcDbArc
 50
269.9999571957111
 51
0.0000428042855519
  0
LINE
  5
B68
330
1F
100
AcDbEntity
  8
0
  6
Continuous
 62
     7
100
AcDbLine
 10
394.8057279914032
 20
493.4839168819346
 30
-27.57701219793246
 11
436.805726959855
 21
493.4839168819346
 31
-27.57701219793246
  0
LINE
  5
B69
330
1F
100
AcDbEntity
  8
0
  6
Continuous
 62
     7
100
AcDbLine
 10
394.8057279914032
 20
493.4839168819346
 30
-27.57701219793246
 11
436.805726959855
 21
493.4839168819346
 31
-27.57701219793246
  0
LINE
  5
B6A
330
1F
100
AcDbEntity
  8
0
  6
Continuous
 62
     7
100
AcDbLine
 10
392.8057280405243
 20
502.4839166608892
 30
-27.57701219793246
 11
438.805726910734
 21
502.4839166608892
 31
-27.57701219793246
  0
LINE
  5
B6B
330
1F
100
AcDbEntity
  8
0
  6
Continuous
 62
     7
100
AcDbLine
 10
402.3057278071982
 20
470.4839174468302
 30
-27.57701219793246
 11
429.3057271440599
 21
470.4839174468302
 31
-27.57701219793246
  0
LINE
  5
B6C
330
1F
100
AcDbEntity
  8
0
  6
Continuous
 62
     7
100
AcDbLine
 10
402.3057278071982
 20
460.4839176924365
 30
-27.57701219793246
 11
429.3057271440599
 21
460.4839176924365
 31
-27.57701219793246
  0
LINE
  5
B6D
330
1F
100
AcDbEntity
  8
0
  6
Continuous
 62
     7
100
AcDbLine
 10
405.8057277212355
 20
449.4839179626042
 30
-27.57701219793246
 11
433.3057270458176
 21
449.4839179626042
 31
-27.57701219793246
  0
LINE
  5
B6E
330
1F
100
AcDbEntity
  8
0
  6
Continuous
 62
     7
100
AcDbLine
 10
405.8057277212355
 20
458.4839177415583
 30
-27.57701219793246
 11
433.3057270458176
 21
458.4839177415583
 31
-27.57701219793246
  0
LINE
  5
B6F
330
1F
100
AcDbEntity
  8
0
  6
Continuous
 62
     7
100
AcDbLine
 10
402.3057278071982
 20
475.8839173142027
 30
-27.57701219793246
 11
429.3057271440599
 21
475.8839173142027
 31
-27.57701219793246
  0
LINE
  5
B70
330
1F
100
AcDbEntity
  8
0
  6
Continuous
 62
     7
100
AcDbLine
 10
402.3057278071982
 20
485.8839170685961
 30
-27.57701219793246
 11
429.3057271440599
 21
485.8839170685961
 31
-27.57701219793246
  0
LINE
  5
B71
330
1F
100
AcDbEntity
  8
0
  6
Continuous
 62
     7
100
AcDbLine
 10
404.8057277457965
 20
450.4839179380438
 30
-27.57701219793246
 11
404.8057277457965
 21
457.4839177661187
 31
-27.57701219793246
  0
LINE
  5
B72
330
1F
100
AcDbEntity
  8
0
  6
Continuous
 62
     7
100
AcDbLine
 10
396.8057279422818
 20
441.9839181468094
 30
-27.57701219793246
 11
396.8057279422818
 21
438.9839182204908
 31
-27.57701219793246
  0
LINE
  5
B73
330
1F
100
AcDbEntity
  8
0
  6
Continuous
 62
     7
100
AcDbLine
 10
404.8057277457965
 20
441.9839181468094
 30
-27.57701219793246
 11
404.8057277457965
 21
438.9839182204908
 31
-27.57701219793246
  0
LINE
  5
B74
330
1F
100
AcDbEntity
  8
0
  6
Continuous
 62
     7
100
AcDbLine
 10
406.8057276966753
 20
441.9839181468094
 30
-27.57701219793246
 11
406.8057276966753
 21
438.9839182204908
 31
-27.57701219793246
  0
LINE
  5
B75
330
1F
100
AcDbEntity
  8
0
  6
Continuous
 62
     7
100
AcDbLine
 10
416.8057274510681
 20
441.9839181468094
 30
-27.57701219793246
 11
416.8057274510681
 21
438.9839182204908
 31
-27.57701219793246
  0
LINE
  5
B76
330
1F
100
AcDbEntity
  8
0
  6
Continuous
 62
     7
100
AcDbLine
 10
414.8057275001899
 20
441.9839181468094
 30
-27.57701219793246
 11
414.8057275001899
 21
438.9839182204908
 31
-27.57701219793246
  0
LINE
  5
B77
330
1F
100
AcDbEntity
  8
0
  6
Continuous
 62
     7
100
AcDbLine
 10
404.0815515874069
 20
468.6971106839084
 30
-27.57701219793246
 11
406.6510530257993
 21
468.6971106839084
 31
-27.57701219793246
  0
LINE
  5
B78
330
1F
100
AcDbEntity
  8
0
  6
Continuous
 62
     7
100
AcDbLine
 10
404.0532833198325
 20
469.500407961476
 30
-27.57701219793246
 11
406.8233353038499
 21
469.500407961476
 31
-27.57701219793246
  0
LINE
  5
B79
330
1F
100
AcDbEntity
  8
0
  6
Continuous
 62
     7
100
AcDbLine
 10
403.6354074542201
 20
465.8855672094179
 30
-27.57701219793246
 11
406.2048368205426
 21
465.8855672094179
 31
-27.57701219793246
  0
LINE
  5
B7A
330
1F
100
AcDbEntity
  8
0
  6
Continuous
 62
     7
100
AcDbLine
 10
403.5079479978911
 20
465.0822679298486
 30
-27.57701219793246
 11
406.0773773642134
 21
465.0822679298486
 31
-27.57701219793246
  0
LINE
  5
B7B
330
1F
100
AcDbEntity
  8
0
  6
Continuous
 62
     7
100
AcDbLine
 10
405.631161158957
 20
462.2708065374388
 30
-27.57701219793246
 11
403.0617317926338
 21
462.2708065374388
 31
-27.57701219793246
  0
LINE
  5
B7C
330
1F
100
AcDbEntity
  8
0
  6
Continuous
 62
     7
100
AcDbLine
 10
402.7785446124021
 20
461.4674271777905
 30
-27.57701219793246
 11
405.7525465413606
 21
461.4674271777905
 31
-27.57701219793246
  0
LINE
  5
B7D
330
1F
100
AcDbEntity
  8
0
  6
Continuous
 62
     7
100
AcDbLine
 10
401.305727831759
 20
469.4839174713911
 30
-27.57701219793246
 11
401.305727831759
 21
461.4839176678761
 31
-27.57701219793246
  0
LINE
  5
B7E
330
1F
100
AcDbEntity
  8
0
  6
Continuous
 62
     7
100
AcDbLine
 10
403.6354074542201
 20
465.8855672094179
 30
-27.57701219793246
 11
404.0815515874069
 21
468.6971106839084
 31
-27.57701219793246
  0
LINE
  5
B7F
330
1F
100
AcDbEntity
  8
0
  6
Continuous
 62
     7
100
AcDbLine
 10
402.9013053701478
 20
465.8855672094179
 30
-27.57701219793246
 11
403.3744885417093
 21
468.8674890581024
 31
-27.57701219793246
  0
LINE
  5
B80
330
1F
100
AcDbEntity
  8
0
  6
Continuous
 62
     7
100
AcDbLine
 10
403.0617317926338
 20
462.2708065374388
 30
-27.57701219793246
 11
403.5079479978911
 21
465.0822679298486
 31
-27.57701219793246
  0
LINE
  5
B81
330
1F
100
AcDbEntity
  8
0
  6
Continuous
 62
     7
100
AcDbLine
 10
402.7738459138191
 20
465.0822679298486
 30
-27.57701219793246
 11
402.3005906701871
 21
462.1002660010865
 31
-27.57701219793246
  0
LINE
  5
B82
330
1F
100
AcDbEntity
  8
0
  6
Continuous
 62
     7
100
AcDbLine
 10
402.3005906701871
 20
462.1002660010865
 30
-27.57701219793246
 11
402.7785446124021
 21
461.4674271777905
 31
-27.57701219793246
  0
LINE
  5
B83
330
1F
100
AcDbEntity
  8
0
  6
Continuous
 62
     7
100
AcDbLine
 10
402.5395316052598
 20
461.783845588438
 30
-27.57701219793246
 11
403.0617317926338
 21
462.2708065374388
 31
-27.57701219793246
  0
LINE
  5
B84
330
1F
100
AcDbEntity
  8
0
  6
Continuous
 62
     7
100
AcDbLine
 10
403.6354074542201
 20
465.8855672094179
 30
-27.57701219793246
 11
403.2045906479841
 21
465.4839175696332
 31
-27.57701219793246
  0
LINE
  5
B85
330
1F
100
AcDbEntity
  8
0
  6
Continuous
 62
     7
100
AcDbLine
 10
403.2045906479841
 20
465.4839175696332
 30
-27.57701219793246
 11
403.5079479978911
 21
465.0822679298486
 31
-27.57701219793246
  0
LINE
  5
B86
330
1F
100
AcDbEntity
  8
0
  6
Continuous
 62
     7
100
AcDbLine
 10
402.9013053701478
 20
465.8855672094179
 30
-27.57701219793246
 11
403.2045906479841
 21
465.4839175696332
 31
-27.57701219793246
  0
LINE
  5
B87
330
1F
100
AcDbEntity
  8
0
  6
Continuous
 62
     7
100
AcDbLine
 10
403.2045906479841
 20
465.4839175696332
 30
-27.57701219793246
 11
402.7738459138191
 21
465.0822679298486
 31
-27.57701219793246
  0
LINE
  5
B88
330
1F
100
AcDbEntity
  8
0
  6
Continuous
 62
     7
100
AcDbLine
 10
403.3744885417093
 20
468.8674890581024
 30
-27.57701219793246
 11
404.0532833198325
 21
469.500407961476
 31
-27.57701219793246
  0
LINE
  5
B89
330
1F
100
AcDbEntity
  8
0
  6
Continuous
 62
     7
100
AcDbLine
 10
403.7139219668058
 20
469.1839895508289
 30
-27.57701219793246
 11
404.0815515874069
 21
468.6971106839084
 31
-27.57701219793246
  0
LINE
  5
B8A
330
1F
100
AcDbEntity
  8
0
  6
Continuous
 62
     7
100
AcDbLine
 10
421.2510526672136
 20
468.6971106839084
 30
-27.57701219793246
 11
420.8048364619568
 21
465.8855672094179
 31
-27.57701219793246
  0
LINE
  5
B8B
330
1F
100
AcDbEntity
  8
0
  6
Continuous
 62
     7
100
AcDbLine
 10
418.2354070956338
 20
465.8855672094179
 30
-27.57701219793246
 11
418.6815512288204
 21
468.6971106839084
 31
-27.57701219793246
  0
LINE
  5
B8C
330
1F
100
AcDbEntity
  8
0
  6
Continuous
 62
     7
100
AcDbLine
 10
417.5013050115621
 20
465.8855672094179
 30
-27.57701219793246
 11
417.9744881831236
 21
468.8674890581024
 31
-27.57701219793246
  0
LINE
  5
B8D
330
1F
100
AcDbEntity
  8
0
  6
Continuous
 62
     7
100
AcDbLine
 10
421.9929625589016
 20
468.7461917637845
 30
-27.57701219793246
 11
421.5389385460289
 21
465.8855672094179
 31
-27.57701219793246
  0
LINE
  5
B8E
330
1F
100
AcDbEntity
  8
0
  6
Continuous
 62
     7
100
AcDbLine
 10
406.6510530257993
 20
468.6971106839084
 30
-27.57701219793246
 11
406.2048368205426
 21
465.8855672094179
 31
-27.57701219793246
  0
LINE
  5
B8F
330
1F
100
AcDbEntity
  8
0
  6
Continuous
 62
     7
100
AcDbLine
 10
407.3929629174874
 20
468.7461917637845
 30
-27.57701219793246
 11
406.9389389046143
 21
465.8855672094179
 31
-27.57701219793246
  0
LINE
  5
B90
330
1F
100
AcDbEntity
  8
0
  6
Continuous
 62
     7
100
AcDbLine
 10
413.9510528465065
 20
468.6971106839084
 30
-27.57701219793246
 11
413.5048366412496
 21
465.8855672094179
 31
-27.57701219793246
  0
LINE
  5
B91
330
1F
100
AcDbEntity
  8
0
  6
Continuous
 62
     7
100
AcDbLine
 10
410.9354072749273
 20
465.8855672094179
 30
-27.57701219793246
 11
411.3815514081138
 21
468.6971106839084
 31
-27.57701219793246
  0
LINE
  5
B92
330
1F
100
AcDbEntity
  8
0
  6
Continuous
 62
     7
100
AcDbLine
 10
410.2013051908548
 20
465.8855672094179
 30
-27.57701219793246
 11
410.6744883624164
 21
468.8674890581024
 31
-27.57701219793246
  0
LINE
  5
B93
330
1F
100
AcDbEntity
  8
0
  6
Continuous
 62
     7
100
AcDbLine
 10
414.6929627381942
 20
468.7461917637845
 30
-27.57701219793246
 11
414.2389387253216
 21
465.8855672094179
 31
-27.57701219793246
  0
LINE
  5
B94
330
1F
100
AcDbEntity
  8
0
  6
Continuous
 62
     7
100
AcDbLine
 10
413.3773771849204
 20
465.0822679298486
 30
-27.57701219793246
 11
412.9311609796645
 21
462.2708065374388
 31
-27.57701219793246
  0
LINE
  5
B95
330
1F
100
AcDbEntity
  8
0
  6
Continuous
 62
     7
100
AcDbLine
 10
410.3617316133413
 20
462.2708065374388
 30
-27.57701219793246
 11
410.8079478185978
 21
465.0822679298486
 31
-27.57701219793246
  0
LINE
  5
B96
330
1F
100
AcDbEntity
  8
0
  6
Continuous
 62
     7
100
AcDbLine
 10
410.0738457345262
 20
465.0822679298486
 30
-27.57701219793246
 11
409.6005904908943
 21
462.1002660010865
 31
-27.57701219793246
  0
LINE
  5
B97
330
1F
100
AcDbEntity
  8
0
  6
Continuous
 62
     7
100
AcDbLine
 10
413.6221019036351
 20
461.9984081457308
 30
-27.57701219793246
 11
414.1114792689931
 21
465.0822679298486
 31
-27.57701219793246
  0
LINE
  5
B98
330
1F
100
AcDbEntity
  8
0
  6
Continuous
 62
     7
100
AcDbLine
 10
412.9311609796645
 20
462.2708065374388
 30
-27.57701219793246
 11
410.3617316133413
 21
462.2708065374388
 31
-27.57701219793246
  0
LINE
  5
B99
330
1F
100
AcDbEntity
  8
0
  6
Continuous
 62
     7
100
AcDbLine
 10
409.6005904908943
 20
462.1002660010865
 30
-27.57701219793246
 11
410.0785444331092
 21
461.4674271777905
 31
-27.57701219793246
  0
LINE
  5
B9A
330
1F
100
AcDbEntity
  8
0
  6
Continuous
 62
     7
100
AcDbLine
 10
410.0785444331092
 20
461.4674271777905
 30
-27.57701219793246
 11
413.0525463620677
 21
461.4674271777905
 31
-27.57701219793246
  0
LINE
  5
B9B
330
1F
100
AcDbEntity
  8
0
  6
Continuous
 62
     7
100
AcDbLine
 10
413.0525463620677
 20
461.4674271777905
 30
-27.57701219793246
 11
413.6221019036351
 21
461.9984081457308
 31
-27.57701219793246
  0
LINE
  5
B9C
330
1F
100
AcDbEntity
  8
0
  6
Continuous
 62
     7
100
AcDbLine
 10
409.8395314259668
 20
461.783845588438
 30
-27.57701219793246
 11
410.3617316133413
 21
462.2708065374388
 31
-27.57701219793246
  0
LINE
  5
B9D
330
1F
100
AcDbEntity
  8
0
  6
Continuous
 62
     7
100
AcDbLine
 10
413.3373251338528
 20
461.7329166607594
 30
-27.57701219793246
 11
412.9311609796645
 21
462.2708065374388
 31
-27.57701219793246
  0
LINE
  5
B9E
330
1F
100
AcDbEntity
  8
0
  6
Continuous
 62
     7
100
AcDbLine
 10
414.2389387253216
 20
465.8855672094179
 30
-27.57701219793246
 11
413.8081939911566
 21
465.4839175696332
 31
-27.57701219793246
  0
LINE
  5
B9F
330
1F
100
AcDbEntity
  8
0
  6
Continuous
 62
     7
100
AcDbLine
 10
410.9354072749273
 20
465.8855672094179
 30
-27.57701219793246
 11
413.5048366412496
 21
465.8855672094179
 31
-27.57701219793246
  0
LINE
  5
BA0
330
1F
100
AcDbEntity
  8
0
  6
Continuous
 62
     7
100
AcDbLine
 10
410.8079478185978
 20
465.0822679298486
 30
-27.57701219793246
 11
413.3773771849204
 21
465.0822679298486
 31
-27.57701219793246
  0
LINE
  5
BA1
330
1F
100
AcDbEntity
  8
0
  6
Continuous
 62
     7
100
AcDbLine
 10
410.9354072749273
 20
465.8855672094179
 30
-27.57701219793246
 11
410.5045904686916
 21
465.4839175696332
 31
-27.57701219793246
  0
LINE
  5
BA2
330
1F
100
AcDbEntity
  8
0
  6
Continuous
 62
     7
100
AcDbLine
 10
410.5045904686916
 20
465.4839175696332
 30
-27.57701219793246
 11
410.8079478185978
 21
465.0822679298486
 31
-27.57701219793246
  0
LINE
  5
BA3
330
1F
100
AcDbEntity
  8
0
  6
Continuous
 62
     7
100
AcDbLine
 10
410.2013051908548
 20
465.8855672094179
 30
-27.57701219793246
 11
410.5045904686916
 21
465.4839175696332
 31
-27.57701219793246
  0
LINE
  5
BA4
330
1F
100
AcDbEntity
  8
0
  6
Continuous
 62
     7
100
AcDbLine
 10
410.5045904686916
 20
465.4839175696332
 30
-27.57701219793246
 11
410.0738457345262
 21
465.0822679298486
 31
-27.57701219793246
  0
LINE
  5
BA5
330
1F
100
AcDbEntity
  8
0
  6
Continuous
 62
     7
100
AcDbLine
 10
413.5048366412496
 20
465.8855672094179
 30
-27.57701219793246
 11
413.8081939911566
 21
465.4839175696332
 31
-27.57701219793246
  0
LINE
  5
BA6
330
1F
100
AcDbEntity
  8
0
  6
Continuous
 62
     7
100
AcDbLine
 10
413.8081939911566
 20
465.4839175696332
 30
-27.57701219793246
 11
413.3773771849204
 21
465.0822679298486
 31
-27.57701219793246
  0
LINE
  5
BA7
330
1F
100
AcDbEntity
  8
0
  6
Continuous
 62
     7
100
AcDbLine
 10
413.8081939911566
 20
465.4839175696332
 30
-27.57701219793246
 11
414.1114792689931
 21
465.0822679298486
 31
-27.57701219793246
  0
LINE
  5
BA8
330
1F
100
AcDbEntity
  8
0
  6
Continuous
 62
     7
100
AcDbLine
 10
406.0773773642134
 20
465.0822679298486
 30
-27.57701219793246
 11
405.631161158957
 21
462.2708065374388
 31
-27.57701219793246
  0
LINE
  5
BA9
330
1F
100
AcDbEntity
  8
0
  6
Continuous
 62
     7
100
AcDbLine
 10
405.7525465413606
 20
461.4674271777905
 30
-27.57701219793246
 11
406.3221020829276
 21
461.9984081457308
 31
-27.57701219793246
  0
LINE
  5
BAA
330
1F
100
AcDbEntity
  8
0
  6
Continuous
 62
     7
100
AcDbLine
 10
406.0373253131453
 20
461.7329166607594
 30
-27.57701219793246
 11
405.631161158957
 21
462.2708065374388
 31
-27.57701219793246
  0
LINE
  5
BAB
330
1F
100
AcDbEntity
  8
0
  6
Continuous
 62
     7
100
AcDbLine
 10
406.3221020829276
 20
461.9984081457308
 30
-27.57701219793246
 11
406.8114794482856
 21
465.0822679298486
 31
-27.57701219793246
  0
LINE
  5
BAC
330
1F
100
AcDbEntity
  8
0
  6
Continuous
 62
     7
100
AcDbLine
 10
406.2048368205426
 20
465.8855672094179
 30
-27.57701219793246
 11
406.5081941704493
 21
465.4839175696332
 31
-27.57701219793246
  0
LINE
  5
BAD
330
1F
100
AcDbEntity
  8
0
  6
Continuous
 62
     7
100
AcDbLine
 10
406.5081941704493
 20
465.4839175696332
 30
-27.57701219793246
 11
406.0773773642134
 21
465.0822679298486
 31
-27.57701219793246
  0
LINE
  5
BAE
330
1F
100
AcDbEntity
  8
0
  6
Continuous
 62
     7
100
AcDbLine
 10
406.9389389046143
 20
465.8855672094179
 30
-27.57701219793246
 11
406.5081941704493
 21
465.4839175696332
 31
-27.57701219793246
  0
LINE
  5
BAF
330
1F
100
AcDbEntity
  8
0
  6
Continuous
 62
     7
100
AcDbLine
 10
406.5081941704493
 20
465.4839175696332
 30
-27.57701219793246
 11
406.8114794482856
 21
465.0822679298486
 31
-27.57701219793246
  0
LINE
  5
BB0
330
1F
100
AcDbEntity
  8
0
  6
Continuous
 62
     7
100
AcDbLine
 10
420.6773770056281
 20
465.0822679298486
 30
-27.57701219793246
 11
420.2311608003713
 21
462.2708065374388
 31
-27.57701219793246
  0
LINE
  5
BB1
330
1F
100
AcDbEntity
  8
0
  6
Continuous
 62
     7
100
AcDbLine
 10
417.6617314340484
 20
462.2708065374388
 30
-27.57701219793246
 11
418.1079476393056
 21
465.0822679298486
 31
-27.57701219793246
  0
LINE
  5
BB2
330
1F
100
AcDbEntity
  8
0
  6
Continuous
 62
     7
100
AcDbLine
 10
420.9221017243423
 20
461.9984081457308
 30
-27.57701219793246
 11
421.4114790897
 21
465.0822679298486
 31
-27.57701219793246
  0
LINE
  5
BB3
330
1F
100
AcDbEntity
  8
0
  6
Continuous
 62
     7
100
AcDbLine
 10
420.2311608003713
 20
462.2708065374388
 30
-27.57701219793246
 11
417.6617314340484
 21
462.2708065374388
 31
-27.57701219793246
  0
LINE
  5
BB4
330
1F
100
AcDbEntity
  8
0
  6
Continuous
 62
     7
100
AcDbLine
 10
417.3785442538163
 20
461.4674271777905
 30
-27.57701219793246
 11
420.3525461827751
 21
461.4674271777905
 31
-27.57701219793246
  0
LINE
  5
BB5
330
1F
100
AcDbEntity
  8
0
  6
Continuous
 62
     7
100
AcDbLine
 10
420.3525461827751
 20
461.4674271777905
 30
-27.57701219793246
 11
420.9221017243423
 21
461.9984081457308
 31
-27.57701219793246
  0
LINE
  5
BB6
330
1F
100
AcDbEntity
  8
0
  6
Continuous
 62
     7
100
AcDbLine
 10
420.6373249545594
 20
461.7329166607594
 30
-27.57701219793246
 11
420.2311608003713
 21
462.2708065374388
 31
-27.57701219793246
  0
LINE
  5
BB7
330
1F
100
AcDbEntity
  8
0
  6
Continuous
 62
     7
100
AcDbLine
 10
418.2354070956338
 20
465.8855672094179
 30
-27.57701219793246
 11
420.8048364619568
 21
465.8855672094179
 31
-27.57701219793246
  0
LINE
  5
BB8
330
1F
100
AcDbEntity
  8
0
  6
Continuous
 62
     7
100
AcDbLine
 10
418.1079476393056
 20
465.0822679298486
 30
-27.57701219793246
 11
420.6773770056281
 21
465.0822679298486
 31
-27.57701219793246
  0
LINE
  5
BB9
330
1F
100
AcDbEntity
  8
0
  6
Continuous
 62
     7
100
AcDbLine
 10
418.2354070956338
 20
465.8855672094179
 30
-27.57701219793246
 11
417.8045902893983
 21
465.4839175696332
 31
-27.57701219793246
  0
LINE
  5
BBA
330
1F
100
AcDbEntity
  8
0
  6
Continuous
 62
     7
100
AcDbLine
 10
417.8045902893983
 20
465.4839175696332
 30
-27.57701219793246
 11
418.1079476393056
 21
465.0822679298486
 31
-27.57701219793246
  0
LINE
  5
BBB
330
1F
100
AcDbEntity
  8
0
  6
Continuous
 62
     7
100
AcDbLine
 10
417.5013050115621
 20
465.8855672094179
 30
-27.57701219793246
 11
417.8045902893983
 21
465.4839175696332
 31
-27.57701219793246
  0
LINE
  5
BBC
330
1F
100
AcDbEntity
  8
0
  6
Continuous
 62
     7
100
AcDbLine
 10
417.8045902893983
 20
465.4839175696332
 30
-27.57701219793246
 11
417.3738455552338
 21
465.0822679298486
 31
-27.57701219793246
  0
LINE
  5
BBD
330
1F
100
AcDbEntity
  8
0
  6
Continuous
 62
     7
100
AcDbLine
 10
420.8048364619568
 20
465.8855672094179
 30
-27.57701219793246
 11
421.1081938118637
 21
465.4839175696332
 31
-27.57701219793246
  0
LINE
  5
BBE
330
1F
100
AcDbEntity
  8
0
  6
Continuous
 62
     7
100
AcDbLine
 10
421.1081938118637
 20
465.4839175696332
 30
-27.57701219793246
 11
420.6773770056281
 21
465.0822679298486
 31
-27.57701219793246
  0
LINE
  5
BBF
330
1F
100
AcDbEntity
  8
0
  6
Continuous
 62
     7
100
AcDbLine
 10
421.5389385460289
 20
465.8855672094179
 30
-27.57701219793246
 11
421.1081938118637
 21
465.4839175696332
 31
-27.57701219793246
  0
LINE
  5
BC0
330
1F
100
AcDbEntity
  8
0
  6
Continuous
 62
     7
100
AcDbLine
 10
421.1081938118637
 20
465.4839175696332
 30
-27.57701219793246
 11
421.4114790897
 21
465.0822679298486
 31
-27.57701219793246
  0
LINE
  5
BC1
330
1F
100
AcDbEntity
  8
0
  6
Continuous
 62
     7
100
AcDbLine
 10
417.3738455552338
 20
465.0822679298486
 30
-27.57701219793246
 11
416.9005903116012
 21
462.1002660010865
 31
-27.57701219793246
  0
LINE
  5
BC2
330
1F
100
AcDbEntity
  8
0
  6
Continuous
 62
     7
100
AcDbLine
 10
416.9005903116012
 20
462.1002660010865
 30
-27.57701219793246
 11
417.3785442538163
 21
461.4674271777905
 31
-27.57701219793246
  0
LINE
  5
BC3
330
1F
100
AcDbEntity
  8
0
  6
Continuous
 62
     7
100
AcDbLine
 10
417.139531246674
 20
461.783845588438
 30
-27.57701219793246
 11
417.6617314340484
 21
462.2708065374388
 31
-27.57701219793246
  0
LINE
  5
BC4
330
1F
100
AcDbEntity
  8
0
  6
Continuous
 62
     7
100
AcDbLine
 10
414.1233351245573
 20
469.500407961476
 30
-27.57701219793246
 11
414.6929627381942
 21
468.7461917637845
 31
-27.57701219793246
  0
LINE
  5
BC5
330
1F
100
AcDbEntity
  8
0
  6
Continuous
 62
     7
100
AcDbLine
 10
414.4081118943401
 20
469.123338901668
 30
-27.57701219793246
 11
413.9510528465065
 21
468.6971106839084
 31
-27.57701219793246
  0
LINE
  5
BC6
330
1F
100
AcDbEntity
  8
0
  6
Continuous
 62
     7
100
AcDbLine
 10
411.3815514081138
 20
468.6971106839084
 30
-27.57701219793246
 11
413.9510528465065
 21
468.6971106839084
 31
-27.57701219793246
  0
LINE
  5
BC7
330
1F
100
AcDbEntity
  8
0
  6
Continuous
 62
     7
100
AcDbLine
 10
410.6744883624164
 20
468.8674890581024
 30
-27.57701219793246
 11
411.3532831405398
 21
469.500407961476
 31
-27.57701219793246
  0
LINE
  5
BC8
330
1F
100
AcDbEntity
  8
0
  6
Continuous
 62
     7
100
AcDbLine
 10
411.3532831405398
 20
469.500407961476
 30
-27.57701219793246
 11
414.1233351245573
 21
469.500407961476
 31
-27.57701219793246
  0
LINE
  5
BC9
330
1F
100
AcDbEntity
  8
0
  6
Continuous
 62
     7
100
AcDbLine
 10
411.0139217875127
 20
469.1839895508289
 30
-27.57701219793246
 11
411.3815514081138
 21
468.6971106839084
 31
-27.57701219793246
  0
LINE
  5
BCA
330
1F
100
AcDbEntity
  8
0
  6
Continuous
 62
     7
100
AcDbLine
 10
406.8233353038499
 20
469.500407961476
 30
-27.57701219793246
 11
407.3929629174874
 21
468.7461917637845
 31
-27.57701219793246
  0
LINE
  5
BCB
330
1F
100
AcDbEntity
  8
0
  6
Continuous
 62
     7
100
AcDbLine
 10
407.1081120736326
 20
469.123338901668
 30
-27.57701219793246
 11
406.6510530257993
 21
468.6971106839084
 31
-27.57701219793246
  0
LINE
  5
BCC
330
1F
100
AcDbEntity
  8
0
  6
Continuous
 62
     7
100
AcDbLine
 10
418.6815512288204
 20
468.6971106839084
 30
-27.57701219793246
 11
421.2510526672136
 21
468.6971106839084
 31
-27.57701219793246
  0
LINE
  5
BCD
330
1F
100
AcDbEntity
  8
0
  6
Continuous
 62
     7
100
AcDbLine
 10
417.9744881831236
 20
468.8674890581024
 30
-27.57701219793246
 11
418.6532829612475
 21
469.500407961476
 31
-27.57701219793246
  0
LINE
  5
BCE
330
1F
100
AcDbEntity
  8
0
  6
Continuous
 62
     7
100
AcDbLine
 10
418.6532829612475
 20
469.500407961476
 30
-27.57701219793246
 11
421.4233349452646
 21
469.500407961476
 31
-27.57701219793246
  0
LINE
  5
BCF
330
1F
100
AcDbEntity
  8
0
  6
Continuous
 62
     7
100
AcDbLine
 10
421.4233349452646
 20
469.500407961476
 30
-27.57701219793246
 11
421.9929625589016
 21
468.7461917637845
 31
-27.57701219793246
  0
LINE
  5
BD0
330
1F
100
AcDbEntity
  8
0
  6
Continuous
 62
     7
100
AcDbLine
 10
421.708111715047
 20
469.123338901668
 30
-27.57701219793246
 11
421.2510526672136
 21
468.6971106839084
 31
-27.57701219793246
  0
LINE
  5
BD1
330
1F
100
AcDbEntity
  8
0
  6
Continuous
 62
     7
100
AcDbLine
 10
418.3139216082201
 20
469.1839895508289
 30
-27.57701219793246
 11
418.6815512288204
 21
468.6971106839084
 31
-27.57701219793246
  0
LINE
  5
BD2
330
1F
100
AcDbEntity
  8
0
  6
Continuous
 62
     7
100
AcDbLine
 10
403.6354074542201
 20
481.2855668311841
 30
-27.57701219793246
 11
406.2048368205426
 21
481.2855668311841
 31
-27.57701219793246
  0
LINE
  5
BD3
330
1F
100
AcDbEntity
  8
0
  6
Continuous
 62
     7
100
AcDbLine
 10
403.5079479978911
 20
480.4822675516145
 30
-27.57701219793246
 11
406.0773773642134
 21
480.4822675516145
 31
-27.57701219793246
  0
LINE
  5
BD4
330
1F
100
AcDbEntity
  8
0
  6
Continuous
 62
     7
100
AcDbLine
 10
404.0815515874069
 20
484.0971103056745
 30
-27.57701219793246
 11
406.6510530257993
 21
484.0971103056745
 31
-27.57701219793246
  0
LINE
  5
BD5
330
1F
100
AcDbEntity
  8
0
  6
Continuous
 62
     7
100
AcDbLine
 10
404.0532833198325
 20
484.900407583242
 30
-27.57701219793246
 11
406.8233353038499
 21
484.900407583242
 31
-27.57701219793246
  0
LINE
  5
BD6
330
1F
100
AcDbEntity
  8
0
  6
Continuous
 62
     7
100
AcDbLine
 10
405.631161158957
 20
477.6708061592044
 30
-27.57701219793246
 11
403.0617317926338
 21
477.6708061592044
 31
-27.57701219793246
  0
LINE
  5
BD7
330
1F
100
AcDbEntity
  8
0
  6
Continuous
 62
     7
100
AcDbLine
 10
402.7785446124021
 20
476.8674267995562
 30
-27.57701219793246
 11
405.7525465413606
 21
476.8674267995562
 31
-27.57701219793246
  0
LINE
  5
BD8
330
1F
100
AcDbEntity
  8
0
  6
Continuous
 62
     7
100
AcDbLine
 10
403.6354074542201
 20
481.2855668311841
 30
-27.57701219793246
 11
403.2045906479841
 21
480.8839171913994
 31
-27.57701219793246
  0
LINE
  5
BD9
330
1F
100
AcDbEntity
  8
0
  6
Continuous
 62
     7
100
AcDbLine
 10
403.2045906479841
 20
480.8839171913994
 30
-27.57701219793246
 11
403.5079479978911
 21
480.4822675516145
 31
-27.57701219793246
  0
LINE
  5
BDA
330
1F
100
AcDbEntity
  8
0
  6
Continuous
 62
     7
100
AcDbLine
 10
402.9013053701478
 20
481.2855668311841
 30
-27.57701219793246
 11
403.2045906479841
 21
480.8839171913994
 31
-27.57701219793246
  0
LINE
  5
BDB
330
1F
100
AcDbEntity
  8
0
  6
Continuous
 62
     7
100
AcDbLine
 10
403.2045906479841
 20
480.8839171913994
 30
-27.57701219793246
 11
402.7738459138191
 21
480.4822675516145
 31
-27.57701219793246
  0
LINE
  5
BDC
330
1F
100
AcDbEntity
  8
0
  6
Continuous
 62
     7
100
AcDbLine
 10
403.6354074542201
 20
481.2855668311841
 30
-27.57701219793246
 11
404.0815515874069
 21
484.0971103056745
 31
-27.57701219793246
  0
LINE
  5
BDD
330
1F
100
AcDbEntity
  8
0
  6
Continuous
 62
     7
100
AcDbLine
 10
402.9013053701478
 20
481.2855668311841
 30
-27.57701219793246
 11
403.3744885417093
 21
484.2674886798675
 31
-27.57701219793246
  0
LINE
  5
BDE
330
1F
100
AcDbEntity
  8
0
  6
Continuous
 62
     7
100
AcDbLine
 10
403.3744885417093
 20
484.2674886798675
 30
-27.57701219793246
 11
404.0532833198325
 21
484.900407583242
 31
-27.57701219793246
  0
LINE
  5
BDF
330
1F
100
AcDbEntity
  8
0
  6
Continuous
 62
     7
100
AcDbLine
 10
403.7139219668058
 20
484.5839891725953
 30
-27.57701219793246
 11
404.0815515874069
 21
484.0971103056745
 31
-27.57701219793246
  0
LINE
  5
BE0
330
1F
100
AcDbEntity
  8
0
  6
Continuous
 62
     7
100
AcDbLine
 10
402.3005906701871
 20
477.5002656228526
 30
-27.57701219793246
 11
402.7785446124021
 21
476.8674267995562
 31
-27.57701219793246
  0
LINE
  5
BE1
330
1F
100
AcDbEntity
  8
0
  6
Continuous
 62
     7
100
AcDbLine
 10
402.5395316052598
 20
477.1838452102034
 30
-27.57701219793246
 11
403.0617317926338
 21
477.6708061592044
 31
-27.57701219793246
  0
LINE
  5
BE2
330
1F
100
AcDbEntity
  8
0
  6
Continuous
 62
     7
100
AcDbLine
 10
403.0617317926338
 20
477.6708061592044
 30
-27.57701219793246
 11
403.5079479978911
 21
480.4822675516145
 31
-27.57701219793246
  0
LINE
  5
BE3
330
1F
100
AcDbEntity
  8
0
  6
Continuous
 62
     7
100
AcDbLine
 10
402.7738459138191
 20
480.4822675516145
 30
-27.57701219793246
 11
402.3005906701871
 21
477.5002656228526
 31
-27.57701219793246
  0
LINE
  5
BE4
330
1F
100
AcDbEntity
  8
0
  6
Continuous
 62
     7
100
AcDbLine
 10
401.305727831759
 20
484.8839170931566
 30
-27.57701219793246
 11
401.305727831759
 21
476.8839172896423
 31
-27.57701219793246
  0
LINE
  5
BE5
330
1F
100
AcDbEntity
  8
0
  6
Continuous
 62
     7
100
AcDbLine
 10
414.1233351245573
 20
484.900407583242
 30
-27.57701219793246
 11
414.6929627381942
 21
484.1461913855503
 31
-27.57701219793246
  0
LINE
  5
BE6
330
1F
100
AcDbEntity
  8
0
  6
Continuous
 62
     7
100
AcDbLine
 10
414.4081118943401
 20
484.5233385234336
 30
-27.57701219793246
 11
413.9510528465065
 21
484.0971103056745
 31
-27.57701219793246
  0
LINE
  5
BE7
330
1F
100
AcDbEntity
  8
0
  6
Continuous
 62
     7
100
AcDbLine
 10
414.6929627381942
 20
484.1461913855503
 30
-27.57701219793246
 11
414.2389387253216
 21
481.2855668311841
 31
-27.57701219793246
  0
LINE
  5
BE8
330
1F
100
AcDbEntity
  8
0
  6
Continuous
 62
     7
100
AcDbLine
 10
414.2389387253216
 20
481.2855668311841
 30
-27.57701219793246
 11
413.8081939911566
 21
480.8839171913994
 31
-27.57701219793246
  0
LINE
  5
BE9
330
1F
100
AcDbEntity
  8
0
  6
Continuous
 62
     7
100
AcDbLine
 10
410.9354072749273
 20
481.2855668311841
 30
-27.57701219793246
 11
413.5048366412496
 21
481.2855668311841
 31
-27.57701219793246
  0
LINE
  5
BEA
330
1F
100
AcDbEntity
  8
0
  6
Continuous
 62
     7
100
AcDbLine
 10
410.8079478185978
 20
480.4822675516145
 30
-27.57701219793246
 11
413.3773771849204
 21
480.4822675516145
 31
-27.57701219793246
  0
LINE
  5
BEB
330
1F
100
AcDbEntity
  8
0
  6
Continuous
 62
     7
100
AcDbLine
 10
411.3815514081138
 20
484.0971103056745
 30
-27.57701219793246
 11
413.9510528465065
 21
484.0971103056745
 31
-27.57701219793246
  0
LINE
  5
BEC
330
1F
100
AcDbEntity
  8
0
  6
Continuous
 62
     7
100
AcDbLine
 10
410.9354072749273
 20
481.2855668311841
 30
-27.57701219793246
 11
410.5045904686916
 21
480.8839171913994
 31
-27.57701219793246
  0
LINE
  5
BED
330
1F
100
AcDbEntity
  8
0
  6
Continuous
 62
     7
100
AcDbLine
 10
410.5045904686916
 20
480.8839171913994
 30
-27.57701219793246
 11
410.8079478185978
 21
480.4822675516145
 31
-27.57701219793246
  0
LINE
  5
BEE
330
1F
100
AcDbEntity
  8
0
  6
Continuous
 62
     7
100
AcDbLine
 10
410.2013051908548
 20
481.2855668311841
 30
-27.57701219793246
 11
410.5045904686916
 21
480.8839171913994
 31
-27.57701219793246
  0
LINE
  5
BEF
330
1F
100
AcDbEntity
  8
0
  6
Continuous
 62
     7
100
AcDbLine
 10
410.5045904686916
 20
480.8839171913994
 30
-27.57701219793246
 11
410.0738457345262
 21
480.4822675516145
 31
-27.57701219793246
  0
LINE
  5
BF0
330
1F
100
AcDbEntity
  8
0
  6
Continuous
 62
     7
100
AcDbLine
 10
413.5048366412496
 20
481.2855668311841
 30
-27.57701219793246
 11
413.8081939911566
 21
480.8839171913994
 31
-27.57701219793246
  0
LINE
  5
BF1
330
1F
100
AcDbEntity
  8
0
  6
Continuous
 62
     7
100
AcDbLine
 10
413.8081939911566
 20
480.8839171913994
 30
-27.57701219793246
 11
413.3773771849204
 21
480.4822675516145
 31
-27.57701219793246
  0
LINE
  5
BF2
330
1F
100
AcDbEntity
  8
0
  6
Continuous
 62
     7
100
AcDbLine
 10
413.8081939911566
 20
480.8839171913994
 30
-27.57701219793246
 11
414.1114792689931
 21
480.4822675516145
 31
-27.57701219793246
  0
LINE
  5
BF3
330
1F
100
AcDbEntity
  8
0
  6
Continuous
 62
     7
100
AcDbLine
 10
413.9510528465065
 20
484.0971103056745
 30
-27.57701219793246
 11
413.5048366412496
 21
481.2855668311841
 31
-27.57701219793246
  0
LINE
  5
BF4
330
1F
100
AcDbEntity
  8
0
  6
Continuous
 62
     7
100
AcDbLine
 10
410.9354072749273
 20
481.2855668311841
 30
-27.57701219793246
 11
411.3815514081138
 21
484.0971103056745
 31
-27.57701219793246
  0
LINE
  5
BF5
330
1F
100
AcDbEntity
  8
0
  6
Continuous
 62
     7
100
AcDbLine
 10
410.2013051908548
 20
481.2855668311841
 30
-27.57701219793246
 11
410.6744883624164
 21
484.2674886798675
 31
-27.57701219793246
  0
LINE
  5
BF6
330
1F
100
AcDbEntity
  8
0
  6
Continuous
 62
     7
100
AcDbLine
 10
410.6744883624164
 20
484.2674886798675
 30
-27.57701219793246
 11
411.3532831405398
 21
484.900407583242
 31
-27.57701219793246
  0
LINE
  5
BF7
330
1F
100
AcDbEntity
  8
0
  6
Continuous
 62
     7
100
AcDbLine
 10
411.3532831405398
 20
484.900407583242
 30
-27.57701219793246
 11
414.1233351245573
 21
484.900407583242
 31
-27.57701219793246
  0
LINE
  5
BF8
330
1F
100
AcDbEntity
  8
0
  6
Continuous
 62
     7
100
AcDbLine
 10
411.0139217875127
 20
484.5839891725953
 30
-27.57701219793246
 11
411.3815514081138
 21
484.0971103056745
 31
-27.57701219793246
  0
LINE
  5
BF9
330
1F
100
AcDbEntity
  8
0
  6
Continuous
 62
     7
100
AcDbLine
 10
406.2048368205426
 20
481.2855668311841
 30
-27.57701219793246
 11
406.5081941704493
 21
480.8839171913994
 31
-27.57701219793246
  0
LINE
  5
BFA
330
1F
100
AcDbEntity
  8
0
  6
Continuous
 62
     7
100
AcDbLine
 10
406.5081941704493
 20
480.8839171913994
 30
-27.57701219793246
 11
406.0773773642134
 21
480.4822675516145
 31
-27.57701219793246
  0
LINE
  5
BFB
330
1F
100
AcDbEntity
  8
0
  6
Continuous
 62
     7
100
AcDbLine
 10
406.9389389046143
 20
481.2855668311841
 30
-27.57701219793246
 11
406.5081941704493
 21
480.8839171913994
 31
-27.57701219793246
  0
LINE
  5
BFC
330
1F
100
AcDbEntity
  8
0
  6
Continuous
 62
     7
100
AcDbLine
 10
406.5081941704493
 20
480.8839171913994
 30
-27.57701219793246
 11
406.8114794482856
 21
480.4822675516145
 31
-27.57701219793246
  0
LINE
  5
BFD
330
1F
100
AcDbEntity
  8
0
  6
Continuous
 62
     7
100
AcDbLine
 10
406.6510530257993
 20
484.0971103056745
 30
-27.57701219793246
 11
406.2048368205426
 21
481.2855668311841
 31
-27.57701219793246
  0
LINE
  5
BFE
330
1F
100
AcDbEntity
  8
0
  6
Continuous
 62
     7
100
AcDbLine
 10
406.8233353038499
 20
484.900407583242
 30
-27.57701219793246
 11
407.3929629174874
 21
484.1461913855503
 31
-27.57701219793246
  0
LINE
  5
BFF
330
1F
100
AcDbEntity
  8
0
  6
Continuous
 62
     7
100
AcDbLine
 10
407.3929629174874
 20
484.1461913855503
 30
-27.57701219793246
 11
406.9389389046143
 21
481.2855668311841
 31
-27.57701219793246
  0
LINE
  5
C00
330
1F
100
AcDbEntity
  8
0
  6
Continuous
 62
     7
100
AcDbLine
 10
407.1081120736326
 20
484.5233385234336
 30
-27.57701219793246
 11
406.6510530257993
 21
484.0971103056745
 31
-27.57701219793246
  0
LINE
  5
C01
330
1F
100
AcDbEntity
  8
0
  6
Continuous
 62
     7
100
AcDbLine
 10
412.9311609796645
 20
477.6708061592044
 30
-27.57701219793246
 11
410.3617316133413
 21
477.6708061592044
 31
-27.57701219793246
  0
LINE
  5
C02
330
1F
100
AcDbEntity
  8
0
  6
Continuous
 62
     7
100
AcDbLine
 10
409.6005904908943
 20
477.5002656228526
 30
-27.57701219793246
 11
410.0785444331092
 21
476.8674267995562
 31
-27.57701219793246
  0
LINE
  5
C03
330
1F
100
AcDbEntity
  8
0
  6
Continuous
 62
     7
100
AcDbLine
 10
410.0785444331092
 20
476.8674267995562
 30
-27.57701219793246
 11
413.0525463620677
 21
476.8674267995562
 31
-27.57701219793246
  0
LINE
  5
C04
330
1F
100
AcDbEntity
  8
0
  6
Continuous
 62
     7
100
AcDbLine
 10
413.0525463620677
 20
476.8674267995562
 30
-27.57701219793246
 11
413.6221019036351
 21
477.3984077674962
 31
-27.57701219793246
  0
LINE
  5
C05
330
1F
100
AcDbEntity
  8
0
  6
Continuous
 62
     7
100
AcDbLine
 10
409.8395314259668
 20
477.1838452102034
 30
-27.57701219793246
 11
410.3617316133413
 21
477.6708061592044
 31
-27.57701219793246
  0
LINE
  5
C06
330
1F
100
AcDbEntity
  8
0
  6
Continuous
 62
     7
100
AcDbLine
 10
413.3373251338528
 20
477.1329162825256
 30
-27.57701219793246
 11
412.9311609796645
 21
477.6708061592044
 31
-27.57701219793246
  0
LINE
  5
C07
330
1F
100
AcDbEntity
  8
0
  6
Continuous
 62
     7
100
AcDbLine
 10
405.7525465413606
 20
476.8674267995562
 30
-27.57701219793246
 11
406.3221020829276
 21
477.3984077674962
 31
-27.57701219793246
  0
LINE
  5
C08
330
1F
100
AcDbEntity
  8
0
  6
Continuous
 62
     7
100
AcDbLine
 10
406.0373253131453
 20
477.1329162825256
 30
-27.57701219793246
 11
405.631161158957
 21
477.6708061592044
 31
-27.57701219793246
  0
LINE
  5
C09
330
1F
100
AcDbEntity
  8
0
  6
Continuous
 62
     7
100
AcDbLine
 10
406.0773773642134
 20
480.4822675516145
 30
-27.57701219793246
 11
405.631161158957
 21
477.6708061592044
 31
-27.57701219793246
  0
LINE
  5
C0A
330
1F
100
AcDbEntity
  8
0
  6
Continuous
 62
     7
100
AcDbLine
 10
413.3773771849204
 20
480.4822675516145
 30
-27.57701219793246
 11
412.9311609796645
 21
477.6708061592044
 31
-27.57701219793246
  0
LINE
  5
C0B
330
1F
100
AcDbEntity
  8
0
  6
Continuous
 62
     7
100
AcDbLine
 10
410.3617316133413
 20
477.6708061592044
 30
-27.57701219793246
 11
410.8079478185978
 21
480.4822675516145
 31
-27.57701219793246
  0
LINE
  5
C0C
330
1F
100
AcDbEntity
  8
0
  6
Continuous
 62
     7
100
AcDbLine
 10
410.0738457345262
 20
480.4822675516145
 30
-27.57701219793246
 11
409.6005904908943
 21
477.5002656228526
 31
-27.57701219793246
  0
LINE
  5
C0D
330
1F
100
AcDbEntity
  8
0
  6
Continuous
 62
     7
100
AcDbLine
 10
413.6221019036351
 20
477.3984077674962
 30
-27.57701219793246
 11
414.1114792689931
 21
480.4822675516145
 31
-27.57701219793246
  0
LINE
  5
C0E
330
1F
100
AcDbEntity
  8
0
  6
Continuous
 62
     7
100
AcDbLine
 10
406.3221020829276
 20
477.3984077674962
 30
-27.57701219793246
 11
406.8114794482856
 21
480.4822675516145
 31
-27.57701219793246
  0
LINE
  5
C0F
330
1F
100
AcDbEntity
  8
0
  6
Continuous
 62
     7
100
AcDbLine
 10
418.2354070956338
 20
481.2855668311841
 30
-27.57701219793246
 11
420.8048364619568
 21
481.2855668311841
 31
-27.57701219793246
  0
LINE
  5
C10
330
1F
100
AcDbEntity
  8
0
  6
Continuous
 62
     7
100
AcDbLine
 10
418.1079476393056
 20
480.4822675516145
 30
-27.57701219793246
 11
420.6773770056281
 21
480.4822675516145
 31
-27.57701219793246
  0
LINE
  5
C11
330
1F
100
AcDbEntity
  8
0
  6
Continuous
 62
     7
100
AcDbLine
 10
418.6815512288204
 20
484.0971103056745
 30
-27.57701219793246
 11
421.2510526672136
 21
484.0971103056745
 31
-27.57701219793246
  0
LINE
  5
C12
330
1F
100
AcDbEntity
  8
0
  6
Continuous
 62
     7
100
AcDbLine
 10
418.2354070956338
 20
481.2855668311841
 30
-27.57701219793246
 11
417.8045902893983
 21
480.8839171913994
 31
-27.57701219793246
  0
LINE
  5
C13
330
1F
100
AcDbEntity
  8
0
  6
Continuous
 62
     7
100
AcDbLine
 10
417.8045902893983
 20
480.8839171913994
 30
-27.57701219793246
 11
418.1079476393056
 21
480.4822675516145
 31
-27.57701219793246
  0
LINE
  5
C14
330
1F
100
AcDbEntity
  8
0
  6
Continuous
 62
     7
100
AcDbLine
 10
417.5013050115621
 20
481.2855668311841
 30
-27.57701219793246
 11
417.8045902893983
 21
480.8839171913994
 31
-27.57701219793246
  0
LINE
  5
C15
330
1F
100
AcDbEntity
  8
0
  6
Continuous
 62
     7
100
AcDbLine
 10
417.8045902893983
 20
480.8839171913994
 30
-27.57701219793246
 11
417.3738455552338
 21
480.4822675516145
 31
-27.57701219793246
  0
LINE
  5
C16
330
1F
100
AcDbEntity
  8
0
  6
Continuous
 62
     7
100
AcDbLine
 10
420.8048364619568
 20
481.2855668311841
 30
-27.57701219793246
 11
421.1081938118637
 21
480.8839171913994
 31
-27.57701219793246
  0
LINE
  5
C17
330
1F
100
AcDbEntity
  8
0
  6
Continuous
 62
     7
100
AcDbLine
 10
421.1081938118637
 20
480.8839171913994
 30
-27.57701219793246
 11
420.6773770056281
 21
480.4822675516145
 31
-27.57701219793246
  0
LINE
  5
C18
330
1F
100
AcDbEntity
  8
0
  6
Continuous
 62
     7
100
AcDbLine
 10
421.5389385460289
 20
481.2855668311841
 30
-27.57701219793246
 11
421.1081938118637
 21
480.8839171913994
 31
-27.57701219793246
  0
LINE
  5
C19
330
1F
100
AcDbEntity
  8
0
  6
Continuous
 62
     7
100
AcDbLine
 10
421.1081938118637
 20
480.8839171913994
 30
-27.57701219793246
 11
421.4114790897
 21
480.4822675516145
 31
-27.57701219793246
  0
LINE
  5
C1A
330
1F
100
AcDbEntity
  8
0
  6
Continuous
 62
     7
100
AcDbLine
 10
421.2510526672136
 20
484.0971103056745
 30
-27.57701219793246
 11
420.8048364619568
 21
481.2855668311841
 31
-27.57701219793246
  0
LINE
  5
C1B
330
1F
100
AcDbEntity
  8
0
  6
Continuous
 62
     7
100
AcDbLine
 10
418.2354070956338
 20
481.2855668311841
 30
-27.57701219793246
 11
418.6815512288204
 21
484.0971103056745
 31
-27.57701219793246
  0
LINE
  5
C1C
330
1F
100
AcDbEntity
  8
0
  6
Continuous
 62
     7
100
AcDbLine
 10
417.5013050115621
 20
481.2855668311841
 30
-27.57701219793246
 11
417.9744881831236
 21
484.2674886798675
 31
-27.57701219793246
  0
LINE
  5
C1D
330
1F
100
AcDbEntity
  8
0
  6
Continuous
 62
     7
100
AcDbLine
 10
417.9744881831236
 20
484.2674886798675
 30
-27.57701219793246
 11
418.6532829612475
 21
484.900407583242
 31
-27.57701219793246
  0
LINE
  5
C1E
330
1F
100
AcDbEntity
  8
0
  6
Continuous
 62
     7
100
AcDbLine
 10
418.6532829612475
 20
484.900407583242
 30
-27.57701219793246
 11
421.4233349452646
 21
484.900407583242
 31
-27.57701219793246
  0
LINE
  5
C1F
330
1F
100
AcDbEntity
  8
0
  6
Continuous
 62
     7
100
AcDbLine
 10
421.4233349452646
 20
484.900407583242
 30
-27.57701219793246
 11
421.9929625589016
 21
484.1461913855503
 31
-27.57701219793246
  0
LINE
  5
C20
330
1F
100
AcDbEntity
  8
0
  6
Continuous
 62
     7
100
AcDbLine
 10
421.9929625589016
 20
484.1461913855503
 30
-27.57701219793246
 11
421.5389385460289
 21
481.2855668311841
 31
-27.57701219793246
  0
LINE
  5
C21
330
1F
100
AcDbEntity
  8
0
  6
Continuous
 62
     7
100
AcDbLine
 10
421.708111715047
 20
484.5233385234336
 30
-27.57701219793246
 11
421.2510526672136
 21
484.0971103056745
 31
-27.57701219793246
  0
LINE
  5
C22
330
1F
100
AcDbEntity
  8
0
  6
Continuous
 62
     7
100
AcDbLine
 10
418.3139216082201
 20
484.5839891725953
 30
-27.57701219793246
 11
418.6815512288204
 21
484.0971103056745
 31
-27.57701219793246
  0
LINE
  5
C23
330
1F
100
AcDbEntity
  8
0
  6
Continuous
 62
     7
100
AcDbLine
 10
420.2311608003713
 20
477.6708061592044
 30
-27.57701219793246
 11
417.6617314340484
 21
477.6708061592044
 31
-27.57701219793246
  0
LINE
  5
C24
330
1F
100
AcDbEntity
  8
0
  6
Continuous
 62
     7
100
AcDbLine
 10
417.3785442538163
 20
476.8674267995562
 30
-27.57701219793246
 11
420.3525461827751
 21
476.8674267995562
 31
-27.57701219793246
  0
LINE
  5
C25
330
1F
100
AcDbEntity
  8
0
  6
Continuous
 62
     7
100
AcDbLine
 10
420.3525461827751
 20
476.8674267995562
 30
-27.57701219793246
 11
420.9221017243423
 21
477.3984077674962
 31
-27.57701219793246
  0
LINE
  5
C26
330
1F
100
AcDbEntity
  8
0
  6
Continuous
 62
     7
100
AcDbLine
 10
420.6373249545594
 20
477.1329162825256
 30
-27.57701219793246
 11
420.2311608003713
 21
477.6708061592044
 31
-27.57701219793246
  0
LINE
  5
C27
330
1F
100
AcDbEntity
  8
0
  6
Continuous
 62
     7
100
AcDbLine
 10
420.6773770056281
 20
480.4822675516145
 30
-27.57701219793246
 11
420.2311608003713
 21
477.6708061592044
 31
-27.57701219793246
  0
LINE
  5
C28
330
1F
100
AcDbEntity
  8
0
  6
Continuous
 62
     7
100
AcDbLine
 10
417.6617314340484
 20
477.6708061592044
 30
-27.57701219793246
 11
418.1079476393056
 21
480.4822675516145
 31
-27.57701219793246
  0
LINE
  5
C29
330
1F
100
AcDbEntity
  8
0
  6
Continuous
 62
     7
100
AcDbLine
 10
420.9221017243423
 20
477.3984077674962
 30
-27.57701219793246
 11
421.4114790897
 21
480.4822675516145
 31
-27.57701219793246
  0
LINE
  5
C2A
330
1F
100
AcDbEntity
  8
0
  6
Continuous
 62
     7
100
AcDbLine
 10
417.3738455552338
 20
480.4822675516145
 30
-27.57701219793246
 11
416.9005903116012
 21
477.5002656228526
 31
-27.57701219793246
  0
LINE
  5
C2B
330
1F
100
AcDbEntity
  8
0
  6
Continuous
 62
     7
100
AcDbLine
 10
416.9005903116012
 20
477.5002656228526
 30
-27.57701219793246
 11
417.3785442538163
 21
476.8674267995562
 31
-27.57701219793246
  0
LINE
  5
C2C
330
1F
100
AcDbEntity
  8
0
  6
Continuous
 62
     7
100
AcDbLine
 10
417.139531246674
 20
477.1838452102034
 30
-27.57701219793246
 11
417.6617314340484
 21
477.6708061592044
 31
-27.57701219793246
  0
LINE
  5
C2D
330
1F
100
AcDbEntity
  8
0
  6
Continuous
 62
     7
100
AcDbLine
 10
415.3057274879094
 20
499.9839167222901
 30
-27.57701219793246
 11
413.8057275247503
 21
499.9839167222901
 31
-27.57701219793246
  0
LINE
  5
C2E
330
1F
100
AcDbEntity
  8
0
  6
Continuous
 62
     7
100
AcDbLine
 10
413.8057275247503
 20
498.983916746851
 30
-27.57701219793246
 11
415.3057274879094
 21
498.983916746851
 31
-27.57701219793246
  0
LINE
  5
C2F
330
1F
100
AcDbEntity
  8
0
  6
Continuous
 62
     7
100
AcDbLine
 10
413.8057275247503
 20
499.9839167222901
 30
-27.57701219793246
 11
413.8057275247503
 21
498.983916746851
 31
-27.57701219793246
  0
LINE
  5
C30
330
1F
100
AcDbEntity
  8
0
  6
Continuous
 62
     7
100
AcDbLine
 10
411.8057275738721
 20
502.4839166608892
 30
-27.57701219793246
 11
411.8057275738721
 21
499.4839167345709
 31
-27.57701219793246
  0
LINE
  5
C31
330
1F
100
AcDbEntity
  8
0
  6
Continuous
 62
     7
100
AcDbLine
 10
417.8057274265079
 20
498.983916746851
 30
-27.57701219793246
 11
417.8057274265079
 21
499.9839167222901
 31
-27.57701219793246
  0
LINE
  5
C32
330
1F
100
AcDbEntity
  8
0
  6
Continuous
 62
     7
100
AcDbLine
 10
419.8057273773866
 20
502.4839166608892
 30
-27.57701219793246
 11
419.8057273773866
 21
499.4839167345709
 31
-27.57701219793246
  0
LINE
  5
C33
330
1F
100
AcDbEntity
  8
0
  6
Continuous
 62
     7
100
AcDbLine
 10
415.3057274879094
 20
498.983916746851
 30
-27.57701219793246
 11
415.3057274879094
 21
497.4839167836917
 31
-27.57701219793246
  0
LINE
  5
C34
330
1F
100
AcDbEntity
  8
0
  6
Continuous
 62
     7
100
AcDbLine
 10
416.3057274633493
 20
497.4839167836917
 30
-27.57701219793246
 11
416.3057274633493
 21
498.983916746851
 31
-27.57701219793246
  0
LINE
  5
C35
330
1F
100
AcDbEntity
  8
0
  6
Continuous
 62
     7
100
AcDbLine
 10
415.3057274879094
 20
497.4839167836917
 30
-27.57701219793246
 11
416.3057274633493
 21
497.4839167836917
 31
-27.57701219793246
  0
LINE
  5
C36
330
1F
100
AcDbEntity
  8
0
  6
Continuous
 62
     7
100
AcDbLine
 10
416.3057274633493
 20
501.4839166854496
 30
-27.57701219793246
 11
415.3057274879094
 21
501.4839166854496
 31
-27.57701219793246
  0
LINE
  5
C37
330
1F
100
AcDbEntity
  8
0
  6
Continuous
 62
     7
100
AcDbLine
 10
415.3057274879094
 20
501.4839166854496
 30
-27.57701219793246
 11
415.3057274879094
 21
499.9839167222901
 31
-27.57701219793246
  0
LINE
  5
C38
330
1F
100
AcDbEntity
  8
0
  6
Continuous
 62
     7
100
AcDbLine
 10
416.3057274633493
 20
499.9839167222901
 30
-27.57701219793246
 11
416.3057274633493
 21
501.4839166854496
 31
-27.57701219793246
  0
LINE
  5
C39
330
1F
100
AcDbEntity
  8
0
  6
Continuous
 62
     7
100
AcDbLine
 10
416.3057274633493
 20
501.4839166854496
 30
-27.57701219793246
 11
416.3057274633493
 21
501.4839166854496
 31
-27.57701219793246
  0
LINE
  5
C3A
330
1F
100
AcDbEntity
  8
0
  6
Continuous
 62
     7
100
AcDbLine
 10
416.3057274633493
 20
498.983916746851
 30
-27.57701219793246
 11
417.8057274265079
 21
498.983916746851
 31
-27.57701219793246
  0
LINE
  5
C3B
330
1F
100
AcDbEntity
  8
0
  6
Continuous
 62
     7
100
AcDbLine
 10
417.8057274265079
 20
499.9839167222901
 30
-27.57701219793246
 11
416.3057274633493
 21
499.9839167222901
 31
-27.57701219793246
  0
LINE
  5
C3C
330
1F
100
AcDbEntity
  8
0
  6
Continuous
 62
     7
100
AcDbLine
 10
434.3057270212566
 20
450.4839179380438
 30
-27.57701219793246
 11
434.3057270212566
 21
457.4839177661187
 31
-27.57701219793246
  0
LINE
  5
C3D
330
1F
100
AcDbEntity
  8
0
  6
Continuous
 62
     7
100
AcDbLine
 10
426.8057272054615
 20
441.9839181468094
 30
-27.57701219793246
 11
426.8057272054615
 21
438.9839182204908
 31
-27.57701219793246
  0
LINE
  5
C3E
330
1F
100
AcDbEntity
  8
0
  6
Continuous
 62
     7
100
AcDbLine
 10
424.8057272545831
 20
441.9839181468094
 30
-27.57701219793246
 11
424.8057272545831
 21
438.9839182204908
 31
-27.57701219793246
  0
LINE
  5
C3F
330
1F
100
AcDbEntity
  8
0
  6
Continuous
 62
     7
100
AcDbLine
 10
434.8057270089765
 20
441.9839181468094
 30
-27.57701219793246
 11
434.8057270089765
 21
438.9839182204908
 31
-27.57701219793246
  0
LINE
  5
C40
330
1F
100
AcDbEntity
  8
0
  6
Continuous
 62
     7
100
AcDbLine
 10
430.3057271194993
 20
469.4839174713911
 30
-27.57701219793246
 11
430.3057271194993
 21
461.4839176678761
 31
-27.57701219793246
  0
LINE
  5
C41
330
1F
100
AcDbEntity
  8
0
  6
Continuous
 62
     7
100
AcDbLine
 10
428.5510524879208
 20
468.6971106839084
 30
-27.57701219793246
 11
428.104836282664
 21
465.8855672094179
 31
-27.57701219793246
  0
LINE
  5
C42
330
1F
100
AcDbEntity
  8
0
  6
Continuous
 62
     7
100
AcDbLine
 10
425.5354069163413
 20
465.8855672094179
 30
-27.57701219793246
 11
425.9815510495278
 21
468.6971106839084
 31
-27.57701219793246
  0
LINE
  5
C43
330
1F
100
AcDbEntity
  8
0
  6
Continuous
 62
     7
100
AcDbLine
 10
424.8013048322689
 20
465.8855672094179
 30
-27.57701219793246
 11
425.2744880038306
 21
468.8674890581024
 31
-27.57701219793246
  0
LINE
  5
C44
330
1F
100
AcDbEntity
  8
0
  6
Continuous
 62
     7
100
AcDbLine
 10
429.2929623796088
 20
468.7461917637845
 30
-27.57701219793246
 11
428.8389383667357
 21
465.8855672094179
 31
-27.57701219793246
  0
LINE
  5
C45
330
1F
100
AcDbEntity
  8
0
  6
Continuous
 62
     7
100
AcDbLine
 10
427.9773768263352
 20
465.0822679298486
 30
-27.57701219793246
 11
427.5311606210784
 21
462.2708065374388
 31
-27.57701219793246
  0
LINE
  5
C46
330
1F
100
AcDbEntity
  8
0
  6
Continuous
 62
     7
100
AcDbLine
 10
428.2221015450492
 20
461.9984081457308
 30
-27.57701219793246
 11
428.711478910407
 21
465.0822679298486
 31
-27.57701219793246
  0
LINE
  5
C47
330
1F
100
AcDbEntity
  8
0
  6
Continuous
 62
     7
100
AcDbLine
 10
427.6525460034822
 20
461.4674271777905
 30
-27.57701219793246
 11
428.2221015450492
 21
461.9984081457308
 31
-27.57701219793246
  0
LINE
  5
C48
330
1F
100
AcDbEntity
  8
0
  6
Continuous
 62
     7
100
AcDbLine
 10
427.9373247752666
 20
461.7329166607594
 30
-27.57701219793246
 11
427.5311606210784
 21
462.2708065374388
 31
-27.57701219793246
  0
LINE
  5
C49
330
1F
100
AcDbEntity
  8
0
  6
Continuous
 62
     7
100
AcDbLine
 10
428.104836282664
 20
465.8855672094179
 30
-27.57701219793246
 11
428.408193632571
 21
465.4839175696332
 31
-27.57701219793246
  0
LINE
  5
C4A
330
1F
100
AcDbEntity
  8
0
  6
Continuous
 62
     7
100
AcDbLine
 10
428.408193632571
 20
465.4839175696332
 30
-27.57701219793246
 11
427.9773768263352
 21
465.0822679298486
 31
-27.57701219793246
  0
LINE
  5
C4B
330
1F
100
AcDbEntity
  8
0
  6
Continuous
 62
     7
100
AcDbLine
 10
428.8389383667357
 20
465.8855672094179
 30
-27.57701219793246
 11
428.408193632571
 21
465.4839175696332
 31
-27.57701219793246
  0
LINE
  5
C4C
330
1F
100
AcDbEntity
  8
0
  6
Continuous
 62
     7
100
AcDbLine
 10
428.408193632571
 20
465.4839175696332
 30
-27.57701219793246
 11
428.711478910407
 21
465.0822679298486
 31
-27.57701219793246
  0
LINE
  5
C4D
330
1F
100
AcDbEntity
  8
0
  6
Continuous
 62
     7
100
AcDbLine
 10
425.5354069163413
 20
465.8855672094179
 30
-27.57701219793246
 11
428.104836282664
 21
465.8855672094179
 31
-27.57701219793246
  0
LINE
  5
C4E
330
1F
100
AcDbEntity
  8
0
  6
Continuous
 62
     7
100
AcDbLine
 10
424.9617312547557
 20
462.2708065374388
 30
-27.57701219793246
 11
425.4079474600122
 21
465.0822679298486
 31
-27.57701219793246
  0
LINE
  5
C4F
330
1F
100
AcDbEntity
  8
0
  6
Continuous
 62
     7
100
AcDbLine
 10
424.6738453759406
 20
465.0822679298486
 30
-27.57701219793246
 11
424.2005901323083
 21
462.1002660010865
 31
-27.57701219793246
  0
LINE
  5
C50
330
1F
100
AcDbEntity
  8
0
  6
Continuous
 62
     7
100
AcDbLine
 10
424.2005901323083
 20
462.1002660010865
 30
-27.57701219793246
 11
424.6785440745234
 21
461.4674271777905
 31
-27.57701219793246
  0
LINE
  5
C51
330
1F
100
AcDbEntity
  8
0
  6
Continuous
 62
     7
100
AcDbLine
 10
424.4395310673809
 20
461.783845588438
 30
-27.57701219793246
 11
424.9617312547557
 21
462.2708065374388
 31
-27.57701219793246
  0
LINE
  5
C52
330
1F
100
AcDbEntity
  8
0
  6
Continuous
 62
     7
100
AcDbLine
 10
425.1045901101058
 20
465.4839175696332
 30
-27.57701219793246
 11
425.4079474600122
 21
465.0822679298486
 31
-27.57701219793246
  0
LINE
  5
C53
330
1F
100
AcDbEntity
  8
0
  6
Continuous
 62
     7
100
AcDbLine
 10
424.8013048322689
 20
465.8855672094179
 30
-27.57701219793246
 11
425.1045901101058
 21
465.4839175696332
 31
-27.57701219793246
  0
LINE
  5
C54
330
1F
100
AcDbEntity
  8
0
  6
Continuous
 62
     7
100
AcDbLine
 10
425.1045901101058
 20
465.4839175696332
 30
-27.57701219793246
 11
424.6738453759406
 21
465.0822679298486
 31
-27.57701219793246
  0
LINE
  5
C55
330
1F
100
AcDbEntity
  8
0
  6
Continuous
 62
     7
100
AcDbLine
 10
427.5311606210784
 20
462.2708065374388
 30
-27.57701219793246
 11
424.9617312547557
 21
462.2708065374388
 31
-27.57701219793246
  0
LINE
  5
C56
330
1F
100
AcDbEntity
  8
0
  6
Continuous
 62
     7
100
AcDbLine
 10
424.6785440745234
 20
461.4674271777905
 30
-27.57701219793246
 11
427.6525460034822
 21
461.4674271777905
 31
-27.57701219793246
  0
LINE
  5
C57
330
1F
100
AcDbEntity
  8
0
  6
Continuous
 62
     7
100
AcDbLine
 10
425.5354069163413
 20
465.8855672094179
 30
-27.57701219793246
 11
425.1045901101058
 21
465.4839175696332
 31
-27.57701219793246
  0
LINE
  5
C58
330
1F
100
AcDbEntity
  8
0
  6
Continuous
 62
     7
100
AcDbLine
 10
425.4079474600122
 20
465.0822679298486
 30
-27.57701219793246
 11
427.9773768263352
 21
465.0822679298486
 31
-27.57701219793246
  0
LINE
  5
C59
330
1F
100
AcDbEntity
  8
0
  6
Continuous
 62
     7
100
AcDbLine
 10
425.9815510495278
 20
468.6971106839084
 30
-27.57701219793246
 11
428.5510524879208
 21
468.6971106839084
 31
-27.57701219793246
  0
LINE
  5
C5A
330
1F
100
AcDbEntity
  8
0
  6
Continuous
 62
     7
100
AcDbLine
 10
425.9532827819543
 20
469.500407961476
 30
-27.57701219793246
 11
428.7233347659719
 21
469.500407961476
 31
-27.57701219793246
  0
LINE
  5
C5B
330
1F
100
AcDbEntity
  8
0
  6
Continuous
 62
     7
100
AcDbLine
 10
428.7233347659719
 20
469.500407961476
 30
-27.57701219793246
 11
429.2929623796088
 21
468.7461917637845
 31
-27.57701219793246
  0
LINE
  5
C5C
330
1F
100
AcDbEntity
  8
0
  6
Continuous
 62
     7
100
AcDbLine
 10
429.0081115357541
 20
469.123338901668
 30
-27.57701219793246
 11
428.5510524879208
 21
468.6971106839084
 31
-27.57701219793246
  0
LINE
  5
C5D
330
1F
100
AcDbEntity
  8
0
  6
Continuous
 62
     7
100
AcDbLine
 10
425.6139214289277
 20
469.1839895508289
 30
-27.57701219793246
 11
425.9815510495278
 21
468.6971106839084
 31
-27.57701219793246
  0
LINE
  5
C5E
330
1F
100
AcDbEntity
  8
0
  6
Continuous
 62
     7
100
AcDbLine
 10
425.2744880038306
 20
468.8674890581024
 30
-27.57701219793246
 11
425.9532827819543
 21
469.500407961476
 31
-27.57701219793246
  0
LINE
  5
C5F
330
1F
100
AcDbEntity
  8
0
  6
Continuous
 62
     7
100
AcDbLine
 10
425.9815510495278
 20
484.0971103056745
 30
-27.57701219793246
 11
428.5510524879208
 21
484.0971103056745
 31
-27.57701219793246
  0
LINE
  5
C60
330
1F
100
AcDbEntity
  8
0
  6
Continuous
 62
     7
100
AcDbLine
 10
428.104836282664
 20
481.2855668311841
 30
-27.57701219793246
 11
428.408193632571
 21
480.8839171913994
 31
-27.57701219793246
  0
LINE
  5
C61
330
1F
100
AcDbEntity
  8
0
  6
Continuous
 62
     7
100
AcDbLine
 10
428.408193632571
 20
480.8839171913994
 30
-27.57701219793246
 11
427.9773768263352
 21
480.4822675516145
 31
-27.57701219793246
  0
LINE
  5
C62
330
1F
100
AcDbEntity
  8
0
  6
Continuous
 62
     7
100
AcDbLine
 10
428.8389383667357
 20
481.2855668311841
 30
-27.57701219793246
 11
428.408193632571
 21
480.8839171913994
 31
-27.57701219793246
  0
LINE
  5
C63
330
1F
100
AcDbEntity
  8
0
  6
Continuous
 62
     7
100
AcDbLine
 10
428.408193632571
 20
480.8839171913994
 30
-27.57701219793246
 11
428.711478910407
 21
480.4822675516145
 31
-27.57701219793246
  0
LINE
  5
C64
330
1F
100
AcDbEntity
  8
0
  6
Continuous
 62
     7
100
AcDbLine
 10
428.5510524879208
 20
484.0971103056745
 30
-27.57701219793246
 11
428.104836282664
 21
481.2855668311841
 31
-27.57701219793246
  0
LINE
  5
C65
330
1F
100
AcDbEntity
  8
0
  6
Continuous
 62
     7
100
AcDbLine
 10
425.9532827819543
 20
484.900407583242
 30
-27.57701219793246
 11
428.7233347659719
 21
484.900407583242
 31
-27.57701219793246
  0
LINE
  5
C66
330
1F
100
AcDbEntity
  8
0
  6
Continuous
 62
     7
100
AcDbLine
 10
428.7233347659719
 20
484.900407583242
 30
-27.57701219793246
 11
429.2929623796088
 21
484.1461913855503
 31
-27.57701219793246
  0
LINE
  5
C67
330
1F
100
AcDbEntity
  8
0
  6
Continuous
 62
     7
100
AcDbLine
 10
429.2929623796088
 20
484.1461913855503
 30
-27.57701219793246
 11
428.8389383667357
 21
481.2855668311841
 31
-27.57701219793246
  0
LINE
  5
C68
330
1F
100
AcDbEntity
  8
0
  6
Continuous
 62
     7
100
AcDbLine
 10
429.0081115357541
 20
484.5233385234336
 30
-27.57701219793246
 11
428.5510524879208
 21
484.0971103056745
 31
-27.57701219793246
  0
LINE
  5
C69
330
1F
100
AcDbEntity
  8
0
  6
Continuous
 62
     7
100
AcDbLine
 10
425.5354069163413
 20
481.2855668311841
 30
-27.57701219793246
 11
428.104836282664
 21
481.2855668311841
 31
-27.57701219793246
  0
LINE
  5
C6A
330
1F
100
AcDbEntity
  8
0
  6
Continuous
 62
     7
100
AcDbLine
 10
425.5354069163413
 20
481.2855668311841
 30
-27.57701219793246
 11
425.9815510495278
 21
484.0971103056745
 31
-27.57701219793246
  0
LINE
  5
C6B
330
1F
100
AcDbEntity
  8
0
  6
Continuous
 62
     7
100
AcDbLine
 10
425.6139214289277
 20
484.5839891725953
 30
-27.57701219793246
 11
425.9815510495278
 21
484.0971103056745
 31
-27.57701219793246
  0
LINE
  5
C6C
330
1F
100
AcDbEntity
  8
0
  6
Continuous
 62
     7
100
AcDbLine
 10
425.1045901101058
 20
480.8839171913994
 30
-27.57701219793246
 11
425.4079474600122
 21
480.4822675516145
 31
-27.57701219793246
  0
LINE
  5
C6D
330
1F
100
AcDbEntity
  8
0
  6
Continuous
 62
     7
100
AcDbLine
 10
424.8013048322689
 20
481.2855668311841
 30
-27.57701219793246
 11
425.1045901101058
 21
480.8839171913994
 31
-27.57701219793246
  0
LINE
  5
C6E
330
1F
100
AcDbEntity
  8
0
  6
Continuous
 62
     7
100
AcDbLine
 10
425.1045901101058
 20
480.8839171913994
 30
-27.57701219793246
 11
424.6738453759406
 21
480.4822675516145
 31
-27.57701219793246
  0
LINE
  5
C6F
330
1F
100
AcDbEntity
  8
0
  6
Continuous
 62
     7
100
AcDbLine
 10
424.8013048322689
 20
481.2855668311841
 30
-27.57701219793246
 11
425.2744880038306
 21
484.2674886798675
 31
-27.57701219793246
  0
LINE
  5
C70
330
1F
100
AcDbEntity
  8
0
  6
Continuous
 62
     7
100
AcDbLine
 10
425.5354069163413
 20
481.2855668311841
 30
-27.57701219793246
 11
425.1045901101058
 21
480.8839171913994
 31
-27.57701219793246
  0
LINE
  5
C71
330
1F
100
AcDbEntity
  8
0
  6
Continuous
 62
     7
100
AcDbLine
 10
425.4079474600122
 20
480.4822675516145
 30
-27.57701219793246
 11
427.9773768263352
 21
480.4822675516145
 31
-27.57701219793246
  0
LINE
  5
C72
330
1F
100
AcDbEntity
  8
0
  6
Continuous
 62
     7
100
AcDbLine
 10
425.2744880038306
 20
484.2674886798675
 30
-27.57701219793246
 11
425.9532827819543
 21
484.900407583242
 31
-27.57701219793246
  0
LINE
  5
C73
330
1F
100
AcDbEntity
  8
0
  6
Continuous
 62
     7
100
AcDbLine
 10
427.6525460034822
 20
476.8674267995562
 30
-27.57701219793246
 11
428.2221015450492
 21
477.3984077674962
 31
-27.57701219793246
  0
LINE
  5
C74
330
1F
100
AcDbEntity
  8
0
  6
Continuous
 62
     7
100
AcDbLine
 10
427.9373247752666
 20
477.1329162825256
 30
-27.57701219793246
 11
427.5311606210784
 21
477.6708061592044
 31
-27.57701219793246
  0
LINE
  5
C75
330
1F
100
AcDbEntity
  8
0
  6
Continuous
 62
     7
100
AcDbLine
 10
424.2005901323083
 20
477.5002656228526
 30
-27.57701219793246
 11
424.6785440745234
 21
476.8674267995562
 31
-27.57701219793246
  0
LINE
  5
C76
330
1F
100
AcDbEntity
  8
0
  6
Continuous
 62
     7
100
AcDbLine
 10
424.4395310673809
 20
477.1838452102034
 30
-27.57701219793246
 11
424.9617312547557
 21
477.6708061592044
 31
-27.57701219793246
  0
LINE
  5
C77
330
1F
100
AcDbEntity
  8
0
  6
Continuous
 62
     7
100
AcDbLine
 10
427.5311606210784
 20
477.6708061592044
 30
-27.57701219793246
 11
424.9617312547557
 21
477.6708061592044
 31
-27.57701219793246
  0
LINE
  5
C78
330
1F
100
AcDbEntity
  8
0
  6
Continuous
 62
     7
100
AcDbLine
 10
424.6785440745234
 20
476.8674267995562
 30
-27.57701219793246
 11
427.6525460034822
 21
476.8674267995562
 31
-27.57701219793246
  0
LINE
  5
C79
330
1F
100
AcDbEntity
  8
0
  6
Continuous
 62
     7
100
AcDbLine
 10
427.9773768263352
 20
480.4822675516145
 30
-27.57701219793246
 11
427.5311606210784
 21
477.6708061592044
 31
-27.57701219793246
  0
LINE
  5
C7A
330
1F
100
AcDbEntity
  8
0
  6
Continuous
 62
     7
100
AcDbLine
 10
428.2221015450492
 20
477.3984077674962
 30
-27.57701219793246
 11
428.711478910407
 21
480.4822675516145
 31
-27.57701219793246
  0
LINE
  5
C7B
330
1F
100
AcDbEntity
  8
0
  6
Continuous
 62
     7
100
AcDbLine
 10
430.3057271194993
 20
484.8839170931566
 30
-27.57701219793246
 11
430.3057271194993
 21
476.8839172896423
 31
-27.57701219793246
  0
LINE
  5
C7C
330
1F
100
AcDbEntity
  8
0
  6
Continuous
 62
     7
100
AcDbLine
 10
424.9617312547557
 20
477.6708061592044
 30
-27.57701219793246
 11
425.4079474600122
 21
480.4822675516145
 31
-27.57701219793246
  0
LINE
  5
C7D
330
1F
100
AcDbEntity
  8
0
  6
Continuous
 62
     7
100
AcDbLine
 10
424.6738453759406
 20
480.4822675516145
 30
-27.57701219793246
 11
424.2005901323083
 21
477.5002656228526
 31
-27.57701219793246
  0
CIRCLE
  5
C7E
330
1F
100
AcDbEntity
  8
0
100
AcDbCircle
 10
423.3057287855746
 20
452.4839193830728
 30
-16.97767311891998
 40
1.99999845672882
  0
ARC
  5
C7F
330
1F
100
AcDbEntity
  8
0
  6
Continuous
 62
     7
100
AcDbCircle
 10
420.8057273528257
 20
441.9839181468094
 30
-16.97767311891998
 40
3.999999901757254
100
AcDbArc
 50
0.0
 51
180.0
  0
ARC
  5
C80
330
1F
100
AcDbEntity
  8
0
  6
Continuous
 62
     7
100
AcDbCircle
 10
402.3057270601233
 20
476.8839165425664
 30
-16.97767311891998
 40
0.9999992283644106
100
AcDbArc
 50
179.9999571957144
 51
270.0000428042887
  0
ARC
  5
C81
330
1F
100
AcDbEntity
  8
0
  6
Continuous
 62
     7
100
AcDbCircle
 10
405.8057269741603
 20
450.4839171909678
 30
-16.97767311891998
 40
0.9999992283644106
100
AcDbArc
 50
179.9999571957079
 51
270.0000428042823
  0
ARC
  5
C82
330
1F
100
AcDbEntity
  8
0
  6
Continuous
 62
     7
100
AcDbCircle
 10
400.8057278440395
 20
441.9839181468094
 30
-16.97767311891998
 40
3.99999990175737
100
AcDbArc
 50
0.0
 51
180.0
  0
CIRCLE
  5
C83
330
1F
100
AcDbEntity
  8
0
100
AcDbCircle
 10
400.805729338189
 20
452.4839193830728
 30
-16.97767311891998
 40
1.99999845672882
  0
ARC
  5
C84
330
1F
100
AcDbEntity
  8
0
  6
Continuous
 62
     7
100
AcDbCircle
 10
410.8057275984324
 20
441.9839181468094
 30
-16.97767311891998
 40
3.999999901757303
100
AcDbArc
 50
0.0
 51
180.0
  0
CIRCLE
  5
C85
330
1F
100
AcDbEntity
  8
0
100
AcDbCircle
 10
415.8057289697796
 20
452.4839193830728
 30
-16.97767311891998
 40
1.99999845672882
  0
CIRCLE
  5
C86
330
1F
100
AcDbEntity
  8
0
100
AcDbCircle
 10
408.3057291539848
 20
452.4839193830728
 30
-16.97767311891998
 40
1.999998456728933
  0
ARC
  5
C87
330
1F
100
AcDbEntity
  8
0
  6
Continuous
 62
     7
100
AcDbCircle
 10
405.8057269741603
 20
457.4839185131938
 30
-16.97767311891998
 40
0.9999992283644106
100
AcDbArc
 50
89.99995719571119
 51
180.0000428042888
  0
ARC
  5
C88
330
1F
100
AcDbEntity
  8
0
  6
Continuous
 62
     7
100
AcDbCircle
 10
402.3057270601233
 20
461.4839169208009
 30
-16.97767311891998
 40
0.9999992283644674
100
AcDbArc
 50
179.9999571957144
 51
270.0000428042823
  0
ARC
  5
C89
330
1F
100
AcDbEntity
  8
0
  6
Continuous
 62
     7
100
AcDbCircle
 10
402.3057270601233
 20
469.4839182184663
 30
-16.97767311891998
 40
0.9999992283644106
100
AcDbArc
 50
89.9999571957047
 51
180.0000428042822
  0
CIRCLE
  5
C8A
330
1F
100
AcDbEntity
  8
0
100
AcDbCircle
 10
414.6288569217904
 20
461.9402322591106
 30
-16.97767311891998
 40
0.3856733760740476
  0
CIRCLE
  5
C8B
330
1F
100
AcDbEntity
  8
0
100
AcDbCircle
 10
407.3288571010831
 20
461.9402322591106
 30
-16.97767311891998
 40
0.3856733760740476
  0
CIRCLE
  5
C8C
330
1F
100
AcDbEntity
  8
0
100
AcDbCircle
 10
421.9288567424974
 20
461.9402322591106
 30
-16.97767311891998
 40
0.3856733760741615
  0
ARC
  5
C8D
330
1F
100
AcDbEntity
  8
0
  6
Continuous
 62
     7
100
AcDbCircle
 10
402.3057270601233
 20
484.8839178402315
 30
-16.97767311891998
 40
0.9999992283644106
100
AcDbArc
 50
89.99995719571119
 51
180.0000428042888
  0
ARC
  5
C8E
330
1F
100
AcDbEntity
  8
0
  6
Continuous
 62
     7
100
AcDbCircle
 10
394.8057272443278
 20
492.4839176535702
 30
-16.97767311891998
 40
0.9999992283644106
100
AcDbArc
 50
89.99995719571119
 51
180.0000428042888
  0
ARC
  5
C8F
330
1F
100
AcDbEntity
  8
0
  6
Continuous
 62
     7
100
AcDbCircle
 10
394.8057272443278
 20
492.4839176535702
 30
-16.97767311891998
 40
0.9999992283644106
100
AcDbArc
 50
89.99995719571119
 51
180.0000428042888
  0
CIRCLE
  5
C90
330
1F
100
AcDbEntity
  8
0
100
AcDbCircle
 10
414.6288569217904
 20
477.3402318808763
 30
-16.97767311891998
 40
0.3856733760740476
  0
CIRCLE
  5
C91
330
1F
100
AcDbEntity
  8
0
100
AcDbCircle
 10
407.3288571010831
 20
477.3402318808757
 30
-16.97767311891998
 40
0.3856733760740476
  0
CIRCLE
  5
C92
330
1F
100
AcDbEntity
  8
0
100
AcDbCircle
 10
421.9288567424974
 20
477.3402318808757
 30
-16.97767311891998
 40
0.3856733760741615
  0
ARC
  5
C93
330
1F
100
AcDbEntity
  8
0
  6
Continuous
 62
     7
100
AcDbCircle
 10
392.8057265463743
 20
500.4839182041599
 30
-16.97767311891998
 40
1.999998456729048
100
AcDbArc
 50
89.99995719571119
 51
180.0000428042888
  0
ARC
  5
C94
330
1F
100
AcDbEntity
  8
0
  6
Continuous
 62
     7
100
AcDbCircle
 10
415.8057271231395
 20
499.4839163820818
 30
-16.97767311891998
 40
2.750000284947354
100
AcDbArc
 50
89.99999265594556
 51
0.0000073440577008
  0
ARC
  5
C95
330
1F
100
AcDbEntity
  8
0
  6
Continuous
 62
     7
100
AcDbCircle
 10
415.8057274756289
 20
499.4839167345709
 30
-16.97767311891998
 40
3.9999999017572
100
AcDbArc
 50
180.0
 51
0.0
  0
LINE
  5
C96
330
1F
100
AcDbEntity
  8
0
  6
Continuous
 62
     7
100
AcDbLine
 10
418.5557274080877
 20
499.4839167345709
 30
-16.97767311891998
 11
418.5557274080877
 21
499.4839167345709
 31
-16.97767311891998
  0
ARC
  5
C97
330
1F
100
AcDbEntity
  8
0
  6
Continuous
 62
     7
100
AcDbCircle
 10
415.8057295300856
 20
499.4839187890272
 30
-16.97767311891998
 40
2.749997878002068
100
AcDbArc
 50
359.9999571957177
 51
90.00004280428877
  0
ARC
  5
C98
330
1F
100
AcDbEntity
  8
0
  6
Continuous
 62
     7
100
AcDbCircle
 10
429.305727891135
 20
476.8839165425672
 30
-16.97767311891998
 40
0.9999992283645241
100
AcDbArc
 50
269.9999571957046
 51
0.0000428042790381
  0
ARC
  5
C99
330
1F
100
AcDbEntity
  8
0
  6
Continuous
 62
     7
100
AcDbCircle
 10
430.8057271072192
 20
441.9839181468094
 30
-16.97767311891998
 40
3.999999901757303
100
AcDbArc
 50
0.0
 51
180.0
  0
CIRCLE
  5
C9A
330
1F
100
AcDbEntity
  8
0
100
AcDbCircle
 10
430.8057286013688
 20
452.4839193830728
 30
-16.97767311891998
 40
1.99999845672882
  0
ARC
  5
C9B
330
1F
100
AcDbEntity
  8
0
  6
Continuous
 62
     7
100
AcDbCircle
 10
433.3057277928925
 20
450.4839171909678
 30
-16.97767311891998
 40
0.9999992283644106
100
AcDbArc
 50
269.9999571957111
 51
0.0000428042920657
  0
ARC
  5
C9C
330
1F
100
AcDbEntity
  8
0
  6
Continuous
 62
     7
100
AcDbCircle
 10
429.305727891135
 20
461.4839169208009
 30
-16.97767311891998
 40
0.9999992283645241
100
AcDbArc
 50
269.9999571957046
 51
0.0000428042855519
  0
CIRCLE
  5
C9D
330
1F
100
AcDbEntity
  8
0
100
AcDbCircle
 10
429.2288565632041
 20
461.9402322591106
 30
-16.97767311891998
 40
0.3856733760740476
  0
ARC
  5
C9E
330
1F
100
AcDbEntity
  8
0
  6
Continuous
 62
     7
100
AcDbCircle
 10
433.3057277928925
 20
457.4839185131938
 30
-16.97767311891998
 40
0.9999992283644674
100
AcDbArc
 50
359.9999571957078
 51
90.0000428042823
  0
ARC
  5
C9F
330
1F
100
AcDbEntity
  8
0
  6
Continuous
 62
     7
100
AcDbCircle
 10
429.305727891135
 20
469.4839182184663
 30
-16.97767311891998
 40
0.9999992283645241
100
AcDbArc
 50
359.9999571957209
 51
90.00004280428877
  0
ARC
  5
CA0
330
1F
100
AcDbEntity
  8
0
  6
Continuous
 62
     7
100
AcDbCircle
 10
429.305727891135
 20
484.8839178402315
 30
-16.97767311891998
 40
0.9999992283645811
100
AcDbArc
 50
359.9999571957209
 51
90.00004280428877
  0
CIRCLE
  5
CA1
330
1F
100
AcDbEntity
  8
0
100
AcDbCircle
 10
429.2288565632041
 20
477.3402318808763
 30
-16.97767311891998
 40
0.3856733760740476
  0
ARC
  5
CA2
330
1F
100
AcDbEntity
  8
0
  6
Continuous
 62
     7
100
AcDbCircle
 10
436.8057277069302
 20
492.4839176535702
 30
-16.97767311891998
 40
0.9999992283644674
100
AcDbArc
 50
359.9999571957078
 51
90.0000428042823
  0
ARC
  5
CA3
330
1F
100
AcDbEntity
  8
0
  6
Continuous
 62
     7
100
AcDbCircle
 10
436.8057277069302
 20
492.4839176535702
 30
-16.97767311891998
 40
0.9999992283644674
100
AcDbArc
 50
359.9999571957078
 51
90.0000428042823
  0
ARC
  5
CA4
330
1F
100
AcDbEntity
  8
0
  6
Continuous
 62
     7
100
AcDbCircle
 10
438.8057284048839
 20
500.4839182041599
 30
-16.97767311891998
 40
1.999998456729048
100
AcDbArc
 50
359.9999571957078
 51
90.0000428042823
  0
CIRCLE
  5
CA5
330
1F
100
AcDbEntity
  8
0
100
AcDbCircle
 10
415.8057295300856
 20
401.4839211959729
 30
-16.97767311891998
 40
2.749997878002231
  0
ENDSEC
  0
SECTION
  2
OBJECTS
  0
DICTIONARY
  5
C
330
0
100
AcDbDictionary
281
     1
  3
ACAD_GROUP
350
D
  3
ACAD_LAYOUT
350
1A
  3
ACAD_MLINESTYLE
350
17
  3
ACAD_PLOTSETTINGS
350
19
  3
ACAD_PLOTSTYLENAME
350
E
  0
DICTIONARY
  5
D
102
{ACAD_REACTORS
330
C
102
}
330
C
100
AcDbDictionary
281
     1
  0
DICTIONARY
  5
1A
102
{ACAD_REACTORS
330
C
102
}
330
C
100
AcDbDictionary
281
     1
  3
Model
350
22
  3
ﾚｲｱｳﾄ1
350
51
  0
DICTIONARY
  5
17
102
{ACAD_REACTORS
330
C
102
}
330
C
100
AcDbDictionary
281
     1
  3
Standard
350
18
  0
DICTIONARY
  5
19
102
{ACAD_REACTORS
330
C
102
}
330
C
100
AcDbDictionary
281
     1
  0
ACDBDICTIONARYWDFLT
  5
E
102
{ACAD_REACTORS
330
C
102
}
330
C
100
AcDbDictionary
281
     1
  3
Normal
350
F
100
AcDbDictionaryWithDefault
340
F
  0
LAYOUT
  5
22
102
{ACAD_REACTORS
330
1A
102
}
330
1A
100
AcDbPlotSettings
  1

  2
none_device
  4
ANSI_A_(8.50_x_11.00_Inches)
  6

 40
6.349999904632567
 41
19.04999923706053
 42
6.350006103515625
 43
19.04998779296875
 44
215.8999938964841
 45
279.3999938964843
 46
0.0
 47
0.0
 48
0.0
 49
0.0
140
0.0
141
0.0
142
1.0
143
78.436453180766
 70
 11952
 72
     0
 73
     1
 74
     0
  7

 75
     0
147
0.0127491741332998
148
0.0
149
0.0
100
AcDbLayout
  1
Model
 70
     1
 71
     0
 10
0.0
 20
0.0
 11
12.0
 21
9.0
 12
0.0
 22
0.0
 32
0.0
 14
0.0
 24
0.0
 34
0.0
 15
0.0
 25
0.0
 35
0.0
146
0.0
 13
0.0
 23
0.0
 33
0.0
 16
1.0
 26
0.0
 36
0.0
 17
0.0
 27
1.0
 37
0.0
 76
     0
330
1F
  0
LAYOUT
  5
51
102
{ACAD_REACTORS
330
1A
102
}
330
1A
100
AcDbPlotSettings
  1

  2
None
  4

  6

 40
0.0
 41
0.0
 42
0.0
 43
0.0
 44
0.0
 45
0.0
 46
0.0
 47
0.0
 48
0.0
 49
0.0
140
0.0
141
0.0
142
1.0
143
1.0
 70
   688
 72
     0
 73
     0
 74
     5
  7

 75
    16
147
1.0
148
0.0
149
0.0
100
AcDbLayout
  1
ﾚｲｱｳﾄ1
 70
     1
 71
     1
 10
0.0
 20
0.0
 11
12.0
 21
9.0
 12
0.0
 22
0.0
 32
0.0
 14
0.0
 24
0.0
 34
0.0
 15
0.0
 25
0.0
 35
0.0
146
0.0
 13
0.0
 23
0.0
 33
0.0
 16
1.0
 26
0.0
 36
0.0
 17
0.0
 27
1.0
 37
0.0
 76
     0
330
50
  0
MLINESTYLE
  5
18
102
{ACAD_REACTORS
330
17
102
}
330
17
100
AcDbMlineStyle
  2
STANDARD
 70
     0
  3

 62
   256
 51
90.0
 52
90.0
 71
     2
 49
0.5
 62
   256
  6
BYLAYER
 49
-0.5
 62
   256
  6
BYLAYER
  0
ACDBPLACEHOLDER
  5
F
102
{ACAD_REACTORS
330
E
102
}
330
E
  0
ENDSEC
  0
EOF
