  0
SECTION
  2
HEADER
  9
$ACADVER
  1
AC1015
  9
$ACADMAINTVER
 70
    10
  9
$DWGCODEPAGE
  3
ANSI_932
  9
$INSBASE
 10
0.0
 20
0.0
 30
0.0
  9
$EXTMIN
 10
302.0971408558815
 20
251.1534907026163
 30
0.0
  9
$EXTMAX
 10
1165.225358795881
 20
579.4671691168303
 30
10.58874000000002
  9
$LIMMIN
 10
0.0
 20
0.0
  9
$LIMMAX
 10
420.0
 20
297.0
  9
$ORTHOMODE
 70
     1
  9
$REGENMODE
 70
     1
  9
$FILLMODE
 70
     1
  9
$QTEXTMODE
 70
     0
  9
$MIRRTEXT
 70
     1
  9
$LTSCALE
 40
1.0
  9
$ATTMODE
 70
     1
  9
$TEXTSIZE
 40
2.5
  9
$TRACEWID
 40
1.0
  9
$TEXTSTYLE
  7
Standard
  9
$CLAYER
  8
0
  9
$CELTYPE
  6
ByLayer
  9
$CECOLOR
 62
   256
  9
$CELTSCALE
 40
1.0
  9
$DISPSILH
 70
     0
  9
$DIMSCALE
 40
1.0
  9
$DIMASZ
 40
2.5
  9
$DIMEXO
 40
0.625
  9
$DIMDLI
 40
3.75
  9
$DIMRND
 40
0.0
  9
$DIMDLE
 40
0.0
  9
$DIMEXE
 40
1.25
  9
$DIMTP
 40
0.0
  9
$DIMTM
 40
0.0
  9
$DIMTXT
 40
2.5
  9
$DIMCEN
 40
2.5
  9
$DIMTSZ
 40
0.0
  9
$DIMTOL
 70
     0
  9
$DIMLIM
 70
     0
  9
$DIMTIH
 70
     0
  9
$DIMTOH
 70
     0
  9
$DIMSE1
 70
     0
  9
$DIMSE2
 70
     0
  9
$DIMTAD
 70
     1
  9
$DIMZIN
 70
     8
  9
$DIMBLK
  1

  9
$DIMASO
 70
     1
  9
$DIMSHO
 70
     1
  9
$DIMPOST
  1

  9
$DIMAPOST
  1

  9
$DIMALT
 70
     0
  9
$DIMALTD
 70
     3
  9
$DIMALTF
 40
0.03937007874016
  9
$DIMLFAC
 40
1.0
  9
$DIMTOFL
 70
     1
  9
$DIMTVP
 40
0.0
  9
$DIMTIX
 70
     0
  9
$DIMSOXD
 70
     0
  9
$DIMSAH
 70
     0
  9
$DIMBLK1
  1

  9
$DIMBLK2
  1

  9
$DIMSTYLE
  2
ISO-25
  9
$DIMCLRD
 70
     0
  9
$DIMCLRE
 70
     0
  9
$DIMCLRT
 70
     0
  9
$DIMTFAC
 40
1.0
  9
$DIMGAP
 40
0.625
  9
$DIMJUST
 70
     0
  9
$DIMSD1
 70
     0
  9
$DIMSD2
 70
     0
  9
$DIMTOLJ
 70
     0
  9
$DIMTZIN
 70
     8
  9
$DIMALTZ
 70
     0
  9
$DIMALTTZ
 70
     0
  9
$DIMUPT
 70
     0
  9
$DIMDEC
 70
     2
  9
$DIMTDEC
 70
     2
  9
$DIMALTU
 70
     2
  9
$DIMALTTD
 70
     3
  9
$DIMTXSTY
  7
Standard
  9
$DIMAUNIT
 70
     0
  9
$DIMADEC
 70
     0
  9
$DIMALTRND
 40
0.0
  9
$DIMAZIN
 70
     0
  9
$DIMDSEP
 70
    44
  9
$DIMATFIT
 70
     3
  9
$DIMFRAC
 70
     0
  9
$DIMLDRBLK
  1

  9
$DIMLUNIT
 70
     2
  9
$DIMLWD
 70
    -2
  9
$DIMLWE
 70
    -2
  9
$DIMTMOVE
 70
     0
  9
$LUNITS
 70
     2
  9
$LUPREC
 70
     4
  9
$SKETCHINC
 40
1.0
  9
$FILLETRAD
 40
10.0
  9
$AUNITS
 70
     0
  9
$AUPREC
 70
     0
  9
$MENU
  1
.
  9
$ELEVATION
 40
0.0
  9
$PELEVATION
 40
0.0
  9
$THICKNESS
 40
0.0
  9
$LIMCHECK
 70
     0
  9
$CHAMFERA
 40
10.0
  9
$CHAMFERB
 40
10.0
  9
$CHAMFERC
 40
20.0
  9
$CHAMFERD
 40
0.0
  9
$SKPOLY
 70
     0
  9
$TDCREATE
 40
2456499.795242199
  9
$TDUCREATE
 40
2456499.420242199
  9
$TDUPDATE
 40
2456500.626790821
  9
$TDUUPDATE
 40
2456500.251790821
  9
$TDINDWG
 40
0.1063107292
  9
$TDUSRTIMER
 40
0.1063105440
  9
$USRTIMER
 70
     1
  9
$ANGBASE
 50
0.0
  9
$ANGDIR
 70
     0
  9
$PDMODE
 70
     0
  9
$PDSIZE
 40
0.0
  9
$PLINEWID
 40
0.0
  9
$SPLFRAME
 70
     0
  9
$SPLINETYPE
 70
     6
  9
$SPLINESEGS
 70
     8
  9
$HANDSEED
  5
7B2
  9
$SURFTAB1
 70
     6
  9
$SURFTAB2
 70
     6
  9
$SURFTYPE
 70
     6
  9
$SURFU
 70
     6
  9
$SURFV
 70
     6
  9
$UCSBASE
  2

  9
$UCSNAME
  2

  9
$UCSORG
 10
0.0
 20
0.0
 30
0.0
  9
$UCSXDIR
 10
1.0
 20
0.0
 30
0.0
  9
$UCSYDIR
 10
0.0
 20
1.0
 30
0.0
  9
$UCSORTHOREF
  2

  9
$UCSORTHOVIEW
 70
     0
  9
$UCSORGTOP
 10
0.0
 20
0.0
 30
0.0
  9
$UCSORGBOTTOM
 10
0.0
 20
0.0
 30
0.0
  9
$UCSORGLEFT
 10
0.0
 20
0.0
 30
0.0
  9
$UCSORGRIGHT
 10
0.0
 20
0.0
 30
0.0
  9
$UCSORGFRONT
 10
0.0
 20
0.0
 30
0.0
  9
$UCSORGBACK
 10
0.0
 20
0.0
 30
0.0
  9
$PUCSBASE
  2

  9
$PUCSNAME
  2

  9
$PUCSORG
 10
0.0
 20
0.0
 30
0.0
  9
$PUCSXDIR
 10
1.0
 20
0.0
 30
0.0
  9
$PUCSYDIR
 10
0.0
 20
1.0
 30
0.0
  9
$PUCSORTHOREF
  2

  9
$PUCSORTHOVIEW
 70
     0
  9
$PUCSORGTOP
 10
0.0
 20
0.0
 30
0.0
  9
$PUCSORGBOTTOM
 10
0.0
 20
0.0
 30
0.0
  9
$PUCSORGLEFT
 10
0.0
 20
0.0
 30
0.0
  9
$PUCSORGRIGHT
 10
0.0
 20
0.0
 30
0.0
  9
$PUCSORGFRONT
 10
0.0
 20
0.0
 30
0.0
  9
$PUCSORGBACK
 10
0.0
 20
0.0
 30
0.0
  9
$USERI1
 70
     0
  9
$USERI2
 70
     0
  9
$USERI3
 70
     0
  9
$USERI4
 70
     0
  9
$USERI5
 70
     0
  9
$USERR1
 40
0.0
  9
$USERR2
 40
0.0
  9
$USERR3
 40
0.0
  9
$USERR4
 40
0.0
  9
$USERR5
 40
0.0
  9
$WORLDVIEW
 70
     1
  9
$SHADEDGE
 70
     3
  9
$SHADEDIF
 70
    70
  9
$TILEMODE
 70
     1
  9
$MAXACTVP
 70
    64
  9
$PINSBASE
 10
0.0
 20
0.0
 30
0.0
  9
$PLIMCHECK
 70
     0
  9
$PEXTMIN
 10
0.0
 20
0.0
 30
0.0
  9
$PEXTMAX
 10
0.0
 20
0.0
 30
0.0
  9
$PLIMMIN
 10
0.0
 20
0.0
  9
$PLIMMAX
 10
12.0
 20
9.0
  9
$UNITMODE
 70
     0
  9
$VISRETAIN
 70
     1
  9
$PLINEGEN
 70
     0
  9
$PSLTSCALE
 70
     1
  9
$TREEDEPTH
 70
  3020
  9
$CMLSTYLE
  2
Standard
  9
$CMLJUST
 70
     0
  9
$CMLSCALE
 40
20.0
  9
$PROXYGRAPHICS
 70
     1
  9
$MEASUREMENT
 70
     1
  9
$CELWEIGHT
370
    -1
  9
$ENDCAPS
280
     0
  9
$JOINSTYLE
280
     0
  9
$LWDISPLAY
290
     0
  9
$INSUNITS
 70
     4
  9
$HYPERLINKBASE
  1

  9
$STYLESHEET
  1

  9
$XEDIT
290
     1
  9
$CEPSNTYPE
380
     0
  9
$PSTYLEMODE
290
     1
  9
$FINGERPRINTGUID
  2
{FDEAD578-A652-11D2-9A35-0060089B3A3F}
  9
$VERSIONGUID
  2
{5C900917-A9E7-4798-AD79-377EB2AC3673}
  9
$EXTNAMES
290
     1
  9
$PSVPSCALE
 40
0.0
  9
$OLESTARTUP
290
     0
  0
ENDSEC
  0
SECTION
  2
CLASSES
  0
CLASS
  1
ACDBDICTIONARYWDFLT
  2
AcDbDictionaryWithDefault
  3
AutoCAD 2000
 90
        0
280
     0
281
     0
  0
CLASS
  1
ACDBPLACEHOLDER
  2
AcDbPlaceHolder
  3
AutoCAD 2000
 90
        0
280
     0
281
     0
  0
CLASS
  1
LAYOUT
  2
AcDbLayout
  3
AutoCAD 2000
 90
        0
280
     0
281
     0
  0
ENDSEC
  0
SECTION
  2
TABLES
  0
TABLE
  2
VPORT
  5
8
330
0
100
AcDbSymbolTable
 70
     2
  0
VPORT
  5
7B1
330
8
100
AcDbSymbolTableRecord
100
AcDbViewportTableRecord
  2
*Active
 70
     0
 10
0.0
 20
0.0
 11
1.0
 21
1.0
 12
741.9411537619045
 22
425.0647066617226
 13
0.0
 23
0.0
 14
10.0
 24
10.0
 15
10.0
 25
10.0
 16
0.0
 26
0.0
 36
1.0
 17
0.0
 27
0.0
 37
0.0
 40
565.1220088891212
 41
1.781954887218045
 42
50.0
 43
0.0
 44
0.0
 50
0.0
 51
0.0
 71
     0
 72
   100
 73
     1
 74
     3
 75
     0
 76
     0
 77
     0
 78
     0
281
     0
 65
     1
110
0.0
120
0.0
130
0.0
111
1.0
121
0.0
131
0.0
112
0.0
122
1.0
132
0.0
 79
     0
146
0.0
  0
ENDTAB
  0
TABLE
  2
LTYPE
  5
5
330
0
100
AcDbSymbolTable
 70
     2
  0
LTYPE
  5
14
330
5
100
AcDbSymbolTableRecord
100
AcDbLinetypeTableRecord
  2
ByBlock
 70
     0
  3

 72
    65
 73
     0
 40
0.0
  0
LTYPE
  5
15
330
5
100
AcDbSymbolTableRecord
100
AcDbLinetypeTableRecord
  2
ByLayer
 70
     0
  3

 72
    65
 73
     0
 40
0.0
  0
LTYPE
  5
16
330
5
100
AcDbSymbolTableRecord
100
AcDbLinetypeTableRecord
  2
Continuous
 70
     0
  3
Solid line
 72
    65
 73
     0
 40
0.0
  0
LTYPE
  5
67
330
5
100
AcDbSymbolTableRecord
100
AcDbLinetypeTableRecord
  2
DASHED
 70
     0
  3
DASHED
 72
    65
 73
     2
 40
0.75
 49
0.5
 74
     0
 49
-0.25
 74
     0
  0
ENDTAB
  0
TABLE
  2
LAYER
  5
2
330
0
100
AcDbSymbolTable
 70
     1
  0
LAYER
  5
10
330
2
100
AcDbSymbolTableRecord
100
AcDbLayerTableRecord
  2
0
 70
     0
 62
     7
  6
Continuous
370
    -3
390
F
  0
ENDTAB
  0
TABLE
  2
STYLE
  5
3
330
0
100
AcDbSymbolTable
 70
     2
  0
STYLE
  5
11
330
3
100
AcDbSymbolTableRecord
100
AcDbTextStyleTableRecord
  2
Standard
 70
     0
 40
0.0
 41
1.0
 50
0.0
 71
     0
 42
2.5
  3
txt
  4

  0
STYLE
  5
68
330
3
100
AcDbSymbolTableRecord
100
AcDbTextStyleTableRecord
  2
_TCW_TXTSTY_1
 70
     0
 40
0.0
 41
1.0
 50
0.0
 71
     0
 42
0.69697
  3
MS PGothic.ttf
  4

1001
ACAD
1000
ＭＳ Ｐゴシック
1071
    32802
  0
ENDTAB
  0
TABLE
  2
VIEW
  5
6
330
0
100
AcDbSymbolTable
 70
     0
  0
ENDTAB
  0
TABLE
  2
UCS
  5
7
330
0
100
AcDbSymbolTable
 70
     0
  0
ENDTAB
  0
TABLE
  2
APPID
  5
9
330
0
100
AcDbSymbolTable
 70
     2
  0
APPID
  5
12
330
9
100
AcDbSymbolTableRecord
100
AcDbRegAppTableRecord
  2
ACAD
 70
     0
  0
APPID
  5
6A
330
9
100
AcDbSymbolTableRecord
100
AcDbRegAppTableRecord
  2
TCAD
 70
     0
  0
ENDTAB
  0
TABLE
  2
DIMSTYLE
  5
A
330
0
100
AcDbSymbolTable
 70
     2
100
AcDbDimStyleTable
 71
     1
340
27
  0
DIMSTYLE
105
27
330
A
100
AcDbSymbolTableRecord
100
AcDbDimStyleTableRecord
  2
ISO-25
 70
     0
 41
2.5
 42
0.625
 43
3.75
 44
1.25
 73
     0
 74
     0
 77
     1
 78
     8
140
2.5
141
2.5
143
0.03937007874016
147
0.625
171
     3
172
     1
271
     2
272
     2
274
     3
278
    44
283
     0
284
     8
340
11
  0
DIMSTYLE
105
69
330
A
100
AcDbSymbolTableRecord
100
AcDbDimStyleTableRecord
  2
STANDARD
 70
     0
  3
<>
  4
<>
 41
3.0
 42
0.5
 43
7.5
 44
1.0
 45
0.1
 73
     0
 74
     0
 77
     1
 78
     8
140
2.439394
143
0.333333
144
3.0
147
0.5
148
0.01
176
     7
177
     7
178
     7
179
     2
271
     2
272
     2
285
     8
286
     8
340
68
341
61
342
61
  0
ENDTAB
  0
TABLE
  2
BLOCK_RECORD
  5
1
330
0
100
AcDbSymbolTable
 70
     1
  0
BLOCK_RECORD
  5
1F
330
1
100
AcDbSymbolTableRecord
100
AcDbBlockTableRecord
  2
*Model_Space
340
22
  0
BLOCK_RECORD
  5
50
330
1
100
AcDbSymbolTableRecord
100
AcDbBlockTableRecord
  2
*Paper_Space
340
51
  0
BLOCK_RECORD
  5
61
330
1
100
AcDbSymbolTableRecord
100
AcDbBlockTableRecord
  2
_OPEN
340
0
  0
ENDTAB
  0
ENDSEC
  0
SECTION
  2
BLOCKS
  0
BLOCK
  5
20
330
1F
100
AcDbEntity
  8
0
100
AcDbBlockBegin
  2
*Model_Space
 70
     0
 10
0.0
 20
0.0
 30
0.0
  3
*Model_Space
  1

  0
ENDBLK
  5
21
330
1F
100
AcDbEntity
  8
0
100
AcDbBlockEnd
  0
BLOCK
  5
52
330
50
100
AcDbEntity
 67
     1
  8
0
100
AcDbBlockBegin
  2
*Paper_Space
 70
     0
 10
0.0
 20
0.0
 30
0.0
  3
*Paper_Space
  1

  0
ENDBLK
  5
53
330
50
100
AcDbEntity
 67
     1
  8
0
100
AcDbBlockEnd
  0
BLOCK
  5
65
330
61
100
AcDbEntity
  8
0
100
AcDbBlockBegin
  2
_OPEN
 70
     0
 10
0.0
 20
0.0
 30
0.0
  3
_OPEN
  1

  0
LINE
  5
62
330
61
100
AcDbEntity
  8
0
  6
ByBlock
 62
     0
100
AcDbLine
 10
-1.0
 20
0.166667
 30
0.0
 11
0.0
 21
0.0
 31
0.0
  0
LINE
  5
63
330
61
100
AcDbEntity
  8
0
  6
ByBlock
 62
     0
100
AcDbLine
 10
0.0
 20
0.0
 30
0.0
 11
-1.0
 21
-0.166667
 31
0.0
  0
LINE
  5
64
330
61
100
AcDbEntity
  8
0
  6
ByBlock
 62
     0
100
AcDbLine
 10
0.0
 20
0.0
 30
0.0
 11
-1.0
 21
0.0
 31
0.0
  0
ENDBLK
  5
66
330
61
100
AcDbEntity
  8
0
100
AcDbBlockEnd
  0
ENDSEC
  0
SECTION
  2
ENTITIES
  0
CIRCLE
  5
3F6
330
1F
100
AcDbEntity
  8
0
  6
Continuous
 62
     7
370
     0
100
AcDbCircle
 10
967.9147085335202
 20
408.3103331473628
 30
0.0
 40
2.995197762361396
  0
CIRCLE
  5
3F7
330
1F
100
AcDbEntity
  8
0
  6
Continuous
 62
     7
370
     0
100
AcDbCircle
 10
967.9147091646493
 20
408.3103337784915
 30
0.0
 40
3.839997131232553
  0
CIRCLE
  5
3F8
330
1F
100
AcDbEntity
  8
0
  6
Continuous
 62
     7
370
     0
100
AcDbCircle
 10
1144.514692164648
 20
322.8103427784913
 30
0.0
 40
3.839997131232553
  0
CIRCLE
  5
3F9
330
1F
100
AcDbEntity
  8
0
  6
Continuous
 62
     7
370
     0
100
AcDbCircle
 10
1144.51469153352
 20
322.8103421473619
 30
0.0
 40
2.995197762361396
  0
CIRCLE
  5
3FA
330
1F
100
AcDbEntity
  8
0
  6
Continuous
 62
     7
370
     0
100
AcDbCircle
 10
1144.51469153352
 20
502.8103241473629
 30
0.0
 40
2.995197762361396
  0
CIRCLE
  5
3FB
330
1F
100
AcDbEntity
  8
0
  6
Continuous
 62
     7
370
     0
100
AcDbCircle
 10
1144.514692164648
 20
502.8103247784915
 30
0.0
 40
3.839997131232553
  0
CIRCLE
  5
3FC
330
1F
100
AcDbEntity
  8
0
  6
Continuous
 62
     7
370
     0
100
AcDbCircle
 10
967.9147121646492
 20
528.3103217784915
 30
0.0
 40
3.839997131232553
  0
CIRCLE
  5
3FD
330
1F
100
AcDbEntity
  8
0
  6
Continuous
 62
     7
370
     0
100
AcDbCircle
 10
967.9147115335201
 20
528.3103211473628
 30
0.0
 40
2.995197762361396
  0
CIRCLE
  5
3FE
330
1F
100
AcDbEntity
  8
0
  6
Continuous
 62
     7
370
     0
100
AcDbCircle
 10
718.4147469853521
 20
502.8103215991933
 30
0.0
 40
3.599997310530256
  0
CIRCLE
  5
3FF
330
1F
100
AcDbEntity
  8
0
  6
Continuous
 62
     7
370
     0
100
AcDbCircle
 10
314.414784834441
 20
502.8103184482828
 30
0.0
 40
3.60000046144054
  0
CIRCLE
  5
400
330
1F
100
AcDbEntity
  8
0
  6
Continuous
 62
     7
370
     0
100
AcDbCircle
 10
314.4147789853523
 20
322.8103425991935
 30
0.0
 40
3.599997310530312
  0
CIRCLE
  5
401
330
1F
100
AcDbEntity
  8
0
  6
Continuous
 62
     7
370
     0
100
AcDbCircle
 10
718.4147439853517
 20
322.8103425991935
 30
0.0
 40
3.599997310530516
  0
CIRCLE
  5
402
330
1F
100
AcDbEntity
  8
0
  6
DASHED
 62
     4
370
     0
100
AcDbCircle
 10
516.4147656702539
 20
288.8103432840955
 30
0.0
 40
3.178221625628712
  0
CIRCLE
  5
403
330
1F
100
AcDbEntity
  8
0
  6
DASHED
 62
     4
370
     0
100
AcDbCircle
 10
688.4147512180263
 20
295.8103438318678
 30
0.0
 40
5.24999607785646
  0
CIRCLE
  5
404
330
1F
100
AcDbEntity
  8
0
  6
DASHED
 62
     4
370
     0
100
AcDbCircle
 10
618.4147582180258
 20
295.8103438318678
 30
0.0
 40
5.249996077856033
  0
CIRCLE
  5
405
330
1F
100
AcDbEntity
  8
0
  6
DASHED
 62
     4
370
     0
100
AcDbCircle
 10
551.4147652180263
 20
295.8103438318678
 30
0.0
 40
5.249996077856676
  0
CIRCLE
  5
406
330
1F
100
AcDbEntity
  8
0
  6
DASHED
 62
     4
370
     0
100
AcDbCircle
 10
481.4147722180265
 20
295.8103438318678
 30
0.0
 40
5.249996077856653
  0
CIRCLE
  5
407
330
1F
100
AcDbEntity
  8
0
  6
DASHED
 62
     4
370
     0
100
AcDbCircle
 10
414.4147777180263
 20
295.8103453318652
 30
0.0
 40
5.249994577857995
  0
CIRCLE
  5
408
330
1F
100
AcDbEntity
  8
0
  6
DASHED
 62
     4
370
     0
100
AcDbCircle
 10
344.4147847180262
 20
295.8103453318652
 30
0.0
 40
5.249994577857995
  0
CIRCLE
  5
409
330
1F
100
AcDbEntity
  8
0
  6
Continuous
 62
     7
100
AcDbCircle
 10
584.9147842958826
 20
495.8103306509465
 30
0.0
 40
2.999997758775232
  0
CIRCLE
  5
40A
330
1F
100
AcDbEntity
  8
0
  6
Continuous
 62
     7
100
AcDbCircle
 10
584.9147842958826
 20
482.810330650946
 30
0.0
 40
2.999997758775232
  0
LINE
  5
40B
330
1F
100
AcDbEntity
  8
0
  6
Continuous
 62
     7
100
AcDbLine
 10
590.9147820546572
 20
462.8103328921721
 30
0.0
 11
590.9147820546572
 21
454.8103328921722
 31
0.0
  0
CIRCLE
  5
40C
330
1F
100
AcDbEntity
  8
0
  6
Continuous
 62
     7
100
AcDbCircle
 10
584.9147842958826
 20
469.8103306509463
 30
0.0
 40
2.999997758775121
  0
CIRCLE
  5
40D
330
1F
100
AcDbEntity
  8
0
  6
Continuous
 62
     7
100
AcDbCircle
 10
591.9147842958822
 20
434.8103306509464
 30
0.0
 40
2.999997758775232
  0
LINE
  5
40E
330
1F
100
AcDbEntity
  8
0
  6
Continuous
 62
     7
100
AcDbLine
 10
590.9147820546572
 20
450.8103328921718
 30
0.0
 11
590.9147820546572
 21
442.8103328921722
 31
0.0
  0
CIRCLE
  5
40F
330
1F
100
AcDbEntity
  8
0
  6
DASHED
 62
     4
100
AcDbCircle
 10
554.069960537108
 20
527.244794150949
 30
10.58874000000002
 40
2.999997758775347
  0
CIRCLE
  5
410
330
1F
100
AcDbEntity
  8
0
  6
DASHED
 62
     4
100
AcDbCircle
 10
557.9233885371077
 20
516.968980150948
 30
10.58874000000002
 40
2.999997758775347
  0
CIRCLE
  5
411
330
1F
100
AcDbEntity
  8
0
  6
DASHED
 62
     4
100
AcDbCircle
 10
550.3033885371078
 20
516.968980150948
 30
10.58874000000002
 40
2.999997758775347
  0
CIRCLE
  5
412
330
1F
100
AcDbEntity
  8
0
  6
DASHED
 62
     4
100
AcDbCircle
 10
538.8299605371078
 20
527.244794150949
 30
10.58874000000002
 40
2.999997758775347
  0
CIRCLE
  5
413
330
1F
100
AcDbEntity
  8
0
  6
DASHED
 62
     4
100
AcDbCircle
 10
542.6833885371077
 20
516.968980150948
 30
10.58874000000002
 40
2.999997758775347
  0
CIRCLE
  5
414
330
1F
100
AcDbEntity
  8
0
  6
DASHED
 62
     4
100
AcDbCircle
 10
523.5899605371078
 20
527.244794150949
 30
10.58874000000002
 40
2.999997758775347
  0
CIRCLE
  5
415
330
1F
100
AcDbEntity
  8
0
  6
DASHED
 62
     4
100
AcDbCircle
 10
527.4433885371077
 20
516.968980150948
 30
10.58874000000002
 40
2.999997758775347
  0
CIRCLE
  5
416
330
1F
100
AcDbEntity
  8
0
  6
DASHED
 62
     4
100
AcDbCircle
 10
535.0633885371077
 20
516.968980150948
 30
10.58874000000002
 40
2.999997758775347
  0
CIRCLE
  5
417
330
1F
100
AcDbEntity
  8
0
  6
DASHED
 62
     4
100
AcDbCircle
 10
531.2099605371081
 20
527.244794150949
 30
10.58874000000002
 40
2.999997758775347
  0
CIRCLE
  5
418
330
1F
100
AcDbEntity
  8
0
  6
DASHED
 62
     4
100
AcDbCircle
 10
546.4499605371078
 20
527.244794150949
 30
10.58874000000002
 40
2.999997758775347
  0
CIRCLE
  5
419
330
1F
100
AcDbEntity
  8
0
  6
DASHED
 62
     4
100
AcDbCircle
 10
508.3499605371076
 20
527.244794150949
 30
10.58874000000002
 40
2.999997758775347
  0
CIRCLE
  5
41A
330
1F
100
AcDbEntity
  8
0
  6
DASHED
 62
     4
100
AcDbCircle
 10
512.2033885371073
 20
516.968980150948
 30
10.58874000000002
 40
2.999997758775347
  0
CIRCLE
  5
41B
330
1F
100
AcDbEntity
  8
0
  6
DASHED
 62
     4
100
AcDbCircle
 10
493.1099605371078
 20
527.244794150949
 30
10.58874000000002
 40
2.999997758775347
  0
CIRCLE
  5
41C
330
1F
100
AcDbEntity
  8
0
  6
DASHED
 62
     4
100
AcDbCircle
 10
496.9633885371074
 20
516.968980150948
 30
10.58874000000002
 40
2.999997758775347
  0
CIRCLE
  5
41D
330
1F
100
AcDbEntity
  8
0
  6
DASHED
 62
     4
100
AcDbCircle
 10
504.5833885371076
 20
516.968980150948
 30
10.58874000000002
 40
2.999997758775347
  0
CIRCLE
  5
41E
330
1F
100
AcDbEntity
  8
0
  6
DASHED
 62
     4
100
AcDbCircle
 10
500.7299605371078
 20
527.244794150949
 30
10.58874000000002
 40
2.999997758775347
  0
CIRCLE
  5
41F
330
1F
100
AcDbEntity
  8
0
  6
DASHED
 62
     4
100
AcDbCircle
 10
477.8699605371078
 20
527.244794150949
 30
10.58874000000002
 40
2.999997758775347
  0
CIRCLE
  5
420
330
1F
100
AcDbEntity
  8
0
  6
DASHED
 62
     4
100
AcDbCircle
 10
481.7233885371073
 20
516.968980150948
 30
10.58874000000002
 40
2.999997758775347
  0
CIRCLE
  5
421
330
1F
100
AcDbEntity
  8
0
  6
DASHED
 62
     4
100
AcDbCircle
 10
470.2499605371076
 20
527.244794150949
 30
10.58874000000002
 40
2.999997758775462
  0
CIRCLE
  5
422
330
1F
100
AcDbEntity
  8
0
  6
DASHED
 62
     4
100
AcDbCircle
 10
462.6299605371073
 20
527.244794150949
 30
10.58874000000002
 40
2.999997758775462
  0
CIRCLE
  5
423
330
1F
100
AcDbEntity
  8
0
  6
DASHED
 62
     4
100
AcDbCircle
 10
466.4833885371073
 20
516.968980150948
 30
10.58874000000002
 40
2.999997758775462
  0
CIRCLE
  5
424
330
1F
100
AcDbEntity
  8
0
  6
DASHED
 62
     4
100
AcDbCircle
 10
474.1033885371074
 20
516.968980150948
 30
10.58874000000002
 40
2.999997758775347
  0
CIRCLE
  5
425
330
1F
100
AcDbEntity
  8
0
  6
DASHED
 62
     4
100
AcDbCircle
 10
489.3433885371074
 20
516.968980150948
 30
10.58874000000002
 40
2.999997758775347
  0
CIRCLE
  5
426
330
1F
100
AcDbEntity
  8
0
  6
DASHED
 62
     4
100
AcDbCircle
 10
485.4899605371073
 20
527.244794150949
 30
10.58874000000002
 40
2.999997758775347
  0
CIRCLE
  5
427
330
1F
100
AcDbEntity
  8
0
  6
DASHED
 62
     4
100
AcDbCircle
 10
519.8233885371076
 20
516.968980150948
 30
10.58874000000002
 40
2.999997758775347
  0
CIRCLE
  5
428
330
1F
100
AcDbEntity
  8
0
  6
DASHED
 62
     4
100
AcDbCircle
 10
515.9699605371078
 20
527.244794150949
 30
10.58874000000002
 40
2.999997758775347
  0
CIRCLE
  5
429
330
1F
100
AcDbEntity
  8
0
  6
DASHED
 62
     4
100
AcDbCircle
 10
455.0099605371074
 20
527.244794150949
 30
10.58874000000002
 40
2.999997758775462
  0
CIRCLE
  5
42A
330
1F
100
AcDbEntity
  8
0
  6
DASHED
 62
     4
100
AcDbCircle
 10
451.2433885371073
 20
516.968980150948
 30
10.58874000000002
 40
2.999997758775462
  0
CIRCLE
  5
42B
330
1F
100
AcDbEntity
  8
0
  6
DASHED
 62
     4
100
AcDbCircle
 10
458.8633885371073
 20
516.968980150948
 30
10.58874000000002
 40
2.999997758775462
  0
LINE
  5
42C
330
1F
100
AcDbEntity
  8
0
  6
DASHED
 62
     4
 48
5.0
100
AcDbLine
 10
556.0699602958821
 20
526.7447919097228
 30
0.0
 11
556.0699602958821
 21
526.7447919097228
 31
0.0
  0
LINE
  5
42D
330
1F
100
AcDbEntity
  8
0
  6
DASHED
 62
     4
 48
5.0
100
AcDbLine
 10
556.0699602958821
 20
526.7447919097228
 30
0.0
 11
556.0699602958821
 21
527.7447919097231
 31
0.0
  0
LINE
  5
42E
330
1F
100
AcDbEntity
  8
0
  6
DASHED
 62
     4
 48
5.0
100
AcDbLine
 10
554.5699602958825
 20
529.2447919097229
 30
0.0
 11
553.5699602958823
 21
529.2447919097229
 31
0.0
  0
LINE
  5
42F
330
1F
100
AcDbEntity
  8
0
  6
DASHED
 62
     4
 48
5.0
100
AcDbLine
 10
553.5699602958823
 20
527.7447919097231
 30
0.0
 11
552.0699602958822
 21
527.7447919097231
 31
0.0
  0
LINE
  5
430
330
1F
100
AcDbEntity
  8
0
  6
DASHED
 62
     4
 48
5.0
100
AcDbLine
 10
554.5699602958825
 20
525.2447919097233
 30
0.0
 11
554.5699602958825
 21
526.7447919097228
 31
0.0
  0
LINE
  5
431
330
1F
100
AcDbEntity
  8
0
  6
DASHED
 62
     4
 48
5.0
100
AcDbLine
 10
553.5699602958823
 20
525.2447919097233
 30
0.0
 11
554.5699602958825
 21
525.2447919097233
 31
0.0
  0
LINE
  5
432
330
1F
100
AcDbEntity
  8
0
  6
DASHED
 62
     4
 48
5.0
100
AcDbLine
 10
553.5699602958823
 20
526.7447919097228
 30
0.0
 11
553.5699602958823
 21
525.2447919097233
 31
0.0
  0
LINE
  5
433
330
1F
100
AcDbEntity
  8
0
  6
DASHED
 62
     4
 48
5.0
100
AcDbLine
 10
552.0699602958822
 20
526.7447919097228
 30
0.0
 11
553.5699602958823
 21
526.7447919097228
 31
0.0
  0
LINE
  5
434
330
1F
100
AcDbEntity
  8
0
  6
DASHED
 62
     4
 48
5.0
100
AcDbLine
 10
552.0699602958822
 20
527.7447919097231
 30
0.0
 11
552.0699602958822
 21
526.7447919097228
 31
0.0
  0
LINE
  5
435
330
1F
100
AcDbEntity
  8
0
  6
DASHED
 62
     4
 48
5.0
100
AcDbLine
 10
548.4499602958821
 20
526.7447919097228
 30
0.0
 11
548.4499602958821
 21
526.7447919097228
 31
0.0
  0
LINE
  5
436
330
1F
100
AcDbEntity
  8
0
  6
DASHED
 62
     4
 48
5.0
100
AcDbLine
 10
548.4499602958821
 20
526.7447919097228
 30
0.0
 11
548.4499602958821
 21
527.7447919097231
 31
0.0
  0
LINE
  5
437
330
1F
100
AcDbEntity
  8
0
  6
DASHED
 62
     4
 48
5.0
100
AcDbLine
 10
553.5699602958823
 20
529.2447919097229
 30
0.0
 11
553.5699602958823
 21
527.7447919097231
 31
0.0
  0
LINE
  5
438
330
1F
100
AcDbEntity
  8
0
  6
DASHED
 62
     4
 48
5.0
100
AcDbLine
 10
554.5699602958825
 20
527.7447919097231
 30
0.0
 11
554.5699602958825
 21
529.2447919097229
 31
0.0
  0
LINE
  5
439
330
1F
100
AcDbEntity
  8
0
  6
DASHED
 62
     4
 48
5.0
100
AcDbLine
 10
556.0699602958821
 20
527.7447919097231
 30
0.0
 11
554.5699602958825
 21
527.7447919097231
 31
0.0
  0
LINE
  5
43A
330
1F
100
AcDbEntity
  8
0
  6
DASHED
 62
     4
 48
5.0
100
AcDbLine
 10
554.5699602958825
 20
526.7447919097228
 30
0.0
 11
556.0699602958821
 21
526.7447919097228
 31
0.0
  0
LINE
  5
43B
330
1F
100
AcDbEntity
  8
0
  6
DASHED
 62
     4
 48
5.0
100
AcDbLine
 10
558.4233862958816
 20
518.9689779097233
 30
0.0
 11
557.4233862958817
 21
518.9689779097233
 31
0.0
  0
LINE
  5
43C
330
1F
100
AcDbEntity
  8
0
  6
DASHED
 62
     4
 48
5.0
100
AcDbLine
 10
559.9233862958823
 20
517.4689779097233
 30
0.0
 11
558.4233862958816
 21
517.4689779097233
 31
0.0
  0
LINE
  5
43D
330
1F
100
AcDbEntity
  8
0
  6
DASHED
 62
     4
 48
5.0
100
AcDbLine
 10
559.9233862958823
 20
516.4689779097228
 30
0.0
 11
559.9233862958823
 21
516.4689779097228
 31
0.0
  0
LINE
  5
43E
330
1F
100
AcDbEntity
  8
0
  6
DASHED
 62
     4
 48
5.0
100
AcDbLine
 10
558.4233862958816
 20
516.4689779097228
 30
0.0
 11
559.9233862958823
 21
516.4689779097228
 31
0.0
  0
LINE
  5
43F
330
1F
100
AcDbEntity
  8
0
  6
DASHED
 62
     4
 48
5.0
100
AcDbLine
 10
558.4233862958816
 20
514.9689779097228
 30
0.0
 11
558.4233862958816
 21
516.4689779097228
 31
0.0
  0
LINE
  5
440
330
1F
100
AcDbEntity
  8
0
  6
DASHED
 62
     4
 48
5.0
100
AcDbLine
 10
559.9233862958823
 20
516.4689779097228
 30
0.0
 11
559.9233862958823
 21
517.4689779097233
 31
0.0
  0
LINE
  5
441
330
1F
100
AcDbEntity
  8
0
  6
DASHED
 62
     4
 48
5.0
100
AcDbLine
 10
557.4233862958817
 20
517.4689779097233
 30
0.0
 11
555.9233862958826
 21
517.4689779097233
 31
0.0
  0
LINE
  5
442
330
1F
100
AcDbEntity
  8
0
  6
DASHED
 62
     4
 48
5.0
100
AcDbLine
 10
555.9233862958826
 20
516.4689779097228
 30
0.0
 11
557.4233862958817
 21
516.4689779097228
 31
0.0
  0
LINE
  5
443
330
1F
100
AcDbEntity
  8
0
  6
DASHED
 62
     4
 48
5.0
100
AcDbLine
 10
555.9233862958826
 20
517.4689779097233
 30
0.0
 11
555.9233862958826
 21
516.4689779097228
 31
0.0
  0
LINE
  5
444
330
1F
100
AcDbEntity
  8
0
  6
DASHED
 62
     4
 48
5.0
100
AcDbLine
 10
557.4233862958817
 20
516.4689779097228
 30
0.0
 11
557.4233862958817
 21
514.9689779097228
 31
0.0
  0
LINE
  5
445
330
1F
100
AcDbEntity
  8
0
  6
DASHED
 62
     4
 48
5.0
100
AcDbLine
 10
557.4233862958817
 20
514.9689779097228
 30
0.0
 11
558.4233862958816
 21
514.9689779097228
 31
0.0
  0
LINE
  5
446
330
1F
100
AcDbEntity
  8
0
  6
DASHED
 62
     4
 48
5.0
100
AcDbLine
 10
558.4233862958816
 20
517.4689779097233
 30
0.0
 11
558.4233862958816
 21
518.9689779097233
 31
0.0
  0
LINE
  5
447
330
1F
100
AcDbEntity
  8
0
  6
DASHED
 62
     4
 48
5.0
100
AcDbLine
 10
557.4233862958817
 20
518.9689779097233
 30
0.0
 11
557.4233862958817
 21
517.4689779097233
 31
0.0
  0
LINE
  5
448
330
1F
100
AcDbEntity
  8
0
  6
DASHED
 62
     4
 48
5.0
100
AcDbLine
 10
550.8033862958816
 20
518.9689779097233
 30
0.0
 11
549.8033862958821
 21
518.9689779097233
 31
0.0
  0
LINE
  5
449
330
1F
100
AcDbEntity
  8
0
  6
DASHED
 62
     4
 48
5.0
100
AcDbLine
 10
552.3033862958825
 20
516.4689779097228
 30
0.0
 11
552.3033862958825
 21
516.4689779097228
 31
0.0
  0
LINE
  5
44A
330
1F
100
AcDbEntity
  8
0
  6
DASHED
 62
     4
 48
5.0
100
AcDbLine
 10
552.3033862958825
 20
516.4689779097228
 30
0.0
 11
552.3033862958825
 21
517.4689779097233
 31
0.0
  0
LINE
  5
44B
330
1F
100
AcDbEntity
  8
0
  6
DASHED
 62
     4
 48
5.0
100
AcDbLine
 10
549.8033862958821
 20
517.4689779097233
 30
0.0
 11
548.3033862958825
 21
517.4689779097233
 31
0.0
  0
LINE
  5
44C
330
1F
100
AcDbEntity
  8
0
  6
DASHED
 62
     4
 48
5.0
100
AcDbLine
 10
548.3033862958825
 20
516.4689779097228
 30
0.0
 11
549.8033862958821
 21
516.4689779097228
 31
0.0
  0
LINE
  5
44D
330
1F
100
AcDbEntity
  8
0
  6
DASHED
 62
     4
 48
5.0
100
AcDbLine
 10
548.3033862958825
 20
517.4689779097233
 30
0.0
 11
548.3033862958825
 21
516.4689779097228
 31
0.0
  0
LINE
  5
44E
330
1F
100
AcDbEntity
  8
0
  6
DASHED
 62
     4
 48
5.0
100
AcDbLine
 10
550.8033862958816
 20
514.9689779097228
 30
0.0
 11
550.8033862958816
 21
516.4689779097228
 31
0.0
  0
LINE
  5
44F
330
1F
100
AcDbEntity
  8
0
  6
DASHED
 62
     4
 48
5.0
100
AcDbLine
 10
549.8033862958821
 20
516.4689779097228
 30
0.0
 11
549.8033862958821
 21
514.9689779097228
 31
0.0
  0
LINE
  5
450
330
1F
100
AcDbEntity
  8
0
  6
DASHED
 62
     4
 48
5.0
100
AcDbLine
 10
549.8033862958821
 20
514.9689779097228
 30
0.0
 11
550.8033862958816
 21
514.9689779097228
 31
0.0
  0
LINE
  5
451
330
1F
100
AcDbEntity
  8
0
  6
DASHED
 62
     4
 48
5.0
100
AcDbLine
 10
552.3033862958825
 20
517.4689779097233
 30
0.0
 11
550.8033862958816
 21
517.4689779097233
 31
0.0
  0
LINE
  5
452
330
1F
100
AcDbEntity
  8
0
  6
DASHED
 62
     4
 48
5.0
100
AcDbLine
 10
550.8033862958816
 20
516.4689779097228
 30
0.0
 11
552.3033862958825
 21
516.4689779097228
 31
0.0
  0
LINE
  5
453
330
1F
100
AcDbEntity
  8
0
  6
DASHED
 62
     4
 48
5.0
100
AcDbLine
 10
550.8033862958816
 20
517.4689779097233
 30
0.0
 11
550.8033862958816
 21
518.9689779097233
 31
0.0
  0
LINE
  5
454
330
1F
100
AcDbEntity
  8
0
  6
DASHED
 62
     4
 48
5.0
100
AcDbLine
 10
549.8033862958821
 20
518.9689779097233
 30
0.0
 11
549.8033862958821
 21
517.4689779097233
 31
0.0
  0
LINE
  5
455
330
1F
100
AcDbEntity
  8
0
  6
DASHED
 62
     4
 48
5.0
100
AcDbLine
 10
550.8847842958821
 20
522.5103159097228
 30
0.0
 11
550.8847842958821
 21
531.5103159097231
 31
0.0
  0
LINE
  5
456
330
1F
100
AcDbEntity
  8
0
  6
DASHED
 62
     4
 48
5.0
100
AcDbLine
 10
549.5647842958826
 20
522.5103159097228
 30
0.0
 11
549.5647842958826
 21
531.5103159097231
 31
0.0
  0
LINE
  5
457
330
1F
100
AcDbEntity
  8
0
  6
DASHED
 62
     4
 48
5.0
100
AcDbLine
 10
558.5047842958821
 20
522.5103159097228
 30
0.0
 11
558.5047842958821
 21
531.5103159097231
 31
0.0
  0
LINE
  5
458
330
1F
100
AcDbEntity
  8
0
  6
DASHED
 62
     4
 48
5.0
100
AcDbLine
 10
557.1847842958828
 20
522.5103159097228
 30
0.0
 11
557.1847842958828
 21
531.5103159097231
 31
0.0
  0
CIRCLE
  5
459
330
1F
100
AcDbEntity
  8
0
  6
Continuous
 62
     7
100
AcDbCircle
 10
574.9147842958826
 20
495.8103306509465
 30
0.0
 40
2.999997758775232
  0
CIRCLE
  5
45A
330
1F
100
AcDbEntity
  8
0
  6
Continuous
 62
     7
100
AcDbCircle
 10
563.3916375488072
 20
495.8103313980227
 30
0.0
 40
1.999998505850385
  0
LINE
  5
45B
330
1F
100
AcDbEntity
  8
0
  6
DASHED
 62
     4
 48
5.0
100
AcDbLine
 10
562.3147842958826
 20
512.5103159097228
 30
0.0
 11
562.3147842958826
 21
531.5103159097231
 31
0.0
  0
LINE
  5
45C
330
1F
100
AcDbEntity
  8
0
  6
DASHED
 62
     4
 48
5.0
100
AcDbLine
 10
560.9947842958823
 20
512.5103159097228
 30
0.0
 11
560.9947842958823
 21
522.5103159097228
 31
0.0
  0
LINE
  5
45D
330
1F
100
AcDbEntity
  8
0
  6
DASHED
 62
     4
 48
5.0
100
AcDbLine
 10
554.6947842958827
 20
512.5103159097228
 30
0.0
 11
554.6947842958827
 21
522.5103159097228
 31
0.0
  0
LINE
  5
45E
330
1F
100
AcDbEntity
  8
0
  6
DASHED
 62
     4
 48
5.0
100
AcDbLine
 10
553.3747842958826
 20
512.5103159097228
 30
0.0
 11
553.3747842958826
 21
522.5103159097228
 31
0.0
  0
LINE
  5
45F
330
1F
100
AcDbEntity
  8
0
  6
DASHED
 62
     4
 48
5.0
100
AcDbLine
 10
546.9499602958823
 20
529.2447919097229
 30
0.0
 11
545.949960295882
 21
529.2447919097229
 31
0.0
  0
LINE
  5
460
330
1F
100
AcDbEntity
  8
0
  6
DASHED
 62
     4
 48
5.0
100
AcDbLine
 10
545.949960295882
 20
527.7447919097231
 30
0.0
 11
544.4499602958821
 21
527.7447919097231
 31
0.0
  0
LINE
  5
461
330
1F
100
AcDbEntity
  8
0
  6
DASHED
 62
     4
 48
5.0
100
AcDbLine
 10
546.9499602958823
 20
525.2447919097233
 30
0.0
 11
546.9499602958823
 21
526.7447919097228
 31
0.0
  0
LINE
  5
462
330
1F
100
AcDbEntity
  8
0
  6
DASHED
 62
     4
 48
5.0
100
AcDbLine
 10
545.949960295882
 20
525.2447919097233
 30
0.0
 11
546.9499602958823
 21
525.2447919097233
 31
0.0
  0
LINE
  5
463
330
1F
100
AcDbEntity
  8
0
  6
DASHED
 62
     4
 48
5.0
100
AcDbLine
 10
545.949960295882
 20
526.7447919097228
 30
0.0
 11
545.949960295882
 21
525.2447919097233
 31
0.0
  0
LINE
  5
464
330
1F
100
AcDbEntity
  8
0
  6
DASHED
 62
     4
 48
5.0
100
AcDbLine
 10
544.4499602958821
 20
526.7447919097228
 30
0.0
 11
545.949960295882
 21
526.7447919097228
 31
0.0
  0
LINE
  5
465
330
1F
100
AcDbEntity
  8
0
  6
DASHED
 62
     4
 48
5.0
100
AcDbLine
 10
544.4499602958821
 20
527.7447919097231
 30
0.0
 11
544.4499602958821
 21
526.7447919097228
 31
0.0
  0
LINE
  5
466
330
1F
100
AcDbEntity
  8
0
  6
DASHED
 62
     4
 48
5.0
100
AcDbLine
 10
540.8299602958821
 20
526.7447919097228
 30
0.0
 11
540.8299602958821
 21
526.7447919097228
 31
0.0
  0
LINE
  5
467
330
1F
100
AcDbEntity
  8
0
  6
DASHED
 62
     4
 48
5.0
100
AcDbLine
 10
540.8299602958821
 20
526.7447919097228
 30
0.0
 11
540.8299602958821
 21
527.7447919097231
 31
0.0
  0
LINE
  5
468
330
1F
100
AcDbEntity
  8
0
  6
DASHED
 62
     4
 48
5.0
100
AcDbLine
 10
545.949960295882
 20
529.2447919097229
 30
0.0
 11
545.949960295882
 21
527.7447919097231
 31
0.0
  0
LINE
  5
469
330
1F
100
AcDbEntity
  8
0
  6
DASHED
 62
     4
 48
5.0
100
AcDbLine
 10
546.9499602958823
 20
527.7447919097231
 30
0.0
 11
546.9499602958823
 21
529.2447919097229
 31
0.0
  0
LINE
  5
46A
330
1F
100
AcDbEntity
  8
0
  6
DASHED
 62
     4
 48
5.0
100
AcDbLine
 10
539.3299602958825
 20
529.2447919097229
 30
0.0
 11
538.329960295882
 21
529.2447919097229
 31
0.0
  0
LINE
  5
46B
330
1F
100
AcDbEntity
  8
0
  6
DASHED
 62
     4
 48
5.0
100
AcDbLine
 10
538.329960295882
 20
527.7447919097231
 30
0.0
 11
536.8299602958821
 21
527.7447919097231
 31
0.0
  0
LINE
  5
46C
330
1F
100
AcDbEntity
  8
0
  6
DASHED
 62
     4
 48
5.0
100
AcDbLine
 10
539.3299602958825
 20
525.2447919097233
 30
0.0
 11
539.3299602958825
 21
526.7447919097228
 31
0.0
  0
LINE
  5
46D
330
1F
100
AcDbEntity
  8
0
  6
DASHED
 62
     4
 48
5.0
100
AcDbLine
 10
538.329960295882
 20
525.2447919097233
 30
0.0
 11
539.3299602958825
 21
525.2447919097233
 31
0.0
  0
LINE
  5
46E
330
1F
100
AcDbEntity
  8
0
  6
DASHED
 62
     4
 48
5.0
100
AcDbLine
 10
538.329960295882
 20
526.7447919097228
 30
0.0
 11
538.329960295882
 21
525.2447919097233
 31
0.0
  0
LINE
  5
46F
330
1F
100
AcDbEntity
  8
0
  6
DASHED
 62
     4
 48
5.0
100
AcDbLine
 10
536.8299602958821
 20
526.7447919097228
 30
0.0
 11
538.329960295882
 21
526.7447919097228
 31
0.0
  0
LINE
  5
470
330
1F
100
AcDbEntity
  8
0
  6
DASHED
 62
     4
 48
5.0
100
AcDbLine
 10
536.8299602958821
 20
527.7447919097231
 30
0.0
 11
536.8299602958821
 21
526.7447919097228
 31
0.0
  0
LINE
  5
471
330
1F
100
AcDbEntity
  8
0
  6
DASHED
 62
     4
 48
5.0
100
AcDbLine
 10
533.2099602958818
 20
526.7447919097228
 30
0.0
 11
533.2099602958818
 21
526.7447919097228
 31
0.0
  0
LINE
  5
472
330
1F
100
AcDbEntity
  8
0
  6
DASHED
 62
     4
 48
5.0
100
AcDbLine
 10
533.2099602958818
 20
526.7447919097228
 30
0.0
 11
533.2099602958818
 21
527.7447919097231
 31
0.0
  0
LINE
  5
473
330
1F
100
AcDbEntity
  8
0
  6
DASHED
 62
     4
 48
5.0
100
AcDbLine
 10
538.329960295882
 20
529.2447919097229
 30
0.0
 11
538.329960295882
 21
527.7447919097231
 31
0.0
  0
LINE
  5
474
330
1F
100
AcDbEntity
  8
0
  6
DASHED
 62
     4
 48
5.0
100
AcDbLine
 10
539.3299602958825
 20
527.7447919097231
 30
0.0
 11
539.3299602958825
 21
529.2447919097229
 31
0.0
  0
LINE
  5
475
330
1F
100
AcDbEntity
  8
0
  6
DASHED
 62
     4
 48
5.0
100
AcDbLine
 10
540.8299602958821
 20
527.7447919097231
 30
0.0
 11
539.3299602958825
 21
527.7447919097231
 31
0.0
  0
LINE
  5
476
330
1F
100
AcDbEntity
  8
0
  6
DASHED
 62
     4
 48
5.0
100
AcDbLine
 10
539.3299602958825
 20
526.7447919097228
 30
0.0
 11
540.8299602958821
 21
526.7447919097228
 31
0.0
  0
LINE
  5
477
330
1F
100
AcDbEntity
  8
0
  6
DASHED
 62
     4
 48
5.0
100
AcDbLine
 10
543.183386295882
 20
518.9689779097233
 30
0.0
 11
542.1833862958816
 21
518.9689779097233
 31
0.0
  0
LINE
  5
478
330
1F
100
AcDbEntity
  8
0
  6
DASHED
 62
     4
 48
5.0
100
AcDbLine
 10
544.6833862958818
 20
516.4689779097228
 30
0.0
 11
544.6833862958818
 21
516.4689779097228
 31
0.0
  0
LINE
  5
479
330
1F
100
AcDbEntity
  8
0
  6
DASHED
 62
     4
 48
5.0
100
AcDbLine
 10
544.6833862958818
 20
516.4689779097228
 30
0.0
 11
544.6833862958818
 21
517.4689779097233
 31
0.0
  0
LINE
  5
47A
330
1F
100
AcDbEntity
  8
0
  6
DASHED
 62
     4
 48
5.0
100
AcDbLine
 10
542.1833862958816
 20
517.4689779097233
 30
0.0
 11
540.6833862958816
 21
517.4689779097233
 31
0.0
  0
LINE
  5
47B
330
1F
100
AcDbEntity
  8
0
  6
DASHED
 62
     4
 48
5.0
100
AcDbLine
 10
540.6833862958816
 20
516.4689779097228
 30
0.0
 11
542.1833862958816
 21
516.4689779097228
 31
0.0
  0
LINE
  5
47C
330
1F
100
AcDbEntity
  8
0
  6
DASHED
 62
     4
 48
5.0
100
AcDbLine
 10
540.6833862958816
 20
517.4689779097233
 30
0.0
 11
540.6833862958816
 21
516.4689779097228
 31
0.0
  0
LINE
  5
47D
330
1F
100
AcDbEntity
  8
0
  6
DASHED
 62
     4
 48
5.0
100
AcDbLine
 10
543.183386295882
 20
514.9689779097228
 30
0.0
 11
543.183386295882
 21
516.4689779097228
 31
0.0
  0
LINE
  5
47E
330
1F
100
AcDbEntity
  8
0
  6
DASHED
 62
     4
 48
5.0
100
AcDbLine
 10
542.1833862958816
 20
516.4689779097228
 30
0.0
 11
542.1833862958816
 21
514.9689779097228
 31
0.0
  0
LINE
  5
47F
330
1F
100
AcDbEntity
  8
0
  6
DASHED
 62
     4
 48
5.0
100
AcDbLine
 10
542.1833862958816
 20
514.9689779097228
 30
0.0
 11
543.183386295882
 21
514.9689779097228
 31
0.0
  0
LINE
  5
480
330
1F
100
AcDbEntity
  8
0
  6
DASHED
 62
     4
 48
5.0
100
AcDbLine
 10
544.6833862958818
 20
517.4689779097233
 30
0.0
 11
543.183386295882
 21
517.4689779097233
 31
0.0
  0
LINE
  5
481
330
1F
100
AcDbEntity
  8
0
  6
DASHED
 62
     4
 48
5.0
100
AcDbLine
 10
543.183386295882
 20
516.4689779097228
 30
0.0
 11
544.6833862958818
 21
516.4689779097228
 31
0.0
  0
LINE
  5
482
330
1F
100
AcDbEntity
  8
0
  6
DASHED
 62
     4
 48
5.0
100
AcDbLine
 10
543.183386295882
 20
517.4689779097233
 30
0.0
 11
543.183386295882
 21
518.9689779097233
 31
0.0
  0
LINE
  5
483
330
1F
100
AcDbEntity
  8
0
  6
DASHED
 62
     4
 48
5.0
100
AcDbLine
 10
542.1833862958816
 20
518.9689779097233
 30
0.0
 11
542.1833862958816
 21
517.4689779097233
 31
0.0
  0
LINE
  5
484
330
1F
100
AcDbEntity
  8
0
  6
DASHED
 62
     4
 48
5.0
100
AcDbLine
 10
535.5633862958823
 20
518.9689779097233
 30
0.0
 11
534.5633862958821
 21
518.9689779097233
 31
0.0
  0
LINE
  5
485
330
1F
100
AcDbEntity
  8
0
  6
DASHED
 62
     4
 48
5.0
100
AcDbLine
 10
537.0633862958823
 20
516.4689779097228
 30
0.0
 11
537.0633862958823
 21
516.4689779097228
 31
0.0
  0
LINE
  5
486
330
1F
100
AcDbEntity
  8
0
  6
DASHED
 62
     4
 48
5.0
100
AcDbLine
 10
537.0633862958823
 20
516.4689779097228
 30
0.0
 11
537.0633862958823
 21
517.4689779097233
 31
0.0
  0
LINE
  5
487
330
1F
100
AcDbEntity
  8
0
  6
DASHED
 62
     4
 48
5.0
100
AcDbLine
 10
534.5633862958821
 20
514.9689779097228
 30
0.0
 11
535.5633862958823
 21
514.9689779097228
 31
0.0
  0
LINE
  5
488
330
1F
100
AcDbEntity
  8
0
  6
DASHED
 62
     4
 48
5.0
100
AcDbLine
 10
534.5633862958821
 20
517.4689779097233
 30
0.0
 11
533.0633862958825
 21
517.4689779097233
 31
0.0
  0
LINE
  5
489
330
1F
100
AcDbEntity
  8
0
  6
DASHED
 62
     4
 48
5.0
100
AcDbLine
 10
534.5633862958821
 20
516.4689779097228
 30
0.0
 11
534.5633862958821
 21
514.9689779097228
 31
0.0
  0
LINE
  5
48A
330
1F
100
AcDbEntity
  8
0
  6
DASHED
 62
     4
 48
5.0
100
AcDbLine
 10
533.0633862958825
 20
516.4689779097228
 30
0.0
 11
534.5633862958821
 21
516.4689779097228
 31
0.0
  0
LINE
  5
48B
330
1F
100
AcDbEntity
  8
0
  6
DASHED
 62
     4
 48
5.0
100
AcDbLine
 10
533.0633862958825
 20
517.4689779097233
 30
0.0
 11
533.0633862958825
 21
516.4689779097228
 31
0.0
  0
LINE
  5
48C
330
1F
100
AcDbEntity
  8
0
  6
DASHED
 62
     4
 48
5.0
100
AcDbLine
 10
535.5633862958823
 20
514.9689779097228
 30
0.0
 11
535.5633862958823
 21
516.4689779097228
 31
0.0
  0
LINE
  5
48D
330
1F
100
AcDbEntity
  8
0
  6
DASHED
 62
     4
 48
5.0
100
AcDbLine
 10
537.0633862958823
 20
517.4689779097233
 30
0.0
 11
535.5633862958823
 21
517.4689779097233
 31
0.0
  0
LINE
  5
48E
330
1F
100
AcDbEntity
  8
0
  6
DASHED
 62
     4
 48
5.0
100
AcDbLine
 10
535.5633862958823
 20
516.4689779097228
 30
0.0
 11
537.0633862958823
 21
516.4689779097228
 31
0.0
  0
LINE
  5
48F
330
1F
100
AcDbEntity
  8
0
  6
DASHED
 62
     4
 48
5.0
100
AcDbLine
 10
534.5633862958821
 20
518.9689779097233
 30
0.0
 11
534.5633862958821
 21
517.4689779097233
 31
0.0
  0
LINE
  5
490
330
1F
100
AcDbEntity
  8
0
  6
DASHED
 62
     4
 48
5.0
100
AcDbLine
 10
535.5633862958823
 20
517.4689779097233
 30
0.0
 11
535.5633862958823
 21
518.9689779097233
 31
0.0
  0
LINE
  5
491
330
1F
100
AcDbEntity
  8
0
  6
DASHED
 62
     4
 48
5.0
100
AcDbLine
 10
534.324784295882
 20
522.5103159097228
 30
0.0
 11
534.324784295882
 21
531.5103159097231
 31
0.0
  0
LINE
  5
492
330
1F
100
AcDbEntity
  8
0
  6
DASHED
 62
     4
 48
5.0
100
AcDbLine
 10
535.6447842958821
 20
522.5103159097228
 30
0.0
 11
535.6447842958821
 21
531.5103159097231
 31
0.0
  0
LINE
  5
493
330
1F
100
AcDbEntity
  8
0
  6
DASHED
 62
     4
 48
5.0
100
AcDbLine
 10
543.264784295882
 20
522.5103159097228
 30
0.0
 11
543.264784295882
 21
531.5103159097231
 31
0.0
  0
LINE
  5
494
330
1F
100
AcDbEntity
  8
0
  6
DASHED
 62
     4
 48
5.0
100
AcDbLine
 10
541.9447842958827
 20
522.5103159097228
 30
0.0
 11
541.9447842958827
 21
531.5103159097231
 31
0.0
  0
LINE
  5
495
330
1F
100
AcDbEntity
  8
0
  6
DASHED
 62
     4
 48
5.0
100
AcDbLine
 10
531.7099602958818
 20
529.2447919097229
 30
0.0
 11
530.709960295882
 21
529.2447919097229
 31
0.0
  0
LINE
  5
496
330
1F
100
AcDbEntity
  8
0
  6
DASHED
 62
     4
 48
5.0
100
AcDbLine
 10
530.709960295882
 20
527.7447919097231
 30
0.0
 11
529.209960295882
 21
527.7447919097231
 31
0.0
  0
LINE
  5
497
330
1F
100
AcDbEntity
  8
0
  6
DASHED
 62
     4
 48
5.0
100
AcDbLine
 10
530.709960295882
 20
525.2447919097233
 30
0.0
 11
531.7099602958818
 21
525.2447919097233
 31
0.0
  0
LINE
  5
498
330
1F
100
AcDbEntity
  8
0
  6
DASHED
 62
     4
 48
5.0
100
AcDbLine
 10
530.709960295882
 20
526.7447919097228
 30
0.0
 11
530.709960295882
 21
525.2447919097233
 31
0.0
  0
LINE
  5
499
330
1F
100
AcDbEntity
  8
0
  6
DASHED
 62
     4
 48
5.0
100
AcDbLine
 10
529.209960295882
 20
526.7447919097228
 30
0.0
 11
530.709960295882
 21
526.7447919097228
 31
0.0
  0
LINE
  5
49A
330
1F
100
AcDbEntity
  8
0
  6
DASHED
 62
     4
 48
5.0
100
AcDbLine
 10
531.7099602958818
 20
525.2447919097233
 30
0.0
 11
531.7099602958818
 21
526.7447919097228
 31
0.0
  0
LINE
  5
49B
330
1F
100
AcDbEntity
  8
0
  6
DASHED
 62
     4
 48
5.0
100
AcDbLine
 10
529.209960295882
 20
527.7447919097231
 30
0.0
 11
529.209960295882
 21
526.7447919097228
 31
0.0
  0
LINE
  5
49C
330
1F
100
AcDbEntity
  8
0
  6
DASHED
 62
     4
 48
5.0
100
AcDbLine
 10
525.5899602958825
 20
526.7447919097228
 30
0.0
 11
525.5899602958825
 21
526.7447919097228
 31
0.0
  0
LINE
  5
49D
330
1F
100
AcDbEntity
  8
0
  6
DASHED
 62
     4
 48
5.0
100
AcDbLine
 10
525.5899602958825
 20
526.7447919097228
 30
0.0
 11
525.5899602958825
 21
527.7447919097231
 31
0.0
  0
LINE
  5
49E
330
1F
100
AcDbEntity
  8
0
  6
DASHED
 62
     4
 48
5.0
100
AcDbLine
 10
530.709960295882
 20
529.2447919097229
 30
0.0
 11
530.709960295882
 21
527.7447919097231
 31
0.0
  0
LINE
  5
49F
330
1F
100
AcDbEntity
  8
0
  6
DASHED
 62
     4
 48
5.0
100
AcDbLine
 10
531.7099602958818
 20
527.7447919097231
 30
0.0
 11
531.7099602958818
 21
529.2447919097229
 31
0.0
  0
LINE
  5
4A0
330
1F
100
AcDbEntity
  8
0
  6
DASHED
 62
     4
 48
5.0
100
AcDbLine
 10
524.0899602958825
 20
529.2447919097229
 30
0.0
 11
523.0899602958823
 21
529.2447919097229
 31
0.0
  0
LINE
  5
4A1
330
1F
100
AcDbEntity
  8
0
  6
DASHED
 62
     4
 48
5.0
100
AcDbLine
 10
523.0899602958823
 20
527.7447919097231
 30
0.0
 11
521.589960295882
 21
527.7447919097231
 31
0.0
  0
LINE
  5
4A2
330
1F
100
AcDbEntity
  8
0
  6
DASHED
 62
     4
 48
5.0
100
AcDbLine
 10
524.0899602958825
 20
525.2447919097233
 30
0.0
 11
524.0899602958825
 21
526.7447919097228
 31
0.0
  0
LINE
  5
4A3
330
1F
100
AcDbEntity
  8
0
  6
DASHED
 62
     4
 48
5.0
100
AcDbLine
 10
523.0899602958823
 20
525.2447919097233
 30
0.0
 11
524.0899602958825
 21
525.2447919097233
 31
0.0
  0
LINE
  5
4A4
330
1F
100
AcDbEntity
  8
0
  6
DASHED
 62
     4
 48
5.0
100
AcDbLine
 10
523.0899602958823
 20
526.7447919097228
 30
0.0
 11
523.0899602958823
 21
525.2447919097233
 31
0.0
  0
LINE
  5
4A5
330
1F
100
AcDbEntity
  8
0
  6
DASHED
 62
     4
 48
5.0
100
AcDbLine
 10
521.589960295882
 20
526.7447919097228
 30
0.0
 11
523.0899602958823
 21
526.7447919097228
 31
0.0
  0
LINE
  5
4A6
330
1F
100
AcDbEntity
  8
0
  6
DASHED
 62
     4
 48
5.0
100
AcDbLine
 10
521.589960295882
 20
527.7447919097231
 30
0.0
 11
521.589960295882
 21
526.7447919097228
 31
0.0
  0
LINE
  5
4A7
330
1F
100
AcDbEntity
  8
0
  6
DASHED
 62
     4
 48
5.0
100
AcDbLine
 10
517.9699602958826
 20
526.7447919097228
 30
0.0
 11
517.9699602958826
 21
526.7447919097228
 31
0.0
  0
LINE
  5
4A8
330
1F
100
AcDbEntity
  8
0
  6
DASHED
 62
     4
 48
5.0
100
AcDbLine
 10
517.9699602958826
 20
526.7447919097228
 30
0.0
 11
517.9699602958826
 21
527.7447919097231
 31
0.0
  0
LINE
  5
4A9
330
1F
100
AcDbEntity
  8
0
  6
DASHED
 62
     4
 48
5.0
100
AcDbLine
 10
523.0899602958823
 20
529.2447919097229
 30
0.0
 11
523.0899602958823
 21
527.7447919097231
 31
0.0
  0
LINE
  5
4AA
330
1F
100
AcDbEntity
  8
0
  6
DASHED
 62
     4
 48
5.0
100
AcDbLine
 10
524.0899602958825
 20
527.7447919097231
 30
0.0
 11
524.0899602958825
 21
529.2447919097229
 31
0.0
  0
LINE
  5
4AB
330
1F
100
AcDbEntity
  8
0
  6
DASHED
 62
     4
 48
5.0
100
AcDbLine
 10
525.5899602958825
 20
527.7447919097231
 30
0.0
 11
524.0899602958825
 21
527.7447919097231
 31
0.0
  0
LINE
  5
4AC
330
1F
100
AcDbEntity
  8
0
  6
DASHED
 62
     4
 48
5.0
100
AcDbLine
 10
524.0899602958825
 20
526.7447919097228
 30
0.0
 11
525.5899602958825
 21
526.7447919097228
 31
0.0
  0
LINE
  5
4AD
330
1F
100
AcDbEntity
  8
0
  6
DASHED
 62
     4
 48
5.0
100
AcDbLine
 10
527.943386295882
 20
518.9689779097233
 30
0.0
 11
526.9433862958818
 21
518.9689779097233
 31
0.0
  0
LINE
  5
4AE
330
1F
100
AcDbEntity
  8
0
  6
DASHED
 62
     4
 48
5.0
100
AcDbLine
 10
529.4433862958818
 20
516.4689779097228
 30
0.0
 11
529.4433862958818
 21
516.4689779097228
 31
0.0
  0
LINE
  5
4AF
330
1F
100
AcDbEntity
  8
0
  6
DASHED
 62
     4
 48
5.0
100
AcDbLine
 10
529.4433862958818
 20
516.4689779097228
 30
0.0
 11
529.4433862958818
 21
517.4689779097233
 31
0.0
  0
LINE
  5
4B0
330
1F
100
AcDbEntity
  8
0
  6
DASHED
 62
     4
 48
5.0
100
AcDbLine
 10
526.9433862958818
 20
514.9689779097228
 30
0.0
 11
527.943386295882
 21
514.9689779097228
 31
0.0
  0
LINE
  5
4B1
330
1F
100
AcDbEntity
  8
0
  6
DASHED
 62
     4
 48
5.0
100
AcDbLine
 10
526.9433862958818
 20
517.4689779097233
 30
0.0
 11
525.4433862958818
 21
517.4689779097233
 31
0.0
  0
LINE
  5
4B2
330
1F
100
AcDbEntity
  8
0
  6
DASHED
 62
     4
 48
5.0
100
AcDbLine
 10
526.9433862958818
 20
516.4689779097228
 30
0.0
 11
526.9433862958818
 21
514.9689779097228
 31
0.0
  0
LINE
  5
4B3
330
1F
100
AcDbEntity
  8
0
  6
DASHED
 62
     4
 48
5.0
100
AcDbLine
 10
525.4433862958818
 20
516.4689779097228
 30
0.0
 11
526.9433862958818
 21
516.4689779097228
 31
0.0
  0
LINE
  5
4B4
330
1F
100
AcDbEntity
  8
0
  6
DASHED
 62
     4
 48
5.0
100
AcDbLine
 10
525.4433862958818
 20
517.4689779097233
 30
0.0
 11
525.4433862958818
 21
516.4689779097228
 31
0.0
  0
LINE
  5
4B5
330
1F
100
AcDbEntity
  8
0
  6
DASHED
 62
     4
 48
5.0
100
AcDbLine
 10
527.943386295882
 20
514.9689779097228
 30
0.0
 11
527.943386295882
 21
516.4689779097228
 31
0.0
  0
LINE
  5
4B6
330
1F
100
AcDbEntity
  8
0
  6
DASHED
 62
     4
 48
5.0
100
AcDbLine
 10
527.943386295882
 20
516.4689779097228
 30
0.0
 11
529.4433862958818
 21
516.4689779097228
 31
0.0
  0
LINE
  5
4B7
330
1F
100
AcDbEntity
  8
0
  6
DASHED
 62
     4
 48
5.0
100
AcDbLine
 10
529.4433862958818
 20
517.4689779097233
 30
0.0
 11
527.943386295882
 21
517.4689779097233
 31
0.0
  0
LINE
  5
4B8
330
1F
100
AcDbEntity
  8
0
  6
DASHED
 62
     4
 48
5.0
100
AcDbLine
 10
526.9433862958818
 20
518.9689779097233
 30
0.0
 11
526.9433862958818
 21
517.4689779097233
 31
0.0
  0
LINE
  5
4B9
330
1F
100
AcDbEntity
  8
0
  6
DASHED
 62
     4
 48
5.0
100
AcDbLine
 10
527.943386295882
 20
517.4689779097233
 30
0.0
 11
527.943386295882
 21
518.9689779097233
 31
0.0
  0
LINE
  5
4BA
330
1F
100
AcDbEntity
  8
0
  6
DASHED
 62
     4
 48
5.0
100
AcDbLine
 10
520.3233862958823
 20
518.9689779097233
 30
0.0
 11
519.3233862958821
 21
518.9689779097233
 31
0.0
  0
LINE
  5
4BB
330
1F
100
AcDbEntity
  8
0
  6
DASHED
 62
     4
 48
5.0
100
AcDbLine
 10
521.8233862958818
 20
516.4689779097228
 30
0.0
 11
521.8233862958818
 21
516.4689779097228
 31
0.0
  0
LINE
  5
4BC
330
1F
100
AcDbEntity
  8
0
  6
DASHED
 62
     4
 48
5.0
100
AcDbLine
 10
521.8233862958818
 20
516.4689779097228
 30
0.0
 11
521.8233862958818
 21
517.4689779097233
 31
0.0
  0
LINE
  5
4BD
330
1F
100
AcDbEntity
  8
0
  6
DASHED
 62
     4
 48
5.0
100
AcDbLine
 10
519.3233862958821
 20
514.9689779097228
 30
0.0
 11
520.3233862958823
 21
514.9689779097228
 31
0.0
  0
LINE
  5
4BE
330
1F
100
AcDbEntity
  8
0
  6
DASHED
 62
     4
 48
5.0
100
AcDbLine
 10
519.3233862958821
 20
517.4689779097233
 30
0.0
 11
517.823386295882
 21
517.4689779097233
 31
0.0
  0
LINE
  5
4BF
330
1F
100
AcDbEntity
  8
0
  6
DASHED
 62
     4
 48
5.0
100
AcDbLine
 10
519.3233862958821
 20
516.4689779097228
 30
0.0
 11
519.3233862958821
 21
514.9689779097228
 31
0.0
  0
LINE
  5
4C0
330
1F
100
AcDbEntity
  8
0
  6
DASHED
 62
     4
 48
5.0
100
AcDbLine
 10
517.823386295882
 20
516.4689779097228
 30
0.0
 11
519.3233862958821
 21
516.4689779097228
 31
0.0
  0
LINE
  5
4C1
330
1F
100
AcDbEntity
  8
0
  6
DASHED
 62
     4
 48
5.0
100
AcDbLine
 10
517.823386295882
 20
517.4689779097233
 30
0.0
 11
517.823386295882
 21
516.4689779097228
 31
0.0
  0
LINE
  5
4C2
330
1F
100
AcDbEntity
  8
0
  6
DASHED
 62
     4
 48
5.0
100
AcDbLine
 10
520.3233862958823
 20
514.9689779097228
 30
0.0
 11
520.3233862958823
 21
516.4689779097228
 31
0.0
  0
LINE
  5
4C3
330
1F
100
AcDbEntity
  8
0
  6
DASHED
 62
     4
 48
5.0
100
AcDbLine
 10
521.8233862958818
 20
517.4689779097233
 30
0.0
 11
520.3233862958823
 21
517.4689779097233
 31
0.0
  0
LINE
  5
4C4
330
1F
100
AcDbEntity
  8
0
  6
DASHED
 62
     4
 48
5.0
100
AcDbLine
 10
520.3233862958823
 20
516.4689779097228
 30
0.0
 11
521.8233862958818
 21
516.4689779097228
 31
0.0
  0
LINE
  5
4C5
330
1F
100
AcDbEntity
  8
0
  6
DASHED
 62
     4
 48
5.0
100
AcDbLine
 10
519.3233862958821
 20
518.9689779097233
 30
0.0
 11
519.3233862958821
 21
517.4689779097233
 31
0.0
  0
LINE
  5
4C6
330
1F
100
AcDbEntity
  8
0
  6
DASHED
 62
     4
 48
5.0
100
AcDbLine
 10
520.3233862958823
 20
517.4689779097233
 30
0.0
 11
520.3233862958823
 21
518.9689779097233
 31
0.0
  0
LINE
  5
4C7
330
1F
100
AcDbEntity
  8
0
  6
DASHED
 62
     4
 48
5.0
100
AcDbLine
 10
519.0847842958818
 20
522.5103159097228
 30
0.0
 11
519.0847842958818
 21
531.5103159097231
 31
0.0
  0
LINE
  5
4C8
330
1F
100
AcDbEntity
  8
0
  6
DASHED
 62
     4
 48
5.0
100
AcDbLine
 10
520.4047842958819
 20
522.5103159097228
 30
0.0
 11
520.4047842958819
 21
531.5103159097231
 31
0.0
  0
LINE
  5
4C9
330
1F
100
AcDbEntity
  8
0
  6
DASHED
 62
     4
 48
5.0
100
AcDbLine
 10
528.024784295882
 20
522.5103159097228
 30
0.0
 11
528.024784295882
 21
531.5103159097231
 31
0.0
  0
LINE
  5
4CA
330
1F
100
AcDbEntity
  8
0
  6
DASHED
 62
     4
 48
5.0
100
AcDbLine
 10
526.7047842958825
 20
522.5103159097228
 30
0.0
 11
526.7047842958825
 21
531.5103159097231
 31
0.0
  0
LINE
  5
4CB
330
1F
100
AcDbEntity
  8
0
  6
DASHED
 62
     4
 48
5.0
100
AcDbLine
 10
533.2099602958818
 20
527.7447919097231
 30
0.0
 11
531.7099602958818
 21
527.7447919097231
 31
0.0
  0
LINE
  5
4CC
330
1F
100
AcDbEntity
  8
0
  6
DASHED
 62
     4
 48
5.0
100
AcDbLine
 10
531.7099602958818
 20
526.7447919097228
 30
0.0
 11
533.2099602958818
 21
526.7447919097228
 31
0.0
  0
LINE
  5
4CD
330
1F
100
AcDbEntity
  8
0
  6
DASHED
 62
     4
 48
5.0
100
AcDbLine
 10
531.8347842958826
 20
512.5103159097228
 30
0.0
 11
531.8347842958826
 21
522.5103159097228
 31
0.0
  0
LINE
  5
4CE
330
1F
100
AcDbEntity
  8
0
  6
DASHED
 62
     4
 48
5.0
100
AcDbLine
 10
530.5147842958823
 20
512.5103159097228
 30
0.0
 11
530.5147842958823
 21
522.5103159097228
 31
0.0
  0
LINE
  5
4CF
330
1F
100
AcDbEntity
  8
0
  6
DASHED
 62
     4
 48
5.0
100
AcDbLine
 10
524.2147842958821
 20
512.5103159097228
 30
0.0
 11
524.2147842958821
 21
522.5103159097228
 31
0.0
  0
LINE
  5
4D0
330
1F
100
AcDbEntity
  8
0
  6
DASHED
 62
     4
 48
5.0
100
AcDbLine
 10
522.8947842958821
 20
512.5103159097228
 30
0.0
 11
522.8947842958821
 21
522.5103159097228
 31
0.0
  0
LINE
  5
4D1
330
1F
100
AcDbEntity
  8
0
  6
DASHED
 62
     4
 48
5.0
100
AcDbLine
 10
547.0747842958822
 20
512.5103159097228
 30
0.0
 11
547.0747842958822
 21
522.5103159097228
 31
0.0
  0
LINE
  5
4D2
330
1F
100
AcDbEntity
  8
0
  6
DASHED
 62
     4
 48
5.0
100
AcDbLine
 10
545.7547842958821
 20
512.5103159097228
 30
0.0
 11
545.7547842958821
 21
522.5103159097228
 31
0.0
  0
LINE
  5
4D3
330
1F
100
AcDbEntity
  8
0
  6
DASHED
 62
     4
 48
5.0
100
AcDbLine
 10
539.4547842958825
 20
512.5103159097228
 30
0.0
 11
539.4547842958825
 21
522.5103159097228
 31
0.0
  0
LINE
  5
4D4
330
1F
100
AcDbEntity
  8
0
  6
DASHED
 62
     4
 48
5.0
100
AcDbLine
 10
538.1347842958827
 20
512.5103159097228
 30
0.0
 11
538.1347842958827
 21
522.5103159097228
 31
0.0
  0
LINE
  5
4D5
330
1F
100
AcDbEntity
  8
0
  6
DASHED
 62
     4
 48
5.0
100
AcDbLine
 10
548.4499602958821
 20
527.7447919097231
 30
0.0
 11
546.9499602958823
 21
527.7447919097231
 31
0.0
  0
LINE
  5
4D6
330
1F
100
AcDbEntity
  8
0
  6
DASHED
 62
     4
 48
5.0
100
AcDbLine
 10
546.9499602958823
 20
526.7447919097228
 30
0.0
 11
548.4499602958821
 21
526.7447919097228
 31
0.0
  0
CIRCLE
  5
4D7
330
1F
100
AcDbEntity
  8
0
  6
Continuous
 62
     7
100
AcDbCircle
 10
574.9147842958826
 20
482.810330650946
 30
0.0
 40
2.999997758775232
  0
CIRCLE
  5
4D8
330
1F
100
AcDbEntity
  8
0
  6
Continuous
 62
     7
100
AcDbCircle
 10
563.3916115488071
 20
485.6103313980218
 30
0.0
 40
1.99999850585027
  0
CIRCLE
  5
4D9
330
1F
100
AcDbEntity
  8
0
  6
Continuous
 62
     7
100
AcDbCircle
 10
563.3915855488075
 20
475.4103313980222
 30
0.0
 40
1.99999850585027
  0
CIRCLE
  5
4DA
330
1F
100
AcDbEntity
  8
0
  6
Continuous
 62
     7
100
AcDbCircle
 10
563.3915975488072
 20
480.5103313980218
 30
0.0
 40
1.999998505850385
  0
LINE
  5
4DB
330
1F
100
AcDbEntity
  8
0
  6
Continuous
 62
     7
100
AcDbLine
 10
568.9147820546569
 20
462.8103328921721
 30
0.0
 11
568.9147820546569
 21
454.8103328921722
 31
0.0
  0
CIRCLE
  5
4DC
330
1F
100
AcDbEntity
  8
0
  6
Continuous
 62
     7
100
AcDbCircle
 10
563.3916195488067
 20
462.7903313980225
 30
0.0
 40
1.999998505850385
  0
CIRCLE
  5
4DD
330
1F
100
AcDbEntity
  8
0
  6
Continuous
 62
     7
100
AcDbCircle
 10
563.3916675488075
 20
457.6903313980213
 30
0.0
 40
1.999998505850155
  0
CIRCLE
  5
4DE
330
1F
100
AcDbEntity
  8
0
  6
Continuous
 62
     7
100
AcDbCircle
 10
563.3917155488076
 20
452.5903313980214
 30
0.0
 40
1.999998505850155
  0
CIRCLE
  5
4DF
330
1F
100
AcDbEntity
  8
0
  6
Continuous
 62
     7
100
AcDbCircle
 10
563.3915715488067
 20
470.310331398022
 30
0.0
 40
1.999998505850155
  0
CIRCLE
  5
4E0
330
1F
100
AcDbEntity
  8
0
  6
Continuous
 62
     7
100
AcDbCircle
 10
574.9147842958826
 20
469.8103306509463
 30
0.0
 40
2.999997758775121
  0
CIRCLE
  5
4E1
330
1F
100
AcDbEntity
  8
0
  6
Continuous
 62
     7
100
AcDbCircle
 10
563.3916255488072
 20
490.7103313980218
 30
0.0
 40
1.999998505850155
  0
LINE
  5
4E2
330
1F
100
AcDbEntity
  8
0
  6
DASHED
 62
     4
 48
5.0
100
AcDbLine
 10
516.4699602958826
 20
529.2447919097229
 30
0.0
 11
515.469960295882
 21
529.2447919097229
 31
0.0
  0
LINE
  5
4E3
330
1F
100
AcDbEntity
  8
0
  6
DASHED
 62
     4
 48
5.0
100
AcDbLine
 10
516.4699602958826
 20
525.2447919097233
 30
0.0
 11
516.4699602958826
 21
526.7447919097228
 31
0.0
  0
LINE
  5
4E4
330
1F
100
AcDbEntity
  8
0
  6
DASHED
 62
     4
 48
5.0
100
AcDbLine
 10
515.469960295882
 20
525.2447919097233
 30
0.0
 11
516.4699602958826
 21
525.2447919097233
 31
0.0
  0
LINE
  5
4E5
330
1F
100
AcDbEntity
  8
0
  6
DASHED
 62
     4
 48
5.0
100
AcDbLine
 10
515.469960295882
 20
526.7447919097228
 30
0.0
 11
515.469960295882
 21
525.2447919097233
 31
0.0
  0
LINE
  5
4E6
330
1F
100
AcDbEntity
  8
0
  6
DASHED
 62
     4
 48
5.0
100
AcDbLine
 10
513.969960295882
 20
527.7447919097231
 30
0.0
 11
513.969960295882
 21
526.7447919097228
 31
0.0
  0
LINE
  5
4E7
330
1F
100
AcDbEntity
  8
0
  6
DASHED
 62
     4
 48
5.0
100
AcDbLine
 10
515.469960295882
 20
527.7447919097231
 30
0.0
 11
513.969960295882
 21
527.7447919097231
 31
0.0
  0
LINE
  5
4E8
330
1F
100
AcDbEntity
  8
0
  6
DASHED
 62
     4
 48
5.0
100
AcDbLine
 10
513.969960295882
 20
526.7447919097228
 30
0.0
 11
515.469960295882
 21
526.7447919097228
 31
0.0
  0
LINE
  5
4E9
330
1F
100
AcDbEntity
  8
0
  6
DASHED
 62
     4
 48
5.0
100
AcDbLine
 10
515.469960295882
 20
529.2447919097229
 30
0.0
 11
515.469960295882
 21
527.7447919097231
 31
0.0
  0
LINE
  5
4EA
330
1F
100
AcDbEntity
  8
0
  6
DASHED
 62
     4
 48
5.0
100
AcDbLine
 10
516.4699602958826
 20
527.7447919097231
 30
0.0
 11
516.4699602958826
 21
529.2447919097229
 31
0.0
  0
LINE
  5
4EB
330
1F
100
AcDbEntity
  8
0
  6
DASHED
 62
     4
 48
5.0
100
AcDbLine
 10
508.849960295882
 20
529.2447919097229
 30
0.0
 11
507.8499602958821
 21
529.2447919097229
 31
0.0
  0
LINE
  5
4EC
330
1F
100
AcDbEntity
  8
0
  6
DASHED
 62
     4
 48
5.0
100
AcDbLine
 10
510.3499602958819
 20
527.7447919097231
 30
0.0
 11
508.849960295882
 21
527.7447919097231
 31
0.0
  0
LINE
  5
4ED
330
1F
100
AcDbEntity
  8
0
  6
DASHED
 62
     4
 48
5.0
100
AcDbLine
 10
510.3499602958819
 20
526.7447919097228
 30
0.0
 11
510.3499602958819
 21
526.7447919097228
 31
0.0
  0
LINE
  5
4EE
330
1F
100
AcDbEntity
  8
0
  6
DASHED
 62
     4
 48
5.0
100
AcDbLine
 10
508.849960295882
 20
526.7447919097228
 30
0.0
 11
510.3499602958819
 21
526.7447919097228
 31
0.0
  0
LINE
  5
4EF
330
1F
100
AcDbEntity
  8
0
  6
DASHED
 62
     4
 48
5.0
100
AcDbLine
 10
508.849960295882
 20
525.2447919097233
 30
0.0
 11
508.849960295882
 21
526.7447919097228
 31
0.0
  0
LINE
  5
4F0
330
1F
100
AcDbEntity
  8
0
  6
DASHED
 62
     4
 48
5.0
100
AcDbLine
 10
507.8499602958821
 20
525.2447919097233
 30
0.0
 11
508.849960295882
 21
525.2447919097233
 31
0.0
  0
LINE
  5
4F1
330
1F
100
AcDbEntity
  8
0
  6
DASHED
 62
     4
 48
5.0
100
AcDbLine
 10
507.8499602958821
 20
526.7447919097228
 30
0.0
 11
507.8499602958821
 21
525.2447919097233
 31
0.0
  0
LINE
  5
4F2
330
1F
100
AcDbEntity
  8
0
  6
DASHED
 62
     4
 48
5.0
100
AcDbLine
 10
510.3499602958819
 20
526.7447919097228
 30
0.0
 11
510.3499602958819
 21
527.7447919097231
 31
0.0
  0
LINE
  5
4F3
330
1F
100
AcDbEntity
  8
0
  6
DASHED
 62
     4
 48
5.0
100
AcDbLine
 10
506.349960295882
 20
527.7447919097231
 30
0.0
 11
506.349960295882
 21
526.7447919097228
 31
0.0
  0
LINE
  5
4F4
330
1F
100
AcDbEntity
  8
0
  6
DASHED
 62
     4
 48
5.0
100
AcDbLine
 10
507.8499602958821
 20
527.7447919097231
 30
0.0
 11
506.349960295882
 21
527.7447919097231
 31
0.0
  0
LINE
  5
4F5
330
1F
100
AcDbEntity
  8
0
  6
DASHED
 62
     4
 48
5.0
100
AcDbLine
 10
506.349960295882
 20
526.7447919097228
 30
0.0
 11
507.8499602958821
 21
526.7447919097228
 31
0.0
  0
LINE
  5
4F6
330
1F
100
AcDbEntity
  8
0
  6
DASHED
 62
     4
 48
5.0
100
AcDbLine
 10
507.8499602958821
 20
529.2447919097229
 30
0.0
 11
507.8499602958821
 21
527.7447919097231
 31
0.0
  0
LINE
  5
4F7
330
1F
100
AcDbEntity
  8
0
  6
DASHED
 62
     4
 48
5.0
100
AcDbLine
 10
508.849960295882
 20
527.7447919097231
 30
0.0
 11
508.849960295882
 21
529.2447919097229
 31
0.0
  0
LINE
  5
4F8
330
1F
100
AcDbEntity
  8
0
  6
DASHED
 62
     4
 48
5.0
100
AcDbLine
 10
512.7033862958818
 20
518.9689779097233
 30
0.0
 11
511.703386295882
 21
518.9689779097233
 31
0.0
  0
LINE
  5
4F9
330
1F
100
AcDbEntity
  8
0
  6
DASHED
 62
     4
 48
5.0
100
AcDbLine
 10
514.2033862958818
 20
516.4689779097228
 30
0.0
 11
514.2033862958818
 21
516.4689779097228
 31
0.0
  0
LINE
  5
4FA
330
1F
100
AcDbEntity
  8
0
  6
DASHED
 62
     4
 48
5.0
100
AcDbLine
 10
514.2033862958818
 20
516.4689779097228
 30
0.0
 11
514.2033862958818
 21
517.4689779097233
 31
0.0
  0
LINE
  5
4FB
330
1F
100
AcDbEntity
  8
0
  6
DASHED
 62
     4
 48
5.0
100
AcDbLine
 10
511.703386295882
 20
514.9689779097228
 30
0.0
 11
512.7033862958818
 21
514.9689779097228
 31
0.0
  0
LINE
  5
4FC
330
1F
100
AcDbEntity
  8
0
  6
DASHED
 62
     4
 48
5.0
100
AcDbLine
 10
511.703386295882
 20
516.4689779097228
 30
0.0
 11
511.703386295882
 21
514.9689779097228
 31
0.0
  0
LINE
  5
4FD
330
1F
100
AcDbEntity
  8
0
  6
DASHED
 62
     4
 48
5.0
100
AcDbLine
 10
512.7033862958818
 20
514.9689779097228
 30
0.0
 11
512.7033862958818
 21
516.4689779097228
 31
0.0
  0
LINE
  5
4FE
330
1F
100
AcDbEntity
  8
0
  6
DASHED
 62
     4
 48
5.0
100
AcDbLine
 10
512.7033862958818
 20
516.4689779097228
 30
0.0
 11
514.2033862958818
 21
516.4689779097228
 31
0.0
  0
LINE
  5
4FF
330
1F
100
AcDbEntity
  8
0
  6
DASHED
 62
     4
 48
5.0
100
AcDbLine
 10
514.2033862958818
 20
517.4689779097233
 30
0.0
 11
512.7033862958818
 21
517.4689779097233
 31
0.0
  0
LINE
  5
500
330
1F
100
AcDbEntity
  8
0
  6
DASHED
 62
     4
 48
5.0
100
AcDbLine
 10
511.703386295882
 20
518.9689779097233
 30
0.0
 11
511.703386295882
 21
517.4689779097233
 31
0.0
  0
LINE
  5
501
330
1F
100
AcDbEntity
  8
0
  6
DASHED
 62
     4
 48
5.0
100
AcDbLine
 10
512.7033862958818
 20
517.4689779097233
 30
0.0
 11
512.7033862958818
 21
518.9689779097233
 31
0.0
  0
LINE
  5
502
330
1F
100
AcDbEntity
  8
0
  6
DASHED
 62
     4
 48
5.0
100
AcDbLine
 10
505.0833862958818
 20
518.9689779097233
 30
0.0
 11
504.083386295882
 21
518.9689779097233
 31
0.0
  0
LINE
  5
503
330
1F
100
AcDbEntity
  8
0
  6
DASHED
 62
     4
 48
5.0
100
AcDbLine
 10
510.203386295882
 20
517.4689779097233
 30
0.0
 11
510.203386295882
 21
516.4689779097228
 31
0.0
  0
LINE
  5
504
330
1F
100
AcDbEntity
  8
0
  6
DASHED
 62
     4
 48
5.0
100
AcDbLine
 10
506.5833862958816
 20
517.4689779097233
 30
0.0
 11
505.0833862958818
 21
517.4689779097233
 31
0.0
  0
LINE
  5
505
330
1F
100
AcDbEntity
  8
0
  6
DASHED
 62
     4
 48
5.0
100
AcDbLine
 10
505.0833862958818
 20
516.4689779097228
 30
0.0
 11
506.5833862958816
 21
516.4689779097228
 31
0.0
  0
LINE
  5
506
330
1F
100
AcDbEntity
  8
0
  6
DASHED
 62
     4
 48
5.0
100
AcDbLine
 10
505.0833862958818
 20
514.9689779097228
 30
0.0
 11
505.0833862958818
 21
516.4689779097228
 31
0.0
  0
LINE
  5
507
330
1F
100
AcDbEntity
  8
0
  6
DASHED
 62
     4
 48
5.0
100
AcDbLine
 10
504.083386295882
 20
514.9689779097228
 30
0.0
 11
505.0833862958818
 21
514.9689779097228
 31
0.0
  0
LINE
  5
508
330
1F
100
AcDbEntity
  8
0
  6
DASHED
 62
     4
 48
5.0
100
AcDbLine
 10
504.083386295882
 20
516.4689779097228
 30
0.0
 11
504.083386295882
 21
514.9689779097228
 31
0.0
  0
LINE
  5
509
330
1F
100
AcDbEntity
  8
0
  6
DASHED
 62
     4
 48
5.0
100
AcDbLine
 10
506.5833862958816
 20
516.4689779097228
 30
0.0
 11
506.5833862958816
 21
516.4689779097228
 31
0.0
  0
LINE
  5
50A
330
1F
100
AcDbEntity
  8
0
  6
DASHED
 62
     4
 48
5.0
100
AcDbLine
 10
506.5833862958816
 20
516.4689779097228
 30
0.0
 11
506.5833862958816
 21
517.4689779097233
 31
0.0
  0
LINE
  5
50B
330
1F
100
AcDbEntity
  8
0
  6
DASHED
 62
     4
 48
5.0
100
AcDbLine
 10
504.083386295882
 20
518.9689779097233
 30
0.0
 11
504.083386295882
 21
517.4689779097233
 31
0.0
  0
LINE
  5
50C
330
1F
100
AcDbEntity
  8
0
  6
DASHED
 62
     4
 48
5.0
100
AcDbLine
 10
505.0833862958818
 20
517.4689779097233
 30
0.0
 11
505.0833862958818
 21
518.9689779097233
 31
0.0
  0
LINE
  5
50D
330
1F
100
AcDbEntity
  8
0
  6
DASHED
 62
     4
 48
5.0
100
AcDbLine
 10
511.703386295882
 20
517.4689779097233
 30
0.0
 11
510.203386295882
 21
517.4689779097233
 31
0.0
  0
LINE
  5
50E
330
1F
100
AcDbEntity
  8
0
  6
DASHED
 62
     4
 48
5.0
100
AcDbLine
 10
510.203386295882
 20
516.4689779097228
 30
0.0
 11
511.703386295882
 21
516.4689779097228
 31
0.0
  0
LINE
  5
50F
330
1F
100
AcDbEntity
  8
0
  6
DASHED
 62
     4
 48
5.0
100
AcDbLine
 10
505.1647842958813
 20
522.5103159097228
 30
0.0
 11
505.1647842958813
 21
531.5103159097231
 31
0.0
  0
LINE
  5
510
330
1F
100
AcDbEntity
  8
0
  6
DASHED
 62
     4
 48
5.0
100
AcDbLine
 10
503.844784295882
 20
522.5103159097228
 30
0.0
 11
503.844784295882
 21
531.5103159097231
 31
0.0
  0
LINE
  5
511
330
1F
100
AcDbEntity
  8
0
  6
DASHED
 62
     4
 48
5.0
100
AcDbLine
 10
512.7847842958815
 20
522.5103159097228
 30
0.0
 11
512.7847842958815
 21
531.5103159097231
 31
0.0
  0
LINE
  5
512
330
1F
100
AcDbEntity
  8
0
  6
DASHED
 62
     4
 48
5.0
100
AcDbLine
 10
511.4647842958821
 20
522.5103159097228
 30
0.0
 11
511.4647842958821
 21
531.5103159097231
 31
0.0
  0
LINE
  5
513
330
1F
100
AcDbEntity
  8
0
  6
DASHED
 62
     4
 48
5.0
100
AcDbLine
 10
501.2299602958821
 20
529.2447919097229
 30
0.0
 11
500.2299602958821
 21
529.2447919097229
 31
0.0
  0
LINE
  5
514
330
1F
100
AcDbEntity
  8
0
  6
DASHED
 62
     4
 48
5.0
100
AcDbLine
 10
502.7299602958823
 20
527.7447919097231
 30
0.0
 11
501.2299602958821
 21
527.7447919097231
 31
0.0
  0
LINE
  5
515
330
1F
100
AcDbEntity
  8
0
  6
DASHED
 62
     4
 48
5.0
100
AcDbLine
 10
502.7299602958823
 20
526.7447919097228
 30
0.0
 11
502.7299602958823
 21
526.7447919097228
 31
0.0
  0
LINE
  5
516
330
1F
100
AcDbEntity
  8
0
  6
DASHED
 62
     4
 48
5.0
100
AcDbLine
 10
501.2299602958821
 20
526.7447919097228
 30
0.0
 11
502.7299602958823
 21
526.7447919097228
 31
0.0
  0
LINE
  5
517
330
1F
100
AcDbEntity
  8
0
  6
DASHED
 62
     4
 48
5.0
100
AcDbLine
 10
501.2299602958821
 20
525.2447919097233
 30
0.0
 11
501.2299602958821
 21
526.7447919097228
 31
0.0
  0
LINE
  5
518
330
1F
100
AcDbEntity
  8
0
  6
DASHED
 62
     4
 48
5.0
100
AcDbLine
 10
500.2299602958821
 20
525.2447919097233
 30
0.0
 11
501.2299602958821
 21
525.2447919097233
 31
0.0
  0
LINE
  5
519
330
1F
100
AcDbEntity
  8
0
  6
DASHED
 62
     4
 48
5.0
100
AcDbLine
 10
500.2299602958821
 20
526.7447919097228
 30
0.0
 11
500.2299602958821
 21
525.2447919097233
 31
0.0
  0
LINE
  5
51A
330
1F
100
AcDbEntity
  8
0
  6
DASHED
 62
     4
 48
5.0
100
AcDbLine
 10
502.7299602958823
 20
526.7447919097228
 30
0.0
 11
502.7299602958823
 21
527.7447919097231
 31
0.0
  0
LINE
  5
51B
330
1F
100
AcDbEntity
  8
0
  6
DASHED
 62
     4
 48
5.0
100
AcDbLine
 10
498.729960295882
 20
527.7447919097231
 30
0.0
 11
498.729960295882
 21
526.7447919097228
 31
0.0
  0
LINE
  5
51C
330
1F
100
AcDbEntity
  8
0
  6
DASHED
 62
     4
 48
5.0
100
AcDbLine
 10
500.2299602958821
 20
527.7447919097231
 30
0.0
 11
498.729960295882
 21
527.7447919097231
 31
0.0
  0
LINE
  5
51D
330
1F
100
AcDbEntity
  8
0
  6
DASHED
 62
     4
 48
5.0
100
AcDbLine
 10
498.729960295882
 20
526.7447919097228
 30
0.0
 11
500.2299602958821
 21
526.7447919097228
 31
0.0
  0
LINE
  5
51E
330
1F
100
AcDbEntity
  8
0
  6
DASHED
 62
     4
 48
5.0
100
AcDbLine
 10
500.2299602958821
 20
529.2447919097229
 30
0.0
 11
500.2299602958821
 21
527.7447919097231
 31
0.0
  0
LINE
  5
51F
330
1F
100
AcDbEntity
  8
0
  6
DASHED
 62
     4
 48
5.0
100
AcDbLine
 10
501.2299602958821
 20
527.7447919097231
 30
0.0
 11
501.2299602958821
 21
529.2447919097229
 31
0.0
  0
LINE
  5
520
330
1F
100
AcDbEntity
  8
0
  6
DASHED
 62
     4
 48
5.0
100
AcDbLine
 10
493.609960295882
 20
529.2447919097229
 30
0.0
 11
492.6099602958823
 21
529.2447919097229
 31
0.0
  0
LINE
  5
521
330
1F
100
AcDbEntity
  8
0
  6
DASHED
 62
     4
 48
5.0
100
AcDbLine
 10
495.109960295882
 20
527.7447919097231
 30
0.0
 11
493.609960295882
 21
527.7447919097231
 31
0.0
  0
LINE
  5
522
330
1F
100
AcDbEntity
  8
0
  6
DASHED
 62
     4
 48
5.0
100
AcDbLine
 10
495.109960295882
 20
526.7447919097228
 30
0.0
 11
495.109960295882
 21
526.7447919097228
 31
0.0
  0
LINE
  5
523
330
1F
100
AcDbEntity
  8
0
  6
DASHED
 62
     4
 48
5.0
100
AcDbLine
 10
493.609960295882
 20
526.7447919097228
 30
0.0
 11
495.109960295882
 21
526.7447919097228
 31
0.0
  0
LINE
  5
524
330
1F
100
AcDbEntity
  8
0
  6
DASHED
 62
     4
 48
5.0
100
AcDbLine
 10
493.609960295882
 20
525.2447919097233
 30
0.0
 11
493.609960295882
 21
526.7447919097228
 31
0.0
  0
LINE
  5
525
330
1F
100
AcDbEntity
  8
0
  6
DASHED
 62
     4
 48
5.0
100
AcDbLine
 10
492.6099602958823
 20
525.2447919097233
 30
0.0
 11
493.609960295882
 21
525.2447919097233
 31
0.0
  0
LINE
  5
526
330
1F
100
AcDbEntity
  8
0
  6
DASHED
 62
     4
 48
5.0
100
AcDbLine
 10
492.6099602958823
 20
526.7447919097228
 30
0.0
 11
492.6099602958823
 21
525.2447919097233
 31
0.0
  0
LINE
  5
527
330
1F
100
AcDbEntity
  8
0
  6
DASHED
 62
     4
 48
5.0
100
AcDbLine
 10
495.109960295882
 20
526.7447919097228
 30
0.0
 11
495.109960295882
 21
527.7447919097231
 31
0.0
  0
LINE
  5
528
330
1F
100
AcDbEntity
  8
0
  6
DASHED
 62
     4
 48
5.0
100
AcDbLine
 10
491.109960295882
 20
527.7447919097231
 30
0.0
 11
491.109960295882
 21
526.7447919097228
 31
0.0
  0
LINE
  5
529
330
1F
100
AcDbEntity
  8
0
  6
DASHED
 62
     4
 48
5.0
100
AcDbLine
 10
492.6099602958823
 20
527.7447919097231
 30
0.0
 11
491.109960295882
 21
527.7447919097231
 31
0.0
  0
LINE
  5
52A
330
1F
100
AcDbEntity
  8
0
  6
DASHED
 62
     4
 48
5.0
100
AcDbLine
 10
491.109960295882
 20
526.7447919097228
 30
0.0
 11
492.6099602958823
 21
526.7447919097228
 31
0.0
  0
LINE
  5
52B
330
1F
100
AcDbEntity
  8
0
  6
DASHED
 62
     4
 48
5.0
100
AcDbLine
 10
492.6099602958823
 20
529.2447919097229
 30
0.0
 11
492.6099602958823
 21
527.7447919097231
 31
0.0
  0
LINE
  5
52C
330
1F
100
AcDbEntity
  8
0
  6
DASHED
 62
     4
 48
5.0
100
AcDbLine
 10
493.609960295882
 20
527.7447919097231
 30
0.0
 11
493.609960295882
 21
529.2447919097229
 31
0.0
  0
LINE
  5
52D
330
1F
100
AcDbEntity
  8
0
  6
DASHED
 62
     4
 48
5.0
100
AcDbLine
 10
497.4633862958818
 20
518.9689779097233
 30
0.0
 11
496.4633862958819
 21
518.9689779097233
 31
0.0
  0
LINE
  5
52E
330
1F
100
AcDbEntity
  8
0
  6
DASHED
 62
     4
 48
5.0
100
AcDbLine
 10
502.5833862958815
 20
517.4689779097233
 30
0.0
 11
502.5833862958815
 21
516.4689779097228
 31
0.0
  0
LINE
  5
52F
330
1F
100
AcDbEntity
  8
0
  6
DASHED
 62
     4
 48
5.0
100
AcDbLine
 10
497.4633862958818
 20
516.4689779097228
 30
0.0
 11
498.9633862958818
 21
516.4689779097228
 31
0.0
  0
LINE
  5
530
330
1F
100
AcDbEntity
  8
0
  6
DASHED
 62
     4
 48
5.0
100
AcDbLine
 10
498.9633862958818
 20
517.4689779097233
 30
0.0
 11
497.4633862958818
 21
517.4689779097233
 31
0.0
  0
LINE
  5
531
330
1F
100
AcDbEntity
  8
0
  6
DASHED
 62
     4
 48
5.0
100
AcDbLine
 10
497.4633862958818
 20
514.9689779097228
 30
0.0
 11
497.4633862958818
 21
516.4689779097228
 31
0.0
  0
LINE
  5
532
330
1F
100
AcDbEntity
  8
0
  6
DASHED
 62
     4
 48
5.0
100
AcDbLine
 10
496.4633862958819
 20
514.9689779097228
 30
0.0
 11
497.4633862958818
 21
514.9689779097228
 31
0.0
  0
LINE
  5
533
330
1F
100
AcDbEntity
  8
0
  6
DASHED
 62
     4
 48
5.0
100
AcDbLine
 10
496.4633862958819
 20
516.4689779097228
 30
0.0
 11
496.4633862958819
 21
514.9689779097228
 31
0.0
  0
LINE
  5
534
330
1F
100
AcDbEntity
  8
0
  6
DASHED
 62
     4
 48
5.0
100
AcDbLine
 10
498.9633862958818
 20
516.4689779097228
 30
0.0
 11
498.9633862958818
 21
516.4689779097228
 31
0.0
  0
LINE
  5
535
330
1F
100
AcDbEntity
  8
0
  6
DASHED
 62
     4
 48
5.0
100
AcDbLine
 10
498.9633862958818
 20
516.4689779097228
 30
0.0
 11
498.9633862958818
 21
517.4689779097233
 31
0.0
  0
LINE
  5
536
330
1F
100
AcDbEntity
  8
0
  6
DASHED
 62
     4
 48
5.0
100
AcDbLine
 10
496.4633862958819
 20
518.9689779097233
 30
0.0
 11
496.4633862958819
 21
517.4689779097233
 31
0.0
  0
LINE
  5
537
330
1F
100
AcDbEntity
  8
0
  6
DASHED
 62
     4
 48
5.0
100
AcDbLine
 10
497.4633862958818
 20
517.4689779097233
 30
0.0
 11
497.4633862958818
 21
518.9689779097233
 31
0.0
  0
LINE
  5
538
330
1F
100
AcDbEntity
  8
0
  6
DASHED
 62
     4
 48
5.0
100
AcDbLine
 10
489.8433862958817
 20
518.9689779097233
 30
0.0
 11
488.8433862958818
 21
518.9689779097233
 31
0.0
  0
LINE
  5
539
330
1F
100
AcDbEntity
  8
0
  6
DASHED
 62
     4
 48
5.0
100
AcDbLine
 10
494.9633862958818
 20
517.4689779097233
 30
0.0
 11
494.9633862958818
 21
516.4689779097228
 31
0.0
  0
LINE
  5
53A
330
1F
100
AcDbEntity
  8
0
  6
DASHED
 62
     4
 48
5.0
100
AcDbLine
 10
491.3433862958818
 20
517.4689779097233
 30
0.0
 11
489.8433862958817
 21
517.4689779097233
 31
0.0
  0
LINE
  5
53B
330
1F
100
AcDbEntity
  8
0
  6
DASHED
 62
     4
 48
5.0
100
AcDbLine
 10
489.8433862958817
 20
516.4689779097228
 30
0.0
 11
491.3433862958818
 21
516.4689779097228
 31
0.0
  0
LINE
  5
53C
330
1F
100
AcDbEntity
  8
0
  6
DASHED
 62
     4
 48
5.0
100
AcDbLine
 10
489.8433862958817
 20
514.9689779097228
 30
0.0
 11
489.8433862958817
 21
516.4689779097228
 31
0.0
  0
LINE
  5
53D
330
1F
100
AcDbEntity
  8
0
  6
DASHED
 62
     4
 48
5.0
100
AcDbLine
 10
488.8433862958818
 20
514.9689779097228
 30
0.0
 11
489.8433862958817
 21
514.9689779097228
 31
0.0
  0
LINE
  5
53E
330
1F
100
AcDbEntity
  8
0
  6
DASHED
 62
     4
 48
5.0
100
AcDbLine
 10
488.8433862958818
 20
516.4689779097228
 30
0.0
 11
488.8433862958818
 21
514.9689779097228
 31
0.0
  0
LINE
  5
53F
330
1F
100
AcDbEntity
  8
0
  6
DASHED
 62
     4
 48
5.0
100
AcDbLine
 10
491.3433862958818
 20
516.4689779097228
 30
0.0
 11
491.3433862958818
 21
516.4689779097228
 31
0.0
  0
LINE
  5
540
330
1F
100
AcDbEntity
  8
0
  6
DASHED
 62
     4
 48
5.0
100
AcDbLine
 10
491.3433862958818
 20
516.4689779097228
 30
0.0
 11
491.3433862958818
 21
517.4689779097233
 31
0.0
  0
LINE
  5
541
330
1F
100
AcDbEntity
  8
0
  6
DASHED
 62
     4
 48
5.0
100
AcDbLine
 10
488.8433862958818
 20
518.9689779097233
 30
0.0
 11
488.8433862958818
 21
517.4689779097233
 31
0.0
  0
LINE
  5
542
330
1F
100
AcDbEntity
  8
0
  6
DASHED
 62
     4
 48
5.0
100
AcDbLine
 10
489.8433862958817
 20
517.4689779097233
 30
0.0
 11
489.8433862958817
 21
518.9689779097233
 31
0.0
  0
LINE
  5
543
330
1F
100
AcDbEntity
  8
0
  6
DASHED
 62
     4
 48
5.0
100
AcDbLine
 10
496.4633862958819
 20
517.4689779097233
 30
0.0
 11
494.9633862958818
 21
517.4689779097233
 31
0.0
  0
LINE
  5
544
330
1F
100
AcDbEntity
  8
0
  6
DASHED
 62
     4
 48
5.0
100
AcDbLine
 10
494.9633862958818
 20
516.4689779097228
 30
0.0
 11
496.4633862958819
 21
516.4689779097228
 31
0.0
  0
LINE
  5
545
330
1F
100
AcDbEntity
  8
0
  6
DASHED
 62
     4
 48
5.0
100
AcDbLine
 10
489.924784295882
 20
522.5103159097228
 30
0.0
 11
489.924784295882
 21
531.5103159097231
 31
0.0
  0
LINE
  5
546
330
1F
100
AcDbEntity
  8
0
  6
DASHED
 62
     4
 48
5.0
100
AcDbLine
 10
488.6047842958821
 20
522.5103159097228
 30
0.0
 11
488.6047842958821
 21
531.5103159097231
 31
0.0
  0
LINE
  5
547
330
1F
100
AcDbEntity
  8
0
  6
DASHED
 62
     4
 48
5.0
100
AcDbLine
 10
497.5447842958816
 20
522.5103159097228
 30
0.0
 11
497.5447842958816
 21
531.5103159097231
 31
0.0
  0
LINE
  5
548
330
1F
100
AcDbEntity
  8
0
  6
DASHED
 62
     4
 48
5.0
100
AcDbLine
 10
496.2247842958817
 20
522.5103159097228
 30
0.0
 11
496.2247842958817
 21
531.5103159097231
 31
0.0
  0
LINE
  5
549
330
1F
100
AcDbEntity
  8
0
  6
DASHED
 62
     4
 48
5.0
100
AcDbLine
 10
504.083386295882
 20
517.4689779097233
 30
0.0
 11
502.5833862958815
 21
517.4689779097233
 31
0.0
  0
LINE
  5
54A
330
1F
100
AcDbEntity
  8
0
  6
DASHED
 62
     4
 48
5.0
100
AcDbLine
 10
502.5833862958815
 20
516.4689779097228
 30
0.0
 11
504.083386295882
 21
516.4689779097228
 31
0.0
  0
LINE
  5
54B
330
1F
100
AcDbEntity
  8
0
  6
DASHED
 62
     4
 48
5.0
100
AcDbLine
 10
500.0347842958816
 20
512.5103159097228
 30
0.0
 11
500.0347842958816
 21
522.5103159097228
 31
0.0
  0
LINE
  5
54C
330
1F
100
AcDbEntity
  8
0
  6
DASHED
 62
     4
 48
5.0
100
AcDbLine
 10
501.354784295882
 20
512.5103159097228
 30
0.0
 11
501.354784295882
 21
522.5103159097228
 31
0.0
  0
LINE
  5
54D
330
1F
100
AcDbEntity
  8
0
  6
DASHED
 62
     4
 48
5.0
100
AcDbLine
 10
493.734784295882
 20
512.5103159097228
 30
0.0
 11
493.734784295882
 21
522.5103159097228
 31
0.0
  0
LINE
  5
54E
330
1F
100
AcDbEntity
  8
0
  6
DASHED
 62
     4
 48
5.0
100
AcDbLine
 10
492.4147842958816
 20
512.5103159097228
 30
0.0
 11
492.4147842958816
 21
522.5103159097228
 31
0.0
  0
LINE
  5
54F
330
1F
100
AcDbEntity
  8
0
  6
DASHED
 62
     4
 48
5.0
100
AcDbLine
 10
515.2747842958826
 20
512.5103159097228
 30
0.0
 11
515.2747842958826
 21
522.5103159097228
 31
0.0
  0
LINE
  5
550
330
1F
100
AcDbEntity
  8
0
  6
DASHED
 62
     4
 48
5.0
100
AcDbLine
 10
508.974784295882
 20
512.5103159097228
 30
0.0
 11
508.974784295882
 21
522.5103159097228
 31
0.0
  0
LINE
  5
551
330
1F
100
AcDbEntity
  8
0
  6
DASHED
 62
     4
 48
5.0
100
AcDbLine
 10
507.654784295882
 20
512.5103159097228
 30
0.0
 11
507.654784295882
 21
522.5103159097228
 31
0.0
  0
LINE
  5
552
330
1F
100
AcDbEntity
  8
0
  6
DASHED
 62
     4
 48
5.0
100
AcDbLine
 10
485.989960295882
 20
529.2447919097229
 30
0.0
 11
484.989960295882
 21
529.2447919097229
 31
0.0
  0
LINE
  5
553
330
1F
100
AcDbEntity
  8
0
  6
DASHED
 62
     4
 48
5.0
100
AcDbLine
 10
487.4899602958818
 20
527.7447919097231
 30
0.0
 11
485.989960295882
 21
527.7447919097231
 31
0.0
  0
LINE
  5
554
330
1F
100
AcDbEntity
  8
0
  6
DASHED
 62
     4
 48
5.0
100
AcDbLine
 10
487.4899602958818
 20
526.7447919097228
 30
0.0
 11
487.4899602958818
 21
526.7447919097228
 31
0.0
  0
LINE
  5
555
330
1F
100
AcDbEntity
  8
0
  6
DASHED
 62
     4
 48
5.0
100
AcDbLine
 10
485.989960295882
 20
526.7447919097228
 30
0.0
 11
487.4899602958818
 21
526.7447919097228
 31
0.0
  0
LINE
  5
556
330
1F
100
AcDbEntity
  8
0
  6
DASHED
 62
     4
 48
5.0
100
AcDbLine
 10
485.989960295882
 20
525.2447919097233
 30
0.0
 11
485.989960295882
 21
526.7447919097228
 31
0.0
  0
LINE
  5
557
330
1F
100
AcDbEntity
  8
0
  6
DASHED
 62
     4
 48
5.0
100
AcDbLine
 10
484.989960295882
 20
525.2447919097233
 30
0.0
 11
485.989960295882
 21
525.2447919097233
 31
0.0
  0
LINE
  5
558
330
1F
100
AcDbEntity
  8
0
  6
DASHED
 62
     4
 48
5.0
100
AcDbLine
 10
484.989960295882
 20
526.7447919097228
 30
0.0
 11
484.989960295882
 21
525.2447919097233
 31
0.0
  0
LINE
  5
559
330
1F
100
AcDbEntity
  8
0
  6
DASHED
 62
     4
 48
5.0
100
AcDbLine
 10
487.4899602958818
 20
526.7447919097228
 30
0.0
 11
487.4899602958818
 21
527.7447919097231
 31
0.0
  0
LINE
  5
55A
330
1F
100
AcDbEntity
  8
0
  6
DASHED
 62
     4
 48
5.0
100
AcDbLine
 10
483.4899602958822
 20
527.7447919097231
 30
0.0
 11
483.4899602958822
 21
526.7447919097228
 31
0.0
  0
LINE
  5
55B
330
1F
100
AcDbEntity
  8
0
  6
DASHED
 62
     4
 48
5.0
100
AcDbLine
 10
484.989960295882
 20
527.7447919097231
 30
0.0
 11
483.4899602958822
 21
527.7447919097231
 31
0.0
  0
LINE
  5
55C
330
1F
100
AcDbEntity
  8
0
  6
DASHED
 62
     4
 48
5.0
100
AcDbLine
 10
483.4899602958822
 20
526.7447919097228
 30
0.0
 11
484.989960295882
 21
526.7447919097228
 31
0.0
  0
LINE
  5
55D
330
1F
100
AcDbEntity
  8
0
  6
DASHED
 62
     4
 48
5.0
100
AcDbLine
 10
484.989960295882
 20
529.2447919097229
 30
0.0
 11
484.989960295882
 21
527.7447919097231
 31
0.0
  0
LINE
  5
55E
330
1F
100
AcDbEntity
  8
0
  6
DASHED
 62
     4
 48
5.0
100
AcDbLine
 10
485.989960295882
 20
527.7447919097231
 30
0.0
 11
485.989960295882
 21
529.2447919097229
 31
0.0
  0
LINE
  5
55F
330
1F
100
AcDbEntity
  8
0
  6
DASHED
 62
     4
 48
5.0
100
AcDbLine
 10
478.3699602958821
 20
529.2447919097229
 30
0.0
 11
477.3699602958821
 21
529.2447919097229
 31
0.0
  0
LINE
  5
560
330
1F
100
AcDbEntity
  8
0
  6
DASHED
 62
     4
 48
5.0
100
AcDbLine
 10
479.869960295882
 20
527.7447919097231
 30
0.0
 11
478.3699602958821
 21
527.7447919097231
 31
0.0
  0
LINE
  5
561
330
1F
100
AcDbEntity
  8
0
  6
DASHED
 62
     4
 48
5.0
100
AcDbLine
 10
479.869960295882
 20
526.7447919097228
 30
0.0
 11
479.869960295882
 21
526.7447919097228
 31
0.0
  0
LINE
  5
562
330
1F
100
AcDbEntity
  8
0
  6
DASHED
 62
     4
 48
5.0
100
AcDbLine
 10
478.3699602958821
 20
526.7447919097228
 30
0.0
 11
479.869960295882
 21
526.7447919097228
 31
0.0
  0
LINE
  5
563
330
1F
100
AcDbEntity
  8
0
  6
DASHED
 62
     4
 48
5.0
100
AcDbLine
 10
478.3699602958821
 20
525.2447919097233
 30
0.0
 11
478.3699602958821
 21
526.7447919097228
 31
0.0
  0
LINE
  5
564
330
1F
100
AcDbEntity
  8
0
  6
DASHED
 62
     4
 48
5.0
100
AcDbLine
 10
477.3699602958821
 20
525.2447919097233
 30
0.0
 11
478.3699602958821
 21
525.2447919097233
 31
0.0
  0
LINE
  5
565
330
1F
100
AcDbEntity
  8
0
  6
DASHED
 62
     4
 48
5.0
100
AcDbLine
 10
477.3699602958821
 20
526.7447919097228
 30
0.0
 11
477.3699602958821
 21
525.2447919097233
 31
0.0
  0
LINE
  5
566
330
1F
100
AcDbEntity
  8
0
  6
DASHED
 62
     4
 48
5.0
100
AcDbLine
 10
479.869960295882
 20
526.7447919097228
 30
0.0
 11
479.869960295882
 21
527.7447919097231
 31
0.0
  0
LINE
  5
567
330
1F
100
AcDbEntity
  8
0
  6
DASHED
 62
     4
 48
5.0
100
AcDbLine
 10
475.8699602958817
 20
527.7447919097231
 30
0.0
 11
475.8699602958817
 21
526.7447919097228
 31
0.0
  0
LINE
  5
568
330
1F
100
AcDbEntity
  8
0
  6
DASHED
 62
     4
 48
5.0
100
AcDbLine
 10
477.3699602958821
 20
527.7447919097231
 30
0.0
 11
475.8699602958817
 21
527.7447919097231
 31
0.0
  0
LINE
  5
569
330
1F
100
AcDbEntity
  8
0
  6
DASHED
 62
     4
 48
5.0
100
AcDbLine
 10
475.8699602958817
 20
526.7447919097228
 30
0.0
 11
477.3699602958821
 21
526.7447919097228
 31
0.0
  0
LINE
  5
56A
330
1F
100
AcDbEntity
  8
0
  6
DASHED
 62
     4
 48
5.0
100
AcDbLine
 10
477.3699602958821
 20
529.2447919097229
 30
0.0
 11
477.3699602958821
 21
527.7447919097231
 31
0.0
  0
LINE
  5
56B
330
1F
100
AcDbEntity
  8
0
  6
DASHED
 62
     4
 48
5.0
100
AcDbLine
 10
478.3699602958821
 20
527.7447919097231
 30
0.0
 11
478.3699602958821
 21
529.2447919097229
 31
0.0
  0
LINE
  5
56C
330
1F
100
AcDbEntity
  8
0
  6
DASHED
 62
     4
 48
5.0
100
AcDbLine
 10
482.2233862958817
 20
518.9689779097233
 30
0.0
 11
481.2233862958818
 21
518.9689779097233
 31
0.0
  0
LINE
  5
56D
330
1F
100
AcDbEntity
  8
0
  6
DASHED
 62
     4
 48
5.0
100
AcDbLine
 10
487.3433862958818
 20
517.4689779097233
 30
0.0
 11
487.3433862958818
 21
516.4689779097228
 31
0.0
  0
LINE
  5
56E
330
1F
100
AcDbEntity
  8
0
  6
DASHED
 62
     4
 48
5.0
100
AcDbLine
 10
483.7233862958814
 20
517.4689779097233
 30
0.0
 11
482.2233862958817
 21
517.4689779097233
 31
0.0
  0
LINE
  5
56F
330
1F
100
AcDbEntity
  8
0
  6
DASHED
 62
     4
 48
5.0
100
AcDbLine
 10
482.2233862958817
 20
516.4689779097228
 30
0.0
 11
483.7233862958814
 21
516.4689779097228
 31
0.0
  0
LINE
  5
570
330
1F
100
AcDbEntity
  8
0
  6
DASHED
 62
     4
 48
5.0
100
AcDbLine
 10
481.2233862958818
 20
514.9689779097228
 30
0.0
 11
482.2233862958817
 21
514.9689779097228
 31
0.0
  0
LINE
  5
571
330
1F
100
AcDbEntity
  8
0
  6
DASHED
 62
     4
 48
5.0
100
AcDbLine
 10
481.2233862958818
 20
516.4689779097228
 30
0.0
 11
481.2233862958818
 21
514.9689779097228
 31
0.0
  0
LINE
  5
572
330
1F
100
AcDbEntity
  8
0
  6
DASHED
 62
     4
 48
5.0
100
AcDbLine
 10
482.2233862958817
 20
514.9689779097228
 30
0.0
 11
482.2233862958817
 21
516.4689779097228
 31
0.0
  0
LINE
  5
573
330
1F
100
AcDbEntity
  8
0
  6
DASHED
 62
     4
 48
5.0
100
AcDbLine
 10
483.7233862958814
 20
516.4689779097228
 30
0.0
 11
483.7233862958814
 21
516.4689779097228
 31
0.0
  0
LINE
  5
574
330
1F
100
AcDbEntity
  8
0
  6
DASHED
 62
     4
 48
5.0
100
AcDbLine
 10
483.7233862958814
 20
516.4689779097228
 30
0.0
 11
483.7233862958814
 21
517.4689779097233
 31
0.0
  0
LINE
  5
575
330
1F
100
AcDbEntity
  8
0
  6
DASHED
 62
     4
 48
5.0
100
AcDbLine
 10
481.2233862958818
 20
518.9689779097233
 30
0.0
 11
481.2233862958818
 21
517.4689779097233
 31
0.0
  0
LINE
  5
576
330
1F
100
AcDbEntity
  8
0
  6
DASHED
 62
     4
 48
5.0
100
AcDbLine
 10
482.2233862958817
 20
517.4689779097233
 30
0.0
 11
482.2233862958817
 21
518.9689779097233
 31
0.0
  0
LINE
  5
577
330
1F
100
AcDbEntity
  8
0
  6
DASHED
 62
     4
 48
5.0
100
AcDbLine
 10
479.7233862958814
 20
517.4689779097233
 30
0.0
 11
479.7233862958814
 21
516.4689779097228
 31
0.0
  0
LINE
  5
578
330
1F
100
AcDbEntity
  8
0
  6
DASHED
 62
     4
 48
5.0
100
AcDbLine
 10
476.1033862958818
 20
517.4689779097233
 30
0.0
 11
474.6033862958817
 21
517.4689779097233
 31
0.0
  0
LINE
  5
579
330
1F
100
AcDbEntity
  8
0
  6
DASHED
 62
     4
 48
5.0
100
AcDbLine
 10
474.6033862958817
 20
516.4689779097228
 30
0.0
 11
476.1033862958818
 21
516.4689779097228
 31
0.0
  0
LINE
  5
57A
330
1F
100
AcDbEntity
  8
0
  6
DASHED
 62
     4
 48
5.0
100
AcDbLine
 10
474.6033862958817
 20
514.9689779097228
 30
0.0
 11
474.6033862958817
 21
516.4689779097228
 31
0.0
  0
LINE
  5
57B
330
1F
100
AcDbEntity
  8
0
  6
DASHED
 62
     4
 48
5.0
100
AcDbLine
 10
476.1033862958818
 20
516.4689779097228
 30
0.0
 11
476.1033862958818
 21
516.4689779097228
 31
0.0
  0
LINE
  5
57C
330
1F
100
AcDbEntity
  8
0
  6
DASHED
 62
     4
 48
5.0
100
AcDbLine
 10
476.1033862958818
 20
516.4689779097228
 30
0.0
 11
476.1033862958818
 21
517.4689779097233
 31
0.0
  0
LINE
  5
57D
330
1F
100
AcDbEntity
  8
0
  6
DASHED
 62
     4
 48
5.0
100
AcDbLine
 10
474.6033862958817
 20
517.4689779097233
 30
0.0
 11
474.6033862958817
 21
518.9689779097233
 31
0.0
  0
LINE
  5
57E
330
1F
100
AcDbEntity
  8
0
  6
DASHED
 62
     4
 48
5.0
100
AcDbLine
 10
481.2233862958818
 20
517.4689779097233
 30
0.0
 11
479.7233862958814
 21
517.4689779097233
 31
0.0
  0
LINE
  5
57F
330
1F
100
AcDbEntity
  8
0
  6
DASHED
 62
     4
 48
5.0
100
AcDbLine
 10
479.7233862958814
 20
516.4689779097228
 30
0.0
 11
481.2233862958818
 21
516.4689779097228
 31
0.0
  0
LINE
  5
580
330
1F
100
AcDbEntity
  8
0
  6
DASHED
 62
     4
 48
5.0
100
AcDbLine
 10
474.6847842958819
 20
522.5103159097228
 30
0.0
 11
474.6847842958819
 21
531.5103159097231
 31
0.0
  0
LINE
  5
581
330
1F
100
AcDbEntity
  8
0
  6
DASHED
 62
     4
 48
5.0
100
AcDbLine
 10
480.9847842958816
 20
522.5103159097228
 30
0.0
 11
480.9847842958816
 21
531.5103159097231
 31
0.0
  0
LINE
  5
582
330
1F
100
AcDbEntity
  8
0
  6
DASHED
 62
     4
 48
5.0
100
AcDbLine
 10
482.304784295882
 20
522.5103159097228
 30
0.0
 11
482.304784295882
 21
531.5103159097231
 31
0.0
  0
LINE
  5
583
330
1F
100
AcDbEntity
  8
0
  6
DASHED
 62
     4
 48
5.0
100
AcDbLine
 10
470.749960295882
 20
529.2447919097229
 30
0.0
 11
469.7499602958818
 21
529.2447919097229
 31
0.0
  0
LINE
  5
584
330
1F
100
AcDbEntity
  8
0
  6
DASHED
 62
     4
 48
5.0
100
AcDbLine
 10
472.249960295882
 20
527.7447919097231
 30
0.0
 11
470.749960295882
 21
527.7447919097231
 31
0.0
  0
LINE
  5
585
330
1F
100
AcDbEntity
  8
0
  6
DASHED
 62
     4
 48
5.0
100
AcDbLine
 10
472.249960295882
 20
526.7447919097228
 30
0.0
 11
472.249960295882
 21
526.7447919097228
 31
0.0
  0
LINE
  5
586
330
1F
100
AcDbEntity
  8
0
  6
DASHED
 62
     4
 48
5.0
100
AcDbLine
 10
470.749960295882
 20
526.7447919097228
 30
0.0
 11
472.249960295882
 21
526.7447919097228
 31
0.0
  0
LINE
  5
587
330
1F
100
AcDbEntity
  8
0
  6
DASHED
 62
     4
 48
5.0
100
AcDbLine
 10
470.749960295882
 20
525.2447919097233
 30
0.0
 11
470.749960295882
 21
526.7447919097228
 31
0.0
  0
LINE
  5
588
330
1F
100
AcDbEntity
  8
0
  6
DASHED
 62
     4
 48
5.0
100
AcDbLine
 10
472.249960295882
 20
526.7447919097228
 30
0.0
 11
472.249960295882
 21
527.7447919097231
 31
0.0
  0
LINE
  5
589
330
1F
100
AcDbEntity
  8
0
  6
DASHED
 62
     4
 48
5.0
100
AcDbLine
 10
469.7499602958818
 20
527.7447919097231
 30
0.0
 11
468.2499602958816
 21
527.7447919097231
 31
0.0
  0
LINE
  5
58A
330
1F
100
AcDbEntity
  8
0
  6
DASHED
 62
     4
 48
5.0
100
AcDbLine
 10
468.2499602958816
 20
526.7447919097228
 30
0.0
 11
469.7499602958818
 21
526.7447919097228
 31
0.0
  0
LINE
  5
58B
330
1F
100
AcDbEntity
  8
0
  6
DASHED
 62
     4
 48
5.0
100
AcDbLine
 10
468.2499602958816
 20
527.7447919097231
 30
0.0
 11
468.2499602958816
 21
526.7447919097228
 31
0.0
  0
LINE
  5
58C
330
1F
100
AcDbEntity
  8
0
  6
DASHED
 62
     4
 48
5.0
100
AcDbLine
 10
469.7499602958818
 20
526.7447919097228
 30
0.0
 11
469.7499602958818
 21
525.2447919097233
 31
0.0
  0
LINE
  5
58D
330
1F
100
AcDbEntity
  8
0
  6
DASHED
 62
     4
 48
5.0
100
AcDbLine
 10
469.7499602958818
 20
525.2447919097233
 30
0.0
 11
470.749960295882
 21
525.2447919097233
 31
0.0
  0
LINE
  5
58E
330
1F
100
AcDbEntity
  8
0
  6
DASHED
 62
     4
 48
5.0
100
AcDbLine
 10
469.7499602958818
 20
529.2447919097229
 30
0.0
 11
469.7499602958818
 21
527.7447919097231
 31
0.0
  0
LINE
  5
58F
330
1F
100
AcDbEntity
  8
0
  6
DASHED
 62
     4
 48
5.0
100
AcDbLine
 10
470.749960295882
 20
527.7447919097231
 30
0.0
 11
470.749960295882
 21
529.2447919097229
 31
0.0
  0
LINE
  5
590
330
1F
100
AcDbEntity
  8
0
  6
DASHED
 62
     4
 48
5.0
100
AcDbLine
 10
463.129960295882
 20
529.2447919097229
 30
0.0
 11
462.129960295882
 21
529.2447919097229
 31
0.0
  0
LINE
  5
591
330
1F
100
AcDbEntity
  8
0
  6
DASHED
 62
     4
 48
5.0
100
AcDbLine
 10
464.6299602958817
 20
527.7447919097231
 30
0.0
 11
463.129960295882
 21
527.7447919097231
 31
0.0
  0
LINE
  5
592
330
1F
100
AcDbEntity
  8
0
  6
DASHED
 62
     4
 48
5.0
100
AcDbLine
 10
464.6299602958817
 20
526.7447919097228
 30
0.0
 11
464.6299602958817
 21
526.7447919097228
 31
0.0
  0
LINE
  5
593
330
1F
100
AcDbEntity
  8
0
  6
DASHED
 62
     4
 48
5.0
100
AcDbLine
 10
463.129960295882
 20
526.7447919097228
 30
0.0
 11
464.6299602958817
 21
526.7447919097228
 31
0.0
  0
LINE
  5
594
330
1F
100
AcDbEntity
  8
0
  6
DASHED
 62
     4
 48
5.0
100
AcDbLine
 10
463.129960295882
 20
525.2447919097233
 30
0.0
 11
463.129960295882
 21
526.7447919097228
 31
0.0
  0
LINE
  5
595
330
1F
100
AcDbEntity
  8
0
  6
DASHED
 62
     4
 48
5.0
100
AcDbLine
 10
464.6299602958817
 20
526.7447919097228
 30
0.0
 11
464.6299602958817
 21
527.7447919097231
 31
0.0
  0
LINE
  5
596
330
1F
100
AcDbEntity
  8
0
  6
DASHED
 62
     4
 48
5.0
100
AcDbLine
 10
462.129960295882
 20
527.7447919097231
 30
0.0
 11
460.6299602958815
 21
527.7447919097231
 31
0.0
  0
LINE
  5
597
330
1F
100
AcDbEntity
  8
0
  6
DASHED
 62
     4
 48
5.0
100
AcDbLine
 10
460.6299602958815
 20
526.7447919097228
 30
0.0
 11
462.129960295882
 21
526.7447919097228
 31
0.0
  0
LINE
  5
598
330
1F
100
AcDbEntity
  8
0
  6
DASHED
 62
     4
 48
5.0
100
AcDbLine
 10
460.6299602958815
 20
527.7447919097231
 30
0.0
 11
460.6299602958815
 21
526.7447919097228
 31
0.0
  0
LINE
  5
599
330
1F
100
AcDbEntity
  8
0
  6
DASHED
 62
     4
 48
5.0
100
AcDbLine
 10
462.129960295882
 20
526.7447919097228
 30
0.0
 11
462.129960295882
 21
525.2447919097233
 31
0.0
  0
LINE
  5
59A
330
1F
100
AcDbEntity
  8
0
  6
DASHED
 62
     4
 48
5.0
100
AcDbLine
 10
462.129960295882
 20
525.2447919097233
 30
0.0
 11
463.129960295882
 21
525.2447919097233
 31
0.0
  0
LINE
  5
59B
330
1F
100
AcDbEntity
  8
0
  6
DASHED
 62
     4
 48
5.0
100
AcDbLine
 10
463.129960295882
 20
527.7447919097231
 30
0.0
 11
463.129960295882
 21
529.2447919097229
 31
0.0
  0
LINE
  5
59C
330
1F
100
AcDbEntity
  8
0
  6
DASHED
 62
     4
 48
5.0
100
AcDbLine
 10
462.129960295882
 20
529.2447919097229
 30
0.0
 11
462.129960295882
 21
527.7447919097231
 31
0.0
  0
LINE
  5
59D
330
1F
100
AcDbEntity
  8
0
  6
DASHED
 62
     4
 48
5.0
100
AcDbLine
 10
473.603386295882
 20
517.4689779097233
 30
0.0
 11
472.103386295882
 21
517.4689779097233
 31
0.0
  0
LINE
  5
59E
330
1F
100
AcDbEntity
  8
0
  6
DASHED
 62
     4
 48
5.0
100
AcDbLine
 10
473.603386295882
 20
516.4689779097228
 30
0.0
 11
473.603386295882
 21
514.9689779097228
 31
0.0
  0
LINE
  5
59F
330
1F
100
AcDbEntity
  8
0
  6
DASHED
 62
     4
 48
5.0
100
AcDbLine
 10
472.103386295882
 20
516.4689779097228
 30
0.0
 11
473.603386295882
 21
516.4689779097228
 31
0.0
  0
LINE
  5
5A0
330
1F
100
AcDbEntity
  8
0
  6
DASHED
 62
     4
 48
5.0
100
AcDbLine
 10
472.103386295882
 20
517.4689779097233
 30
0.0
 11
472.103386295882
 21
516.4689779097228
 31
0.0
  0
LINE
  5
5A1
330
1F
100
AcDbEntity
  8
0
  6
DASHED
 62
     4
 48
5.0
100
AcDbLine
 10
468.4833862958818
 20
517.4689779097233
 30
0.0
 11
466.9833862958817
 21
517.4689779097233
 31
0.0
  0
LINE
  5
5A2
330
1F
100
AcDbEntity
  8
0
  6
DASHED
 62
     4
 48
5.0
100
AcDbLine
 10
468.4833862958818
 20
516.4689779097228
 30
0.0
 11
468.4833862958818
 21
516.4689779097228
 31
0.0
  0
LINE
  5
5A3
330
1F
100
AcDbEntity
  8
0
  6
DASHED
 62
     4
 48
5.0
100
AcDbLine
 10
466.9833862958817
 20
516.4689779097228
 30
0.0
 11
468.4833862958818
 21
516.4689779097228
 31
0.0
  0
LINE
  5
5A4
330
1F
100
AcDbEntity
  8
0
  6
DASHED
 62
     4
 48
5.0
100
AcDbLine
 10
466.9833862958817
 20
514.9689779097228
 30
0.0
 11
466.9833862958817
 21
516.4689779097228
 31
0.0
  0
LINE
  5
5A5
330
1F
100
AcDbEntity
  8
0
  6
DASHED
 62
     4
 48
5.0
100
AcDbLine
 10
468.4833862958818
 20
516.4689779097228
 30
0.0
 11
468.4833862958818
 21
517.4689779097233
 31
0.0
  0
LINE
  5
5A6
330
1F
100
AcDbEntity
  8
0
  6
DASHED
 62
     4
 48
5.0
100
AcDbLine
 10
466.9833862958817
 20
517.4689779097233
 30
0.0
 11
466.9833862958817
 21
518.9689779097233
 31
0.0
  0
LINE
  5
5A7
330
1F
100
AcDbEntity
  8
0
  6
DASHED
 62
     4
 48
5.0
100
AcDbLine
 10
473.603386295882
 20
518.9689779097233
 30
0.0
 11
473.603386295882
 21
517.4689779097233
 31
0.0
  0
LINE
  5
5A8
330
1F
100
AcDbEntity
  8
0
  6
DASHED
 62
     4
 48
5.0
100
AcDbLine
 10
465.9833862958818
 20
517.4689779097233
 30
0.0
 11
464.483386295882
 21
517.4689779097233
 31
0.0
  0
LINE
  5
5A9
330
1F
100
AcDbEntity
  8
0
  6
DASHED
 62
     4
 48
5.0
100
AcDbLine
 10
464.483386295882
 20
516.4689779097228
 30
0.0
 11
465.9833862958818
 21
516.4689779097228
 31
0.0
  0
LINE
  5
5AA
330
1F
100
AcDbEntity
  8
0
  6
DASHED
 62
     4
 48
5.0
100
AcDbLine
 10
465.9833862958818
 20
516.4689779097228
 30
0.0
 11
465.9833862958818
 21
514.9689779097228
 31
0.0
  0
LINE
  5
5AB
330
1F
100
AcDbEntity
  8
0
  6
DASHED
 62
     4
 48
5.0
100
AcDbLine
 10
464.483386295882
 20
517.4689779097233
 30
0.0
 11
464.483386295882
 21
516.4689779097228
 31
0.0
  0
LINE
  5
5AC
330
1F
100
AcDbEntity
  8
0
  6
DASHED
 62
     4
 48
5.0
100
AcDbLine
 10
460.8633862958818
 20
517.4689779097233
 30
0.0
 11
459.3633862958816
 21
517.4689779097233
 31
0.0
  0
LINE
  5
5AD
330
1F
100
AcDbEntity
  8
0
  6
DASHED
 62
     4
 48
5.0
100
AcDbLine
 10
460.8633862958818
 20
516.4689779097228
 30
0.0
 11
460.8633862958818
 21
516.4689779097228
 31
0.0
  0
LINE
  5
5AE
330
1F
100
AcDbEntity
  8
0
  6
DASHED
 62
     4
 48
5.0
100
AcDbLine
 10
459.3633862958816
 20
516.4689779097228
 30
0.0
 11
460.8633862958818
 21
516.4689779097228
 31
0.0
  0
LINE
  5
5AF
330
1F
100
AcDbEntity
  8
0
  6
DASHED
 62
     4
 48
5.0
100
AcDbLine
 10
459.3633862958816
 20
514.9689779097228
 30
0.0
 11
459.3633862958816
 21
516.4689779097228
 31
0.0
  0
LINE
  5
5B0
330
1F
100
AcDbEntity
  8
0
  6
DASHED
 62
     4
 48
5.0
100
AcDbLine
 10
460.8633862958818
 20
516.4689779097228
 30
0.0
 11
460.8633862958818
 21
517.4689779097233
 31
0.0
  0
LINE
  5
5B1
330
1F
100
AcDbEntity
  8
0
  6
DASHED
 62
     4
 48
5.0
100
AcDbLine
 10
459.3633862958816
 20
517.4689779097233
 30
0.0
 11
459.3633862958816
 21
518.9689779097233
 31
0.0
  0
LINE
  5
5B2
330
1F
100
AcDbEntity
  8
0
  6
DASHED
 62
     4
 48
5.0
100
AcDbLine
 10
465.9833862958818
 20
518.9689779097233
 30
0.0
 11
465.9833862958818
 21
517.4689779097233
 31
0.0
  0
LINE
  5
5B3
330
1F
100
AcDbEntity
  8
0
  6
DASHED
 62
     4
 48
5.0
100
AcDbLine
 10
466.9833862958817
 20
518.9689779097233
 30
0.0
 11
465.9833862958818
 21
518.9689779097233
 31
0.0
  0
LINE
  5
5B4
330
1F
100
AcDbEntity
  8
0
  6
DASHED
 62
     4
 48
5.0
100
AcDbLine
 10
465.9833862958818
 20
514.9689779097228
 30
0.0
 11
466.9833862958817
 21
514.9689779097228
 31
0.0
  0
LINE
  5
5B5
330
1F
100
AcDbEntity
  8
0
  6
DASHED
 62
     4
 48
5.0
100
AcDbLine
 10
459.444784295882
 20
522.5103159097228
 30
0.0
 11
459.444784295882
 21
531.5103159097231
 31
0.0
  0
LINE
  5
5B6
330
1F
100
AcDbEntity
  8
0
  6
DASHED
 62
     4
 48
5.0
100
AcDbLine
 10
467.064784295882
 20
522.5103159097228
 30
0.0
 11
467.064784295882
 21
531.5103159097231
 31
0.0
  0
LINE
  5
5B7
330
1F
100
AcDbEntity
  8
0
  6
DASHED
 62
     4
 48
5.0
100
AcDbLine
 10
465.7447842958815
 20
522.5103159097228
 30
0.0
 11
465.7447842958815
 21
531.5103159097231
 31
0.0
  0
LINE
  5
5B8
330
1F
100
AcDbEntity
  8
0
  6
DASHED
 62
     4
 48
5.0
100
AcDbLine
 10
473.3647842958816
 20
522.5103159097228
 30
0.0
 11
473.3647842958816
 21
531.5103159097231
 31
0.0
  0
LINE
  5
5B9
330
1F
100
AcDbEntity
  8
0
  6
DASHED
 62
     4
 48
5.0
100
AcDbLine
 10
474.6033862958817
 20
518.9689779097233
 30
0.0
 11
473.603386295882
 21
518.9689779097233
 31
0.0
  0
LINE
  5
5BA
330
1F
100
AcDbEntity
  8
0
  6
DASHED
 62
     4
 48
5.0
100
AcDbLine
 10
473.603386295882
 20
514.9689779097228
 30
0.0
 11
474.6033862958817
 21
514.9689779097228
 31
0.0
  0
LINE
  5
5BB
330
1F
100
AcDbEntity
  8
0
  6
DASHED
 62
     4
 48
5.0
100
AcDbLine
 10
470.8747842958818
 20
512.5103159097228
 30
0.0
 11
470.8747842958818
 21
522.5103159097228
 31
0.0
  0
LINE
  5
5BC
330
1F
100
AcDbEntity
  8
0
  6
DASHED
 62
     4
 48
5.0
100
AcDbLine
 10
469.554784295882
 20
512.5103159097228
 30
0.0
 11
469.554784295882
 21
522.5103159097228
 31
0.0
  0
LINE
  5
5BD
330
1F
100
AcDbEntity
  8
0
  6
DASHED
 62
     4
 48
5.0
100
AcDbLine
 10
463.2547842958817
 20
512.5103159097228
 30
0.0
 11
463.2547842958817
 21
522.5103159097228
 31
0.0
  0
LINE
  5
5BE
330
1F
100
AcDbEntity
  8
0
  6
DASHED
 62
     4
 48
5.0
100
AcDbLine
 10
461.9347842958817
 20
512.5103159097228
 30
0.0
 11
461.9347842958817
 21
522.5103159097228
 31
0.0
  0
LINE
  5
5BF
330
1F
100
AcDbEntity
  8
0
  6
DASHED
 62
     4
 48
5.0
100
AcDbLine
 10
486.1147842958819
 20
512.5103159097228
 30
0.0
 11
486.1147842958819
 21
522.5103159097228
 31
0.0
  0
LINE
  5
5C0
330
1F
100
AcDbEntity
  8
0
  6
DASHED
 62
     4
 48
5.0
100
AcDbLine
 10
484.7947842958816
 20
512.5103159097228
 30
0.0
 11
484.7947842958816
 21
522.5103159097228
 31
0.0
  0
LINE
  5
5C1
330
1F
100
AcDbEntity
  8
0
  6
DASHED
 62
     4
 48
5.0
100
AcDbLine
 10
478.4947842958816
 20
512.5103159097228
 30
0.0
 11
478.4947842958816
 21
522.5103159097228
 31
0.0
  0
LINE
  5
5C2
330
1F
100
AcDbEntity
  8
0
  6
DASHED
 62
     4
 48
5.0
100
AcDbLine
 10
477.1747842958821
 20
512.5103159097228
 30
0.0
 11
477.1747842958821
 21
522.5103159097228
 31
0.0
  0
LINE
  5
5C3
330
1F
100
AcDbEntity
  8
0
  6
DASHED
 62
     4
 48
5.0
100
AcDbLine
 10
488.8433862958818
 20
517.4689779097233
 30
0.0
 11
487.3433862958818
 21
517.4689779097233
 31
0.0
  0
LINE
  5
5C4
330
1F
100
AcDbEntity
  8
0
  6
DASHED
 62
     4
 48
5.0
100
AcDbLine
 10
487.3433862958818
 20
516.4689779097228
 30
0.0
 11
488.8433862958818
 21
516.4689779097228
 31
0.0
  0
LINE
  5
5C5
330
1F
100
AcDbEntity
  8
0
  6
DASHED
 62
     4
 48
5.0
100
AcDbLine
 10
517.9699602958826
 20
527.7447919097231
 30
0.0
 11
516.4699602958826
 21
527.7447919097231
 31
0.0
  0
LINE
  5
5C6
330
1F
100
AcDbEntity
  8
0
  6
DASHED
 62
     4
 48
5.0
100
AcDbLine
 10
516.4699602958826
 20
526.7447919097228
 30
0.0
 11
517.9699602958826
 21
526.7447919097228
 31
0.0
  0
LINE
  5
5C7
330
1F
100
AcDbEntity
  8
0
  6
DASHED
 62
     4
 48
5.0
100
AcDbLine
 10
455.5099602958816
 20
529.2447919097229
 30
0.0
 11
454.509960295882
 21
529.2447919097229
 31
0.0
  0
LINE
  5
5C8
330
1F
100
AcDbEntity
  8
0
  6
DASHED
 62
     4
 48
5.0
100
AcDbLine
 10
457.0099602958816
 20
527.7447919097231
 30
0.0
 11
455.5099602958816
 21
527.7447919097231
 31
0.0
  0
LINE
  5
5C9
330
1F
100
AcDbEntity
  8
0
  6
DASHED
 62
     4
 48
5.0
100
AcDbLine
 10
457.0099602958816
 20
526.7447919097228
 30
0.0
 11
457.0099602958816
 21
526.7447919097228
 31
0.0
  0
LINE
  5
5CA
330
1F
100
AcDbEntity
  8
0
  6
DASHED
 62
     4
 48
5.0
100
AcDbLine
 10
455.5099602958816
 20
526.7447919097228
 30
0.0
 11
457.0099602958816
 21
526.7447919097228
 31
0.0
  0
LINE
  5
5CB
330
1F
100
AcDbEntity
  8
0
  6
DASHED
 62
     4
 48
5.0
100
AcDbLine
 10
455.5099602958816
 20
525.2447919097233
 30
0.0
 11
455.5099602958816
 21
526.7447919097228
 31
0.0
  0
LINE
  5
5CC
330
1F
100
AcDbEntity
  8
0
  6
DASHED
 62
     4
 48
5.0
100
AcDbLine
 10
457.0099602958816
 20
526.7447919097228
 30
0.0
 11
457.0099602958816
 21
527.7447919097231
 31
0.0
  0
LINE
  5
5CD
330
1F
100
AcDbEntity
  8
0
  6
DASHED
 62
     4
 48
5.0
100
AcDbLine
 10
454.509960295882
 20
527.7447919097231
 30
0.0
 11
453.0099602958813
 21
527.7447919097231
 31
0.0
  0
LINE
  5
5CE
330
1F
100
AcDbEntity
  8
0
  6
DASHED
 62
     4
 48
5.0
100
AcDbLine
 10
453.0099602958813
 20
526.7447919097228
 30
0.0
 11
454.509960295882
 21
526.7447919097228
 31
0.0
  0
LINE
  5
5CF
330
1F
100
AcDbEntity
  8
0
  6
DASHED
 62
     4
 48
5.0
100
AcDbLine
 10
453.0099602958813
 20
527.7447919097231
 30
0.0
 11
453.0099602958813
 21
526.7447919097228
 31
0.0
  0
LINE
  5
5D0
330
1F
100
AcDbEntity
  8
0
  6
DASHED
 62
     4
 48
5.0
100
AcDbLine
 10
454.509960295882
 20
526.7447919097228
 30
0.0
 11
454.509960295882
 21
525.2447919097233
 31
0.0
  0
LINE
  5
5D1
330
1F
100
AcDbEntity
  8
0
  6
DASHED
 62
     4
 48
5.0
100
AcDbLine
 10
454.509960295882
 20
525.2447919097233
 30
0.0
 11
455.5099602958816
 21
525.2447919097233
 31
0.0
  0
LINE
  5
5D2
330
1F
100
AcDbEntity
  8
0
  6
DASHED
 62
     4
 48
5.0
100
AcDbLine
 10
455.5099602958816
 20
527.7447919097231
 30
0.0
 11
455.5099602958816
 21
529.2447919097229
 31
0.0
  0
LINE
  5
5D3
330
1F
100
AcDbEntity
  8
0
  6
DASHED
 62
     4
 48
5.0
100
AcDbLine
 10
454.509960295882
 20
529.2447919097229
 30
0.0
 11
454.509960295882
 21
527.7447919097231
 31
0.0
  0
LINE
  5
5D4
330
1F
100
AcDbEntity
  8
0
  6
DASHED
 62
     4
 48
5.0
100
AcDbLine
 10
458.3633862958818
 20
517.4689779097233
 30
0.0
 11
456.8633862958821
 21
517.4689779097233
 31
0.0
  0
LINE
  5
5D5
330
1F
100
AcDbEntity
  8
0
  6
DASHED
 62
     4
 48
5.0
100
AcDbLine
 10
458.3633862958818
 20
516.4689779097228
 30
0.0
 11
458.3633862958818
 21
514.9689779097228
 31
0.0
  0
LINE
  5
5D6
330
1F
100
AcDbEntity
  8
0
  6
DASHED
 62
     4
 48
5.0
100
AcDbLine
 10
456.8633862958821
 20
516.4689779097228
 30
0.0
 11
458.3633862958818
 21
516.4689779097228
 31
0.0
  0
LINE
  5
5D7
330
1F
100
AcDbEntity
  8
0
  6
DASHED
 62
     4
 48
5.0
100
AcDbLine
 10
456.8633862958821
 20
517.4689779097233
 30
0.0
 11
456.8633862958821
 21
516.4689779097228
 31
0.0
  0
LINE
  5
5D8
330
1F
100
AcDbEntity
  8
0
  6
DASHED
 62
     4
 48
5.0
100
AcDbLine
 10
453.243386295882
 20
517.4689779097233
 30
0.0
 11
451.7433862958817
 21
517.4689779097233
 31
0.0
  0
LINE
  5
5D9
330
1F
100
AcDbEntity
  8
0
  6
DASHED
 62
     4
 48
5.0
100
AcDbLine
 10
453.243386295882
 20
516.4689779097228
 30
0.0
 11
453.243386295882
 21
516.4689779097228
 31
0.0
  0
LINE
  5
5DA
330
1F
100
AcDbEntity
  8
0
  6
DASHED
 62
     4
 48
5.0
100
AcDbLine
 10
451.7433862958817
 20
516.4689779097228
 30
0.0
 11
453.243386295882
 21
516.4689779097228
 31
0.0
  0
LINE
  5
5DB
330
1F
100
AcDbEntity
  8
0
  6
DASHED
 62
     4
 48
5.0
100
AcDbLine
 10
451.7433862958817
 20
514.9689779097228
 30
0.0
 11
451.7433862958817
 21
516.4689779097228
 31
0.0
  0
LINE
  5
5DC
330
1F
100
AcDbEntity
  8
0
  6
DASHED
 62
     4
 48
5.0
100
AcDbLine
 10
453.243386295882
 20
516.4689779097228
 30
0.0
 11
453.243386295882
 21
517.4689779097233
 31
0.0
  0
LINE
  5
5DD
330
1F
100
AcDbEntity
  8
0
  6
DASHED
 62
     4
 48
5.0
100
AcDbLine
 10
451.7433862958817
 20
517.4689779097233
 30
0.0
 11
451.7433862958817
 21
518.9689779097233
 31
0.0
  0
LINE
  5
5DE
330
1F
100
AcDbEntity
  8
0
  6
DASHED
 62
     4
 48
5.0
100
AcDbLine
 10
458.3633862958818
 20
518.9689779097233
 30
0.0
 11
458.3633862958818
 21
517.4689779097233
 31
0.0
  0
LINE
  5
5DF
330
1F
100
AcDbEntity
  8
0
  6
DASHED
 62
     4
 48
5.0
100
AcDbLine
 10
450.743386295882
 20
517.4689779097233
 30
0.0
 11
449.2433862958818
 21
517.4689779097233
 31
0.0
  0
LINE
  5
5E0
330
1F
100
AcDbEntity
  8
0
  6
DASHED
 62
     4
 48
5.0
100
AcDbLine
 10
450.743386295882
 20
516.4689779097228
 30
0.0
 11
450.743386295882
 21
514.9689779097228
 31
0.0
  0
LINE
  5
5E1
330
1F
100
AcDbEntity
  8
0
  6
DASHED
 62
     4
 48
5.0
100
AcDbLine
 10
449.2433862958818
 20
516.4689779097228
 30
0.0
 11
450.743386295882
 21
516.4689779097228
 31
0.0
  0
LINE
  5
5E2
330
1F
100
AcDbEntity
  8
0
  6
DASHED
 62
     4
 48
5.0
100
AcDbLine
 10
449.2433862958818
 20
517.4689779097233
 30
0.0
 11
449.2433862958818
 21
516.4689779097228
 31
0.0
  0
LINE
  5
5E3
330
1F
100
AcDbEntity
  8
0
  6
DASHED
 62
     4
 48
5.0
100
AcDbLine
 10
450.743386295882
 20
518.9689779097233
 30
0.0
 11
450.743386295882
 21
517.4689779097233
 31
0.0
  0
LINE
  5
5E4
330
1F
100
AcDbEntity
  8
0
  6
DASHED
 62
     4
 48
5.0
100
AcDbLine
 10
451.7433862958817
 20
518.9689779097233
 30
0.0
 11
450.743386295882
 21
518.9689779097233
 31
0.0
  0
LINE
  5
5E5
330
1F
100
AcDbEntity
  8
0
  6
DASHED
 62
     4
 48
5.0
100
AcDbLine
 10
450.743386295882
 20
514.9689779097228
 30
0.0
 11
451.7433862958817
 21
514.9689779097228
 31
0.0
  0
LINE
  5
5E6
330
1F
100
AcDbEntity
  8
0
  6
DASHED
 62
     4
 48
5.0
100
AcDbLine
 10
450.5047842958813
 20
522.5103159097228
 30
0.0
 11
450.5047842958813
 21
531.5103159097231
 31
0.0
  0
LINE
  5
5E7
330
1F
100
AcDbEntity
  8
0
  6
DASHED
 62
     4
 48
5.0
100
AcDbLine
 10
458.1247842958815
 20
522.5103159097228
 30
0.0
 11
458.1247842958815
 21
531.5103159097231
 31
0.0
  0
LINE
  5
5E8
330
1F
100
AcDbEntity
  8
0
  6
DASHED
 62
     4
 48
5.0
100
AcDbLine
 10
455.6347842958815
 20
512.5103159097228
 30
0.0
 11
455.6347842958815
 21
522.5103159097228
 31
0.0
  0
LINE
  5
5E9
330
1F
100
AcDbEntity
  8
0
  6
DASHED
 62
     4
 48
5.0
100
AcDbLine
 10
448.0147842958817
 20
512.5103159097228
 30
0.0
 11
448.0147842958817
 21
522.5103159097228
 31
0.0
  0
LINE
  5
5EA
330
1F
100
AcDbEntity
  8
0
  6
DASHED
 62
     4
 48
5.0
100
AcDbLine
 10
454.3147842958821
 20
512.5103159097228
 30
0.0
 11
454.3147842958821
 21
522.5103159097228
 31
0.0
  0
LINE
  5
5EB
330
1F
100
AcDbEntity
  8
0
  6
DASHED
 62
     4
 48
5.0
100
AcDbLine
 10
446.6947842958816
 20
512.5103159097228
 30
0.0
 11
446.6947842958816
 21
531.5103159097231
 31
0.0
  0
LINE
  5
5EC
330
1F
100
AcDbEntity
  8
0
  6
DASHED
 62
     4
 48
5.0
100
AcDbLine
 10
562.3147842958826
 20
522.5103159097228
 30
0.0
 11
446.6947842958816
 21
522.5103159097228
 31
0.0
  0
LINE
  5
5ED
330
1F
100
AcDbEntity
  8
0
  6
DASHED
 62
     4
 48
5.0
100
AcDbLine
 10
562.3147842958826
 20
512.5103159097228
 30
0.0
 11
446.6947842958816
 21
512.5103159097228
 31
0.0
  0
LINE
  5
5EE
330
1F
100
AcDbEntity
  8
0
  6
DASHED
 62
     4
 48
5.0
100
AcDbLine
 10
562.3147842958826
 20
531.5103159097231
 30
0.0
 11
446.6947842958816
 21
531.5103159097231
 31
0.0
  0
LINE
  5
5EF
330
1F
100
AcDbEntity
  8
0
  6
DASHED
 62
     4
 48
5.0
100
AcDbLine
 10
459.3633862958816
 20
518.9689779097233
 30
0.0
 11
458.3633862958818
 21
518.9689779097233
 31
0.0
  0
LINE
  5
5F0
330
1F
100
AcDbEntity
  8
0
  6
DASHED
 62
     4
 48
5.0
100
AcDbLine
 10
458.3633862958818
 20
514.9689779097228
 30
0.0
 11
459.3633862958816
 21
514.9689779097228
 31
0.0
  0
CIRCLE
  5
5F1
330
1F
100
AcDbEntity
  8
0
  6
Continuous
 62
     7
100
AcDbCircle
 10
567.9147842958822
 20
434.8103306509464
 30
0.0
 40
2.999997758775347
  0
LINE
  5
5F2
330
1F
100
AcDbEntity
  8
0
  6
Continuous
 62
     7
100
AcDbLine
 10
568.9147820546569
 20
450.8103328921718
 30
0.0
 11
568.9147820546569
 21
442.8103328921722
 31
0.0
  0
CIRCLE
  5
5F3
330
1F
100
AcDbEntity
  8
0
  6
Continuous
 62
     7
100
AcDbCircle
 10
579.9147842958822
 20
434.8103306509464
 30
0.0
 40
2.999997758775232
  0
LINE
  5
5F4
330
1F
100
AcDbEntity
  8
0
  6
Continuous
 62
     7
100
AcDbLine
 10
568.9147820546569
 20
454.8103328921722
 30
0.0
 11
590.9147820546572
 21
454.8103328921722
 31
0.0
  0
LINE
  5
5F5
330
1F
100
AcDbEntity
  8
0
  6
Continuous
 62
     7
100
AcDbLine
 10
568.9147820546569
 20
450.8103328921718
 30
0.0
 11
590.9147820546572
 21
450.8103328921718
 31
0.0
  0
LINE
  5
5F6
330
1F
100
AcDbEntity
  8
0
  6
Continuous
 62
     7
100
AcDbLine
 10
568.9147820546569
 20
442.8103328921722
 30
0.0
 11
590.9147820546572
 21
442.8103328921722
 31
0.0
  0
LINE
  5
5F7
330
1F
100
AcDbEntity
  8
0
  6
Continuous
 62
     7
100
AcDbLine
 10
568.9147820546569
 20
462.8103328921721
 30
0.0
 11
590.9147820546572
 21
462.8103328921721
 31
0.0
  0
LINE
  5
5F8
330
1F
100
AcDbEntity
  8
0
  6
Continuous
 62
     7
 48
6.0
100
AcDbLine
 10
720.8147442958811
 20
322.2103429097235
 30
0.0
 11
720.8147442958811
 21
322.2103429097235
 31
0.0
  0
LINE
  5
5F9
330
1F
100
AcDbEntity
  8
0
  6
Continuous
 62
     7
 48
6.0
100
AcDbLine
 10
719.0147442958812
 20
322.2103429097235
 30
0.0
 11
720.8147442958811
 21
322.2103429097235
 31
0.0
  0
LINE
  5
5FA
330
1F
100
AcDbEntity
  8
0
  6
Continuous
 62
     7
 48
6.0
100
AcDbLine
 10
719.0147442958812
 20
320.4103429097235
 30
0.0
 11
719.0147442958812
 21
322.2103429097235
 31
0.0
  0
LINE
  5
5FB
330
1F
100
AcDbEntity
  8
0
  6
Continuous
 62
     7
 48
6.0
100
AcDbLine
 10
717.8147442958811
 20
320.4103429097235
 30
0.0
 11
719.0147442958812
 21
320.4103429097235
 31
0.0
  0
LINE
  5
5FC
330
1F
100
AcDbEntity
  8
0
  6
Continuous
 62
     7
 48
6.0
100
AcDbLine
 10
717.8147442958811
 20
322.2103429097235
 30
0.0
 11
717.8147442958811
 21
320.4103429097235
 31
0.0
  0
LINE
  5
5FD
330
1F
100
AcDbEntity
  8
0
  6
Continuous
 62
     7
 48
6.0
100
AcDbLine
 10
716.0147442958812
 20
322.2103429097235
 30
0.0
 11
717.8147442958811
 21
322.2103429097235
 31
0.0
  0
LINE
  5
5FE
330
1F
100
AcDbEntity
  8
0
  6
Continuous
 62
     7
 48
6.0
100
AcDbLine
 10
716.0147442958812
 20
323.4103399097235
 30
0.0
 11
716.0147442958812
 21
322.2103429097235
 31
0.0
  0
LINE
  5
5FF
330
1F
100
AcDbEntity
  8
0
  6
Continuous
 62
     7
 48
6.0
100
AcDbLine
 10
717.8147442958811
 20
323.4103399097235
 30
0.0
 11
716.0147442958812
 21
323.4103399097235
 31
0.0
  0
LINE
  5
600
330
1F
100
AcDbEntity
  8
0
  6
Continuous
 62
     7
 48
6.0
100
AcDbLine
 10
717.8147442958811
 20
325.2103399097232
 30
0.0
 11
717.8147442958811
 21
323.4103399097235
 31
0.0
  0
LINE
  5
601
330
1F
100
AcDbEntity
  8
0
  6
Continuous
 62
     7
 48
6.0
100
AcDbLine
 10
719.0147442958812
 20
325.2103399097232
 30
0.0
 11
717.8147442958811
 21
325.2103399097232
 31
0.0
  0
LINE
  5
602
330
1F
100
AcDbEntity
  8
0
  6
Continuous
 62
     7
 48
6.0
100
AcDbLine
 10
719.0147442958812
 20
323.4103399097235
 30
0.0
 11
719.0147442958812
 21
325.2103399097232
 31
0.0
  0
LINE
  5
603
330
1F
100
AcDbEntity
  8
0
  6
Continuous
 62
     7
 48
6.0
100
AcDbLine
 10
720.8147442958811
 20
323.4103399097235
 30
0.0
 11
719.0147442958812
 21
323.4103399097235
 31
0.0
  0
LINE
  5
604
330
1F
100
AcDbEntity
  8
0
  6
Continuous
 62
     7
 48
6.0
100
AcDbLine
 10
720.8147442958811
 20
322.2103429097235
 30
0.0
 11
720.8147442958811
 21
323.4103399097235
 31
0.0
  0
LINE
  5
605
330
1F
100
AcDbEntity
  8
0
  6
Continuous
 62
     7
 48
6.0
100
AcDbLine
 10
720.8147472958811
 20
502.2103219097233
 30
0.0
 11
720.8147472958811
 21
502.2103219097233
 31
0.0
  0
LINE
  5
606
330
1F
100
AcDbEntity
  8
0
  6
Continuous
 62
     7
 48
6.0
100
AcDbLine
 10
719.0147472958812
 20
502.2103219097233
 30
0.0
 11
720.8147472958811
 21
502.2103219097233
 31
0.0
  0
LINE
  5
607
330
1F
100
AcDbEntity
  8
0
  6
Continuous
 62
     7
 48
6.0
100
AcDbLine
 10
719.0147472958812
 20
500.4103219097228
 30
0.0
 11
719.0147472958812
 21
502.2103219097233
 31
0.0
  0
LINE
  5
608
330
1F
100
AcDbEntity
  8
0
  6
Continuous
 62
     7
 48
6.0
100
AcDbLine
 10
717.8147472958818
 20
500.4103219097228
 30
0.0
 11
719.0147472958812
 21
500.4103219097228
 31
0.0
  0
LINE
  5
609
330
1F
100
AcDbEntity
  8
0
  6
Continuous
 62
     7
 48
6.0
100
AcDbLine
 10
717.8147472958818
 20
502.2103219097233
 30
0.0
 11
717.8147472958818
 21
500.4103219097228
 31
0.0
  0
LINE
  5
60A
330
1F
100
AcDbEntity
  8
0
  6
Continuous
 62
     7
 48
6.0
100
AcDbLine
 10
716.0147472958811
 20
502.2103219097233
 30
0.0
 11
717.8147472958818
 21
502.2103219097233
 31
0.0
  0
LINE
  5
60B
330
1F
100
AcDbEntity
  8
0
  6
Continuous
 62
     7
 48
6.0
100
AcDbLine
 10
716.0147472958811
 20
503.410318909723
 30
0.0
 11
716.0147472958811
 21
502.2103219097233
 31
0.0
  0
LINE
  5
60C
330
1F
100
AcDbEntity
  8
0
  6
Continuous
 62
     7
 48
6.0
100
AcDbLine
 10
717.8147472958818
 20
503.410318909723
 30
0.0
 11
716.0147472958811
 21
503.410318909723
 31
0.0
  0
LINE
  5
60D
330
1F
100
AcDbEntity
  8
0
  6
Continuous
 62
     7
 48
6.0
100
AcDbLine
 10
717.8147472958818
 20
505.2103189097232
 30
0.0
 11
717.8147472958818
 21
503.410318909723
 31
0.0
  0
LINE
  5
60E
330
1F
100
AcDbEntity
  8
0
  6
Continuous
 62
     7
 48
6.0
100
AcDbLine
 10
719.0147472958812
 20
505.2103189097232
 30
0.0
 11
717.8147472958818
 21
505.2103189097232
 31
0.0
  0
LINE
  5
60F
330
1F
100
AcDbEntity
  8
0
  6
Continuous
 62
     7
 48
6.0
100
AcDbLine
 10
719.0147472958812
 20
503.410318909723
 30
0.0
 11
719.0147472958812
 21
505.2103189097232
 31
0.0
  0
LINE
  5
610
330
1F
100
AcDbEntity
  8
0
  6
Continuous
 62
     7
 48
6.0
100
AcDbLine
 10
720.8147472958811
 20
503.410318909723
 30
0.0
 11
719.0147472958812
 21
503.410318909723
 31
0.0
  0
LINE
  5
611
330
1F
100
AcDbEntity
  8
0
  6
Continuous
 62
     7
 48
6.0
100
AcDbLine
 10
720.8147472958811
 20
502.2103219097233
 30
0.0
 11
720.8147472958811
 21
503.410318909723
 31
0.0
  0
LINE
  5
612
330
1F
100
AcDbEntity
  8
0
  6
Continuous
 62
     7
 48
6.0
100
AcDbLine
 10
316.8147792958817
 20
322.2103429097235
 30
0.0
 11
316.8147792958817
 21
322.2103429097235
 31
0.0
  0
LINE
  5
613
330
1F
100
AcDbEntity
  8
0
  6
Continuous
 62
     7
 48
6.0
100
AcDbLine
 10
315.0147792958815
 20
322.2103429097235
 30
0.0
 11
316.8147792958817
 21
322.2103429097235
 31
0.0
  0
LINE
  5
614
330
1F
100
AcDbEntity
  8
0
  6
Continuous
 62
     7
 48
6.0
100
AcDbLine
 10
315.0147792958815
 20
320.4103429097235
 30
0.0
 11
315.0147792958815
 21
322.2103429097235
 31
0.0
  0
LINE
  5
615
330
1F
100
AcDbEntity
  8
0
  6
Continuous
 62
     7
 48
6.0
100
AcDbLine
 10
313.8147792958814
 20
320.4103429097235
 30
0.0
 11
315.0147792958815
 21
320.4103429097235
 31
0.0
  0
LINE
  5
616
330
1F
100
AcDbEntity
  8
0
  6
Continuous
 62
     7
 48
6.0
100
AcDbLine
 10
313.8147792958814
 20
322.2103429097235
 30
0.0
 11
313.8147792958814
 21
320.4103429097235
 31
0.0
  0
LINE
  5
617
330
1F
100
AcDbEntity
  8
0
  6
Continuous
 62
     7
 48
6.0
100
AcDbLine
 10
312.0147792958815
 20
322.2103429097235
 30
0.0
 11
313.8147792958814
 21
322.2103429097235
 31
0.0
  0
LINE
  5
618
330
1F
100
AcDbEntity
  8
0
  6
Continuous
 62
     7
 48
6.0
100
AcDbLine
 10
312.0147792958815
 20
323.4103399097235
 30
0.0
 11
312.0147792958815
 21
322.2103429097235
 31
0.0
  0
LINE
  5
619
330
1F
100
AcDbEntity
  8
0
  6
Continuous
 62
     7
 48
6.0
100
AcDbLine
 10
313.8147792958814
 20
323.4103399097235
 30
0.0
 11
312.0147792958815
 21
323.4103399097235
 31
0.0
  0
LINE
  5
61A
330
1F
100
AcDbEntity
  8
0
  6
Continuous
 62
     7
 48
6.0
100
AcDbLine
 10
313.8147792958814
 20
325.2103399097232
 30
0.0
 11
313.8147792958814
 21
323.4103399097235
 31
0.0
  0
LINE
  5
61B
330
1F
100
AcDbEntity
  8
0
  6
Continuous
 62
     7
 48
6.0
100
AcDbLine
 10
315.0147792958815
 20
325.2103399097232
 30
0.0
 11
313.8147792958814
 21
325.2103399097232
 31
0.0
  0
LINE
  5
61C
330
1F
100
AcDbEntity
  8
0
  6
Continuous
 62
     7
 48
6.0
100
AcDbLine
 10
315.0147792958815
 20
323.4103399097235
 30
0.0
 11
315.0147792958815
 21
325.2103399097232
 31
0.0
  0
LINE
  5
61D
330
1F
100
AcDbEntity
  8
0
  6
Continuous
 62
     7
 48
6.0
100
AcDbLine
 10
316.8147792958817
 20
323.4103399097235
 30
0.0
 11
315.0147792958815
 21
323.4103399097235
 31
0.0
  0
LINE
  5
61E
330
1F
100
AcDbEntity
  8
0
  6
Continuous
 62
     7
 48
6.0
100
AcDbLine
 10
316.8147792958817
 20
322.2103429097235
 30
0.0
 11
316.8147792958817
 21
323.4103399097235
 31
0.0
  0
LINE
  5
61F
330
1F
100
AcDbEntity
  8
0
  6
Continuous
 62
     7
 48
6.0
100
AcDbLine
 10
316.8147882958813
 20
502.2103219097233
 30
0.0
 11
316.8147882958813
 21
502.2103219097233
 31
0.0
  0
LINE
  5
620
330
1F
100
AcDbEntity
  8
0
  6
Continuous
 62
     7
 48
6.0
100
AcDbLine
 10
315.0147882958818
 20
502.2103219097233
 30
0.0
 11
316.8147882958813
 21
502.2103219097233
 31
0.0
  0
LINE
  5
621
330
1F
100
AcDbEntity
  8
0
  6
Continuous
 62
     7
 48
6.0
100
AcDbLine
 10
315.0147882958818
 20
500.4103219097228
 30
0.0
 11
315.0147882958818
 21
502.2103219097233
 31
0.0
  0
LINE
  5
622
330
1F
100
AcDbEntity
  8
0
  6
Continuous
 62
     7
 48
6.0
100
AcDbLine
 10
313.8147882958814
 20
500.4103219097228
 30
0.0
 11
315.0147882958818
 21
500.4103219097228
 31
0.0
  0
LINE
  5
623
330
1F
100
AcDbEntity
  8
0
  6
Continuous
 62
     7
 48
6.0
100
AcDbLine
 10
313.8147882958814
 20
502.2103219097233
 30
0.0
 11
313.8147882958814
 21
500.4103219097228
 31
0.0
  0
LINE
  5
624
330
1F
100
AcDbEntity
  8
0
  6
Continuous
 62
     7
 48
6.0
100
AcDbLine
 10
312.0147882958818
 20
502.2103219097233
 30
0.0
 11
313.8147882958814
 21
502.2103219097233
 31
0.0
  0
LINE
  5
625
330
1F
100
AcDbEntity
  8
0
  6
Continuous
 62
     7
 48
6.0
100
AcDbLine
 10
312.0147882958818
 20
503.410318909723
 30
0.0
 11
312.0147882958818
 21
502.2103219097233
 31
0.0
  0
LINE
  5
626
330
1F
100
AcDbEntity
  8
0
  6
Continuous
 62
     7
 48
6.0
100
AcDbLine
 10
313.8147882958814
 20
503.410318909723
 30
0.0
 11
312.0147882958818
 21
503.410318909723
 31
0.0
  0
LINE
  5
627
330
1F
100
AcDbEntity
  8
0
  6
Continuous
 62
     7
 48
6.0
100
AcDbLine
 10
313.8147882958814
 20
505.2103189097232
 30
0.0
 11
313.8147882958814
 21
503.410318909723
 31
0.0
  0
LINE
  5
628
330
1F
100
AcDbEntity
  8
0
  6
Continuous
 62
     7
 48
6.0
100
AcDbLine
 10
315.0147882958818
 20
505.2103189097232
 30
0.0
 11
313.8147882958814
 21
505.2103189097232
 31
0.0
  0
LINE
  5
629
330
1F
100
AcDbEntity
  8
0
  6
Continuous
 62
     7
 48
6.0
100
AcDbLine
 10
315.0147882958818
 20
503.410318909723
 30
0.0
 11
315.0147882958818
 21
505.2103189097232
 31
0.0
  0
LINE
  5
62A
330
1F
100
AcDbEntity
  8
0
  6
Continuous
 62
     7
 48
6.0
100
AcDbLine
 10
316.8147882958813
 20
503.410318909723
 30
0.0
 11
315.0147882958818
 21
503.410318909723
 31
0.0
  0
LINE
  5
62B
330
1F
100
AcDbEntity
  8
0
  6
Continuous
 62
     7
 48
6.0
100
AcDbLine
 10
316.8147882958813
 20
502.2103219097233
 30
0.0
 11
316.8147882958813
 21
503.410318909723
 31
0.0
  0
ARC
  5
62C
330
1F
100
AcDbEntity
  8
0
  6
Continuous
 62
     7
100
AcDbCircle
 10
718.4147442958804
 20
277.8103429097232
 30
0.0
 40
2.499999000000029
100
AcDbArc
 50
0.0
 51
180.0
  0
ARC
  5
62D
330
1F
100
AcDbEntity
  8
0
  6
Continuous
 62
     7
100
AcDbCircle
 10
314.4147837958817
 20
277.8103429097232
 30
0.0
 40
2.500000499999999
100
AcDbArc
 50
0.0
 51
180.0
  0
ARC
  5
62E
330
1F
100
AcDbEntity
  8
0
  6
Continuous
 62
     7
100
AcDbCircle
 10
718.4147448005217
 20
316.810339566074
 30
0.0
 40
4.999999867066358
100
AcDbArc
 50
126.8062053223102
 51
53.19385205859409
  0
ARC
  5
62F
330
1F
100
AcDbEntity
  8
0
  6
Continuous
 62
     7
100
AcDbCircle
 10
308.4147838017305
 20
279.810342415572
 30
0.0
 40
1.999999505849426
100
AcDbArc
 50
179.9999571957144
 51
270.0000428042887
  0
LINE
  5
630
330
1F
100
AcDbEntity
  8
0
  6
Continuous
 62
     7
100
AcDbLine
 10
306.4147842958818
 20
545.8103149097231
 30
0.0
 11
306.4147842958818
 21
279.8103439097232
 31
0.0
  0
ARC
  5
631
330
1F
100
AcDbEntity
  8
0
  6
Continuous
 62
     7
100
AcDbCircle
 10
308.4147838017305
 20
545.8103164038741
 30
0.0
 40
1.999999505849461
100
AcDbArc
 50
89.99995719571442
 51
180.0000428042855
  0
ARC
  5
632
330
1F
100
AcDbEntity
  8
0
  6
Continuous
 62
     7
100
AcDbCircle
 10
724.4147442900318
 20
545.8103179038722
 30
0.0
 40
1.99999800585115
100
AcDbArc
 50
359.9999142238651
 51
89.99999983243963
  0
LINE
  5
633
330
1F
100
AcDbEntity
  8
0
  6
Continuous
 62
     7
100
AcDbLine
 10
726.4147422958812
 20
279.8103439097232
 30
0.0
 11
726.4147422958812
 21
545.8103149097231
 31
0.0
  0
ARC
  5
634
330
1F
100
AcDbEntity
  8
0
  6
Continuous
 62
     7
100
AcDbCircle
 10
724.4147442900318
 20
279.8103409155741
 30
0.0
 40
1.999998005851125
100
AcDbArc
 50
270.0000001675602
 51
0.0000857761314774
  0
LINE
  5
635
330
1F
100
AcDbEntity
  8
0
  6
Continuous
 62
     7
100
AcDbLine
 10
318.4147842958818
 20
279.010342909723
 30
0.0
 11
320.4147822958812
 21
279.010342909723
 31
0.0
  0
LINE
  5
636
330
1F
100
AcDbEntity
  8
0
  6
Continuous
 62
     7
100
AcDbLine
 10
320.4147822958812
 20
277.8103429097232
 30
0.0
 11
712.4147442958818
 21
277.8103429097232
 31
0.0
  0
LINE
  5
637
330
1F
100
AcDbEntity
  8
0
  6
Continuous
 62
     7
100
AcDbLine
 10
316.9147842958818
 20
277.8103429097232
 30
0.0
 11
318.4147842958818
 21
277.8103429097232
 31
0.0
  0
LINE
  5
638
330
1F
100
AcDbEntity
  8
0
  6
Continuous
 62
     7
100
AcDbLine
 10
712.4147442958818
 20
279.010342909723
 30
0.0
 11
714.4147452958812
 21
279.010342909723
 31
0.0
  0
LINE
  5
639
330
1F
100
AcDbEntity
  8
0
  6
Continuous
 62
     7
100
AcDbLine
 10
714.4147452958812
 20
277.8103429097232
 30
0.0
 11
715.9147452958814
 21
277.8103429097232
 31
0.0
  0
LINE
  5
63A
330
1F
100
AcDbEntity
  8
0
  6
Continuous
 62
     7
100
AcDbLine
 10
714.4147452958812
 20
277.8103429097232
 30
0.0
 11
714.4147452958812
 21
279.010342909723
 31
0.0
  0
LINE
  5
63B
330
1F
100
AcDbEntity
  8
0
  6
Continuous
 62
     7
100
AcDbLine
 10
712.4147442958818
 20
277.8103429097232
 30
0.0
 11
712.4147442958818
 21
279.010342909723
 31
0.0
  0
LINE
  5
63C
330
1F
100
AcDbEntity
  8
0
  6
Continuous
 62
     7
100
AcDbLine
 10
318.4147842958818
 20
277.8103429097232
 30
0.0
 11
318.4147842958818
 21
279.010342909723
 31
0.0
  0
LINE
  5
63D
330
1F
100
AcDbEntity
  8
0
  6
Continuous
 62
     7
100
AcDbLine
 10
320.4147822958812
 20
277.8103429097232
 30
0.0
 11
320.4147822958812
 21
279.010342909723
 31
0.0
  0
LINE
  5
63E
330
1F
100
AcDbEntity
  8
0
  6
Continuous
 62
     7
100
AcDbLine
 10
720.9147432958811
 20
277.8103429097232
 30
0.0
 11
724.4147442958818
 21
277.8103429097232
 31
0.0
  0
LINE
  5
63F
330
1F
100
AcDbEntity
  8
0
  6
Continuous
 62
     7
100
AcDbLine
 10
724.4147442958818
 20
547.8103159097233
 30
0.0
 11
308.4147852958817
 21
547.8103159097233
 31
0.0
  0
LINE
  5
640
330
1F
100
AcDbEntity
  8
0
  6
Continuous
 62
     7
100
AcDbLine
 10
308.4147852958817
 20
277.8103429097232
 30
0.0
 11
311.9147832958812
 21
277.8103429097232
 31
0.0
  0
ARC
  5
641
330
1F
100
AcDbEntity
  8
0
  6
Continuous
 62
     7
100
AcDbCircle
 10
314.4147852958817
 20
538.8103185393931
 30
0.0
 40
4.999999870329792
100
AcDbArc
 50
296.7436846991601
 51
243.2563153008398
  0
ARC
  5
642
330
1F
100
AcDbEntity
  8
0
  6
Continuous
 62
     7
100
AcDbCircle
 10
314.4147852958817
 20
451.8103249097231
 30
0.0
 40
2.25
100
AcDbArc
 50
180.0
 51
0.0
  0
ARC
  5
643
330
1F
100
AcDbEntity
  8
0
  6
Continuous
 62
     7
100
AcDbCircle
 10
718.4147442958818
 20
538.8103185393931
 30
0.0
 40
4.999999870329792
100
AcDbArc
 50
296.7436846991601
 51
243.2563153008398
  0
ARC
  5
644
330
1F
100
AcDbEntity
  8
0
  6
Continuous
 62
     7
100
AcDbCircle
 10
718.4147442958818
 20
451.8103249097231
 30
0.0
 40
2.25
100
AcDbArc
 50
180.0
 51
0.0
  0
ARC
  5
645
330
1F
100
AcDbEntity
  8
0
  6
Continuous
 62
     7
100
AcDbCircle
 10
314.4147833051628
 20
316.8103400707148
 30
0.0
 40
4.999997363354085
100
AcDbArc
 50
126.8062340127895
 51
53.19388074907037
  0
LINE
  5
646
330
1F
100
AcDbEntity
  8
0
  6
Continuous
 62
     7
100
AcDbLine
 10
726.4147422958812
 20
277.8103429097232
 30
0.0
 11
726.4147422958812
 21
547.8103159097233
 31
0.0
  0
ARC
  5
647
330
1F
100
AcDbEntity
  8
0
  6
Continuous
 62
     7
100
AcDbCircle
 10
316.0147768192818
 20
260.8103404331211
 30
0.0
 40
7.999993523401303
100
AcDbArc
 50
179.9999679386702
 51
270.0000535472446
  0
ARC
  5
648
330
1F
100
AcDbEntity
  8
0
  6
Continuous
 62
     7
100
AcDbCircle
 10
316.0147768192818
 20
569.8103193863255
 30
0.0
 40
7.999993523401338
100
AcDbArc
 50
89.9999464527554
 51
180.0000320613264
  0
ARC
  5
649
330
1F
100
AcDbEntity
  8
0
  6
Continuous
 62
     7
100
AcDbCircle
 10
716.8147512724811
 20
260.8103389331235
 30
0.0
 40
7.999992023402469
100
AcDbArc
 50
269.9999571957111
 51
0.0000428042855519
  0
LINE
  5
64A
330
1F
100
AcDbEntity
  8
0
  6
Continuous
 62
     7
100
AcDbLine
 10
724.8147432958818
 20
277.8103429097232
 30
0.0
 11
724.8147432958818
 21
260.8103449097233
 31
0.0
  0
LINE
  5
64B
330
1F
100
AcDbEntity
  8
0
  6
Continuous
 62
     7
100
AcDbLine
 10
724.8147432958818
 20
569.8103149097232
 30
0.0
 11
724.8147432958818
 21
547.8103159097233
 31
0.0
  0
ARC
  5
64C
330
1F
100
AcDbEntity
  8
0
  6
Continuous
 62
     7
100
AcDbCircle
 10
716.8147512724811
 20
569.8103208863225
 30
0.0
 40
7.999992023402382
100
AcDbArc
 50
359.9999571957143
 51
90.00004280428877
  0
LINE
  5
64D
330
1F
100
AcDbEntity
  8
0
  6
Continuous
 62
     7
100
AcDbLine
 10
641.9147502958817
 20
565.8103129097233
 30
0.0
 11
641.9147502958817
 21
564.6045439097234
 31
0.0
  0
LINE
  5
64E
330
1F
100
AcDbEntity
  8
0
  6
Continuous
 62
     7
100
AcDbLine
 10
650.9147502958817
 20
565.8103129097233
 30
0.0
 11
650.9147502958817
 21
564.6045439097234
 31
0.0
  0
LINE
  5
64F
330
1F
100
AcDbEntity
  8
0
  6
Continuous
 62
     7
100
AcDbLine
 10
381.9147762958813
 20
565.8103129097233
 30
0.0
 11
381.9147762958813
 21
564.6045439097234
 31
0.0
  0
LINE
  5
650
330
1F
100
AcDbEntity
  8
0
  6
Continuous
 62
     7
100
AcDbLine
 10
390.9147762958816
 20
565.8103129097233
 30
0.0
 11
390.9147762958816
 21
564.6045439097234
 31
0.0
  0
LINE
  5
651
330
1F
100
AcDbEntity
  8
0
  6
Continuous
 62
     7
100
AcDbLine
 10
381.9147762958813
 20
265.8103429097232
 30
0.0
 11
381.9147762958813
 21
254.8103449097232
 31
0.0
  0
ARC
  5
652
330
1F
100
AcDbEntity
  8
0
  6
Continuous
 62
     7
100
AcDbCircle
 10
379.9147797900305
 20
254.8103434155736
 30
0.0
 40
1.999996505851686
100
AcDbArc
 50
269.9999571957144
 51
0.0000428042888088
  0
LINE
  5
653
330
1F
100
AcDbEntity
  8
0
  6
Continuous
 62
     7
100
AcDbLine
 10
379.9147782958815
 20
252.8103469097231
 30
0.0
 11
316.0147842958816
 21
252.8103469097231
 31
0.0
  0
LINE
  5
654
330
1F
100
AcDbEntity
  8
0
  6
Continuous
 62
     7
100
AcDbLine
 10
316.0147842958816
 20
577.8103129097234
 30
0.0
 11
716.8147452958804
 21
577.8103129097234
 31
0.0
  0
LINE
  5
655
330
1F
100
AcDbEntity
  8
0
  6
Continuous
 62
     7
100
AcDbLine
 10
716.8147452958804
 20
252.8103469097231
 30
0.0
 11
652.9147512958814
 21
252.8103469097231
 31
0.0
  0
ARC
  5
656
330
1F
100
AcDbEntity
  8
0
  6
Continuous
 62
     7
100
AcDbCircle
 10
652.9147483017326
 20
254.8103449155719
 30
0.0
 40
1.999998005851125
100
AcDbArc
 50
180.0000001675571
 51
270.0000857761314
  0
LINE
  5
657
330
1F
100
AcDbEntity
  8
0
  6
Continuous
 62
     7
100
AcDbLine
 10
650.9147502958817
 20
254.8103449097232
 30
0.0
 11
650.9147502958817
 21
265.8103429097232
 31
0.0
  0
LINE
  5
658
330
1F
100
AcDbEntity
  8
0
  6
Continuous
 62
     7
100
AcDbLine
 10
641.9147502958817
 20
254.8103449097232
 30
0.0
 11
641.9147502958817
 21
265.8103429097232
 31
0.0
  0
ARC
  5
659
330
1F
100
AcDbEntity
  8
0
  6
Continuous
 62
     7
100
AcDbCircle
 10
639.9147537900302
 20
254.8103434155736
 30
0.0
 40
1.999996505851686
100
AcDbArc
 50
269.9999571957144
 51
0.0000428042888088
  0
LINE
  5
65A
330
1F
100
AcDbEntity
  8
0
  6
Continuous
 62
     7
100
AcDbLine
 10
392.9147772958816
 20
252.8103469097231
 30
0.0
 11
639.9147522958817
 21
252.8103469097231
 31
0.0
  0
ARC
  5
65B
330
1F
100
AcDbEntity
  8
0
  6
Continuous
 62
     7
100
AcDbCircle
 10
392.9147743017326
 20
254.8103449155719
 30
0.0
 40
1.999998005851158
100
AcDbArc
 50
180.0000001675571
 51
270.0000857761314
  0
LINE
  5
65C
330
1F
100
AcDbEntity
  8
0
  6
Continuous
 62
     7
100
AcDbLine
 10
390.9147762958816
 20
265.8103429097232
 30
0.0
 11
390.9147762958816
 21
254.8103449097232
 31
0.0
  0
ARC
  5
65D
330
1F
100
AcDbEntity
  8
0
  6
Continuous
 62
     7
100
AcDbCircle
 10
646.4147502958817
 20
265.8103429097232
 30
0.0
 40
4.5
100
AcDbArc
 50
0.0
 51
180.0
  0
ARC
  5
65E
330
1F
100
AcDbEntity
  8
0
  6
Continuous
 62
     7
100
AcDbCircle
 10
386.4147762958813
 20
265.8103429097232
 30
0.0
 40
4.500000000000007
100
AcDbArc
 50
0.0
 51
180.0
  0
ARC
  5
65F
330
1F
100
AcDbEntity
  8
0
  6
Continuous
 62
     7
100
AcDbCircle
 10
646.4147502958817
 20
556.810314811607
 30
0.0
 40
9.00000040188426
100
AcDbArc
 50
119.9999985228646
 51
60.00000147713524
  0
ARC
  5
660
330
1F
100
AcDbEntity
  8
0
  6
Continuous
 62
     7
100
AcDbCircle
 10
386.4147762958813
 20
556.810314811607
 30
0.0
 40
9.000000401884271
100
AcDbArc
 50
119.9999985228646
 51
60.00000147713524
  0
ARC
  5
661
330
1F
100
AcDbEntity
  8
0
  6
Continuous
 62
     7
100
AcDbCircle
 10
386.4147762958813
 20
565.8103129097233
 30
0.0
 40
4.500000000000007
100
AcDbArc
 50
0.0
 51
180.0
  0
ARC
  5
662
330
1F
100
AcDbEntity
  8
0
  6
Continuous
 62
     7
100
AcDbCircle
 10
646.4147502958817
 20
565.8103129097233
 30
0.0
 40
4.5
100
AcDbArc
 50
0.0
 51
180.0
  0
LINE
  5
663
330
1F
100
AcDbEntity
  8
0
  6
Continuous
 62
     7
100
AcDbLine
 10
726.4147422958812
 20
277.8103429097232
 30
0.0
 11
306.4147842958818
 21
277.8103429097232
 31
0.0
  0
LINE
  5
664
330
1F
100
AcDbEntity
  8
0
  6
Continuous
 62
     7
100
AcDbLine
 10
306.4147842958818
 20
547.8103159097233
 30
0.0
 11
726.4147422958812
 21
547.8103159097233
 31
0.0
  0
LINE
  5
665
330
1F
100
AcDbEntity
  8
0
  6
Continuous
 62
     7
100
AcDbLine
 10
306.4147842958818
 20
547.8103159097233
 30
0.0
 11
306.4147842958818
 21
277.8103429097232
 31
0.0
  0
LINE
  5
666
330
1F
100
AcDbEntity
  8
0
  6
Continuous
 62
     7
100
AcDbLine
 10
308.0147832958816
 20
547.8103159097233
 30
0.0
 11
308.0147832958816
 21
569.8103149097232
 31
0.0
  0
LINE
  5
667
330
1F
100
AcDbEntity
  8
0
  6
Continuous
 62
     7
100
AcDbLine
 10
308.0147832958816
 20
260.8103449097233
 30
0.0
 11
308.0147832958816
 21
277.8103429097232
 31
0.0
  0
LINE
  5
668
330
1F
100
AcDbEntity
  8
0
  6
Continuous
 62
     7
100
AcDbLine
 10
316.6647852958813
 20
451.8103249097231
 30
0.0
 11
316.6647852958813
 21
500.0000689097229
 31
0.0
  0
LINE
  5
669
330
1F
100
AcDbEntity
  8
0
  6
Continuous
 62
     7
100
AcDbLine
 10
316.6647852958813
 20
505.6205689097232
 30
0.0
 11
316.6647852958813
 21
534.3451759097233
 31
0.0
  0
LINE
  5
66A
330
1F
100
AcDbEntity
  8
0
  6
Continuous
 62
     7
100
AcDbLine
 10
312.1647852958813
 20
451.8103249097231
 30
0.0
 11
312.1647852958813
 21
500.0000719097225
 31
0.0
  0
LINE
  5
66B
330
1F
100
AcDbEntity
  8
0
  6
Continuous
 62
     7
100
AcDbLine
 10
312.1647852958813
 20
505.6205689097232
 30
0.0
 11
312.1647852958813
 21
534.3451759097233
 31
0.0
  0
LINE
  5
66C
330
1F
100
AcDbEntity
  8
0
  6
Continuous
 62
     7
100
AcDbLine
 10
716.1647442958818
 20
451.8103249097231
 30
0.0
 11
716.1647442958818
 21
500.0000719097225
 31
0.0
  0
LINE
  5
66D
330
1F
100
AcDbEntity
  8
0
  6
Continuous
 62
     7
100
AcDbLine
 10
716.1647442958818
 20
505.6205689097232
 30
0.0
 11
716.1647442958818
 21
534.3451759097233
 31
0.0
  0
LINE
  5
66E
330
1F
100
AcDbEntity
  8
0
  6
Continuous
 62
     7
100
AcDbLine
 10
720.6647442958818
 20
451.8103249097231
 30
0.0
 11
720.6647442958818
 21
500.0000689097229
 31
0.0
  0
LINE
  5
66F
330
1F
100
AcDbEntity
  8
0
  6
Continuous
 62
     7
100
AcDbLine
 10
720.6647442958818
 20
505.6205689097232
 30
0.0
 11
720.6647442958818
 21
534.3451759097233
 31
0.0
  0
ARC
  5
670
330
1F
100
AcDbEntity
  8
0
  6
Continuous
 62
     7
100
AcDbCircle
 10
728.4147447302658
 20
299.4903573441071
 30
0.0
 40
1.919998565616278
100
AcDbArc
 50
359.9999571957177
 51
90.00004280429207
  0
ARC
  5
671
330
1F
100
AcDbEntity
  8
0
  6
Continuous
 62
     7
100
AcDbCircle
 10
728.4147447302658
 20
296.1303544753391
 30
0.0
 40
1.919998565616361
100
AcDbArc
 50
269.9999571957079
 51
0.000042804282295
  0
LINE
  5
672
330
1F
100
AcDbEntity
  8
0
  6
Continuous
 62
     7
100
AcDbLine
 10
730.3347432958816
 20
299.4903559097235
 30
0.0
 11
730.3347432958816
 21
296.1303559097235
 31
0.0
  0
LINE
  5
673
330
1F
100
AcDbEntity
  8
0
  6
Continuous
 62
     7
100
AcDbLine
 10
727.4147442958819
 20
302.8503529097235
 30
0.0
 11
727.4147442958819
 21
292.7703559097233
 31
0.0
  0
LINE
  5
674
330
1F
100
AcDbEntity
  8
0
  6
Continuous
 62
     7
100
AcDbLine
 10
728.4147432958811
 20
301.4103559097235
 30
0.0
 11
727.4147442958819
 21
301.4103559097235
 31
0.0
  0
LINE
  5
675
330
1F
100
AcDbEntity
  8
0
  6
Continuous
 62
     7
100
AcDbLine
 10
728.4147432958811
 20
294.2103559097235
 30
0.0
 11
727.4147442958819
 21
294.2103559097235
 31
0.0
  0
LINE
  5
676
330
1F
100
AcDbEntity
  8
0
  6
Continuous
 62
     7
100
AcDbLine
 10
727.4147442958819
 20
302.8503529097235
 30
0.0
 11
726.4147422958812
 21
302.8503529097235
 31
0.0
  0
LINE
  5
677
330
1F
100
AcDbEntity
  8
0
  6
Continuous
 62
     7
100
AcDbLine
 10
727.4147442958819
 20
292.7703559097233
 30
0.0
 11
726.4147422958812
 21
292.7703559097233
 31
0.0
  0
LINE
  5
678
330
1F
100
AcDbEntity
  8
0
  6
Continuous
 62
     7
100
AcDbLine
 10
727.4147442958819
 20
497.7703219097231
 30
0.0
 11
726.4147422958812
 21
497.7703219097231
 31
0.0
  0
LINE
  5
679
330
1F
100
AcDbEntity
  8
0
  6
Continuous
 62
     7
100
AcDbLine
 10
727.4147442958819
 20
507.8503219097233
 30
0.0
 11
726.4147422958812
 21
507.8503219097233
 31
0.0
  0
LINE
  5
67A
330
1F
100
AcDbEntity
  8
0
  6
Continuous
 62
     7
100
AcDbLine
 10
728.4147432958811
 20
499.2103249097232
 30
0.0
 11
727.4147442958819
 21
499.2103249097232
 31
0.0
  0
LINE
  5
67B
330
1F
100
AcDbEntity
  8
0
  6
Continuous
 62
     7
100
AcDbLine
 10
728.4147432958811
 20
506.4103249097231
 30
0.0
 11
727.4147442958819
 21
506.4103249097231
 31
0.0
  0
LINE
  5
67C
330
1F
100
AcDbEntity
  8
0
  6
Continuous
 62
     7
100
AcDbLine
 10
727.4147442958819
 20
507.8503219097233
 30
0.0
 11
727.4147442958819
 21
497.7703219097231
 31
0.0
  0
LINE
  5
67D
330
1F
100
AcDbEntity
  8
0
  6
Continuous
 62
     7
100
AcDbLine
 10
730.3347432958816
 20
504.4903249097232
 30
0.0
 11
730.3347432958816
 21
501.1303249097231
 31
0.0
  0
ARC
  5
67E
330
1F
100
AcDbEntity
  8
0
  6
Continuous
 62
     7
100
AcDbCircle
 10
728.4147447302658
 20
501.1303234753389
 30
0.0
 40
1.919998565616278
100
AcDbArc
 50
269.9999571957079
 51
0.000042804282295
  0
ARC
  5
67F
330
1F
100
AcDbEntity
  8
0
  6
Continuous
 62
     7
100
AcDbCircle
 10
728.4147447302658
 20
504.4903263441078
 30
0.0
 40
1.919998565616361
100
AcDbArc
 50
359.9999571957112
 51
90.00004280429207
  0
LINE
  5
680
330
1F
100
AcDbEntity
  8
0
  6
Continuous
 62
     7
100
AcDbLine
 10
727.4147442958819
 20
523.2703189097231
 30
0.0
 11
726.4147422958812
 21
523.2703189097231
 31
0.0
  0
LINE
  5
681
330
1F
100
AcDbEntity
  8
0
  6
Continuous
 62
     7
100
AcDbLine
 10
727.4147442958819
 20
533.3503189097235
 30
0.0
 11
726.4147422958812
 21
533.3503189097235
 31
0.0
  0
LINE
  5
682
330
1F
100
AcDbEntity
  8
0
  6
Continuous
 62
     7
100
AcDbLine
 10
728.4147432958811
 20
524.7103219097232
 30
0.0
 11
727.4147442958819
 21
524.7103219097232
 31
0.0
  0
LINE
  5
683
330
1F
100
AcDbEntity
  8
0
  6
Continuous
 62
     7
100
AcDbLine
 10
728.4147432958811
 20
531.9103219097232
 30
0.0
 11
727.4147442958819
 21
531.9103219097232
 31
0.0
  0
LINE
  5
684
330
1F
100
AcDbEntity
  8
0
  6
Continuous
 62
     7
100
AcDbLine
 10
727.4147442958819
 20
533.3503189097235
 30
0.0
 11
727.4147442958819
 21
523.2703189097231
 31
0.0
  0
LINE
  5
685
330
1F
100
AcDbEntity
  8
0
  6
Continuous
 62
     7
100
AcDbLine
 10
730.3347432958816
 20
529.9903219097232
 30
0.0
 11
730.3347432958816
 21
526.6303219097233
 31
0.0
  0
ARC
  5
686
330
1F
100
AcDbEntity
  8
0
  6
Continuous
 62
     7
100
AcDbCircle
 10
728.4147447302658
 20
526.6303204753389
 30
0.0
 40
1.919998565616278
100
AcDbArc
 50
269.9999571957079
 51
0.000042804282295
  0
ARC
  5
687
330
1F
100
AcDbEntity
  8
0
  6
Continuous
 62
     7
100
AcDbCircle
 10
728.4147447302658
 20
529.9903233441075
 30
0.0
 40
1.919998565616278
100
AcDbArc
 50
359.9999571957177
 51
90.00004280429207
  0
LINE
  5
688
330
1F
100
AcDbEntity
  8
0
  6
Continuous
 62
     7
100
AcDbLine
 10
727.4147442958819
 20
403.2703309097233
 30
0.0
 11
726.4147422958812
 21
403.2703309097233
 31
0.0
  0
LINE
  5
689
330
1F
100
AcDbEntity
  8
0
  6
Continuous
 62
     7
100
AcDbLine
 10
727.4147442958819
 20
413.3503309097232
 30
0.0
 11
726.4147422958812
 21
413.3503309097232
 31
0.0
  0
LINE
  5
68A
330
1F
100
AcDbEntity
  8
0
  6
Continuous
 62
     7
100
AcDbLine
 10
728.4147432958811
 20
404.7103339097231
 30
0.0
 11
727.4147442958819
 21
404.7103339097231
 31
0.0
  0
LINE
  5
68B
330
1F
100
AcDbEntity
  8
0
  6
Continuous
 62
     7
100
AcDbLine
 10
728.4147432958811
 20
411.9103339097232
 30
0.0
 11
727.4147442958819
 21
411.9103339097232
 31
0.0
  0
LINE
  5
68C
330
1F
100
AcDbEntity
  8
0
  6
Continuous
 62
     7
100
AcDbLine
 10
727.4147442958819
 20
413.3503309097232
 30
0.0
 11
727.4147442958819
 21
403.2703309097233
 31
0.0
  0
LINE
  5
68D
330
1F
100
AcDbEntity
  8
0
  6
Continuous
 62
     7
100
AcDbLine
 10
730.3347432958816
 20
409.9903339097232
 30
0.0
 11
730.3347432958816
 21
406.6303339097232
 31
0.0
  0
ARC
  5
68E
330
1F
100
AcDbEntity
  8
0
  6
Continuous
 62
     7
100
AcDbCircle
 10
728.4147447302658
 20
406.6303324753389
 30
0.0
 40
1.919998565616278
100
AcDbArc
 50
269.9999571957046
 51
0.0000428042757813
  0
ARC
  5
68F
330
1F
100
AcDbEntity
  8
0
  6
Continuous
 62
     7
100
AcDbCircle
 10
728.4147447302658
 20
409.9903353441073
 30
0.0
 40
1.919998565616193
100
AcDbArc
 50
359.9999571957209
 51
90.00004280429529
  0
LINE
  5
690
330
1F
100
AcDbEntity
  8
0
  6
Continuous
 62
     7
100
AcDbLine
 10
727.4147442958819
 20
317.7703399097235
 30
0.0
 11
726.4147422958812
 21
317.7703399097235
 31
0.0
  0
LINE
  5
691
330
1F
100
AcDbEntity
  8
0
  6
Continuous
 62
     7
100
AcDbLine
 10
727.4147442958819
 20
327.8503399097235
 30
0.0
 11
726.4147422958812
 21
327.8503399097235
 31
0.0
  0
LINE
  5
692
330
1F
100
AcDbEntity
  8
0
  6
Continuous
 62
     7
100
AcDbLine
 10
728.4147432958811
 20
319.2103429097235
 30
0.0
 11
727.4147442958819
 21
319.2103429097235
 31
0.0
  0
LINE
  5
693
330
1F
100
AcDbEntity
  8
0
  6
Continuous
 62
     7
100
AcDbLine
 10
728.4147432958811
 20
326.4103399097231
 30
0.0
 11
727.4147442958819
 21
326.4103399097231
 31
0.0
  0
LINE
  5
694
330
1F
100
AcDbEntity
  8
0
  6
Continuous
 62
     7
100
AcDbLine
 10
727.4147442958819
 20
327.8503399097235
 30
0.0
 11
727.4147442958819
 21
317.7703399097235
 31
0.0
  0
LINE
  5
695
330
1F
100
AcDbEntity
  8
0
  6
Continuous
 62
     7
100
AcDbLine
 10
730.3347432958816
 20
324.4903399097232
 30
0.0
 11
730.3347432958816
 21
321.1303429097235
 31
0.0
  0
ARC
  5
696
330
1F
100
AcDbEntity
  8
0
  6
Continuous
 62
     7
100
AcDbCircle
 10
728.4147447302658
 20
321.1303414753386
 30
0.0
 40
1.919998565616361
100
AcDbArc
 50
269.9999571957079
 51
0.000042804282295
  0
ARC
  5
697
330
1F
100
AcDbEntity
  8
0
  6
Continuous
 62
     7
100
AcDbCircle
 10
728.4147447302658
 20
324.4903413441073
 30
0.0
 40
1.919998565616278
100
AcDbArc
 50
359.9999571957177
 51
90.00004280429207
  0
ARC
  5
698
330
1F
100
AcDbEntity
  8
0
  6
Continuous
 62
     7
100
AcDbCircle
 10
304.4147848614973
 20
299.4903573441073
 30
0.0
 40
1.919998565616163
100
AcDbArc
 50
89.99995719571119
 51
180.0000428042855
  0
ARC
  5
699
330
1F
100
AcDbEntity
  8
0
  6
Continuous
 62
     7
100
AcDbCircle
 10
304.4147848614973
 20
296.1303544753391
 30
0.0
 40
1.919998565616193
100
AcDbArc
 50
179.9999571957144
 51
270.0000428042887
  0
LINE
  5
69A
330
1F
100
AcDbEntity
  8
0
  6
Continuous
 62
     7
100
AcDbLine
 10
302.4947862958818
 20
299.4903559097235
 30
0.0
 11
302.4947862958818
 21
296.1303559097235
 31
0.0
  0
LINE
  5
69B
330
1F
100
AcDbEntity
  8
0
  6
Continuous
 62
     7
100
AcDbLine
 10
305.4147852958813
 20
302.8503529097235
 30
0.0
 11
305.4147852958813
 21
292.7703559097233
 31
0.0
  0
LINE
  5
69C
330
1F
100
AcDbEntity
  8
0
  6
Continuous
 62
     7
100
AcDbLine
 10
304.4147862958814
 20
301.4103559097235
 30
0.0
 11
305.4147852958813
 21
301.4103559097235
 31
0.0
  0
LINE
  5
69D
330
1F
100
AcDbEntity
  8
0
  6
Continuous
 62
     7
100
AcDbLine
 10
304.4147862958814
 20
294.2103559097235
 30
0.0
 11
305.4147852958813
 21
294.2103559097235
 31
0.0
  0
LINE
  5
69E
330
1F
100
AcDbEntity
  8
0
  6
Continuous
 62
     7
100
AcDbLine
 10
305.4147852958813
 20
302.8503529097235
 30
0.0
 11
306.4147842958818
 21
302.8503529097235
 31
0.0
  0
LINE
  5
69F
330
1F
100
AcDbEntity
  8
0
  6
Continuous
 62
     7
100
AcDbLine
 10
305.4147852958813
 20
292.7703559097233
 30
0.0
 11
306.4147842958818
 21
292.7703559097233
 31
0.0
  0
LINE
  5
6A0
330
1F
100
AcDbEntity
  8
0
  6
Continuous
 62
     7
100
AcDbLine
 10
305.4147852958813
 20
497.7703219097231
 30
0.0
 11
306.4147842958818
 21
497.7703219097231
 31
0.0
  0
LINE
  5
6A1
330
1F
100
AcDbEntity
  8
0
  6
Continuous
 62
     7
100
AcDbLine
 10
305.4147852958813
 20
507.8503219097233
 30
0.0
 11
306.4147842958818
 21
507.8503219097233
 31
0.0
  0
LINE
  5
6A2
330
1F
100
AcDbEntity
  8
0
  6
Continuous
 62
     7
100
AcDbLine
 10
304.4147862958814
 20
499.2103249097232
 30
0.0
 11
305.4147852958813
 21
499.2103249097232
 31
0.0
  0
LINE
  5
6A3
330
1F
100
AcDbEntity
  8
0
  6
Continuous
 62
     7
100
AcDbLine
 10
304.4147862958814
 20
506.4103249097231
 30
0.0
 11
305.4147852958813
 21
506.4103249097231
 31
0.0
  0
LINE
  5
6A4
330
1F
100
AcDbEntity
  8
0
  6
Continuous
 62
     7
100
AcDbLine
 10
305.4147852958813
 20
507.8503219097233
 30
0.0
 11
305.4147852958813
 21
497.7703219097231
 31
0.0
  0
LINE
  5
6A5
330
1F
100
AcDbEntity
  8
0
  6
Continuous
 62
     7
100
AcDbLine
 10
302.4947862958818
 20
504.4903249097232
 30
0.0
 11
302.4947862958818
 21
501.1303249097231
 31
0.0
  0
ARC
  5
6A6
330
1F
100
AcDbEntity
  8
0
  6
Continuous
 62
     7
100
AcDbCircle
 10
304.4147848614973
 20
501.1303234753389
 30
0.0
 40
1.919998565616106
100
AcDbArc
 50
179.9999571957112
 51
270.0000428042887
  0
ARC
  5
6A7
330
1F
100
AcDbEntity
  8
0
  6
Continuous
 62
     7
100
AcDbCircle
 10
304.4147848614973
 20
504.4903263441078
 30
0.0
 40
1.919998565616246
100
AcDbArc
 50
89.99995719571442
 51
180.0000428042855
  0
LINE
  5
6A8
330
1F
100
AcDbEntity
  8
0
  6
Continuous
 62
     7
100
AcDbLine
 10
305.4147852958813
 20
523.2703189097231
 30
0.0
 11
306.4147842958818
 21
523.2703189097231
 31
0.0
  0
LINE
  5
6A9
330
1F
100
AcDbEntity
  8
0
  6
Continuous
 62
     7
100
AcDbLine
 10
305.4147852958813
 20
533.3503189097235
 30
0.0
 11
306.4147842958818
 21
533.3503189097235
 31
0.0
  0
LINE
  5
6AA
330
1F
100
AcDbEntity
  8
0
  6
Continuous
 62
     7
100
AcDbLine
 10
304.4147862958814
 20
524.7103219097232
 30
0.0
 11
305.4147852958813
 21
524.7103219097232
 31
0.0
  0
LINE
  5
6AB
330
1F
100
AcDbEntity
  8
0
  6
Continuous
 62
     7
100
AcDbLine
 10
304.4147862958814
 20
531.9103219097232
 30
0.0
 11
305.4147852958813
 21
531.9103219097232
 31
0.0
  0
LINE
  5
6AC
330
1F
100
AcDbEntity
  8
0
  6
Continuous
 62
     7
100
AcDbLine
 10
305.4147852958813
 20
533.3503189097235
 30
0.0
 11
305.4147852958813
 21
523.2703189097231
 31
0.0
  0
LINE
  5
6AD
330
1F
100
AcDbEntity
  8
0
  6
Continuous
 62
     7
100
AcDbLine
 10
302.4947862958818
 20
529.9903219097232
 30
0.0
 11
302.4947862958818
 21
526.6303219097233
 31
0.0
  0
ARC
  5
6AE
330
1F
100
AcDbEntity
  8
0
  6
Continuous
 62
     7
100
AcDbCircle
 10
304.4147848614973
 20
526.6303204753389
 30
0.0
 40
1.919998565616106
100
AcDbArc
 50
179.9999571957112
 51
270.0000428042887
  0
ARC
  5
6AF
330
1F
100
AcDbEntity
  8
0
  6
Continuous
 62
     7
100
AcDbCircle
 10
304.4147848614973
 20
529.9903233441075
 30
0.0
 40
1.919998565616163
100
AcDbArc
 50
89.99995719571119
 51
180.0000428042855
  0
LINE
  5
6B0
330
1F
100
AcDbEntity
  8
0
  6
Continuous
 62
     7
100
AcDbLine
 10
305.4147852958813
 20
403.2703309097233
 30
0.0
 11
306.4147842958818
 21
403.2703309097233
 31
0.0
  0
LINE
  5
6B1
330
1F
100
AcDbEntity
  8
0
  6
Continuous
 62
     7
100
AcDbLine
 10
305.4147852958813
 20
413.3503309097232
 30
0.0
 11
306.4147842958818
 21
413.3503309097232
 31
0.0
  0
LINE
  5
6B2
330
1F
100
AcDbEntity
  8
0
  6
Continuous
 62
     7
100
AcDbLine
 10
304.4147862958814
 20
404.7103339097231
 30
0.0
 11
305.4147852958813
 21
404.7103339097231
 31
0.0
  0
LINE
  5
6B3
330
1F
100
AcDbEntity
  8
0
  6
Continuous
 62
     7
100
AcDbLine
 10
304.4147862958814
 20
411.9103339097232
 30
0.0
 11
305.4147852958813
 21
411.9103339097232
 31
0.0
  0
LINE
  5
6B4
330
1F
100
AcDbEntity
  8
0
  6
Continuous
 62
     7
100
AcDbLine
 10
305.4147852958813
 20
413.3503309097232
 30
0.0
 11
305.4147852958813
 21
403.2703309097233
 31
0.0
  0
LINE
  5
6B5
330
1F
100
AcDbEntity
  8
0
  6
Continuous
 62
     7
100
AcDbLine
 10
302.4947862958818
 20
409.9903339097232
 30
0.0
 11
302.4947862958818
 21
406.6303339097232
 31
0.0
  0
ARC
  5
6B6
330
1F
100
AcDbEntity
  8
0
  6
Continuous
 62
     7
100
AcDbCircle
 10
304.4147848614973
 20
406.6303324753381
 30
0.0
 40
1.919998565616106
100
AcDbArc
 50
179.9999571957175
 51
270.0000428042887
  0
ARC
  5
6B7
330
1F
100
AcDbEntity
  8
0
  6
Continuous
 62
     7
100
AcDbCircle
 10
304.4147848614973
 20
409.9903353441073
 30
0.0
 40
1.919998565616078
100
AcDbArc
 50
89.99995719571119
 51
180.0000428042823
  0
LINE
  5
6B8
330
1F
100
AcDbEntity
  8
0
  6
Continuous
 62
     7
100
AcDbLine
 10
305.4147852958813
 20
317.7703399097235
 30
0.0
 11
306.4147842958818
 21
317.7703399097235
 31
0.0
  0
LINE
  5
6B9
330
1F
100
AcDbEntity
  8
0
  6
Continuous
 62
     7
100
AcDbLine
 10
305.4147852958813
 20
327.8503399097235
 30
0.0
 11
306.4147842958818
 21
327.8503399097235
 31
0.0
  0
LINE
  5
6BA
330
1F
100
AcDbEntity
  8
0
  6
Continuous
 62
     7
100
AcDbLine
 10
304.4147862958814
 20
319.2103429097235
 30
0.0
 11
305.4147852958813
 21
319.2103429097235
 31
0.0
  0
LINE
  5
6BB
330
1F
100
AcDbEntity
  8
0
  6
Continuous
 62
     7
100
AcDbLine
 10
304.4147862958814
 20
326.4103399097231
 30
0.0
 11
305.4147852958813
 21
326.4103399097231
 31
0.0
  0
LINE
  5
6BC
330
1F
100
AcDbEntity
  8
0
  6
Continuous
 62
     7
100
AcDbLine
 10
305.4147852958813
 20
327.8503399097235
 30
0.0
 11
305.4147852958813
 21
317.7703399097235
 31
0.0
  0
LINE
  5
6BD
330
1F
100
AcDbEntity
  8
0
  6
Continuous
 62
     7
100
AcDbLine
 10
302.4947862958818
 20
324.4903399097232
 30
0.0
 11
302.4947862958818
 21
321.1303429097235
 31
0.0
  0
ARC
  5
6BE
330
1F
100
AcDbEntity
  8
0
  6
Continuous
 62
     7
100
AcDbCircle
 10
304.4147848614973
 20
321.1303414753386
 30
0.0
 40
1.919998565616193
100
AcDbArc
 50
179.9999571957144
 51
270.0000428042887
  0
ARC
  5
6BF
330
1F
100
AcDbEntity
  8
0
  6
Continuous
 62
     7
100
AcDbCircle
 10
304.4147848614973
 20
324.4903413441073
 30
0.0
 40
1.919998565616163
100
AcDbArc
 50
89.99995719571119
 51
180.0000428042855
  0
LINE
  5
6C0
330
1F
100
AcDbEntity
  8
0
  6
Continuous
 62
     7
100
AcDbLine
 10
319.4547822958816
 20
548.8103149097229
 30
0.0
 11
319.4547822958816
 21
547.8103159097233
 31
0.0
  0
LINE
  5
6C1
330
1F
100
AcDbEntity
  8
0
  6
Continuous
 62
     7
100
AcDbLine
 10
309.3747852958815
 20
548.8103149097229
 30
0.0
 11
309.3747852958815
 21
547.8103159097233
 31
0.0
  0
LINE
  5
6C2
330
1F
100
AcDbEntity
  8
0
  6
Continuous
 62
     7
100
AcDbLine
 10
318.0147822958815
 20
549.8103169097229
 30
0.0
 11
318.0147822958815
 21
548.8103149097229
 31
0.0
  0
LINE
  5
6C3
330
1F
100
AcDbEntity
  8
0
  6
Continuous
 62
     7
100
AcDbLine
 10
310.8147822958816
 20
549.8103169097229
 30
0.0
 11
310.8147822958816
 21
548.8103149097229
 31
0.0
  0
LINE
  5
6C4
330
1F
100
AcDbEntity
  8
0
  6
Continuous
 62
     7
100
AcDbLine
 10
309.3747852958815
 20
548.8103149097229
 30
0.0
 11
319.4547822958816
 21
548.8103149097229
 31
0.0
  0
LINE
  5
6C5
330
1F
100
AcDbEntity
  8
0
  6
Continuous
 62
     7
100
AcDbLine
 10
312.7347822958812
 20
551.7303169097222
 30
0.0
 11
316.0947822958813
 21
551.7303169097222
 31
0.0
  0
ARC
  5
6C6
330
1F
100
AcDbEntity
  8
0
  6
Continuous
 62
     7
100
AcDbCircle
 10
316.0947837302658
 20
549.8103183441076
 30
0.0
 40
1.919998565616163
100
AcDbArc
 50
359.9999571957112
 51
90.00004280428877
  0
ARC
  5
6C7
330
1F
100
AcDbEntity
  8
0
  6
Continuous
 62
     7
100
AcDbCircle
 10
312.7347808614973
 20
549.8103183441076
 30
0.0
 40
1.919998565616106
100
AcDbArc
 50
89.99995719571119
 51
180.0000428042855
  0
LINE
  5
6C8
330
1F
100
AcDbEntity
  8
0
  6
Continuous
 62
     7
100
AcDbLine
 10
309.3747852958815
 20
547.8103159097233
 30
0.0
 11
319.4547822958816
 21
547.8103159097233
 31
0.0
  0
LINE
  5
6C9
330
1F
100
AcDbEntity
  8
0
  6
Continuous
 62
     7
100
AcDbLine
 10
713.3747442958812
 20
548.8103149097229
 30
0.0
 11
713.3747442958812
 21
547.8103159097233
 31
0.0
  0
LINE
  5
6CA
330
1F
100
AcDbEntity
  8
0
  6
Continuous
 62
     7
100
AcDbLine
 10
723.4547442958811
 20
548.8103149097229
 30
0.0
 11
723.4547442958811
 21
547.8103159097233
 31
0.0
  0
LINE
  5
6CB
330
1F
100
AcDbEntity
  8
0
  6
Continuous
 62
     7
100
AcDbLine
 10
714.8147442958816
 20
549.8103169097229
 30
0.0
 11
714.8147442958816
 21
548.8103149097229
 31
0.0
  0
LINE
  5
6CC
330
1F
100
AcDbEntity
  8
0
  6
Continuous
 62
     7
100
AcDbLine
 10
722.0147442958811
 20
549.8103169097229
 30
0.0
 11
722.0147442958811
 21
548.8103149097229
 31
0.0
  0
LINE
  5
6CD
330
1F
100
AcDbEntity
  8
0
  6
Continuous
 62
     7
100
AcDbLine
 10
723.4547442958811
 20
548.8103149097229
 30
0.0
 11
713.3747442958812
 21
548.8103149097229
 31
0.0
  0
LINE
  5
6CE
330
1F
100
AcDbEntity
  8
0
  6
Continuous
 62
     7
100
AcDbLine
 10
720.0947442958812
 20
551.7303169097222
 30
0.0
 11
716.7347442958812
 21
551.7303169097222
 31
0.0
  0
ARC
  5
6CF
330
1F
100
AcDbEntity
  8
0
  6
Continuous
 62
     7
100
AcDbCircle
 10
716.7347428614964
 20
549.8103183441076
 30
0.0
 40
1.919998565616193
100
AcDbArc
 50
89.99995719571119
 51
180.0000428042855
  0
ARC
  5
6D0
330
1F
100
AcDbEntity
  8
0
  6
Continuous
 62
     7
100
AcDbCircle
 10
720.0947457302652
 20
549.8103183441068
 30
0.0
 40
1.919998565616278
100
AcDbArc
 50
359.9999571957177
 51
90.00004280429207
  0
LINE
  5
6D1
330
1F
100
AcDbEntity
  8
0
  6
Continuous
 62
     7
100
AcDbLine
 10
723.4547442958811
 20
547.8103159097233
 30
0.0
 11
713.3747442958812
 21
547.8103159097233
 31
0.0
  0
LINE
  5
6D2
330
1F
100
AcDbEntity
  8
0
  6
Continuous
 62
     7
100
AcDbLine
 10
970.0488492958818
 20
417.3103279097236
 30
0.0
 11
970.0488492958818
 21
417.3103279097236
 31
0.0
  0
ARC
  5
6D3
330
1F
100
AcDbEntity
  8
0
  6
Continuous
 62
     7
100
AcDbCircle
 10
970.0488495694315
 20
415.1761846361731
 30
0.0
 40
2.134143273550209
100
AcDbArc
 50
179.9999926559488
 51
90.00000734405771
  0
ARC
  5
6D4
330
1F
100
AcDbEntity
  8
0
  6
Continuous
 62
     7
100
AcDbCircle
 10
970.0488477015163
 20
415.1761865040882
 30
0.0
 40
2.134141405635344
100
AcDbArc
 50
89.99995719571442
 51
180.0000428042919
  0
LINE
  5
6D5
330
1F
100
AcDbEntity
  8
0
  6
Continuous
 62
     7
100
AcDbLine
 10
991.9147152958814
 20
279.1103419097232
 30
0.0
 11
991.9147152958814
 21
280.7103439097236
 31
0.0
  0
LINE
  5
6D6
330
1F
100
AcDbEntity
  8
0
  6
Continuous
 62
     7
100
AcDbLine
 10
994.9147152958817
 20
546.5103169097228
 30
0.0
 11
994.9147152958817
 21
544.9103149097225
 31
0.0
  0
LINE
  5
6D7
330
1F
100
AcDbEntity
  8
0
  6
Continuous
 62
     7
100
AcDbLine
 10
991.9147152958814
 20
546.5103169097228
 30
0.0
 11
991.9147152958814
 21
544.9103149097225
 31
0.0
  0
LINE
  5
6D8
330
1F
100
AcDbEntity
  8
0
  6
Continuous
 62
     7
100
AcDbLine
 10
991.9147152958814
 20
544.9103149097225
 30
0.0
 11
994.9147152958817
 21
544.9103149097225
 31
0.0
  0
LINE
  5
6D9
330
1F
100
AcDbEntity
  8
0
  6
Continuous
 62
     7
100
AcDbLine
 10
991.9147152958814
 20
546.5103169097228
 30
0.0
 11
955.9147212958819
 21
546.5103169097228
 31
0.0
  0
LINE
  5
6DA
330
1F
100
AcDbEntity
  8
0
  6
Continuous
 62
     7
100
AcDbLine
 10
1156.514701295881
 20
543.3103159097234
 30
0.0
 11
1156.514701295881
 21
280.8103429097235
 31
0.0
  0
LINE
  5
6DB
330
1F
100
AcDbEntity
  8
0
  6
Continuous
 62
     7
100
AcDbLine
 10
955.9147212958819
 20
544.9103149097225
 30
0.0
 11
952.9147212958816
 21
544.9103149097225
 31
0.0
  0
LINE
  5
6DC
330
1F
100
AcDbEntity
  8
0
  6
Continuous
 62
     7
100
AcDbLine
 10
1054.91470929588
 20
546.5103169097228
 30
0.0
 11
994.9147152958817
 21
546.5103169097228
 31
0.0
  0
LINE
  5
6DD
330
1F
100
AcDbEntity
  8
0
  6
Continuous
 62
     7
100
AcDbLine
 10
952.9147212958816
 20
547.8103159097233
 30
0.0
 11
952.9147212958816
 21
544.9103149097225
 31
0.0
  0
LINE
  5
6DE
330
1F
100
AcDbEntity
  8
0
  6
Continuous
 62
     7
100
AcDbLine
 10
955.9147212958819
 20
546.5103169097228
 30
0.0
 11
955.9147212958819
 21
544.9103149097225
 31
0.0
  0
LINE
  5
6DF
330
1F
100
AcDbEntity
  8
0
  6
Continuous
 62
     7
100
AcDbLine
 10
952.9147212958816
 20
547.8103159097233
 30
0.0
 11
924.7147242958819
 21
547.8103159097233
 31
0.0
  0
LINE
  5
6E0
330
1F
100
AcDbEntity
  8
0
  6
Continuous
 62
     7
100
AcDbLine
 10
1124.91470229588
 20
546.5103169097228
 30
0.0
 11
1057.914709295881
 21
546.5103169097228
 31
0.0
  0
LINE
  5
6E1
330
1F
100
AcDbEntity
  8
0
  6
Continuous
 62
     7
100
AcDbLine
 10
1127.914702295881
 20
547.8103159097233
 30
0.0
 11
1154.914699295881
 21
547.8103159097233
 31
0.0
  0
LINE
  5
6E2
330
1F
100
AcDbEntity
  8
0
  6
Continuous
 62
     7
100
AcDbLine
 10
1154.914699295881
 20
543.3103159097234
 30
0.0
 11
1154.914699295881
 21
547.8103159097233
 31
0.0
  0
LINE
  5
6E3
330
1F
100
AcDbEntity
  8
0
  6
Continuous
 62
     7
100
AcDbLine
 10
1154.914699295881
 20
280.8103429097235
 30
0.0
 11
1154.914699295881
 21
277.8103429097232
 31
0.0
  0
LINE
  5
6E4
330
1F
100
AcDbEntity
  8
0
  6
Continuous
 62
     7
100
AcDbLine
 10
1154.914699295881
 20
280.8103429097235
 30
0.0
 11
1156.514701295881
 21
280.8103429097235
 31
0.0
  0
LINE
  5
6E5
330
1F
100
AcDbEntity
  8
0
  6
Continuous
 62
     7
100
AcDbLine
 10
1156.514701295881
 20
543.3103159097234
 30
0.0
 11
1154.914699295881
 21
543.3103159097234
 31
0.0
  0
LINE
  5
6E6
330
1F
100
AcDbEntity
  8
0
  6
Continuous
 62
     7
100
AcDbLine
 10
925.9147242958816
 20
547.8103159097233
 30
0.0
 11
925.9147242958816
 21
277.8103429097232
 31
0.0
  0
LINE
  5
6E7
330
1F
100
AcDbEntity
  8
0
  6
Continuous
 62
     7
100
AcDbLine
 10
1057.914709295881
 20
546.5103169097228
 30
0.0
 11
1057.914709295881
 21
544.9103149097225
 31
0.0
  0
LINE
  5
6E8
330
1F
100
AcDbEntity
  8
0
  6
Continuous
 62
     7
100
AcDbLine
 10
1054.91470929588
 20
546.5103169097228
 30
0.0
 11
1054.91470929588
 21
544.9103149097225
 31
0.0
  0
LINE
  5
6E9
330
1F
100
AcDbEntity
  8
0
  6
Continuous
 62
     7
100
AcDbLine
 10
1127.914702295881
 20
547.8103159097233
 30
0.0
 11
1127.914702295881
 21
544.9103149097225
 31
0.0
  0
LINE
  5
6EA
330
1F
100
AcDbEntity
  8
0
  6
Continuous
 62
     7
100
AcDbLine
 10
1124.91470229588
 20
546.5103169097228
 30
0.0
 11
1124.91470229588
 21
544.9103149097225
 31
0.0
  0
LINE
  5
6EB
330
1F
100
AcDbEntity
  8
0
  6
Continuous
 62
     7
100
AcDbLine
 10
991.9147152958814
 20
279.1103419097232
 30
0.0
 11
955.9147212958819
 21
279.1103419097232
 31
0.0
  0
LINE
  5
6EC
330
1F
100
AcDbEntity
  8
0
  6
Continuous
 62
     7
100
AcDbLine
 10
1127.914702295881
 20
277.8103429097232
 30
0.0
 11
1154.914699295881
 21
277.8103429097232
 31
0.0
  0
LINE
  5
6ED
330
1F
100
AcDbEntity
  8
0
  6
Continuous
 62
     7
100
AcDbLine
 10
1124.91470229588
 20
279.1103419097232
 30
0.0
 11
1057.914709295881
 21
279.1103419097232
 31
0.0
  0
LINE
  5
6EE
330
1F
100
AcDbEntity
  8
0
  6
Continuous
 62
     7
100
AcDbLine
 10
952.9147212958816
 20
277.8103429097232
 30
0.0
 11
924.7147242958819
 21
277.8103429097232
 31
0.0
  0
LINE
  5
6EF
330
1F
100
AcDbEntity
  8
0
  6
Continuous
 62
     7
100
AcDbLine
 10
955.9147212958819
 20
279.1103419097232
 30
0.0
 11
955.9147212958819
 21
280.7103439097236
 31
0.0
  0
LINE
  5
6F0
330
1F
100
AcDbEntity
  8
0
  6
Continuous
 62
     7
100
AcDbLine
 10
952.9147212958816
 20
277.8103429097232
 30
0.0
 11
952.9147212958816
 21
280.7103439097236
 31
0.0
  0
LINE
  5
6F1
330
1F
100
AcDbEntity
  8
0
  6
Continuous
 62
     7
100
AcDbLine
 10
1054.91470929588
 20
279.1103419097232
 30
0.0
 11
994.9147152958817
 21
279.1103419097232
 31
0.0
  0
LINE
  5
6F2
330
1F
100
AcDbEntity
  8
0
  6
Continuous
 62
     7
100
AcDbLine
 10
1057.914709295881
 20
279.1103419097232
 30
0.0
 11
1057.914709295881
 21
280.7103439097236
 31
0.0
  0
LINE
  5
6F3
330
1F
100
AcDbEntity
  8
0
  6
Continuous
 62
     7
100
AcDbLine
 10
1054.91470929588
 20
279.1103419097232
 30
0.0
 11
1054.91470929588
 21
280.7103439097236
 31
0.0
  0
LINE
  5
6F4
330
1F
100
AcDbEntity
  8
0
  6
Continuous
 62
     7
100
AcDbLine
 10
1127.914702295881
 20
277.8103429097232
 30
0.0
 11
1127.914702295881
 21
280.7103439097236
 31
0.0
  0
LINE
  5
6F5
330
1F
100
AcDbEntity
  8
0
  6
Continuous
 62
     7
100
AcDbLine
 10
1124.91470229588
 20
279.1103419097232
 30
0.0
 11
1124.91470229588
 21
280.7103439097236
 31
0.0
  0
LINE
  5
6F6
330
1F
100
AcDbEntity
  8
0
  6
Continuous
 62
     7
100
AcDbLine
 10
1057.914709295881
 20
544.9103149097225
 30
0.0
 11
1054.91470929588
 21
544.9103149097225
 31
0.0
  0
LINE
  5
6F7
330
1F
100
AcDbEntity
  8
0
  6
Continuous
 62
     7
100
AcDbLine
 10
1127.914702295881
 20
544.9103149097225
 30
0.0
 11
1124.91470229588
 21
544.9103149097225
 31
0.0
  0
LINE
  5
6F8
330
1F
100
AcDbEntity
  8
0
  6
Continuous
 62
     7
100
AcDbLine
 10
955.9147212958819
 20
280.7103439097236
 30
0.0
 11
952.9147212958816
 21
280.7103439097236
 31
0.0
  0
LINE
  5
6F9
330
1F
100
AcDbEntity
  8
0
  6
Continuous
 62
     7
100
AcDbLine
 10
1057.914709295881
 20
280.7103439097236
 30
0.0
 11
1054.91470929588
 21
280.7103439097236
 31
0.0
  0
LINE
  5
6FA
330
1F
100
AcDbEntity
  8
0
  6
Continuous
 62
     7
100
AcDbLine
 10
1127.914702295881
 20
280.7103439097236
 30
0.0
 11
1124.91470229588
 21
280.7103439097236
 31
0.0
  0
LINE
  5
6FB
330
1F
100
AcDbEntity
  8
0
  6
Continuous
 62
     7
100
AcDbLine
 10
991.9147152958814
 20
280.7103439097236
 30
0.0
 11
994.9147152958817
 21
280.7103439097236
 31
0.0
  0
LINE
  5
6FC
330
1F
100
AcDbEntity
  8
0
  6
Continuous
 62
     7
100
AcDbLine
 10
994.9147152958817
 20
279.1103419097232
 30
0.0
 11
994.9147152958817
 21
280.7103439097236
 31
0.0
  0
LINE
  5
6FD
330
1F
100
AcDbEntity
  8
0
  6
Continuous
 62
     7
100
AcDbLine
 10
1163.314699295881
 20
277.8103429097232
 30
0.0
 11
1163.314699295881
 21
252.8103469097231
 31
0.0
  0
LINE
  5
6FE
330
1F
100
AcDbEntity
  8
0
  6
Continuous
 62
     7
100
AcDbLine
 10
1164.91469829588
 20
277.9103419097233
 30
0.0
 11
1164.91469829588
 21
252.8103469097231
 31
0.0
  0
ARC
  5
6FF
330
1F
100
AcDbEntity
  8
0
  6
Continuous
 62
     7
100
AcDbCircle
 10
1163.414699416493
 20
277.9103430303355
 30
0.0
 40
1.499998879387696
100
AcDbArc
 50
359.9999571957078
 51
90.0000428042823
  0
LINE
  5
700
330
1F
100
AcDbEntity
  8
0
  6
Continuous
 62
     7
100
AcDbLine
 10
1154.914699295881
 20
279.4103419097235
 30
0.0
 11
1163.414698295879
 21
279.4103419097235
 31
0.0
  0
LINE
  5
701
330
1F
100
AcDbEntity
  8
0
  6
Continuous
 62
     7
100
AcDbLine
 10
1164.91469829588
 20
547.710316909723
 30
0.0
 11
1164.91469829588
 21
577.8103129097234
 31
0.0
  0
ARC
  5
702
330
1F
100
AcDbEntity
  8
0
  6
Continuous
 62
     7
100
AcDbCircle
 10
1163.414699416494
 20
547.7103157891097
 30
0.0
 40
1.49999887938761
100
AcDbArc
 50
269.9999571957111
 51
0.0000428042888088
  0
LINE
  5
703
330
1F
100
AcDbEntity
  8
0
  6
Continuous
 62
     7
100
AcDbLine
 10
1154.914699295881
 20
546.210316909723
 30
0.0
 11
1163.414698295879
 21
546.210316909723
 31
0.0
  0
LINE
  5
704
330
1F
100
AcDbEntity
  8
0
  6
Continuous
 62
     7
100
AcDbLine
 10
1163.314699295881
 20
577.8103129097234
 30
0.0
 11
1163.314699295881
 21
547.8103159097233
 31
0.0
  0
LINE
  5
705
330
1F
100
AcDbEntity
  8
0
  6
Continuous
 62
     7
100
AcDbLine
 10
1154.414701295881
 20
547.8103159097233
 30
0.0
 11
1163.314699295881
 21
547.8103159097233
 31
0.0
  0
LINE
  5
706
330
1F
100
AcDbEntity
  8
0
  6
Continuous
 62
     7
100
AcDbLine
 10
1163.314699295881
 20
252.8103469097231
 30
0.0
 11
1164.91469829588
 21
252.8103469097231
 31
0.0
  0
LINE
  5
707
330
1F
100
AcDbEntity
  8
0
  6
Continuous
 62
     7
100
AcDbLine
 10
1163.314699295881
 20
577.8103129097234
 30
0.0
 11
1164.91469829588
 21
577.8103129097234
 31
0.0
  0
LINE
  5
708
330
1F
100
AcDbEntity
  8
0
  6
Continuous
 62
     7
100
AcDbLine
 10
1154.414701295881
 20
277.8103429097232
 30
0.0
 11
1163.314699295881
 21
277.8103429097232
 31
0.0
  0
LINE
  5
709
330
1F
100
AcDbEntity
  8
0
  6
Continuous
 62
     7
 48
6.0
100
AcDbLine
 10
1146.511489295881
 20
502.3111219097232
 30
0.0
 11
1146.511489295881
 21
502.3111219097232
 31
0.0
  0
LINE
  5
70A
330
1F
100
AcDbEntity
  8
0
  6
Continuous
 62
     7
 48
6.0
100
AcDbLine
 10
1145.01388929588
 20
502.3111219097232
 30
0.0
 11
1146.511489295881
 21
502.3111219097232
 31
0.0
  0
LINE
  5
70B
330
1F
100
AcDbEntity
  8
0
  6
Continuous
 62
     7
 48
6.0
100
AcDbLine
 10
1145.01388929588
 20
500.8135219097233
 30
0.0
 11
1145.01388929588
 21
502.3111219097232
 31
0.0
  0
LINE
  5
70C
330
1F
100
AcDbEntity
  8
0
  6
Continuous
 62
     7
 48
6.0
100
AcDbLine
 10
1144.015489295881
 20
500.8135219097233
 30
0.0
 11
1145.01388929588
 21
500.8135219097233
 31
0.0
  0
LINE
  5
70D
330
1F
100
AcDbEntity
  8
0
  6
Continuous
 62
     7
 48
6.0
100
AcDbLine
 10
1144.015489295881
 20
502.3111219097232
 30
0.0
 11
1144.015489295881
 21
500.8135219097233
 31
0.0
  0
LINE
  5
70E
330
1F
100
AcDbEntity
  8
0
  6
Continuous
 62
     7
 48
6.0
100
AcDbLine
 10
1142.517889295881
 20
502.3111219097232
 30
0.0
 11
1144.015489295881
 21
502.3111219097232
 31
0.0
  0
LINE
  5
70F
330
1F
100
AcDbEntity
  8
0
  6
Continuous
 62
     7
 48
6.0
100
AcDbLine
 10
1142.517889295881
 20
503.3095219097233
 30
0.0
 11
1142.517889295881
 21
502.3111219097232
 31
0.0
  0
LINE
  5
710
330
1F
100
AcDbEntity
  8
0
  6
Continuous
 62
     7
 48
6.0
100
AcDbLine
 10
1144.015489295881
 20
503.3095219097233
 30
0.0
 11
1142.517889295881
 21
503.3095219097233
 31
0.0
  0
LINE
  5
711
330
1F
100
AcDbEntity
  8
0
  6
Continuous
 62
     7
 48
6.0
100
AcDbLine
 10
1144.015489295881
 20
504.8071219097232
 30
0.0
 11
1144.015489295881
 21
503.3095219097233
 31
0.0
  0
LINE
  5
712
330
1F
100
AcDbEntity
  8
0
  6
Continuous
 62
     7
 48
6.0
100
AcDbLine
 10
1145.01388929588
 20
504.8071219097232
 30
0.0
 11
1144.015489295881
 21
504.8071219097232
 31
0.0
  0
LINE
  5
713
330
1F
100
AcDbEntity
  8
0
  6
Continuous
 62
     7
 48
6.0
100
AcDbLine
 10
1145.01388929588
 20
503.3095219097233
 30
0.0
 11
1145.01388929588
 21
504.8071219097232
 31
0.0
  0
LINE
  5
714
330
1F
100
AcDbEntity
  8
0
  6
Continuous
 62
     7
 48
6.0
100
AcDbLine
 10
1146.511489295881
 20
503.3095219097233
 30
0.0
 11
1145.01388929588
 21
503.3095219097233
 31
0.0
  0
LINE
  5
715
330
1F
100
AcDbEntity
  8
0
  6
Continuous
 62
     7
 48
6.0
100
AcDbLine
 10
1146.511489295881
 20
502.3111219097232
 30
0.0
 11
1146.511489295881
 21
503.3095219097233
 31
0.0
  0
LINE
  5
716
330
1F
100
AcDbEntity
  8
0
  6
Continuous
 62
     7
 48
6.0
100
AcDbLine
 10
1146.511489295881
 20
322.3111399097235
 30
0.0
 11
1146.511489295881
 21
322.3111399097235
 31
0.0
  0
LINE
  5
717
330
1F
100
AcDbEntity
  8
0
  6
Continuous
 62
     7
 48
6.0
100
AcDbLine
 10
1145.01388929588
 20
322.3111399097235
 30
0.0
 11
1146.511489295881
 21
322.3111399097235
 31
0.0
  0
LINE
  5
718
330
1F
100
AcDbEntity
  8
0
  6
Continuous
 62
     7
 48
6.0
100
AcDbLine
 10
1145.01388929588
 20
320.8135399097232
 30
0.0
 11
1145.01388929588
 21
322.3111399097235
 31
0.0
  0
LINE
  5
719
330
1F
100
AcDbEntity
  8
0
  6
Continuous
 62
     7
 48
6.0
100
AcDbLine
 10
1144.015489295881
 20
320.8135399097232
 30
0.0
 11
1145.01388929588
 21
320.8135399097232
 31
0.0
  0
LINE
  5
71A
330
1F
100
AcDbEntity
  8
0
  6
Continuous
 62
     7
 48
6.0
100
AcDbLine
 10
1144.015489295881
 20
322.3111399097235
 30
0.0
 11
1144.015489295881
 21
320.8135399097232
 31
0.0
  0
LINE
  5
71B
330
1F
100
AcDbEntity
  8
0
  6
Continuous
 62
     7
 48
6.0
100
AcDbLine
 10
1142.517889295881
 20
322.3111399097235
 30
0.0
 11
1144.015489295881
 21
322.3111399097235
 31
0.0
  0
LINE
  5
71C
330
1F
100
AcDbEntity
  8
0
  6
Continuous
 62
     7
 48
6.0
100
AcDbLine
 10
1142.517889295881
 20
323.3095399097228
 30
0.0
 11
1142.517889295881
 21
322.3111399097235
 31
0.0
  0
LINE
  5
71D
330
1F
100
AcDbEntity
  8
0
  6
Continuous
 62
     7
 48
6.0
100
AcDbLine
 10
1144.015489295881
 20
323.3095399097228
 30
0.0
 11
1142.517889295881
 21
323.3095399097228
 31
0.0
  0
LINE
  5
71E
330
1F
100
AcDbEntity
  8
0
  6
Continuous
 62
     7
 48
6.0
100
AcDbLine
 10
1144.015489295881
 20
324.8071399097231
 30
0.0
 11
1144.015489295881
 21
323.3095399097228
 31
0.0
  0
LINE
  5
71F
330
1F
100
AcDbEntity
  8
0
  6
Continuous
 62
     7
 48
6.0
100
AcDbLine
 10
1145.01388929588
 20
324.8071399097231
 30
0.0
 11
1144.015489295881
 21
324.8071399097231
 31
0.0
  0
LINE
  5
720
330
1F
100
AcDbEntity
  8
0
  6
Continuous
 62
     7
 48
6.0
100
AcDbLine
 10
1145.01388929588
 20
323.3095399097228
 30
0.0
 11
1145.01388929588
 21
324.8071399097231
 31
0.0
  0
LINE
  5
721
330
1F
100
AcDbEntity
  8
0
  6
Continuous
 62
     7
 48
6.0
100
AcDbLine
 10
1146.511489295881
 20
323.3095399097228
 30
0.0
 11
1145.01388929588
 21
323.3095399097228
 31
0.0
  0
LINE
  5
722
330
1F
100
AcDbEntity
  8
0
  6
Continuous
 62
     7
 48
6.0
100
AcDbLine
 10
1146.511489295881
 20
322.3111399097235
 30
0.0
 11
1146.511489295881
 21
323.3095399097228
 31
0.0
  0
LINE
  5
723
330
1F
100
AcDbEntity
  8
0
  6
Continuous
 62
     7
 48
6.0
100
AcDbLine
 10
969.9115062958812
 20
407.8111309097232
 30
0.0
 11
969.9115062958812
 21
407.8111309097232
 31
0.0
  0
LINE
  5
724
330
1F
100
AcDbEntity
  8
0
  6
Continuous
 62
     7
 48
6.0
100
AcDbLine
 10
968.4139062958818
 20
407.8111309097232
 30
0.0
 11
969.9115062958812
 21
407.8111309097232
 31
0.0
  0
LINE
  5
725
330
1F
100
AcDbEntity
  8
0
  6
Continuous
 62
     7
 48
6.0
100
AcDbLine
 10
968.4139062958818
 20
406.3135309097233
 30
0.0
 11
968.4139062958818
 21
407.8111309097232
 31
0.0
  0
LINE
  5
726
330
1F
100
AcDbEntity
  8
0
  6
Continuous
 62
     7
 48
6.0
100
AcDbLine
 10
967.4155062958812
 20
406.3135309097233
 30
0.0
 11
968.4139062958818
 21
406.3135309097233
 31
0.0
  0
LINE
  5
727
330
1F
100
AcDbEntity
  8
0
  6
Continuous
 62
     7
 48
6.0
100
AcDbLine
 10
967.4155062958812
 20
407.8111309097232
 30
0.0
 11
967.4155062958812
 21
406.3135309097233
 31
0.0
  0
LINE
  5
728
330
1F
100
AcDbEntity
  8
0
  6
Continuous
 62
     7
 48
6.0
100
AcDbLine
 10
965.9179062958816
 20
407.8111309097232
 30
0.0
 11
967.4155062958812
 21
407.8111309097232
 31
0.0
  0
LINE
  5
729
330
1F
100
AcDbEntity
  8
0
  6
Continuous
 62
     7
 48
6.0
100
AcDbLine
 10
965.9179062958816
 20
408.8095309097232
 30
0.0
 11
965.9179062958816
 21
407.8111309097232
 31
0.0
  0
LINE
  5
72A
330
1F
100
AcDbEntity
  8
0
  6
Continuous
 62
     7
 48
6.0
100
AcDbLine
 10
967.4155062958812
 20
408.8095309097232
 30
0.0
 11
965.9179062958816
 21
408.8095309097232
 31
0.0
  0
LINE
  5
72B
330
1F
100
AcDbEntity
  8
0
  6
Continuous
 62
     7
 48
6.0
100
AcDbLine
 10
967.4155062958812
 20
410.3071309097235
 30
0.0
 11
967.4155062958812
 21
408.8095309097232
 31
0.0
  0
LINE
  5
72C
330
1F
100
AcDbEntity
  8
0
  6
Continuous
 62
     7
 48
6.0
100
AcDbLine
 10
968.4139062958818
 20
410.3071309097235
 30
0.0
 11
967.4155062958812
 21
410.3071309097235
 31
0.0
  0
LINE
  5
72D
330
1F
100
AcDbEntity
  8
0
  6
Continuous
 62
     7
 48
6.0
100
AcDbLine
 10
968.4139062958818
 20
408.8095309097232
 30
0.0
 11
968.4139062958818
 21
410.3071309097235
 31
0.0
  0
LINE
  5
72E
330
1F
100
AcDbEntity
  8
0
  6
Continuous
 62
     7
 48
6.0
100
AcDbLine
 10
969.9115062958812
 20
408.8095309097232
 30
0.0
 11
968.4139062958818
 21
408.8095309097232
 31
0.0
  0
LINE
  5
72F
330
1F
100
AcDbEntity
  8
0
  6
Continuous
 62
     7
 48
6.0
100
AcDbLine
 10
969.9115062958812
 20
407.8111309097232
 30
0.0
 11
969.9115062958812
 21
408.8095309097232
 31
0.0
  0
LINE
  5
730
330
1F
100
AcDbEntity
  8
0
  6
Continuous
 62
     7
 48
6.0
100
AcDbLine
 10
969.9115092958814
 20
527.8111189097232
 30
0.0
 11
969.9115092958814
 21
527.8111189097232
 31
0.0
  0
LINE
  5
731
330
1F
100
AcDbEntity
  8
0
  6
Continuous
 62
     7
 48
6.0
100
AcDbLine
 10
968.4139092958814
 20
527.8111189097232
 30
0.0
 11
969.9115092958814
 21
527.8111189097232
 31
0.0
  0
LINE
  5
732
330
1F
100
AcDbEntity
  8
0
  6
Continuous
 62
     7
 48
6.0
100
AcDbLine
 10
968.4139092958814
 20
526.3135219097232
 30
0.0
 11
968.4139092958814
 21
527.8111189097232
 31
0.0
  0
LINE
  5
733
330
1F
100
AcDbEntity
  8
0
  6
Continuous
 62
     7
 48
6.0
100
AcDbLine
 10
967.4155092958811
 20
526.3135219097232
 30
0.0
 11
968.4139092958814
 21
526.3135219097232
 31
0.0
  0
LINE
  5
734
330
1F
100
AcDbEntity
  8
0
  6
Continuous
 62
     7
 48
6.0
100
AcDbLine
 10
967.4155092958811
 20
527.8111189097232
 30
0.0
 11
967.4155092958811
 21
526.3135219097232
 31
0.0
  0
LINE
  5
735
330
1F
100
AcDbEntity
  8
0
  6
Continuous
 62
     7
 48
6.0
100
AcDbLine
 10
965.9179092958812
 20
527.8111189097232
 30
0.0
 11
967.4155092958811
 21
527.8111189097232
 31
0.0
  0
LINE
  5
736
330
1F
100
AcDbEntity
  8
0
  6
Continuous
 62
     7
 48
6.0
100
AcDbLine
 10
965.9179092958812
 20
528.8095189097231
 30
0.0
 11
965.9179092958812
 21
527.8111189097232
 31
0.0
  0
LINE
  5
737
330
1F
100
AcDbEntity
  8
0
  6
Continuous
 62
     7
 48
6.0
100
AcDbLine
 10
967.4155092958811
 20
528.8095189097231
 30
0.0
 11
965.9179092958812
 21
528.8095189097231
 31
0.0
  0
LINE
  5
738
330
1F
100
AcDbEntity
  8
0
  6
Continuous
 62
     7
 48
6.0
100
AcDbLine
 10
967.4155092958811
 20
530.3071189097231
 30
0.0
 11
967.4155092958811
 21
528.8095189097231
 31
0.0
  0
LINE
  5
739
330
1F
100
AcDbEntity
  8
0
  6
Continuous
 62
     7
 48
6.0
100
AcDbLine
 10
968.4139092958814
 20
530.3071189097231
 30
0.0
 11
967.4155092958811
 21
530.3071189097231
 31
0.0
  0
LINE
  5
73A
330
1F
100
AcDbEntity
  8
0
  6
Continuous
 62
     7
 48
6.0
100
AcDbLine
 10
968.4139092958814
 20
528.8095189097231
 30
0.0
 11
968.4139092958814
 21
530.3071189097231
 31
0.0
  0
LINE
  5
73B
330
1F
100
AcDbEntity
  8
0
  6
Continuous
 62
     7
 48
6.0
100
AcDbLine
 10
969.9115092958814
 20
528.8095189097231
 30
0.0
 11
968.4139092958814
 21
528.8095189097231
 31
0.0
  0
LINE
  5
73C
330
1F
100
AcDbEntity
  8
0
  6
Continuous
 62
     7
 48
6.0
100
AcDbLine
 10
969.9115092958814
 20
527.8111189097232
 30
0.0
 11
969.9115092958814
 21
528.8095189097231
 31
0.0
  0
LINE
  5
73D
330
1F
100
AcDbEntity
  8
0
  6
Continuous
 62
     7
100
AcDbLine
 10
1127.914702295881
 20
547.710316909723
 30
0.0
 11
952.9147212958816
 21
547.710316909723
 31
0.0
  0
LINE
  5
73E
330
1F
100
AcDbEntity
  8
0
  6
Continuous
 62
     7
100
AcDbLine
 10
924.7147242958819
 20
547.8103159097233
 30
0.0
 11
924.7147242958819
 21
277.8103429097232
 31
0.0
  0
LINE
  5
73F
330
1F
100
AcDbEntity
  8
0
  6
Continuous
 62
     7
100
AcDbLine
 10
923.7147222958816
 20
506.4103189097232
 30
0.0
 11
924.7147242958819
 21
506.4103189097232
 31
0.0
  0
LINE
  5
740
330
1F
100
AcDbEntity
  8
0
  6
Continuous
 62
     7
100
AcDbLine
 10
923.7147222958816
 20
499.2103219097232
 30
0.0
 11
924.7147242958819
 21
499.2103219097232
 31
0.0
  0
LINE
  5
741
330
1F
100
AcDbEntity
  8
0
  6
Continuous
 62
     7
100
AcDbLine
 10
921.7947252958811
 20
501.1303219097231
 30
0.0
 11
921.7947252958811
 21
504.4903189097232
 31
0.0
  0
ARC
  5
742
330
1F
100
AcDbEntity
  8
0
  6
Continuous
 62
     7
100
AcDbCircle
 10
923.714722361497
 20
504.4903218441056
 30
0.0
 40
1.919997065617963
100
AcDbArc
 50
90.00000195807361
 51
180.0000875666446
  0
ARC
  5
743
330
1F
100
AcDbEntity
  8
0
  6
Continuous
 62
     7
100
AcDbCircle
 10
923.714722361497
 20
501.1303189753411
 30
0.0
 40
1.919997065617988
100
AcDbArc
 50
179.999912433352
 51
269.9999980419263
  0
LINE
  5
744
330
1F
100
AcDbEntity
  8
0
  6
Continuous
 62
     7
100
AcDbLine
 10
923.7147222958816
 20
326.4103369097235
 30
0.0
 11
924.7147242958819
 21
326.4103369097235
 31
0.0
  0
LINE
  5
745
330
1F
100
AcDbEntity
  8
0
  6
Continuous
 62
     7
100
AcDbLine
 10
923.7147222958816
 20
319.2103399097232
 30
0.0
 11
924.7147242958819
 21
319.2103399097232
 31
0.0
  0
LINE
  5
746
330
1F
100
AcDbEntity
  8
0
  6
Continuous
 62
     7
100
AcDbLine
 10
921.7947252958811
 20
321.1303399097232
 30
0.0
 11
921.7947252958811
 21
324.4903369097235
 31
0.0
  0
ARC
  5
747
330
1F
100
AcDbEntity
  8
0
  6
Continuous
 62
     7
100
AcDbCircle
 10
923.714722361497
 20
324.4903398441051
 30
0.0
 40
1.919997065617963
100
AcDbArc
 50
90.00000195807361
 51
180.0000875666446
  0
ARC
  5
748
330
1F
100
AcDbEntity
  8
0
  6
Continuous
 62
     7
100
AcDbCircle
 10
923.714722361497
 20
321.1303369753412
 30
0.0
 40
1.919997065618074
100
AcDbArc
 50
179.999912433352
 51
269.9999980419263
  0
LINE
  5
749
330
1F
100
AcDbEntity
  8
0
  6
Continuous
 62
     7
100
AcDbLine
 10
980.9547312958818
 20
548.7103159097235
 30
0.0
 11
980.9547312958818
 21
547.710316909723
 31
0.0
  0
LINE
  5
74A
330
1F
100
AcDbEntity
  8
0
  6
Continuous
 62
     7
100
AcDbLine
 10
970.8747342958817
 20
548.7103159097235
 30
0.0
 11
970.8747342958817
 21
547.710316909723
 31
0.0
  0
LINE
  5
74B
330
1F
100
AcDbEntity
  8
0
  6
Continuous
 62
     7
100
AcDbLine
 10
979.5147312958816
 20
549.7103149097232
 30
0.0
 11
979.5147312958816
 21
548.7103159097235
 31
0.0
  0
LINE
  5
74C
330
1F
100
AcDbEntity
  8
0
  6
Continuous
 62
     7
100
AcDbLine
 10
972.314731295882
 20
549.7103149097232
 30
0.0
 11
972.314731295882
 21
548.7103159097235
 31
0.0
  0
LINE
  5
74D
330
1F
100
AcDbEntity
  8
0
  6
Continuous
 62
     7
100
AcDbLine
 10
970.8747342958817
 20
548.7103159097235
 30
0.0
 11
980.9547312958818
 21
548.7103159097235
 31
0.0
  0
LINE
  5
74E
330
1F
100
AcDbEntity
  8
0
  6
Continuous
 62
     7
100
AcDbLine
 10
974.2347312958818
 20
551.6303149097232
 30
0.0
 11
977.594731295882
 21
551.6303149097232
 31
0.0
  0
ARC
  5
74F
330
1F
100
AcDbEntity
  8
0
  6
Continuous
 62
     7
100
AcDbCircle
 10
977.5947327302654
 20
549.7103163441071
 30
0.0
 40
1.919998565616193
100
AcDbArc
 50
359.9999571957046
 51
90.00004280427901
  0
ARC
  5
750
330
1F
100
AcDbEntity
  8
0
  6
Continuous
 62
     7
100
AcDbCircle
 10
974.2347298614971
 20
549.7103163441071
 30
0.0
 40
1.919998565616278
100
AcDbArc
 50
89.99995719571769
 51
180.0000428042919
  0
LINE
  5
751
330
1F
100
AcDbEntity
  8
0
  6
Continuous
 62
     7
100
AcDbLine
 10
1110.954706295881
 20
548.7103159097235
 30
0.0
 11
1110.954706295881
 21
547.710316909723
 31
0.0
  0
LINE
  5
752
330
1F
100
AcDbEntity
  8
0
  6
Continuous
 62
     7
100
AcDbLine
 10
1100.874706295881
 20
548.7103159097235
 30
0.0
 11
1100.874706295881
 21
547.710316909723
 31
0.0
  0
LINE
  5
753
330
1F
100
AcDbEntity
  8
0
  6
Continuous
 62
     7
100
AcDbLine
 10
1109.51470329588
 20
549.7103149097232
 30
0.0
 11
1109.51470329588
 21
548.7103159097235
 31
0.0
  0
LINE
  5
754
330
1F
100
AcDbEntity
  8
0
  6
Continuous
 62
     7
100
AcDbLine
 10
1102.314703295881
 20
549.7103149097232
 30
0.0
 11
1102.314703295881
 21
548.7103159097235
 31
0.0
  0
LINE
  5
755
330
1F
100
AcDbEntity
  8
0
  6
Continuous
 62
     7
100
AcDbLine
 10
1100.874706295881
 20
548.7103159097235
 30
0.0
 11
1110.954706295881
 21
548.7103159097235
 31
0.0
  0
LINE
  5
756
330
1F
100
AcDbEntity
  8
0
  6
Continuous
 62
     7
100
AcDbLine
 10
1104.234703295881
 20
551.6303149097232
 30
0.0
 11
1107.594703295881
 21
551.6303149097232
 31
0.0
  0
ARC
  5
757
330
1F
100
AcDbEntity
  8
0
  6
Continuous
 62
     7
100
AcDbCircle
 10
1107.594704730265
 20
549.7103163441071
 30
0.0
 40
1.919998565616106
100
AcDbArc
 50
359.9999571957046
 51
90.0000428042823
  0
ARC
  5
758
330
1F
100
AcDbEntity
  8
0
  6
Continuous
 62
     7
100
AcDbCircle
 10
1104.234701861497
 20
549.7103163441071
 30
0.0
 40
1.919998565616278
100
AcDbArc
 50
89.99995719571769
 51
180.0000428042919
  0
LINE
  5
759
330
1F
100
AcDbEntity
  8
0
  6
DASHED
 62
     4
 48
6.0
100
AcDbLine
 10
630.9147522958812
 20
285.8103409097232
 30
0.0
 11
630.9147522958812
 21
312.8103379097233
 31
0.0
  0
LINE
  5
75A
330
1F
100
AcDbEntity
  8
0
  6
DASHED
 62
     4
 48
6.0
100
AcDbLine
 10
628.9147512958813
 20
283.8103429097234
 30
0.0
 11
630.9147522958812
 21
285.8103409097232
 31
0.0
  0
LINE
  5
75B
330
1F
100
AcDbEntity
  8
0
  6
DASHED
 62
     4
 48
6.0
100
AcDbLine
 10
607.9147542958817
 20
283.8103429097234
 30
0.0
 11
628.9147512958813
 21
283.8103429097234
 31
0.0
  0
LINE
  5
75C
330
1F
100
AcDbEntity
  8
0
  6
DASHED
 62
     4
 48
6.0
100
AcDbLine
 10
605.9147532958817
 20
285.8103409097232
 30
0.0
 11
607.9147542958817
 21
283.8103429097234
 31
0.0
  0
LINE
  5
75D
330
1F
100
AcDbEntity
  8
0
  6
DASHED
 62
     4
 48
6.0
100
AcDbLine
 10
605.9147532958817
 20
312.2881249097232
 30
0.0
 11
605.9147532958817
 21
285.8103409097232
 31
0.0
  0
LINE
  5
75E
330
1F
100
AcDbEntity
  8
0
  6
DASHED
 62
     4
 48
6.0
100
AcDbLine
 10
700.9147452958814
 20
285.8103409097232
 30
0.0
 11
700.9147452958814
 21
316.7024149097235
 31
0.0
  0
LINE
  5
75F
330
1F
100
AcDbEntity
  8
0
  6
DASHED
 62
     4
 48
6.0
100
AcDbLine
 10
698.9147442958818
 20
283.8103429097234
 30
0.0
 11
700.9147452958814
 21
285.8103409097232
 31
0.0
  0
LINE
  5
760
330
1F
100
AcDbEntity
  8
0
  6
DASHED
 62
     4
 48
6.0
100
AcDbLine
 10
677.9147472958814
 20
283.8103429097234
 30
0.0
 11
698.9147442958818
 21
283.8103429097234
 31
0.0
  0
LINE
  5
761
330
1F
100
AcDbEntity
  8
0
  6
DASHED
 62
     4
 48
6.0
100
AcDbLine
 10
675.9147462958817
 20
285.8103409097232
 30
0.0
 11
677.9147472958814
 21
283.8103429097234
 31
0.0
  0
LINE
  5
762
330
1F
100
AcDbEntity
  8
0
  6
DASHED
 62
     4
 48
6.0
100
AcDbLine
 10
675.9147462958817
 20
310.8103399097231
 30
0.0
 11
675.9147462958817
 21
285.8103409097232
 31
0.0
  0
LINE
  5
763
330
1F
100
AcDbEntity
  8
0
  6
DASHED
 62
     4
 48
6.0
100
AcDbLine
 10
493.9147662958813
 20
285.8103409097232
 30
0.0
 11
493.9147662958813
 21
312.8103409097231
 31
0.0
  0
LINE
  5
764
330
1F
100
AcDbEntity
  8
0
  6
DASHED
 62
     4
 48
6.0
100
AcDbLine
 10
491.9147652958818
 20
283.8103429097234
 30
0.0
 11
493.9147662958813
 21
285.8103409097232
 31
0.0
  0
LINE
  5
765
330
1F
100
AcDbEntity
  8
0
  6
DASHED
 62
     4
 48
6.0
100
AcDbLine
 10
470.9147682958818
 20
283.8103429097234
 30
0.0
 11
491.9147652958818
 21
283.8103429097234
 31
0.0
  0
LINE
  5
766
330
1F
100
AcDbEntity
  8
0
  6
DASHED
 62
     4
 48
6.0
100
AcDbLine
 10
468.9147672958816
 20
285.8103409097232
 30
0.0
 11
470.9147682958818
 21
283.8103429097234
 31
0.0
  0
LINE
  5
767
330
1F
100
AcDbEntity
  8
0
  6
DASHED
 62
     4
 48
6.0
100
AcDbLine
 10
468.9147672958816
 20
312.2881249097232
 30
0.0
 11
468.9147672958816
 21
285.8103409097232
 31
0.0
  0
LINE
  5
768
330
1F
100
AcDbEntity
  8
0
  6
DASHED
 62
     4
 48
6.0
100
AcDbLine
 10
563.9147592958817
 20
285.8103409097232
 30
0.0
 11
563.9147592958817
 21
316.7024179097235
 31
0.0
  0
LINE
  5
769
330
1F
100
AcDbEntity
  8
0
  6
DASHED
 62
     4
 48
6.0
100
AcDbLine
 10
561.9147582958811
 20
283.8103429097234
 30
0.0
 11
563.9147592958817
 21
285.8103409097232
 31
0.0
  0
LINE
  5
76A
330
1F
100
AcDbEntity
  8
0
  6
DASHED
 62
     4
 48
6.0
100
AcDbLine
 10
540.9147612958812
 20
283.8103429097234
 30
0.0
 11
561.9147582958811
 21
283.8103429097234
 31
0.0
  0
LINE
  5
76B
330
1F
100
AcDbEntity
  8
0
  6
DASHED
 62
     4
 48
6.0
100
AcDbLine
 10
538.9147602958817
 20
285.8103409097232
 30
0.0
 11
540.9147612958812
 21
283.8103429097234
 31
0.0
  0
LINE
  5
76C
330
1F
100
AcDbEntity
  8
0
  6
DASHED
 62
     4
 48
6.0
100
AcDbLine
 10
538.9147602958817
 20
310.8103399097231
 30
0.0
 11
538.9147602958817
 21
285.8103409097232
 31
0.0
  0
LINE
  5
76D
330
1F
100
AcDbEntity
  8
0
  6
DASHED
 62
     4
 48
6.0
100
AcDbLine
 10
356.9147802958813
 20
285.8103409097232
 30
0.0
 11
356.9147802958813
 21
312.8103409097231
 31
0.0
  0
LINE
  5
76E
330
1F
100
AcDbEntity
  8
0
  6
DASHED
 62
     4
 48
6.0
100
AcDbLine
 10
354.9147792958813
 20
283.8103429097234
 30
0.0
 11
356.9147802958813
 21
285.8103409097232
 31
0.0
  0
LINE
  5
76F
330
1F
100
AcDbEntity
  8
0
  6
DASHED
 62
     4
 48
6.0
100
AcDbLine
 10
333.9147822958817
 20
283.8103429097234
 30
0.0
 11
354.9147792958813
 21
283.8103429097234
 31
0.0
  0
LINE
  5
770
330
1F
100
AcDbEntity
  8
0
  6
DASHED
 62
     4
 48
6.0
100
AcDbLine
 10
331.9147812958818
 20
285.8103409097232
 30
0.0
 11
333.9147822958817
 21
283.8103429097234
 31
0.0
  0
LINE
  5
771
330
1F
100
AcDbEntity
  8
0
  6
DASHED
 62
     4
 48
6.0
100
AcDbLine
 10
331.9147812958818
 20
312.2881249097232
 30
0.0
 11
331.9147812958818
 21
285.8103409097232
 31
0.0
  0
LINE
  5
772
330
1F
100
AcDbEntity
  8
0
  6
DASHED
 62
     4
 48
6.0
100
AcDbLine
 10
426.9147732958813
 20
285.8103409097232
 30
0.0
 11
426.9147732958813
 21
316.7024179097235
 31
0.0
  0
LINE
  5
773
330
1F
100
AcDbEntity
  8
0
  6
DASHED
 62
     4
 48
6.0
100
AcDbLine
 10
424.9147722958813
 20
283.8103429097234
 30
0.0
 11
426.9147732958813
 21
285.8103409097232
 31
0.0
  0
LINE
  5
774
330
1F
100
AcDbEntity
  8
0
  6
DASHED
 62
     4
 48
6.0
100
AcDbLine
 10
403.9147752958815
 20
283.8103429097234
 30
0.0
 11
424.9147722958813
 21
283.8103429097234
 31
0.0
  0
LINE
  5
775
330
1F
100
AcDbEntity
  8
0
  6
DASHED
 62
     4
 48
6.0
100
AcDbLine
 10
401.9147742958812
 20
285.8103409097232
 30
0.0
 11
403.9147752958815
 21
283.8103429097234
 31
0.0
  0
LINE
  5
776
330
1F
100
AcDbEntity
  8
0
  6
DASHED
 62
     4
 48
6.0
100
AcDbLine
 10
401.9147742958812
 20
310.8103399097231
 30
0.0
 11
401.9147742958812
 21
285.8103409097232
 31
0.0
  0
LINE
  5
777
330
1F
100
AcDbEntity
  8
0
  6
DASHED
 62
     4
 48
6.0
100
AcDbLine
 10
349.6647792958814
 20
295.8103399097235
 30
0.0
 11
349.6647792958814
 21
295.8103399097235
 31
0.0
  0
ARC
  5
778
330
1F
100
AcDbEntity
  8
0
  6
DASHED
 62
     4
 48
6.0
100
AcDbCircle
 10
344.4147847180262
 20
295.8103453318652
 30
0.0
 40
5.249994577857993
100
AcDbArc
 50
359.9999408254847
 51
90.00002643405919
  0
LINE
  5
779
330
1F
100
AcDbEntity
  8
0
  6
DASHED
 62
     4
 48
6.0
100
AcDbLine
 10
1037.914711295881
 20
283.8103429097234
 30
0.0
 11
1033.914712295881
 21
283.8103429097234
 31
0.0
  0
LINE
  5
77A
330
1F
100
AcDbEntity
  8
0
  6
DASHED
 62
     4
 48
6.0
100
AcDbLine
 10
1033.914712295881
 20
283.8103429097234
 30
0.0
 11
1033.914712295881
 21
306.1918819097235
 31
0.0
  0
LINE
  5
77B
330
1F
100
AcDbEntity
  8
0
  6
DASHED
 62
     4
 48
6.0
100
AcDbLine
 10
1037.914711295881
 20
304.1367649097231
 30
0.0
 11
1037.914711295881
 21
283.8103429097234
 31
0.0
  0
ENDSEC
  0
SECTION
  2
OBJECTS
  0
DICTIONARY
  5
C
330
0
100
AcDbDictionary
281
     1
  3
ACAD_GROUP
350
D
  3
ACAD_LAYOUT
350
1A
  3
ACAD_MLINESTYLE
350
17
  3
ACAD_PLOTSETTINGS
350
19
  3
ACAD_PLOTSTYLENAME
350
E
  0
DICTIONARY
  5
D
102
{ACAD_REACTORS
330
C
102
}
330
C
100
AcDbDictionary
281
     1
  0
DICTIONARY
  5
1A
102
{ACAD_REACTORS
330
C
102
}
330
C
100
AcDbDictionary
281
     1
  3
Model
350
22
  3
ﾚｲｱｳﾄ1
350
51
  0
DICTIONARY
  5
17
102
{ACAD_REACTORS
330
C
102
}
330
C
100
AcDbDictionary
281
     1
  3
Standard
350
18
  0
DICTIONARY
  5
19
102
{ACAD_REACTORS
330
C
102
}
330
C
100
AcDbDictionary
281
     1
  0
ACDBDICTIONARYWDFLT
  5
E
102
{ACAD_REACTORS
330
C
102
}
330
C
100
AcDbDictionary
281
     1
  3
Normal
350
F
100
AcDbDictionaryWithDefault
340
F
  0
LAYOUT
  5
22
102
{ACAD_REACTORS
330
1A
102
}
330
1A
100
AcDbPlotSettings
  1

  2
none_device
  4
ANSI_A_(8.50_x_11.00_Inches)
  6

 40
6.349999904632567
 41
19.04999923706053
 42
6.350006103515625
 43
19.04998779296875
 44
215.8999938964841
 45
279.3999938964843
 46
0.0
 47
0.0
 48
0.0
 49
0.0
140
0.0
141
0.0
142
1.0
143
78.436453180766
 70
 11952
 72
     0
 73
     1
 74
     0
  7

 75
     0
147
0.0127491741332998
148
0.0
149
0.0
100
AcDbLayout
  1
Model
 70
     1
 71
     0
 10
0.0
 20
0.0
 11
12.0
 21
9.0
 12
0.0
 22
0.0
 32
0.0
 14
0.0
 24
0.0
 34
0.0
 15
0.0
 25
0.0
 35
0.0
146
0.0
 13
0.0
 23
0.0
 33
0.0
 16
1.0
 26
0.0
 36
0.0
 17
0.0
 27
1.0
 37
0.0
 76
     0
330
1F
  0
LAYOUT
  5
51
102
{ACAD_REACTORS
330
1A
102
}
330
1A
100
AcDbPlotSettings
  1

  2
None
  4

  6

 40
0.0
 41
0.0
 42
0.0
 43
0.0
 44
0.0
 45
0.0
 46
0.0
 47
0.0
 48
0.0
 49
0.0
140
0.0
141
0.0
142
1.0
143
1.0
 70
   688
 72
     0
 73
     0
 74
     5
  7

 75
    16
147
1.0
148
0.0
149
0.0
100
AcDbLayout
  1
ﾚｲｱｳﾄ1
 70
     1
 71
     1
 10
0.0
 20
0.0
 11
12.0
 21
9.0
 12
0.0
 22
0.0
 32
0.0
 14
0.0
 24
0.0
 34
0.0
 15
0.0
 25
0.0
 35
0.0
146
0.0
 13
0.0
 23
0.0
 33
0.0
 16
1.0
 26
0.0
 36
0.0
 17
0.0
 27
1.0
 37
0.0
 76
     0
330
50
  0
MLINESTYLE
  5
18
102
{ACAD_REACTORS
330
17
102
}
330
17
100
AcDbMlineStyle
  2
STANDARD
 70
     0
  3

 62
   256
 51
90.0
 52
90.0
 71
     2
 49
0.5
 62
   256
  6
BYLAYER
 49
-0.5
 62
   256
  6
BYLAYER
  0
ACDBPLACEHOLDER
  5
F
102
{ACAD_REACTORS
330
E
102
}
330
E
  0
ENDSEC
  0
EOF
