  0
SECTION
  2
HEADER
  9
$ACADVER
  1
AC1015
  9
$ACADMAINTVER
 70
    10
  9
$DWGCODEPAGE
  3
ANSI_932
  9
$INSBASE
 10
0.0
 20
0.0
 30
0.0
  9
$EXTMIN
 10
292.6992596782498
 20
231.1487708765791
 30
0.0
  9
$EXTMAX
 10
1071.502162204152
 20
766.9659271768916
 30
10.5748440157477
  9
$LIMMIN
 10
0.0
 20
0.0
  9
$LIMMAX
 10
420.0
 20
297.0
  9
$ORTHOMODE
 70
     0
  9
$REGENMODE
 70
     1
  9
$FILLMODE
 70
     1
  9
$QTEXTMODE
 70
     0
  9
$MIRRTEXT
 70
     1
  9
$LTSCALE
 40
1.0
  9
$ATTMODE
 70
     1
  9
$TEXTSIZE
 40
2.5
  9
$TRACEWID
 40
1.0
  9
$TEXTSTYLE
  7
Standard
  9
$CLAYER
  8
0
  9
$CELTYPE
  6
ByLayer
  9
$CECOLOR
 62
   256
  9
$CELTSCALE
 40
1.0
  9
$DISPSILH
 70
     0
  9
$DIMSCALE
 40
1.0
  9
$DIMASZ
 40
2.5
  9
$DIMEXO
 40
0.625
  9
$DIMDLI
 40
3.75
  9
$DIMRND
 40
0.0
  9
$DIMDLE
 40
0.0
  9
$DIMEXE
 40
1.25
  9
$DIMTP
 40
0.0
  9
$DIMTM
 40
0.0
  9
$DIMTXT
 40
2.5
  9
$DIMCEN
 40
2.5
  9
$DIMTSZ
 40
0.0
  9
$DIMTOL
 70
     0
  9
$DIMLIM
 70
     0
  9
$DIMTIH
 70
     0
  9
$DIMTOH
 70
     0
  9
$DIMSE1
 70
     0
  9
$DIMSE2
 70
     0
  9
$DIMTAD
 70
     1
  9
$DIMZIN
 70
     8
  9
$DIMBLK
  1

  9
$DIMASO
 70
     1
  9
$DIMSHO
 70
     1
  9
$DIMPOST
  1

  9
$DIMAPOST
  1

  9
$DIMALT
 70
     0
  9
$DIMALTD
 70
     3
  9
$DIMALTF
 40
0.03937007874016
  9
$DIMLFAC
 40
1.0
  9
$DIMTOFL
 70
     1
  9
$DIMTVP
 40
0.0
  9
$DIMTIX
 70
     0
  9
$DIMSOXD
 70
     0
  9
$DIMSAH
 70
     0
  9
$DIMBLK1
  1

  9
$DIMBLK2
  1

  9
$DIMSTYLE
  2
ISO-25
  9
$DIMCLRD
 70
     0
  9
$DIMCLRE
 70
     0
  9
$DIMCLRT
 70
     0
  9
$DIMTFAC
 40
1.0
  9
$DIMGAP
 40
0.625
  9
$DIMJUST
 70
     0
  9
$DIMSD1
 70
     0
  9
$DIMSD2
 70
     0
  9
$DIMTOLJ
 70
     0
  9
$DIMTZIN
 70
     8
  9
$DIMALTZ
 70
     0
  9
$DIMALTTZ
 70
     0
  9
$DIMUPT
 70
     0
  9
$DIMDEC
 70
     2
  9
$DIMTDEC
 70
     2
  9
$DIMALTU
 70
     2
  9
$DIMALTTD
 70
     3
  9
$DIMTXSTY
  7
Standard
  9
$DIMAUNIT
 70
     0
  9
$DIMADEC
 70
     0
  9
$DIMALTRND
 40
0.0
  9
$DIMAZIN
 70
     0
  9
$DIMDSEP
 70
    44
  9
$DIMATFIT
 70
     3
  9
$DIMFRAC
 70
     0
  9
$DIMLDRBLK
  1

  9
$DIMLUNIT
 70
     2
  9
$DIMLWD
 70
    -2
  9
$DIMLWE
 70
    -2
  9
$DIMTMOVE
 70
     0
  9
$LUNITS
 70
     2
  9
$LUPREC
 70
     4
  9
$SKETCHINC
 40
1.0
  9
$FILLETRAD
 40
10.0
  9
$AUNITS
 70
     0
  9
$AUPREC
 70
     0
  9
$MENU
  1
.
  9
$ELEVATION
 40
0.0
  9
$PELEVATION
 40
0.0
  9
$THICKNESS
 40
0.0
  9
$LIMCHECK
 70
     0
  9
$CHAMFERA
 40
10.0
  9
$CHAMFERB
 40
10.0
  9
$CHAMFERC
 40
20.0
  9
$CHAMFERD
 40
0.0
  9
$SKPOLY
 70
     0
  9
$TDCREATE
 40
2456499.795715023
  9
$TDUCREATE
 40
2456499.420715023
  9
$TDUPDATE
 40
2456500.627295891
  9
$TDUUPDATE
 40
2456500.252295891
  9
$TDINDWG
 40
0.0092300810
  9
$TDUSRTIMER
 40
0.0092298958
  9
$USRTIMER
 70
     1
  9
$ANGBASE
 50
0.0
  9
$ANGDIR
 70
     0
  9
$PDMODE
 70
     0
  9
$PDSIZE
 40
0.0
  9
$PLINEWID
 40
0.0
  9
$SPLFRAME
 70
     0
  9
$SPLINETYPE
 70
     6
  9
$SPLINESEGS
 70
     8
  9
$HANDSEED
  5
B98
  9
$SURFTAB1
 70
     6
  9
$SURFTAB2
 70
     6
  9
$SURFTYPE
 70
     6
  9
$SURFU
 70
     6
  9
$SURFV
 70
     6
  9
$UCSBASE
  2

  9
$UCSNAME
  2

  9
$UCSORG
 10
0.0
 20
0.0
 30
0.0
  9
$UCSXDIR
 10
1.0
 20
0.0
 30
0.0
  9
$UCSYDIR
 10
0.0
 20
1.0
 30
0.0
  9
$UCSORTHOREF
  2

  9
$UCSORTHOVIEW
 70
     0
  9
$UCSORGTOP
 10
0.0
 20
0.0
 30
0.0
  9
$UCSORGBOTTOM
 10
0.0
 20
0.0
 30
0.0
  9
$UCSORGLEFT
 10
0.0
 20
0.0
 30
0.0
  9
$UCSORGRIGHT
 10
0.0
 20
0.0
 30
0.0
  9
$UCSORGFRONT
 10
0.0
 20
0.0
 30
0.0
  9
$UCSORGBACK
 10
0.0
 20
0.0
 30
0.0
  9
$PUCSBASE
  2

  9
$PUCSNAME
  2

  9
$PUCSORG
 10
0.0
 20
0.0
 30
0.0
  9
$PUCSXDIR
 10
1.0
 20
0.0
 30
0.0
  9
$PUCSYDIR
 10
0.0
 20
1.0
 30
0.0
  9
$PUCSORTHOREF
  2

  9
$PUCSORTHOVIEW
 70
     0
  9
$PUCSORGTOP
 10
0.0
 20
0.0
 30
0.0
  9
$PUCSORGBOTTOM
 10
0.0
 20
0.0
 30
0.0
  9
$PUCSORGLEFT
 10
0.0
 20
0.0
 30
0.0
  9
$PUCSORGRIGHT
 10
0.0
 20
0.0
 30
0.0
  9
$PUCSORGFRONT
 10
0.0
 20
0.0
 30
0.0
  9
$PUCSORGBACK
 10
0.0
 20
0.0
 30
0.0
  9
$USERI1
 70
     0
  9
$USERI2
 70
     0
  9
$USERI3
 70
     0
  9
$USERI4
 70
     0
  9
$USERI5
 70
     0
  9
$USERR1
 40
0.0
  9
$USERR2
 40
0.0
  9
$USERR3
 40
0.0
  9
$USERR4
 40
0.0
  9
$USERR5
 40
0.0
  9
$WORLDVIEW
 70
     1
  9
$SHADEDGE
 70
     3
  9
$SHADEDIF
 70
    70
  9
$TILEMODE
 70
     1
  9
$MAXACTVP
 70
    64
  9
$PINSBASE
 10
0.0
 20
0.0
 30
0.0
  9
$PLIMCHECK
 70
     0
  9
$PEXTMIN
 10
0.0
 20
0.0
 30
0.0
  9
$PEXTMAX
 10
0.0
 20
0.0
 30
0.0
  9
$PLIMMIN
 10
0.0
 20
0.0
  9
$PLIMMAX
 10
12.0
 20
9.0
  9
$UNITMODE
 70
     0
  9
$VISRETAIN
 70
     1
  9
$PLINEGEN
 70
     0
  9
$PSLTSCALE
 70
     1
  9
$TREEDEPTH
 70
  3020
  9
$CMLSTYLE
  2
Standard
  9
$CMLJUST
 70
     0
  9
$CMLSCALE
 40
20.0
  9
$PROXYGRAPHICS
 70
     1
  9
$MEASUREMENT
 70
     1
  9
$CELWEIGHT
370
    -1
  9
$ENDCAPS
280
     0
  9
$JOINSTYLE
280
     0
  9
$LWDISPLAY
290
     0
  9
$INSUNITS
 70
     4
  9
$HYPERLINKBASE
  1

  9
$STYLESHEET
  1

  9
$XEDIT
290
     1
  9
$CEPSNTYPE
380
     0
  9
$PSTYLEMODE
290
     1
  9
$FINGERPRINTGUID
  2
{FDEAD578-A652-11D2-9A35-0060089B3A3F}
  9
$VERSIONGUID
  2
{FF8B71B1-5525-4C4C-923A-688EC6B2D61D}
  9
$EXTNAMES
290
     1
  9
$PSVPSCALE
 40
0.0
  9
$OLESTARTUP
290
     0
  0
ENDSEC
  0
SECTION
  2
CLASSES
  0
CLASS
  1
ACDBDICTIONARYWDFLT
  2
AcDbDictionaryWithDefault
  3
AutoCAD 2000
 90
        0
280
     0
281
     0
  0
CLASS
  1
ACDBPLACEHOLDER
  2
AcDbPlaceHolder
  3
AutoCAD 2000
 90
        0
280
     0
281
     0
  0
CLASS
  1
LAYOUT
  2
AcDbLayout
  3
AutoCAD 2000
 90
        0
280
     0
281
     0
  0
ENDSEC
  0
SECTION
  2
TABLES
  0
TABLE
  2
VPORT
  5
8
330
0
100
AcDbSymbolTable
 70
     2
  0
VPORT
  5
B97
330
8
100
AcDbSymbolTableRecord
100
AcDbViewportTableRecord
  2
*Active
 70
     0
 10
0.0
 20
0.0
 11
1.0
 21
1.0
 12
725.1976906203062
 22
485.2553360384559
 13
0.0
 23
0.0
 14
10.0
 24
10.0
 15
10.0
 25
10.0
 16
0.0
 26
0.0
 36
1.0
 17
0.0
 27
0.0
 37
0.0
 40
602.5179759892316
 41
1.781954887218045
 42
50.0
 43
0.0
 44
0.0
 50
0.0
 51
0.0
 71
     0
 72
   100
 73
     1
 74
     3
 75
     0
 76
     0
 77
     0
 78
     0
281
     0
 65
     1
110
0.0
120
0.0
130
0.0
111
1.0
121
0.0
131
0.0
112
0.0
122
1.0
132
0.0
 79
     0
146
0.0
  0
ENDTAB
  0
TABLE
  2
LTYPE
  5
5
330
0
100
AcDbSymbolTable
 70
     2
  0
LTYPE
  5
14
330
5
100
AcDbSymbolTableRecord
100
AcDbLinetypeTableRecord
  2
ByBlock
 70
     0
  3

 72
    65
 73
     0
 40
0.0
  0
LTYPE
  5
15
330
5
100
AcDbSymbolTableRecord
100
AcDbLinetypeTableRecord
  2
ByLayer
 70
     0
  3

 72
    65
 73
     0
 40
0.0
  0
LTYPE
  5
16
330
5
100
AcDbSymbolTableRecord
100
AcDbLinetypeTableRecord
  2
Continuous
 70
     0
  3
Solid line
 72
    65
 73
     0
 40
0.0
  0
LTYPE
  5
67
330
5
100
AcDbSymbolTableRecord
100
AcDbLinetypeTableRecord
  2
DASHED
 70
     0
  3
DASHED
 72
    65
 73
     2
 40
0.75
 49
0.5
 74
     0
 49
-0.25
 74
     0
  0
ENDTAB
  0
TABLE
  2
LAYER
  5
2
330
0
100
AcDbSymbolTable
 70
     1
  0
LAYER
  5
10
330
2
100
AcDbSymbolTableRecord
100
AcDbLayerTableRecord
  2
0
 70
     0
 62
     7
  6
Continuous
370
    -3
390
F
  0
ENDTAB
  0
TABLE
  2
STYLE
  5
3
330
0
100
AcDbSymbolTable
 70
     2
  0
STYLE
  5
11
330
3
100
AcDbSymbolTableRecord
100
AcDbTextStyleTableRecord
  2
Standard
 70
     0
 40
0.0
 41
1.0
 50
0.0
 71
     0
 42
2.5
  3
txt
  4

  0
STYLE
  5
68
330
3
100
AcDbSymbolTableRecord
100
AcDbTextStyleTableRecord
  2
_TCW_TXTSTY_1
 70
     0
 40
0.0
 41
1.0
 50
0.0
 71
     0
 42
0.69697
  3
MS PGothic.ttf
  4

1001
ACAD
1000
ＭＳ Ｐゴシック
1071
    32802
  0
ENDTAB
  0
TABLE
  2
VIEW
  5
6
330
0
100
AcDbSymbolTable
 70
     0
  0
ENDTAB
  0
TABLE
  2
UCS
  5
7
330
0
100
AcDbSymbolTable
 70
     0
  0
ENDTAB
  0
TABLE
  2
APPID
  5
9
330
0
100
AcDbSymbolTable
 70
     2
  0
APPID
  5
12
330
9
100
AcDbSymbolTableRecord
100
AcDbRegAppTableRecord
  2
ACAD
 70
     0
  0
APPID
  5
6A
330
9
100
AcDbSymbolTableRecord
100
AcDbRegAppTableRecord
  2
TCAD
 70
     0
  0
ENDTAB
  0
TABLE
  2
DIMSTYLE
  5
A
330
0
100
AcDbSymbolTable
 70
     2
100
AcDbDimStyleTable
 71
     1
340
27
  0
DIMSTYLE
105
27
330
A
100
AcDbSymbolTableRecord
100
AcDbDimStyleTableRecord
  2
ISO-25
 70
     0
 41
2.5
 42
0.625
 43
3.75
 44
1.25
 73
     0
 74
     0
 77
     1
 78
     8
140
2.5
141
2.5
143
0.03937007874016
147
0.625
171
     3
172
     1
271
     2
272
     2
274
     3
278
    44
283
     0
284
     8
340
11
  0
DIMSTYLE
105
69
330
A
100
AcDbSymbolTableRecord
100
AcDbDimStyleTableRecord
  2
STANDARD
 70
     0
 41
3.0
 42
0.5
 43
7.5
 44
1.0
 45
0.01
 73
     0
 74
     0
 77
     1
 78
     8
140
2.439394
143
1.0
144
3.0
147
0.5
148
0.01
176
     7
177
     7
178
     7
179
     2
271
     2
272
     2
340
68
341
61
342
61
  0
ENDTAB
  0
TABLE
  2
BLOCK_RECORD
  5
1
330
0
100
AcDbSymbolTable
 70
     2
  0
BLOCK_RECORD
  5
1F
330
1
100
AcDbSymbolTableRecord
100
AcDbBlockTableRecord
  2
*Model_Space
340
22
  0
BLOCK_RECORD
  5
50
330
1
100
AcDbSymbolTableRecord
100
AcDbBlockTableRecord
  2
*Paper_Space
340
51
  0
BLOCK_RECORD
  5
55
330
1
100
AcDbSymbolTableRecord
100
AcDbBlockTableRecord
  2
*Paper_Space0
340
56
  0
BLOCK_RECORD
  5
61
330
1
100
AcDbSymbolTableRecord
100
AcDbBlockTableRecord
  2
_OPEN
340
0
  0
ENDTAB
  0
ENDSEC
  0
SECTION
  2
BLOCKS
  0
BLOCK
  5
20
330
1F
100
AcDbEntity
  8
0
100
AcDbBlockBegin
  2
*Model_Space
 70
     0
 10
0.0
 20
0.0
 30
0.0
  3
*Model_Space
  1

  0
ENDBLK
  5
21
330
1F
100
AcDbEntity
  8
0
100
AcDbBlockEnd
  0
BLOCK
  5
52
330
50
100
AcDbEntity
 67
     1
  8
0
100
AcDbBlockBegin
  2
*Paper_Space
 70
     0
 10
0.0
 20
0.0
 30
0.0
  3
*Paper_Space
  1

  0
ENDBLK
  5
53
330
50
100
AcDbEntity
 67
     1
  8
0
100
AcDbBlockEnd
  0
BLOCK
  5
57
330
55
100
AcDbEntity
  8
0
100
AcDbBlockBegin
  2
*Paper_Space0
 70
     0
 10
0.0
 20
0.0
 30
0.0
  3
*Paper_Space0
  1

  0
ENDBLK
  5
58
330
55
100
AcDbEntity
  8
0
100
AcDbBlockEnd
  0
BLOCK
  5
65
330
61
100
AcDbEntity
  8
0
100
AcDbBlockBegin
  2
_OPEN
 70
     0
 10
0.0
 20
0.0
 30
0.0
  3
_OPEN
  1

  0
LINE
  5
62
330
61
100
AcDbEntity
  8
0
  6
ByBlock
 62
     0
100
AcDbLine
 10
-1.0
 20
0.166667
 30
0.0
 11
0.0
 21
0.0
 31
0.0
  0
LINE
  5
63
330
61
100
AcDbEntity
  8
0
  6
ByBlock
 62
     0
100
AcDbLine
 10
0.0
 20
0.0
 30
0.0
 11
-1.0
 21
-0.166667
 31
0.0
  0
LINE
  5
64
330
61
100
AcDbEntity
  8
0
  6
ByBlock
 62
     0
100
AcDbLine
 10
0.0
 20
0.0
 30
0.0
 11
-1.0
 21
0.0
 31
0.0
  0
ENDBLK
  5
66
330
61
100
AcDbEntity
  8
0
100
AcDbBlockEnd
  0
ENDSEC
  0
SECTION
  2
ENTITIES
  0
CIRCLE
  5
3E8
330
1F
100
AcDbEntity
  8
0
  6
DASHED
 62
     4
100
AcDbCircle
 10
506.5950519375777
 20
714.2891382066903
 30
10.5748440157477
 40
2.996060753842466
  0
CIRCLE
  5
3E9
330
1F
100
AcDbEntity
  8
0
  6
DASHED
 62
     4
100
AcDbCircle
 10
476.1550519375789
 20
714.2891382066903
 30
10.5748440157477
 40
2.996060753842466
  0
CIRCLE
  5
3EA
330
1F
100
AcDbEntity
  8
0
  6
DASHED
 62
     4
100
AcDbCircle
 10
460.9350519375792
 20
714.2891382066903
 30
10.5748440157477
 40
2.996060753842578
  0
CIRCLE
  5
3EB
330
1F
100
AcDbEntity
  8
0
  6
DASHED
 62
     4
100
AcDbCircle
 10
468.5450519375796
 20
714.2891382066903
 30
10.5748440157477
 40
2.996060753842466
  0
CIRCLE
  5
3EC
330
1F
100
AcDbEntity
  8
0
  6
DASHED
 62
     4
100
AcDbCircle
 10
491.3750519375786
 20
714.2891382066903
 30
10.5748440157477
 40
2.996060753842466
  0
CIRCLE
  5
3ED
330
1F
100
AcDbEntity
  8
0
  6
DASHED
 62
     4
100
AcDbCircle
 10
483.7650519375792
 20
714.2891382066903
 30
10.5748440157477
 40
2.996060753842466
  0
CIRCLE
  5
3EE
330
1F
100
AcDbEntity
  8
0
  6
DASHED
 62
     4
100
AcDbCircle
 10
498.9850519375782
 20
714.2891382066903
 30
10.5748440157477
 40
2.996060753842466
  0
CIRCLE
  5
3EF
330
1F
100
AcDbEntity
  8
0
  6
DASHED
 62
     4
100
AcDbCircle
 10
537.0350519375772
 20
714.2891382066903
 30
10.5748440157477
 40
2.996060753842466
  0
CIRCLE
  5
3F0
330
1F
100
AcDbEntity
  8
0
  6
DASHED
 62
     4
100
AcDbCircle
 10
521.8150519375779
 20
714.2891382066903
 30
10.5748440157477
 40
2.996060753842466
  0
CIRCLE
  5
3F1
330
1F
100
AcDbEntity
  8
0
  6
DASHED
 62
     4
100
AcDbCircle
 10
514.2050519375779
 20
714.2891382066903
 30
10.5748440157477
 40
2.996060753842466
  0
CIRCLE
  5
3F2
330
1F
100
AcDbEntity
  8
0
  6
DASHED
 62
     4
100
AcDbCircle
 10
529.4250519375776
 20
714.2891382066903
 30
10.5748440157477
 40
2.996060753842466
  0
CIRCLE
  5
3F3
330
1F
100
AcDbEntity
  8
0
  6
DASHED
 62
     4
100
AcDbCircle
 10
544.6450519375766
 20
714.2891382066903
 30
10.5748440157477
 40
2.996060753842466
  0
LINE
  5
3F4
330
1F
100
AcDbEntity
  8
0
  6
DASHED
 62
     4
 48
5.0
100
AcDbLine
 10
507.0943955286899
 20
713.789792136385
 30
0.0
 11
508.5924270247526
 21
713.789792136385
 31
0.0
  0
LINE
  5
3F5
330
1F
100
AcDbEntity
  8
0
  6
DASHED
 62
     4
 48
5.0
100
AcDbLine
 10
508.5924270247526
 20
714.7884798004273
 30
0.0
 11
507.0943955286899
 21
714.7884798004273
 31
0.0
  0
LINE
  5
3F6
330
1F
100
AcDbEntity
  8
0
  6
DASHED
 62
     4
 48
5.0
100
AcDbLine
 10
453.8243955286912
 20
714.7884798004273
 30
0.0
 11
453.8243955286912
 21
716.2865112964903
 31
0.0
  0
LINE
  5
3F7
330
1F
100
AcDbEntity
  8
0
  6
DASHED
 62
     4
 48
5.0
100
AcDbLine
 10
455.322427024754
 20
713.789792136385
 30
0.0
 11
455.322427024754
 21
714.7884798004273
 31
0.0
  0
LINE
  5
3F8
330
1F
100
AcDbEntity
  8
0
  6
DASHED
 62
     4
 48
5.0
100
AcDbLine
 10
453.8243955286912
 20
712.2917606403224
 30
0.0
 11
453.8243955286912
 21
713.789792136385
 31
0.0
  0
LINE
  5
3F9
330
1F
100
AcDbEntity
  8
0
  6
DASHED
 62
     4
 48
5.0
100
AcDbLine
 10
453.8243955286912
 20
713.789792136385
 30
0.0
 11
455.322427024754
 21
713.789792136385
 31
0.0
  0
LINE
  5
3FA
330
1F
100
AcDbEntity
  8
0
  6
DASHED
 62
     4
 48
5.0
100
AcDbLine
 10
455.322427024754
 20
713.789792136385
 30
0.0
 11
455.322427024754
 21
713.789792136385
 31
0.0
  0
LINE
  5
3FB
330
1F
100
AcDbEntity
  8
0
  6
DASHED
 62
     4
 48
5.0
100
AcDbLine
 10
455.322427024754
 20
714.7884798004273
 30
0.0
 11
453.8243955286912
 21
714.7884798004273
 31
0.0
  0
LINE
  5
3FC
330
1F
100
AcDbEntity
  8
0
  6
DASHED
 62
     4
 48
5.0
100
AcDbLine
 10
461.4343955286914
 20
714.7884798004273
 30
0.0
 11
461.4343955286914
 21
716.2865112964903
 31
0.0
  0
LINE
  5
3FD
330
1F
100
AcDbEntity
  8
0
  6
DASHED
 62
     4
 48
5.0
100
AcDbLine
 10
460.4357078646489
 20
716.2865112964903
 30
0.0
 11
460.4357078646489
 21
714.7884798004273
 31
0.0
  0
LINE
  5
3FE
330
1F
100
AcDbEntity
  8
0
  6
DASHED
 62
     4
 48
5.0
100
AcDbLine
 10
460.4357078646489
 20
712.2917606403224
 30
0.0
 11
461.4343955286914
 21
712.2917606403224
 31
0.0
  0
LINE
  5
3FF
330
1F
100
AcDbEntity
  8
0
  6
DASHED
 62
     4
 48
5.0
100
AcDbLine
 10
460.4357078646489
 20
713.789792136385
 30
0.0
 11
460.4357078646489
 21
712.2917606403224
 31
0.0
  0
LINE
  5
400
330
1F
100
AcDbEntity
  8
0
  6
DASHED
 62
     4
 48
5.0
100
AcDbLine
 10
458.937676368586
 20
714.7884798004273
 30
0.0
 11
458.937676368586
 21
713.789792136385
 31
0.0
  0
LINE
  5
401
330
1F
100
AcDbEntity
  8
0
  6
DASHED
 62
     4
 48
5.0
100
AcDbLine
 10
458.937676368586
 20
713.789792136385
 30
0.0
 11
460.4357078646489
 21
713.789792136385
 31
0.0
  0
LINE
  5
402
330
1F
100
AcDbEntity
  8
0
  6
DASHED
 62
     4
 48
5.0
100
AcDbLine
 10
460.4357078646489
 20
714.7884798004273
 30
0.0
 11
458.937676368586
 21
714.7884798004273
 31
0.0
  0
LINE
  5
403
330
1F
100
AcDbEntity
  8
0
  6
DASHED
 62
     4
 48
5.0
100
AcDbLine
 10
462.932427024754
 20
713.789792136385
 30
0.0
 11
462.932427024754
 21
714.7884798004273
 31
0.0
  0
LINE
  5
404
330
1F
100
AcDbEntity
  8
0
  6
DASHED
 62
     4
 48
5.0
100
AcDbLine
 10
461.4343955286914
 20
712.2917606403224
 30
0.0
 11
461.4343955286914
 21
713.789792136385
 31
0.0
  0
LINE
  5
405
330
1F
100
AcDbEntity
  8
0
  6
DASHED
 62
     4
 48
5.0
100
AcDbLine
 10
461.4343955286914
 20
713.789792136385
 30
0.0
 11
462.932427024754
 21
713.789792136385
 31
0.0
  0
LINE
  5
406
330
1F
100
AcDbEntity
  8
0
  6
DASHED
 62
     4
 48
5.0
100
AcDbLine
 10
462.932427024754
 20
713.789792136385
 30
0.0
 11
462.932427024754
 21
713.789792136385
 31
0.0
  0
LINE
  5
407
330
1F
100
AcDbEntity
  8
0
  6
DASHED
 62
     4
 48
5.0
100
AcDbLine
 10
462.932427024754
 20
714.7884798004273
 30
0.0
 11
461.4343955286914
 21
714.7884798004273
 31
0.0
  0
LINE
  5
408
330
1F
100
AcDbEntity
  8
0
  6
DASHED
 62
     4
 48
5.0
100
AcDbLine
 10
461.4343955286914
 20
716.2865112964903
 30
0.0
 11
460.4357078646489
 21
716.2865112964903
 31
0.0
  0
LINE
  5
409
330
1F
100
AcDbEntity
  8
0
  6
DASHED
 62
     4
 48
5.0
100
AcDbLine
 10
469.0443955286913
 20
714.7884798004273
 30
0.0
 11
469.0443955286913
 21
716.2865112964903
 31
0.0
  0
LINE
  5
40A
330
1F
100
AcDbEntity
  8
0
  6
DASHED
 62
     4
 48
5.0
100
AcDbLine
 10
468.0457078646492
 20
716.2865112964903
 30
0.0
 11
468.0457078646492
 21
714.7884798004273
 31
0.0
  0
LINE
  5
40B
330
1F
100
AcDbEntity
  8
0
  6
DASHED
 62
     4
 48
5.0
100
AcDbLine
 10
466.5476763685859
 20
713.789792136385
 30
0.0
 11
468.0457078646492
 21
713.789792136385
 31
0.0
  0
LINE
  5
40C
330
1F
100
AcDbEntity
  8
0
  6
DASHED
 62
     4
 48
5.0
100
AcDbLine
 10
468.0457078646492
 20
714.7884798004273
 30
0.0
 11
466.5476763685859
 21
714.7884798004273
 31
0.0
  0
LINE
  5
40D
330
1F
100
AcDbEntity
  8
0
  6
DASHED
 62
     4
 48
5.0
100
AcDbLine
 10
466.5476763685859
 20
714.7884798004273
 30
0.0
 11
466.5476763685859
 21
713.789792136385
 31
0.0
  0
LINE
  5
40E
330
1F
100
AcDbEntity
  8
0
  6
DASHED
 62
     4
 48
5.0
100
AcDbLine
 10
470.5424270247544
 20
713.789792136385
 30
0.0
 11
470.5424270247544
 21
714.7884798004273
 31
0.0
  0
LINE
  5
40F
330
1F
100
AcDbEntity
  8
0
  6
DASHED
 62
     4
 48
5.0
100
AcDbLine
 10
468.0457078646492
 20
713.789792136385
 30
0.0
 11
468.0457078646492
 21
712.2917606403224
 31
0.0
  0
LINE
  5
410
330
1F
100
AcDbEntity
  8
0
  6
DASHED
 62
     4
 48
5.0
100
AcDbLine
 10
468.0457078646492
 20
712.2917606403224
 30
0.0
 11
469.0443955286913
 21
712.2917606403224
 31
0.0
  0
LINE
  5
411
330
1F
100
AcDbEntity
  8
0
  6
DASHED
 62
     4
 48
5.0
100
AcDbLine
 10
469.0443955286913
 20
712.2917606403224
 30
0.0
 11
469.0443955286913
 21
713.789792136385
 31
0.0
  0
LINE
  5
412
330
1F
100
AcDbEntity
  8
0
  6
DASHED
 62
     4
 48
5.0
100
AcDbLine
 10
469.0443955286913
 20
713.789792136385
 30
0.0
 11
470.5424270247544
 21
713.789792136385
 31
0.0
  0
LINE
  5
413
330
1F
100
AcDbEntity
  8
0
  6
DASHED
 62
     4
 48
5.0
100
AcDbLine
 10
470.5424270247544
 20
713.789792136385
 30
0.0
 11
470.5424270247544
 21
713.789792136385
 31
0.0
  0
LINE
  5
414
330
1F
100
AcDbEntity
  8
0
  6
DASHED
 62
     4
 48
5.0
100
AcDbLine
 10
470.5424270247544
 20
714.7884798004273
 30
0.0
 11
469.0443955286913
 21
714.7884798004273
 31
0.0
  0
LINE
  5
415
330
1F
100
AcDbEntity
  8
0
  6
DASHED
 62
     4
 48
5.0
100
AcDbLine
 10
469.0443955286913
 20
716.2865112964903
 30
0.0
 11
468.0457078646492
 21
716.2865112964903
 31
0.0
  0
LINE
  5
416
330
1F
100
AcDbEntity
  8
0
  6
DASHED
 62
     4
 48
5.0
100
AcDbLine
 10
476.6543955286913
 20
714.7884798004273
 30
0.0
 11
476.6543955286913
 21
716.2865112964903
 31
0.0
  0
LINE
  5
417
330
1F
100
AcDbEntity
  8
0
  6
DASHED
 62
     4
 48
5.0
100
AcDbLine
 10
475.6557078646486
 20
716.2865112964903
 30
0.0
 11
475.6557078646486
 21
714.7884798004273
 31
0.0
  0
LINE
  5
418
330
1F
100
AcDbEntity
  8
0
  6
DASHED
 62
     4
 48
5.0
100
AcDbLine
 10
474.1576763685857
 20
713.789792136385
 30
0.0
 11
475.6557078646486
 21
713.789792136385
 31
0.0
  0
LINE
  5
419
330
1F
100
AcDbEntity
  8
0
  6
DASHED
 62
     4
 48
5.0
100
AcDbLine
 10
475.6557078646486
 20
714.7884798004273
 30
0.0
 11
474.1576763685857
 21
714.7884798004273
 31
0.0
  0
LINE
  5
41A
330
1F
100
AcDbEntity
  8
0
  6
DASHED
 62
     4
 48
5.0
100
AcDbLine
 10
474.1576763685857
 20
714.7884798004273
 30
0.0
 11
474.1576763685857
 21
713.789792136385
 31
0.0
  0
LINE
  5
41B
330
1F
100
AcDbEntity
  8
0
  6
DASHED
 62
     4
 48
5.0
100
AcDbLine
 10
478.1524270247541
 20
713.789792136385
 30
0.0
 11
478.1524270247541
 21
714.7884798004273
 31
0.0
  0
LINE
  5
41C
330
1F
100
AcDbEntity
  8
0
  6
DASHED
 62
     4
 48
5.0
100
AcDbLine
 10
475.6557078646486
 20
713.789792136385
 30
0.0
 11
475.6557078646486
 21
712.2917606403224
 31
0.0
  0
LINE
  5
41D
330
1F
100
AcDbEntity
  8
0
  6
DASHED
 62
     4
 48
5.0
100
AcDbLine
 10
475.6557078646486
 20
712.2917606403224
 30
0.0
 11
476.6543955286913
 21
712.2917606403224
 31
0.0
  0
LINE
  5
41E
330
1F
100
AcDbEntity
  8
0
  6
DASHED
 62
     4
 48
5.0
100
AcDbLine
 10
476.6543955286913
 20
712.2917606403224
 30
0.0
 11
476.6543955286913
 21
713.789792136385
 31
0.0
  0
LINE
  5
41F
330
1F
100
AcDbEntity
  8
0
  6
DASHED
 62
     4
 48
5.0
100
AcDbLine
 10
476.6543955286913
 20
713.789792136385
 30
0.0
 11
478.1524270247541
 21
713.789792136385
 31
0.0
  0
LINE
  5
420
330
1F
100
AcDbEntity
  8
0
  6
DASHED
 62
     4
 48
5.0
100
AcDbLine
 10
478.1524270247541
 20
713.789792136385
 30
0.0
 11
478.1524270247541
 21
713.789792136385
 31
0.0
  0
LINE
  5
421
330
1F
100
AcDbEntity
  8
0
  6
DASHED
 62
     4
 48
5.0
100
AcDbLine
 10
478.1524270247541
 20
714.7884798004273
 30
0.0
 11
476.6543955286913
 21
714.7884798004273
 31
0.0
  0
LINE
  5
422
330
1F
100
AcDbEntity
  8
0
  6
DASHED
 62
     4
 48
5.0
100
AcDbLine
 10
476.6543955286913
 20
716.2865112964903
 30
0.0
 11
475.6557078646486
 21
716.2865112964903
 31
0.0
  0
LINE
  5
423
330
1F
100
AcDbEntity
  8
0
  6
DASHED
 62
     4
 48
5.0
100
AcDbLine
 10
484.2643955286907
 20
714.7884798004273
 30
0.0
 11
484.2643955286907
 21
716.2865112964903
 31
0.0
  0
LINE
  5
424
330
1F
100
AcDbEntity
  8
0
  6
DASHED
 62
     4
 48
5.0
100
AcDbLine
 10
483.2657078646492
 20
716.2865112964903
 30
0.0
 11
483.2657078646492
 21
714.7884798004273
 31
0.0
  0
LINE
  5
425
330
1F
100
AcDbEntity
  8
0
  6
DASHED
 62
     4
 48
5.0
100
AcDbLine
 10
481.7676763685859
 20
713.789792136385
 30
0.0
 11
483.2657078646492
 21
713.789792136385
 31
0.0
  0
LINE
  5
426
330
1F
100
AcDbEntity
  8
0
  6
DASHED
 62
     4
 48
5.0
100
AcDbLine
 10
483.2657078646492
 20
714.7884798004273
 30
0.0
 11
481.7676763685859
 21
714.7884798004273
 31
0.0
  0
LINE
  5
427
330
1F
100
AcDbEntity
  8
0
  6
DASHED
 62
     4
 48
5.0
100
AcDbLine
 10
481.7676763685859
 20
714.7884798004273
 30
0.0
 11
481.7676763685859
 21
713.789792136385
 31
0.0
  0
LINE
  5
428
330
1F
100
AcDbEntity
  8
0
  6
DASHED
 62
     4
 48
5.0
100
AcDbLine
 10
485.7624270247534
 20
713.789792136385
 30
0.0
 11
485.7624270247534
 21
714.7884798004273
 31
0.0
  0
LINE
  5
429
330
1F
100
AcDbEntity
  8
0
  6
DASHED
 62
     4
 48
5.0
100
AcDbLine
 10
483.2657078646492
 20
713.789792136385
 30
0.0
 11
483.2657078646492
 21
712.2917606403224
 31
0.0
  0
LINE
  5
42A
330
1F
100
AcDbEntity
  8
0
  6
DASHED
 62
     4
 48
5.0
100
AcDbLine
 10
483.2657078646492
 20
712.2917606403224
 30
0.0
 11
484.2643955286907
 21
712.2917606403224
 31
0.0
  0
LINE
  5
42B
330
1F
100
AcDbEntity
  8
0
  6
DASHED
 62
     4
 48
5.0
100
AcDbLine
 10
484.2643955286907
 20
712.2917606403224
 30
0.0
 11
484.2643955286907
 21
713.789792136385
 31
0.0
  0
LINE
  5
42C
330
1F
100
AcDbEntity
  8
0
  6
DASHED
 62
     4
 48
5.0
100
AcDbLine
 10
484.2643955286907
 20
713.789792136385
 30
0.0
 11
485.7624270247534
 21
713.789792136385
 31
0.0
  0
LINE
  5
42D
330
1F
100
AcDbEntity
  8
0
  6
DASHED
 62
     4
 48
5.0
100
AcDbLine
 10
485.7624270247534
 20
713.789792136385
 30
0.0
 11
485.7624270247534
 21
713.789792136385
 31
0.0
  0
LINE
  5
42E
330
1F
100
AcDbEntity
  8
0
  6
DASHED
 62
     4
 48
5.0
100
AcDbLine
 10
485.7624270247534
 20
714.7884798004273
 30
0.0
 11
484.2643955286907
 21
714.7884798004273
 31
0.0
  0
LINE
  5
42F
330
1F
100
AcDbEntity
  8
0
  6
DASHED
 62
     4
 48
5.0
100
AcDbLine
 10
484.2643955286907
 20
716.2865112964903
 30
0.0
 11
483.2657078646492
 21
716.2865112964903
 31
0.0
  0
LINE
  5
430
330
1F
100
AcDbEntity
  8
0
  6
DASHED
 62
     4
 48
5.0
100
AcDbLine
 10
491.8743955286905
 20
714.7884798004273
 30
0.0
 11
491.8743955286905
 21
716.2865112964903
 31
0.0
  0
LINE
  5
431
330
1F
100
AcDbEntity
  8
0
  6
DASHED
 62
     4
 48
5.0
100
AcDbLine
 10
490.8757078646485
 20
716.2865112964903
 30
0.0
 11
490.8757078646485
 21
714.7884798004273
 31
0.0
  0
LINE
  5
432
330
1F
100
AcDbEntity
  8
0
  6
DASHED
 62
     4
 48
5.0
100
AcDbLine
 10
489.3776763685852
 20
713.789792136385
 30
0.0
 11
490.8757078646485
 21
713.789792136385
 31
0.0
  0
LINE
  5
433
330
1F
100
AcDbEntity
  8
0
  6
DASHED
 62
     4
 48
5.0
100
AcDbLine
 10
490.8757078646485
 20
714.7884798004273
 30
0.0
 11
489.3776763685852
 21
714.7884798004273
 31
0.0
  0
LINE
  5
434
330
1F
100
AcDbEntity
  8
0
  6
DASHED
 62
     4
 48
5.0
100
AcDbLine
 10
489.3776763685852
 20
714.7884798004273
 30
0.0
 11
489.3776763685852
 21
713.789792136385
 31
0.0
  0
LINE
  5
435
330
1F
100
AcDbEntity
  8
0
  6
DASHED
 62
     4
 48
5.0
100
AcDbLine
 10
493.3724270247535
 20
713.789792136385
 30
0.0
 11
493.3724270247535
 21
714.7884798004273
 31
0.0
  0
LINE
  5
436
330
1F
100
AcDbEntity
  8
0
  6
DASHED
 62
     4
 48
5.0
100
AcDbLine
 10
490.8757078646485
 20
713.789792136385
 30
0.0
 11
490.8757078646485
 21
712.2917606403224
 31
0.0
  0
LINE
  5
437
330
1F
100
AcDbEntity
  8
0
  6
DASHED
 62
     4
 48
5.0
100
AcDbLine
 10
490.8757078646485
 20
712.2917606403224
 30
0.0
 11
491.8743955286905
 21
712.2917606403224
 31
0.0
  0
LINE
  5
438
330
1F
100
AcDbEntity
  8
0
  6
DASHED
 62
     4
 48
5.0
100
AcDbLine
 10
491.8743955286905
 20
712.2917606403224
 30
0.0
 11
491.8743955286905
 21
713.789792136385
 31
0.0
  0
LINE
  5
439
330
1F
100
AcDbEntity
  8
0
  6
DASHED
 62
     4
 48
5.0
100
AcDbLine
 10
491.8743955286905
 20
713.789792136385
 30
0.0
 11
493.3724270247535
 21
713.789792136385
 31
0.0
  0
LINE
  5
43A
330
1F
100
AcDbEntity
  8
0
  6
DASHED
 62
     4
 48
5.0
100
AcDbLine
 10
493.3724270247535
 20
713.789792136385
 30
0.0
 11
493.3724270247535
 21
713.789792136385
 31
0.0
  0
LINE
  5
43B
330
1F
100
AcDbEntity
  8
0
  6
DASHED
 62
     4
 48
5.0
100
AcDbLine
 10
493.3724270247535
 20
714.7884798004273
 30
0.0
 11
491.8743955286905
 21
714.7884798004273
 31
0.0
  0
LINE
  5
43C
330
1F
100
AcDbEntity
  8
0
  6
DASHED
 62
     4
 48
5.0
100
AcDbLine
 10
491.8743955286905
 20
716.2865112964903
 30
0.0
 11
490.8757078646485
 21
716.2865112964903
 31
0.0
  0
LINE
  5
43D
330
1F
100
AcDbEntity
  8
0
  6
DASHED
 62
     4
 48
5.0
100
AcDbLine
 10
499.4843955286902
 20
714.7884798004273
 30
0.0
 11
499.4843955286902
 21
716.2865112964903
 31
0.0
  0
LINE
  5
43E
330
1F
100
AcDbEntity
  8
0
  6
DASHED
 62
     4
 48
5.0
100
AcDbLine
 10
498.4857078646483
 20
716.2865112964903
 30
0.0
 11
498.4857078646483
 21
714.7884798004273
 31
0.0
  0
LINE
  5
43F
330
1F
100
AcDbEntity
  8
0
  6
DASHED
 62
     4
 48
5.0
100
AcDbLine
 10
496.9876763685855
 20
713.789792136385
 30
0.0
 11
498.4857078646483
 21
713.789792136385
 31
0.0
  0
LINE
  5
440
330
1F
100
AcDbEntity
  8
0
  6
DASHED
 62
     4
 48
5.0
100
AcDbLine
 10
498.4857078646483
 20
714.7884798004273
 30
0.0
 11
496.9876763685855
 21
714.7884798004273
 31
0.0
  0
LINE
  5
441
330
1F
100
AcDbEntity
  8
0
  6
DASHED
 62
     4
 48
5.0
100
AcDbLine
 10
496.9876763685855
 20
714.7884798004273
 30
0.0
 11
496.9876763685855
 21
713.789792136385
 31
0.0
  0
LINE
  5
442
330
1F
100
AcDbEntity
  8
0
  6
DASHED
 62
     4
 48
5.0
100
AcDbLine
 10
500.9824270247531
 20
713.789792136385
 30
0.0
 11
500.9824270247531
 21
714.7884798004273
 31
0.0
  0
LINE
  5
443
330
1F
100
AcDbEntity
  8
0
  6
DASHED
 62
     4
 48
5.0
100
AcDbLine
 10
498.4857078646483
 20
713.789792136385
 30
0.0
 11
498.4857078646483
 21
712.2917606403224
 31
0.0
  0
LINE
  5
444
330
1F
100
AcDbEntity
  8
0
  6
DASHED
 62
     4
 48
5.0
100
AcDbLine
 10
498.4857078646483
 20
712.2917606403224
 30
0.0
 11
499.4843955286902
 21
712.2917606403224
 31
0.0
  0
LINE
  5
445
330
1F
100
AcDbEntity
  8
0
  6
DASHED
 62
     4
 48
5.0
100
AcDbLine
 10
499.4843955286902
 20
712.2917606403224
 30
0.0
 11
499.4843955286902
 21
713.789792136385
 31
0.0
  0
LINE
  5
446
330
1F
100
AcDbEntity
  8
0
  6
DASHED
 62
     4
 48
5.0
100
AcDbLine
 10
499.4843955286902
 20
713.789792136385
 30
0.0
 11
500.9824270247531
 21
713.789792136385
 31
0.0
  0
LINE
  5
447
330
1F
100
AcDbEntity
  8
0
  6
DASHED
 62
     4
 48
5.0
100
AcDbLine
 10
500.9824270247531
 20
713.789792136385
 30
0.0
 11
500.9824270247531
 21
713.789792136385
 31
0.0
  0
LINE
  5
448
330
1F
100
AcDbEntity
  8
0
  6
DASHED
 62
     4
 48
5.0
100
AcDbLine
 10
500.9824270247531
 20
714.7884798004273
 30
0.0
 11
499.4843955286902
 21
714.7884798004273
 31
0.0
  0
LINE
  5
449
330
1F
100
AcDbEntity
  8
0
  6
DASHED
 62
     4
 48
5.0
100
AcDbLine
 10
499.4843955286902
 20
716.2865112964903
 30
0.0
 11
498.4857078646483
 21
716.2865112964903
 31
0.0
  0
LINE
  5
44A
330
1F
100
AcDbEntity
  8
0
  6
DASHED
 62
     4
 48
5.0
100
AcDbLine
 10
507.0943955286899
 20
714.7884798004273
 30
0.0
 11
507.0943955286899
 21
716.2865112964903
 31
0.0
  0
LINE
  5
44B
330
1F
100
AcDbEntity
  8
0
  6
DASHED
 62
     4
 48
5.0
100
AcDbLine
 10
506.0957078646479
 20
716.2865112964903
 30
0.0
 11
506.0957078646479
 21
714.7884798004273
 31
0.0
  0
LINE
  5
44C
330
1F
100
AcDbEntity
  8
0
  6
DASHED
 62
     4
 48
5.0
100
AcDbLine
 10
504.5976763685851
 20
713.789792136385
 30
0.0
 11
506.0957078646479
 21
713.789792136385
 31
0.0
  0
LINE
  5
44D
330
1F
100
AcDbEntity
  8
0
  6
DASHED
 62
     4
 48
5.0
100
AcDbLine
 10
506.0957078646479
 20
714.7884798004273
 30
0.0
 11
504.5976763685851
 21
714.7884798004273
 31
0.0
  0
LINE
  5
44E
330
1F
100
AcDbEntity
  8
0
  6
DASHED
 62
     4
 48
5.0
100
AcDbLine
 10
504.5976763685851
 20
714.7884798004273
 30
0.0
 11
504.5976763685851
 21
713.789792136385
 31
0.0
  0
LINE
  5
44F
330
1F
100
AcDbEntity
  8
0
  6
DASHED
 62
     4
 48
5.0
100
AcDbLine
 10
506.0957078646479
 20
713.789792136385
 30
0.0
 11
506.0957078646479
 21
712.2917606403224
 31
0.0
  0
LINE
  5
450
330
1F
100
AcDbEntity
  8
0
  6
DASHED
 62
     4
 48
5.0
100
AcDbLine
 10
506.0957078646479
 20
712.2917606403224
 30
0.0
 11
507.0943955286899
 21
712.2917606403224
 31
0.0
  0
LINE
  5
451
330
1F
100
AcDbEntity
  8
0
  6
DASHED
 62
     4
 48
5.0
100
AcDbLine
 10
507.0943955286899
 20
712.2917606403224
 30
0.0
 11
507.0943955286899
 21
713.789792136385
 31
0.0
  0
LINE
  5
452
330
1F
100
AcDbEntity
  8
0
  6
DASHED
 62
     4
 48
5.0
100
AcDbLine
 10
507.0943955286899
 20
716.2865112964903
 30
0.0
 11
506.0957078646479
 21
716.2865112964903
 31
0.0
  0
LINE
  5
453
330
1F
100
AcDbEntity
  8
0
  6
DASHED
 62
     4
 48
5.0
100
AcDbLine
 10
537.5343955286886
 20
713.789792136385
 30
0.0
 11
539.0324270247519
 21
713.789792136385
 31
0.0
  0
LINE
  5
454
330
1F
100
AcDbEntity
  8
0
  6
DASHED
 62
     4
 48
5.0
100
AcDbLine
 10
539.0324270247519
 20
714.7884798004273
 30
0.0
 11
537.5343955286886
 21
714.7884798004273
 31
0.0
  0
LINE
  5
455
330
1F
100
AcDbEntity
  8
0
  6
DASHED
 62
     4
 48
5.0
100
AcDbLine
 10
522.3143955286896
 20
713.789792136385
 30
0.0
 11
523.8124270247526
 21
713.789792136385
 31
0.0
  0
LINE
  5
456
330
1F
100
AcDbEntity
  8
0
  6
DASHED
 62
     4
 48
5.0
100
AcDbLine
 10
523.8124270247526
 20
714.7884798004273
 30
0.0
 11
522.3143955286896
 21
714.7884798004273
 31
0.0
  0
LINE
  5
457
330
1F
100
AcDbEntity
  8
0
  6
DASHED
 62
     4
 48
5.0
100
AcDbLine
 10
514.7043955286896
 20
713.789792136385
 30
0.0
 11
516.2024270247526
 21
713.789792136385
 31
0.0
  0
LINE
  5
458
330
1F
100
AcDbEntity
  8
0
  6
DASHED
 62
     4
 48
5.0
100
AcDbLine
 10
516.2024270247526
 20
714.7884798004273
 30
0.0
 11
514.7043955286896
 21
714.7884798004273
 31
0.0
  0
LINE
  5
459
330
1F
100
AcDbEntity
  8
0
  6
DASHED
 62
     4
 48
5.0
100
AcDbLine
 10
514.7043955286896
 20
714.7884798004273
 30
0.0
 11
514.7043955286896
 21
716.2865112964903
 31
0.0
  0
LINE
  5
45A
330
1F
100
AcDbEntity
  8
0
  6
DASHED
 62
     4
 48
5.0
100
AcDbLine
 10
513.7057078646476
 20
716.2865112964903
 30
0.0
 11
513.7057078646476
 21
714.7884798004273
 31
0.0
  0
LINE
  5
45B
330
1F
100
AcDbEntity
  8
0
  6
DASHED
 62
     4
 48
5.0
100
AcDbLine
 10
508.5924270247526
 20
713.789792136385
 30
0.0
 11
508.5924270247526
 21
714.7884798004273
 31
0.0
  0
LINE
  5
45C
330
1F
100
AcDbEntity
  8
0
  6
DASHED
 62
     4
 48
5.0
100
AcDbLine
 10
508.5924270247526
 20
713.789792136385
 30
0.0
 11
508.5924270247526
 21
713.789792136385
 31
0.0
  0
LINE
  5
45D
330
1F
100
AcDbEntity
  8
0
  6
DASHED
 62
     4
 48
5.0
100
AcDbLine
 10
512.2076763685843
 20
714.7884798004273
 30
0.0
 11
512.2076763685843
 21
713.789792136385
 31
0.0
  0
LINE
  5
45E
330
1F
100
AcDbEntity
  8
0
  6
DASHED
 62
     4
 48
5.0
100
AcDbLine
 10
512.2076763685843
 20
713.789792136385
 30
0.0
 11
513.7057078646476
 21
713.789792136385
 31
0.0
  0
LINE
  5
45F
330
1F
100
AcDbEntity
  8
0
  6
DASHED
 62
     4
 48
5.0
100
AcDbLine
 10
513.7057078646476
 20
713.789792136385
 30
0.0
 11
513.7057078646476
 21
712.2917606403224
 31
0.0
  0
LINE
  5
460
330
1F
100
AcDbEntity
  8
0
  6
DASHED
 62
     4
 48
5.0
100
AcDbLine
 10
513.7057078646476
 20
712.2917606403224
 30
0.0
 11
514.7043955286896
 21
712.2917606403224
 31
0.0
  0
LINE
  5
461
330
1F
100
AcDbEntity
  8
0
  6
DASHED
 62
     4
 48
5.0
100
AcDbLine
 10
514.7043955286896
 20
712.2917606403224
 30
0.0
 11
514.7043955286896
 21
713.789792136385
 31
0.0
  0
LINE
  5
462
330
1F
100
AcDbEntity
  8
0
  6
DASHED
 62
     4
 48
5.0
100
AcDbLine
 10
513.7057078646476
 20
714.7884798004273
 30
0.0
 11
512.2076763685843
 21
714.7884798004273
 31
0.0
  0
LINE
  5
463
330
1F
100
AcDbEntity
  8
0
  6
DASHED
 62
     4
 48
5.0
100
AcDbLine
 10
514.7043955286896
 20
716.2865112964903
 30
0.0
 11
513.7057078646476
 21
716.2865112964903
 31
0.0
  0
LINE
  5
464
330
1F
100
AcDbEntity
  8
0
  6
DASHED
 62
     4
 48
5.0
100
AcDbLine
 10
522.3143955286896
 20
714.7884798004273
 30
0.0
 11
522.3143955286896
 21
716.2865112964903
 31
0.0
  0
LINE
  5
465
330
1F
100
AcDbEntity
  8
0
  6
DASHED
 62
     4
 48
5.0
100
AcDbLine
 10
521.3157078646469
 20
716.2865112964903
 30
0.0
 11
521.3157078646469
 21
714.7884798004273
 31
0.0
  0
LINE
  5
466
330
1F
100
AcDbEntity
  8
0
  6
DASHED
 62
     4
 48
5.0
100
AcDbLine
 10
516.2024270247526
 20
713.789792136385
 30
0.0
 11
516.2024270247526
 21
714.7884798004273
 31
0.0
  0
LINE
  5
467
330
1F
100
AcDbEntity
  8
0
  6
DASHED
 62
     4
 48
5.0
100
AcDbLine
 10
516.2024270247526
 20
713.789792136385
 30
0.0
 11
516.2024270247526
 21
713.789792136385
 31
0.0
  0
LINE
  5
468
330
1F
100
AcDbEntity
  8
0
  6
DASHED
 62
     4
 48
5.0
100
AcDbLine
 10
519.8176763685847
 20
714.7884798004273
 30
0.0
 11
519.8176763685847
 21
713.789792136385
 31
0.0
  0
LINE
  5
469
330
1F
100
AcDbEntity
  8
0
  6
DASHED
 62
     4
 48
5.0
100
AcDbLine
 10
522.3143955286896
 20
712.2917606403224
 30
0.0
 11
522.3143955286896
 21
713.789792136385
 31
0.0
  0
LINE
  5
46A
330
1F
100
AcDbEntity
  8
0
  6
DASHED
 62
     4
 48
5.0
100
AcDbLine
 10
519.8176763685847
 20
713.789792136385
 30
0.0
 11
521.3157078646469
 21
713.789792136385
 31
0.0
  0
LINE
  5
46B
330
1F
100
AcDbEntity
  8
0
  6
DASHED
 62
     4
 48
5.0
100
AcDbLine
 10
521.3157078646469
 20
713.789792136385
 30
0.0
 11
521.3157078646469
 21
712.2917606403224
 31
0.0
  0
LINE
  5
46C
330
1F
100
AcDbEntity
  8
0
  6
DASHED
 62
     4
 48
5.0
100
AcDbLine
 10
521.3157078646469
 20
712.2917606403224
 30
0.0
 11
522.3143955286896
 21
712.2917606403224
 31
0.0
  0
LINE
  5
46D
330
1F
100
AcDbEntity
  8
0
  6
DASHED
 62
     4
 48
5.0
100
AcDbLine
 10
521.3157078646469
 20
714.7884798004273
 30
0.0
 11
519.8176763685847
 21
714.7884798004273
 31
0.0
  0
LINE
  5
46E
330
1F
100
AcDbEntity
  8
0
  6
DASHED
 62
     4
 48
5.0
100
AcDbLine
 10
522.3143955286896
 20
716.2865112964903
 30
0.0
 11
521.3157078646469
 21
716.2865112964903
 31
0.0
  0
LINE
  5
46F
330
1F
100
AcDbEntity
  8
0
  6
DASHED
 62
     4
 48
5.0
100
AcDbLine
 10
529.9243955286889
 20
713.789792136385
 30
0.0
 11
531.4224270247518
 21
713.789792136385
 31
0.0
  0
LINE
  5
470
330
1F
100
AcDbEntity
  8
0
  6
DASHED
 62
     4
 48
5.0
100
AcDbLine
 10
531.4224270247518
 20
714.7884798004273
 30
0.0
 11
529.9243955286889
 21
714.7884798004273
 31
0.0
  0
LINE
  5
471
330
1F
100
AcDbEntity
  8
0
  6
DASHED
 62
     4
 48
5.0
100
AcDbLine
 10
529.9243955286889
 20
714.7884798004273
 30
0.0
 11
529.9243955286889
 21
716.2865112964903
 31
0.0
  0
LINE
  5
472
330
1F
100
AcDbEntity
  8
0
  6
DASHED
 62
     4
 48
5.0
100
AcDbLine
 10
528.9257078646476
 20
716.2865112964903
 30
0.0
 11
528.9257078646476
 21
714.7884798004273
 31
0.0
  0
LINE
  5
473
330
1F
100
AcDbEntity
  8
0
  6
DASHED
 62
     4
 48
5.0
100
AcDbLine
 10
523.8124270247526
 20
713.789792136385
 30
0.0
 11
523.8124270247526
 21
714.7884798004273
 31
0.0
  0
LINE
  5
474
330
1F
100
AcDbEntity
  8
0
  6
DASHED
 62
     4
 48
5.0
100
AcDbLine
 10
523.8124270247526
 20
713.789792136385
 30
0.0
 11
523.8124270247526
 21
713.789792136385
 31
0.0
  0
LINE
  5
475
330
1F
100
AcDbEntity
  8
0
  6
DASHED
 62
     4
 48
5.0
100
AcDbLine
 10
527.427676368584
 20
714.7884798004273
 30
0.0
 11
527.427676368584
 21
713.789792136385
 31
0.0
  0
LINE
  5
476
330
1F
100
AcDbEntity
  8
0
  6
DASHED
 62
     4
 48
5.0
100
AcDbLine
 10
527.427676368584
 20
713.789792136385
 30
0.0
 11
528.9257078646476
 21
713.789792136385
 31
0.0
  0
LINE
  5
477
330
1F
100
AcDbEntity
  8
0
  6
DASHED
 62
     4
 48
5.0
100
AcDbLine
 10
528.9257078646476
 20
713.789792136385
 30
0.0
 11
528.9257078646476
 21
712.2917606403224
 31
0.0
  0
LINE
  5
478
330
1F
100
AcDbEntity
  8
0
  6
DASHED
 62
     4
 48
5.0
100
AcDbLine
 10
528.9257078646476
 20
712.2917606403224
 30
0.0
 11
529.9243955286889
 21
712.2917606403224
 31
0.0
  0
LINE
  5
479
330
1F
100
AcDbEntity
  8
0
  6
DASHED
 62
     4
 48
5.0
100
AcDbLine
 10
529.9243955286889
 20
712.2917606403224
 30
0.0
 11
529.9243955286889
 21
713.789792136385
 31
0.0
  0
LINE
  5
47A
330
1F
100
AcDbEntity
  8
0
  6
DASHED
 62
     4
 48
5.0
100
AcDbLine
 10
528.9257078646476
 20
714.7884798004273
 30
0.0
 11
527.427676368584
 21
714.7884798004273
 31
0.0
  0
LINE
  5
47B
330
1F
100
AcDbEntity
  8
0
  6
DASHED
 62
     4
 48
5.0
100
AcDbLine
 10
529.9243955286889
 20
716.2865112964903
 30
0.0
 11
528.9257078646476
 21
716.2865112964903
 31
0.0
  0
LINE
  5
47C
330
1F
100
AcDbEntity
  8
0
  6
DASHED
 62
     4
 48
5.0
100
AcDbLine
 10
537.5343955286886
 20
714.7884798004273
 30
0.0
 11
537.5343955286886
 21
716.2865112964903
 31
0.0
  0
LINE
  5
47D
330
1F
100
AcDbEntity
  8
0
  6
DASHED
 62
     4
 48
5.0
100
AcDbLine
 10
536.5357078646469
 20
716.2865112964903
 30
0.0
 11
536.5357078646469
 21
714.7884798004273
 31
0.0
  0
LINE
  5
47E
330
1F
100
AcDbEntity
  8
0
  6
DASHED
 62
     4
 48
5.0
100
AcDbLine
 10
531.4224270247518
 20
713.789792136385
 30
0.0
 11
531.4224270247518
 21
714.7884798004273
 31
0.0
  0
LINE
  5
47F
330
1F
100
AcDbEntity
  8
0
  6
DASHED
 62
     4
 48
5.0
100
AcDbLine
 10
531.4224270247518
 20
713.789792136385
 30
0.0
 11
531.4224270247518
 21
713.789792136385
 31
0.0
  0
LINE
  5
480
330
1F
100
AcDbEntity
  8
0
  6
DASHED
 62
     4
 48
5.0
100
AcDbLine
 10
535.0376763685836
 20
714.7884798004273
 30
0.0
 11
535.0376763685836
 21
713.789792136385
 31
0.0
  0
LINE
  5
481
330
1F
100
AcDbEntity
  8
0
  6
DASHED
 62
     4
 48
5.0
100
AcDbLine
 10
535.0376763685836
 20
713.789792136385
 30
0.0
 11
536.5357078646469
 21
713.789792136385
 31
0.0
  0
LINE
  5
482
330
1F
100
AcDbEntity
  8
0
  6
DASHED
 62
     4
 48
5.0
100
AcDbLine
 10
536.5357078646469
 20
713.789792136385
 30
0.0
 11
536.5357078646469
 21
712.2917606403224
 31
0.0
  0
LINE
  5
483
330
1F
100
AcDbEntity
  8
0
  6
DASHED
 62
     4
 48
5.0
100
AcDbLine
 10
536.5357078646469
 20
712.2917606403224
 30
0.0
 11
537.5343955286886
 21
712.2917606403224
 31
0.0
  0
LINE
  5
484
330
1F
100
AcDbEntity
  8
0
  6
DASHED
 62
     4
 48
5.0
100
AcDbLine
 10
537.5343955286886
 20
712.2917606403224
 30
0.0
 11
537.5343955286886
 21
713.789792136385
 31
0.0
  0
LINE
  5
485
330
1F
100
AcDbEntity
  8
0
  6
DASHED
 62
     4
 48
5.0
100
AcDbLine
 10
536.5357078646469
 20
714.7884798004273
 30
0.0
 11
535.0376763685836
 21
714.7884798004273
 31
0.0
  0
LINE
  5
486
330
1F
100
AcDbEntity
  8
0
  6
DASHED
 62
     4
 48
5.0
100
AcDbLine
 10
537.5343955286886
 20
716.2865112964903
 30
0.0
 11
536.5357078646469
 21
716.2865112964903
 31
0.0
  0
LINE
  5
487
330
1F
100
AcDbEntity
  8
0
  6
DASHED
 62
     4
 48
5.0
100
AcDbLine
 10
545.1443955286886
 20
713.789792136385
 30
0.0
 11
546.6424270247515
 21
713.789792136385
 31
0.0
  0
LINE
  5
488
330
1F
100
AcDbEntity
  8
0
  6
DASHED
 62
     4
 48
5.0
100
AcDbLine
 10
546.6424270247515
 20
714.7884798004273
 30
0.0
 11
545.1443955286886
 21
714.7884798004273
 31
0.0
  0
LINE
  5
489
330
1F
100
AcDbEntity
  8
0
  6
DASHED
 62
     4
 48
5.0
100
AcDbLine
 10
545.1443955286886
 20
714.7884798004273
 30
0.0
 11
545.1443955286886
 21
716.2865112964903
 31
0.0
  0
LINE
  5
48A
330
1F
100
AcDbEntity
  8
0
  6
DASHED
 62
     4
 48
5.0
100
AcDbLine
 10
544.1457078646467
 20
716.2865112964903
 30
0.0
 11
544.1457078646467
 21
714.7884798004273
 31
0.0
  0
LINE
  5
48B
330
1F
100
AcDbEntity
  8
0
  6
DASHED
 62
     4
 48
5.0
100
AcDbLine
 10
539.0324270247519
 20
713.789792136385
 30
0.0
 11
539.0324270247519
 21
714.7884798004273
 31
0.0
  0
LINE
  5
48C
330
1F
100
AcDbEntity
  8
0
  6
DASHED
 62
     4
 48
5.0
100
AcDbLine
 10
539.0324270247519
 20
713.789792136385
 30
0.0
 11
539.0324270247519
 21
713.789792136385
 31
0.0
  0
LINE
  5
48D
330
1F
100
AcDbEntity
  8
0
  6
DASHED
 62
     4
 48
5.0
100
AcDbLine
 10
542.6476763685839
 20
714.7884798004273
 30
0.0
 11
542.6476763685839
 21
713.789792136385
 31
0.0
  0
LINE
  5
48E
330
1F
100
AcDbEntity
  8
0
  6
DASHED
 62
     4
 48
5.0
100
AcDbLine
 10
542.6476763685839
 20
713.789792136385
 30
0.0
 11
544.1457078646467
 21
713.789792136385
 31
0.0
  0
LINE
  5
48F
330
1F
100
AcDbEntity
  8
0
  6
DASHED
 62
     4
 48
5.0
100
AcDbLine
 10
544.1457078646467
 20
713.789792136385
 30
0.0
 11
544.1457078646467
 21
712.2917606403224
 31
0.0
  0
LINE
  5
490
330
1F
100
AcDbEntity
  8
0
  6
DASHED
 62
     4
 48
5.0
100
AcDbLine
 10
544.1457078646467
 20
712.2917606403224
 30
0.0
 11
545.1443955286886
 21
712.2917606403224
 31
0.0
  0
LINE
  5
491
330
1F
100
AcDbEntity
  8
0
  6
DASHED
 62
     4
 48
5.0
100
AcDbLine
 10
545.1443955286886
 20
712.2917606403224
 30
0.0
 11
545.1443955286886
 21
713.789792136385
 31
0.0
  0
LINE
  5
492
330
1F
100
AcDbEntity
  8
0
  6
DASHED
 62
     4
 48
5.0
100
AcDbLine
 10
544.1457078646467
 20
714.7884798004273
 30
0.0
 11
542.6476763685839
 21
714.7884798004273
 31
0.0
  0
LINE
  5
493
330
1F
100
AcDbEntity
  8
0
  6
DASHED
 62
     4
 48
5.0
100
AcDbLine
 10
545.1443955286886
 20
716.2865112964903
 30
0.0
 11
544.1457078646467
 21
716.2865112964903
 31
0.0
  0
LINE
  5
494
330
1F
100
AcDbEntity
  8
0
  6
DASHED
 62
     4
 48
5.0
100
AcDbLine
 10
546.6424270247515
 20
713.789792136385
 30
0.0
 11
546.6424270247515
 21
714.7884798004273
 31
0.0
  0
LINE
  5
495
330
1F
100
AcDbEntity
  8
0
  6
DASHED
 62
     4
 48
5.0
100
AcDbLine
 10
546.6424270247515
 20
713.789792136385
 30
0.0
 11
546.6424270247515
 21
713.789792136385
 31
0.0
  0
CIRCLE
  5
496
330
1F
100
AcDbEntity
  8
0
  6
DASHED
 62
     4
100
AcDbCircle
 10
510.4434229454518
 20
704.0268095269009
 30
10.5748440157477
 40
2.996060753842466
  0
CIRCLE
  5
497
330
1F
100
AcDbEntity
  8
0
  6
DASHED
 62
     4
100
AcDbCircle
 10
480.0034229454523
 20
704.0268095269009
 30
10.5748440157477
 40
2.996060753842466
  0
CIRCLE
  5
498
330
1F
100
AcDbEntity
  8
0
  6
DASHED
 62
     4
100
AcDbCircle
 10
464.7834229454528
 20
704.0268095269009
 30
10.5748440157477
 40
2.996060753842466
  0
CIRCLE
  5
499
330
1F
100
AcDbEntity
  8
0
  6
DASHED
 62
     4
100
AcDbCircle
 10
457.1734229454526
 20
704.0268095269009
 30
10.5748440157477
 40
2.996060753842578
  0
CIRCLE
  5
49A
330
1F
100
AcDbEntity
  8
0
  6
DASHED
 62
     4
100
AcDbCircle
 10
472.3934229454521
 20
704.0268095269009
 30
10.5748440157477
 40
2.996060753842466
  0
CIRCLE
  5
49B
330
1F
100
AcDbEntity
  8
0
  6
DASHED
 62
     4
100
AcDbCircle
 10
495.2234229454513
 20
704.0268095269009
 30
10.5748440157477
 40
2.996060753842466
  0
CIRCLE
  5
49C
330
1F
100
AcDbEntity
  8
0
  6
DASHED
 62
     4
100
AcDbCircle
 10
487.6134229454518
 20
704.0268095269009
 30
10.5748440157477
 40
2.996060753842466
  0
CIRCLE
  5
49D
330
1F
100
AcDbEntity
  8
0
  6
DASHED
 62
     4
100
AcDbCircle
 10
502.8334229454516
 20
704.0268095269009
 30
10.5748440157477
 40
2.996060753842466
  0
CIRCLE
  5
49E
330
1F
100
AcDbEntity
  8
0
  6
DASHED
 62
     4
100
AcDbCircle
 10
525.6634229454506
 20
704.0268095269009
 30
10.5748440157477
 40
2.996060753842466
  0
CIRCLE
  5
49F
330
1F
100
AcDbEntity
  8
0
  6
DASHED
 62
     4
100
AcDbCircle
 10
518.0534229454515
 20
704.0268095269009
 30
10.5748440157477
 40
2.996060753842466
  0
CIRCLE
  5
4A0
330
1F
100
AcDbEntity
  8
0
  6
DASHED
 62
     4
100
AcDbCircle
 10
533.2734229454502
 20
704.0268095269009
 30
10.5748440157477
 40
2.996060753842466
  0
CIRCLE
  5
4A1
330
1F
100
AcDbEntity
  8
0
  6
DASHED
 62
     4
100
AcDbCircle
 10
540.8834229454511
 20
704.0268095269009
 30
10.5748440157477
 40
2.996060753842466
  0
CIRCLE
  5
4A2
330
1F
100
AcDbEntity
  8
0
  6
DASHED
 62
     4
100
AcDbCircle
 10
548.4934229454501
 20
704.0268095269009
 30
10.5748440157477
 40
2.996060753842466
  0
LINE
  5
4A3
330
1F
100
AcDbEntity
  8
0
  6
Continuous
 62
     7
100
AcDbLine
 10
559.8947697416579
 20
650.3260313783163
 30
0.0
 11
581.9167917636803
 21
650.3260313783163
 31
0.0
  0
LINE
  5
4A4
330
1F
100
AcDbEntity
  8
0
  6
Continuous
 62
     7
100
AcDbLine
 10
559.8947697416579
 20
630.3060113582961
 30
0.0
 11
581.9167917636803
 21
630.3060113582961
 31
0.0
  0
LINE
  5
4A5
330
1F
100
AcDbEntity
  8
0
  6
Continuous
 62
     7
100
AcDbLine
 10
559.8947697416579
 20
638.314019366304
 30
0.0
 11
581.9167917636803
 21
638.314019366304
 31
0.0
  0
LINE
  5
4A6
330
1F
100
AcDbEntity
  8
0
  6
Continuous
 62
     7
100
AcDbLine
 10
559.8947697416579
 20
642.3180233703082
 30
0.0
 11
581.9167917636803
 21
642.3180233703082
 31
0.0
  0
CIRCLE
  5
4A7
330
1F
100
AcDbEntity
  8
0
  6
Continuous
 62
     7
100
AcDbCircle
 10
570.9057829961383
 20
622.2980011068187
 30
0.0
 40
3.003000759534833
  0
LINE
  5
4A8
330
1F
100
AcDbEntity
  8
0
  6
Continuous
 62
     7
100
AcDbLine
 10
559.8947697416579
 20
638.314019366304
 30
0.0
 11
559.8947697416579
 21
630.3060113582961
 31
0.0
  0
CIRCLE
  5
4A9
330
1F
100
AcDbEntity
  8
0
  6
Continuous
 62
     7
100
AcDbCircle
 10
565.9007779911327
 20
657.3330361418542
 30
0.0
 40
3.003000759534721
  0
LINE
  5
4AA
330
1F
100
AcDbEntity
  8
0
  6
Continuous
 62
     7
100
AcDbLine
 10
559.8947697416579
 20
650.3260313783163
 30
0.0
 11
559.8947697416579
 21
642.3180233703082
 31
0.0
  0
CIRCLE
  5
4AB
330
1F
100
AcDbEntity
  8
0
  6
Continuous
 62
     7
100
AcDbCircle
 10
565.9007779911327
 20
670.3460491548677
 30
0.0
 40
3.003000759534833
  0
CIRCLE
  5
4AC
330
1F
100
AcDbEntity
  8
0
  6
Continuous
 62
     7
100
AcDbCircle
 10
565.9007779911327
 20
683.3590621678815
 30
0.0
 40
3.003000759534833
  0
LINE
  5
4AD
330
1F
100
AcDbEntity
  8
0
  6
Continuous
 62
     7
100
AcDbLine
 10
581.9167917636803
 20
638.314019366304
 30
0.0
 11
581.9167917636803
 21
630.3060113582961
 31
0.0
  0
CIRCLE
  5
4AE
330
1F
100
AcDbEntity
  8
0
  6
Continuous
 62
     7
100
AcDbCircle
 10
582.9177950081507
 20
622.2980011068187
 30
0.0
 40
3.003000759534833
  0
CIRCLE
  5
4AF
330
1F
100
AcDbEntity
  8
0
  6
Continuous
 62
     7
100
AcDbCircle
 10
575.9107880011433
 20
657.3330361418542
 30
0.0
 40
3.003000759534721
  0
LINE
  5
4B0
330
1F
100
AcDbEntity
  8
0
  6
Continuous
 62
     7
100
AcDbLine
 10
581.9167917636803
 20
650.3260313783163
 30
0.0
 11
581.9167917636803
 21
642.3180233703082
 31
0.0
  0
CIRCLE
  5
4B1
330
1F
100
AcDbEntity
  8
0
  6
Continuous
 62
     7
100
AcDbCircle
 10
575.9107880011433
 20
670.3460491548677
 30
0.0
 40
3.003000759534833
  0
CIRCLE
  5
4B2
330
1F
100
AcDbEntity
  8
0
  6
Continuous
 62
     7
100
AcDbCircle
 10
575.9107880011433
 20
683.3590621678815
 30
0.0
 40
3.003000759534833
  0
LINE
  5
4B3
330
1F
100
AcDbEntity
  8
0
  6
DASHED
 62
     4
 48
5.0
100
AcDbLine
 10
478.006045379084
 20
703.5274634565958
 30
0.0
 11
479.5040768751476
 21
703.5274634565958
 31
0.0
  0
LINE
  5
4B4
330
1F
100
AcDbEntity
  8
0
  6
DASHED
 62
     4
 48
5.0
100
AcDbLine
 10
479.5040768751476
 20
704.5261511206377
 30
0.0
 11
478.006045379084
 21
704.5261511206377
 31
0.0
  0
LINE
  5
4B5
330
1F
100
AcDbEntity
  8
0
  6
DASHED
 62
     4
 48
5.0
100
AcDbLine
 10
467.8507880011323
 20
699.5739965510843
 30
0.0
 11
467.8507880011323
 21
709.5608731915038
 31
0.0
  0
LINE
  5
4B6
330
1F
100
AcDbEntity
  8
0
  6
DASHED
 62
     4
 48
5.0
100
AcDbLine
 10
469.1690557176666
 20
699.5739965510843
 30
0.0
 11
469.1690557176666
 21
709.5608731915038
 31
0.0
  0
LINE
  5
4B7
330
1F
100
AcDbEntity
  8
0
  6
DASHED
 62
     4
 48
5.0
100
AcDbLine
 10
475.460788001131
 20
699.5739965510843
 30
0.0
 11
475.460788001131
 21
709.5608731915038
 31
0.0
  0
LINE
  5
4B8
330
1F
100
AcDbEntity
  8
0
  6
DASHED
 62
     4
 48
5.0
100
AcDbLine
 10
476.7790557176676
 20
699.5739965510843
 30
0.0
 11
476.7790557176676
 21
709.5608731915038
 31
0.0
  0
LINE
  5
4B9
330
1F
100
AcDbEntity
  8
0
  6
DASHED
 62
     4
 48
5.0
100
AcDbLine
 10
453.9490557176673
 20
699.5739965510843
 30
0.0
 11
453.9490557176673
 21
709.5608731915038
 31
0.0
  0
LINE
  5
4BA
330
1F
100
AcDbEntity
  8
0
  6
DASHED
 62
     4
 48
5.0
100
AcDbLine
 10
460.2407880011319
 20
699.5739965510843
 30
0.0
 11
460.2407880011319
 21
709.5608731915038
 31
0.0
  0
LINE
  5
4BB
330
1F
100
AcDbEntity
  8
0
  6
DASHED
 62
     4
 48
5.0
100
AcDbLine
 10
461.5590557176671
 20
699.5739965510843
 30
0.0
 11
461.5590557176671
 21
709.5608731915038
 31
0.0
  0
LINE
  5
4BC
330
1F
100
AcDbEntity
  8
0
  6
DASHED
 62
     4
 48
5.0
100
AcDbLine
 10
464.2840768751478
 20
702.0294319605326
 30
0.0
 11
465.2827645391891
 21
702.0294319605326
 31
0.0
  0
LINE
  5
4BD
330
1F
100
AcDbEntity
  8
0
  6
DASHED
 62
     4
 48
5.0
100
AcDbLine
 10
465.2827645391891
 20
706.0241826167007
 30
0.0
 11
464.2840768751478
 21
706.0241826167007
 31
0.0
  0
LINE
  5
4BE
330
1F
100
AcDbEntity
  8
0
  6
DASHED
 62
     4
 48
5.0
100
AcDbLine
 10
456.6740768751477
 20
702.0294319605326
 30
0.0
 11
457.6727645391897
 21
702.0294319605326
 31
0.0
  0
LINE
  5
4BF
330
1F
100
AcDbEntity
  8
0
  6
DASHED
 62
     4
 48
5.0
100
AcDbLine
 10
457.6727645391897
 20
706.0241826167007
 30
0.0
 11
456.6740768751477
 21
706.0241826167007
 31
0.0
  0
LINE
  5
4C0
330
1F
100
AcDbEntity
  8
0
  6
DASHED
 62
     4
 48
5.0
100
AcDbLine
 10
456.6740768751477
 20
706.0241826167007
 30
0.0
 11
456.6740768751477
 21
704.5261511206377
 31
0.0
  0
LINE
  5
4C1
330
1F
100
AcDbEntity
  8
0
  6
DASHED
 62
     4
 48
5.0
100
AcDbLine
 10
455.176045379085
 20
704.5261511206377
 30
0.0
 11
455.176045379085
 21
703.5274634565958
 31
0.0
  0
LINE
  5
4C2
330
1F
100
AcDbEntity
  8
0
  6
DASHED
 62
     4
 48
5.0
100
AcDbLine
 10
456.6740768751477
 20
703.5274634565958
 30
0.0
 11
456.6740768751477
 21
702.0294319605326
 31
0.0
  0
LINE
  5
4C3
330
1F
100
AcDbEntity
  8
0
  6
DASHED
 62
     4
 48
5.0
100
AcDbLine
 10
455.176045379085
 20
703.5274634565958
 30
0.0
 11
456.6740768751477
 21
703.5274634565958
 31
0.0
  0
LINE
  5
4C4
330
1F
100
AcDbEntity
  8
0
  6
DASHED
 62
     4
 48
5.0
100
AcDbLine
 10
456.6740768751477
 20
704.5261511206377
 30
0.0
 11
455.176045379085
 21
704.5261511206377
 31
0.0
  0
LINE
  5
4C5
330
1F
100
AcDbEntity
  8
0
  6
DASHED
 62
     4
 48
5.0
100
AcDbLine
 10
464.2840768751478
 20
706.0241826167007
 30
0.0
 11
464.2840768751478
 21
704.5261511206377
 31
0.0
  0
LINE
  5
4C6
330
1F
100
AcDbEntity
  8
0
  6
DASHED
 62
     4
 48
5.0
100
AcDbLine
 10
457.6727645391897
 20
704.5261511206377
 30
0.0
 11
457.6727645391897
 21
706.0241826167007
 31
0.0
  0
LINE
  5
4C7
330
1F
100
AcDbEntity
  8
0
  6
DASHED
 62
     4
 48
5.0
100
AcDbLine
 10
459.1707960352526
 20
703.5274634565958
 30
0.0
 11
459.1707960352526
 21
704.5261511206377
 31
0.0
  0
LINE
  5
4C8
330
1F
100
AcDbEntity
  8
0
  6
DASHED
 62
     4
 48
5.0
100
AcDbLine
 10
457.6727645391897
 20
702.0294319605326
 30
0.0
 11
457.6727645391897
 21
703.5274634565958
 31
0.0
  0
LINE
  5
4C9
330
1F
100
AcDbEntity
  8
0
  6
DASHED
 62
     4
 48
5.0
100
AcDbLine
 10
457.6727645391897
 20
703.5274634565958
 30
0.0
 11
459.1707960352526
 21
703.5274634565958
 31
0.0
  0
LINE
  5
4CA
330
1F
100
AcDbEntity
  8
0
  6
DASHED
 62
     4
 48
5.0
100
AcDbLine
 10
459.1707960352526
 20
703.5274634565958
 30
0.0
 11
459.1707960352526
 21
703.5274634565958
 31
0.0
  0
LINE
  5
4CB
330
1F
100
AcDbEntity
  8
0
  6
DASHED
 62
     4
 48
5.0
100
AcDbLine
 10
459.1707960352526
 20
704.5261511206377
 30
0.0
 11
457.6727645391897
 21
704.5261511206377
 31
0.0
  0
LINE
  5
4CC
330
1F
100
AcDbEntity
  8
0
  6
DASHED
 62
     4
 48
5.0
100
AcDbLine
 10
462.7860453790852
 20
704.5261511206377
 30
0.0
 11
462.7860453790852
 21
703.5274634565958
 31
0.0
  0
LINE
  5
4CD
330
1F
100
AcDbEntity
  8
0
  6
DASHED
 62
     4
 48
5.0
100
AcDbLine
 10
462.7860453790852
 20
703.5274634565958
 30
0.0
 11
464.2840768751478
 21
703.5274634565958
 31
0.0
  0
LINE
  5
4CE
330
1F
100
AcDbEntity
  8
0
  6
DASHED
 62
     4
 48
5.0
100
AcDbLine
 10
464.2840768751478
 20
703.5274634565958
 30
0.0
 11
464.2840768751478
 21
702.0294319605326
 31
0.0
  0
LINE
  5
4CF
330
1F
100
AcDbEntity
  8
0
  6
DASHED
 62
     4
 48
5.0
100
AcDbLine
 10
464.2840768751478
 20
704.5261511206377
 30
0.0
 11
462.7860453790852
 21
704.5261511206377
 31
0.0
  0
LINE
  5
4D0
330
1F
100
AcDbEntity
  8
0
  6
DASHED
 62
     4
 48
5.0
100
AcDbLine
 10
470.3960453790843
 20
703.5274634565958
 30
0.0
 11
471.8940768751473
 21
703.5274634565958
 31
0.0
  0
LINE
  5
4D1
330
1F
100
AcDbEntity
  8
0
  6
DASHED
 62
     4
 48
5.0
100
AcDbLine
 10
471.8940768751473
 20
704.5261511206377
 30
0.0
 11
470.3960453790843
 21
704.5261511206377
 31
0.0
  0
LINE
  5
4D2
330
1F
100
AcDbEntity
  8
0
  6
DASHED
 62
     4
 48
5.0
100
AcDbLine
 10
465.2827645391891
 20
704.5261511206377
 30
0.0
 11
465.2827645391891
 21
706.0241826167007
 31
0.0
  0
LINE
  5
4D3
330
1F
100
AcDbEntity
  8
0
  6
DASHED
 62
     4
 48
5.0
100
AcDbLine
 10
466.7807960352527
 20
703.5274634565958
 30
0.0
 11
466.7807960352527
 21
704.5261511206377
 31
0.0
  0
LINE
  5
4D4
330
1F
100
AcDbEntity
  8
0
  6
DASHED
 62
     4
 48
5.0
100
AcDbLine
 10
466.7807960352527
 20
703.5274634565958
 30
0.0
 11
466.7807960352527
 21
703.5274634565958
 31
0.0
  0
LINE
  5
4D5
330
1F
100
AcDbEntity
  8
0
  6
DASHED
 62
     4
 48
5.0
100
AcDbLine
 10
465.2827645391891
 20
702.0294319605326
 30
0.0
 11
465.2827645391891
 21
703.5274634565958
 31
0.0
  0
LINE
  5
4D6
330
1F
100
AcDbEntity
  8
0
  6
DASHED
 62
     4
 48
5.0
100
AcDbLine
 10
465.2827645391891
 20
703.5274634565958
 30
0.0
 11
466.7807960352527
 21
703.5274634565958
 31
0.0
  0
LINE
  5
4D7
330
1F
100
AcDbEntity
  8
0
  6
DASHED
 62
     4
 48
5.0
100
AcDbLine
 10
466.7807960352527
 20
704.5261511206377
 30
0.0
 11
465.2827645391891
 21
704.5261511206377
 31
0.0
  0
LINE
  5
4D8
330
1F
100
AcDbEntity
  8
0
  6
DASHED
 62
     4
 48
5.0
100
AcDbLine
 10
470.3960453790843
 20
704.5261511206377
 30
0.0
 11
470.3960453790843
 21
703.5274634565958
 31
0.0
  0
LINE
  5
4D9
330
1F
100
AcDbEntity
  8
0
  6
DASHED
 62
     4
 48
5.0
100
AcDbLine
 10
472.8927645391896
 20
704.5261511206377
 30
0.0
 11
472.8927645391896
 21
706.0241826167007
 31
0.0
  0
LINE
  5
4DA
330
1F
100
AcDbEntity
  8
0
  6
DASHED
 62
     4
 48
5.0
100
AcDbLine
 10
471.8940768751473
 20
706.0241826167007
 30
0.0
 11
471.8940768751473
 21
704.5261511206377
 31
0.0
  0
LINE
  5
4DB
330
1F
100
AcDbEntity
  8
0
  6
DASHED
 62
     4
 48
5.0
100
AcDbLine
 10
474.3907960352522
 20
703.5274634565958
 30
0.0
 11
474.3907960352522
 21
704.5261511206377
 31
0.0
  0
LINE
  5
4DC
330
1F
100
AcDbEntity
  8
0
  6
DASHED
 62
     4
 48
5.0
100
AcDbLine
 10
474.3907960352522
 20
703.5274634565958
 30
0.0
 11
474.3907960352522
 21
703.5274634565958
 31
0.0
  0
LINE
  5
4DD
330
1F
100
AcDbEntity
  8
0
  6
DASHED
 62
     4
 48
5.0
100
AcDbLine
 10
472.8927645391896
 20
702.0294319605326
 30
0.0
 11
472.8927645391896
 21
703.5274634565958
 31
0.0
  0
LINE
  5
4DE
330
1F
100
AcDbEntity
  8
0
  6
DASHED
 62
     4
 48
5.0
100
AcDbLine
 10
471.8940768751473
 20
703.5274634565958
 30
0.0
 11
471.8940768751473
 21
702.0294319605326
 31
0.0
  0
LINE
  5
4DF
330
1F
100
AcDbEntity
  8
0
  6
DASHED
 62
     4
 48
5.0
100
AcDbLine
 10
471.8940768751473
 20
702.0294319605326
 30
0.0
 11
472.8927645391896
 21
702.0294319605326
 31
0.0
  0
LINE
  5
4E0
330
1F
100
AcDbEntity
  8
0
  6
DASHED
 62
     4
 48
5.0
100
AcDbLine
 10
472.8927645391896
 20
703.5274634565958
 30
0.0
 11
474.3907960352522
 21
703.5274634565958
 31
0.0
  0
LINE
  5
4E1
330
1F
100
AcDbEntity
  8
0
  6
DASHED
 62
     4
 48
5.0
100
AcDbLine
 10
474.3907960352522
 20
704.5261511206377
 30
0.0
 11
472.8927645391896
 21
704.5261511206377
 31
0.0
  0
LINE
  5
4E2
330
1F
100
AcDbEntity
  8
0
  6
DASHED
 62
     4
 48
5.0
100
AcDbLine
 10
478.006045379084
 20
704.5261511206377
 30
0.0
 11
478.006045379084
 21
703.5274634565958
 31
0.0
  0
LINE
  5
4E3
330
1F
100
AcDbEntity
  8
0
  6
DASHED
 62
     4
 48
5.0
100
AcDbLine
 10
472.8927645391896
 20
706.0241826167007
 30
0.0
 11
471.8940768751473
 21
706.0241826167007
 31
0.0
  0
LINE
  5
4E4
330
1F
100
AcDbEntity
  8
0
  6
DASHED
 62
     4
 48
5.0
100
AcDbLine
 10
498.290788001131
 20
699.5739965510843
 30
0.0
 11
498.290788001131
 21
709.5608731915038
 31
0.0
  0
LINE
  5
4E5
330
1F
100
AcDbEntity
  8
0
  6
DASHED
 62
     4
 48
5.0
100
AcDbLine
 10
499.6090557176664
 20
699.5739965510843
 30
0.0
 11
499.6090557176664
 21
709.5608731915038
 31
0.0
  0
LINE
  5
4E6
330
1F
100
AcDbEntity
  8
0
  6
DASHED
 62
     4
 48
5.0
100
AcDbLine
 10
505.9007880011302
 20
699.5739965510843
 30
0.0
 11
505.9007880011302
 21
709.5608731915038
 31
0.0
  0
LINE
  5
4E7
330
1F
100
AcDbEntity
  8
0
  6
DASHED
 62
     4
 48
5.0
100
AcDbLine
 10
483.0707880011306
 20
699.5739965510843
 30
0.0
 11
483.0707880011306
 21
709.5608731915038
 31
0.0
  0
LINE
  5
4E8
330
1F
100
AcDbEntity
  8
0
  6
DASHED
 62
     4
 48
5.0
100
AcDbLine
 10
484.389055717667
 20
699.5739965510843
 30
0.0
 11
484.389055717667
 21
709.5608731915038
 31
0.0
  0
LINE
  5
4E9
330
1F
100
AcDbEntity
  8
0
  6
DASHED
 62
     4
 48
5.0
100
AcDbLine
 10
491.9990557176668
 20
699.5739965510843
 30
0.0
 11
491.9990557176668
 21
709.5608731915038
 31
0.0
  0
LINE
  5
4EA
330
1F
100
AcDbEntity
  8
0
  6
DASHED
 62
     4
 48
5.0
100
AcDbLine
 10
490.6807880011307
 20
699.5739965510843
 30
0.0
 11
490.6807880011307
 21
709.5608731915038
 31
0.0
  0
LINE
  5
4EB
330
1F
100
AcDbEntity
  8
0
  6
DASHED
 62
     4
 48
5.0
100
AcDbLine
 10
493.2260453790836
 20
703.5274634565958
 30
0.0
 11
494.7240768751465
 21
703.5274634565958
 31
0.0
  0
LINE
  5
4EC
330
1F
100
AcDbEntity
  8
0
  6
DASHED
 62
     4
 48
5.0
100
AcDbLine
 10
494.7240768751465
 20
704.5261511206377
 30
0.0
 11
493.2260453790836
 21
704.5261511206377
 31
0.0
  0
LINE
  5
4ED
330
1F
100
AcDbEntity
  8
0
  6
DASHED
 62
     4
 48
5.0
100
AcDbLine
 10
485.6160453790836
 20
703.5274634565958
 30
0.0
 11
487.114076875147
 21
703.5274634565958
 31
0.0
  0
LINE
  5
4EE
330
1F
100
AcDbEntity
  8
0
  6
DASHED
 62
     4
 48
5.0
100
AcDbLine
 10
487.114076875147
 20
704.5261511206377
 30
0.0
 11
485.6160453790836
 21
704.5261511206377
 31
0.0
  0
LINE
  5
4EF
330
1F
100
AcDbEntity
  8
0
  6
DASHED
 62
     4
 48
5.0
100
AcDbLine
 10
480.502764539189
 20
704.5261511206377
 30
0.0
 11
480.502764539189
 21
706.0241826167007
 31
0.0
  0
LINE
  5
4F0
330
1F
100
AcDbEntity
  8
0
  6
DASHED
 62
     4
 48
5.0
100
AcDbLine
 10
479.5040768751476
 20
706.0241826167007
 30
0.0
 11
479.5040768751476
 21
704.5261511206377
 31
0.0
  0
LINE
  5
4F1
330
1F
100
AcDbEntity
  8
0
  6
DASHED
 62
     4
 48
5.0
100
AcDbLine
 10
482.0007960352516
 20
703.5274634565958
 30
0.0
 11
482.0007960352516
 21
704.5261511206377
 31
0.0
  0
LINE
  5
4F2
330
1F
100
AcDbEntity
  8
0
  6
DASHED
 62
     4
 48
5.0
100
AcDbLine
 10
482.0007960352516
 20
703.5274634565958
 30
0.0
 11
482.0007960352516
 21
703.5274634565958
 31
0.0
  0
LINE
  5
4F3
330
1F
100
AcDbEntity
  8
0
  6
DASHED
 62
     4
 48
5.0
100
AcDbLine
 10
479.5040768751476
 20
703.5274634565958
 30
0.0
 11
479.5040768751476
 21
702.0294319605326
 31
0.0
  0
LINE
  5
4F4
330
1F
100
AcDbEntity
  8
0
  6
DASHED
 62
     4
 48
5.0
100
AcDbLine
 10
479.5040768751476
 20
702.0294319605326
 30
0.0
 11
480.502764539189
 21
702.0294319605326
 31
0.0
  0
LINE
  5
4F5
330
1F
100
AcDbEntity
  8
0
  6
DASHED
 62
     4
 48
5.0
100
AcDbLine
 10
480.502764539189
 20
702.0294319605326
 30
0.0
 11
480.502764539189
 21
703.5274634565958
 31
0.0
  0
LINE
  5
4F6
330
1F
100
AcDbEntity
  8
0
  6
DASHED
 62
     4
 48
5.0
100
AcDbLine
 10
480.502764539189
 20
703.5274634565958
 30
0.0
 11
482.0007960352516
 21
703.5274634565958
 31
0.0
  0
LINE
  5
4F7
330
1F
100
AcDbEntity
  8
0
  6
DASHED
 62
     4
 48
5.0
100
AcDbLine
 10
482.0007960352516
 20
704.5261511206377
 30
0.0
 11
480.502764539189
 21
704.5261511206377
 31
0.0
  0
LINE
  5
4F8
330
1F
100
AcDbEntity
  8
0
  6
DASHED
 62
     4
 48
5.0
100
AcDbLine
 10
485.6160453790836
 20
704.5261511206377
 30
0.0
 11
485.6160453790836
 21
703.5274634565958
 31
0.0
  0
LINE
  5
4F9
330
1F
100
AcDbEntity
  8
0
  6
DASHED
 62
     4
 48
5.0
100
AcDbLine
 10
480.502764539189
 20
706.0241826167007
 30
0.0
 11
479.5040768751476
 21
706.0241826167007
 31
0.0
  0
LINE
  5
4FA
330
1F
100
AcDbEntity
  8
0
  6
DASHED
 62
     4
 48
5.0
100
AcDbLine
 10
488.1127645391888
 20
704.5261511206377
 30
0.0
 11
488.1127645391888
 21
706.0241826167007
 31
0.0
  0
LINE
  5
4FB
330
1F
100
AcDbEntity
  8
0
  6
DASHED
 62
     4
 48
5.0
100
AcDbLine
 10
487.114076875147
 20
706.0241826167007
 30
0.0
 11
487.114076875147
 21
704.5261511206377
 31
0.0
  0
LINE
  5
4FC
330
1F
100
AcDbEntity
  8
0
  6
DASHED
 62
     4
 48
5.0
100
AcDbLine
 10
489.6107960352518
 20
703.5274634565958
 30
0.0
 11
489.6107960352518
 21
704.5261511206377
 31
0.0
  0
LINE
  5
4FD
330
1F
100
AcDbEntity
  8
0
  6
DASHED
 62
     4
 48
5.0
100
AcDbLine
 10
489.6107960352518
 20
703.5274634565958
 30
0.0
 11
489.6107960352518
 21
703.5274634565958
 31
0.0
  0
LINE
  5
4FE
330
1F
100
AcDbEntity
  8
0
  6
DASHED
 62
     4
 48
5.0
100
AcDbLine
 10
487.114076875147
 20
703.5274634565958
 30
0.0
 11
487.114076875147
 21
702.0294319605326
 31
0.0
  0
LINE
  5
4FF
330
1F
100
AcDbEntity
  8
0
  6
DASHED
 62
     4
 48
5.0
100
AcDbLine
 10
487.114076875147
 20
702.0294319605326
 30
0.0
 11
488.1127645391888
 21
702.0294319605326
 31
0.0
  0
LINE
  5
500
330
1F
100
AcDbEntity
  8
0
  6
DASHED
 62
     4
 48
5.0
100
AcDbLine
 10
488.1127645391888
 20
702.0294319605326
 30
0.0
 11
488.1127645391888
 21
703.5274634565958
 31
0.0
  0
LINE
  5
501
330
1F
100
AcDbEntity
  8
0
  6
DASHED
 62
     4
 48
5.0
100
AcDbLine
 10
489.6107960352518
 20
704.5261511206377
 30
0.0
 11
488.1127645391888
 21
704.5261511206377
 31
0.0
  0
LINE
  5
502
330
1F
100
AcDbEntity
  8
0
  6
DASHED
 62
     4
 48
5.0
100
AcDbLine
 10
488.1127645391888
 20
703.5274634565958
 30
0.0
 11
489.6107960352518
 21
703.5274634565958
 31
0.0
  0
LINE
  5
503
330
1F
100
AcDbEntity
  8
0
  6
DASHED
 62
     4
 48
5.0
100
AcDbLine
 10
493.2260453790836
 20
704.5261511206377
 30
0.0
 11
493.2260453790836
 21
703.5274634565958
 31
0.0
  0
LINE
  5
504
330
1F
100
AcDbEntity
  8
0
  6
DASHED
 62
     4
 48
5.0
100
AcDbLine
 10
488.1127645391888
 20
706.0241826167007
 30
0.0
 11
487.114076875147
 21
706.0241826167007
 31
0.0
  0
LINE
  5
505
330
1F
100
AcDbEntity
  8
0
  6
DASHED
 62
     4
 48
5.0
100
AcDbLine
 10
500.8360453790832
 20
703.5274634565958
 30
0.0
 11
502.334076875146
 21
703.5274634565958
 31
0.0
  0
LINE
  5
506
330
1F
100
AcDbEntity
  8
0
  6
DASHED
 62
     4
 48
5.0
100
AcDbLine
 10
502.334076875146
 20
704.5261511206377
 30
0.0
 11
500.8360453790832
 21
704.5261511206377
 31
0.0
  0
LINE
  5
507
330
1F
100
AcDbEntity
  8
0
  6
DASHED
 62
     4
 48
5.0
100
AcDbLine
 10
495.7227645391886
 20
704.5261511206377
 30
0.0
 11
495.7227645391886
 21
706.0241826167007
 31
0.0
  0
LINE
  5
508
330
1F
100
AcDbEntity
  8
0
  6
DASHED
 62
     4
 48
5.0
100
AcDbLine
 10
494.7240768751465
 20
706.0241826167007
 30
0.0
 11
494.7240768751465
 21
704.5261511206377
 31
0.0
  0
LINE
  5
509
330
1F
100
AcDbEntity
  8
0
  6
DASHED
 62
     4
 48
5.0
100
AcDbLine
 10
497.2207960352514
 20
703.5274634565958
 30
0.0
 11
497.2207960352514
 21
704.5261511206377
 31
0.0
  0
LINE
  5
50A
330
1F
100
AcDbEntity
  8
0
  6
DASHED
 62
     4
 48
5.0
100
AcDbLine
 10
497.2207960352514
 20
703.5274634565958
 30
0.0
 11
497.2207960352514
 21
703.5274634565958
 31
0.0
  0
LINE
  5
50B
330
1F
100
AcDbEntity
  8
0
  6
DASHED
 62
     4
 48
5.0
100
AcDbLine
 10
494.7240768751465
 20
703.5274634565958
 30
0.0
 11
494.7240768751465
 21
702.0294319605326
 31
0.0
  0
LINE
  5
50C
330
1F
100
AcDbEntity
  8
0
  6
DASHED
 62
     4
 48
5.0
100
AcDbLine
 10
494.7240768751465
 20
702.0294319605326
 30
0.0
 11
495.7227645391886
 21
702.0294319605326
 31
0.0
  0
LINE
  5
50D
330
1F
100
AcDbEntity
  8
0
  6
DASHED
 62
     4
 48
5.0
100
AcDbLine
 10
495.7227645391886
 20
702.0294319605326
 30
0.0
 11
495.7227645391886
 21
703.5274634565958
 31
0.0
  0
LINE
  5
50E
330
1F
100
AcDbEntity
  8
0
  6
DASHED
 62
     4
 48
5.0
100
AcDbLine
 10
495.7227645391886
 20
703.5274634565958
 30
0.0
 11
497.2207960352514
 21
703.5274634565958
 31
0.0
  0
LINE
  5
50F
330
1F
100
AcDbEntity
  8
0
  6
DASHED
 62
     4
 48
5.0
100
AcDbLine
 10
497.2207960352514
 20
704.5261511206377
 30
0.0
 11
495.7227645391886
 21
704.5261511206377
 31
0.0
  0
LINE
  5
510
330
1F
100
AcDbEntity
  8
0
  6
DASHED
 62
     4
 48
5.0
100
AcDbLine
 10
500.8360453790832
 20
704.5261511206377
 30
0.0
 11
500.8360453790832
 21
703.5274634565958
 31
0.0
  0
LINE
  5
511
330
1F
100
AcDbEntity
  8
0
  6
DASHED
 62
     4
 48
5.0
100
AcDbLine
 10
495.7227645391886
 20
706.0241826167007
 30
0.0
 11
494.7240768751465
 21
706.0241826167007
 31
0.0
  0
LINE
  5
512
330
1F
100
AcDbEntity
  8
0
  6
DASHED
 62
     4
 48
5.0
100
AcDbLine
 10
503.3327645391881
 20
704.5261511206377
 30
0.0
 11
503.3327645391881
 21
706.0241826167007
 31
0.0
  0
LINE
  5
513
330
1F
100
AcDbEntity
  8
0
  6
DASHED
 62
     4
 48
5.0
100
AcDbLine
 10
502.334076875146
 20
706.0241826167007
 30
0.0
 11
502.334076875146
 21
704.5261511206377
 31
0.0
  0
LINE
  5
514
330
1F
100
AcDbEntity
  8
0
  6
DASHED
 62
     4
 48
5.0
100
AcDbLine
 10
504.8307960352511
 20
704.5261511206377
 30
0.0
 11
503.3327645391881
 21
704.5261511206377
 31
0.0
  0
LINE
  5
515
330
1F
100
AcDbEntity
  8
0
  6
DASHED
 62
     4
 48
5.0
100
AcDbLine
 10
503.3327645391881
 20
703.5274634565958
 30
0.0
 11
504.8307960352511
 21
703.5274634565958
 31
0.0
  0
LINE
  5
516
330
1F
100
AcDbEntity
  8
0
  6
DASHED
 62
     4
 48
5.0
100
AcDbLine
 10
503.3327645391881
 20
702.0294319605326
 30
0.0
 11
503.3327645391881
 21
703.5274634565958
 31
0.0
  0
LINE
  5
517
330
1F
100
AcDbEntity
  8
0
  6
DASHED
 62
     4
 48
5.0
100
AcDbLine
 10
502.334076875146
 20
703.5274634565958
 30
0.0
 11
502.334076875146
 21
702.0294319605326
 31
0.0
  0
LINE
  5
518
330
1F
100
AcDbEntity
  8
0
  6
DASHED
 62
     4
 48
5.0
100
AcDbLine
 10
502.334076875146
 20
702.0294319605326
 30
0.0
 11
503.3327645391881
 21
702.0294319605326
 31
0.0
  0
LINE
  5
519
330
1F
100
AcDbEntity
  8
0
  6
DASHED
 62
     4
 48
5.0
100
AcDbLine
 10
504.8307960352511
 20
703.5274634565958
 30
0.0
 11
504.8307960352511
 21
704.5261511206377
 31
0.0
  0
LINE
  5
51A
330
1F
100
AcDbEntity
  8
0
  6
DASHED
 62
     4
 48
5.0
100
AcDbLine
 10
504.8307960352511
 20
703.5274634565958
 30
0.0
 11
504.8307960352511
 21
703.5274634565958
 31
0.0
  0
LINE
  5
51B
330
1F
100
AcDbEntity
  8
0
  6
DASHED
 62
     4
 48
5.0
100
AcDbLine
 10
503.3327645391881
 20
706.0241826167007
 30
0.0
 11
502.334076875146
 21
706.0241826167007
 31
0.0
  0
CIRCLE
  5
51C
330
1F
100
AcDbEntity
  8
0
  6
Continuous
 62
     7
100
AcDbCircle
 10
554.3660845506162
 20
678.2539578105991
 30
0.0
 40
2.002000506356556
  0
CIRCLE
  5
51D
330
1F
100
AcDbEntity
  8
0
  6
Continuous
 62
     7
100
AcDbCircle
 10
554.3660304965627
 20
657.8335373901782
 30
0.0
 40
2.002000506356556
  0
CIRCLE
  5
51E
330
1F
100
AcDbEntity
  8
0
  6
Continuous
 62
     7
100
AcDbCircle
 10
554.3661746407068
 20
640.09579965244
 30
0.0
 40
2.002000506356556
  0
CIRCLE
  5
51F
330
1F
100
AcDbEntity
  8
0
  6
Continuous
 62
     7
100
AcDbCircle
 10
554.366126592659
 20
645.200904757545
 30
0.0
 40
2.002000506356556
  0
CIRCLE
  5
520
330
1F
100
AcDbEntity
  8
0
  6
Continuous
 62
     7
100
AcDbCircle
 10
554.3660785446103
 20
650.306009862651
 30
0.0
 40
2.002000506356785
  0
CIRCLE
  5
521
330
1F
100
AcDbEntity
  8
0
  6
Continuous
 62
     7
100
AcDbCircle
 10
554.3660565225893
 20
668.0437476003892
 30
0.0
 40
2.002000506356785
  0
CIRCLE
  5
522
330
1F
100
AcDbEntity
  8
0
  6
Continuous
 62
     7
100
AcDbCircle
 10
554.3660445105773
 20
662.9386424952834
 30
0.0
 40
2.002000506356671
  0
CIRCLE
  5
523
330
1F
100
AcDbEntity
  8
0
  6
Continuous
 62
     7
100
AcDbCircle
 10
554.3660705366025
 20
673.148852705494
 30
0.0
 40
2.002000506356671
  0
LINE
  5
524
330
1F
100
AcDbEntity
  8
0
  6
DASHED
 62
     4
 48
5.0
100
AcDbLine
 10
528.7307880011302
 20
699.5739965510843
 30
0.0
 11
528.7307880011302
 21
709.5608731915038
 31
0.0
  0
LINE
  5
525
330
1F
100
AcDbEntity
  8
0
  6
DASHED
 62
     4
 48
5.0
100
AcDbLine
 10
530.0490557176657
 20
699.5739965510843
 30
0.0
 11
530.0490557176657
 21
709.5608731915038
 31
0.0
  0
LINE
  5
526
330
1F
100
AcDbEntity
  8
0
  6
DASHED
 62
     4
 48
5.0
100
AcDbLine
 10
536.3407880011298
 20
699.5739965510843
 30
0.0
 11
536.3407880011298
 21
709.5608731915038
 31
0.0
  0
LINE
  5
527
330
1F
100
AcDbEntity
  8
0
  6
DASHED
 62
     4
 48
5.0
100
AcDbLine
 10
537.6590557176658
 20
699.5739965510843
 30
0.0
 11
537.6590557176658
 21
709.5608731915038
 31
0.0
  0
LINE
  5
528
330
1F
100
AcDbEntity
  8
0
  6
DASHED
 62
     4
 48
5.0
100
AcDbLine
 10
513.510788001131
 20
699.5739965510843
 30
0.0
 11
513.510788001131
 21
709.5608731915038
 31
0.0
  0
LINE
  5
529
330
1F
100
AcDbEntity
  8
0
  6
DASHED
 62
     4
 48
5.0
100
AcDbLine
 10
514.829055717666
 20
699.5739965510843
 30
0.0
 11
514.829055717666
 21
709.5608731915038
 31
0.0
  0
LINE
  5
52A
330
1F
100
AcDbEntity
  8
0
  6
DASHED
 62
     4
 48
5.0
100
AcDbLine
 10
521.1207880011305
 20
699.5739965510843
 30
0.0
 11
521.1207880011305
 21
709.5608731915038
 31
0.0
  0
LINE
  5
52B
330
1F
100
AcDbEntity
  8
0
  6
DASHED
 62
     4
 48
5.0
100
AcDbLine
 10
522.439055717666
 20
699.5739965510843
 30
0.0
 11
522.439055717666
 21
709.5608731915038
 31
0.0
  0
LINE
  5
52C
330
1F
100
AcDbEntity
  8
0
  6
DASHED
 62
     4
 48
5.0
100
AcDbLine
 10
510.9427645391881
 20
704.5261511206377
 30
0.0
 11
510.9427645391881
 21
706.0241826167007
 31
0.0
  0
LINE
  5
52D
330
1F
100
AcDbEntity
  8
0
  6
DASHED
 62
     4
 48
5.0
100
AcDbLine
 10
509.9440768751462
 20
706.0241826167007
 30
0.0
 11
509.9440768751462
 21
704.5261511206377
 31
0.0
  0
LINE
  5
52E
330
1F
100
AcDbEntity
  8
0
  6
DASHED
 62
     4
 48
5.0
100
AcDbLine
 10
510.9427645391881
 20
703.5274634565958
 30
0.0
 11
512.440796035251
 21
703.5274634565958
 31
0.0
  0
LINE
  5
52F
330
1F
100
AcDbEntity
  8
0
  6
DASHED
 62
     4
 48
5.0
100
AcDbLine
 10
512.440796035251
 20
704.5261511206377
 30
0.0
 11
510.9427645391881
 21
704.5261511206377
 31
0.0
  0
LINE
  5
530
330
1F
100
AcDbEntity
  8
0
  6
DASHED
 62
     4
 48
5.0
100
AcDbLine
 10
510.9427645391881
 20
702.0294319605326
 30
0.0
 11
510.9427645391881
 21
703.5274634565958
 31
0.0
  0
LINE
  5
531
330
1F
100
AcDbEntity
  8
0
  6
DASHED
 62
     4
 48
5.0
100
AcDbLine
 10
508.4460453790834
 20
704.5261511206377
 30
0.0
 11
508.4460453790834
 21
703.5274634565958
 31
0.0
  0
LINE
  5
532
330
1F
100
AcDbEntity
  8
0
  6
DASHED
 62
     4
 48
5.0
100
AcDbLine
 10
508.4460453790834
 20
703.5274634565958
 30
0.0
 11
509.9440768751462
 21
703.5274634565958
 31
0.0
  0
LINE
  5
533
330
1F
100
AcDbEntity
  8
0
  6
DASHED
 62
     4
 48
5.0
100
AcDbLine
 10
509.9440768751462
 20
703.5274634565958
 30
0.0
 11
509.9440768751462
 21
702.0294319605326
 31
0.0
  0
LINE
  5
534
330
1F
100
AcDbEntity
  8
0
  6
DASHED
 62
     4
 48
5.0
100
AcDbLine
 10
509.9440768751462
 20
704.5261511206377
 30
0.0
 11
508.4460453790834
 21
704.5261511206377
 31
0.0
  0
LINE
  5
535
330
1F
100
AcDbEntity
  8
0
  6
DASHED
 62
     4
 48
5.0
100
AcDbLine
 10
509.9440768751462
 20
702.0294319605326
 30
0.0
 11
510.9427645391881
 21
702.0294319605326
 31
0.0
  0
LINE
  5
536
330
1F
100
AcDbEntity
  8
0
  6
DASHED
 62
     4
 48
5.0
100
AcDbLine
 10
512.440796035251
 20
703.5274634565958
 30
0.0
 11
512.440796035251
 21
704.5261511206377
 31
0.0
  0
LINE
  5
537
330
1F
100
AcDbEntity
  8
0
  6
DASHED
 62
     4
 48
5.0
100
AcDbLine
 10
512.440796035251
 20
703.5274634565958
 30
0.0
 11
512.440796035251
 21
703.5274634565958
 31
0.0
  0
LINE
  5
538
330
1F
100
AcDbEntity
  8
0
  6
DASHED
 62
     4
 48
5.0
100
AcDbLine
 10
510.9427645391881
 20
706.0241826167007
 30
0.0
 11
509.9440768751462
 21
706.0241826167007
 31
0.0
  0
LINE
  5
539
330
1F
100
AcDbEntity
  8
0
  6
DASHED
 62
     4
 48
5.0
100
AcDbLine
 10
518.552764539188
 20
704.5261511206377
 30
0.0
 11
518.552764539188
 21
706.0241826167007
 31
0.0
  0
LINE
  5
53A
330
1F
100
AcDbEntity
  8
0
  6
DASHED
 62
     4
 48
5.0
100
AcDbLine
 10
517.5540768751464
 20
706.0241826167007
 30
0.0
 11
517.5540768751464
 21
704.5261511206377
 31
0.0
  0
LINE
  5
53B
330
1F
100
AcDbEntity
  8
0
  6
DASHED
 62
     4
 48
5.0
100
AcDbLine
 10
520.0507960352508
 20
704.5261511206377
 30
0.0
 11
518.552764539188
 21
704.5261511206377
 31
0.0
  0
LINE
  5
53C
330
1F
100
AcDbEntity
  8
0
  6
DASHED
 62
     4
 48
5.0
100
AcDbLine
 10
518.552764539188
 20
703.5274634565958
 30
0.0
 11
520.0507960352508
 21
703.5274634565958
 31
0.0
  0
LINE
  5
53D
330
1F
100
AcDbEntity
  8
0
  6
DASHED
 62
     4
 48
5.0
100
AcDbLine
 10
518.552764539188
 20
702.0294319605326
 30
0.0
 11
518.552764539188
 21
703.5274634565958
 31
0.0
  0
LINE
  5
53E
330
1F
100
AcDbEntity
  8
0
  6
DASHED
 62
     4
 48
5.0
100
AcDbLine
 10
516.056045379083
 20
704.5261511206377
 30
0.0
 11
516.056045379083
 21
703.5274634565958
 31
0.0
  0
LINE
  5
53F
330
1F
100
AcDbEntity
  8
0
  6
DASHED
 62
     4
 48
5.0
100
AcDbLine
 10
516.056045379083
 20
703.5274634565958
 30
0.0
 11
517.5540768751464
 21
703.5274634565958
 31
0.0
  0
LINE
  5
540
330
1F
100
AcDbEntity
  8
0
  6
DASHED
 62
     4
 48
5.0
100
AcDbLine
 10
517.5540768751464
 20
703.5274634565958
 30
0.0
 11
517.5540768751464
 21
702.0294319605326
 31
0.0
  0
LINE
  5
541
330
1F
100
AcDbEntity
  8
0
  6
DASHED
 62
     4
 48
5.0
100
AcDbLine
 10
517.5540768751464
 20
704.5261511206377
 30
0.0
 11
516.056045379083
 21
704.5261511206377
 31
0.0
  0
LINE
  5
542
330
1F
100
AcDbEntity
  8
0
  6
DASHED
 62
     4
 48
5.0
100
AcDbLine
 10
517.5540768751464
 20
702.0294319605326
 30
0.0
 11
518.552764539188
 21
702.0294319605326
 31
0.0
  0
LINE
  5
543
330
1F
100
AcDbEntity
  8
0
  6
DASHED
 62
     4
 48
5.0
100
AcDbLine
 10
520.0507960352508
 20
703.5274634565958
 30
0.0
 11
520.0507960352508
 21
704.5261511206377
 31
0.0
  0
LINE
  5
544
330
1F
100
AcDbEntity
  8
0
  6
DASHED
 62
     4
 48
5.0
100
AcDbLine
 10
520.0507960352508
 20
703.5274634565958
 30
0.0
 11
520.0507960352508
 21
703.5274634565958
 31
0.0
  0
LINE
  5
545
330
1F
100
AcDbEntity
  8
0
  6
DASHED
 62
     4
 48
5.0
100
AcDbLine
 10
518.552764539188
 20
706.0241826167007
 30
0.0
 11
517.5540768751464
 21
706.0241826167007
 31
0.0
  0
LINE
  5
546
330
1F
100
AcDbEntity
  8
0
  6
DASHED
 62
     4
 48
5.0
100
AcDbLine
 10
526.1627645391873
 20
704.5261511206377
 30
0.0
 11
526.1627645391873
 21
706.0241826167007
 31
0.0
  0
LINE
  5
547
330
1F
100
AcDbEntity
  8
0
  6
DASHED
 62
     4
 48
5.0
100
AcDbLine
 10
525.164076875146
 20
706.0241826167007
 30
0.0
 11
525.164076875146
 21
704.5261511206377
 31
0.0
  0
LINE
  5
548
330
1F
100
AcDbEntity
  8
0
  6
DASHED
 62
     4
 48
5.0
100
AcDbLine
 10
526.1627645391873
 20
703.5274634565958
 30
0.0
 11
527.6607960352503
 21
703.5274634565958
 31
0.0
  0
LINE
  5
549
330
1F
100
AcDbEntity
  8
0
  6
DASHED
 62
     4
 48
5.0
100
AcDbLine
 10
527.6607960352503
 20
704.5261511206377
 30
0.0
 11
526.1627645391873
 21
704.5261511206377
 31
0.0
  0
LINE
  5
54A
330
1F
100
AcDbEntity
  8
0
  6
DASHED
 62
     4
 48
5.0
100
AcDbLine
 10
526.1627645391873
 20
702.0294319605326
 30
0.0
 11
526.1627645391873
 21
703.5274634565958
 31
0.0
  0
LINE
  5
54B
330
1F
100
AcDbEntity
  8
0
  6
DASHED
 62
     4
 48
5.0
100
AcDbLine
 10
523.666045379083
 20
704.5261511206377
 30
0.0
 11
523.666045379083
 21
703.5274634565958
 31
0.0
  0
LINE
  5
54C
330
1F
100
AcDbEntity
  8
0
  6
DASHED
 62
     4
 48
5.0
100
AcDbLine
 10
523.666045379083
 20
703.5274634565958
 30
0.0
 11
525.164076875146
 21
703.5274634565958
 31
0.0
  0
LINE
  5
54D
330
1F
100
AcDbEntity
  8
0
  6
DASHED
 62
     4
 48
5.0
100
AcDbLine
 10
525.164076875146
 20
703.5274634565958
 30
0.0
 11
525.164076875146
 21
702.0294319605326
 31
0.0
  0
LINE
  5
54E
330
1F
100
AcDbEntity
  8
0
  6
DASHED
 62
     4
 48
5.0
100
AcDbLine
 10
525.164076875146
 20
704.5261511206377
 30
0.0
 11
523.666045379083
 21
704.5261511206377
 31
0.0
  0
LINE
  5
54F
330
1F
100
AcDbEntity
  8
0
  6
DASHED
 62
     4
 48
5.0
100
AcDbLine
 10
525.164076875146
 20
702.0294319605326
 30
0.0
 11
526.1627645391873
 21
702.0294319605326
 31
0.0
  0
LINE
  5
550
330
1F
100
AcDbEntity
  8
0
  6
DASHED
 62
     4
 48
5.0
100
AcDbLine
 10
527.6607960352503
 20
703.5274634565958
 30
0.0
 11
527.6607960352503
 21
704.5261511206377
 31
0.0
  0
LINE
  5
551
330
1F
100
AcDbEntity
  8
0
  6
DASHED
 62
     4
 48
5.0
100
AcDbLine
 10
527.6607960352503
 20
703.5274634565958
 30
0.0
 11
527.6607960352503
 21
703.5274634565958
 31
0.0
  0
LINE
  5
552
330
1F
100
AcDbEntity
  8
0
  6
DASHED
 62
     4
 48
5.0
100
AcDbLine
 10
526.1627645391873
 20
706.0241826167007
 30
0.0
 11
525.164076875146
 21
706.0241826167007
 31
0.0
  0
LINE
  5
553
330
1F
100
AcDbEntity
  8
0
  6
DASHED
 62
     4
 48
5.0
100
AcDbLine
 10
532.7740768751453
 20
706.0241826167007
 30
0.0
 11
532.7740768751453
 21
704.5261511206377
 31
0.0
  0
LINE
  5
554
330
1F
100
AcDbEntity
  8
0
  6
DASHED
 62
     4
 48
5.0
100
AcDbLine
 10
533.7727645391874
 20
704.5261511206377
 30
0.0
 11
533.7727645391874
 21
706.0241826167007
 31
0.0
  0
LINE
  5
555
330
1F
100
AcDbEntity
  8
0
  6
DASHED
 62
     4
 48
5.0
100
AcDbLine
 10
533.7727645391874
 20
703.5274634565958
 30
0.0
 11
535.2707960352502
 21
703.5274634565958
 31
0.0
  0
LINE
  5
556
330
1F
100
AcDbEntity
  8
0
  6
DASHED
 62
     4
 48
5.0
100
AcDbLine
 10
535.2707960352502
 20
704.5261511206377
 30
0.0
 11
533.7727645391874
 21
704.5261511206377
 31
0.0
  0
LINE
  5
557
330
1F
100
AcDbEntity
  8
0
  6
DASHED
 62
     4
 48
5.0
100
AcDbLine
 10
532.7740768751453
 20
702.0294319605326
 30
0.0
 11
533.7727645391874
 21
702.0294319605326
 31
0.0
  0
LINE
  5
558
330
1F
100
AcDbEntity
  8
0
  6
DASHED
 62
     4
 48
5.0
100
AcDbLine
 10
532.7740768751453
 20
703.5274634565958
 30
0.0
 11
532.7740768751453
 21
702.0294319605326
 31
0.0
  0
LINE
  5
559
330
1F
100
AcDbEntity
  8
0
  6
DASHED
 62
     4
 48
5.0
100
AcDbLine
 10
533.7727645391874
 20
702.0294319605326
 30
0.0
 11
533.7727645391874
 21
703.5274634565958
 31
0.0
  0
LINE
  5
55A
330
1F
100
AcDbEntity
  8
0
  6
DASHED
 62
     4
 48
5.0
100
AcDbLine
 10
531.2760453790827
 20
704.5261511206377
 30
0.0
 11
531.2760453790827
 21
703.5274634565958
 31
0.0
  0
LINE
  5
55B
330
1F
100
AcDbEntity
  8
0
  6
DASHED
 62
     4
 48
5.0
100
AcDbLine
 10
531.2760453790827
 20
703.5274634565958
 30
0.0
 11
532.7740768751453
 21
703.5274634565958
 31
0.0
  0
LINE
  5
55C
330
1F
100
AcDbEntity
  8
0
  6
DASHED
 62
     4
 48
5.0
100
AcDbLine
 10
532.7740768751453
 20
704.5261511206377
 30
0.0
 11
531.2760453790827
 21
704.5261511206377
 31
0.0
  0
LINE
  5
55D
330
1F
100
AcDbEntity
  8
0
  6
DASHED
 62
     4
 48
5.0
100
AcDbLine
 10
535.2707960352502
 20
703.5274634565958
 30
0.0
 11
535.2707960352502
 21
704.5261511206377
 31
0.0
  0
LINE
  5
55E
330
1F
100
AcDbEntity
  8
0
  6
DASHED
 62
     4
 48
5.0
100
AcDbLine
 10
535.2707960352502
 20
703.5274634565958
 30
0.0
 11
535.2707960352502
 21
703.5274634565958
 31
0.0
  0
LINE
  5
55F
330
1F
100
AcDbEntity
  8
0
  6
DASHED
 62
     4
 48
5.0
100
AcDbLine
 10
533.7727645391874
 20
706.0241826167007
 30
0.0
 11
532.7740768751453
 21
706.0241826167007
 31
0.0
  0
LINE
  5
560
330
1F
100
AcDbEntity
  8
0
  6
DASHED
 62
     4
 48
5.0
100
AcDbLine
 10
543.95078800113
 20
699.5739965510843
 30
0.0
 11
543.95078800113
 21
709.5608731915038
 31
0.0
  0
LINE
  5
561
330
1F
100
AcDbEntity
  8
0
  6
DASHED
 62
     4
 48
5.0
100
AcDbLine
 10
545.2690557176656
 20
699.5739965510843
 30
0.0
 11
545.2690557176656
 21
709.5608731915038
 31
0.0
  0
LINE
  5
562
330
1F
100
AcDbEntity
  8
0
  6
DASHED
 62
     4
 48
5.0
100
AcDbLine
 10
551.5607880011294
 20
699.5739965510843
 30
0.0
 11
551.5607880011294
 21
709.5608731915038
 31
0.0
  0
CIRCLE
  5
563
330
1F
100
AcDbEntity
  8
0
  6
Continuous
 62
     7
100
AcDbCircle
 10
554.3660965626294
 20
683.359062915705
 30
0.0
 40
2.002000506356785
  0
LINE
  5
564
330
1F
100
AcDbEntity
  8
0
  6
DASHED
 62
     4
 48
5.0
100
AcDbLine
 10
540.3840768751445
 20
706.0241826167007
 30
0.0
 11
540.3840768751445
 21
704.5261511206377
 31
0.0
  0
LINE
  5
565
330
1F
100
AcDbEntity
  8
0
  6
DASHED
 62
     4
 48
5.0
100
AcDbLine
 10
541.3827645391868
 20
704.5261511206377
 30
0.0
 11
541.3827645391868
 21
706.0241826167007
 31
0.0
  0
LINE
  5
566
330
1F
100
AcDbEntity
  8
0
  6
DASHED
 62
     4
 48
5.0
100
AcDbLine
 10
541.3827645391868
 20
703.5274634565958
 30
0.0
 11
542.8807960352497
 21
703.5274634565958
 31
0.0
  0
LINE
  5
567
330
1F
100
AcDbEntity
  8
0
  6
DASHED
 62
     4
 48
5.0
100
AcDbLine
 10
542.8807960352497
 20
704.5261511206377
 30
0.0
 11
541.3827645391868
 21
704.5261511206377
 31
0.0
  0
LINE
  5
568
330
1F
100
AcDbEntity
  8
0
  6
DASHED
 62
     4
 48
5.0
100
AcDbLine
 10
540.3840768751445
 20
702.0294319605326
 30
0.0
 11
541.3827645391868
 21
702.0294319605326
 31
0.0
  0
LINE
  5
569
330
1F
100
AcDbEntity
  8
0
  6
DASHED
 62
     4
 48
5.0
100
AcDbLine
 10
540.3840768751445
 20
703.5274634565958
 30
0.0
 11
540.3840768751445
 21
702.0294319605326
 31
0.0
  0
LINE
  5
56A
330
1F
100
AcDbEntity
  8
0
  6
DASHED
 62
     4
 48
5.0
100
AcDbLine
 10
541.3827645391868
 20
702.0294319605326
 30
0.0
 11
541.3827645391868
 21
703.5274634565958
 31
0.0
  0
LINE
  5
56B
330
1F
100
AcDbEntity
  8
0
  6
DASHED
 62
     4
 48
5.0
100
AcDbLine
 10
538.8860453790823
 20
704.5261511206377
 30
0.0
 11
538.8860453790823
 21
703.5274634565958
 31
0.0
  0
LINE
  5
56C
330
1F
100
AcDbEntity
  8
0
  6
DASHED
 62
     4
 48
5.0
100
AcDbLine
 10
538.8860453790823
 20
703.5274634565958
 30
0.0
 11
540.3840768751445
 21
703.5274634565958
 31
0.0
  0
LINE
  5
56D
330
1F
100
AcDbEntity
  8
0
  6
DASHED
 62
     4
 48
5.0
100
AcDbLine
 10
540.3840768751445
 20
704.5261511206377
 30
0.0
 11
538.8860453790823
 21
704.5261511206377
 31
0.0
  0
LINE
  5
56E
330
1F
100
AcDbEntity
  8
0
  6
DASHED
 62
     4
 48
5.0
100
AcDbLine
 10
542.8807960352497
 20
703.5274634565958
 30
0.0
 11
542.8807960352497
 21
704.5261511206377
 31
0.0
  0
LINE
  5
56F
330
1F
100
AcDbEntity
  8
0
  6
DASHED
 62
     4
 48
5.0
100
AcDbLine
 10
542.8807960352497
 20
703.5274634565958
 30
0.0
 11
542.8807960352497
 21
703.5274634565958
 31
0.0
  0
LINE
  5
570
330
1F
100
AcDbEntity
  8
0
  6
DASHED
 62
     4
 48
5.0
100
AcDbLine
 10
541.3827645391868
 20
706.0241826167007
 30
0.0
 11
540.3840768751445
 21
706.0241826167007
 31
0.0
  0
LINE
  5
571
330
1F
100
AcDbEntity
  8
0
  6
DASHED
 62
     4
 48
5.0
100
AcDbLine
 10
547.9940768751445
 20
706.0241826167007
 30
0.0
 11
547.9940768751445
 21
704.5261511206377
 31
0.0
  0
LINE
  5
572
330
1F
100
AcDbEntity
  8
0
  6
DASHED
 62
     4
 48
5.0
100
AcDbLine
 10
548.9927645391863
 20
704.5261511206377
 30
0.0
 11
548.9927645391863
 21
706.0241826167007
 31
0.0
  0
LINE
  5
573
330
1F
100
AcDbEntity
  8
0
  6
DASHED
 62
     4
 48
5.0
100
AcDbLine
 10
547.9940768751445
 20
702.0294319605326
 30
0.0
 11
548.9927645391863
 21
702.0294319605326
 31
0.0
  0
LINE
  5
574
330
1F
100
AcDbEntity
  8
0
  6
DASHED
 62
     4
 48
5.0
100
AcDbLine
 10
547.9940768751445
 20
703.5274634565958
 30
0.0
 11
547.9940768751445
 21
702.0294319605326
 31
0.0
  0
LINE
  5
575
330
1F
100
AcDbEntity
  8
0
  6
DASHED
 62
     4
 48
5.0
100
AcDbLine
 10
546.4960453790821
 20
704.5261511206377
 30
0.0
 11
546.4960453790821
 21
703.5274634565958
 31
0.0
  0
LINE
  5
576
330
1F
100
AcDbEntity
  8
0
  6
DASHED
 62
     4
 48
5.0
100
AcDbLine
 10
546.4960453790821
 20
703.5274634565958
 30
0.0
 11
547.9940768751445
 21
703.5274634565958
 31
0.0
  0
LINE
  5
577
330
1F
100
AcDbEntity
  8
0
  6
DASHED
 62
     4
 48
5.0
100
AcDbLine
 10
547.9940768751445
 20
704.5261511206377
 30
0.0
 11
546.4960453790821
 21
704.5261511206377
 31
0.0
  0
LINE
  5
578
330
1F
100
AcDbEntity
  8
0
  6
DASHED
 62
     4
 48
5.0
100
AcDbLine
 10
550.4907960352501
 20
703.5274634565958
 30
0.0
 11
550.4907960352501
 21
704.5261511206377
 31
0.0
  0
LINE
  5
579
330
1F
100
AcDbEntity
  8
0
  6
DASHED
 62
     4
 48
5.0
100
AcDbLine
 10
548.9927645391863
 20
702.0294319605326
 30
0.0
 11
548.9927645391863
 21
703.5274634565958
 31
0.0
  0
LINE
  5
57A
330
1F
100
AcDbEntity
  8
0
  6
DASHED
 62
     4
 48
5.0
100
AcDbLine
 10
548.9927645391863
 20
703.5274634565958
 30
0.0
 11
550.4907960352501
 21
703.5274634565958
 31
0.0
  0
LINE
  5
57B
330
1F
100
AcDbEntity
  8
0
  6
DASHED
 62
     4
 48
5.0
100
AcDbLine
 10
550.4907960352501
 20
703.5274634565958
 30
0.0
 11
550.4907960352501
 21
703.5274634565958
 31
0.0
  0
LINE
  5
57C
330
1F
100
AcDbEntity
  8
0
  6
DASHED
 62
     4
 48
5.0
100
AcDbLine
 10
550.4907960352501
 20
704.5261511206377
 30
0.0
 11
548.9927645391863
 21
704.5261511206377
 31
0.0
  0
LINE
  5
57D
330
1F
100
AcDbEntity
  8
0
  6
DASHED
 62
     4
 48
5.0
100
AcDbLine
 10
548.9927645391863
 20
706.0241826167007
 30
0.0
 11
547.9940768751445
 21
706.0241826167007
 31
0.0
  0
CIRCLE
  5
57E
330
1F
100
AcDbEntity
  8
0
  6
Continuous
 62
     7
100
AcDbCircle
 10
558.8937709841261
 20
622.2980011068187
 30
0.0
 40
3.003000759534948
  0
LINE
  5
57F
330
1F
100
AcDbEntity
  8
0
  6
DASHED
 62
     4
 48
5.0
100
AcDbLine
 10
464.045788001132
 20
709.5608731915038
 30
0.0
 11
464.045788001132
 21
718.5490621678815
 31
0.0
  0
LINE
  5
580
330
1F
100
AcDbEntity
  8
0
  6
DASHED
 62
     4
 48
5.0
100
AcDbLine
 10
456.4357880011319
 20
709.5608731915038
 30
0.0
 11
456.4357880011319
 21
718.5490621678815
 31
0.0
  0
LINE
  5
581
330
1F
100
AcDbEntity
  8
0
  6
DASHED
 62
     4
 48
5.0
100
AcDbLine
 10
457.7540557176678
 20
709.5608731915038
 30
0.0
 11
457.7540557176678
 21
718.5490621678815
 31
0.0
  0
LINE
  5
582
330
1F
100
AcDbEntity
  8
0
  6
DASHED
 62
     4
 48
5.0
100
AcDbLine
 10
472.9740557176667
 20
709.5608731915038
 30
0.0
 11
472.9740557176667
 21
718.5490621678815
 31
0.0
  0
LINE
  5
583
330
1F
100
AcDbEntity
  8
0
  6
DASHED
 62
     4
 48
5.0
100
AcDbLine
 10
471.6557880011317
 20
709.5608731915038
 30
0.0
 11
471.6557880011317
 21
718.5490621678815
 31
0.0
  0
LINE
  5
584
330
1F
100
AcDbEntity
  8
0
  6
DASHED
 62
     4
 48
5.0
100
AcDbLine
 10
465.3640557176676
 20
709.5608731915038
 30
0.0
 11
465.3640557176676
 21
718.5490621678815
 31
0.0
  0
LINE
  5
585
330
1F
100
AcDbEntity
  8
0
  6
DASHED
 62
     4
 48
5.0
100
AcDbLine
 10
486.8757880011314
 20
709.5608731915038
 30
0.0
 11
486.8757880011314
 21
718.5490621678815
 31
0.0
  0
LINE
  5
586
330
1F
100
AcDbEntity
  8
0
  6
DASHED
 62
     4
 48
5.0
100
AcDbLine
 10
488.1940557176655
 20
709.5608731915038
 30
0.0
 11
488.1940557176655
 21
718.5490621678815
 31
0.0
  0
LINE
  5
587
330
1F
100
AcDbEntity
  8
0
  6
DASHED
 62
     4
 48
5.0
100
AcDbLine
 10
479.2657880011319
 20
709.5608731915038
 30
0.0
 11
479.2657880011319
 21
718.5490621678815
 31
0.0
  0
LINE
  5
588
330
1F
100
AcDbEntity
  8
0
  6
DASHED
 62
     4
 48
5.0
100
AcDbLine
 10
480.5840557176674
 20
709.5608731915038
 30
0.0
 11
480.5840557176674
 21
718.5490621678815
 31
0.0
  0
LINE
  5
589
330
1F
100
AcDbEntity
  8
0
  6
DASHED
 62
     4
 48
5.0
100
AcDbLine
 10
502.0957880011311
 20
709.5608731915038
 30
0.0
 11
502.0957880011311
 21
718.5490621678815
 31
0.0
  0
LINE
  5
58A
330
1F
100
AcDbEntity
  8
0
  6
DASHED
 62
     4
 48
5.0
100
AcDbLine
 10
503.4140557176653
 20
709.5608731915038
 30
0.0
 11
503.4140557176653
 21
718.5490621678815
 31
0.0
  0
LINE
  5
58B
330
1F
100
AcDbEntity
  8
0
  6
DASHED
 62
     4
 48
5.0
100
AcDbLine
 10
494.4857880011308
 20
709.5608731915038
 30
0.0
 11
494.4857880011308
 21
718.5490621678815
 31
0.0
  0
LINE
  5
58C
330
1F
100
AcDbEntity
  8
0
  6
DASHED
 62
     4
 48
5.0
100
AcDbLine
 10
495.8040557176658
 20
709.5608731915038
 30
0.0
 11
495.8040557176658
 21
718.5490621678815
 31
0.0
  0
LINE
  5
58D
330
1F
100
AcDbEntity
  8
0
  6
DASHED
 62
     4
 48
5.0
100
AcDbLine
 10
517.3157880011309
 20
709.5608731915038
 30
0.0
 11
517.3157880011309
 21
718.5490621678815
 31
0.0
  0
LINE
  5
58E
330
1F
100
AcDbEntity
  8
0
  6
DASHED
 62
     4
 48
5.0
100
AcDbLine
 10
518.634055717665
 20
709.5608731915038
 30
0.0
 11
518.634055717665
 21
718.5490621678815
 31
0.0
  0
LINE
  5
58F
330
1F
100
AcDbEntity
  8
0
  6
DASHED
 62
     4
 48
5.0
100
AcDbLine
 10
511.0240557176653
 20
709.5608731915038
 30
0.0
 11
511.0240557176653
 21
718.5490621678815
 31
0.0
  0
LINE
  5
590
330
1F
100
AcDbEntity
  8
0
  6
DASHED
 62
     4
 48
5.0
100
AcDbLine
 10
509.7057880011311
 20
709.5608731915038
 30
0.0
 11
509.7057880011311
 21
718.5490621678815
 31
0.0
  0
LINE
  5
591
330
1F
100
AcDbEntity
  8
0
  6
DASHED
 62
     4
 48
5.0
100
AcDbLine
 10
532.5357880011306
 20
709.5608731915038
 30
0.0
 11
532.5357880011306
 21
718.5490621678815
 31
0.0
  0
LINE
  5
592
330
1F
100
AcDbEntity
  8
0
  6
DASHED
 62
     4
 48
5.0
100
AcDbLine
 10
533.8540557176647
 20
709.5608731915038
 30
0.0
 11
533.8540557176647
 21
718.5490621678815
 31
0.0
  0
LINE
  5
593
330
1F
100
AcDbEntity
  8
0
  6
DASHED
 62
     4
 48
5.0
100
AcDbLine
 10
526.2440557176659
 20
709.5608731915038
 30
0.0
 11
526.2440557176659
 21
718.5490621678815
 31
0.0
  0
LINE
  5
594
330
1F
100
AcDbEntity
  8
0
  6
DASHED
 62
     4
 48
5.0
100
AcDbLine
 10
524.9257880011303
 20
709.5608731915038
 30
0.0
 11
524.9257880011303
 21
718.5490621678815
 31
0.0
  0
LINE
  5
595
330
1F
100
AcDbEntity
  8
0
  6
DASHED
 62
     4
 48
5.0
100
AcDbLine
 10
552.8790557176648
 20
699.5739965510843
 30
0.0
 11
552.8790557176648
 21
718.5490621678815
 31
0.0
  0
LINE
  5
596
330
1F
100
AcDbEntity
  8
0
  6
DASHED
 62
     4
 48
5.0
100
AcDbLine
 10
547.7557880011295
 20
709.5608731915038
 30
0.0
 11
547.7557880011295
 21
718.5490621678815
 31
0.0
  0
LINE
  5
597
330
1F
100
AcDbEntity
  8
0
  6
DASHED
 62
     4
 48
5.0
100
AcDbLine
 10
549.0740557176646
 20
709.5608731915038
 30
0.0
 11
549.0740557176646
 21
718.5490621678815
 31
0.0
  0
LINE
  5
598
330
1F
100
AcDbEntity
  8
0
  6
DASHED
 62
     4
 48
5.0
100
AcDbLine
 10
540.1457880011303
 20
709.5608731915038
 30
0.0
 11
540.1457880011303
 21
718.5490621678815
 31
0.0
  0
LINE
  5
599
330
1F
100
AcDbEntity
  8
0
  6
DASHED
 62
     4
 48
5.0
100
AcDbLine
 10
541.4640557176651
 20
709.5608731915038
 30
0.0
 11
541.4640557176651
 21
718.5490621678815
 31
0.0
  0
CIRCLE
  5
59A
330
1F
100
AcDbEntity
  8
0
  6
DASHED
 62
     4
100
AcDbCircle
 10
445.7150519375795
 20
714.2891382066903
 30
10.5748440157477
 40
2.996060753842578
  0
LINE
  5
59B
330
1F
100
AcDbEntity
  8
0
  6
DASHED
 62
     4
 48
5.0
100
AcDbLine
 10
445.2157078646504
 20
716.2865112964903
 30
0.0
 11
445.2157078646504
 21
714.7884798004273
 31
0.0
  0
LINE
  5
59C
330
1F
100
AcDbEntity
  8
0
  6
DASHED
 62
     4
 48
5.0
100
AcDbLine
 10
446.2143955286918
 20
714.7884798004273
 30
0.0
 11
446.2143955286918
 21
716.2865112964903
 31
0.0
  0
LINE
  5
59D
330
1F
100
AcDbEntity
  8
0
  6
DASHED
 62
     4
 48
5.0
100
AcDbLine
 10
445.2157078646504
 20
712.2917606403224
 30
0.0
 11
446.2143955286918
 21
712.2917606403224
 31
0.0
  0
LINE
  5
59E
330
1F
100
AcDbEntity
  8
0
  6
DASHED
 62
     4
 48
5.0
100
AcDbLine
 10
445.2157078646504
 20
713.789792136385
 30
0.0
 11
445.2157078646504
 21
712.2917606403224
 31
0.0
  0
LINE
  5
59F
330
1F
100
AcDbEntity
  8
0
  6
DASHED
 62
     4
 48
5.0
100
AcDbLine
 10
443.7176763685866
 20
714.7884798004273
 30
0.0
 11
443.7176763685866
 21
713.789792136385
 31
0.0
  0
LINE
  5
5A0
330
1F
100
AcDbEntity
  8
0
  6
DASHED
 62
     4
 48
5.0
100
AcDbLine
 10
443.7176763685866
 20
713.789792136385
 30
0.0
 11
445.2157078646504
 21
713.789792136385
 31
0.0
  0
LINE
  5
5A1
330
1F
100
AcDbEntity
  8
0
  6
DASHED
 62
     4
 48
5.0
100
AcDbLine
 10
445.2157078646504
 20
714.7884798004273
 30
0.0
 11
443.7176763685866
 21
714.7884798004273
 31
0.0
  0
LINE
  5
5A2
330
1F
100
AcDbEntity
  8
0
  6
DASHED
 62
     4
 48
5.0
100
AcDbLine
 10
447.712427024755
 20
713.789792136385
 30
0.0
 11
447.712427024755
 21
714.7884798004273
 31
0.0
  0
LINE
  5
5A3
330
1F
100
AcDbEntity
  8
0
  6
DASHED
 62
     4
 48
5.0
100
AcDbLine
 10
446.2143955286918
 20
712.2917606403224
 30
0.0
 11
446.2143955286918
 21
713.789792136385
 31
0.0
  0
LINE
  5
5A4
330
1F
100
AcDbEntity
  8
0
  6
DASHED
 62
     4
 48
5.0
100
AcDbLine
 10
446.2143955286918
 20
713.789792136385
 30
0.0
 11
447.712427024755
 21
713.789792136385
 31
0.0
  0
LINE
  5
5A5
330
1F
100
AcDbEntity
  8
0
  6
DASHED
 62
     4
 48
5.0
100
AcDbLine
 10
447.712427024755
 20
713.789792136385
 30
0.0
 11
447.712427024755
 21
713.789792136385
 31
0.0
  0
LINE
  5
5A6
330
1F
100
AcDbEntity
  8
0
  6
DASHED
 62
     4
 48
5.0
100
AcDbLine
 10
447.712427024755
 20
714.7884798004273
 30
0.0
 11
446.2143955286918
 21
714.7884798004273
 31
0.0
  0
LINE
  5
5A7
330
1F
100
AcDbEntity
  8
0
  6
DASHED
 62
     4
 48
5.0
100
AcDbLine
 10
446.2143955286918
 20
716.2865112964903
 30
0.0
 11
445.2157078646504
 21
716.2865112964903
 31
0.0
  0
LINE
  5
5A8
330
1F
100
AcDbEntity
  8
0
  6
DASHED
 62
     4
 48
5.0
100
AcDbLine
 10
452.8257078646496
 20
716.2865112964903
 30
0.0
 11
452.8257078646496
 21
714.7884798004273
 31
0.0
  0
LINE
  5
5A9
330
1F
100
AcDbEntity
  8
0
  6
DASHED
 62
     4
 48
5.0
100
AcDbLine
 10
452.8257078646496
 20
713.789792136385
 30
0.0
 11
452.8257078646496
 21
712.2917606403224
 31
0.0
  0
LINE
  5
5AA
330
1F
100
AcDbEntity
  8
0
  6
DASHED
 62
     4
 48
5.0
100
AcDbLine
 10
451.3276763685862
 20
714.7884798004273
 30
0.0
 11
451.3276763685862
 21
713.789792136385
 31
0.0
  0
LINE
  5
5AB
330
1F
100
AcDbEntity
  8
0
  6
DASHED
 62
     4
 48
5.0
100
AcDbLine
 10
451.3276763685862
 20
713.789792136385
 30
0.0
 11
452.8257078646496
 21
713.789792136385
 31
0.0
  0
LINE
  5
5AC
330
1F
100
AcDbEntity
  8
0
  6
DASHED
 62
     4
 48
5.0
100
AcDbLine
 10
452.8257078646496
 20
714.7884798004273
 30
0.0
 11
451.3276763685862
 21
714.7884798004273
 31
0.0
  0
CIRCLE
  5
5AD
330
1F
100
AcDbEntity
  8
0
  6
DASHED
 62
     4
100
AcDbCircle
 10
449.5634229454529
 20
704.0268095269009
 30
10.5748440157477
 40
2.996060753842578
  0
CIRCLE
  5
5AE
330
1F
100
AcDbEntity
  8
0
  6
DASHED
 62
     4
100
AcDbCircle
 10
441.9534229454532
 20
704.0268095269009
 30
10.5748440157477
 40
2.996060753842578
  0
LINE
  5
5AF
330
1F
100
AcDbEntity
  8
0
  6
DASHED
 62
     4
 48
5.0
100
AcDbLine
 10
449.0640768751486
 20
702.0294319605326
 30
0.0
 11
450.0627645391901
 21
702.0294319605326
 31
0.0
  0
LINE
  5
5B0
330
1F
100
AcDbEntity
  8
0
  6
DASHED
 62
     4
 48
5.0
100
AcDbLine
 10
450.0627645391901
 20
706.0241826167007
 30
0.0
 11
449.0640768751486
 21
706.0241826167007
 31
0.0
  0
LINE
  5
5B1
330
1F
100
AcDbEntity
  8
0
  6
DASHED
 62
     4
 48
5.0
100
AcDbLine
 10
445.020788001133
 20
699.5739965510843
 30
0.0
 11
445.020788001133
 21
709.5608731915038
 31
0.0
  0
LINE
  5
5B2
330
1F
100
AcDbEntity
  8
0
  6
DASHED
 62
     4
 48
5.0
100
AcDbLine
 10
438.7290557176676
 20
699.5739965510843
 30
0.0
 11
438.7290557176676
 21
709.5608731915038
 31
0.0
  0
LINE
  5
5B3
330
1F
100
AcDbEntity
  8
0
  6
DASHED
 62
     4
 48
5.0
100
AcDbLine
 10
446.3390557176674
 20
699.5739965510843
 30
0.0
 11
446.3390557176674
 21
709.5608731915038
 31
0.0
  0
LINE
  5
5B4
330
1F
100
AcDbEntity
  8
0
  6
DASHED
 62
     4
 48
5.0
100
AcDbLine
 10
441.4540768751485
 20
702.0294319605326
 30
0.0
 11
442.4527645391905
 21
702.0294319605326
 31
0.0
  0
LINE
  5
5B5
330
1F
100
AcDbEntity
  8
0
  6
DASHED
 62
     4
 48
5.0
100
AcDbLine
 10
442.4527645391905
 20
706.0241826167007
 30
0.0
 11
441.4540768751485
 21
706.0241826167007
 31
0.0
  0
LINE
  5
5B6
330
1F
100
AcDbEntity
  8
0
  6
DASHED
 62
     4
 48
5.0
100
AcDbLine
 10
441.4540768751485
 20
706.0241826167007
 30
0.0
 11
441.4540768751485
 21
704.5261511206377
 31
0.0
  0
LINE
  5
5B7
330
1F
100
AcDbEntity
  8
0
  6
DASHED
 62
     4
 48
5.0
100
AcDbLine
 10
439.9560453790861
 20
704.5261511206377
 30
0.0
 11
439.9560453790861
 21
703.5274634565958
 31
0.0
  0
LINE
  5
5B8
330
1F
100
AcDbEntity
  8
0
  6
DASHED
 62
     4
 48
5.0
100
AcDbLine
 10
439.9560453790861
 20
703.5274634565958
 30
0.0
 11
441.4540768751485
 21
703.5274634565958
 31
0.0
  0
LINE
  5
5B9
330
1F
100
AcDbEntity
  8
0
  6
DASHED
 62
     4
 48
5.0
100
AcDbLine
 10
441.4540768751485
 20
703.5274634565958
 30
0.0
 11
441.4540768751485
 21
702.0294319605326
 31
0.0
  0
LINE
  5
5BA
330
1F
100
AcDbEntity
  8
0
  6
DASHED
 62
     4
 48
5.0
100
AcDbLine
 10
441.4540768751485
 20
704.5261511206377
 30
0.0
 11
439.9560453790861
 21
704.5261511206377
 31
0.0
  0
LINE
  5
5BB
330
1F
100
AcDbEntity
  8
0
  6
DASHED
 62
     4
 48
5.0
100
AcDbLine
 10
449.0640768751486
 20
706.0241826167007
 30
0.0
 11
449.0640768751486
 21
704.5261511206377
 31
0.0
  0
LINE
  5
5BC
330
1F
100
AcDbEntity
  8
0
  6
DASHED
 62
     4
 48
5.0
100
AcDbLine
 10
442.4527645391905
 20
704.5261511206377
 30
0.0
 11
442.4527645391905
 21
706.0241826167007
 31
0.0
  0
LINE
  5
5BD
330
1F
100
AcDbEntity
  8
0
  6
DASHED
 62
     4
 48
5.0
100
AcDbLine
 10
443.9507960352537
 20
703.5274634565958
 30
0.0
 11
443.9507960352537
 21
704.5261511206377
 31
0.0
  0
LINE
  5
5BE
330
1F
100
AcDbEntity
  8
0
  6
DASHED
 62
     4
 48
5.0
100
AcDbLine
 10
442.4527645391905
 20
702.0294319605326
 30
0.0
 11
442.4527645391905
 21
703.5274634565958
 31
0.0
  0
LINE
  5
5BF
330
1F
100
AcDbEntity
  8
0
  6
DASHED
 62
     4
 48
5.0
100
AcDbLine
 10
442.4527645391905
 20
703.5274634565958
 30
0.0
 11
443.9507960352537
 21
703.5274634565958
 31
0.0
  0
LINE
  5
5C0
330
1F
100
AcDbEntity
  8
0
  6
DASHED
 62
     4
 48
5.0
100
AcDbLine
 10
443.9507960352537
 20
703.5274634565958
 30
0.0
 11
443.9507960352537
 21
703.5274634565958
 31
0.0
  0
LINE
  5
5C1
330
1F
100
AcDbEntity
  8
0
  6
DASHED
 62
     4
 48
5.0
100
AcDbLine
 10
443.9507960352537
 20
704.5261511206377
 30
0.0
 11
442.4527645391905
 21
704.5261511206377
 31
0.0
  0
LINE
  5
5C2
330
1F
100
AcDbEntity
  8
0
  6
DASHED
 62
     4
 48
5.0
100
AcDbLine
 10
447.5660453790855
 20
704.5261511206377
 30
0.0
 11
447.5660453790855
 21
703.5274634565958
 31
0.0
  0
LINE
  5
5C3
330
1F
100
AcDbEntity
  8
0
  6
DASHED
 62
     4
 48
5.0
100
AcDbLine
 10
447.5660453790855
 20
703.5274634565958
 30
0.0
 11
449.0640768751486
 21
703.5274634565958
 31
0.0
  0
LINE
  5
5C4
330
1F
100
AcDbEntity
  8
0
  6
DASHED
 62
     4
 48
5.0
100
AcDbLine
 10
449.0640768751486
 20
703.5274634565958
 30
0.0
 11
449.0640768751486
 21
702.0294319605326
 31
0.0
  0
LINE
  5
5C5
330
1F
100
AcDbEntity
  8
0
  6
DASHED
 62
     4
 48
5.0
100
AcDbLine
 10
449.0640768751486
 20
704.5261511206377
 30
0.0
 11
447.5660453790855
 21
704.5261511206377
 31
0.0
  0
LINE
  5
5C6
330
1F
100
AcDbEntity
  8
0
  6
DASHED
 62
     4
 48
5.0
100
AcDbLine
 10
452.6307880011327
 20
699.5739965510843
 30
0.0
 11
452.6307880011327
 21
709.5608731915038
 31
0.0
  0
LINE
  5
5C7
330
1F
100
AcDbEntity
  8
0
  6
DASHED
 62
     4
 48
5.0
100
AcDbLine
 10
450.0627645391901
 20
704.5261511206377
 30
0.0
 11
450.0627645391901
 21
706.0241826167007
 31
0.0
  0
LINE
  5
5C8
330
1F
100
AcDbEntity
  8
0
  6
DASHED
 62
     4
 48
5.0
100
AcDbLine
 10
451.5607960352533
 20
703.5274634565958
 30
0.0
 11
451.5607960352533
 21
704.5261511206377
 31
0.0
  0
LINE
  5
5C9
330
1F
100
AcDbEntity
  8
0
  6
DASHED
 62
     4
 48
5.0
100
AcDbLine
 10
450.0627645391901
 20
702.0294319605326
 30
0.0
 11
450.0627645391901
 21
703.5274634565958
 31
0.0
  0
LINE
  5
5CA
330
1F
100
AcDbEntity
  8
0
  6
DASHED
 62
     4
 48
5.0
100
AcDbLine
 10
450.0627645391901
 20
703.5274634565958
 30
0.0
 11
451.5607960352533
 21
703.5274634565958
 31
0.0
  0
LINE
  5
5CB
330
1F
100
AcDbEntity
  8
0
  6
DASHED
 62
     4
 48
5.0
100
AcDbLine
 10
451.5607960352533
 20
703.5274634565958
 30
0.0
 11
451.5607960352533
 21
703.5274634565958
 31
0.0
  0
LINE
  5
5CC
330
1F
100
AcDbEntity
  8
0
  6
DASHED
 62
     4
 48
5.0
100
AcDbLine
 10
451.5607960352533
 20
704.5261511206377
 30
0.0
 11
450.0627645391901
 21
704.5261511206377
 31
0.0
  0
LINE
  5
5CD
330
1F
100
AcDbEntity
  8
0
  6
DASHED
 62
     4
 48
5.0
100
AcDbLine
 10
437.4107880011329
 20
699.5739965510843
 30
0.0
 11
437.4107880011329
 21
718.5490621678815
 31
0.0
  0
LINE
  5
5CE
330
1F
100
AcDbEntity
  8
0
  6
DASHED
 62
     4
 48
5.0
100
AcDbLine
 10
448.8257880011318
 20
709.5608731915038
 30
0.0
 11
448.8257880011318
 21
718.5490621678815
 31
0.0
  0
LINE
  5
5CF
330
1F
100
AcDbEntity
  8
0
  6
DASHED
 62
     4
 48
5.0
100
AcDbLine
 10
441.2157880011323
 20
709.5608731915038
 30
0.0
 11
441.2157880011323
 21
718.5490621678815
 31
0.0
  0
LINE
  5
5D0
330
1F
100
AcDbEntity
  8
0
  6
DASHED
 62
     4
 48
5.0
100
AcDbLine
 10
450.1440557176678
 20
709.5608731915038
 30
0.0
 11
450.1440557176678
 21
718.5490621678815
 31
0.0
  0
LINE
  5
5D1
330
1F
100
AcDbEntity
  8
0
  6
DASHED
 62
     4
 48
5.0
100
AcDbLine
 10
552.8790557176648
 20
718.5490621678815
 30
0.0
 11
437.4107880011329
 21
718.5490621678815
 31
0.0
  0
LINE
  5
5D2
330
1F
100
AcDbEntity
  8
0
  6
DASHED
 62
     4
 48
5.0
100
AcDbLine
 10
552.8790557176648
 20
699.5739965510843
 30
0.0
 11
437.4107880011329
 21
699.5739965510843
 31
0.0
  0
LINE
  5
5D3
330
1F
100
AcDbEntity
  8
0
  6
DASHED
 62
     4
 48
5.0
100
AcDbLine
 10
552.8790557176648
 20
709.5608731915038
 30
0.0
 11
437.4107880011329
 21
709.5608731915038
 31
0.0
  0
LINE
  5
5D4
330
1F
100
AcDbEntity
  8
0
  6
DASHED
 62
     4
 48
5.0
100
AcDbLine
 10
452.8257078646496
 20
712.2917606403224
 30
0.0
 11
453.8243955286912
 21
712.2917606403224
 31
0.0
  0
LINE
  5
5D5
330
1F
100
AcDbEntity
  8
0
  6
DASHED
 62
     4
 48
5.0
100
AcDbLine
 10
453.8243955286912
 20
716.2865112964903
 30
0.0
 11
452.8257078646496
 21
716.2865112964903
 31
0.0
  0
CIRCLE
  5
5D6
330
1F
100
AcDbEntity
  8
0
  6
DASHED
 62
     4
100
AcDbCircle
 10
453.3250519375793
 20
714.2891382066903
 30
10.5748440157477
 40
2.996060753842578
  0
CIRCLE
  5
5D7
330
1F
100
AcDbEntity
  8
0
  6
Continuous
 62
     7
370
     0
100
AcDbCircle
 10
917.1429031130854
 20
256.2176067092392
 30
0.0
 40
9.374992996172881
  0
CIRCLE
  5
5D8
330
1F
100
AcDbEntity
  8
0
  6
Continuous
 62
     7
370
     0
100
AcDbCircle
 10
1050.770778226776
 20
700.309052393507
 30
0.0
 40
2.995195960560721
  0
CIRCLE
  5
5D9
330
1F
100
AcDbEntity
  8
0
  6
Continuous
 62
     7
370
     0
100
AcDbCircle
 10
1050.770778226776
 20
700.309052393507
 30
0.0
 40
3.839997762362513
  0
CIRCLE
  5
5DA
330
1F
100
AcDbEntity
  8
0
  6
Continuous
 62
     7
370
     0
100
AcDbCircle
 10
874.1707842327784
 20
715.8090734145287
 30
0.0
 40
3.839997762362513
  0
CIRCLE
  5
5DB
330
1F
100
AcDbEntity
  8
0
  6
Continuous
 62
     7
370
     0
100
AcDbCircle
 10
874.1707842327784
 20
715.8090734145287
 30
0.0
 40
2.995195960560721
  0
CIRCLE
  5
5DC
330
1F
100
AcDbEntity
  8
0
  6
Continuous
 62
     7
370
     0
100
AcDbCircle
 10
874.1707812297757
 20
595.8090734145257
 30
0.0
 40
2.995195960560721
  0
CIRCLE
  5
5DD
330
1F
100
AcDbEntity
  8
0
  6
Continuous
 62
     7
370
     0
100
AcDbCircle
 10
874.1707812297757
 20
595.8090734145257
 30
0.0
 40
3.839997762362513
  0
CIRCLE
  5
5DE
330
1F
100
AcDbEntity
  8
0
  6
Continuous
 62
     7
370
     0
100
AcDbCircle
 10
1050.770778226776
 20
515.3090523935031
 30
0.0
 40
3.839997762362513
  0
CIRCLE
  5
5DF
330
1F
100
AcDbEntity
  8
0
  6
Continuous
 62
     7
370
     0
100
AcDbCircle
 10
1050.770778226776
 20
515.3090523935031
 30
0.0
 40
2.995195960560721
  0
CIRCLE
  5
5E0
330
1F
100
AcDbEntity
  8
0
  6
Continuous
 62
     7
370
     0
100
AcDbCircle
 10
1050.770778226776
 20
330.3090523934991
 30
0.0
 40
3.839997762362513
  0
CIRCLE
  5
5E1
330
1F
100
AcDbEntity
  8
0
  6
Continuous
 62
     7
370
     0
100
AcDbCircle
 10
1050.770778226776
 20
330.3090523934991
 30
0.0
 40
2.995195960560721
  0
CIRCLE
  5
5E2
330
1F
100
AcDbEntity
  8
0
  6
Continuous
 62
     7
370
     0
100
AcDbCircle
 10
709.270793693616
 20
345.3090558483351
 30
0.0
 40
3.599997310530353
  0
CIRCLE
  5
5E3
330
1F
100
AcDbEntity
  8
0
  6
Continuous
 62
     7
370
     0
100
AcDbCircle
 10
305.2707906906041
 20
345.3090558483351
 30
0.0
 40
3.599997310530353
  0
CIRCLE
  5
5E4
330
1F
100
AcDbEntity
  8
0
  6
Continuous
 62
     7
370
     0
100
AcDbCircle
 10
517.9021244883822
 20
287.8888370935568
 30
0.0
 40
2.875384233477046
  0
CIRCLE
  5
5E5
330
1F
100
AcDbEntity
  8
0
  6
Continuous
 62
     7
370
     0
100
AcDbCircle
 10
517.9021244883822
 20
287.8888370935568
 30
0.0
 40
2.211837686929837
  0
CIRCLE
  5
5E6
330
1F
100
AcDbEntity
  8
0
  6
Continuous
 62
     7
370
     0
100
AcDbCircle
 10
305.2707910041362
 20
685.3090831889013
 30
0.0
 40
3.600000461440651
  0
CIRCLE
  5
5E7
330
1F
100
AcDbEntity
  8
0
  6
Continuous
 62
     7
370
     0
100
AcDbCircle
 10
709.2707910041451
 20
685.3090831889013
 30
0.0
 40
3.600000461440651
  0
LINE
  5
5E8
330
1F
100
AcDbEntity
  8
0
  6
Continuous
 62
     7
 48
6.0
100
AcDbLine
 10
1052.767577790939
 20
329.8098519576623
 30
0.0
 11
1052.767577790939
 21
329.8098519576623
 31
0.0
  0
LINE
  5
5E9
330
1F
100
AcDbEntity
  8
0
  6
Continuous
 62
     7
 48
6.0
100
AcDbLine
 10
1051.269977190338
 20
329.8098519576623
 30
0.0
 11
1052.767577790939
 21
329.8098519576623
 31
0.0
  0
LINE
  5
5EA
330
1F
100
AcDbEntity
  8
0
  6
Continuous
 62
     7
 48
6.0
100
AcDbLine
 10
1051.269977190338
 20
328.3122513570618
 30
0.0
 11
1051.269977190338
 21
329.8098519576623
 31
0.0
  0
LINE
  5
5EB
330
1F
100
AcDbEntity
  8
0
  6
Continuous
 62
     7
 48
6.0
100
AcDbLine
 10
1050.271577790939
 20
328.3122513570618
 30
0.0
 11
1051.269977190338
 21
328.3122513570618
 31
0.0
  0
LINE
  5
5EC
330
1F
100
AcDbEntity
  8
0
  6
Continuous
 62
     7
 48
6.0
100
AcDbLine
 10
1050.271577790939
 20
329.8098519576623
 30
0.0
 11
1050.271577790939
 21
328.3122513570618
 31
0.0
  0
LINE
  5
5ED
330
1F
100
AcDbEntity
  8
0
  6
Continuous
 62
     7
 48
6.0
100
AcDbLine
 10
1048.773977190337
 20
329.8098519576623
 30
0.0
 11
1050.271577790939
 21
329.8098519576623
 31
0.0
  0
LINE
  5
5EE
330
1F
100
AcDbEntity
  8
0
  6
Continuous
 62
     7
 48
6.0
100
AcDbLine
 10
1048.773977190337
 20
330.8082513570623
 30
0.0
 11
1048.773977190337
 21
329.8098519576623
 31
0.0
  0
LINE
  5
5EF
330
1F
100
AcDbEntity
  8
0
  6
Continuous
 62
     7
 48
6.0
100
AcDbLine
 10
1050.271577790939
 20
330.8082513570623
 30
0.0
 11
1048.773977190337
 21
330.8082513570623
 31
0.0
  0
LINE
  5
5F0
330
1F
100
AcDbEntity
  8
0
  6
Continuous
 62
     7
 48
6.0
100
AcDbLine
 10
1050.271577790939
 20
332.3058519576631
 30
0.0
 11
1050.271577790939
 21
330.8082513570623
 31
0.0
  0
LINE
  5
5F1
330
1F
100
AcDbEntity
  8
0
  6
Continuous
 62
     7
 48
6.0
100
AcDbLine
 10
1051.269977190338
 20
332.3058519576631
 30
0.0
 11
1050.271577790939
 21
332.3058519576631
 31
0.0
  0
LINE
  5
5F2
330
1F
100
AcDbEntity
  8
0
  6
Continuous
 62
     7
 48
6.0
100
AcDbLine
 10
1051.269977190338
 20
330.8082513570623
 30
0.0
 11
1051.269977190338
 21
332.3058519576631
 31
0.0
  0
LINE
  5
5F3
330
1F
100
AcDbEntity
  8
0
  6
Continuous
 62
     7
 48
6.0
100
AcDbLine
 10
1052.767577790939
 20
330.8082513570623
 30
0.0
 11
1051.269977190338
 21
330.8082513570623
 31
0.0
  0
LINE
  5
5F4
330
1F
100
AcDbEntity
  8
0
  6
Continuous
 62
     7
 48
6.0
100
AcDbLine
 10
1052.767577790939
 20
329.8098519576623
 30
0.0
 11
1052.767577790939
 21
330.8082513570623
 31
0.0
  0
LINE
  5
5F5
330
1F
100
AcDbEntity
  8
0
  6
Continuous
 62
     7
 48
6.0
100
AcDbLine
 10
1052.767577790939
 20
514.8098519576665
 30
0.0
 11
1052.767577790939
 21
514.8098519576665
 31
0.0
  0
LINE
  5
5F6
330
1F
100
AcDbEntity
  8
0
  6
Continuous
 62
     7
 48
6.0
100
AcDbLine
 10
1051.269977190338
 20
514.8098519576665
 30
0.0
 11
1052.767577790939
 21
514.8098519576665
 31
0.0
  0
LINE
  5
5F7
330
1F
100
AcDbEntity
  8
0
  6
Continuous
 62
     7
 48
6.0
100
AcDbLine
 10
1051.269977190338
 20
513.3122513570656
 30
0.0
 11
1051.269977190338
 21
514.8098519576665
 31
0.0
  0
LINE
  5
5F8
330
1F
100
AcDbEntity
  8
0
  6
Continuous
 62
     7
 48
6.0
100
AcDbLine
 10
1050.271577790939
 20
513.3122513570656
 30
0.0
 11
1051.269977190338
 21
513.3122513570656
 31
0.0
  0
LINE
  5
5F9
330
1F
100
AcDbEntity
  8
0
  6
Continuous
 62
     7
 48
6.0
100
AcDbLine
 10
1050.271577790939
 20
514.8098519576665
 30
0.0
 11
1050.271577790939
 21
513.3122513570656
 31
0.0
  0
LINE
  5
5FA
330
1F
100
AcDbEntity
  8
0
  6
Continuous
 62
     7
 48
6.0
100
AcDbLine
 10
1048.773977190337
 20
514.8098519576665
 30
0.0
 11
1050.271577790939
 21
514.8098519576665
 31
0.0
  0
LINE
  5
5FB
330
1F
100
AcDbEntity
  8
0
  6
Continuous
 62
     7
 48
6.0
100
AcDbLine
 10
1048.773977190337
 20
515.808251357066
 30
0.0
 11
1048.773977190337
 21
514.8098519576665
 31
0.0
  0
LINE
  5
5FC
330
1F
100
AcDbEntity
  8
0
  6
Continuous
 62
     7
 48
6.0
100
AcDbLine
 10
1050.271577790939
 20
515.808251357066
 30
0.0
 11
1048.773977190337
 21
515.808251357066
 31
0.0
  0
LINE
  5
5FD
330
1F
100
AcDbEntity
  8
0
  6
Continuous
 62
     7
 48
6.0
100
AcDbLine
 10
1050.271577790939
 20
517.3058519576665
 30
0.0
 11
1050.271577790939
 21
515.808251357066
 31
0.0
  0
LINE
  5
5FE
330
1F
100
AcDbEntity
  8
0
  6
Continuous
 62
     7
 48
6.0
100
AcDbLine
 10
1051.269977190338
 20
517.3058519576665
 30
0.0
 11
1050.271577790939
 21
517.3058519576665
 31
0.0
  0
LINE
  5
5FF
330
1F
100
AcDbEntity
  8
0
  6
Continuous
 62
     7
 48
6.0
100
AcDbLine
 10
1051.269977190338
 20
515.808251357066
 30
0.0
 11
1051.269977190338
 21
517.3058519576665
 31
0.0
  0
LINE
  5
600
330
1F
100
AcDbEntity
  8
0
  6
Continuous
 62
     7
 48
6.0
100
AcDbLine
 10
1052.767577790939
 20
515.808251357066
 30
0.0
 11
1051.269977190338
 21
515.808251357066
 31
0.0
  0
LINE
  5
601
330
1F
100
AcDbEntity
  8
0
  6
Continuous
 62
     7
 48
6.0
100
AcDbLine
 10
1052.767577790939
 20
514.8098519576665
 30
0.0
 11
1052.767577790939
 21
515.808251357066
 31
0.0
  0
LINE
  5
602
330
1F
100
AcDbEntity
  8
0
  6
Continuous
 62
     7
 48
6.0
100
AcDbLine
 10
1052.767577790939
 20
699.8098519576706
 30
0.0
 11
1052.767577790939
 21
699.8098519576706
 31
0.0
  0
LINE
  5
603
330
1F
100
AcDbEntity
  8
0
  6
Continuous
 62
     7
 48
6.0
100
AcDbLine
 10
1051.269977190338
 20
699.8098519576706
 30
0.0
 11
1052.767577790939
 21
699.8098519576706
 31
0.0
  0
LINE
  5
604
330
1F
100
AcDbEntity
  8
0
  6
Continuous
 62
     7
 48
6.0
100
AcDbLine
 10
1051.269977190338
 20
698.3122513570698
 30
0.0
 11
1051.269977190338
 21
699.8098519576706
 31
0.0
  0
LINE
  5
605
330
1F
100
AcDbEntity
  8
0
  6
Continuous
 62
     7
 48
6.0
100
AcDbLine
 10
1050.271577790939
 20
698.3122513570698
 30
0.0
 11
1051.269977190338
 21
698.3122513570698
 31
0.0
  0
LINE
  5
606
330
1F
100
AcDbEntity
  8
0
  6
Continuous
 62
     7
 48
6.0
100
AcDbLine
 10
1050.271577790939
 20
699.8098519576706
 30
0.0
 11
1050.271577790939
 21
698.3122513570698
 31
0.0
  0
LINE
  5
607
330
1F
100
AcDbEntity
  8
0
  6
Continuous
 62
     7
 48
6.0
100
AcDbLine
 10
1048.773977190337
 20
699.8098519576706
 30
0.0
 11
1050.271577790939
 21
699.8098519576706
 31
0.0
  0
LINE
  5
608
330
1F
100
AcDbEntity
  8
0
  6
Continuous
 62
     7
 48
6.0
100
AcDbLine
 10
1048.773977190337
 20
700.80825135707
 30
0.0
 11
1048.773977190337
 21
699.8098519576706
 31
0.0
  0
LINE
  5
609
330
1F
100
AcDbEntity
  8
0
  6
Continuous
 62
     7
 48
6.0
100
AcDbLine
 10
1050.271577790939
 20
700.80825135707
 30
0.0
 11
1048.773977190337
 21
700.80825135707
 31
0.0
  0
LINE
  5
60A
330
1F
100
AcDbEntity
  8
0
  6
Continuous
 62
     7
 48
6.0
100
AcDbLine
 10
1050.271577790939
 20
702.3058519576705
 30
0.0
 11
1050.271577790939
 21
700.80825135707
 31
0.0
  0
LINE
  5
60B
330
1F
100
AcDbEntity
  8
0
  6
Continuous
 62
     7
 48
6.0
100
AcDbLine
 10
1051.269977190338
 20
702.3058519576705
 30
0.0
 11
1050.271577790939
 21
702.3058519576705
 31
0.0
  0
LINE
  5
60C
330
1F
100
AcDbEntity
  8
0
  6
Continuous
 62
     7
 48
6.0
100
AcDbLine
 10
1051.269977190338
 20
700.80825135707
 30
0.0
 11
1051.269977190338
 21
702.3058519576705
 31
0.0
  0
LINE
  5
60D
330
1F
100
AcDbEntity
  8
0
  6
Continuous
 62
     7
 48
6.0
100
AcDbLine
 10
1052.767577790939
 20
700.80825135707
 30
0.0
 11
1051.269977190338
 21
700.80825135707
 31
0.0
  0
LINE
  5
60E
330
1F
100
AcDbEntity
  8
0
  6
Continuous
 62
     7
 48
6.0
100
AcDbLine
 10
1052.767577790939
 20
699.8098519576706
 30
0.0
 11
1052.767577790939
 21
700.80825135707
 31
0.0
  0
LINE
  5
60F
330
1F
100
AcDbEntity
  8
0
  6
Continuous
 62
     7
 48
6.0
100
AcDbLine
 10
876.1675807939385
 20
595.3098729786892
 30
0.0
 11
876.1675807939385
 21
595.3098729786892
 31
0.0
  0
LINE
  5
610
330
1F
100
AcDbEntity
  8
0
  6
Continuous
 62
     7
 48
6.0
100
AcDbLine
 10
874.6699801933383
 20
595.3098729786892
 30
0.0
 11
876.1675807939385
 21
595.3098729786892
 31
0.0
  0
LINE
  5
611
330
1F
100
AcDbEntity
  8
0
  6
Continuous
 62
     7
 48
6.0
100
AcDbLine
 10
874.6699801933383
 20
593.8122723780887
 30
0.0
 11
874.6699801933383
 21
595.3098729786892
 31
0.0
  0
LINE
  5
612
330
1F
100
AcDbEntity
  8
0
  6
Continuous
 62
     7
 48
6.0
100
AcDbLine
 10
873.6715807939383
 20
593.8122723780887
 30
0.0
 11
874.6699801933383
 21
593.8122723780887
 31
0.0
  0
LINE
  5
613
330
1F
100
AcDbEntity
  8
0
  6
Continuous
 62
     7
 48
6.0
100
AcDbLine
 10
873.6715807939383
 20
595.3098729786892
 30
0.0
 11
873.6715807939383
 21
593.8122723780887
 31
0.0
  0
LINE
  5
614
330
1F
100
AcDbEntity
  8
0
  6
Continuous
 62
     7
 48
6.0
100
AcDbLine
 10
872.1739801933368
 20
595.3098729786892
 30
0.0
 11
873.6715807939383
 21
595.3098729786892
 31
0.0
  0
LINE
  5
615
330
1F
100
AcDbEntity
  8
0
  6
Continuous
 62
     7
 48
6.0
100
AcDbLine
 10
872.1739801933368
 20
596.3082723780887
 30
0.0
 11
872.1739801933368
 21
595.3098729786892
 31
0.0
  0
LINE
  5
616
330
1F
100
AcDbEntity
  8
0
  6
Continuous
 62
     7
 48
6.0
100
AcDbLine
 10
873.6715807939383
 20
596.3082723780887
 30
0.0
 11
872.1739801933368
 21
596.3082723780887
 31
0.0
  0
LINE
  5
617
330
1F
100
AcDbEntity
  8
0
  6
Continuous
 62
     7
 48
6.0
100
AcDbLine
 10
873.6715807939383
 20
597.8058729786893
 30
0.0
 11
873.6715807939383
 21
596.3082723780887
 31
0.0
  0
LINE
  5
618
330
1F
100
AcDbEntity
  8
0
  6
Continuous
 62
     7
 48
6.0
100
AcDbLine
 10
874.6699801933383
 20
597.8058729786893
 30
0.0
 11
873.6715807939383
 21
597.8058729786893
 31
0.0
  0
LINE
  5
619
330
1F
100
AcDbEntity
  8
0
  6
Continuous
 62
     7
 48
6.0
100
AcDbLine
 10
874.6699801933383
 20
596.3082723780887
 30
0.0
 11
874.6699801933383
 21
597.8058729786893
 31
0.0
  0
LINE
  5
61A
330
1F
100
AcDbEntity
  8
0
  6
Continuous
 62
     7
 48
6.0
100
AcDbLine
 10
876.1675807939385
 20
596.3082723780887
 30
0.0
 11
874.6699801933383
 21
596.3082723780887
 31
0.0
  0
LINE
  5
61B
330
1F
100
AcDbEntity
  8
0
  6
Continuous
 62
     7
 48
6.0
100
AcDbLine
 10
876.1675807939385
 20
595.3098729786892
 30
0.0
 11
876.1675807939385
 21
596.3082723780887
 31
0.0
  0
LINE
  5
61C
330
1F
100
AcDbEntity
  8
0
  6
Continuous
 62
     7
100
AcDbLine
 10
1034.170791004151
 20
732.4090711768906
 30
0.0
 11
1031.170791004152
 21
732.4090711768906
 31
0.0
  0
LINE
  5
61D
330
1F
100
AcDbEntity
  8
0
  6
Continuous
 62
     7
100
AcDbLine
 10
1031.170791004152
 20
734.0090711768907
 30
0.0
 11
1031.170791004152
 21
732.4090711768906
 31
0.0
  0
LINE
  5
61E
330
1F
100
AcDbEntity
  8
0
  6
Continuous
 62
     7
100
AcDbLine
 10
1034.170791004151
 20
735.3090711768905
 30
0.0
 11
1034.170791004151
 21
732.4090711768906
 31
0.0
  0
LINE
  5
61F
330
1F
100
AcDbEntity
  8
0
  6
Continuous
 62
     7
100
AcDbLine
 10
1034.170791004151
 20
734.0090711768907
 30
0.0
 11
859.1707910041485
 21
734.0090711768907
 31
0.0
  0
LINE
  5
620
330
1F
100
AcDbEntity
  8
0
  6
Continuous
 62
     7
100
AcDbLine
 10
862.1707910041486
 20
734.0090711768907
 30
0.0
 11
862.1707910041486
 21
732.4090711768906
 31
0.0
  0
LINE
  5
621
330
1F
100
AcDbEntity
  8
0
  6
Continuous
 62
     7
100
AcDbLine
 10
859.1707910041485
 20
735.3090711768905
 30
0.0
 11
859.1707910041485
 21
732.4090711768906
 31
0.0
  0
LINE
  5
622
330
1F
100
AcDbEntity
  8
0
  6
Continuous
 62
     7
100
AcDbLine
 10
862.1707910041486
 20
732.4090711768906
 30
0.0
 11
859.1707910041485
 21
732.4090711768906
 31
0.0
  0
ARC
  5
623
330
1F
100
AcDbEntity
  8
0
  6
Continuous
 62
     7
100
AcDbCircle
 10
1010.490789569767
 20
737.2090726112751
 30
0.0
 40
1.9199985656159
100
AcDbArc
 50
89.99995719573075
 51
180.0000428042968
  0
ARC
  5
624
330
1F
100
AcDbEntity
  8
0
  6
Continuous
 62
     7
100
AcDbCircle
 10
1013.850792438536
 20
737.2090726112751
 30
0.0
 40
1.919998565616167
100
AcDbArc
 50
359.9999571957031
 51
90.00004280426926
  0
LINE
  5
625
330
1F
100
AcDbEntity
  8
0
  6
Continuous
 62
     7
100
AcDbLine
 10
1010.49079100415
 20
739.1290711768905
 30
0.0
 11
1013.850791004152
 21
739.1290711768905
 31
0.0
  0
LINE
  5
626
330
1F
100
AcDbEntity
  8
0
  6
Continuous
 62
     7
100
AcDbLine
 10
1007.130791004152
 20
736.2090711768907
 30
0.0
 11
1017.210791004152
 21
736.2090711768907
 31
0.0
  0
LINE
  5
627
330
1F
100
AcDbEntity
  8
0
  6
Continuous
 62
     7
100
AcDbLine
 10
1008.570791004151
 20
737.2090711768906
 30
0.0
 11
1008.570791004151
 21
736.2090711768907
 31
0.0
  0
LINE
  5
628
330
1F
100
AcDbEntity
  8
0
  6
Continuous
 62
     7
100
AcDbLine
 10
1015.77079100415
 20
737.2090711768906
 30
0.0
 11
1015.77079100415
 21
736.2090711768907
 31
0.0
  0
LINE
  5
629
330
1F
100
AcDbEntity
  8
0
  6
Continuous
 62
     7
100
AcDbLine
 10
1007.130791004152
 20
736.2090711768907
 30
0.0
 11
1007.130791004152
 21
735.2090711768905
 31
0.0
  0
LINE
  5
62A
330
1F
100
AcDbEntity
  8
0
  6
Continuous
 62
     7
100
AcDbLine
 10
1017.210791004152
 20
736.2090711768907
 30
0.0
 11
1017.210791004152
 21
735.2090711768905
 31
0.0
  0
ARC
  5
62B
330
1F
100
AcDbEntity
  8
0
  6
Continuous
 62
     7
100
AcDbCircle
 10
880.4908045847795
 20
737.2090726112749
 30
0.0
 40
1.919998565616497
100
AcDbArc
 50
89.99995719570142
 51
180.0000428042789
  0
ARC
  5
62C
330
1F
100
AcDbEntity
  8
0
  6
Continuous
 62
     7
100
AcDbCircle
 10
883.8508074535484
 20
737.209072611275
 30
0.0
 40
1.919998565615996
100
AcDbArc
 50
359.9999571957112
 51
90.00004280428877
  0
LINE
  5
62D
330
1F
100
AcDbEntity
  8
0
  6
Continuous
 62
     7
100
AcDbLine
 10
880.4908060191639
 20
739.1290711768905
 30
0.0
 11
883.8508060191641
 21
739.1290711768905
 31
0.0
  0
LINE
  5
62E
330
1F
100
AcDbEntity
  8
0
  6
Continuous
 62
     7
100
AcDbLine
 10
877.1308060191636
 20
736.2090711768907
 30
0.0
 11
887.210806019164
 21
736.2090711768907
 31
0.0
  0
LINE
  5
62F
330
1F
100
AcDbEntity
  8
0
  6
Continuous
 62
     7
100
AcDbLine
 10
878.5708060191637
 20
737.2090711768906
 30
0.0
 11
878.5708060191637
 21
736.2090711768907
 31
0.0
  0
LINE
  5
630
330
1F
100
AcDbEntity
  8
0
  6
Continuous
 62
     7
100
AcDbLine
 10
885.7708060191638
 20
737.2090711768906
 30
0.0
 11
885.7708060191638
 21
736.2090711768907
 31
0.0
  0
LINE
  5
631
330
1F
100
AcDbEntity
  8
0
  6
Continuous
 62
     7
100
AcDbLine
 10
877.1308060191636
 20
736.2090711768907
 30
0.0
 11
877.1308060191636
 21
735.2090711768905
 31
0.0
  0
LINE
  5
632
330
1F
100
AcDbEntity
  8
0
  6
Continuous
 62
     7
100
AcDbLine
 10
887.210806019164
 20
736.2090711768907
 30
0.0
 11
887.210806019164
 21
735.2090711768905
 31
0.0
  0
LINE
  5
633
330
1F
100
AcDbEntity
  8
0
  6
Continuous
 62
     7
100
AcDbLine
 10
1034.170791004151
 20
735.2090711768905
 30
0.0
 11
859.1707910041485
 21
735.2090711768905
 31
0.0
  0
LINE
  5
634
330
1F
100
AcDbEntity
  8
0
  6
Continuous
 62
     7
 48
6.0
100
AcDbLine
 10
876.1675837969416
 20
715.309872978692
 30
0.0
 11
876.1675837969416
 21
715.309872978692
 31
0.0
  0
LINE
  5
635
330
1F
100
AcDbEntity
  8
0
  6
Continuous
 62
     7
 48
6.0
100
AcDbLine
 10
874.6699831963407
 20
715.309872978692
 30
0.0
 11
876.1675837969416
 21
715.309872978692
 31
0.0
  0
LINE
  5
636
330
1F
100
AcDbEntity
  8
0
  6
Continuous
 62
     7
 48
6.0
100
AcDbLine
 10
874.6699831963407
 20
713.8122723780912
 30
0.0
 11
874.6699831963407
 21
715.309872978692
 31
0.0
  0
LINE
  5
637
330
1F
100
AcDbEntity
  8
0
  6
Continuous
 62
     7
 48
6.0
100
AcDbLine
 10
873.6715837969413
 20
713.8122723780912
 30
0.0
 11
874.6699831963407
 21
713.8122723780912
 31
0.0
  0
LINE
  5
638
330
1F
100
AcDbEntity
  8
0
  6
Continuous
 62
     7
 48
6.0
100
AcDbLine
 10
873.6715837969413
 20
715.309872978692
 30
0.0
 11
873.6715837969413
 21
713.8122723780912
 31
0.0
  0
LINE
  5
639
330
1F
100
AcDbEntity
  8
0
  6
Continuous
 62
     7
 48
6.0
100
AcDbLine
 10
872.1739831963407
 20
715.309872978692
 30
0.0
 11
873.6715837969413
 21
715.309872978692
 31
0.0
  0
LINE
  5
63A
330
1F
100
AcDbEntity
  8
0
  6
Continuous
 62
     7
 48
6.0
100
AcDbLine
 10
872.1739831963407
 20
716.3082723780912
 30
0.0
 11
872.1739831963407
 21
715.309872978692
 31
0.0
  0
LINE
  5
63B
330
1F
100
AcDbEntity
  8
0
  6
Continuous
 62
     7
 48
6.0
100
AcDbLine
 10
873.6715837969413
 20
716.3082723780912
 30
0.0
 11
872.1739831963407
 21
716.3082723780912
 31
0.0
  0
LINE
  5
63C
330
1F
100
AcDbEntity
  8
0
  6
Continuous
 62
     7
 48
6.0
100
AcDbLine
 10
873.6715837969413
 20
717.805872978692
 30
0.0
 11
873.6715837969413
 21
716.3082723780912
 31
0.0
  0
LINE
  5
63D
330
1F
100
AcDbEntity
  8
0
  6
Continuous
 62
     7
 48
6.0
100
AcDbLine
 10
874.6699831963407
 20
717.805872978692
 30
0.0
 11
873.6715837969413
 21
717.805872978692
 31
0.0
  0
LINE
  5
63E
330
1F
100
AcDbEntity
  8
0
  6
Continuous
 62
     7
 48
6.0
100
AcDbLine
 10
874.6699831963407
 20
716.3082723780912
 30
0.0
 11
874.6699831963407
 21
717.805872978692
 31
0.0
  0
LINE
  5
63F
330
1F
100
AcDbEntity
  8
0
  6
Continuous
 62
     7
 48
6.0
100
AcDbLine
 10
876.1675837969416
 20
716.3082723780912
 30
0.0
 11
874.6699831963407
 21
716.3082723780912
 31
0.0
  0
LINE
  5
640
330
1F
100
AcDbEntity
  8
0
  6
Continuous
 62
     7
 48
6.0
100
AcDbLine
 10
876.1675837969416
 20
715.309872978692
 30
0.0
 11
876.1675837969416
 21
716.3082723780912
 31
0.0
  0
ARC
  5
641
330
1F
100
AcDbEntity
  8
0
  6
Continuous
 62
     7
100
AcDbCircle
 10
829.8046484286224
 20
343.6290307034588
 30
0.0
 40
1.919998565616167
100
AcDbArc
 50
179.9999571957046
 51
270.0000428042757
  0
ARC
  5
642
330
1F
100
AcDbEntity
  8
0
  6
Continuous
 62
     7
100
AcDbCircle
 10
829.804648428621
 20
346.989033572228
 30
0.0
 40
1.919998565615826
100
AcDbArc
 50
89.99995719572096
 51
180.0000428042888
  0
LINE
  5
643
330
1F
100
AcDbEntity
  8
0
  6
Continuous
 62
     7
100
AcDbLine
 10
827.8846498630068
 20
343.6290321378434
 30
0.0
 11
827.8846498630068
 21
346.9890321378436
 31
0.0
  0
LINE
  5
644
330
1F
100
AcDbEntity
  8
0
  6
Continuous
 62
     7
100
AcDbLine
 10
829.8046498630064
 20
341.7090321378428
 30
0.0
 11
830.8046498630067
 21
341.7090321378428
 31
0.0
  0
LINE
  5
645
330
1F
100
AcDbEntity
  8
0
  6
Continuous
 62
     7
100
AcDbLine
 10
829.8046498630064
 20
348.909032137843
 30
0.0
 11
830.8046498630067
 21
348.909032137843
 31
0.0
  0
ARC
  5
646
330
1F
100
AcDbEntity
  8
0
  6
Continuous
 62
     7
100
AcDbCircle
 10
829.7624352154096
 20
683.629060733496
 30
0.0
 40
1.919998565616338
100
AcDbArc
 50
179.9999571957128
 51
270.0000428042855
  0
ARC
  5
647
330
1F
100
AcDbEntity
  8
0
  6
Continuous
 62
     7
100
AcDbCircle
 10
829.7624352154096
 20
686.9890636022647
 30
0.0
 40
1.919998565616253
100
AcDbArc
 50
89.99995719571442
 51
180.0000428042871
  0
LINE
  5
648
330
1F
100
AcDbEntity
  8
0
  6
Continuous
 62
     7
100
AcDbLine
 10
827.8424366497933
 20
683.6290621678806
 30
0.0
 11
827.8424366497933
 21
686.9890621678806
 31
0.0
  0
LINE
  5
649
330
1F
100
AcDbEntity
  8
0
  6
Continuous
 62
     7
100
AcDbLine
 10
829.762436649794
 20
681.7090621678803
 30
0.0
 11
830.7624366497933
 21
681.7090621678803
 31
0.0
  0
LINE
  5
64A
330
1F
100
AcDbEntity
  8
0
  6
Continuous
 62
     7
100
AcDbLine
 10
829.762436649794
 20
688.9090621678804
 30
0.0
 11
830.7624366497933
 21
688.9090621678804
 31
0.0
  0
LINE
  5
64B
330
1F
100
AcDbEntity
  8
0
  6
Continuous
 62
     7
100
AcDbLine
 10
1061.570791004153
 20
299.8090711768814
 30
0.0
 11
1061.570791004153
 21
295.3090711768808
 31
0.0
  0
LINE
  5
64C
330
1F
100
AcDbEntity
  8
0
  6
Continuous
 62
     7
100
AcDbLine
 10
1061.570791004153
 20
735.3090711768905
 30
0.0
 11
1061.570791004153
 21
730.8090711768906
 31
0.0
  0
LINE
  5
64D
330
1F
100
AcDbEntity
  8
0
  6
Continuous
 62
     7
100
AcDbLine
 10
830.9707910041478
 20
295.3090711768808
 30
0.0
 11
830.9707910041478
 21
735.3090711768905
 31
0.0
  0
LINE
  5
64E
330
1F
100
AcDbEntity
  8
0
  6
Continuous
 62
     7
100
AcDbLine
 10
942.1380492624082
 20
231.217602708411
 30
0.0
 11
942.1380492624082
 21
295.3090711768808
 31
0.0
  0
LINE
  5
64F
330
1F
100
AcDbEntity
  8
0
  6
Continuous
 62
     7
100
AcDbLine
 10
892.1429051182633
 20
231.217602708411
 30
0.0
 11
942.1380492624082
 21
231.217602708411
 31
0.0
  0
LINE
  5
650
330
1F
100
AcDbEntity
  8
0
  6
Continuous
 62
     7
100
AcDbLine
 10
892.1429051182633
 20
295.3090711768808
 30
0.0
 11
892.1429051182633
 21
231.217602708411
 31
0.0
  0
LINE
  5
651
330
1F
100
AcDbEntity
  8
0
  6
Continuous
 62
     7
100
AcDbLine
 10
1063.170791004153
 20
730.8090711768906
 30
0.0
 11
1061.570791004153
 21
730.8090711768906
 31
0.0
  0
LINE
  5
652
330
1F
100
AcDbEntity
  8
0
  6
Continuous
 62
     7
100
AcDbLine
 10
1063.170791004153
 20
299.8090711768814
 30
0.0
 11
1063.170791004153
 21
730.8090711768906
 31
0.0
  0
LINE
  5
653
330
1F
100
AcDbEntity
  8
0
  6
Continuous
 62
     7
100
AcDbLine
 10
1061.570791004153
 20
299.8090711768814
 30
0.0
 11
1063.170791004153
 21
299.8090711768814
 31
0.0
  0
LINE
  5
654
330
1F
100
AcDbEntity
  8
0
  6
Continuous
 62
     7
100
AcDbLine
 10
832.1707910041476
 20
295.3090711768808
 30
0.0
 11
832.1707910041476
 21
735.3090711768905
 31
0.0
  0
LINE
  5
655
330
1F
100
AcDbEntity
  8
0
  6
Continuous
 62
     7
100
AcDbLine
 10
1061.570791004153
 20
295.3090711768808
 30
0.0
 11
830.9707910041478
 21
295.3090711768808
 31
0.0
  0
LINE
  5
656
330
1F
100
AcDbEntity
  8
0
  6
Continuous
 62
     7
100
AcDbLine
 10
830.9707910041478
 20
735.3090711768905
 30
0.0
 11
1061.570791004153
 21
735.3090711768905
 31
0.0
  0
LINE
  5
657
330
1F
100
AcDbEntity
  8
0
  6
Continuous
 62
     7
100
AcDbLine
 10
1071.170791004152
 20
295.7090711768808
 30
0.0
 11
1071.170791004152
 21
270.3090711768808
 31
0.0
  0
ARC
  5
658
330
1F
100
AcDbEntity
  8
0
  6
Continuous
 62
     7
100
AcDbCircle
 10
1069.570792199472
 20
295.7090723722018
 30
0.0
 40
1.59999880468011
100
AcDbArc
 50
359.9999571956996
 51
90.0000428042823
  0
LINE
  5
659
330
1F
100
AcDbEntity
  8
0
  6
Continuous
 62
     7
100
AcDbLine
 10
1061.570791004153
 20
297.3090711768814
 30
0.0
 11
1069.570791004153
 21
297.3090711768814
 31
0.0
  0
LINE
  5
65A
330
1F
100
AcDbEntity
  8
0
  6
Continuous
 62
     7
100
AcDbLine
 10
1071.170791004152
 20
734.9090711768906
 30
0.0
 11
1071.170791004152
 21
765.3090711768911
 31
0.0
  0
ARC
  5
65B
330
1F
100
AcDbEntity
  8
0
  6
Continuous
 62
     7
100
AcDbCircle
 10
1069.570792199472
 20
734.9090699815702
 30
0.0
 40
1.59999880467994
100
AcDbArc
 50
269.9999571957174
 51
0.0000428042953226
  0
LINE
  5
65C
330
1F
100
AcDbEntity
  8
0
  6
Continuous
 62
     7
100
AcDbLine
 10
1061.570791004153
 20
733.3090711768903
 30
0.0
 11
1069.570791004153
 21
733.3090711768903
 31
0.0
  0
LINE
  5
65D
330
1F
100
AcDbEntity
  8
0
  6
Continuous
 62
     7
100
AcDbLine
 10
1069.170791004153
 20
295.3090711768808
 30
0.0
 11
1069.170791004153
 21
270.3090711768808
 31
0.0
  0
LINE
  5
65E
330
1F
100
AcDbEntity
  8
0
  6
Continuous
 62
     7
100
AcDbLine
 10
1069.170791004153
 20
765.3090711768911
 30
0.0
 11
1069.170791004153
 21
735.3090711768905
 31
0.0
  0
LINE
  5
65F
330
1F
100
AcDbEntity
  8
0
  6
Continuous
 62
     7
100
AcDbLine
 10
1069.170791004153
 20
765.3090711768911
 30
0.0
 11
1071.170791004152
 21
765.3090711768911
 31
0.0
  0
LINE
  5
660
330
1F
100
AcDbEntity
  8
0
  6
Continuous
 62
     7
100
AcDbLine
 10
1060.670791004152
 20
735.3090711768905
 30
0.0
 11
1069.170791004153
 21
735.3090711768905
 31
0.0
  0
LINE
  5
661
330
1F
100
AcDbEntity
  8
0
  6
Continuous
 62
     7
100
AcDbLine
 10
1061.570791004153
 20
295.3090711768808
 30
0.0
 11
1069.170791004153
 21
295.3090711768808
 31
0.0
  0
LINE
  5
662
330
1F
100
AcDbEntity
  8
0
  6
Continuous
 62
     7
100
AcDbLine
 10
1069.170791004153
 20
270.3090711768808
 30
0.0
 11
1071.170791004152
 21
270.3090711768808
 31
0.0
  0
LINE
  5
663
330
1F
100
AcDbEntity
  8
0
  6
Continuous
 62
     7
 48
3.0
100
AcDbLine
 10
519.3766828960328
 20
287.5201973030073
 30
0.0
 11
519.3766828960328
 21
287.5201973030073
 31
0.0
  0
LINE
  5
664
330
1F
100
AcDbEntity
  8
0
  6
Continuous
 62
     7
 48
3.0
100
AcDbLine
 10
518.2707639771146
 20
287.5201973030073
 30
0.0
 11
519.3766828960328
 21
287.5201973030073
 31
0.0
  0
LINE
  5
665
330
1F
100
AcDbEntity
  8
0
  6
Continuous
 62
     7
 48
3.0
100
AcDbLine
 10
518.2707639771146
 20
286.4142753810848
 30
0.0
 11
518.2707639771146
 21
287.5201973030073
 31
0.0
  0
LINE
  5
666
330
1F
100
AcDbEntity
  8
0
  6
Continuous
 62
     7
 48
3.0
100
AcDbLine
 10
517.5334846978347
 20
286.4142753810848
 30
0.0
 11
518.2707639771146
 21
286.4142753810848
 31
0.0
  0
LINE
  5
667
330
1F
100
AcDbEntity
  8
0
  6
Continuous
 62
     7
 48
3.0
100
AcDbLine
 10
517.5334846978347
 20
287.5201973030073
 30
0.0
 11
517.5334846978347
 21
286.4142753810848
 31
0.0
  0
LINE
  5
668
330
1F
100
AcDbEntity
  8
0
  6
Continuous
 62
     7
 48
3.0
100
AcDbLine
 10
516.4275627759127
 20
287.5201973030073
 30
0.0
 11
517.5334846978347
 21
287.5201973030073
 31
0.0
  0
LINE
  5
669
330
1F
100
AcDbEntity
  8
0
  6
Continuous
 62
     7
 48
3.0
100
AcDbLine
 10
516.4275627759127
 20
288.2574765822861
 30
0.0
 11
516.4275627759127
 21
287.5201973030073
 31
0.0
  0
LINE
  5
66A
330
1F
100
AcDbEntity
  8
0
  6
Continuous
 62
     7
 48
3.0
100
AcDbLine
 10
517.5334846978347
 20
288.2574765822861
 30
0.0
 11
516.4275627759127
 21
288.2574765822861
 31
0.0
  0
LINE
  5
66B
330
1F
100
AcDbEntity
  8
0
  6
Continuous
 62
     7
 48
3.0
100
AcDbLine
 10
517.5334846978347
 20
289.3633955012049
 30
0.0
 11
517.5334846978347
 21
288.2574765822861
 31
0.0
  0
LINE
  5
66C
330
1F
100
AcDbEntity
  8
0
  6
Continuous
 62
     7
 48
3.0
100
AcDbLine
 10
518.2707639771146
 20
289.3633955012049
 30
0.0
 11
517.5334846978347
 21
289.3633955012049
 31
0.0
  0
LINE
  5
66D
330
1F
100
AcDbEntity
  8
0
  6
Continuous
 62
     7
 48
3.0
100
AcDbLine
 10
518.2707639771146
 20
288.2574765822861
 30
0.0
 11
518.2707639771146
 21
289.3633955012049
 31
0.0
  0
LINE
  5
66E
330
1F
100
AcDbEntity
  8
0
  6
Continuous
 62
     7
 48
3.0
100
AcDbLine
 10
519.3766828960328
 20
288.2574765822861
 30
0.0
 11
518.2707639771146
 21
288.2574765822861
 31
0.0
  0
LINE
  5
66F
330
1F
100
AcDbEntity
  8
0
  6
Continuous
 62
     7
 48
3.0
100
AcDbLine
 10
519.3766828960328
 20
287.5201973030073
 30
0.0
 11
519.3766828960328
 21
288.2574765822861
 31
0.0
  0
ARC
  5
670
330
1F
100
AcDbEntity
  8
0
  6
Continuous
 62
     7
100
AcDbCircle
 10
517.9021213344713
 20
287.8888375396454
 30
0.0
 40
3.600000000001721
100
AcDbArc
 50
180.0000572958087
 51
359.9999427041913
  0
LINE
  5
671
330
1F
100
AcDbEntity
  8
0
  6
Continuous
 62
     7
100
AcDbLine
 10
521.5021183314685
 20
295.1634885942983
 30
0.0
 11
521.5021183314685
 21
287.8888339396433
 31
0.0
  0
LINE
  5
672
330
1F
100
AcDbEntity
  8
0
  6
Continuous
 62
     7
100
AcDbLine
 10
514.3021183314682
 20
295.1634885942983
 30
0.0
 11
514.3021183314682
 21
287.8888339396433
 31
0.0
  0
ARC
  5
673
330
1F
100
AcDbEntity
  8
0
  6
Continuous
 62
     7
100
AcDbCircle
 10
710.950795441533
 20
737.309072611275
 30
0.0
 40
1.919998565616241
100
AcDbArc
 50
359.9999571957126
 51
90.00004280428877
  0
ARC
  5
674
330
1F
100
AcDbEntity
  8
0
  6
Continuous
 62
     7
100
AcDbCircle
 10
707.5907925727634
 20
737.3090726112747
 30
0.0
 40
1.919998565616509
100
AcDbArc
 50
89.99995719570142
 51
180.0000428042757
  0
LINE
  5
675
330
1F
100
AcDbEntity
  8
0
  6
Continuous
 62
     7
100
AcDbLine
 10
710.9507940071482
 20
739.2290711768906
 30
0.0
 11
707.5907940071486
 21
739.2290711768906
 31
0.0
  0
LINE
  5
676
330
1F
100
AcDbEntity
  8
0
  6
Continuous
 62
     7
100
AcDbLine
 10
714.3107910041452
 20
736.3090711768905
 30
0.0
 11
704.2307910041447
 21
736.3090711768905
 31
0.0
  0
LINE
  5
677
330
1F
100
AcDbEntity
  8
0
  6
Continuous
 62
     7
100
AcDbLine
 10
712.8707940071487
 20
737.3090711768906
 30
0.0
 11
712.8707940071487
 21
736.3090711768905
 31
0.0
  0
LINE
  5
678
330
1F
100
AcDbEntity
  8
0
  6
Continuous
 62
     7
100
AcDbLine
 10
705.6707940071476
 20
737.3090711768906
 30
0.0
 11
705.6707940071476
 21
736.3090711768905
 31
0.0
  0
LINE
  5
679
330
1F
100
AcDbEntity
  8
0
  6
Continuous
 62
     7
100
AcDbLine
 10
714.3107910041452
 20
736.3090711768905
 30
0.0
 11
714.3107910041452
 21
735.3090711768905
 31
0.0
  0
LINE
  5
67A
330
1F
100
AcDbEntity
  8
0
  6
Continuous
 62
     7
100
AcDbLine
 10
704.2307910041447
 20
736.3090711768905
 30
0.0
 11
704.2307910041447
 21
735.3090711768905
 31
0.0
  0
ARC
  5
67B
330
1F
100
AcDbEntity
  8
0
  6
Continuous
 62
     7
100
AcDbCircle
 10
303.590789569752
 20
737.309072611275
 30
0.0
 40
1.919998565616241
100
AcDbArc
 50
89.99995719571119
 51
180.0000428042871
  0
ARC
  5
67C
330
1F
100
AcDbEntity
  8
0
  6
Continuous
 62
     7
100
AcDbCircle
 10
306.9507924385201
 20
737.309072611275
 30
0.0
 40
1.919998565616167
100
AcDbArc
 50
359.9999571957126
 51
90.00004280428877
  0
LINE
  5
67D
330
1F
100
AcDbEntity
  8
0
  6
Continuous
 62
     7
100
AcDbLine
 10
303.5907910041367
 20
739.2290711768906
 30
0.0
 11
306.9507910041368
 21
739.2290711768906
 31
0.0
  0
LINE
  5
67E
330
1F
100
AcDbEntity
  8
0
  6
Continuous
 62
     7
100
AcDbLine
 10
300.2307910041362
 20
736.3090711768905
 30
0.0
 11
310.3107910041366
 21
736.3090711768905
 31
0.0
  0
LINE
  5
67F
330
1F
100
AcDbEntity
  8
0
  6
Continuous
 62
     7
100
AcDbLine
 10
301.6707910041366
 20
737.3090711768906
 30
0.0
 11
301.6707910041366
 21
736.3090711768905
 31
0.0
  0
LINE
  5
680
330
1F
100
AcDbEntity
  8
0
  6
Continuous
 62
     7
100
AcDbLine
 10
308.8707910041368
 20
737.3090711768906
 30
0.0
 11
308.8707910041368
 21
736.3090711768905
 31
0.0
  0
LINE
  5
681
330
1F
100
AcDbEntity
  8
0
  6
Continuous
 62
     7
100
AcDbLine
 10
300.2307910041362
 20
736.3090711768905
 30
0.0
 11
300.2307910041362
 21
735.3090711768905
 31
0.0
  0
LINE
  5
682
330
1F
100
AcDbEntity
  8
0
  6
Continuous
 62
     7
100
AcDbLine
 10
310.3107910041366
 20
736.3090711768905
 30
0.0
 11
310.3107910041366
 21
735.3090711768905
 31
0.0
  0
LINE
  5
683
330
1F
100
AcDbEntity
  8
0
  6
DASHED
 62
     7
 48
5.0
100
AcDbLine
 10
551.4908748712087
 20
704.0413282072521
 30
0.0
 11
551.4908748712087
 21
704.0413282072521
 31
0.0
  0
ARC
  5
684
330
1F
100
AcDbEntity
  8
0
  6
Continuous
 62
     7
100
AcDbCircle
 10
295.0169036838656
 20
331.9890636022575
 30
0.0
 40
1.919998565616338
100
AcDbArc
 50
89.99995719571442
 51
180.0000428042871
  0
ARC
  5
685
330
1F
100
AcDbEntity
  8
0
  6
Continuous
 62
     7
100
AcDbCircle
 10
295.0169036838656
 20
328.6290607334886
 30
0.0
 40
1.919998565616253
100
AcDbArc
 50
179.999957195716
 51
270.0000428042887
  0
LINE
  5
686
330
1F
100
AcDbEntity
  8
0
  6
Continuous
 62
     7
100
AcDbLine
 10
293.0969051182502
 20
331.9890621678727
 30
0.0
 11
293.0969051182502
 21
328.6290621678726
 31
0.0
  0
LINE
  5
687
330
1F
100
AcDbEntity
  8
0
  6
Continuous
 62
     7
100
AcDbLine
 10
296.0169051182504
 20
335.3490591648701
 30
0.0
 11
296.0169051182504
 21
325.26905916487
 31
0.0
  0
LINE
  5
688
330
1F
100
AcDbEntity
  8
0
  6
Continuous
 62
     7
100
AcDbLine
 10
295.0169051182502
 20
333.9090621678727
 30
0.0
 11
296.0169051182504
 21
333.9090621678727
 31
0.0
  0
LINE
  5
689
330
1F
100
AcDbEntity
  8
0
  6
Continuous
 62
     7
100
AcDbLine
 10
295.0169051182502
 20
326.7090621678726
 30
0.0
 11
296.0169051182504
 21
326.7090621678726
 31
0.0
  0
LINE
  5
68A
330
1F
100
AcDbEntity
  8
0
  6
Continuous
 62
     7
100
AcDbLine
 10
296.0169051182504
 20
335.3490591648701
 30
0.0
 11
297.0169051182502
 21
335.3490591648701
 31
0.0
  0
LINE
  5
68B
330
1F
100
AcDbEntity
  8
0
  6
Continuous
 62
     7
100
AcDbLine
 10
296.0169051182504
 20
325.26905916487
 30
0.0
 11
297.0169051182502
 21
325.26905916487
 31
0.0
  0
ARC
  5
68C
330
1F
100
AcDbEntity
  8
0
  6
Continuous
 62
     7
100
AcDbCircle
 10
295.0169036838656
 20
516.9892287674263
 30
0.0
 40
1.919998565616167
100
AcDbArc
 50
89.99995719571119
 51
180.0000428042871
  0
ARC
  5
68D
330
1F
100
AcDbEntity
  8
0
  6
Continuous
 62
     7
100
AcDbCircle
 10
295.0169036838656
 20
513.6292258986578
 30
0.0
 40
1.919998565616253
100
AcDbArc
 50
179.9999571957144
 51
270.0000428042887
  0
LINE
  5
68E
330
1F
100
AcDbEntity
  8
0
  6
Continuous
 62
     7
100
AcDbLine
 10
293.0969051182502
 20
516.9892273330418
 30
0.0
 11
293.0969051182502
 21
513.6292273330418
 31
0.0
  0
LINE
  5
68F
330
1F
100
AcDbEntity
  8
0
  6
Continuous
 62
     7
100
AcDbLine
 10
296.0169051182504
 20
520.349227333042
 30
0.0
 11
296.0169051182504
 21
510.2692273330418
 31
0.0
  0
LINE
  5
690
330
1F
100
AcDbEntity
  8
0
  6
Continuous
 62
     7
100
AcDbLine
 10
295.0169051182502
 20
518.9092273330418
 30
0.0
 11
296.0169051182504
 21
518.9092273330418
 31
0.0
  0
LINE
  5
691
330
1F
100
AcDbEntity
  8
0
  6
Continuous
 62
     7
100
AcDbLine
 10
295.0169051182502
 20
511.7092273330418
 30
0.0
 11
296.0169051182504
 21
511.7092273330418
 31
0.0
  0
LINE
  5
692
330
1F
100
AcDbEntity
  8
0
  6
Continuous
 62
     7
100
AcDbLine
 10
296.0169051182504
 20
520.349227333042
 30
0.0
 11
297.0169051182502
 21
520.349227333042
 31
0.0
  0
LINE
  5
693
330
1F
100
AcDbEntity
  8
0
  6
Continuous
 62
     7
100
AcDbLine
 10
296.0169051182504
 20
510.2692273330418
 30
0.0
 11
297.0169051182502
 21
510.2692273330418
 31
0.0
  0
ARC
  5
694
330
1F
100
AcDbEntity
  8
0
  6
Continuous
 62
     7
100
AcDbCircle
 10
295.2277715517341
 20
597.4890756142749
 30
0.0
 40
1.919998565616338
100
AcDbArc
 50
89.99995719571442
 51
180.0000428042871
  0
ARC
  5
695
330
1F
100
AcDbEntity
  8
0
  6
Continuous
 62
     7
100
AcDbCircle
 10
295.2277715517341
 20
594.1290727455061
 30
0.0
 40
1.919998565616253
100
AcDbArc
 50
179.9999571957128
 51
270.0000428042855
  0
LINE
  5
696
330
1F
100
AcDbEntity
  8
0
  6
Continuous
 62
     7
100
AcDbLine
 10
293.3077729861181
 20
597.4890741798906
 30
0.0
 11
293.3077729861181
 21
594.1290741798907
 31
0.0
  0
LINE
  5
697
330
1F
100
AcDbEntity
  8
0
  6
Continuous
 62
     7
100
AcDbLine
 10
296.2277729861186
 20
600.8490741798906
 30
0.0
 11
296.2277729861186
 21
590.7690741798902
 31
0.0
  0
LINE
  5
698
330
1F
100
AcDbEntity
  8
0
  6
Continuous
 62
     7
100
AcDbLine
 10
295.2277729861182
 20
599.4090741798905
 30
0.0
 11
296.2277729861186
 21
599.4090741798905
 31
0.0
  0
LINE
  5
699
330
1F
100
AcDbEntity
  8
0
  6
Continuous
 62
     7
100
AcDbLine
 10
295.2277729861182
 20
592.2090741798905
 30
0.0
 11
296.2277729861186
 21
592.2090741798905
 31
0.0
  0
LINE
  5
69A
330
1F
100
AcDbEntity
  8
0
  6
Continuous
 62
     7
100
AcDbLine
 10
296.2277729861186
 20
600.8490741798906
 30
0.0
 11
297.2277729861177
 21
600.8490741798906
 31
0.0
  0
LINE
  5
69B
330
1F
100
AcDbEntity
  8
0
  6
Continuous
 62
     7
100
AcDbLine
 10
296.2277729861186
 20
590.7690741798902
 30
0.0
 11
297.2277729861177
 21
590.7690741798902
 31
0.0
  0
ARC
  5
69C
330
1F
100
AcDbEntity
  8
0
  6
Continuous
 62
     7
100
AcDbCircle
 10
295.101339119301
 20
701.9890335722349
 30
0.0
 40
1.919998565616167
100
AcDbArc
 50
89.99995719571119
 51
180.0000428042871
  0
ARC
  5
69D
330
1F
100
AcDbEntity
  8
0
  6
Continuous
 62
     7
100
AcDbCircle
 10
295.1013391193013
 20
698.6290307034663
 30
0.0
 40
1.919998565616253
100
AcDbArc
 50
179.9999571957128
 51
270.0000428042855
  0
LINE
  5
69E
330
1F
100
AcDbEntity
  8
0
  6
Continuous
 62
     7
100
AcDbLine
 10
293.1813405536857
 20
701.9890321378507
 30
0.0
 11
293.1813405536857
 21
698.6290321378509
 31
0.0
  0
LINE
  5
69F
330
1F
100
AcDbEntity
  8
0
  6
Continuous
 62
     7
100
AcDbLine
 10
296.1013405536861
 20
705.3490291348481
 30
0.0
 11
296.1013405536861
 21
695.2690291348475
 31
0.0
  0
LINE
  5
6A0
330
1F
100
AcDbEntity
  8
0
  6
Continuous
 62
     7
100
AcDbLine
 10
295.1013405536857
 20
703.9090321378507
 30
0.0
 11
296.1013405536861
 21
703.9090321378507
 31
0.0
  0
LINE
  5
6A1
330
1F
100
AcDbEntity
  8
0
  6
Continuous
 62
     7
100
AcDbLine
 10
295.1013405536857
 20
696.7090321378506
 30
0.0
 11
296.1013405536861
 21
696.7090321378506
 31
0.0
  0
LINE
  5
6A2
330
1F
100
AcDbEntity
  8
0
  6
Continuous
 62
     7
100
AcDbLine
 10
296.1013405536861
 20
705.3490291348481
 30
0.0
 11
297.1013405536858
 21
705.3490291348481
 31
0.0
  0
LINE
  5
6A3
330
1F
100
AcDbEntity
  8
0
  6
Continuous
 62
     7
100
AcDbLine
 10
296.1013405536861
 20
695.2690291348475
 30
0.0
 11
297.1013405536858
 21
695.2690291348475
 31
0.0
  0
ARC
  5
6A4
330
1F
100
AcDbEntity
  8
0
  6
Continuous
 62
     7
100
AcDbCircle
 10
295.101339119301
 20
717.4890335722356
 30
0.0
 40
1.919998565616167
100
AcDbArc
 50
89.99995719571119
 51
180.0000428042871
  0
ARC
  5
6A5
330
1F
100
AcDbEntity
  8
0
  6
Continuous
 62
     7
100
AcDbCircle
 10
295.101339119301
 20
714.1290307034668
 30
0.0
 40
1.919998565616253
100
AcDbArc
 50
179.9999571957128
 51
270.0000428042887
  0
LINE
  5
6A6
330
1F
100
AcDbEntity
  8
0
  6
Continuous
 62
     7
100
AcDbLine
 10
293.1813405536857
 20
717.4890321378512
 30
0.0
 11
293.1813405536857
 21
714.1290321378509
 31
0.0
  0
LINE
  5
6A7
330
1F
100
AcDbEntity
  8
0
  6
Continuous
 62
     7
100
AcDbLine
 10
296.1013405536861
 20
720.8490291348481
 30
0.0
 11
296.1013405536861
 21
710.769029134848
 31
0.0
  0
LINE
  5
6A8
330
1F
100
AcDbEntity
  8
0
  6
Continuous
 62
     7
100
AcDbLine
 10
295.1013405536857
 20
719.4090321378511
 30
0.0
 11
296.1013405536861
 21
719.4090321378511
 31
0.0
  0
LINE
  5
6A9
330
1F
100
AcDbEntity
  8
0
  6
Continuous
 62
     7
100
AcDbLine
 10
295.1013405536857
 20
712.2090321378513
 30
0.0
 11
296.1013405536861
 21
712.2090321378513
 31
0.0
  0
LINE
  5
6AA
330
1F
100
AcDbEntity
  8
0
  6
Continuous
 62
     7
100
AcDbLine
 10
296.1013405536861
 20
720.8490291348481
 30
0.0
 11
297.1013405536858
 21
720.8490291348481
 31
0.0
  0
LINE
  5
6AB
330
1F
100
AcDbEntity
  8
0
  6
Continuous
 62
     7
100
AcDbLine
 10
296.1013405536861
 20
710.769029134848
 30
0.0
 11
297.1013405536858
 21
710.769029134848
 31
0.0
  0
ARC
  5
6AC
330
1F
100
AcDbEntity
  8
0
  6
Continuous
 62
     7
100
AcDbCircle
 10
719.5246753214128
 20
331.9890636022575
 30
0.0
 40
1.919998565616338
100
AcDbArc
 50
359.9999571957161
 51
90.00004280428877
  0
ARC
  5
6AD
330
1F
100
AcDbEntity
  8
0
  6
Continuous
 62
     7
100
AcDbCircle
 10
719.5246753214128
 20
328.6290607334886
 30
0.0
 40
1.919998565616253
100
AcDbArc
 50
269.9999571957046
 51
0.0000428042839235
  0
LINE
  5
6AE
330
1F
100
AcDbEntity
  8
0
  6
Continuous
 62
     7
100
AcDbLine
 10
721.4446738870283
 20
331.9890621678727
 30
0.0
 11
721.4446738870283
 21
328.6290621678726
 31
0.0
  0
LINE
  5
6AF
330
1F
100
AcDbEntity
  8
0
  6
Continuous
 62
     7
100
AcDbLine
 10
718.524673887028
 20
335.3490591648701
 30
0.0
 11
718.524673887028
 21
325.26905916487
 31
0.0
  0
LINE
  5
6B0
330
1F
100
AcDbEntity
  8
0
  6
Continuous
 62
     7
100
AcDbLine
 10
719.5246738870284
 20
333.9090621678727
 30
0.0
 11
718.524673887028
 21
333.9090621678727
 31
0.0
  0
LINE
  5
6B1
330
1F
100
AcDbEntity
  8
0
  6
Continuous
 62
     7
100
AcDbLine
 10
719.5246738870284
 20
326.7090621678726
 30
0.0
 11
718.524673887028
 21
326.7090621678726
 31
0.0
  0
LINE
  5
6B2
330
1F
100
AcDbEntity
  8
0
  6
Continuous
 62
     7
100
AcDbLine
 10
718.524673887028
 20
335.3490591648701
 30
0.0
 11
717.5246738870285
 21
335.3490591648701
 31
0.0
  0
LINE
  5
6B3
330
1F
100
AcDbEntity
  8
0
  6
Continuous
 62
     7
100
AcDbLine
 10
718.524673887028
 20
325.26905916487
 30
0.0
 11
717.5246738870285
 21
325.26905916487
 31
0.0
  0
ARC
  5
6B4
330
1F
100
AcDbEntity
  8
0
  6
Continuous
 62
     7
100
AcDbCircle
 10
719.5246753214128
 20
516.9892287674263
 30
0.0
 40
1.919998565616167
100
AcDbArc
 50
359.9999571957161
 51
90.00004280429529
  0
ARC
  5
6B5
330
1F
100
AcDbEntity
  8
0
  6
Continuous
 62
     7
100
AcDbCircle
 10
719.5246753214128
 20
513.6292258986578
 30
0.0
 40
1.919998565616338
100
AcDbArc
 50
269.9999571957046
 51
0.0000428042839235
  0
LINE
  5
6B6
330
1F
100
AcDbEntity
  8
0
  6
Continuous
 62
     7
100
AcDbLine
 10
721.4446738870283
 20
516.9892273330418
 30
0.0
 11
721.4446738870283
 21
513.6292273330418
 31
0.0
  0
LINE
  5
6B7
330
1F
100
AcDbEntity
  8
0
  6
Continuous
 62
     7
100
AcDbLine
 10
718.524673887028
 20
520.349227333042
 30
0.0
 11
718.524673887028
 21
510.2692273330418
 31
0.0
  0
LINE
  5
6B8
330
1F
100
AcDbEntity
  8
0
  6
Continuous
 62
     7
100
AcDbLine
 10
719.5246738870284
 20
518.9092273330418
 30
0.0
 11
718.524673887028
 21
518.9092273330418
 31
0.0
  0
LINE
  5
6B9
330
1F
100
AcDbEntity
  8
0
  6
Continuous
 62
     7
100
AcDbLine
 10
719.5246738870284
 20
511.7092273330418
 30
0.0
 11
718.524673887028
 21
511.7092273330418
 31
0.0
  0
LINE
  5
6BA
330
1F
100
AcDbEntity
  8
0
  6
Continuous
 62
     7
100
AcDbLine
 10
718.524673887028
 20
520.349227333042
 30
0.0
 11
717.5246738870285
 21
520.349227333042
 31
0.0
  0
LINE
  5
6BB
330
1F
100
AcDbEntity
  8
0
  6
Continuous
 62
     7
100
AcDbLine
 10
718.524673887028
 20
510.2692273330418
 30
0.0
 11
717.5246738870285
 21
510.2692273330418
 31
0.0
  0
ARC
  5
6BC
330
1F
100
AcDbEntity
  8
0
  6
Continuous
 62
     7
100
AcDbCircle
 10
719.3138074535447
 20
597.4890756142749
 30
0.0
 40
1.919998565616338
100
AcDbArc
 50
359.9999571957095
 51
90.00004280427901
  0
ARC
  5
6BD
330
1F
100
AcDbEntity
  8
0
  6
Continuous
 62
     7
100
AcDbCircle
 10
719.3138074535447
 20
594.1290727455061
 30
0.0
 40
1.919998565616167
100
AcDbArc
 50
269.999957195721
 51
0.0000428042904373
  0
LINE
  5
6BE
330
1F
100
AcDbEntity
  8
0
  6
Continuous
 62
     7
100
AcDbLine
 10
721.2338060191609
 20
597.4890741798906
 30
0.0
 11
721.2338060191609
 21
594.1290741798907
 31
0.0
  0
LINE
  5
6BF
330
1F
100
AcDbEntity
  8
0
  6
Continuous
 62
     7
100
AcDbLine
 10
718.3138060191603
 20
600.8490741798906
 30
0.0
 11
718.3138060191603
 21
590.7690741798902
 31
0.0
  0
LINE
  5
6C0
330
1F
100
AcDbEntity
  8
0
  6
Continuous
 62
     7
100
AcDbLine
 10
719.3138060191609
 20
599.4090741798905
 30
0.0
 11
718.3138060191603
 21
599.4090741798905
 31
0.0
  0
LINE
  5
6C1
330
1F
100
AcDbEntity
  8
0
  6
Continuous
 62
     7
100
AcDbLine
 10
719.3138060191609
 20
592.2090741798905
 30
0.0
 11
718.3138060191603
 21
592.2090741798905
 31
0.0
  0
LINE
  5
6C2
330
1F
100
AcDbEntity
  8
0
  6
Continuous
 62
     7
100
AcDbLine
 10
718.3138060191603
 20
600.8490741798906
 30
0.0
 11
717.3138060191603
 21
600.8490741798906
 31
0.0
  0
LINE
  5
6C3
330
1F
100
AcDbEntity
  8
0
  6
Continuous
 62
     7
100
AcDbLine
 10
718.3138060191603
 20
590.7690741798902
 30
0.0
 11
717.3138060191603
 21
590.7690741798902
 31
0.0
  0
ARC
  5
6C4
330
1F
100
AcDbEntity
  8
0
  6
Continuous
 62
     7
100
AcDbCircle
 10
719.4402398859778
 20
701.9890335722349
 30
0.0
 40
1.919998565616338
100
AcDbArc
 50
359.9999571957161
 51
90.00004280428877
  0
ARC
  5
6C5
330
1F
100
AcDbEntity
  8
0
  6
Continuous
 62
     7
100
AcDbCircle
 10
719.4402398859771
 20
698.6290307034663
 30
0.0
 40
1.919998565616338
100
AcDbArc
 50
269.9999571957144
 51
0.0000428042839235
  0
LINE
  5
6C6
330
1F
100
AcDbEntity
  8
0
  6
Continuous
 62
     7
100
AcDbLine
 10
721.3602384515933
 20
701.9890321378507
 30
0.0
 11
721.3602384515933
 21
698.6290321378509
 31
0.0
  0
LINE
  5
6C7
330
1F
100
AcDbEntity
  8
0
  6
Continuous
 62
     7
100
AcDbLine
 10
718.4402384515927
 20
705.3490291348481
 30
0.0
 11
718.4402384515927
 21
695.2690291348475
 31
0.0
  0
LINE
  5
6C8
330
1F
100
AcDbEntity
  8
0
  6
Continuous
 62
     7
100
AcDbLine
 10
719.4402384515933
 20
703.9090321378507
 30
0.0
 11
718.4402384515927
 21
703.9090321378507
 31
0.0
  0
LINE
  5
6C9
330
1F
100
AcDbEntity
  8
0
  6
Continuous
 62
     7
100
AcDbLine
 10
719.4402384515933
 20
696.7090321378506
 30
0.0
 11
718.4402384515927
 21
696.7090321378506
 31
0.0
  0
LINE
  5
6CA
330
1F
100
AcDbEntity
  8
0
  6
Continuous
 62
     7
100
AcDbLine
 10
718.4402384515927
 20
705.3490291348481
 30
0.0
 11
717.4402384515929
 21
705.3490291348481
 31
0.0
  0
LINE
  5
6CB
330
1F
100
AcDbEntity
  8
0
  6
Continuous
 62
     7
100
AcDbLine
 10
718.4402384515927
 20
695.2690291348475
 30
0.0
 11
717.4402384515929
 21
695.2690291348475
 31
0.0
  0
ARC
  5
6CC
330
1F
100
AcDbEntity
  8
0
  6
Continuous
 62
     7
100
AcDbCircle
 10
719.4402398859778
 20
717.4890335722356
 30
0.0
 40
1.919998565616338
100
AcDbArc
 50
359.9999571957161
 51
90.00004280428877
  0
ARC
  5
6CD
330
1F
100
AcDbEntity
  8
0
  6
Continuous
 62
     7
100
AcDbCircle
 10
719.4402398859778
 20
714.1290307034669
 30
0.0
 40
1.919998565616338
100
AcDbArc
 50
269.9999571957111
 51
0.0000428042839235
  0
LINE
  5
6CE
330
1F
100
AcDbEntity
  8
0
  6
Continuous
 62
     7
100
AcDbLine
 10
721.3602384515933
 20
717.4890321378512
 30
0.0
 11
721.3602384515933
 21
714.1290321378509
 31
0.0
  0
LINE
  5
6CF
330
1F
100
AcDbEntity
  8
0
  6
Continuous
 62
     7
100
AcDbLine
 10
718.4402384515927
 20
720.8490291348481
 30
0.0
 11
718.4402384515927
 21
710.769029134848
 31
0.0
  0
LINE
  5
6D0
330
1F
100
AcDbEntity
  8
0
  6
Continuous
 62
     7
100
AcDbLine
 10
719.4402384515933
 20
719.4090321378511
 30
0.0
 11
718.4402384515927
 21
719.4090321378511
 31
0.0
  0
LINE
  5
6D1
330
1F
100
AcDbEntity
  8
0
  6
Continuous
 62
     7
100
AcDbLine
 10
719.4402384515933
 20
712.2090321378513
 30
0.0
 11
718.4402384515927
 21
712.2090321378513
 31
0.0
  0
LINE
  5
6D2
330
1F
100
AcDbEntity
  8
0
  6
Continuous
 62
     7
100
AcDbLine
 10
718.4402384515927
 20
720.8490291348481
 30
0.0
 11
717.4402384515929
 21
720.8490291348481
 31
0.0
  0
LINE
  5
6D3
330
1F
100
AcDbEntity
  8
0
  6
Continuous
 62
     7
100
AcDbLine
 10
718.4402384515927
 20
710.769029134848
 30
0.0
 11
717.4402384515929
 21
710.769029134848
 31
0.0
  0
LINE
  5
6D4
330
1F
100
AcDbEntity
  8
0
  6
Continuous
 62
     7
 48
6.0
100
AcDbLine
 10
711.6707910041455
 20
685.9090831889013
 30
0.0
 11
711.6707910041455
 21
685.9090831889013
 31
0.0
  0
LINE
  5
6D5
330
1F
100
AcDbEntity
  8
0
  6
Continuous
 62
     7
 48
6.0
100
AcDbLine
 10
709.8707910041452
 20
685.9090831889013
 30
0.0
 11
711.6707910041455
 21
685.9090831889013
 31
0.0
  0
LINE
  5
6D6
330
1F
100
AcDbEntity
  8
0
  6
Continuous
 62
     7
 48
6.0
100
AcDbLine
 10
709.8707910041452
 20
687.7090831889015
 30
0.0
 11
709.8707910041452
 21
685.9090831889013
 31
0.0
  0
LINE
  5
6D7
330
1F
100
AcDbEntity
  8
0
  6
Continuous
 62
     7
 48
6.0
100
AcDbLine
 10
708.6707910041456
 20
687.7090831889015
 30
0.0
 11
709.8707910041452
 21
687.7090831889015
 31
0.0
  0
LINE
  5
6D8
330
1F
100
AcDbEntity
  8
0
  6
Continuous
 62
     7
 48
6.0
100
AcDbLine
 10
708.6707910041456
 20
685.9090831889013
 30
0.0
 11
708.6707910041456
 21
687.7090831889015
 31
0.0
  0
LINE
  5
6D9
330
1F
100
AcDbEntity
  8
0
  6
Continuous
 62
     7
 48
6.0
100
AcDbLine
 10
706.870791004145
 20
685.9090831889013
 30
0.0
 11
708.6707910041456
 21
685.9090831889013
 31
0.0
  0
LINE
  5
6DA
330
1F
100
AcDbEntity
  8
0
  6
Continuous
 62
     7
 48
6.0
100
AcDbLine
 10
706.870791004145
 20
684.7090831889016
 30
0.0
 11
706.870791004145
 21
685.9090831889013
 31
0.0
  0
LINE
  5
6DB
330
1F
100
AcDbEntity
  8
0
  6
Continuous
 62
     7
 48
6.0
100
AcDbLine
 10
708.6707910041456
 20
684.7090831889016
 30
0.0
 11
706.870791004145
 21
684.7090831889016
 31
0.0
  0
LINE
  5
6DC
330
1F
100
AcDbEntity
  8
0
  6
Continuous
 62
     7
 48
6.0
100
AcDbLine
 10
708.6707910041456
 20
682.9090831889015
 30
0.0
 11
708.6707910041456
 21
684.7090831889016
 31
0.0
  0
LINE
  5
6DD
330
1F
100
AcDbEntity
  8
0
  6
Continuous
 62
     7
 48
6.0
100
AcDbLine
 10
709.8707910041452
 20
682.9090831889015
 30
0.0
 11
708.6707910041456
 21
682.9090831889015
 31
0.0
  0
LINE
  5
6DE
330
1F
100
AcDbEntity
  8
0
  6
Continuous
 62
     7
 48
6.0
100
AcDbLine
 10
709.8707910041452
 20
684.7090831889016
 30
0.0
 11
709.8707910041452
 21
682.9090831889015
 31
0.0
  0
LINE
  5
6DF
330
1F
100
AcDbEntity
  8
0
  6
Continuous
 62
     7
 48
6.0
100
AcDbLine
 10
711.6707910041455
 20
684.7090831889016
 30
0.0
 11
709.8707910041452
 21
684.7090831889016
 31
0.0
  0
LINE
  5
6E0
330
1F
100
AcDbEntity
  8
0
  6
Continuous
 62
     7
 48
6.0
100
AcDbLine
 10
711.6707910041455
 20
685.9090831889013
 30
0.0
 11
711.6707910041455
 21
684.7090831889016
 31
0.0
  0
LINE
  5
6E1
330
1F
100
AcDbEntity
  8
0
  6
Continuous
 62
     7
100
AcDbLine
 10
712.8707910041457
 20
685.3090831889013
 30
0.0
 11
712.8707910041457
 21
685.3090831889013
 31
0.0
  0
LINE
  5
6E2
330
1F
100
AcDbEntity
  8
0
  6
Continuous
 62
     7
 48
6.0
100
AcDbLine
 10
307.6707910041365
 20
685.9090831889013
 30
0.0
 11
307.6707910041365
 21
685.9090831889013
 31
0.0
  0
LINE
  5
6E3
330
1F
100
AcDbEntity
  8
0
  6
Continuous
 62
     7
 48
6.0
100
AcDbLine
 10
305.8707910041363
 20
685.9090831889013
 30
0.0
 11
307.6707910041365
 21
685.9090831889013
 31
0.0
  0
LINE
  5
6E4
330
1F
100
AcDbEntity
  8
0
  6
Continuous
 62
     7
 48
6.0
100
AcDbLine
 10
305.8707910041363
 20
687.7090831889015
 30
0.0
 11
305.8707910041363
 21
685.9090831889013
 31
0.0
  0
LINE
  5
6E5
330
1F
100
AcDbEntity
  8
0
  6
Continuous
 62
     7
 48
6.0
100
AcDbLine
 10
304.6707910041364
 20
687.7090831889015
 30
0.0
 11
305.8707910041363
 21
687.7090831889015
 31
0.0
  0
LINE
  5
6E6
330
1F
100
AcDbEntity
  8
0
  6
Continuous
 62
     7
 48
6.0
100
AcDbLine
 10
304.6707910041364
 20
685.9090831889013
 30
0.0
 11
304.6707910041364
 21
687.7090831889015
 31
0.0
  0
LINE
  5
6E7
330
1F
100
AcDbEntity
  8
0
  6
Continuous
 62
     7
 48
6.0
100
AcDbLine
 10
302.8707910041356
 20
685.9090831889013
 30
0.0
 11
304.6707910041364
 21
685.9090831889013
 31
0.0
  0
LINE
  5
6E8
330
1F
100
AcDbEntity
  8
0
  6
Continuous
 62
     7
 48
6.0
100
AcDbLine
 10
302.8707910041356
 20
684.7090831889016
 30
0.0
 11
302.8707910041356
 21
685.9090831889013
 31
0.0
  0
LINE
  5
6E9
330
1F
100
AcDbEntity
  8
0
  6
Continuous
 62
     7
 48
6.0
100
AcDbLine
 10
304.6707910041364
 20
684.7090831889016
 30
0.0
 11
302.8707910041356
 21
684.7090831889016
 31
0.0
  0
LINE
  5
6EA
330
1F
100
AcDbEntity
  8
0
  6
Continuous
 62
     7
 48
6.0
100
AcDbLine
 10
304.6707910041364
 20
682.9090831889015
 30
0.0
 11
304.6707910041364
 21
684.7090831889016
 31
0.0
  0
LINE
  5
6EB
330
1F
100
AcDbEntity
  8
0
  6
Continuous
 62
     7
 48
6.0
100
AcDbLine
 10
305.8707910041363
 20
682.9090831889015
 30
0.0
 11
304.6707910041364
 21
682.9090831889015
 31
0.0
  0
LINE
  5
6EC
330
1F
100
AcDbEntity
  8
0
  6
Continuous
 62
     7
 48
6.0
100
AcDbLine
 10
305.8707910041363
 20
684.7090831889016
 30
0.0
 11
305.8707910041363
 21
682.9090831889015
 31
0.0
  0
LINE
  5
6ED
330
1F
100
AcDbEntity
  8
0
  6
Continuous
 62
     7
 48
6.0
100
AcDbLine
 10
307.6707910041365
 20
684.7090831889016
 30
0.0
 11
305.8707910041363
 21
684.7090831889016
 31
0.0
  0
LINE
  5
6EE
330
1F
100
AcDbEntity
  8
0
  6
Continuous
 62
     7
 48
6.0
100
AcDbLine
 10
307.6707910041365
 20
685.9090831889013
 30
0.0
 11
307.6707910041365
 21
684.7090831889016
 31
0.0
  0
LINE
  5
6EF
330
1F
100
AcDbEntity
  8
0
  6
Continuous
 62
     7
100
AcDbLine
 10
308.8707880011334
 20
685.3090831889013
 30
0.0
 11
308.8707880011334
 21
685.3090831889013
 31
0.0
  0
LINE
  5
6F0
330
1F
100
AcDbEntity
  8
0
  6
Continuous
 62
     7
 48
6.0
100
AcDbLine
 10
711.6707910041455
 20
344.7090561618669
 30
0.0
 11
711.6707910041455
 21
344.7090561618669
 31
0.0
  0
LINE
  5
6F1
330
1F
100
AcDbEntity
  8
0
  6
Continuous
 62
     7
 48
6.0
100
AcDbLine
 10
709.8707910041452
 20
344.7090561618669
 30
0.0
 11
711.6707910041455
 21
344.7090561618669
 31
0.0
  0
LINE
  5
6F2
330
1F
100
AcDbEntity
  8
0
  6
Continuous
 62
     7
 48
6.0
100
AcDbLine
 10
709.8707910041452
 20
342.9090561618675
 30
0.0
 11
709.8707910041452
 21
344.7090561618669
 31
0.0
  0
LINE
  5
6F3
330
1F
100
AcDbEntity
  8
0
  6
Continuous
 62
     7
 48
6.0
100
AcDbLine
 10
708.6707910041456
 20
342.9090561618675
 30
0.0
 11
709.8707910041452
 21
342.9090561618675
 31
0.0
  0
LINE
  5
6F4
330
1F
100
AcDbEntity
  8
0
  6
Continuous
 62
     7
 48
6.0
100
AcDbLine
 10
708.6707910041456
 20
344.7090561618669
 30
0.0
 11
708.6707910041456
 21
342.9090561618675
 31
0.0
  0
LINE
  5
6F5
330
1F
100
AcDbEntity
  8
0
  6
Continuous
 62
     7
 48
6.0
100
AcDbLine
 10
706.870791004145
 20
344.7090561618669
 30
0.0
 11
708.6707910041456
 21
344.7090561618669
 31
0.0
  0
LINE
  5
6F6
330
1F
100
AcDbEntity
  8
0
  6
Continuous
 62
     7
 48
6.0
100
AcDbLine
 10
706.870791004145
 20
345.9090561618675
 30
0.0
 11
706.870791004145
 21
344.7090561618669
 31
0.0
  0
LINE
  5
6F7
330
1F
100
AcDbEntity
  8
0
  6
Continuous
 62
     7
 48
6.0
100
AcDbLine
 10
708.6707910041456
 20
345.9090561618675
 30
0.0
 11
706.870791004145
 21
345.9090561618675
 31
0.0
  0
LINE
  5
6F8
330
1F
100
AcDbEntity
  8
0
  6
Continuous
 62
     7
 48
6.0
100
AcDbLine
 10
708.6707910041456
 20
347.7090561618673
 30
0.0
 11
708.6707910041456
 21
345.9090561618675
 31
0.0
  0
LINE
  5
6F9
330
1F
100
AcDbEntity
  8
0
  6
Continuous
 62
     7
 48
6.0
100
AcDbLine
 10
709.8707910041452
 20
347.7090561618673
 30
0.0
 11
708.6707910041456
 21
347.7090561618673
 31
0.0
  0
LINE
  5
6FA
330
1F
100
AcDbEntity
  8
0
  6
Continuous
 62
     7
 48
6.0
100
AcDbLine
 10
709.8707910041452
 20
345.9090561618675
 30
0.0
 11
709.8707910041452
 21
347.7090561618673
 31
0.0
  0
LINE
  5
6FB
330
1F
100
AcDbEntity
  8
0
  6
Continuous
 62
     7
 48
6.0
100
AcDbLine
 10
711.6707910041455
 20
345.9090561618675
 30
0.0
 11
709.8707910041452
 21
345.9090561618675
 31
0.0
  0
LINE
  5
6FC
330
1F
100
AcDbEntity
  8
0
  6
Continuous
 62
     7
 48
6.0
100
AcDbLine
 10
711.6707910041455
 20
344.7090561618669
 30
0.0
 11
711.6707910041455
 21
345.9090561618675
 31
0.0
  0
LINE
  5
6FD
330
1F
100
AcDbEntity
  8
0
  6
Continuous
 62
     7
 48
6.0
100
AcDbLine
 10
307.6707910041365
 20
344.7090561618669
 30
0.0
 11
307.6707910041365
 21
344.7090561618669
 31
0.0
  0
LINE
  5
6FE
330
1F
100
AcDbEntity
  8
0
  6
Continuous
 62
     7
 48
6.0
100
AcDbLine
 10
305.8707910041363
 20
344.7090561618669
 30
0.0
 11
307.6707910041365
 21
344.7090561618669
 31
0.0
  0
LINE
  5
6FF
330
1F
100
AcDbEntity
  8
0
  6
Continuous
 62
     7
 48
6.0
100
AcDbLine
 10
305.8707910041363
 20
342.9090561618675
 30
0.0
 11
305.8707910041363
 21
344.7090561618669
 31
0.0
  0
LINE
  5
700
330
1F
100
AcDbEntity
  8
0
  6
Continuous
 62
     7
 48
6.0
100
AcDbLine
 10
304.6707910041364
 20
342.9090561618675
 30
0.0
 11
305.8707910041363
 21
342.9090561618675
 31
0.0
  0
LINE
  5
701
330
1F
100
AcDbEntity
  8
0
  6
Continuous
 62
     7
 48
6.0
100
AcDbLine
 10
304.6707910041364
 20
344.7090561618669
 30
0.0
 11
304.6707910041364
 21
342.9090561618675
 31
0.0
  0
LINE
  5
702
330
1F
100
AcDbEntity
  8
0
  6
Continuous
 62
     7
 48
6.0
100
AcDbLine
 10
302.8707910041356
 20
344.7090561618669
 30
0.0
 11
304.6707910041364
 21
344.7090561618669
 31
0.0
  0
LINE
  5
703
330
1F
100
AcDbEntity
  8
0
  6
Continuous
 62
     7
 48
6.0
100
AcDbLine
 10
302.8707910041356
 20
345.9090561618675
 30
0.0
 11
302.8707910041356
 21
344.7090561618669
 31
0.0
  0
LINE
  5
704
330
1F
100
AcDbEntity
  8
0
  6
Continuous
 62
     7
 48
6.0
100
AcDbLine
 10
304.6707910041364
 20
345.9090561618675
 30
0.0
 11
302.8707910041356
 21
345.9090561618675
 31
0.0
  0
LINE
  5
705
330
1F
100
AcDbEntity
  8
0
  6
Continuous
 62
     7
 48
6.0
100
AcDbLine
 10
304.6707910041364
 20
347.7090561618673
 30
0.0
 11
304.6707910041364
 21
345.9090561618675
 31
0.0
  0
LINE
  5
706
330
1F
100
AcDbEntity
  8
0
  6
Continuous
 62
     7
 48
6.0
100
AcDbLine
 10
305.8707910041363
 20
347.7090561618673
 30
0.0
 11
304.6707910041364
 21
347.7090561618673
 31
0.0
  0
LINE
  5
707
330
1F
100
AcDbEntity
  8
0
  6
Continuous
 62
     7
 48
6.0
100
AcDbLine
 10
305.8707910041363
 20
345.9090561618675
 30
0.0
 11
305.8707910041363
 21
347.7090561618673
 31
0.0
  0
LINE
  5
708
330
1F
100
AcDbEntity
  8
0
  6
Continuous
 62
     7
 48
6.0
100
AcDbLine
 10
307.6707910041365
 20
345.9090561618675
 30
0.0
 11
305.8707910041363
 21
345.9090561618675
 31
0.0
  0
LINE
  5
709
330
1F
100
AcDbEntity
  8
0
  6
Continuous
 62
     7
 48
6.0
100
AcDbLine
 10
307.6707910041365
 20
344.7090561618669
 30
0.0
 11
307.6707910041365
 21
345.9090561618675
 31
0.0
  0
ARC
  5
70A
330
1F
100
AcDbEntity
  8
0
  6
Continuous
 62
     7
100
AcDbCircle
 10
709.2707910041449
 20
339.3090755204628
 30
0.0
 40
4.999999003393742
100
AcDbArc
 50
126.8063136837722
 51
53.19368631622682
  0
ARC
  5
70B
330
1F
100
AcDbEntity
  8
0
  6
Continuous
 62
     7
100
AcDbCircle
 10
305.2707880011333
 20
339.3090755204626
 30
0.0
 40
4.999999003394523
100
AcDbArc
 50
126.8063136837722
 51
53.19368631622776
  0
LINE
  5
70C
330
1F
100
AcDbEntity
  8
0
  6
Continuous
 62
     7
100
AcDbLine
 10
705.2707880011422
 20
295.3090741798839
 30
0.0
 11
715.2707880011429
 21
295.3090741798839
 31
0.0
  0
LINE
  5
70D
330
1F
100
AcDbEntity
  8
0
  6
Continuous
 62
     7
100
AcDbLine
 10
299.2707880011328
 20
295.3090741798839
 30
0.0
 11
309.2707880011329
 21
295.3090741798839
 31
0.0
  0
LINE
  5
70E
330
1F
100
AcDbEntity
  8
0
  6
Continuous
 62
     7
100
AcDbLine
 10
309.2707880011329
 20
296.5090741798842
 30
0.0
 11
311.2707880011336
 21
296.5090741798842
 31
0.0
  0
LINE
  5
70F
330
1F
100
AcDbEntity
  8
0
  6
Continuous
 62
     7
100
AcDbLine
 10
311.2707880011336
 20
295.3090741798839
 30
0.0
 11
703.2707880011427
 21
295.3090741798839
 31
0.0
  0
LINE
  5
710
330
1F
100
AcDbEntity
  8
0
  6
Continuous
 62
     7
100
AcDbLine
 10
703.2707880011427
 20
296.5090741798842
 30
0.0
 11
705.2707880011422
 21
296.5090741798842
 31
0.0
  0
LINE
  5
711
330
1F
100
AcDbEntity
  8
0
  6
Continuous
 62
     7
100
AcDbLine
 10
705.2707880011422
 20
295.3090741798839
 30
0.0
 11
705.2707880011422
 21
296.5090741798842
 31
0.0
  0
LINE
  5
712
330
1F
100
AcDbEntity
  8
0
  6
Continuous
 62
     7
100
AcDbLine
 10
703.2707880011427
 20
295.3090741798839
 30
0.0
 11
703.2707880011427
 21
296.5090741798842
 31
0.0
  0
LINE
  5
713
330
1F
100
AcDbEntity
  8
0
  6
Continuous
 62
     7
100
AcDbLine
 10
309.2707880011329
 20
295.3090741798839
 30
0.0
 11
309.2707880011329
 21
296.5090741798842
 31
0.0
  0
LINE
  5
714
330
1F
100
AcDbEntity
  8
0
  6
Continuous
 62
     7
100
AcDbLine
 10
311.2707880011336
 20
295.3090741798839
 30
0.0
 11
311.2707880011336
 21
296.5090741798842
 31
0.0
  0
ARC
  5
715
330
1F
100
AcDbEntity
  8
0
  6
Continuous
 62
     7
100
AcDbCircle
 10
299.2707865069826
 20
297.3090726857336
 30
0.0
 40
1.999998505850159
100
AcDbArc
 50
179.9999571957128
 51
270.0000428042887
  0
ARC
  5
716
330
1F
100
AcDbEntity
  8
0
  6
Continuous
 62
     7
100
AcDbCircle
 10
715.2707894952932
 20
297.3090726857336
 30
0.0
 40
1.999998505850416
100
AcDbArc
 50
269.9999571957046
 51
0.000042804282295
  0
ARC
  5
717
330
1F
100
AcDbEntity
  8
0
  6
Continuous
 62
     7
100
AcDbCircle
 10
305.2707880011327
 20
649.3090621678796
 30
0.0
 40
2.249999999999931
100
AcDbArc
 50
180.0
 51
0.0
  0
ARC
  5
718
330
1F
100
AcDbEntity
  8
0
  6
Continuous
 62
     7
100
AcDbCircle
 10
709.2707880011422
 20
649.3090621678796
 30
0.0
 40
2.250000000000102
100
AcDbArc
 50
180.0
 51
0.0
  0
ARC
  5
719
330
1F
100
AcDbEntity
  8
0
  6
Continuous
 62
     7
100
AcDbCircle
 10
305.2707880011327
 20
726.3090636564101
 30
0.0
 40
4.999999870329872
100
AcDbArc
 50
296.7436846991601
 51
243.2563153008435
  0
ARC
  5
71A
330
1F
100
AcDbEntity
  8
0
  6
Continuous
 62
     7
100
AcDbCircle
 10
709.2707880011422
 20
726.3090636564101
 30
0.0
 40
4.99999987032979
100
AcDbArc
 50
296.7436846991601
 51
243.2563153008435
  0
ARC
  5
71B
330
1F
100
AcDbEntity
  8
0
  6
Continuous
 62
     7
100
AcDbCircle
 10
299.2707865069826
 20
733.3090636620318
 30
0.0
 40
1.999998505850244
100
AcDbArc
 50
89.99995719571119
 51
180.0000428042871
  0
LINE
  5
71C
330
1F
100
AcDbEntity
  8
0
  6
Continuous
 62
     7
100
AcDbLine
 10
297.2707880011327
 20
733.3090621678815
 30
0.0
 11
297.2707880011327
 21
297.3090741798839
 31
0.0
  0
LINE
  5
71D
330
1F
100
AcDbEntity
  8
0
  6
Continuous
 62
     7
100
AcDbLine
 10
717.2707880011435
 20
297.3090741798839
 30
0.0
 11
717.2707880011435
 21
733.3090621678815
 31
0.0
  0
ARC
  5
71E
330
1F
100
AcDbEntity
  8
0
  6
Continuous
 62
     7
100
AcDbCircle
 10
715.2707894952932
 20
733.3090636620315
 30
0.0
 40
1.999998505850331
100
AcDbArc
 50
359.9999571957177
 51
90.00004280429529
  0
LINE
  5
71F
330
1F
100
AcDbEntity
  8
0
  6
Continuous
 62
     7
100
AcDbLine
 10
715.2707880011429
 20
735.3090621678813
 30
0.0
 11
299.2707880011328
 21
735.3090621678813
 31
0.0
  0
LINE
  5
720
330
1F
100
AcDbEntity
  8
0
  6
Continuous
 62
     7
100
AcDbLine
 10
715.6707910041452
 20
757.3090711768911
 30
0.0
 11
715.6707910041452
 21
735.3090621678813
 31
0.0
  0
ARC
  5
721
330
1F
100
AcDbEntity
  8
0
  6
Continuous
 62
     7
100
AcDbCircle
 10
707.6707969807467
 20
757.309077153493
 30
0.0
 40
7.999994023400811
100
AcDbArc
 50
359.9999571957112
 51
90.00004280428553
  0
LINE
  5
722
330
1F
100
AcDbEntity
  8
0
  6
Continuous
 62
     7
100
AcDbLine
 10
715.6707910041452
 20
295.3090741798839
 30
0.0
 11
715.6707910041452
 21
278.3090711768804
 31
0.0
  0
ARC
  5
723
330
1F
100
AcDbEntity
  8
0
  6
Continuous
 62
     7
100
AcDbCircle
 10
707.6707969807467
 20
278.309065200279
 30
0.0
 40
7.999994023400633
100
AcDbArc
 50
269.9999571957144
 51
0.0000428042871804
  0
ARC
  5
724
330
1F
100
AcDbEntity
  8
0
  6
Continuous
 62
     7
100
AcDbCircle
 10
306.8707850275352
 20
757.3090771534924
 30
0.0
 40
7.999994023401179
100
AcDbArc
 50
89.99995719571119
 51
180.0000428042855
  0
LINE
  5
725
330
1F
100
AcDbEntity
  8
0
  6
Continuous
 62
     7
100
AcDbLine
 10
298.8707910041357
 20
735.3090621678813
 30
0.0
 11
298.8707910041357
 21
757.3090711768911
 31
0.0
  0
ARC
  5
726
330
1F
100
AcDbEntity
  8
0
  6
Continuous
 62
     7
100
AcDbCircle
 10
306.8707850275352
 20
278.3090652002799
 30
0.0
 40
7.999994023400978
100
AcDbArc
 50
179.999957195716
 51
270.0000428042887
  0
LINE
  5
727
330
1F
100
AcDbEntity
  8
0
  6
Continuous
 62
     7
100
AcDbLine
 10
298.8707910041357
 20
278.3090711768804
 30
0.0
 11
298.8707910041357
 21
295.3090741798839
 31
0.0
  0
LINE
  5
728
330
1F
100
AcDbEntity
  8
0
  6
Continuous
 62
     7
100
AcDbLine
 10
632.7707910041436
 20
753.3090711768911
 30
0.0
 11
632.7707910041436
 21
752.1032994051193
 31
0.0
  0
LINE
  5
729
330
1F
100
AcDbEntity
  8
0
  6
Continuous
 62
     7
100
AcDbLine
 10
641.7707910041436
 20
753.3090711768911
 30
0.0
 11
641.7707910041436
 21
752.1032994051193
 31
0.0
  0
LINE
  5
72A
330
1F
100
AcDbEntity
  8
0
  6
Continuous
 62
     7
100
AcDbLine
 10
372.7707910041377
 20
753.3090711768911
 30
0.0
 11
372.7707910041377
 21
752.1032994051193
 31
0.0
  0
LINE
  5
72B
330
1F
100
AcDbEntity
  8
0
  6
Continuous
 62
     7
100
AcDbLine
 10
381.7707910041381
 20
753.3090711768911
 30
0.0
 11
381.7707910041381
 21
752.1032994051193
 31
0.0
  0
LINE
  5
72C
330
1F
100
AcDbEntity
  8
0
  6
Continuous
 62
     7
100
AcDbLine
 10
306.8707910041368
 20
765.3090711768911
 30
0.0
 11
707.6707910041458
 21
765.3090711768911
 31
0.0
  0
ARC
  5
72D
330
1F
100
AcDbEntity
  8
0
  6
Continuous
 62
     7
100
AcDbCircle
 10
637.2707910041432
 20
744.3090703070038
 30
0.0
 40
9.000000401883902
100
AcDbArc
 50
119.9999985228639
 51
60.00000147713606
  0
ARC
  5
72E
330
1F
100
AcDbEntity
  8
0
  6
Continuous
 62
     7
100
AcDbCircle
 10
377.2707910041379
 20
744.3090703070031
 30
0.0
 40
9.000000401884797
100
AcDbArc
 50
119.9999985228639
 51
60.00000147713606
  0
ARC
  5
72F
330
1F
100
AcDbEntity
  8
0
  6
Continuous
 62
     7
100
AcDbCircle
 10
377.2707910041379
 20
753.3090711768911
 30
0.0
 40
4.500000000000201
100
AcDbArc
 50
0.0
 51
180.0
  0
ARC
  5
730
330
1F
100
AcDbEntity
  8
0
  6
Continuous
 62
     7
100
AcDbCircle
 10
637.2707910041432
 20
753.3090711768911
 30
0.0
 40
4.499999999999861
100
AcDbArc
 50
0.0
 51
180.0
  0
ARC
  5
731
330
1F
100
AcDbEntity
  8
0
  6
Continuous
 62
     7
100
AcDbCircle
 10
377.2707910041379
 20
283.3090711768806
 30
0.0
 40
4.500000000000201
100
AcDbArc
 50
0.0
 51
180.0
  0
ARC
  5
732
330
1F
100
AcDbEntity
  8
0
  6
Continuous
 62
     7
100
AcDbCircle
 10
637.2707910041432
 20
283.3090711768806
 30
0.0
 40
4.499999999999861
100
AcDbArc
 50
0.0
 51
180.0
  0
LINE
  5
733
330
1F
100
AcDbEntity
  8
0
  6
Continuous
 62
     7
100
AcDbLine
 10
632.7707910041436
 20
272.3090711768808
 30
0.0
 11
632.7707910041436
 21
283.3090711768806
 31
0.0
  0
ARC
  5
734
330
1F
100
AcDbEntity
  8
0
  6
Continuous
 62
     7
100
AcDbCircle
 10
630.7707924982942
 20
272.3090696827305
 30
0.0
 40
1.999998505850244
100
AcDbArc
 50
269.9999571957144
 51
0.0000428042871804
  0
LINE
  5
735
330
1F
100
AcDbEntity
  8
0
  6
Continuous
 62
     7
100
AcDbLine
 10
616.2074396527919
 20
270.3090711768808
 30
0.0
 11
630.7707910041435
 21
270.3090711768808
 31
0.0
  0
LINE
  5
736
330
1F
100
AcDbEntity
  8
0
  6
Continuous
 62
     7
100
AcDbLine
 10
549.2495027158533
 20
270.3090711768808
 30
0.0
 11
606.2074396527922
 21
270.3090711768808
 31
0.0
  0
LINE
  5
737
330
1F
100
AcDbEntity
  8
0
  6
Continuous
 62
     7
100
AcDbLine
 10
479.207439652789
 20
270.3090711768808
 30
0.0
 11
539.2495027158534
 21
270.3090711768808
 31
0.0
  0
LINE
  5
738
330
1F
100
AcDbEntity
  8
0
  6
Continuous
 62
     7
100
AcDbLine
 10
412.24950271585
 20
270.3090711768808
 30
0.0
 11
469.2074396527885
 21
270.3090711768808
 31
0.0
  0
LINE
  5
739
330
1F
100
AcDbEntity
  8
0
  6
Continuous
 62
     7
100
AcDbLine
 10
383.7707910041376
 20
270.3090711768808
 30
0.0
 11
402.2495027158503
 21
270.3090711768808
 31
0.0
  0
ARC
  5
73A
330
1F
100
AcDbEntity
  8
0
  6
Continuous
 62
     7
100
AcDbCircle
 10
383.770789509988
 20
272.3090696827305
 30
0.0
 40
1.999998505850159
100
AcDbArc
 50
179.9999571957079
 51
270.0000428042789
  0
LINE
  5
73B
330
1F
100
AcDbEntity
  8
0
  6
Continuous
 62
     7
100
AcDbLine
 10
381.7707910041381
 20
283.3090711768806
 30
0.0
 11
381.7707910041381
 21
272.3090711768808
 31
0.0
  0
LINE
  5
73C
330
1F
100
AcDbEntity
  8
0
  6
Continuous
 62
     7
100
AcDbLine
 10
641.7707910041436
 20
272.3090711768808
 30
0.0
 11
641.7707910041436
 21
283.3090711768806
 31
0.0
  0
ARC
  5
73D
330
1F
100
AcDbEntity
  8
0
  6
Continuous
 62
     7
100
AcDbCircle
 10
643.7707895099931
 20
272.3090696827305
 30
0.0
 40
1.999998505850331
100
AcDbArc
 50
179.9999571957128
 51
270.0000428042823
  0
ARC
  5
73E
330
1F
100
AcDbEntity
  8
0
  6
Continuous
 62
     7
100
AcDbCircle
 10
370.7707924982869
 20
272.3090696827305
 30
0.0
 40
1.999998505850074
100
AcDbArc
 50
269.9999571957144
 51
0.0000428042920657
  0
LINE
  5
73F
330
1F
100
AcDbEntity
  8
0
  6
Continuous
 62
     7
100
AcDbLine
 10
372.7707910041377
 20
283.3090711768806
 30
0.0
 11
372.7707910041377
 21
272.3090711768808
 31
0.0
  0
LINE
  5
740
330
1F
100
AcDbEntity
  8
0
  6
Continuous
 62
     7
100
AcDbLine
 10
402.2495027158503
 20
231.1487708765791
 30
0.0
 11
402.2495027158503
 21
295.3090741798839
 31
0.0
  0
LINE
  5
741
330
1F
100
AcDbEntity
  8
0
  6
Continuous
 62
     7
100
AcDbLine
 10
412.24950271585
 20
231.1487708765791
 30
0.0
 11
402.2495027158503
 21
231.1487708765791
 31
0.0
  0
LINE
  5
742
330
1F
100
AcDbEntity
  8
0
  6
Continuous
 62
     7
100
AcDbLine
 10
412.24950271585
 20
295.3090741798839
 30
0.0
 11
412.24950271585
 21
231.1487708765791
 31
0.0
  0
LINE
  5
743
330
1F
100
AcDbEntity
  8
0
  6
Continuous
 62
     7
100
AcDbLine
 10
332.2074396527856
 20
231.217602708411
 30
0.0
 11
332.2074396527856
 21
295.3090741798839
 31
0.0
  0
LINE
  5
744
330
1F
100
AcDbEntity
  8
0
  6
Continuous
 62
     7
100
AcDbLine
 10
342.2074396527853
 20
231.217602708411
 30
0.0
 11
332.2074396527856
 21
231.217602708411
 31
0.0
  0
LINE
  5
745
330
1F
100
AcDbEntity
  8
0
  6
Continuous
 62
     7
100
AcDbLine
 10
342.2074396527853
 20
295.3090741798839
 30
0.0
 11
342.2074396527853
 21
231.217602708411
 31
0.0
  0
LINE
  5
746
330
1F
100
AcDbEntity
  8
0
  6
Continuous
 62
     7
100
AcDbLine
 10
469.2074396527885
 20
231.217602708411
 30
0.0
 11
469.2074396527885
 21
295.3090741798839
 31
0.0
  0
LINE
  5
747
330
1F
100
AcDbEntity
  8
0
  6
Continuous
 62
     7
100
AcDbLine
 10
479.207439652789
 20
231.217602708411
 30
0.0
 11
469.2074396527885
 21
231.217602708411
 31
0.0
  0
LINE
  5
748
330
1F
100
AcDbEntity
  8
0
  6
Continuous
 62
     7
100
AcDbLine
 10
479.207439652789
 20
295.3090741798839
 30
0.0
 11
479.207439652789
 21
231.217602708411
 31
0.0
  0
LINE
  5
749
330
1F
100
AcDbEntity
  8
0
  6
Continuous
 62
     7
100
AcDbLine
 10
539.2495027158534
 20
231.1487708765791
 30
0.0
 11
539.2495027158534
 21
295.3090741798839
 31
0.0
  0
LINE
  5
74A
330
1F
100
AcDbEntity
  8
0
  6
Continuous
 62
     7
100
AcDbLine
 10
549.2495027158533
 20
231.1487708765791
 30
0.0
 11
539.2495027158534
 21
231.1487708765791
 31
0.0
  0
LINE
  5
74B
330
1F
100
AcDbEntity
  8
0
  6
Continuous
 62
     7
100
AcDbLine
 10
549.2495027158533
 20
295.3090741798839
 30
0.0
 11
549.2495027158533
 21
231.1487708765791
 31
0.0
  0
LINE
  5
74C
330
1F
100
AcDbEntity
  8
0
  6
Continuous
 62
     7
100
AcDbLine
 10
606.2074396527922
 20
231.217602708411
 30
0.0
 11
606.2074396527922
 21
295.3090741798839
 31
0.0
  0
LINE
  5
74D
330
1F
100
AcDbEntity
  8
0
  6
Continuous
 62
     7
100
AcDbLine
 10
616.2074396527919
 20
231.217602708411
 30
0.0
 11
606.2074396527922
 21
231.217602708411
 31
0.0
  0
LINE
  5
74E
330
1F
100
AcDbEntity
  8
0
  6
Continuous
 62
     7
100
AcDbLine
 10
616.2074396527919
 20
295.3090741798839
 30
0.0
 11
616.2074396527919
 21
231.217602708411
 31
0.0
  0
LINE
  5
74F
330
1F
100
AcDbEntity
  8
0
  6
Continuous
 62
     7
100
AcDbLine
 10
676.2495027158562
 20
231.1487708765791
 30
0.0
 11
676.2495027158562
 21
295.3090741798839
 31
0.0
  0
LINE
  5
750
330
1F
100
AcDbEntity
  8
0
  6
Continuous
 62
     7
100
AcDbLine
 10
686.2495027158574
 20
231.1487708765791
 30
0.0
 11
676.2495027158562
 21
231.1487708765791
 31
0.0
  0
LINE
  5
751
330
1F
100
AcDbEntity
  8
0
  6
Continuous
 62
     7
100
AcDbLine
 10
686.2495027158574
 20
295.3090741798839
 30
0.0
 11
686.2495027158574
 21
231.1487708765791
 31
0.0
  0
LINE
  5
752
330
1F
100
AcDbEntity
  8
0
  6
Continuous
 62
     7
100
AcDbLine
 10
707.2707910041458
 20
270.3090711768808
 30
0.0
 11
686.2495027158574
 21
270.3090711768808
 31
0.0
  0
LINE
  5
753
330
1F
100
AcDbEntity
  8
0
  6
Continuous
 62
     7
100
AcDbLine
 10
676.2495027158562
 20
270.3090711768808
 30
0.0
 11
643.7707910041433
 21
270.3090711768808
 31
0.0
  0
LINE
  5
754
330
1F
100
AcDbEntity
  8
0
  6
Continuous
 62
     7
100
AcDbLine
 10
370.7707910041377
 20
270.3090711768808
 30
0.0
 11
342.2074396527853
 21
270.3090711768808
 31
0.0
  0
LINE
  5
755
330
1F
100
AcDbEntity
  8
0
  6
Continuous
 62
     7
100
AcDbLine
 10
332.2074396527856
 20
270.3090711768808
 30
0.0
 11
307.2707910041365
 21
270.3090711768808
 31
0.0
  0
LINE
  5
756
330
1F
100
AcDbEntity
  8
0
  6
Continuous
 62
     7
100
AcDbLine
 10
307.5207880011328
 20
649.3090621678796
 30
0.0
 11
307.5207880011328
 21
682.498836942655
 31
0.0
  0
LINE
  5
757
330
1F
100
AcDbEntity
  8
0
  6
Continuous
 62
     7
100
AcDbLine
 10
307.5207880011328
 20
688.1193294351477
 30
0.0
 11
307.5207880011328
 21
721.8439210267404
 31
0.0
  0
LINE
  5
758
330
1F
100
AcDbEntity
  8
0
  6
Continuous
 62
     7
100
AcDbLine
 10
303.0207880011333
 20
649.3090621678796
 30
0.0
 11
303.0207880011333
 21
682.498833939652
 31
0.0
  0
LINE
  5
759
330
1F
100
AcDbEntity
  8
0
  6
Continuous
 62
     7
100
AcDbLine
 10
303.0207880011333
 20
688.1193324381507
 30
0.0
 11
303.0207880011333
 21
721.8439210267404
 31
0.0
  0
LINE
  5
75A
330
1F
100
AcDbEntity
  8
0
  6
Continuous
 62
     7
100
AcDbLine
 10
711.5207880011422
 20
649.3090621678796
 30
0.0
 11
711.5207880011422
 21
682.498833939652
 31
0.0
  0
LINE
  5
75B
330
1F
100
AcDbEntity
  8
0
  6
Continuous
 62
     7
100
AcDbLine
 10
711.5207880011422
 20
688.1193324381507
 30
0.0
 11
711.5207880011422
 21
721.8439210267404
 31
0.0
  0
LINE
  5
75C
330
1F
100
AcDbEntity
  8
0
  6
Continuous
 62
     7
100
AcDbLine
 10
707.0207880011427
 20
649.3090621678796
 30
0.0
 11
707.0207880011427
 21
682.498833939652
 31
0.0
  0
LINE
  5
75D
330
1F
100
AcDbEntity
  8
0
  6
Continuous
 62
     7
100
AcDbLine
 10
707.0207880011427
 20
688.1193324381507
 30
0.0
 11
707.0207880011427
 21
721.8439210267404
 31
0.0
  0
LINE
  5
75E
330
1F
100
AcDbEntity
  8
0
  6
Continuous
 62
     7
100
AcDbLine
 10
1063.170791004153
 20
659.3090711768889
 30
0.0
 11
1063.170791004153
 21
653.3090711768887
 31
0.0
  0
LINE
  5
75F
330
1F
100
AcDbEntity
  8
0
  6
Continuous
 62
     7
100
AcDbLine
 10
1063.170791004153
 20
329.309071176882
 30
0.0
 11
1063.170791004153
 21
323.3090711768815
 31
0.0
  0
ENDSEC
  0
SECTION
  2
OBJECTS
  0
DICTIONARY
  5
C
330
0
100
AcDbDictionary
281
     1
  3
ACAD_GROUP
350
D
  3
ACAD_LAYOUT
350
1A
  3
ACAD_MLINESTYLE
350
17
  3
ACAD_PLOTSETTINGS
350
19
  3
ACAD_PLOTSTYLENAME
350
E
  0
DICTIONARY
  5
D
102
{ACAD_REACTORS
330
C
102
}
330
C
100
AcDbDictionary
281
     1
  0
DICTIONARY
  5
1A
102
{ACAD_REACTORS
330
C
102
}
330
C
100
AcDbDictionary
281
     1
  3
Model
350
22
  3
ﾚｲｱｳﾄ1
350
51
  3
ﾚｲｱｳﾄ2
350
56
  0
DICTIONARY
  5
17
102
{ACAD_REACTORS
330
C
102
}
330
C
100
AcDbDictionary
281
     1
  3
Standard
350
18
  0
DICTIONARY
  5
19
102
{ACAD_REACTORS
330
C
102
}
330
C
100
AcDbDictionary
281
     1
  0
ACDBDICTIONARYWDFLT
  5
E
102
{ACAD_REACTORS
330
C
102
}
330
C
100
AcDbDictionary
281
     1
  3
Normal
350
F
100
AcDbDictionaryWithDefault
340
F
  0
LAYOUT
  5
22
102
{ACAD_REACTORS
330
1A
102
}
330
1A
100
AcDbPlotSettings
  1

  2
none_device
  4
ANSI_A_(8.50_x_11.00_Inches)
  6

 40
6.349999904632567
 41
19.04999923706053
 42
6.350006103515625
 43
19.04998779296875
 44
215.8999938964841
 45
279.3999938964843
 46
0.0
 47
0.0
 48
0.0
 49
0.0
140
0.0
141
0.0
142
1.0
143
78.436453180766
 70
 11952
 72
     0
 73
     1
 74
     0
  7

 75
     0
147
0.0127491741332998
148
0.0
149
0.0
100
AcDbLayout
  1
Model
 70
     1
 71
     0
 10
0.0
 20
0.0
 11
12.0
 21
9.0
 12
0.0
 22
0.0
 32
0.0
 14
0.0
 24
0.0
 34
0.0
 15
0.0
 25
0.0
 35
0.0
146
0.0
 13
0.0
 23
0.0
 33
0.0
 16
1.0
 26
0.0
 36
0.0
 17
0.0
 27
1.0
 37
0.0
 76
     0
330
1F
  0
LAYOUT
  5
51
102
{ACAD_REACTORS
330
1A
102
}
330
1A
100
AcDbPlotSettings
  1

  2
None
  4

  6

 40
0.0
 41
0.0
 42
0.0
 43
0.0
 44
0.0
 45
0.0
 46
0.0
 47
0.0
 48
0.0
 49
0.0
140
0.0
141
0.0
142
1.0
143
1.0
 70
   688
 72
     0
 73
     0
 74
     5
  7

 75
    16
147
1.0
148
0.0
149
0.0
100
AcDbLayout
  1
ﾚｲｱｳﾄ1
 70
     1
 71
     1
 10
0.0
 20
0.0
 11
12.0
 21
9.0
 12
0.0
 22
0.0
 32
0.0
 14
0.0
 24
0.0
 34
0.0
 15
0.0
 25
0.0
 35
0.0
146
0.0
 13
0.0
 23
0.0
 33
0.0
 16
1.0
 26
0.0
 36
0.0
 17
0.0
 27
1.0
 37
0.0
 76
     0
330
50
  0
LAYOUT
  5
56
102
{ACAD_REACTORS
330
1A
102
}
330
1A
100
AcDbPlotSettings
  1

  2
None
  4

  6

 40
0.0
 41
0.0
 42
0.0
 43
0.0
 44
0.0
 45
0.0
 46
0.0
 47
0.0
 48
0.0
 49
0.0
140
0.0
141
0.0
142
1.0
143
1.0
 70
   688
 72
     0
 73
     0
 74
     5
  7

 75
    16
147
1.0
148
0.0
149
0.0
100
AcDbLayout
  1
ﾚｲｱｳﾄ2
 70
     1
 71
     2
 10
0.0
 20
0.0
 11
12.0
 21
9.0
 12
0.0
 22
0.0
 32
0.0
 14
0.0
 24
0.0
 34
0.0
 15
0.0
 25
0.0
 35
0.0
146
0.0
 13
0.0
 23
0.0
 33
0.0
 16
1.0
 26
0.0
 36
0.0
 17
0.0
 27
1.0
 37
0.0
 76
     0
330
55
  0
MLINESTYLE
  5
18
102
{ACAD_REACTORS
330
17
102
}
330
17
100
AcDbMlineStyle
  2
STANDARD
 70
     0
  3

 62
   256
 51
90.0
 52
90.0
 71
     2
 49
0.5
 62
   256
  6
BYLAYER
 49
-0.5
 62
   256
  6
BYLAYER
  0
ACDBPLACEHOLDER
  5
F
102
{ACAD_REACTORS
330
E
102
}
330
E
  0
ENDSEC
  0
EOF
