  0
SECTION
  2
HEADER
  9
$ACADVER
  1
AC1015
  9
$ACADMAINTVER
 70
    10
  9
$DWGCODEPAGE
  3
ANSI_932
  9
$INSBASE
 10
0.0
 20
0.0
 30
0.0
  9
$EXTMIN
 10
105.2948436279564
 20
201.7966393971023
 30
0.0
  9
$EXTMAX
 10
884.0977461538409
 20
737.6137956974014
 30
10.59933933933931
  9
$LIMMIN
 10
0.0
 20
0.0
  9
$LIMMAX
 10
420.0
 20
297.0
  9
$ORTHOMODE
 70
     1
  9
$REGENMODE
 70
     1
  9
$FILLMODE
 70
     1
  9
$QTEXTMODE
 70
     0
  9
$MIRRTEXT
 70
     1
  9
$LTSCALE
 40
1.0
  9
$ATTMODE
 70
     1
  9
$TEXTSIZE
 40
2.5
  9
$TRACEWID
 40
1.0
  9
$TEXTSTYLE
  7
Standard
  9
$CLAYER
  8
0
  9
$CELTYPE
  6
ByLayer
  9
$CECOLOR
 62
   256
  9
$CELTSCALE
 40
1.0
  9
$DISPSILH
 70
     0
  9
$DIMSCALE
 40
1.0
  9
$DIMASZ
 40
2.5
  9
$DIMEXO
 40
0.625
  9
$DIMDLI
 40
3.75
  9
$DIMRND
 40
0.0
  9
$DIMDLE
 40
0.0
  9
$DIMEXE
 40
1.25
  9
$DIMTP
 40
0.0
  9
$DIMTM
 40
0.0
  9
$DIMTXT
 40
2.5
  9
$DIMCEN
 40
2.5
  9
$DIMTSZ
 40
0.0
  9
$DIMTOL
 70
     0
  9
$DIMLIM
 70
     0
  9
$DIMTIH
 70
     0
  9
$DIMTOH
 70
     0
  9
$DIMSE1
 70
     0
  9
$DIMSE2
 70
     0
  9
$DIMTAD
 70
     1
  9
$DIMZIN
 70
     8
  9
$DIMBLK
  1

  9
$DIMASO
 70
     1
  9
$DIMSHO
 70
     1
  9
$DIMPOST
  1

  9
$DIMAPOST
  1

  9
$DIMALT
 70
     0
  9
$DIMALTD
 70
     3
  9
$DIMALTF
 40
0.03937007874016
  9
$DIMLFAC
 40
1.0
  9
$DIMTOFL
 70
     1
  9
$DIMTVP
 40
0.0
  9
$DIMTIX
 70
     0
  9
$DIMSOXD
 70
     0
  9
$DIMSAH
 70
     0
  9
$DIMBLK1
  1

  9
$DIMBLK2
  1

  9
$DIMSTYLE
  2
ISO-25
  9
$DIMCLRD
 70
     0
  9
$DIMCLRE
 70
     0
  9
$DIMCLRT
 70
     0
  9
$DIMTFAC
 40
1.0
  9
$DIMGAP
 40
0.625
  9
$DIMJUST
 70
     0
  9
$DIMSD1
 70
     0
  9
$DIMSD2
 70
     0
  9
$DIMTOLJ
 70
     0
  9
$DIMTZIN
 70
     8
  9
$DIMALTZ
 70
     0
  9
$DIMALTTZ
 70
     0
  9
$DIMUPT
 70
     0
  9
$DIMDEC
 70
     2
  9
$DIMTDEC
 70
     2
  9
$DIMALTU
 70
     2
  9
$DIMALTTD
 70
     3
  9
$DIMTXSTY
  7
Standard
  9
$DIMAUNIT
 70
     0
  9
$DIMADEC
 70
     0
  9
$DIMALTRND
 40
0.0
  9
$DIMAZIN
 70
     0
  9
$DIMDSEP
 70
    44
  9
$DIMATFIT
 70
     3
  9
$DIMFRAC
 70
     0
  9
$DIMLDRBLK
  1

  9
$DIMLUNIT
 70
     2
  9
$DIMLWD
 70
    -2
  9
$DIMLWE
 70
    -2
  9
$DIMTMOVE
 70
     0
  9
$LUNITS
 70
     2
  9
$LUPREC
 70
     4
  9
$SKETCHINC
 40
1.0
  9
$FILLETRAD
 40
10.0
  9
$AUNITS
 70
     0
  9
$AUPREC
 70
     0
  9
$MENU
  1
.
  9
$ELEVATION
 40
0.0
  9
$PELEVATION
 40
0.0
  9
$THICKNESS
 40
0.0
  9
$LIMCHECK
 70
     0
  9
$CHAMFERA
 40
10.0
  9
$CHAMFERB
 40
10.0
  9
$CHAMFERC
 40
20.0
  9
$CHAMFERD
 40
0.0
  9
$SKPOLY
 70
     0
  9
$TDCREATE
 40
2456498.394601261
  9
$TDUCREATE
 40
2456498.019601261
  9
$TDUPDATE
 40
2456500.627099942
  9
$TDUUPDATE
 40
2456500.252099941
  9
$TDINDWG
 40
0.0880976157
  9
$TDUSRTIMER
 40
0.0880965278
  9
$USRTIMER
 70
     1
  9
$ANGBASE
 50
0.0
  9
$ANGDIR
 70
     0
  9
$PDMODE
 70
     0
  9
$PDSIZE
 40
0.0
  9
$PLINEWID
 40
0.0
  9
$SPLFRAME
 70
     0
  9
$SPLINETYPE
 70
     6
  9
$SPLINESEGS
 70
     8
  9
$HANDSEED
  5
12C4
  9
$SURFTAB1
 70
     6
  9
$SURFTAB2
 70
     6
  9
$SURFTYPE
 70
     6
  9
$SURFU
 70
     6
  9
$SURFV
 70
     6
  9
$UCSBASE
  2

  9
$UCSNAME
  2

  9
$UCSORG
 10
0.0
 20
0.0
 30
0.0
  9
$UCSXDIR
 10
1.0
 20
0.0
 30
0.0
  9
$UCSYDIR
 10
0.0
 20
1.0
 30
0.0
  9
$UCSORTHOREF
  2

  9
$UCSORTHOVIEW
 70
     0
  9
$UCSORGTOP
 10
0.0
 20
0.0
 30
0.0
  9
$UCSORGBOTTOM
 10
0.0
 20
0.0
 30
0.0
  9
$UCSORGLEFT
 10
0.0
 20
0.0
 30
0.0
  9
$UCSORGRIGHT
 10
0.0
 20
0.0
 30
0.0
  9
$UCSORGFRONT
 10
0.0
 20
0.0
 30
0.0
  9
$UCSORGBACK
 10
0.0
 20
0.0
 30
0.0
  9
$PUCSBASE
  2

  9
$PUCSNAME
  2

  9
$PUCSORG
 10
0.0
 20
0.0
 30
0.0
  9
$PUCSXDIR
 10
1.0
 20
0.0
 30
0.0
  9
$PUCSYDIR
 10
0.0
 20
1.0
 30
0.0
  9
$PUCSORTHOREF
  2

  9
$PUCSORTHOVIEW
 70
     0
  9
$PUCSORGTOP
 10
0.0
 20
0.0
 30
0.0
  9
$PUCSORGBOTTOM
 10
0.0
 20
0.0
 30
0.0
  9
$PUCSORGLEFT
 10
0.0
 20
0.0
 30
0.0
  9
$PUCSORGRIGHT
 10
0.0
 20
0.0
 30
0.0
  9
$PUCSORGFRONT
 10
0.0
 20
0.0
 30
0.0
  9
$PUCSORGBACK
 10
0.0
 20
0.0
 30
0.0
  9
$USERI1
 70
     0
  9
$USERI2
 70
     0
  9
$USERI3
 70
     0
  9
$USERI4
 70
     0
  9
$USERI5
 70
     0
  9
$USERR1
 40
0.0
  9
$USERR2
 40
0.0
  9
$USERR3
 40
0.0
  9
$USERR4
 40
0.0
  9
$USERR5
 40
0.0
  9
$WORLDVIEW
 70
     1
  9
$SHADEDGE
 70
     3
  9
$SHADEDIF
 70
    70
  9
$TILEMODE
 70
     1
  9
$MAXACTVP
 70
    64
  9
$PINSBASE
 10
0.0
 20
0.0
 30
0.0
  9
$PLIMCHECK
 70
     0
  9
$PEXTMIN
 10
0.0
 20
0.0
 30
0.0
  9
$PEXTMAX
 10
0.0
 20
0.0
 30
0.0
  9
$PLIMMIN
 10
0.0
 20
0.0
  9
$PLIMMAX
 10
12.0
 20
9.0
  9
$UNITMODE
 70
     0
  9
$VISRETAIN
 70
     1
  9
$PLINEGEN
 70
     0
  9
$PSLTSCALE
 70
     1
  9
$TREEDEPTH
 70
  3020
  9
$CMLSTYLE
  2
Standard
  9
$CMLJUST
 70
     0
  9
$CMLSCALE
 40
20.0
  9
$PROXYGRAPHICS
 70
     1
  9
$MEASUREMENT
 70
     1
  9
$CELWEIGHT
370
    -1
  9
$ENDCAPS
280
     0
  9
$JOINSTYLE
280
     0
  9
$LWDISPLAY
290
     0
  9
$INSUNITS
 70
     4
  9
$HYPERLINKBASE
  1

  9
$STYLESHEET
  1

  9
$XEDIT
290
     1
  9
$CEPSNTYPE
380
     0
  9
$PSTYLEMODE
290
     1
  9
$FINGERPRINTGUID
  2
{FDEAD578-A652-11D2-9A35-0060089B3A3F}
  9
$VERSIONGUID
  2
{0C5E3E99-AD4D-4496-90AB-AD7F137D85CC}
  9
$EXTNAMES
290
     1
  9
$PSVPSCALE
 40
0.0
  9
$OLESTARTUP
290
     0
  0
ENDSEC
  0
SECTION
  2
CLASSES
  0
CLASS
  1
ACDBDICTIONARYWDFLT
  2
AcDbDictionaryWithDefault
  3
AutoCAD 2000
 90
        0
280
     0
281
     0
  0
CLASS
  1
ACDBPLACEHOLDER
  2
AcDbPlaceHolder
  3
AutoCAD 2000
 90
        0
280
     0
281
     0
  0
CLASS
  1
LAYOUT
  2
AcDbLayout
  3
AutoCAD 2000
 90
        0
280
     0
281
     0
  0
ENDSEC
  0
SECTION
  2
TABLES
  0
TABLE
  2
VPORT
  5
8
330
0
100
AcDbSymbolTable
 70
     2
  0
VPORT
  5
12C3
330
8
100
AcDbSymbolTableRecord
100
AcDbViewportTableRecord
  2
*Active
 70
     0
 10
0.0
 20
0.0
 11
1.0
 21
1.0
 12
520.3155240532817
 22
476.8371418145577
 13
0.0
 23
0.0
 14
10.0
 24
10.0
 15
10.0
 25
10.0
 16
0.0
 26
0.0
 36
1.0
 17
0.0
 27
0.0
 37
0.0
 40
589.2380119091808
 41
1.781954887218045
 42
50.0
 43
0.0
 44
0.0
 50
0.0
 51
0.0
 71
     0
 72
   100
 73
     1
 74
     3
 75
     0
 76
     0
 77
     0
 78
     0
281
     0
 65
     1
110
0.0
120
0.0
130
0.0
111
1.0
121
0.0
131
0.0
112
0.0
122
1.0
132
0.0
 79
     0
146
0.0
  0
ENDTAB
  0
TABLE
  2
LTYPE
  5
5
330
0
100
AcDbSymbolTable
 70
     2
  0
LTYPE
  5
14
330
5
100
AcDbSymbolTableRecord
100
AcDbLinetypeTableRecord
  2
ByBlock
 70
     0
  3

 72
    65
 73
     0
 40
0.0
  0
LTYPE
  5
15
330
5
100
AcDbSymbolTableRecord
100
AcDbLinetypeTableRecord
  2
ByLayer
 70
     0
  3

 72
    65
 73
     0
 40
0.0
  0
LTYPE
  5
16
330
5
100
AcDbSymbolTableRecord
100
AcDbLinetypeTableRecord
  2
Continuous
 70
     0
  3
Solid line
 72
    65
 73
     0
 40
0.0
  0
LTYPE
  5
67
330
5
100
AcDbSymbolTableRecord
100
AcDbLinetypeTableRecord
  2
DASHED
 70
     0
  3
DASHED
 72
    65
 73
     2
 40
0.75
 49
0.5
 74
     0
 49
-0.25
 74
     0
  0
ENDTAB
  0
TABLE
  2
LAYER
  5
2
330
0
100
AcDbSymbolTable
 70
     1
  0
LAYER
  5
10
330
2
100
AcDbSymbolTableRecord
100
AcDbLayerTableRecord
  2
0
 70
     0
 62
     7
  6
Continuous
370
    -3
390
F
  0
ENDTAB
  0
TABLE
  2
STYLE
  5
3
330
0
100
AcDbSymbolTable
 70
     2
  0
STYLE
  5
11
330
3
100
AcDbSymbolTableRecord
100
AcDbTextStyleTableRecord
  2
Standard
 70
     0
 40
0.0
 41
1.0
 50
0.0
 71
     0
 42
2.5
  3
txt
  4

  0
STYLE
  5
6A
330
3
100
AcDbSymbolTableRecord
100
AcDbTextStyleTableRecord
  2
_TCW_TXTSTY_1
 70
     0
 40
0.0
 41
1.0
 50
0.0
 71
     0
 42
0.69697
  3
MS PGothic.ttf
  4

1001
ACAD
1000
ＭＳ Ｐゴシック
1071
    32802
  0
ENDTAB
  0
TABLE
  2
VIEW
  5
6
330
0
100
AcDbSymbolTable
 70
     0
  0
ENDTAB
  0
TABLE
  2
UCS
  5
7
330
0
100
AcDbSymbolTable
 70
     0
  0
ENDTAB
  0
TABLE
  2
APPID
  5
9
330
0
100
AcDbSymbolTable
 70
     2
  0
APPID
  5
12
330
9
100
AcDbSymbolTableRecord
100
AcDbRegAppTableRecord
  2
ACAD
 70
     0
  0
APPID
  5
6C
330
9
100
AcDbSymbolTableRecord
100
AcDbRegAppTableRecord
  2
TCAD
 70
     0
  0
ENDTAB
  0
TABLE
  2
DIMSTYLE
  5
A
330
0
100
AcDbSymbolTable
 70
     2
100
AcDbDimStyleTable
 71
     1
340
27
  0
DIMSTYLE
105
27
330
A
100
AcDbSymbolTableRecord
100
AcDbDimStyleTableRecord
  2
ISO-25
 70
     0
 41
2.5
 42
0.625
 43
3.75
 44
1.25
 73
     0
 74
     0
 77
     1
 78
     8
140
2.5
141
2.5
143
0.03937007874016
147
0.625
171
     3
172
     1
271
     2
272
     2
274
     3
278
    44
283
     0
284
     8
340
11
  0
DIMSTYLE
105
6B
330
A
100
AcDbSymbolTableRecord
100
AcDbDimStyleTableRecord
  2
STANDARD
 70
     0
 41
3.0
 42
0.5
 43
7.5
 44
1.0
 45
0.01
 73
     0
 74
     0
 77
     1
 78
     8
140
2.439394
143
1.0
144
3.0
147
0.5
148
0.01
176
     7
177
     7
178
     7
179
     2
271
     2
272
     2
340
6A
341
61
342
61
  0
ENDTAB
  0
TABLE
  2
BLOCK_RECORD
  5
1
330
0
100
AcDbSymbolTable
 70
     1
  0
BLOCK_RECORD
  5
1F
330
1
100
AcDbSymbolTableRecord
100
AcDbBlockTableRecord
  2
*Model_Space
340
22
  0
BLOCK_RECORD
  5
50
330
1
100
AcDbSymbolTableRecord
100
AcDbBlockTableRecord
  2
*Paper_Space
340
51
  0
BLOCK_RECORD
  5
61
330
1
100
AcDbSymbolTableRecord
100
AcDbBlockTableRecord
  2
_OPEN
340
0
  0
ENDTAB
  0
ENDSEC
  0
SECTION
  2
BLOCKS
  0
BLOCK
  5
20
330
1F
100
AcDbEntity
  8
0
100
AcDbBlockBegin
  2
*Model_Space
 70
     0
 10
0.0
 20
0.0
 30
0.0
  3
*Model_Space
  1

  0
ENDBLK
  5
21
330
1F
100
AcDbEntity
  8
0
100
AcDbBlockEnd
  0
BLOCK
  5
52
330
50
100
AcDbEntity
 67
     1
  8
0
100
AcDbBlockBegin
  2
*Paper_Space
 70
     0
 10
0.0
 20
0.0
 30
0.0
  3
*Paper_Space
  1

  0
ENDBLK
  5
53
330
50
100
AcDbEntity
 67
     1
  8
0
100
AcDbBlockEnd
  0
BLOCK
  5
65
330
61
100
AcDbEntity
  8
0
100
AcDbBlockBegin
  2
_OPEN
 70
     0
 10
0.0
 20
0.0
 30
0.0
  3
_OPEN
  1

  0
LINE
  5
62
330
61
100
AcDbEntity
  8
0
  6
ByBlock
 62
     0
100
AcDbLine
 10
-1.0
 20
0.166667
 30
0.0
 11
0.0
 21
0.0
 31
0.0
  0
LINE
  5
63
330
61
100
AcDbEntity
  8
0
  6
ByBlock
 62
     0
100
AcDbLine
 10
0.0
 20
0.0
 30
0.0
 11
-1.0
 21
-0.166667
 31
0.0
  0
LINE
  5
64
330
61
100
AcDbEntity
  8
0
  6
ByBlock
 62
     0
100
AcDbLine
 10
0.0
 20
0.0
 30
0.0
 11
-1.0
 21
0.0
 31
0.0
  0
ENDBLK
  5
66
330
61
100
AcDbEntity
  8
0
100
AcDbBlockEnd
  0
ENDSEC
  0
SECTION
  2
ENTITIES
  0
LINE
  5
3EA
330
1F
100
AcDbEntity
  8
0
  6
Continuous
 62
     7
100
AcDbLine
 10
109.8663719508395
 20
703.9569306883922
 30
0.0
 11
109.8663719508395
 21
267.9569427004053
 31
0.0
  0
LINE
  5
3EB
330
1F
100
AcDbEntity
  8
0
  6
Continuous
 62
     7
100
AcDbLine
 10
529.8663719508395
 20
267.9569427004053
 30
0.0
 11
529.8663719508395
 21
703.9569306883922
 31
0.0
  0
LINE
  5
3EC
330
1F
100
AcDbEntity
  8
0
  6
Continuous
 62
     7
100
AcDbLine
 10
123.8663719508398
 20
265.9569427004053
 30
0.0
 11
515.866371950839
 21
265.9569427004053
 31
0.0
  0
LINE
  5
3ED
330
1F
100
AcDbEntity
  8
0
  6
Continuous
 62
     7
100
AcDbLine
 10
291.8030236024911
 20
240.9569396974026
 30
0.0
 11
351.8450866655541
 21
240.9569396974026
 31
0.0
  0
LINE
  5
3EE
330
1F
100
AcDbEntity
  8
0
  6
Continuous
 62
     7
100
AcDbLine
 10
214.8450866655545
 20
201.7966393971023
 30
0.0
 11
214.8450866655545
 21
265.9569427004053
 31
0.0
  0
LINE
  5
3EF
330
1F
100
AcDbEntity
  8
0
  6
Continuous
 62
     7
100
AcDbLine
 10
224.8450866655538
 20
265.9569427004053
 30
0.0
 11
224.8450866655538
 21
201.7966393971023
 31
0.0
  0
LINE
  5
3F0
330
1F
100
AcDbEntity
  8
0
  6
Continuous
 62
     7
100
AcDbLine
 10
144.8030236024914
 20
201.8654712289341
 30
0.0
 11
144.8030236024914
 21
265.9569427004053
 31
0.0
  0
LINE
  5
3F1
330
1F
100
AcDbEntity
  8
0
  6
Continuous
 62
     7
100
AcDbLine
 10
154.803023602491
 20
265.9569427004053
 30
0.0
 11
154.803023602491
 21
201.8654712289341
 31
0.0
  0
LINE
  5
3F2
330
1F
100
AcDbEntity
  8
0
  6
Continuous
 62
     7
100
AcDbLine
 10
281.8030236024909
 20
201.8654712289341
 30
0.0
 11
281.8030236024909
 21
265.9569427004053
 31
0.0
  0
LINE
  5
3F3
330
1F
100
AcDbEntity
  8
0
  6
Continuous
 62
     7
100
AcDbLine
 10
291.8030236024911
 20
265.9569427004053
 30
0.0
 11
291.8030236024911
 21
201.8654712289341
 31
0.0
  0
LINE
  5
3F4
330
1F
100
AcDbEntity
  8
0
  6
Continuous
 62
     7
100
AcDbLine
 10
154.803023602491
 20
201.8654712289341
 30
0.0
 11
144.8030236024914
 21
201.8654712289341
 31
0.0
  0
LINE
  5
3F5
330
1F
100
AcDbEntity
  8
0
  6
Continuous
 62
     7
100
AcDbLine
 10
224.8450866655538
 20
201.7966393971023
 30
0.0
 11
214.8450866655545
 21
201.7966393971023
 31
0.0
  0
LINE
  5
3F6
330
1F
100
AcDbEntity
  8
0
  6
Continuous
 62
     7
100
AcDbLine
 10
291.8030236024911
 20
201.8654712289341
 30
0.0
 11
281.8030236024909
 21
201.8654712289341
 31
0.0
  0
ARC
  5
3F7
330
1F
100
AcDbEntity
  8
0
  6
Continuous
 62
     7
100
AcDbCircle
 10
183.3663764479919
 20
242.9569382032525
 30
0.0
 40
1.999998505850026
100
AcDbArc
 50
269.9999571957144
 51
0.0000428042920657
  0
CIRCLE
  5
3F8
330
1F
100
AcDbEntity
  8
0
  6
Continuous
 62
     7
370
     0
100
AcDbCircle
 10
117.8663746403104
 20
315.9569243688556
 30
0.0
 40
3.599997310530266
  0
LINE
  5
3F9
330
1F
100
AcDbEntity
  8
0
  6
Continuous
 62
     7
 48
6.0
100
AcDbLine
 10
118.4663749538427
 20
315.3569246823872
 30
0.0
 11
120.266374953843
 21
315.3569246823872
 31
0.0
  0
LINE
  5
3FA
330
1F
100
AcDbEntity
  8
0
  6
Continuous
 62
     7
 48
6.0
100
AcDbLine
 10
120.266374953843
 20
316.5569246823876
 30
0.0
 11
118.4663749538427
 21
316.5569246823876
 31
0.0
  0
ARC
  5
3FB
330
1F
100
AcDbEntity
  8
0
  6
Continuous
 62
     7
100
AcDbCircle
 10
117.8663719508397
 20
309.9569440409828
 30
0.0
 40
4.999999003394401
100
AcDbArc
 50
126.8063136837713
 51
53.19368631622843
  0
LINE
  5
3FC
330
1F
100
AcDbEntity
  8
0
  6
Continuous
 62
     7
100
AcDbLine
 10
111.8663719508395
 20
265.9569427004053
 30
0.0
 11
121.8663719508394
 21
265.9569427004053
 31
0.0
  0
LINE
  5
3FD
330
1F
100
AcDbEntity
  8
0
  6
Continuous
 62
     7
100
AcDbLine
 10
111.4663749538425
 20
248.9569396974026
 30
0.0
 11
111.4663749538425
 21
265.9569427004053
 31
0.0
  0
ARC
  5
3FE
330
1F
100
AcDbEntity
  8
0
  6
Continuous
 62
     7
100
AcDbCircle
 10
119.4663689772414
 20
248.9569337208015
 30
0.0
 40
7.999994023400782
100
AcDbArc
 50
179.999957195716
 51
270.0000428042887
  0
ARC
  5
3FF
330
1F
100
AcDbEntity
  8
0
  6
Continuous
 62
     7
100
AcDbCircle
 10
111.8663704566891
 20
267.9569412062551
 30
0.0
 40
1.999998505850109
100
AcDbArc
 50
179.9999571957128
 51
270.0000428042887
  0
ARC
  5
400
330
1F
100
AcDbEntity
  8
0
  6
Continuous
 62
     7
100
AcDbCircle
 10
107.6124876335722
 20
302.6369321227778
 30
0.0
 40
1.919998565616289
100
AcDbArc
 50
89.99995719571442
 51
180.0000428042871
  0
ARC
  5
401
330
1F
100
AcDbEntity
  8
0
  6
Continuous
 62
     7
100
AcDbCircle
 10
107.6124876335722
 20
299.2769292540092
 30
0.0
 40
1.919998565616205
100
AcDbArc
 50
179.999957195716
 51
270.0000428042887
  0
LINE
  5
402
330
1F
100
AcDbEntity
  8
0
  6
Continuous
 62
     7
100
AcDbLine
 10
105.6924890679566
 20
302.6369306883933
 30
0.0
 11
105.6924890679566
 21
299.2769306883933
 31
0.0
  0
LINE
  5
403
330
1F
100
AcDbEntity
  8
0
  6
Continuous
 62
     7
100
AcDbLine
 10
108.6124890679569
 20
305.9969276853907
 30
0.0
 11
108.6124890679569
 21
295.9169276853906
 31
0.0
  0
LINE
  5
404
330
1F
100
AcDbEntity
  8
0
  6
Continuous
 62
     7
100
AcDbLine
 10
107.6124890679565
 20
304.5569306883933
 30
0.0
 11
108.6124890679569
 21
304.5569306883933
 31
0.0
  0
LINE
  5
405
330
1F
100
AcDbEntity
  8
0
  6
Continuous
 62
     7
100
AcDbLine
 10
107.6124890679565
 20
297.3569306883934
 30
0.0
 11
108.6124890679569
 21
297.3569306883934
 31
0.0
  0
LINE
  5
406
330
1F
100
AcDbEntity
  8
0
  6
Continuous
 62
     7
100
AcDbLine
 10
108.6124890679569
 20
305.9969276853907
 30
0.0
 11
109.6124890679571
 21
305.9969276853907
 31
0.0
  0
LINE
  5
407
330
1F
100
AcDbEntity
  8
0
  6
Continuous
 62
     7
100
AcDbLine
 10
108.6124890679569
 20
295.9169276853906
 30
0.0
 11
109.6124890679571
 21
295.9169276853906
 31
0.0
  0
LINE
  5
408
330
1F
100
AcDbEntity
  8
0
  6
Continuous
 62
     7
 48
6.0
100
AcDbLine
 10
118.4663749538427
 20
313.5569246823878
 30
0.0
 11
118.4663749538427
 21
315.3569246823872
 31
0.0
  0
LINE
  5
409
330
1F
100
AcDbEntity
  8
0
  6
Continuous
 62
     7
 48
6.0
100
AcDbLine
 10
117.266374953843
 20
313.5569246823878
 30
0.0
 11
118.4663749538427
 21
313.5569246823878
 31
0.0
  0
LINE
  5
40A
330
1F
100
AcDbEntity
  8
0
  6
Continuous
 62
     7
 48
6.0
100
AcDbLine
 10
117.266374953843
 20
315.3569246823872
 30
0.0
 11
117.266374953843
 21
313.5569246823878
 31
0.0
  0
LINE
  5
40B
330
1F
100
AcDbEntity
  8
0
  6
Continuous
 62
     7
 48
6.0
100
AcDbLine
 10
115.4663749538419
 20
315.3569246823872
 30
0.0
 11
117.266374953843
 21
315.3569246823872
 31
0.0
  0
LINE
  5
40C
330
1F
100
AcDbEntity
  8
0
  6
Continuous
 62
     7
 48
6.0
100
AcDbLine
 10
115.4663749538419
 20
316.5569246823876
 30
0.0
 11
115.4663749538419
 21
315.3569246823872
 31
0.0
  0
LINE
  5
40D
330
1F
100
AcDbEntity
  8
0
  6
Continuous
 62
     7
 48
6.0
100
AcDbLine
 10
117.266374953843
 20
316.5569246823876
 30
0.0
 11
115.4663749538419
 21
316.5569246823876
 31
0.0
  0
LINE
  5
40E
330
1F
100
AcDbEntity
  8
0
  6
Continuous
 62
     7
 48
6.0
100
AcDbLine
 10
117.266374953843
 20
318.3569246823876
 30
0.0
 11
117.266374953843
 21
316.5569246823876
 31
0.0
  0
LINE
  5
40F
330
1F
100
AcDbEntity
  8
0
  6
Continuous
 62
     7
 48
6.0
100
AcDbLine
 10
118.4663749538427
 20
318.3569246823876
 30
0.0
 11
117.266374953843
 21
318.3569246823876
 31
0.0
  0
LINE
  5
410
330
1F
100
AcDbEntity
  8
0
  6
Continuous
 62
     7
 48
6.0
100
AcDbLine
 10
118.4663749538427
 20
316.5569246823876
 30
0.0
 11
118.4663749538427
 21
318.3569246823876
 31
0.0
  0
LINE
  5
411
330
1F
100
AcDbEntity
  8
0
  6
Continuous
 62
     7
100
AcDbLine
 10
144.8030236024914
 20
240.9569396974026
 30
0.0
 11
119.866374953843
 21
240.9569396974026
 31
0.0
  0
LINE
  5
412
330
1F
100
AcDbEntity
  8
0
  6
Continuous
 62
     7
100
AcDbLine
 10
121.8663719508394
 20
267.1569427004058
 30
0.0
 11
123.8663719508398
 21
267.1569427004058
 31
0.0
  0
LINE
  5
413
330
1F
100
AcDbEntity
  8
0
  6
Continuous
 62
     7
100
AcDbLine
 10
121.8663719508394
 20
265.9569427004053
 30
0.0
 11
121.8663719508394
 21
267.1569427004058
 31
0.0
  0
LINE
  5
414
330
1F
100
AcDbEntity
  8
0
  6
Continuous
 62
     7
100
AcDbLine
 10
123.8663719508398
 20
265.9569427004053
 30
0.0
 11
123.8663719508398
 21
267.1569427004058
 31
0.0
  0
LINE
  5
415
330
1F
100
AcDbEntity
  8
0
  6
Continuous
 62
     7
100
AcDbLine
 10
183.3663749538428
 20
240.9569396974026
 30
0.0
 11
154.803023602491
 21
240.9569396974026
 31
0.0
  0
LINE
  5
416
330
1F
100
AcDbEntity
  8
0
  6
Continuous
 62
     7
 48
6.0
100
AcDbLine
 10
120.266374953843
 20
315.3569246823872
 30
0.0
 11
120.266374953843
 21
315.3569246823872
 31
0.0
  0
LINE
  5
417
330
1F
100
AcDbEntity
  8
0
  6
Continuous
 62
     7
 48
6.0
100
AcDbLine
 10
120.266374953843
 20
315.3569246823872
 30
0.0
 11
120.266374953843
 21
316.5569246823876
 31
0.0
  0
LINE
  5
418
330
1F
100
AcDbEntity
  8
0
  6
Continuous
 62
     7
100
AcDbLine
 10
224.8450866655538
 20
240.9569396974026
 30
0.0
 11
281.8030236024909
 21
240.9569396974026
 31
0.0
  0
LINE
  5
419
330
1F
100
AcDbEntity
  8
0
  6
Continuous
 62
     7
100
AcDbLine
 10
196.3663749538423
 20
240.9569396974026
 30
0.0
 11
214.8450866655545
 21
240.9569396974026
 31
0.0
  0
ARC
  5
41A
330
1F
100
AcDbEntity
  8
0
  6
Continuous
 62
     7
100
AcDbCircle
 10
189.8663749538425
 20
253.9569396974024
 30
0.0
 40
4.500000000000087
100
AcDbArc
 50
0.0
 51
180.0
  0
ARC
  5
41B
330
1F
100
AcDbEntity
  8
0
  6
Continuous
 62
     7
100
AcDbCircle
 10
196.3663734596924
 20
242.9569382032525
 30
0.0
 40
1.999998505850109
100
AcDbArc
 50
179.9999571957079
 51
270.0000428042789
  0
LINE
  5
41C
330
1F
100
AcDbEntity
  8
0
  6
Continuous
 62
     7
100
AcDbLine
 10
194.3663749538428
 20
253.9569396974024
 30
0.0
 11
194.3663749538428
 21
242.9569396974026
 31
0.0
  0
LINE
  5
41D
330
1F
100
AcDbEntity
  8
0
  6
Continuous
 62
     7
100
AcDbLine
 10
185.3663749538423
 20
253.9569396974024
 30
0.0
 11
185.3663749538423
 21
242.9569396974026
 31
0.0
  0
LINE
  5
41E
330
1F
100
AcDbEntity
  8
0
  6
Continuous
 62
     7
100
AcDbLine
 10
351.8450866655541
 20
201.7966393971023
 30
0.0
 11
351.8450866655541
 21
265.9569427004053
 31
0.0
  0
LINE
  5
41F
330
1F
100
AcDbEntity
  8
0
  6
Continuous
 62
     7
100
AcDbLine
 10
361.8450866655535
 20
265.9569427004053
 30
0.0
 11
361.8450866655535
 21
201.7966393971023
 31
0.0
  0
LINE
  5
420
330
1F
100
AcDbEntity
  8
0
  6
Continuous
 62
     7
100
AcDbLine
 10
418.803023602491
 20
201.8654712289341
 30
0.0
 11
418.803023602491
 21
265.9569427004053
 31
0.0
  0
LINE
  5
421
330
1F
100
AcDbEntity
  8
0
  6
Continuous
 62
     7
100
AcDbLine
 10
428.8030236024908
 20
265.9569427004053
 30
0.0
 11
428.8030236024908
 21
201.8654712289341
 31
0.0
  0
LINE
  5
422
330
1F
100
AcDbEntity
  8
0
  6
Continuous
 62
     7
100
AcDbLine
 10
488.8450866655539
 20
201.7966393971023
 30
0.0
 11
488.8450866655539
 21
265.9569427004053
 31
0.0
  0
LINE
  5
423
330
1F
100
AcDbEntity
  8
0
  6
Continuous
 62
     7
100
AcDbLine
 10
498.8450866655543
 20
265.9569427004053
 30
0.0
 11
498.8450866655543
 21
201.7966393971023
 31
0.0
  0
LINE
  5
424
330
1F
100
AcDbEntity
  8
0
  6
Continuous
 62
     7
100
AcDbLine
 10
361.8450866655535
 20
201.7966393971023
 30
0.0
 11
351.8450866655541
 21
201.7966393971023
 31
0.0
  0
LINE
  5
425
330
1F
100
AcDbEntity
  8
0
  6
Continuous
 62
     7
100
AcDbLine
 10
428.8030236024908
 20
201.8654712289341
 30
0.0
 11
418.803023602491
 21
201.8654712289341
 31
0.0
  0
LINE
  5
426
330
1F
100
AcDbEntity
  8
0
  6
Continuous
 62
     7
100
AcDbLine
 10
498.8450866655543
 20
201.7966393971023
 30
0.0
 11
488.8450866655539
 21
201.7966393971023
 31
0.0
  0
ARC
  5
427
330
1F
100
AcDbEntity
  8
0
  6
Continuous
 62
     7
100
AcDbCircle
 10
443.3663764479927
 20
242.9569382032525
 30
0.0
 40
1.999998505850196
100
AcDbArc
 50
269.9999571957144
 51
0.0000428042871804
  0
LINE
  5
428
330
1F
100
AcDbEntity
  8
0
  6
Continuous
 62
     7
100
AcDbLine
 10
361.8450866655535
 20
240.9569396974026
 30
0.0
 11
418.803023602491
 21
240.9569396974026
 31
0.0
  0
LINE
  5
429
330
1F
100
AcDbEntity
  8
0
  6
Continuous
 62
     7
100
AcDbLine
 10
334.0977022811693
 20
265.81135711482
 30
0.0
 11
334.0977022811693
 21
258.5367024601653
 31
0.0
  0
LINE
  5
42A
330
1F
100
AcDbEntity
  8
0
  6
Continuous
 62
     7
100
AcDbLine
 10
326.8977022811693
 20
265.81135711482
 30
0.0
 11
326.8977022811693
 21
258.5367024601653
 31
0.0
  0
CIRCLE
  5
42B
330
1F
100
AcDbEntity
  8
0
  6
Continuous
 62
     7
370
     0
100
AcDbCircle
 10
330.4977084380833
 20
258.5367056140784
 30
0.0
 40
2.875384233476975
  0
CIRCLE
  5
42C
330
1F
100
AcDbEntity
  8
0
  6
Continuous
 62
     7
370
     0
100
AcDbCircle
 10
330.4977084380833
 20
258.5367056140784
 30
0.0
 40
2.211837686929783
  0
LINE
  5
42D
330
1F
100
AcDbEntity
  8
0
  6
Continuous
 62
     7
 48
3.0
100
AcDbLine
 10
330.1290686475356
 20
257.0621439016064
 30
0.0
 11
330.8663479268155
 21
257.0621439016064
 31
0.0
  0
LINE
  5
42E
330
1F
100
AcDbEntity
  8
0
  6
Continuous
 62
     7
 48
3.0
100
AcDbLine
 10
330.8663479268155
 20
260.0112640217266
 30
0.0
 11
330.1290686475356
 21
260.0112640217266
 31
0.0
  0
ARC
  5
42F
330
1F
100
AcDbEntity
  8
0
  6
Continuous
 62
     7
100
AcDbCircle
 10
330.4977052841723
 20
258.536706060167
 30
0.0
 40
3.600000000001633
100
AcDbArc
 50
180.0000572958087
 51
359.9999427041913
  0
LINE
  5
430
330
1F
100
AcDbEntity
  8
0
  6
Continuous
 62
     7
 48
3.0
100
AcDbLine
 10
330.1290686475356
 20
258.1680658235288
 30
0.0
 11
330.1290686475356
 21
257.0621439016064
 31
0.0
  0
LINE
  5
431
330
1F
100
AcDbEntity
  8
0
  6
Continuous
 62
     7
 48
3.0
100
AcDbLine
 10
329.0231467256143
 20
258.1680658235288
 30
0.0
 11
330.1290686475356
 21
258.1680658235288
 31
0.0
  0
LINE
  5
432
330
1F
100
AcDbEntity
  8
0
  6
Continuous
 62
     7
 48
3.0
100
AcDbLine
 10
329.0231467256143
 20
258.9053451028079
 30
0.0
 11
329.0231467256143
 21
258.1680658235288
 31
0.0
  0
LINE
  5
433
330
1F
100
AcDbEntity
  8
0
  6
Continuous
 62
     7
 48
3.0
100
AcDbLine
 10
330.1290686475356
 20
258.9053451028079
 30
0.0
 11
329.0231467256143
 21
258.9053451028079
 31
0.0
  0
LINE
  5
434
330
1F
100
AcDbEntity
  8
0
  6
Continuous
 62
     7
 48
3.0
100
AcDbLine
 10
330.1290686475356
 20
260.0112640217266
 30
0.0
 11
330.1290686475356
 21
258.9053451028079
 31
0.0
  0
LINE
  5
435
330
1F
100
AcDbEntity
  8
0
  6
Continuous
 62
     7
 48
3.0
100
AcDbLine
 10
331.9722668457336
 20
258.1680658235288
 30
0.0
 11
331.9722668457336
 21
258.1680658235288
 31
0.0
  0
LINE
  5
436
330
1F
100
AcDbEntity
  8
0
  6
Continuous
 62
     7
 48
3.0
100
AcDbLine
 10
330.8663479268155
 20
258.1680658235288
 30
0.0
 11
331.9722668457336
 21
258.1680658235288
 31
0.0
  0
LINE
  5
437
330
1F
100
AcDbEntity
  8
0
  6
Continuous
 62
     7
 48
3.0
100
AcDbLine
 10
330.8663479268155
 20
257.0621439016064
 30
0.0
 11
330.8663479268155
 21
258.1680658235288
 31
0.0
  0
LINE
  5
438
330
1F
100
AcDbEntity
  8
0
  6
Continuous
 62
     7
 48
3.0
100
AcDbLine
 10
330.8663479268155
 20
258.9053451028079
 30
0.0
 11
330.8663479268155
 21
260.0112640217266
 31
0.0
  0
LINE
  5
439
330
1F
100
AcDbEntity
  8
0
  6
Continuous
 62
     7
 48
3.0
100
AcDbLine
 10
331.9722668457336
 20
258.9053451028079
 30
0.0
 11
330.8663479268155
 21
258.9053451028079
 31
0.0
  0
LINE
  5
43A
330
1F
100
AcDbEntity
  8
0
  6
Continuous
 62
     7
 48
3.0
100
AcDbLine
 10
331.9722668457336
 20
258.1680658235288
 30
0.0
 11
331.9722668457336
 21
258.9053451028079
 31
0.0
  0
LINE
  5
43B
330
1F
100
AcDbEntity
  8
0
  6
Continuous
 62
     7
100
AcDbLine
 10
428.8030236024908
 20
240.9569396974026
 30
0.0
 11
443.3663749538423
 21
240.9569396974026
 31
0.0
  0
LINE
  5
43C
330
1F
100
AcDbEntity
  8
0
  6
Continuous
 62
     7
100
AcDbLine
 10
519.8663749538417
 20
240.9569396974026
 30
0.0
 11
498.8450866655543
 21
240.9569396974026
 31
0.0
  0
LINE
  5
43D
330
1F
100
AcDbEntity
  8
0
  6
Continuous
 62
     7
100
AcDbLine
 10
488.8450866655539
 20
240.9569396974026
 30
0.0
 11
456.3663749538418
 21
240.9569396974026
 31
0.0
  0
ARC
  5
43E
330
1F
100
AcDbEntity
  8
0
  6
Continuous
 62
     7
100
AcDbCircle
 10
449.8663749538417
 20
253.9569396974024
 30
0.0
 40
4.49999999999975
100
AcDbArc
 50
0.0
 51
180.0
  0
LINE
  5
43F
330
1F
100
AcDbEntity
  8
0
  6
Continuous
 62
     7
100
AcDbLine
 10
445.3663749538423
 20
242.9569396974026
 30
0.0
 11
445.3663749538423
 21
253.9569396974024
 31
0.0
  0
LINE
  5
440
330
1F
100
AcDbEntity
  8
0
  6
Continuous
 62
     7
100
AcDbLine
 10
454.3663749538417
 20
242.9569396974026
 30
0.0
 11
454.3663749538417
 21
253.9569396974024
 31
0.0
  0
ARC
  5
441
330
1F
100
AcDbEntity
  8
0
  6
Continuous
 62
     7
100
AcDbCircle
 10
456.3663734596913
 20
242.9569382032525
 30
0.0
 40
1.999998505850282
100
AcDbArc
 50
179.9999571957128
 51
270.0000428042823
  0
LINE
  5
442
330
1F
100
AcDbEntity
  8
0
  6
Continuous
 62
     7
100
AcDbLine
 10
528.2663749538413
 20
265.9569427004053
 30
0.0
 11
528.2663749538413
 21
248.9569396974026
 31
0.0
  0
ARC
  5
443
330
1F
100
AcDbEntity
  8
0
  6
Continuous
 62
     7
100
AcDbCircle
 10
520.2663809304431
 20
248.9569337208008
 30
0.0
 40
7.999994023400438
100
AcDbArc
 50
269.9999571957144
 51
0.0000428042871804
  0
LINE
  5
444
330
1F
100
AcDbEntity
  8
0
  6
Continuous
 62
     7
100
AcDbLine
 10
517.866371950839
 20
265.9569427004053
 30
0.0
 11
527.8663719508391
 21
265.9569427004053
 31
0.0
  0
LINE
  5
445
330
1F
100
AcDbEntity
  8
0
  6
Continuous
 62
     7
100
AcDbLine
 10
515.866371950839
 20
267.1569427004058
 30
0.0
 11
517.866371950839
 21
267.1569427004058
 31
0.0
  0
LINE
  5
446
330
1F
100
AcDbEntity
  8
0
  6
Continuous
 62
     7
100
AcDbLine
 10
517.866371950839
 20
265.9569427004053
 30
0.0
 11
517.866371950839
 21
267.1569427004058
 31
0.0
  0
LINE
  5
447
330
1F
100
AcDbEntity
  8
0
  6
Continuous
 62
     7
100
AcDbLine
 10
515.866371950839
 20
265.9569427004053
 30
0.0
 11
515.866371950839
 21
267.1569427004058
 31
0.0
  0
ARC
  5
448
330
1F
100
AcDbEntity
  8
0
  6
Continuous
 62
     7
100
AcDbCircle
 10
527.8663734449897
 20
267.9569412062551
 30
0.0
 40
1.999998505850363
100
AcDbArc
 50
269.9999571957046
 51
0.000042804282295
  0
ARC
  5
449
330
1F
100
AcDbEntity
  8
0
  6
Continuous
 62
     7
100
AcDbCircle
 10
521.8663749538412
 20
309.9569440409835
 30
0.0
 40
4.99999900339362
100
AcDbArc
 50
126.8063136837713
 51
53.19368631622682
  0
ARC
  5
44A
330
1F
100
AcDbEntity
  8
0
  6
Continuous
 62
     7
100
AcDbCircle
 10
532.1202592711093
 20
302.6369321227778
 30
0.0
 40
1.919998565616289
100
AcDbArc
 50
359.9999571957161
 51
90.00004280428878
  0
ARC
  5
44B
330
1F
100
AcDbEntity
  8
0
  6
Continuous
 62
     7
100
AcDbCircle
 10
532.1202592711093
 20
299.2769292540092
 30
0.0
 40
1.919998565616205
100
AcDbArc
 50
269.9999571957046
 51
0.0000428042839235
  0
LINE
  5
44C
330
1F
100
AcDbEntity
  8
0
  6
Continuous
 62
     7
100
AcDbLine
 10
534.040257836725
 20
302.6369306883933
 30
0.0
 11
534.040257836725
 21
299.2769306883933
 31
0.0
  0
LINE
  5
44D
330
1F
100
AcDbEntity
  8
0
  6
Continuous
 62
     7
100
AcDbLine
 10
531.1202578367243
 20
305.9969276853907
 30
0.0
 11
531.1202578367243
 21
295.9169276853906
 31
0.0
  0
LINE
  5
44E
330
1F
100
AcDbEntity
  8
0
  6
Continuous
 62
     7
100
AcDbLine
 10
532.1202578367246
 20
304.5569306883933
 30
0.0
 11
531.1202578367243
 21
304.5569306883933
 31
0.0
  0
LINE
  5
44F
330
1F
100
AcDbEntity
  8
0
  6
Continuous
 62
     7
100
AcDbLine
 10
532.1202578367246
 20
297.3569306883934
 30
0.0
 11
531.1202578367243
 21
297.3569306883934
 31
0.0
  0
LINE
  5
450
330
1F
100
AcDbEntity
  8
0
  6
Continuous
 62
     7
100
AcDbLine
 10
531.1202578367243
 20
305.9969276853907
 30
0.0
 11
530.1202578367248
 21
305.9969276853907
 31
0.0
  0
LINE
  5
451
330
1F
100
AcDbEntity
  8
0
  6
Continuous
 62
     7
100
AcDbLine
 10
531.1202578367243
 20
295.9169276853906
 30
0.0
 11
530.1202578367248
 21
295.9169276853906
 31
0.0
  0
CIRCLE
  5
452
330
1F
100
AcDbEntity
  8
0
  6
Continuous
 62
     7
370
     0
100
AcDbCircle
 10
521.8663776433125
 20
315.9569243688556
 30
0.0
 40
3.599997310530266
  0
LINE
  5
453
330
1F
100
AcDbEntity
  8
0
  6
Continuous
 62
     7
 48
6.0
100
AcDbLine
 10
524.2663749538418
 20
315.3569246823872
 30
0.0
 11
524.2663749538418
 21
315.3569246823872
 31
0.0
  0
LINE
  5
454
330
1F
100
AcDbEntity
  8
0
  6
Continuous
 62
     7
 48
6.0
100
AcDbLine
 10
522.466374953842
 20
315.3569246823872
 30
0.0
 11
524.2663749538418
 21
315.3569246823872
 31
0.0
  0
LINE
  5
455
330
1F
100
AcDbEntity
  8
0
  6
Continuous
 62
     7
 48
6.0
100
AcDbLine
 10
522.466374953842
 20
313.5569246823878
 30
0.0
 11
522.466374953842
 21
315.3569246823872
 31
0.0
  0
LINE
  5
456
330
1F
100
AcDbEntity
  8
0
  6
Continuous
 62
     7
 48
6.0
100
AcDbLine
 10
521.266374953842
 20
313.5569246823878
 30
0.0
 11
522.466374953842
 21
313.5569246823878
 31
0.0
  0
LINE
  5
457
330
1F
100
AcDbEntity
  8
0
  6
Continuous
 62
     7
 48
6.0
100
AcDbLine
 10
521.266374953842
 20
315.3569246823872
 30
0.0
 11
521.266374953842
 21
313.5569246823878
 31
0.0
  0
LINE
  5
458
330
1F
100
AcDbEntity
  8
0
  6
Continuous
 62
     7
 48
6.0
100
AcDbLine
 10
519.4663749538415
 20
315.3569246823872
 30
0.0
 11
521.266374953842
 21
315.3569246823872
 31
0.0
  0
LINE
  5
459
330
1F
100
AcDbEntity
  8
0
  6
Continuous
 62
     7
 48
6.0
100
AcDbLine
 10
519.4663749538415
 20
316.5569246823876
 30
0.0
 11
519.4663749538415
 21
315.3569246823872
 31
0.0
  0
LINE
  5
45A
330
1F
100
AcDbEntity
  8
0
  6
Continuous
 62
     7
 48
6.0
100
AcDbLine
 10
521.266374953842
 20
316.5569246823876
 30
0.0
 11
519.4663749538415
 21
316.5569246823876
 31
0.0
  0
LINE
  5
45B
330
1F
100
AcDbEntity
  8
0
  6
Continuous
 62
     7
 48
6.0
100
AcDbLine
 10
521.266374953842
 20
318.3569246823876
 30
0.0
 11
521.266374953842
 21
316.5569246823876
 31
0.0
  0
LINE
  5
45C
330
1F
100
AcDbEntity
  8
0
  6
Continuous
 62
     7
 48
6.0
100
AcDbLine
 10
522.466374953842
 20
318.3569246823876
 30
0.0
 11
521.266374953842
 21
318.3569246823876
 31
0.0
  0
LINE
  5
45D
330
1F
100
AcDbEntity
  8
0
  6
Continuous
 62
     7
 48
6.0
100
AcDbLine
 10
522.466374953842
 20
316.5569246823876
 30
0.0
 11
522.466374953842
 21
318.3569246823876
 31
0.0
  0
LINE
  5
45E
330
1F
100
AcDbEntity
  8
0
  6
Continuous
 62
     7
 48
6.0
100
AcDbLine
 10
524.2663749538418
 20
316.5569246823876
 30
0.0
 11
522.466374953842
 21
316.5569246823876
 31
0.0
  0
LINE
  5
45F
330
1F
100
AcDbEntity
  8
0
  6
Continuous
 62
     7
 48
6.0
100
AcDbLine
 10
524.2663749538418
 20
315.3569246823872
 30
0.0
 11
524.2663749538418
 21
316.5569246823876
 31
0.0
  0
LINE
  5
465
330
1F
100
AcDbEntity
  8
0
  6
Continuous
 62
     7
100
AcDbLine
 10
527.8663719508391
 20
705.9569306883925
 30
0.0
 11
111.8663719508395
 21
705.9569306883925
 31
0.0
  0
LINE
  5
466
330
1F
100
AcDbEntity
  8
0
  6
Continuous
 62
     7
100
AcDbLine
 10
119.4663749538431
 20
735.9569396974012
 30
0.0
 11
520.2663749538418
 21
735.9569396974012
 31
0.0
  0
ARC
  5
467
330
1F
100
AcDbEntity
  8
0
  6
Continuous
 62
     7
100
AcDbCircle
 10
107.6124876335722
 20
487.6370972879422
 30
0.0
 40
1.919998565616119
100
AcDbArc
 50
89.99995719571119
 51
180.0000428042871
  0
ARC
  5
468
330
1F
100
AcDbEntity
  8
0
  6
Continuous
 62
     7
100
AcDbCircle
 10
107.6124876335722
 20
484.2770944191736
 30
0.0
 40
1.919998565616205
100
AcDbArc
 50
179.9999571957144
 51
270.0000428042887
  0
LINE
  5
469
330
1F
100
AcDbEntity
  8
0
  6
Continuous
 62
     7
100
AcDbLine
 10
105.6924890679566
 20
487.6370958535582
 30
0.0
 11
105.6924890679566
 21
484.2770958535579
 31
0.0
  0
LINE
  5
46A
330
1F
100
AcDbEntity
  8
0
  6
Continuous
 62
     7
100
AcDbLine
 10
108.6124890679569
 20
490.9970958535581
 30
0.0
 11
108.6124890679569
 21
480.9170958535578
 31
0.0
  0
LINE
  5
46B
330
1F
100
AcDbEntity
  8
0
  6
Continuous
 62
     7
100
AcDbLine
 10
107.6124890679565
 20
489.5570958535579
 30
0.0
 11
108.6124890679569
 21
489.5570958535579
 31
0.0
  0
LINE
  5
46C
330
1F
100
AcDbEntity
  8
0
  6
Continuous
 62
     7
100
AcDbLine
 10
107.6124890679565
 20
482.3570958535581
 30
0.0
 11
108.6124890679569
 21
482.3570958535581
 31
0.0
  0
LINE
  5
46D
330
1F
100
AcDbEntity
  8
0
  6
Continuous
 62
     7
100
AcDbLine
 10
108.6124890679569
 20
490.9970958535581
 30
0.0
 11
109.6124890679571
 21
490.9970958535581
 31
0.0
  0
LINE
  5
46E
330
1F
100
AcDbEntity
  8
0
  6
Continuous
 62
     7
100
AcDbLine
 10
108.6124890679569
 20
480.9170958535578
 30
0.0
 11
109.6124890679571
 21
480.9170958535578
 31
0.0
  0
LINE
  5
46F
330
1F
100
AcDbEntity
  8
0
  6
Continuous
 62
     7
100
AcDbLine
 10
105.9033569358249
 20
568.1369427004042
 30
0.0
 11
105.9033569358249
 21
564.7769427004045
 31
0.0
  0
LINE
  5
470
330
1F
100
AcDbEntity
  8
0
  6
Continuous
 62
     7
100
AcDbLine
 10
108.823356935825
 20
571.4969427004047
 30
0.0
 11
108.823356935825
 21
561.4169427004046
 31
0.0
  0
ARC
  5
471
330
1F
100
AcDbEntity
  8
0
  6
Continuous
 62
     7
100
AcDbCircle
 10
107.8233555014407
 20
564.7769412660202
 30
0.0
 40
1.919998565616205
100
AcDbArc
 50
179.9999571957128
 51
270.0000428042855
  0
LINE
  5
472
330
1F
100
AcDbEntity
  8
0
  6
Continuous
 62
     7
100
AcDbLine
 10
107.823356935825
 20
562.8569427004046
 30
0.0
 11
108.823356935825
 21
562.8569427004046
 31
0.0
  0
LINE
  5
473
330
1F
100
AcDbEntity
  8
0
  6
Continuous
 62
     7
100
AcDbLine
 10
108.823356935825
 20
561.4169427004046
 30
0.0
 11
109.8233569358245
 21
561.4169427004046
 31
0.0
  0
ARC
  5
474
330
1F
100
AcDbEntity
  8
0
  6
Continuous
 62
     7
100
AcDbCircle
 10
107.8233555014407
 20
568.1369441347889
 30
0.0
 40
1.919998565616289
100
AcDbArc
 50
89.99995719571442
 51
180.0000428042871
  0
LINE
  5
475
330
1F
100
AcDbEntity
  8
0
  6
Continuous
 62
     7
100
AcDbLine
 10
107.823356935825
 20
570.0569427004047
 30
0.0
 11
108.823356935825
 21
570.0569427004047
 31
0.0
  0
LINE
  5
476
330
1F
100
AcDbEntity
  8
0
  6
Continuous
 62
     7
100
AcDbLine
 10
108.823356935825
 20
571.4969427004047
 30
0.0
 11
109.8233569358245
 21
571.4969427004047
 31
0.0
  0
ARC
  5
477
330
1F
100
AcDbEntity
  8
0
  6
Continuous
 62
     7
100
AcDbCircle
 10
189.8663749538425
 20
714.9569388275132
 30
0.0
 40
9.00000040188457
100
AcDbArc
 50
119.9999985228639
 51
60.00000147713606
  0
ARC
  5
478
330
1F
100
AcDbEntity
  8
0
  6
Continuous
 62
     7
100
AcDbCircle
 10
111.8663704566891
 20
703.9569321825426
 30
0.0
 40
1.999998505850196
100
AcDbArc
 50
89.99995719571119
 51
180.0000428042871
  0
CIRCLE
  5
479
330
1F
100
AcDbEntity
  8
0
  6
Continuous
 62
     7
370
     0
100
AcDbCircle
 10
117.866374953843
 20
655.9569517094135
 30
0.0
 40
3.600000461440566
  0
LINE
  5
47A
330
1F
100
AcDbEntity
  8
0
  6
Continuous
 62
     7
 48
6.0
100
AcDbLine
 10
118.4663749538427
 20
656.5569517094131
 30
0.0
 11
120.266374953843
 21
656.5569517094131
 31
0.0
  0
LINE
  5
47B
330
1F
100
AcDbEntity
  8
0
  6
Continuous
 62
     7
 48
6.0
100
AcDbLine
 10
120.266374953843
 20
655.3569517094132
 30
0.0
 11
118.4663749538427
 21
655.3569517094132
 31
0.0
  0
ARC
  5
47C
330
1F
100
AcDbEntity
  8
0
  6
Continuous
 62
     7
100
AcDbCircle
 10
117.8663719508389
 20
619.9569306883926
 30
0.0
 40
2.249999999999876
100
AcDbArc
 50
180.0
 51
0.0
  0
ARC
  5
47D
330
1F
100
AcDbEntity
  8
0
  6
Continuous
 62
     7
100
AcDbCircle
 10
117.8663719508389
 20
696.9569321769212
 30
0.0
 40
4.999999870329745
100
AcDbArc
 50
296.7436846991592
 51
243.2563153008435
  0
LINE
  5
47E
330
1F
100
AcDbEntity
  8
0
  6
Continuous
 62
     7
100
AcDbLine
 10
115.6163719508397
 20
658.7672009586627
 30
0.0
 11
115.6163719508397
 21
692.4917895472511
 31
0.0
  0
LINE
  5
47F
330
1F
100
AcDbEntity
  8
0
  6
Continuous
 62
     7
100
AcDbLine
 10
115.6163719508397
 20
619.9569306883926
 30
0.0
 11
115.6163719508397
 21
653.1467024601643
 31
0.0
  0
LINE
  5
480
330
1F
100
AcDbEntity
  8
0
  6
Continuous
 62
     7
 48
6.0
100
AcDbLine
 10
118.4663749538427
 20
658.3569517094132
 30
0.0
 11
118.4663749538427
 21
656.5569517094131
 31
0.0
  0
LINE
  5
481
330
1F
100
AcDbEntity
  8
0
  6
Continuous
 62
     7
 48
6.0
100
AcDbLine
 10
117.266374953843
 20
658.3569517094132
 30
0.0
 11
118.4663749538427
 21
658.3569517094132
 31
0.0
  0
LINE
  5
482
330
1F
100
AcDbEntity
  8
0
  6
Continuous
 62
     7
 48
6.0
100
AcDbLine
 10
117.266374953843
 20
656.5569517094131
 30
0.0
 11
117.266374953843
 21
658.3569517094132
 31
0.0
  0
LINE
  5
483
330
1F
100
AcDbEntity
  8
0
  6
Continuous
 62
     7
 48
6.0
100
AcDbLine
 10
115.4663749538419
 20
656.5569517094131
 30
0.0
 11
117.266374953843
 21
656.5569517094131
 31
0.0
  0
LINE
  5
484
330
1F
100
AcDbEntity
  8
0
  6
Continuous
 62
     7
 48
6.0
100
AcDbLine
 10
115.4663749538419
 20
655.3569517094132
 30
0.0
 11
115.4663749538419
 21
656.5569517094131
 31
0.0
  0
LINE
  5
485
330
1F
100
AcDbEntity
  8
0
  6
Continuous
 62
     7
 48
6.0
100
AcDbLine
 10
117.266374953843
 20
655.3569517094132
 30
0.0
 11
115.4663749538419
 21
655.3569517094132
 31
0.0
  0
LINE
  5
486
330
1F
100
AcDbEntity
  8
0
  6
Continuous
 62
     7
 48
6.0
100
AcDbLine
 10
117.266374953843
 20
653.5569517094136
 30
0.0
 11
117.266374953843
 21
655.3569517094132
 31
0.0
  0
LINE
  5
487
330
1F
100
AcDbEntity
  8
0
  6
Continuous
 62
     7
 48
6.0
100
AcDbLine
 10
118.4663749538427
 20
653.5569517094136
 30
0.0
 11
117.266374953843
 21
653.5569517094136
 31
0.0
  0
LINE
  5
488
330
1F
100
AcDbEntity
  8
0
  6
Continuous
 62
     7
 48
6.0
100
AcDbLine
 10
118.4663749538427
 20
655.3569517094132
 30
0.0
 11
118.4663749538427
 21
653.5569517094136
 31
0.0
  0
ARC
  5
489
330
1F
100
AcDbEntity
  8
0
  6
Continuous
 62
     7
100
AcDbCircle
 10
107.6969230690074
 20
684.7768992239779
 30
0.0
 40
1.919998565616205
100
AcDbArc
 50
179.9999571957128
 51
270.0000428042887
  0
LINE
  5
48A
330
1F
100
AcDbEntity
  8
0
  6
Continuous
 62
     7
100
AcDbLine
 10
108.6969245033927
 20
691.4968976553592
 30
0.0
 11
108.6969245033927
 21
681.4168976553593
 31
0.0
  0
ARC
  5
48B
330
1F
100
AcDbEntity
  8
0
  6
Continuous
 62
     7
100
AcDbCircle
 10
107.6969230690074
 20
672.6369020927466
 30
0.0
 40
1.919998565616119
100
AcDbArc
 50
89.99995719571119
 51
180.0000428042871
  0
ARC
  5
48C
330
1F
100
AcDbEntity
  8
0
  6
Continuous
 62
     7
100
AcDbCircle
 10
107.696923069008
 20
669.2768992239779
 30
0.0
 40
1.919998565616205
100
AcDbArc
 50
179.9999571957128
 51
270.0000428042855
  0
LINE
  5
48D
330
1F
100
AcDbEntity
  8
0
  6
Continuous
 62
     7
100
AcDbLine
 10
105.776924503392
 20
672.6369006583622
 30
0.0
 11
105.776924503392
 21
669.2769006583622
 31
0.0
  0
LINE
  5
48E
330
1F
100
AcDbEntity
  8
0
  6
Continuous
 62
     7
100
AcDbLine
 10
108.6969245033927
 20
675.9968976553594
 30
0.0
 11
108.6969245033927
 21
665.9168976553593
 31
0.0
  0
LINE
  5
48F
330
1F
100
AcDbEntity
  8
0
  6
Continuous
 62
     7
100
AcDbLine
 10
107.696924503392
 20
674.5569006583622
 30
0.0
 11
108.6969245033927
 21
674.5569006583622
 31
0.0
  0
LINE
  5
490
330
1F
100
AcDbEntity
  8
0
  6
Continuous
 62
     7
100
AcDbLine
 10
107.696924503392
 20
667.3569006583623
 30
0.0
 11
108.6969245033927
 21
667.3569006583623
 31
0.0
  0
LINE
  5
491
330
1F
100
AcDbEntity
  8
0
  6
Continuous
 62
     7
100
AcDbLine
 10
108.6969245033927
 20
675.9968976553594
 30
0.0
 11
109.6969245033925
 21
675.9968976553594
 31
0.0
  0
LINE
  5
492
330
1F
100
AcDbEntity
  8
0
  6
Continuous
 62
     7
100
AcDbLine
 10
108.6969245033927
 20
665.9168976553593
 30
0.0
 11
109.6969245033925
 21
665.9168976553593
 31
0.0
  0
LINE
  5
493
330
1F
100
AcDbEntity
  8
0
  6
Continuous
 62
     7
100
AcDbLine
 10
108.6969245033927
 20
681.4168976553593
 30
0.0
 11
109.6969245033925
 21
681.4168976553593
 31
0.0
  0
ARC
  5
494
330
1F
100
AcDbEntity
  8
0
  6
Continuous
 62
     7
100
AcDbCircle
 10
107.6969230690074
 20
688.1369020927467
 30
0.0
 40
1.919998565616119
100
AcDbArc
 50
89.99995719571119
 51
180.0000428042871
  0
LINE
  5
495
330
1F
100
AcDbEntity
  8
0
  6
Continuous
 62
     7
100
AcDbLine
 10
105.776924503392
 20
688.1369006583622
 30
0.0
 11
105.776924503392
 21
684.7769006583622
 31
0.0
  0
LINE
  5
496
330
1F
100
AcDbEntity
  8
0
  6
Continuous
 62
     7
100
AcDbLine
 10
107.696924503392
 20
690.0569006583622
 30
0.0
 11
108.6969245033927
 21
690.0569006583622
 31
0.0
  0
LINE
  5
497
330
1F
100
AcDbEntity
  8
0
  6
Continuous
 62
     7
100
AcDbLine
 10
107.696924503392
 20
682.8569006583625
 30
0.0
 11
108.6969245033927
 21
682.8569006583625
 31
0.0
  0
LINE
  5
498
330
1F
100
AcDbEntity
  8
0
  6
Continuous
 62
     7
100
AcDbLine
 10
108.6969245033927
 20
691.4968976553592
 30
0.0
 11
109.6969245033925
 21
691.4968976553592
 31
0.0
  0
LINE
  5
499
330
1F
100
AcDbEntity
  8
0
  6
Continuous
 62
     7
100
AcDbLine
 10
120.1163719508395
 20
658.7671979556596
 30
0.0
 11
120.1163719508395
 21
692.4917895472511
 31
0.0
  0
LINE
  5
49A
330
1F
100
AcDbEntity
  8
0
  6
Continuous
 62
     7
100
AcDbLine
 10
120.1163719508395
 20
619.9569306883926
 30
0.0
 11
120.1163719508395
 21
653.1467054631672
 31
0.0
  0
LINE
  5
49B
330
1F
100
AcDbEntity
  8
0
  6
Continuous
 62
     7
 48
6.0
100
AcDbLine
 10
120.266374953843
 20
656.5569517094131
 30
0.0
 11
120.266374953843
 21
656.5569517094131
 31
0.0
  0
LINE
  5
49C
330
1F
100
AcDbEntity
  8
0
  6
Continuous
 62
     7
 48
6.0
100
AcDbLine
 10
120.266374953843
 20
656.5569517094131
 30
0.0
 11
120.266374953843
 21
655.3569517094132
 31
0.0
  0
LINE
  5
49D
330
1F
100
AcDbEntity
  8
0
  6
Continuous
 62
     7
100
AcDbLine
 10
121.4663719508398
 20
655.9569517094135
 30
0.0
 11
121.4663719508398
 21
655.9569517094135
 31
0.0
  0
ARC
  5
49E
330
1F
100
AcDbEntity
  8
0
  6
Continuous
 62
     7
100
AcDbCircle
 10
119.5463763882269
 20
707.9569411317857
 30
0.0
 40
1.919998565616119
100
AcDbArc
 50
359.9999571957126
 51
90.00004280428878
  0
LINE
  5
49F
330
1F
100
AcDbEntity
  8
0
  6
Continuous
 62
     7
100
AcDbLine
 10
112.8263749538425
 20
706.9569396974014
 30
0.0
 11
122.9063749538431
 21
706.9569396974014
 31
0.0
  0
ARC
  5
4A0
330
1F
100
AcDbEntity
  8
0
  6
Continuous
 62
     7
100
AcDbCircle
 10
119.4663689772414
 20
727.9569456740025
 30
0.0
 40
7.999994023400982
100
AcDbArc
 50
89.99995719571119
 51
180.0000428042855
  0
ARC
  5
4A1
330
1F
100
AcDbEntity
  8
0
  6
Continuous
 62
     7
100
AcDbCircle
 10
116.1863735194587
 20
707.9569411317857
 30
0.0
 40
1.919998565616195
100
AcDbArc
 50
89.99995719571119
 51
180.0000428042871
  0
LINE
  5
4A2
330
1F
100
AcDbEntity
  8
0
  6
Continuous
 62
     7
100
AcDbLine
 10
116.186374953843
 20
709.8769396974013
 30
0.0
 11
119.5463749538431
 21
709.8769396974013
 31
0.0
  0
LINE
  5
4A3
330
1F
100
AcDbEntity
  8
0
  6
Continuous
 62
     7
100
AcDbLine
 10
114.2663749538431
 20
707.9569396974012
 30
0.0
 11
114.2663749538431
 21
706.9569396974014
 31
0.0
  0
LINE
  5
4A4
330
1F
100
AcDbEntity
  8
0
  6
Continuous
 62
     7
100
AcDbLine
 10
112.8263749538425
 20
706.9569396974014
 30
0.0
 11
112.8263749538425
 21
705.9569396974015
 31
0.0
  0
LINE
  5
4A5
330
1F
100
AcDbEntity
  8
0
  6
Continuous
 62
     7
100
AcDbLine
 10
111.4663749538425
 20
705.9569306883925
 30
0.0
 11
111.4663749538425
 21
727.9569396974014
 31
0.0
  0
LINE
  5
4A6
330
1F
100
AcDbEntity
  8
0
  6
Continuous
 62
     7
100
AcDbLine
 10
121.466374953843
 20
707.9569396974012
 30
0.0
 11
121.466374953843
 21
706.9569396974014
 31
0.0
  0
LINE
  5
4A7
330
1F
100
AcDbEntity
  8
0
  6
Continuous
 62
     7
100
AcDbLine
 10
122.9063749538431
 20
706.9569396974014
 30
0.0
 11
122.9063749538431
 21
705.9569396974015
 31
0.0
  0
LINE
  5
59A
330
1F
100
AcDbEntity
  8
0
  6
Continuous
 62
     7
100
AcDbLine
 10
185.3663749538423
 20
723.9569396974011
 30
0.0
 11
185.3663749538423
 21
722.7511679256292
 31
0.0
  0
LINE
  5
59B
330
1F
100
AcDbEntity
  8
0
  6
Continuous
 62
     7
100
AcDbLine
 10
194.3663749538428
 20
723.9569396974011
 30
0.0
 11
194.3663749538428
 21
722.7511679256292
 31
0.0
  0
ARC
  5
59C
330
1F
100
AcDbEntity
  8
0
  6
Continuous
 62
     7
100
AcDbCircle
 10
189.8663749538425
 20
723.9569396974011
 30
0.0
 40
4.500000000000087
100
AcDbArc
 50
0.0
 51
180.0
  0
ARC
  5
5A5
330
1F
100
AcDbEntity
  8
0
  6
Continuous
 62
     7
100
AcDbCircle
 10
532.1202592711093
 20
487.6370972879422
 30
0.0
 40
1.919998565616119
100
AcDbArc
 50
359.9999571957161
 51
90.00004280429529
  0
ARC
  5
5A6
330
1F
100
AcDbEntity
  8
0
  6
Continuous
 62
     7
100
AcDbCircle
 10
532.1202592711093
 20
484.2770944191736
 30
0.0
 40
1.919998565616289
100
AcDbArc
 50
269.9999571957046
 51
0.0000428042839235
  0
LINE
  5
5A7
330
1F
100
AcDbEntity
  8
0
  6
Continuous
 62
     7
100
AcDbLine
 10
534.040257836725
 20
487.6370958535582
 30
0.0
 11
534.040257836725
 21
484.2770958535579
 31
0.0
  0
LINE
  5
5A8
330
1F
100
AcDbEntity
  8
0
  6
Continuous
 62
     7
100
AcDbLine
 10
531.1202578367243
 20
490.9970958535581
 30
0.0
 11
531.1202578367243
 21
480.9170958535578
 31
0.0
  0
LINE
  5
5A9
330
1F
100
AcDbEntity
  8
0
  6
Continuous
 62
     7
100
AcDbLine
 10
532.1202578367246
 20
489.5570958535579
 30
0.0
 11
531.1202578367243
 21
489.5570958535579
 31
0.0
  0
LINE
  5
5AA
330
1F
100
AcDbEntity
  8
0
  6
Continuous
 62
     7
100
AcDbLine
 10
532.1202578367246
 20
482.3570958535581
 30
0.0
 11
531.1202578367243
 21
482.3570958535581
 31
0.0
  0
LINE
  5
5AB
330
1F
100
AcDbEntity
  8
0
  6
Continuous
 62
     7
100
AcDbLine
 10
531.1202578367243
 20
490.9970958535581
 30
0.0
 11
530.1202578367248
 21
490.9970958535581
 31
0.0
  0
LINE
  5
5AC
330
1F
100
AcDbEntity
  8
0
  6
Continuous
 62
     7
100
AcDbLine
 10
531.1202578367243
 20
480.9170958535578
 30
0.0
 11
530.1202578367248
 21
480.9170958535578
 31
0.0
  0
LINE
  5
5AD
330
1F
100
AcDbEntity
  8
0
  6
Continuous
 62
     7
100
AcDbLine
 10
533.829389968857
 20
568.1369427004042
 30
0.0
 11
533.829389968857
 21
564.7769427004045
 31
0.0
  0
LINE
  5
5AE
330
1F
100
AcDbEntity
  8
0
  6
Continuous
 62
     7
100
AcDbLine
 10
530.9093899688563
 20
571.4969427004047
 30
0.0
 11
530.9093899688563
 21
561.4169427004046
 31
0.0
  0
ARC
  5
5AF
330
1F
100
AcDbEntity
  8
0
  6
Continuous
 62
     7
100
AcDbCircle
 10
531.9093914032406
 20
564.7769412660202
 30
0.0
 40
1.919998565616119
100
AcDbArc
 50
269.999957195721
 51
0.0000428042904373
  0
LINE
  5
5B0
330
1F
100
AcDbEntity
  8
0
  6
Continuous
 62
     7
100
AcDbLine
 10
531.9093899688571
 20
562.8569427004046
 30
0.0
 11
530.9093899688563
 21
562.8569427004046
 31
0.0
  0
LINE
  5
5B1
330
1F
100
AcDbEntity
  8
0
  6
Continuous
 62
     7
100
AcDbLine
 10
530.9093899688563
 20
561.4169427004046
 30
0.0
 11
529.9093899688569
 21
561.4169427004046
 31
0.0
  0
ARC
  5
5B2
330
1F
100
AcDbEntity
  8
0
  6
Continuous
 62
     7
100
AcDbCircle
 10
531.9093914032406
 20
568.1369441347889
 30
0.0
 40
1.919998565616289
100
AcDbArc
 50
359.9999571957095
 51
90.00004280427901
  0
LINE
  5
5B3
330
1F
100
AcDbEntity
  8
0
  6
Continuous
 62
     7
100
AcDbLine
 10
531.9093899688571
 20
570.0569427004047
 30
0.0
 11
530.9093899688563
 21
570.0569427004047
 31
0.0
  0
LINE
  5
5B4
330
1F
100
AcDbEntity
  8
0
  6
Continuous
 62
     7
100
AcDbLine
 10
530.9093899688563
 20
571.4969427004047
 30
0.0
 11
529.9093899688569
 21
571.4969427004047
 31
0.0
  0
ARC
  5
5B5
330
1F
100
AcDbEntity
  8
0
  6
Continuous
 62
     7
100
AcDbCircle
 10
449.8663749538417
 20
714.9569388275141
 30
0.0
 40
9.000000401883681
100
AcDbArc
 50
119.9999985228639
 51
60.00000147713606
  0
ARC
  5
68A
330
1F
100
AcDbEntity
  8
0
  6
Continuous
 62
     7
100
AcDbCircle
 10
527.8663734449897
 20
703.9569321825426
 30
0.0
 40
1.999998505850282
100
AcDbArc
 50
359.9999571957177
 51
90.00004280429529
  0
CIRCLE
  5
68B
330
1F
100
AcDbEntity
  8
0
  6
Continuous
 62
     7
370
     0
100
AcDbCircle
 10
521.866374953842
 20
655.9569517094135
 30
0.0
 40
3.600000461440566
  0
LINE
  5
68C
330
1F
100
AcDbEntity
  8
0
  6
Continuous
 62
     7
100
AcDbLine
 10
524.116371950839
 20
658.7672009586627
 30
0.0
 11
524.116371950839
 21
692.4917895472511
 31
0.0
  0
LINE
  5
68D
330
1F
100
AcDbEntity
  8
0
  6
Continuous
 62
     7
100
AcDbLine
 10
519.6163719508391
 20
658.7672009586627
 30
0.0
 11
519.6163719508391
 21
692.4917895472511
 31
0.0
  0
LINE
  5
68E
330
1F
100
AcDbEntity
  8
0
  6
Continuous
 62
     7
100
AcDbLine
 10
524.116371950839
 20
619.9569306883926
 30
0.0
 11
524.116371950839
 21
653.1467024601643
 31
0.0
  0
LINE
  5
68F
330
1F
100
AcDbEntity
  8
0
  6
Continuous
 62
     7
100
AcDbLine
 10
519.6163719508391
 20
619.9569306883926
 30
0.0
 11
519.6163719508391
 21
653.1467024601643
 31
0.0
  0
ARC
  5
690
330
1F
100
AcDbEntity
  8
0
  6
Continuous
 62
     7
100
AcDbCircle
 10
521.866371950839
 20
619.9569306883926
 30
0.0
 40
2.250000000000043
100
AcDbArc
 50
180.0
 51
0.0
  0
LINE
  5
691
330
1F
100
AcDbEntity
  8
0
  6
Continuous
 62
     7
 48
6.0
100
AcDbLine
 10
524.2663749538418
 20
656.5569517094131
 30
0.0
 11
524.2663749538418
 21
656.5569517094131
 31
0.0
  0
LINE
  5
692
330
1F
100
AcDbEntity
  8
0
  6
Continuous
 62
     7
 48
6.0
100
AcDbLine
 10
522.466374953842
 20
656.5569517094131
 30
0.0
 11
524.2663749538418
 21
656.5569517094131
 31
0.0
  0
LINE
  5
693
330
1F
100
AcDbEntity
  8
0
  6
Continuous
 62
     7
 48
6.0
100
AcDbLine
 10
522.466374953842
 20
658.3569517094132
 30
0.0
 11
522.466374953842
 21
656.5569517094131
 31
0.0
  0
LINE
  5
694
330
1F
100
AcDbEntity
  8
0
  6
Continuous
 62
     7
 48
6.0
100
AcDbLine
 10
521.266374953842
 20
658.3569517094132
 30
0.0
 11
522.466374953842
 21
658.3569517094132
 31
0.0
  0
LINE
  5
695
330
1F
100
AcDbEntity
  8
0
  6
Continuous
 62
     7
 48
6.0
100
AcDbLine
 10
521.266374953842
 20
656.5569517094131
 30
0.0
 11
521.266374953842
 21
658.3569517094132
 31
0.0
  0
LINE
  5
696
330
1F
100
AcDbEntity
  8
0
  6
Continuous
 62
     7
 48
6.0
100
AcDbLine
 10
519.4663749538415
 20
656.5569517094131
 30
0.0
 11
521.266374953842
 21
656.5569517094131
 31
0.0
  0
LINE
  5
697
330
1F
100
AcDbEntity
  8
0
  6
Continuous
 62
     7
 48
6.0
100
AcDbLine
 10
519.4663749538415
 20
655.3569517094132
 30
0.0
 11
519.4663749538415
 21
656.5569517094131
 31
0.0
  0
LINE
  5
698
330
1F
100
AcDbEntity
  8
0
  6
Continuous
 62
     7
 48
6.0
100
AcDbLine
 10
521.266374953842
 20
655.3569517094132
 30
0.0
 11
519.4663749538415
 21
655.3569517094132
 31
0.0
  0
LINE
  5
699
330
1F
100
AcDbEntity
  8
0
  6
Continuous
 62
     7
 48
6.0
100
AcDbLine
 10
521.266374953842
 20
653.5569517094136
 30
0.0
 11
521.266374953842
 21
655.3569517094132
 31
0.0
  0
LINE
  5
69A
330
1F
100
AcDbEntity
  8
0
  6
Continuous
 62
     7
 48
6.0
100
AcDbLine
 10
522.466374953842
 20
653.5569517094136
 30
0.0
 11
521.266374953842
 21
653.5569517094136
 31
0.0
  0
LINE
  5
69B
330
1F
100
AcDbEntity
  8
0
  6
Continuous
 62
     7
 48
6.0
100
AcDbLine
 10
522.466374953842
 20
655.3569517094132
 30
0.0
 11
522.466374953842
 21
653.5569517094136
 31
0.0
  0
LINE
  5
69C
330
1F
100
AcDbEntity
  8
0
  6
Continuous
 62
     7
 48
6.0
100
AcDbLine
 10
524.2663749538418
 20
655.3569517094132
 30
0.0
 11
522.466374953842
 21
655.3569517094132
 31
0.0
  0
LINE
  5
69D
330
1F
100
AcDbEntity
  8
0
  6
Continuous
 62
     7
 48
6.0
100
AcDbLine
 10
524.2663749538418
 20
656.5569517094131
 30
0.0
 11
524.2663749538418
 21
655.3569517094132
 31
0.0
  0
LINE
  5
69E
330
1F
100
AcDbEntity
  8
0
  6
Continuous
 62
     7
100
AcDbLine
 10
525.4663749538417
 20
655.9569517094135
 30
0.0
 11
525.4663749538417
 21
655.9569517094135
 31
0.0
  0
ARC
  5
69F
330
1F
100
AcDbEntity
  8
0
  6
Continuous
 62
     7
100
AcDbCircle
 10
532.0358238356738
 20
684.7768992239779
 30
0.0
 40
1.919998565616289
100
AcDbArc
 50
269.9999571957111
 51
0.0000428042839235
  0
LINE
  5
6A0
330
1F
100
AcDbEntity
  8
0
  6
Continuous
 62
     7
100
AcDbLine
 10
531.0358224012892
 20
691.4968976553592
 30
0.0
 11
531.0358224012892
 21
681.4168976553593
 31
0.0
  0
ARC
  5
6A1
330
1F
100
AcDbEntity
  8
0
  6
Continuous
 62
     7
100
AcDbCircle
 10
532.0358238356738
 20
672.6369020927466
 30
0.0
 40
1.919998565616289
100
AcDbArc
 50
359.9999571957161
 51
90.00004280428878
  0
ARC
  5
6A2
330
1F
100
AcDbEntity
  8
0
  6
Continuous
 62
     7
100
AcDbCircle
 10
532.0358238356732
 20
669.2768992239779
 30
0.0
 40
1.919998565616289
100
AcDbArc
 50
269.9999571957144
 51
0.0000428042839235
  0
LINE
  5
6A3
330
1F
100
AcDbEntity
  8
0
  6
Continuous
 62
     7
100
AcDbLine
 10
533.9558224012895
 20
672.6369006583622
 30
0.0
 11
533.9558224012895
 21
669.2769006583622
 31
0.0
  0
LINE
  5
6A4
330
1F
100
AcDbEntity
  8
0
  6
Continuous
 62
     7
100
AcDbLine
 10
531.0358224012892
 20
675.9968976553594
 30
0.0
 11
531.0358224012892
 21
665.9168976553593
 31
0.0
  0
LINE
  5
6A5
330
1F
100
AcDbEntity
  8
0
  6
Continuous
 62
     7
100
AcDbLine
 10
532.0358224012892
 20
674.5569006583622
 30
0.0
 11
531.0358224012892
 21
674.5569006583622
 31
0.0
  0
LINE
  5
6A6
330
1F
100
AcDbEntity
  8
0
  6
Continuous
 62
     7
100
AcDbLine
 10
532.0358224012892
 20
667.3569006583623
 30
0.0
 11
531.0358224012892
 21
667.3569006583623
 31
0.0
  0
LINE
  5
6A7
330
1F
100
AcDbEntity
  8
0
  6
Continuous
 62
     7
100
AcDbLine
 10
531.0358224012892
 20
675.9968976553594
 30
0.0
 11
530.0358224012892
 21
675.9968976553594
 31
0.0
  0
LINE
  5
6A8
330
1F
100
AcDbEntity
  8
0
  6
Continuous
 62
     7
100
AcDbLine
 10
531.0358224012892
 20
665.9168976553593
 30
0.0
 11
530.0358224012892
 21
665.9168976553593
 31
0.0
  0
LINE
  5
6A9
330
1F
100
AcDbEntity
  8
0
  6
Continuous
 62
     7
100
AcDbLine
 10
531.0358224012892
 20
681.4168976553593
 30
0.0
 11
530.0358224012892
 21
681.4168976553593
 31
0.0
  0
ARC
  5
6AA
330
1F
100
AcDbEntity
  8
0
  6
Continuous
 62
     7
100
AcDbCircle
 10
521.866371950839
 20
696.9569321769212
 30
0.0
 40
4.999999870329665
100
AcDbArc
 50
296.7436846991592
 51
243.2563153008435
  0
ARC
  5
6AB
330
1F
100
AcDbEntity
  8
0
  6
Continuous
 62
     7
100
AcDbCircle
 10
532.0358238356738
 20
688.1369020927466
 30
0.0
 40
1.919998565616289
100
AcDbArc
 50
359.9999571957161
 51
90.00004280428878
  0
LINE
  5
6AC
330
1F
100
AcDbEntity
  8
0
  6
Continuous
 62
     7
100
AcDbLine
 10
533.9558224012895
 20
688.1369006583622
 30
0.0
 11
533.9558224012895
 21
684.7769006583622
 31
0.0
  0
LINE
  5
6AD
330
1F
100
AcDbEntity
  8
0
  6
Continuous
 62
     7
100
AcDbLine
 10
532.0358224012892
 20
690.0569006583622
 30
0.0
 11
531.0358224012892
 21
690.0569006583622
 31
0.0
  0
LINE
  5
6AE
330
1F
100
AcDbEntity
  8
0
  6
Continuous
 62
     7
100
AcDbLine
 10
532.0358224012892
 20
682.8569006583625
 30
0.0
 11
531.0358224012892
 21
682.8569006583625
 31
0.0
  0
LINE
  5
6AF
330
1F
100
AcDbEntity
  8
0
  6
Continuous
 62
     7
100
AcDbLine
 10
531.0358224012892
 20
691.4968976553592
 30
0.0
 11
530.0358224012892
 21
691.4968976553592
 31
0.0
  0
LINE
  5
6B0
330
1F
100
AcDbEntity
  8
0
  6
Continuous
 62
     7
100
AcDbLine
 10
445.3663749538423
 20
723.9569396974011
 30
0.0
 11
445.3663749538423
 21
722.7511679256292
 31
0.0
  0
LINE
  5
6B1
330
1F
100
AcDbEntity
  8
0
  6
Continuous
 62
     7
100
AcDbLine
 10
454.3663749538417
 20
723.9569396974011
 30
0.0
 11
454.3663749538417
 21
722.7511679256292
 31
0.0
  0
ARC
  5
6B2
330
1F
100
AcDbEntity
  8
0
  6
Continuous
 62
     7
100
AcDbCircle
 10
449.8663749538417
 20
723.9569396974011
 30
0.0
 40
4.49999999999975
100
AcDbArc
 50
0.0
 51
180.0
  0
ARC
  5
6B3
330
1F
100
AcDbEntity
  8
0
  6
Continuous
 62
     7
100
AcDbCircle
 10
520.2663809304431
 20
727.9569456740026
 30
0.0
 40
7.999994023400612
100
AcDbArc
 50
359.9999571957112
 51
90.00004280428553
  0
ARC
  5
6B4
330
1F
100
AcDbEntity
  8
0
  6
Continuous
 62
     7
100
AcDbCircle
 10
523.5463793912295
 20
707.9569411317857
 30
0.0
 40
1.919998565616195
100
AcDbArc
 50
359.9999571957126
 51
90.00004280428878
  0
LINE
  5
6B5
330
1F
100
AcDbEntity
  8
0
  6
Continuous
 62
     7
100
AcDbLine
 10
526.9063749538421
 20
706.9569396974014
 30
0.0
 11
516.8263749538414
 21
706.9569396974014
 31
0.0
  0
ARC
  5
6B6
330
1F
100
AcDbEntity
  8
0
  6
Continuous
 62
     7
100
AcDbCircle
 10
520.1863765224599
 20
707.9569411317854
 30
0.0
 40
1.919998565616461
100
AcDbArc
 50
89.99995719570142
 51
180.0000428042757
  0
LINE
  5
6B7
330
1F
100
AcDbEntity
  8
0
  6
Continuous
 62
     7
100
AcDbLine
 10
523.5463779568448
 20
709.8769396974013
 30
0.0
 11
520.1863779568451
 21
709.8769396974013
 31
0.0
  0
LINE
  5
6B8
330
1F
100
AcDbEntity
  8
0
  6
Continuous
 62
     7
100
AcDbLine
 10
518.2663779568445
 20
707.9569396974012
 30
0.0
 11
518.2663779568445
 21
706.9569396974014
 31
0.0
  0
LINE
  5
6B9
330
1F
100
AcDbEntity
  8
0
  6
Continuous
 62
     7
100
AcDbLine
 10
516.8263749538414
 20
706.9569396974014
 30
0.0
 11
516.8263749538414
 21
705.9569396974015
 31
0.0
  0
LINE
  5
6BA
330
1F
100
AcDbEntity
  8
0
  6
Continuous
 62
     7
100
AcDbLine
 10
525.466377956845
 20
707.9569396974012
 30
0.0
 11
525.466377956845
 21
706.9569396974014
 31
0.0
  0
LINE
  5
6BB
330
1F
100
AcDbEntity
  8
0
  6
Continuous
 62
     7
100
AcDbLine
 10
526.9063749538421
 20
706.9569396974014
 30
0.0
 11
526.9063749538421
 21
705.9569396974015
 31
0.0
  0
LINE
  5
6BC
330
1F
100
AcDbEntity
  8
0
  6
Continuous
 62
     7
100
AcDbLine
 10
528.2663749538413
 20
727.9569396974014
 30
0.0
 11
528.2663749538413
 21
705.9569306883925
 31
0.0
  0
LINE
  5
6BD
330
1F
100
AcDbEntity
  8
0
  6
Continuous
 62
     7
100
AcDbLine
 10
643.5663749538412
 20
265.9569396974025
 30
0.0
 11
643.5663749538412
 21
705.9569396974015
 31
0.0
  0
LINE
  5
6BE
330
1F
100
AcDbEntity
  8
0
  6
Continuous
 62
     7
100
AcDbLine
 10
875.7663749538409
 20
270.4569396974028
 30
0.0
 11
875.7663749538409
 21
701.4569396974012
 31
0.0
  0
LINE
  5
6BF
330
1F
100
AcDbEntity
  8
0
  6
Continuous
 62
     7
100
AcDbLine
 10
644.7663749538413
 20
265.9569396974025
 30
0.0
 11
644.7663749538413
 21
705.9569396974015
 31
0.0
  0
LINE
  5
6C0
330
1F
100
AcDbEntity
  8
0
  6
Continuous
 62
     7
100
AcDbLine
 10
874.1663749538409
 20
265.9569396974025
 30
0.0
 11
643.5663749538412
 21
265.9569396974025
 31
0.0
  0
LINE
  5
6C1
330
1F
100
AcDbEntity
  8
0
  6
Continuous
 62
     7
100
AcDbLine
 10
754.7336332120993
 20
201.8654712289341
 30
0.0
 11
754.7336332120993
 21
265.9569396974025
 31
0.0
  0
LINE
  5
6C2
330
1F
100
AcDbEntity
  8
0
  6
Continuous
 62
     7
100
AcDbLine
 10
704.738489067955
 20
265.9569396974025
 30
0.0
 11
704.738489067955
 21
201.8654712289341
 31
0.0
  0
CIRCLE
  5
6C3
330
1F
100
AcDbEntity
  8
0
  6
Continuous
 62
     7
370
     0
100
AcDbCircle
 10
729.7384870627768
 20
226.8654752297617
 30
0.0
 40
9.374992996172652
  0
LINE
  5
6C4
330
1F
100
AcDbEntity
  8
0
  6
Continuous
 62
     7
100
AcDbLine
 10
704.738489067955
 20
201.8654712289341
 30
0.0
 11
754.7336332120993
 21
201.8654712289341
 31
0.0
  0
ARC
  5
6C5
330
1F
100
AcDbEntity
  8
0
  6
Continuous
 62
     7
100
AcDbCircle
 10
642.400232378316
 20
314.2768992239791
 30
0.0
 40
1.919998565616119
100
AcDbArc
 50
179.9999571957046
 51
270.0000428042757
  0
ARC
  5
6C6
330
1F
100
AcDbEntity
  8
0
  6
Continuous
 62
     7
100
AcDbCircle
 10
642.4002323783144
 20
317.6369020927483
 30
0.0
 40
1.919998565615779
100
AcDbArc
 50
89.99995719572096
 51
180.0000428042888
  0
LINE
  5
6C7
330
1F
100
AcDbEntity
  8
0
  6
Continuous
 62
     7
100
AcDbLine
 10
640.4802338127002
 20
314.2769006583632
 30
0.0
 11
640.4802338127002
 21
317.6369006583636
 31
0.0
  0
LINE
  5
6C8
330
1F
100
AcDbEntity
  8
0
  6
Continuous
 62
     7
100
AcDbLine
 10
642.4002338127003
 20
312.3569006583632
 30
0.0
 11
643.4002338127006
 21
312.3569006583632
 31
0.0
  0
LINE
  5
6C9
330
1F
100
AcDbEntity
  8
0
  6
Continuous
 62
     7
100
AcDbLine
 10
642.4002338127003
 20
319.5569006583632
 30
0.0
 11
643.4002338127006
 21
319.5569006583632
 31
0.0
  0
LINE
  5
6CA
330
1F
100
AcDbEntity
  8
0
  6
Continuous
 62
     7
100
AcDbLine
 10
883.7663749538405
 20
266.3569396974025
 30
0.0
 11
883.7663749538405
 21
240.9569396974026
 31
0.0
  0
LINE
  5
6CB
330
1F
100
AcDbEntity
  8
0
  6
Continuous
 62
     7
100
AcDbLine
 10
881.7663749538413
 20
265.9569396974025
 30
0.0
 11
881.7663749538413
 21
240.9569396974026
 31
0.0
  0
LINE
  5
6CC
330
1F
100
AcDbEntity
  8
0
  6
Continuous
 62
     7
100
AcDbLine
 10
881.7663749538413
 20
240.9569396974026
 30
0.0
 11
883.7663749538405
 21
240.9569396974026
 31
0.0
  0
LINE
  5
6CD
330
1F
100
AcDbEntity
  8
0
  6
Continuous
 62
     7
100
AcDbLine
 10
874.1663749538409
 20
267.9569396974029
 30
0.0
 11
882.1663749538409
 21
267.9569396974029
 31
0.0
  0
LINE
  5
6CE
330
1F
100
AcDbEntity
  8
0
  6
Continuous
 62
     7
100
AcDbLine
 10
874.1663749538409
 20
265.9569396974025
 30
0.0
 11
881.7663749538413
 21
265.9569396974025
 31
0.0
  0
LINE
  5
6CF
330
1F
100
AcDbEntity
  8
0
  6
Continuous
 62
     7
100
AcDbLine
 10
874.1663749538409
 20
270.4569396974028
 30
0.0
 11
874.1663749538409
 21
265.9569396974025
 31
0.0
  0
LINE
  5
6D0
330
1F
100
AcDbEntity
  8
0
  6
Continuous
 62
     7
100
AcDbLine
 10
874.1663749538409
 20
270.4569396974028
 30
0.0
 11
875.7663749538409
 21
270.4569396974028
 31
0.0
  0
ARC
  5
6D1
330
1F
100
AcDbEntity
  8
0
  6
Continuous
 62
     7
100
AcDbCircle
 10
882.1663761491612
 20
266.3569408927235
 30
0.0
 40
1.599998804680071
100
AcDbArc
 50
359.9999571956996
 51
90.0000428042823
  0
CIRCLE
  5
6D2
330
1F
100
AcDbEntity
  8
0
  6
Continuous
 62
     7
370
     0
100
AcDbCircle
 10
863.3663621764645
 20
300.9569209140197
 30
0.0
 40
3.839997762362417
  0
CIRCLE
  5
6D3
330
1F
100
AcDbEntity
  8
0
  6
Continuous
 62
     7
370
     0
100
AcDbCircle
 10
863.3663621764645
 20
300.9569209140197
 30
0.0
 40
2.995195960560647
  0
LINE
  5
6D4
330
1F
100
AcDbEntity
  8
0
  6
Continuous
 62
     7
 48
6.0
100
AcDbLine
 10
863.8655611400267
 20
300.4577204781831
 30
0.0
 11
865.3631617406274
 21
300.4577204781831
 31
0.0
  0
LINE
  5
6D5
330
1F
100
AcDbEntity
  8
0
  6
Continuous
 62
     7
 48
6.0
100
AcDbLine
 10
865.3631617406274
 20
301.4561198775825
 30
0.0
 11
863.8655611400267
 21
301.4561198775825
 31
0.0
  0
LINE
  5
6D6
330
1F
100
AcDbEntity
  8
0
  6
Continuous
 62
     7
 48
6.0
100
AcDbLine
 10
863.8655611400267
 20
298.9601198775823
 30
0.0
 11
863.8655611400267
 21
300.4577204781831
 31
0.0
  0
LINE
  5
6D7
330
1F
100
AcDbEntity
  8
0
  6
Continuous
 62
     7
 48
6.0
100
AcDbLine
 10
862.8671617406281
 20
298.9601198775823
 30
0.0
 11
863.8655611400267
 21
298.9601198775823
 31
0.0
  0
LINE
  5
6D8
330
1F
100
AcDbEntity
  8
0
  6
Continuous
 62
     7
 48
6.0
100
AcDbLine
 10
862.8671617406281
 20
300.4577204781831
 30
0.0
 11
862.8671617406281
 21
298.9601198775823
 31
0.0
  0
LINE
  5
6D9
330
1F
100
AcDbEntity
  8
0
  6
Continuous
 62
     7
 48
6.0
100
AcDbLine
 10
861.3695611400272
 20
300.4577204781831
 30
0.0
 11
862.8671617406281
 21
300.4577204781831
 31
0.0
  0
LINE
  5
6DA
330
1F
100
AcDbEntity
  8
0
  6
Continuous
 62
     7
 48
6.0
100
AcDbLine
 10
861.3695611400272
 20
301.4561198775825
 30
0.0
 11
861.3695611400272
 21
300.4577204781831
 31
0.0
  0
LINE
  5
6DB
330
1F
100
AcDbEntity
  8
0
  6
Continuous
 62
     7
 48
6.0
100
AcDbLine
 10
862.8671617406281
 20
301.4561198775825
 30
0.0
 11
861.3695611400272
 21
301.4561198775825
 31
0.0
  0
LINE
  5
6DC
330
1F
100
AcDbEntity
  8
0
  6
Continuous
 62
     7
 48
6.0
100
AcDbLine
 10
862.8671617406281
 20
302.9537204781837
 30
0.0
 11
862.8671617406281
 21
301.4561198775825
 31
0.0
  0
LINE
  5
6DD
330
1F
100
AcDbEntity
  8
0
  6
Continuous
 62
     7
 48
6.0
100
AcDbLine
 10
863.8655611400267
 20
302.9537204781837
 30
0.0
 11
862.8671617406281
 21
302.9537204781837
 31
0.0
  0
LINE
  5
6DE
330
1F
100
AcDbEntity
  8
0
  6
Continuous
 62
     7
 48
6.0
100
AcDbLine
 10
863.8655611400267
 20
301.4561198775825
 30
0.0
 11
863.8655611400267
 21
302.9537204781837
 31
0.0
  0
LINE
  5
6DF
330
1F
100
AcDbEntity
  8
0
  6
Continuous
 62
     7
 48
6.0
100
AcDbLine
 10
865.3631617406274
 20
300.4577204781831
 30
0.0
 11
865.3631617406274
 21
300.4577204781831
 31
0.0
  0
LINE
  5
6E0
330
1F
100
AcDbEntity
  8
0
  6
Continuous
 62
     7
 48
6.0
100
AcDbLine
 10
865.3631617406274
 20
300.4577204781831
 30
0.0
 11
865.3631617406274
 21
301.4561198775825
 31
0.0
  0
LINE
  5
6E1
330
1F
100
AcDbEntity
  8
0
  6
Continuous
 62
     7
100
AcDbLine
 10
875.7663749538409
 20
299.9569396974026
 30
0.0
 11
875.7663749538409
 21
293.9569396974025
 31
0.0
  0
LINE
  5
6E2
330
1F
100
AcDbEntity
  8
0
  6
Continuous
 62
     7
100
AcDbLine
 10
846.7663749538408
 20
704.6569396974014
 30
0.0
 11
671.7663749538415
 21
704.6569396974014
 31
0.0
  0
LINE
  5
6E3
330
1F
100
AcDbEntity
  8
0
  6
Continuous
 62
     7
100
AcDbLine
 10
846.7663749538408
 20
705.8569396974012
 30
0.0
 11
671.7663749538415
 21
705.8569396974012
 31
0.0
  0
LINE
  5
6E4
330
1F
100
AcDbEntity
  8
0
  6
Continuous
 62
     7
100
AcDbLine
 10
643.5663749538412
 20
705.9569396974015
 30
0.0
 11
874.1663749538409
 21
705.9569396974015
 31
0.0
  0
CIRCLE
  5
6E5
330
1F
100
AcDbEntity
  8
0
  6
Continuous
 62
     7
370
     0
100
AcDbCircle
 10
686.766365179468
 20
566.4569419350402
 30
0.0
 40
2.995195960560647
  0
CIRCLE
  5
6E6
330
1F
100
AcDbEntity
  8
0
  6
Continuous
 62
     7
370
     0
100
AcDbCircle
 10
686.766365179468
 20
566.4569419350402
 30
0.0
 40
3.839997762362417
  0
LINE
  5
6E7
330
1F
100
AcDbEntity
  8
0
  6
Continuous
 62
     7
 48
6.0
100
AcDbLine
 10
687.2655641430302
 20
564.4601408986029
 30
0.0
 11
687.2655641430302
 21
565.9577414992035
 31
0.0
  0
LINE
  5
6E8
330
1F
100
AcDbEntity
  8
0
  6
Continuous
 62
     7
 48
6.0
100
AcDbLine
 10
686.2671647436309
 20
565.9577414992035
 30
0.0
 11
686.2671647436309
 21
564.4601408986029
 31
0.0
  0
LINE
  5
6E9
330
1F
100
AcDbEntity
  8
0
  6
Continuous
 62
     7
 48
6.0
100
AcDbLine
 10
686.2671647436309
 20
564.4601408986029
 30
0.0
 11
687.2655641430302
 21
564.4601408986029
 31
0.0
  0
LINE
  5
6EA
330
1F
100
AcDbEntity
  8
0
  6
Continuous
 62
     7
 48
6.0
100
AcDbLine
 10
687.2655641430302
 20
568.4537414992035
 30
0.0
 11
686.2671647436309
 21
568.4537414992035
 31
0.0
  0
LINE
  5
6EB
330
1F
100
AcDbEntity
  8
0
  6
Continuous
 62
     7
 48
6.0
100
AcDbLine
 10
684.7695641430296
 20
565.9577414992035
 30
0.0
 11
686.2671647436309
 21
565.9577414992035
 31
0.0
  0
LINE
  5
6EC
330
1F
100
AcDbEntity
  8
0
  6
Continuous
 62
     7
 48
6.0
100
AcDbLine
 10
684.7695641430296
 20
566.9561408986029
 30
0.0
 11
684.7695641430296
 21
565.9577414992035
 31
0.0
  0
LINE
  5
6ED
330
1F
100
AcDbEntity
  8
0
  6
Continuous
 62
     7
 48
6.0
100
AcDbLine
 10
686.2671647436309
 20
566.9561408986029
 30
0.0
 11
684.7695641430296
 21
566.9561408986029
 31
0.0
  0
LINE
  5
6EE
330
1F
100
AcDbEntity
  8
0
  6
Continuous
 62
     7
 48
6.0
100
AcDbLine
 10
686.2671647436309
 20
568.4537414992035
 30
0.0
 11
686.2671647436309
 21
566.9561408986029
 31
0.0
  0
LINE
  5
6EF
330
1F
100
AcDbEntity
  8
0
  6
Continuous
 62
     7
 48
6.0
100
AcDbLine
 10
688.7631647436307
 20
565.9577414992035
 30
0.0
 11
688.7631647436307
 21
565.9577414992035
 31
0.0
  0
LINE
  5
6F0
330
1F
100
AcDbEntity
  8
0
  6
Continuous
 62
     7
 48
6.0
100
AcDbLine
 10
687.2655641430302
 20
565.9577414992035
 30
0.0
 11
688.7631647436307
 21
565.9577414992035
 31
0.0
  0
LINE
  5
6F1
330
1F
100
AcDbEntity
  8
0
  6
Continuous
 62
     7
 48
6.0
100
AcDbLine
 10
687.2655641430302
 20
566.9561408986029
 30
0.0
 11
687.2655641430302
 21
568.4537414992035
 31
0.0
  0
LINE
  5
6F2
330
1F
100
AcDbEntity
  8
0
  6
Continuous
 62
     7
 48
6.0
100
AcDbLine
 10
688.7631647436307
 20
566.9561408986029
 30
0.0
 11
687.2655641430302
 21
566.9561408986029
 31
0.0
  0
LINE
  5
6F3
330
1F
100
AcDbEntity
  8
0
  6
Continuous
 62
     7
 48
6.0
100
AcDbLine
 10
688.7631647436307
 20
565.9577414992035
 30
0.0
 11
688.7631647436307
 21
566.9561408986029
 31
0.0
  0
LINE
  5
6F4
330
1F
100
AcDbEntity
  8
0
  6
Continuous
 62
     7
100
AcDbLine
 10
671.7663749538415
 20
705.9569396974015
 30
0.0
 11
671.7663749538415
 21
703.0569396974012
 31
0.0
  0
ARC
  5
6F5
330
1F
100
AcDbEntity
  8
0
  6
Continuous
 62
     7
100
AcDbCircle
 10
642.3580191651027
 20
657.6369321227766
 30
0.0
 40
1.919998565616205
100
AcDbArc
 50
89.99995719571442
 51
180.0000428042871
  0
ARC
  5
6F6
330
1F
100
AcDbEntity
  8
0
  6
Continuous
 62
     7
100
AcDbCircle
 10
642.3580191651027
 20
654.2769292540082
 30
0.0
 40
1.919998565616289
100
AcDbArc
 50
179.9999571957128
 51
270.0000428042855
  0
LINE
  5
6F7
330
1F
100
AcDbEntity
  8
0
  6
Continuous
 62
     7
100
AcDbLine
 10
640.4380205994872
 20
654.2769306883926
 30
0.0
 11
640.4380205994872
 21
657.6369306883925
 31
0.0
  0
LINE
  5
6F8
330
1F
100
AcDbEntity
  8
0
  6
Continuous
 62
     7
100
AcDbLine
 10
642.3580205994872
 20
652.3569306883926
 30
0.0
 11
643.358020599487
 21
652.3569306883926
 31
0.0
  0
LINE
  5
6F9
330
1F
100
AcDbEntity
  8
0
  6
Continuous
 62
     7
100
AcDbLine
 10
642.3580205994872
 20
659.5569306883925
 30
0.0
 11
643.358020599487
 21
659.5569306883925
 31
0.0
  0
CIRCLE
  5
6FA
330
1F
100
AcDbEntity
  8
0
  6
Continuous
 62
     7
370
     0
100
AcDbCircle
 10
686.7663681824707
 20
686.4569419350397
 30
0.0
 40
3.839997762362417
  0
CIRCLE
  5
6FB
330
1F
100
AcDbEntity
  8
0
  6
Continuous
 62
     7
370
     0
100
AcDbCircle
 10
686.7663681824707
 20
686.4569419350397
 30
0.0
 40
2.995195960560647
  0
LINE
  5
6FC
330
1F
100
AcDbEntity
  8
0
  6
Continuous
 62
     7
 48
6.0
100
AcDbLine
 10
686.2671677466339
 20
684.4601408986025
 30
0.0
 11
687.2655671460332
 21
684.4601408986025
 31
0.0
  0
LINE
  5
6FD
330
1F
100
AcDbEntity
  8
0
  6
Continuous
 62
     7
 48
6.0
100
AcDbLine
 10
687.2655671460332
 20
688.4537414992031
 30
0.0
 11
686.2671677466339
 21
688.4537414992031
 31
0.0
  0
LINE
  5
6FE
330
1F
100
AcDbEntity
  8
0
  6
Continuous
 62
     7
100
AcDbLine
 10
674.7663749538418
 20
704.6569396974014
 30
0.0
 11
674.7663749538418
 21
703.0569396974012
 31
0.0
  0
LINE
  5
6FF
330
1F
100
AcDbEntity
  8
0
  6
Continuous
 62
     7
100
AcDbLine
 10
674.7663749538418
 20
703.0569396974012
 30
0.0
 11
671.7663749538415
 21
703.0569396974012
 31
0.0
  0
LINE
  5
700
330
1F
100
AcDbEntity
  8
0
  6
Continuous
 62
     7
 48
6.0
100
AcDbLine
 10
686.2671677466339
 20
685.9577414992031
 30
0.0
 11
686.2671677466339
 21
684.4601408986025
 31
0.0
  0
LINE
  5
701
330
1F
100
AcDbEntity
  8
0
  6
Continuous
 62
     7
 48
6.0
100
AcDbLine
 10
684.7695671460333
 20
685.9577414992031
 30
0.0
 11
686.2671677466339
 21
685.9577414992031
 31
0.0
  0
LINE
  5
702
330
1F
100
AcDbEntity
  8
0
  6
Continuous
 62
     7
 48
6.0
100
AcDbLine
 10
684.7695671460333
 20
686.9561408986027
 30
0.0
 11
684.7695671460333
 21
685.9577414992031
 31
0.0
  0
LINE
  5
703
330
1F
100
AcDbEntity
  8
0
  6
Continuous
 62
     7
 48
6.0
100
AcDbLine
 10
686.2671677466339
 20
686.9561408986027
 30
0.0
 11
684.7695671460333
 21
686.9561408986027
 31
0.0
  0
LINE
  5
704
330
1F
100
AcDbEntity
  8
0
  6
Continuous
 62
     7
 48
6.0
100
AcDbLine
 10
686.2671677466339
 20
688.4537414992031
 30
0.0
 11
686.2671677466339
 21
686.9561408986027
 31
0.0
  0
LINE
  5
705
330
1F
100
AcDbEntity
  8
0
  6
Continuous
 62
     7
 48
6.0
100
AcDbLine
 10
688.7631677466345
 20
685.9577414992031
 30
0.0
 11
688.7631677466345
 21
685.9577414992031
 31
0.0
  0
LINE
  5
706
330
1F
100
AcDbEntity
  8
0
  6
Continuous
 62
     7
 48
6.0
100
AcDbLine
 10
687.2655671460332
 20
685.9577414992031
 30
0.0
 11
688.7631677466345
 21
685.9577414992031
 31
0.0
  0
LINE
  5
707
330
1F
100
AcDbEntity
  8
0
  6
Continuous
 62
     7
 48
6.0
100
AcDbLine
 10
687.2655671460332
 20
684.4601408986025
 30
0.0
 11
687.2655671460332
 21
685.9577414992031
 31
0.0
  0
LINE
  5
708
330
1F
100
AcDbEntity
  8
0
  6
Continuous
 62
     7
 48
6.0
100
AcDbLine
 10
687.2655671460332
 20
686.9561408986027
 30
0.0
 11
687.2655671460332
 21
688.4537414992031
 31
0.0
  0
LINE
  5
709
330
1F
100
AcDbEntity
  8
0
  6
Continuous
 62
     7
 48
6.0
100
AcDbLine
 10
688.7631677466345
 20
686.9561408986027
 30
0.0
 11
687.2655671460332
 21
686.9561408986027
 31
0.0
  0
LINE
  5
70A
330
1F
100
AcDbEntity
  8
0
  6
Continuous
 62
     7
 48
6.0
100
AcDbLine
 10
688.7631677466345
 20
685.9577414992031
 30
0.0
 11
688.7631677466345
 21
686.9561408986027
 31
0.0
  0
ARC
  5
70B
330
1F
100
AcDbEntity
  8
0
  6
Continuous
 62
     7
100
AcDbCircle
 10
693.0863885344714
 20
707.8569411317853
 30
0.0
 40
1.91999856561645
100
AcDbArc
 50
89.99995719570142
 51
180.0000428042789
  0
ARC
  5
70C
330
1F
100
AcDbEntity
  8
0
  6
Continuous
 62
     7
100
AcDbCircle
 10
696.4463914032408
 20
707.8569411317857
 30
0.0
 40
1.919998565615949
100
AcDbArc
 50
359.9999571957112
 51
90.00004280428878
  0
LINE
  5
70D
330
1F
100
AcDbEntity
  8
0
  6
Continuous
 62
     7
100
AcDbLine
 10
693.0863899688562
 20
709.7769396974013
 30
0.0
 11
696.4463899688568
 21
709.7769396974013
 31
0.0
  0
LINE
  5
70E
330
1F
100
AcDbEntity
  8
0
  6
Continuous
 62
     7
100
AcDbLine
 10
689.7263899688562
 20
706.8569396974012
 30
0.0
 11
699.8063899688568
 21
706.8569396974012
 31
0.0
  0
LINE
  5
70F
330
1F
100
AcDbEntity
  8
0
  6
Continuous
 62
     7
100
AcDbLine
 10
691.166389968856
 20
707.8569396974012
 30
0.0
 11
691.166389968856
 21
706.8569396974012
 31
0.0
  0
LINE
  5
710
330
1F
100
AcDbEntity
  8
0
  6
Continuous
 62
     7
100
AcDbLine
 10
698.3663899688565
 20
707.8569396974012
 30
0.0
 11
698.3663899688565
 21
706.8569396974012
 31
0.0
  0
LINE
  5
711
330
1F
100
AcDbEntity
  8
0
  6
Continuous
 62
     7
100
AcDbLine
 10
689.7263899688562
 20
706.8569396974012
 30
0.0
 11
689.7263899688562
 21
705.8569396974012
 31
0.0
  0
LINE
  5
712
330
1F
100
AcDbEntity
  8
0
  6
Continuous
 62
     7
100
AcDbLine
 10
699.8063899688568
 20
706.8569396974012
 30
0.0
 11
699.8063899688568
 21
705.8569396974012
 31
0.0
  0
ARC
  5
713
330
1F
100
AcDbEntity
  8
0
  6
Continuous
 62
     7
100
AcDbCircle
 10
823.0863735194569
 20
707.856941131786
 30
0.0
 40
1.919998565615853
100
AcDbArc
 50
89.99995719573075
 51
180.0000428042969
  0
ARC
  5
714
330
1F
100
AcDbEntity
  8
0
  6
Continuous
 62
     7
100
AcDbCircle
 10
826.4463763882252
 20
707.856941131786
 30
0.0
 40
1.919998565616119
100
AcDbArc
 50
359.9999571957031
 51
90.00004280426926
  0
LINE
  5
715
330
1F
100
AcDbEntity
  8
0
  6
Continuous
 62
     7
100
AcDbLine
 10
823.0863749538409
 20
709.7769396974013
 30
0.0
 11
826.4463749538412
 21
709.7769396974013
 31
0.0
  0
LINE
  5
716
330
1F
100
AcDbEntity
  8
0
  6
Continuous
 62
     7
100
AcDbLine
 10
819.7263749538411
 20
706.8569396974012
 30
0.0
 11
829.8063749538412
 21
706.8569396974012
 31
0.0
  0
LINE
  5
717
330
1F
100
AcDbEntity
  8
0
  6
Continuous
 62
     7
100
AcDbLine
 10
821.1663749538413
 20
707.8569396974012
 30
0.0
 11
821.1663749538413
 21
706.8569396974012
 31
0.0
  0
LINE
  5
718
330
1F
100
AcDbEntity
  8
0
  6
Continuous
 62
     7
100
AcDbLine
 10
828.3663749538408
 20
707.8569396974012
 30
0.0
 11
828.3663749538408
 21
706.8569396974012
 31
0.0
  0
LINE
  5
719
330
1F
100
AcDbEntity
  8
0
  6
Continuous
 62
     7
100
AcDbLine
 10
819.7263749538411
 20
706.8569396974012
 30
0.0
 11
819.7263749538411
 21
705.8569396974012
 31
0.0
  0
LINE
  5
71A
330
1F
100
AcDbEntity
  8
0
  6
Continuous
 62
     7
100
AcDbLine
 10
829.8063749538412
 20
706.8569396974012
 30
0.0
 11
829.8063749538412
 21
705.8569396974012
 31
0.0
  0
CIRCLE
  5
71B
330
1F
100
AcDbEntity
  8
0
  6
Continuous
 62
     7
370
     0
100
AcDbCircle
 10
863.3663621764645
 20
485.9569209140194
 30
0.0
 40
3.839997762362417
  0
CIRCLE
  5
71C
330
1F
100
AcDbEntity
  8
0
  6
Continuous
 62
     7
370
     0
100
AcDbCircle
 10
863.3663621764645
 20
485.9569209140194
 30
0.0
 40
2.995195960560647
  0
LINE
  5
71D
330
1F
100
AcDbEntity
  8
0
  6
Continuous
 62
     7
 48
6.0
100
AcDbLine
 10
863.8655611400267
 20
485.4577204781826
 30
0.0
 11
865.3631617406274
 21
485.4577204781826
 31
0.0
  0
LINE
  5
71E
330
1F
100
AcDbEntity
  8
0
  6
Continuous
 62
     7
 48
6.0
100
AcDbLine
 10
865.3631617406274
 20
486.4561198775818
 30
0.0
 11
863.8655611400267
 21
486.4561198775818
 31
0.0
  0
LINE
  5
71F
330
1F
100
AcDbEntity
  8
0
  6
Continuous
 62
     7
 48
6.0
100
AcDbLine
 10
863.8655611400267
 20
483.960119877582
 30
0.0
 11
863.8655611400267
 21
485.4577204781826
 31
0.0
  0
LINE
  5
720
330
1F
100
AcDbEntity
  8
0
  6
Continuous
 62
     7
 48
6.0
100
AcDbLine
 10
862.8671617406281
 20
483.960119877582
 30
0.0
 11
863.8655611400267
 21
483.960119877582
 31
0.0
  0
LINE
  5
721
330
1F
100
AcDbEntity
  8
0
  6
Continuous
 62
     7
 48
6.0
100
AcDbLine
 10
862.8671617406281
 20
485.4577204781826
 30
0.0
 11
862.8671617406281
 21
483.960119877582
 31
0.0
  0
LINE
  5
722
330
1F
100
AcDbEntity
  8
0
  6
Continuous
 62
     7
 48
6.0
100
AcDbLine
 10
861.3695611400272
 20
485.4577204781826
 30
0.0
 11
862.8671617406281
 21
485.4577204781826
 31
0.0
  0
LINE
  5
723
330
1F
100
AcDbEntity
  8
0
  6
Continuous
 62
     7
 48
6.0
100
AcDbLine
 10
861.3695611400272
 20
486.4561198775818
 30
0.0
 11
861.3695611400272
 21
485.4577204781826
 31
0.0
  0
LINE
  5
724
330
1F
100
AcDbEntity
  8
0
  6
Continuous
 62
     7
 48
6.0
100
AcDbLine
 10
862.8671617406281
 20
486.4561198775818
 30
0.0
 11
861.3695611400272
 21
486.4561198775818
 31
0.0
  0
LINE
  5
725
330
1F
100
AcDbEntity
  8
0
  6
Continuous
 62
     7
 48
6.0
100
AcDbLine
 10
862.8671617406281
 20
487.9537204781826
 30
0.0
 11
862.8671617406281
 21
486.4561198775818
 31
0.0
  0
LINE
  5
726
330
1F
100
AcDbEntity
  8
0
  6
Continuous
 62
     7
 48
6.0
100
AcDbLine
 10
863.8655611400267
 20
487.9537204781826
 30
0.0
 11
862.8671617406281
 21
487.9537204781826
 31
0.0
  0
LINE
  5
727
330
1F
100
AcDbEntity
  8
0
  6
Continuous
 62
     7
 48
6.0
100
AcDbLine
 10
863.8655611400267
 20
486.4561198775818
 30
0.0
 11
863.8655611400267
 21
487.9537204781826
 31
0.0
  0
LINE
  5
728
330
1F
100
AcDbEntity
  8
0
  6
Continuous
 62
     7
 48
6.0
100
AcDbLine
 10
865.3631617406274
 20
485.4577204781826
 30
0.0
 11
865.3631617406274
 21
485.4577204781826
 31
0.0
  0
LINE
  5
729
330
1F
100
AcDbEntity
  8
0
  6
Continuous
 62
     7
 48
6.0
100
AcDbLine
 10
865.3631617406274
 20
485.4577204781826
 30
0.0
 11
865.3631617406274
 21
486.4561198775818
 31
0.0
  0
LINE
  5
72A
330
1F
100
AcDbEntity
  8
0
  6
Continuous
 62
     7
100
AcDbLine
 10
846.7663749538408
 20
705.9569396974015
 30
0.0
 11
846.7663749538408
 21
703.0569396974012
 31
0.0
  0
LINE
  5
72B
330
1F
100
AcDbEntity
  8
0
  6
Continuous
 62
     7
100
AcDbLine
 10
874.1663749538409
 20
705.9569396974015
 30
0.0
 11
874.1663749538409
 21
701.4569396974012
 31
0.0
  0
LINE
  5
72C
330
1F
100
AcDbEntity
  8
0
  6
Continuous
 62
     7
100
AcDbLine
 10
883.7663749538405
 20
705.5569396974012
 30
0.0
 11
883.7663749538405
 21
735.9569396974012
 31
0.0
  0
LINE
  5
72D
330
1F
100
AcDbEntity
  8
0
  6
Continuous
 62
     7
100
AcDbLine
 10
875.7663749538409
 20
629.9569396974017
 30
0.0
 11
875.7663749538409
 21
623.9569396974014
 31
0.0
  0
CIRCLE
  5
72E
330
1F
100
AcDbEntity
  8
0
  6
Continuous
 62
     7
370
     0
100
AcDbCircle
 10
863.3663621764645
 20
670.9569209140188
 30
0.0
 40
2.995195960560647
  0
CIRCLE
  5
72F
330
1F
100
AcDbEntity
  8
0
  6
Continuous
 62
     7
370
     0
100
AcDbCircle
 10
863.3663621764645
 20
670.9569209140188
 30
0.0
 40
3.839997762362417
  0
LINE
  5
730
330
1F
100
AcDbEntity
  8
0
  6
Continuous
 62
     7
 48
6.0
100
AcDbLine
 10
863.8655611400267
 20
670.4577204781822
 30
0.0
 11
865.3631617406274
 21
670.4577204781822
 31
0.0
  0
LINE
  5
731
330
1F
100
AcDbEntity
  8
0
  6
Continuous
 62
     7
 48
6.0
100
AcDbLine
 10
865.3631617406274
 20
671.4561198775816
 30
0.0
 11
863.8655611400267
 21
671.4561198775816
 31
0.0
  0
LINE
  5
732
330
1F
100
AcDbEntity
  8
0
  6
Continuous
 62
     7
 48
6.0
100
AcDbLine
 10
863.8655611400267
 20
668.9601198775817
 30
0.0
 11
863.8655611400267
 21
670.4577204781822
 31
0.0
  0
LINE
  5
733
330
1F
100
AcDbEntity
  8
0
  6
Continuous
 62
     7
 48
6.0
100
AcDbLine
 10
862.8671617406281
 20
668.9601198775817
 30
0.0
 11
863.8655611400267
 21
668.9601198775817
 31
0.0
  0
LINE
  5
734
330
1F
100
AcDbEntity
  8
0
  6
Continuous
 62
     7
 48
6.0
100
AcDbLine
 10
862.8671617406281
 20
670.4577204781822
 30
0.0
 11
862.8671617406281
 21
668.9601198775817
 31
0.0
  0
LINE
  5
735
330
1F
100
AcDbEntity
  8
0
  6
Continuous
 62
     7
 48
6.0
100
AcDbLine
 10
861.3695611400272
 20
670.4577204781822
 30
0.0
 11
862.8671617406281
 21
670.4577204781822
 31
0.0
  0
LINE
  5
736
330
1F
100
AcDbEntity
  8
0
  6
Continuous
 62
     7
 48
6.0
100
AcDbLine
 10
861.3695611400272
 20
671.4561198775816
 30
0.0
 11
861.3695611400272
 21
670.4577204781822
 31
0.0
  0
LINE
  5
737
330
1F
100
AcDbEntity
  8
0
  6
Continuous
 62
     7
 48
6.0
100
AcDbLine
 10
862.8671617406281
 20
671.4561198775816
 30
0.0
 11
861.3695611400272
 21
671.4561198775816
 31
0.0
  0
LINE
  5
738
330
1F
100
AcDbEntity
  8
0
  6
Continuous
 62
     7
 48
6.0
100
AcDbLine
 10
862.8671617406281
 20
672.9537204781821
 30
0.0
 11
862.8671617406281
 21
671.4561198775816
 31
0.0
  0
LINE
  5
739
330
1F
100
AcDbEntity
  8
0
  6
Continuous
 62
     7
 48
6.0
100
AcDbLine
 10
863.8655611400267
 20
672.9537204781821
 30
0.0
 11
862.8671617406281
 21
672.9537204781821
 31
0.0
  0
LINE
  5
73A
330
1F
100
AcDbEntity
  8
0
  6
Continuous
 62
     7
 48
6.0
100
AcDbLine
 10
863.8655611400267
 20
671.4561198775816
 30
0.0
 11
863.8655611400267
 21
672.9537204781821
 31
0.0
  0
LINE
  5
73B
330
1F
100
AcDbEntity
  8
0
  6
Continuous
 62
     7
100
AcDbLine
 10
846.7663749538408
 20
703.0569396974012
 30
0.0
 11
843.7663749538417
 21
703.0569396974012
 31
0.0
  0
LINE
  5
73C
330
1F
100
AcDbEntity
  8
0
  6
Continuous
 62
     7
100
AcDbLine
 10
843.7663749538417
 20
704.6569396974014
 30
0.0
 11
843.7663749538417
 21
703.0569396974012
 31
0.0
  0
LINE
  5
73D
330
1F
100
AcDbEntity
  8
0
  6
Continuous
 62
     7
 48
6.0
100
AcDbLine
 10
865.3631617406274
 20
670.4577204781822
 30
0.0
 11
865.3631617406274
 21
670.4577204781822
 31
0.0
  0
LINE
  5
73E
330
1F
100
AcDbEntity
  8
0
  6
Continuous
 62
     7
 48
6.0
100
AcDbLine
 10
865.3631617406274
 20
670.4577204781822
 30
0.0
 11
865.3631617406274
 21
671.4561198775816
 31
0.0
  0
LINE
  5
73F
330
1F
100
AcDbEntity
  8
0
  6
Continuous
 62
     7
100
AcDbLine
 10
874.1663749538409
 20
703.9569396974012
 30
0.0
 11
882.1663749538409
 21
703.9569396974012
 31
0.0
  0
LINE
  5
740
330
1F
100
AcDbEntity
  8
0
  6
Continuous
 62
     7
100
AcDbLine
 10
875.7663749538409
 20
701.4569396974012
 30
0.0
 11
874.1663749538409
 21
701.4569396974012
 31
0.0
  0
ARC
  5
741
330
1F
100
AcDbEntity
  8
0
  6
Continuous
 62
     7
100
AcDbCircle
 10
882.1663761491612
 20
705.5569385020807
 30
0.0
 40
1.599998804679899
100
AcDbArc
 50
269.9999571957174
 51
0.0000428042953226
  0
LINE
  5
742
330
1F
100
AcDbEntity
  8
0
  6
Continuous
 62
     7
100
AcDbLine
 10
881.7663749538413
 20
735.9569396974012
 30
0.0
 11
881.7663749538413
 21
705.9569396974015
 31
0.0
  0
LINE
  5
743
330
1F
100
AcDbEntity
  8
0
  6
Continuous
 62
     7
100
AcDbLine
 10
873.2663749538405
 20
705.9569396974015
 30
0.0
 11
881.7663749538413
 21
705.9569396974015
 31
0.0
  0
LINE
  5
744
330
1F
100
AcDbEntity
  8
0
  6
Continuous
 62
     7
100
AcDbLine
 10
881.7663749538413
 20
735.9569396974012
 30
0.0
 11
883.7663749538405
 21
735.9569396974012
 31
0.0
  0
LINE
  5
941
330
1F
100
AcDbEntity
  8
0
  6
Continuous
 62
     7
100
AcDbLine
 10
199.8063719508395
 20
532.4869306883921
 30
10.59933933933931
 11
245.7603719508394
 21
532.4869306883921
 31
10.59933933933931
  0
LINE
  5
CDC
330
1F
100
AcDbEntity
  8
0
  6
Continuous
 62
     7
100
AcDbLine
 10
197.8063719508394
 20
634.4869306883921
 30
0.0
 11
197.8063719508394
 21
534.4869306883923
 31
0.0
  0
LINE
  5
CDD
330
1F
100
AcDbEntity
  8
0
  6
Continuous
 62
     7
100
AcDbLine
 10
247.8063719508394
 20
634.4869306883921
 30
0.0
 11
247.8063719508394
 21
534.4869306883923
 31
0.0
  0
LINE
  5
CDE
330
1F
100
AcDbEntity
  8
0
  6
Continuous
 62
     7
100
AcDbLine
 10
200.8063719508395
 20
626.4869306883921
 30
0.0
 11
200.8063719508395
 21
563.9869306883923
 31
0.0
  0
LINE
  5
CDF
330
1F
100
AcDbEntity
  8
0
  6
Continuous
 62
     7
100
AcDbLine
 10
244.8063719508394
 20
626.4869306883921
 30
0.0
 11
244.8063719508394
 21
563.9869306883923
 31
0.0
  0
LINE
  5
CE0
330
1F
100
AcDbEntity
  8
0
  6
Continuous
 62
     7
100
AcDbLine
 10
244.8063719508394
 20
626.4869306883921
 30
0.0
 11
244.8063719508394
 21
563.9869306883923
 31
0.0
  0
LINE
  5
CE1
330
1F
100
AcDbEntity
  8
0
  6
Continuous
 62
     7
100
AcDbLine
 10
200.8063719508395
 20
626.4869306883921
 30
0.0
 11
200.8063719508395
 21
563.9869306883923
 31
0.0
  0
LINE
  5
CE2
330
1F
100
AcDbEntity
  8
0
  6
Continuous
 62
     7
100
AcDbLine
 10
208.3063719508394
 20
603.4869306883924
 30
0.0
 11
208.3063719508394
 21
595.4869306883924
 31
0.0
  0
LINE
  5
CE3
330
1F
100
AcDbEntity
  8
0
  6
Continuous
 62
     7
100
AcDbLine
 10
237.3063719508394
 20
603.4869306883924
 30
0.0
 11
237.3063719508394
 21
595.4869306883924
 31
0.0
  0
LINE
  5
CE4
330
1F
100
AcDbEntity
  8
0
  6
Continuous
 62
     7
100
AcDbLine
 10
236.2936071860744
 20
602.7492049626669
 30
0.0
 11
235.8395831620505
 21
599.8885803380417
 31
0.0
  0
LINE
  5
CE5
330
1F
100
AcDbEntity
  8
0
  6
Continuous
 62
     7
100
AcDbLine
 10
231.8019495284168
 20
599.8885803380417
 30
0.0
 11
232.2751327116
 21
602.8705022599639
 31
0.0
  0
LINE
  5
CE6
330
1F
100
AcDbEntity
  8
0
  6
Continuous
 62
     7
100
AcDbLine
 10
232.536051630519
 20
599.8885803380417
 30
0.0
 11
232.9821957746632
 21
602.7001238815853
 31
0.0
  0
LINE
  5
CE7
330
1F
100
AcDbEntity
  8
0
  6
Continuous
 62
     7
100
AcDbLine
 10
235.5516972761646
 20
602.7001238815853
 30
0.0
 11
235.1054810599484
 21
599.8885803380417
 31
0.0
  0
LINE
  5
CE8
330
1F
100
AcDbEntity
  8
0
  6
Continuous
 62
     7
100
AcDbLine
 10
228.9936071860743
 20
602.7492049626669
 30
0.0
 11
228.5395831620505
 21
599.8885803380417
 31
0.0
  0
LINE
  5
CE9
330
1F
100
AcDbEntity
  8
0
  6
Continuous
 62
     7
100
AcDbLine
 10
224.5019495284167
 20
599.8885803380417
 30
0.0
 11
224.9751327116
 21
602.8705022599639
 31
0.0
  0
LINE
  5
CEA
330
1F
100
AcDbEntity
  8
0
  6
Continuous
 62
     7
100
AcDbLine
 10
225.2360516305191
 20
599.8885803380417
 30
0.0
 11
225.6821957746629
 21
602.7001238815853
 31
0.0
  0
LINE
  5
CEB
330
1F
100
AcDbEntity
  8
0
  6
Continuous
 62
     7
100
AcDbLine
 10
228.2516972761645
 20
602.7001238815853
 30
0.0
 11
227.8054810599484
 21
599.8885803380417
 31
0.0
  0
LINE
  5
CEC
330
1F
100
AcDbEntity
  8
0
  6
Continuous
 62
     7
100
AcDbLine
 10
221.6936071860744
 20
602.7492049626669
 30
0.0
 11
221.2395831620503
 21
599.8885803380417
 31
0.0
  0
LINE
  5
CED
330
1F
100
AcDbEntity
  8
0
  6
Continuous
 62
     7
100
AcDbLine
 10
217.2019495284168
 20
599.8885803380417
 30
0.0
 11
217.6751327115999
 21
602.8705022599639
 31
0.0
  0
LINE
  5
CEE
330
1F
100
AcDbEntity
  8
0
  6
Continuous
 62
     7
100
AcDbLine
 10
217.9360516305191
 20
599.8885803380417
 30
0.0
 11
218.382195774663
 21
602.7001238815853
 31
0.0
  0
LINE
  5
CEF
330
1F
100
AcDbEntity
  8
0
  6
Continuous
 62
     7
100
AcDbLine
 10
220.9516972761648
 20
602.7001238815853
 30
0.0
 11
220.5054810599484
 21
599.8885803380417
 31
0.0
  0
LINE
  5
CF0
330
1F
100
AcDbEntity
  8
0
  6
Continuous
 62
     7
100
AcDbLine
 10
214.3936071860744
 20
602.7492049626669
 30
0.0
 11
213.9395831620503
 21
599.8885803380417
 31
0.0
  0
LINE
  5
CF1
330
1F
100
AcDbEntity
  8
0
  6
Continuous
 62
     7
100
AcDbLine
 10
209.9019495284168
 20
599.8885803380417
 30
0.0
 11
210.3751327115999
 21
602.8705022599639
 31
0.0
  0
LINE
  5
CF2
330
1F
100
AcDbEntity
  8
0
  6
Continuous
 62
     7
100
AcDbLine
 10
210.6360516305189
 20
599.8885803380417
 30
0.0
 11
211.082195774663
 21
602.7001238815853
 31
0.0
  0
LINE
  5
CF3
330
1F
100
AcDbEntity
  8
0
  6
Continuous
 62
     7
100
AcDbLine
 10
213.6516972761643
 20
602.7001238815853
 30
0.0
 11
213.2054810599484
 21
599.8885803380417
 31
0.0
  0
LINE
  5
CF5
330
1F
100
AcDbEntity
  8
0
  6
Continuous
 62
     7
100
AcDbLine
 10
201.8063719508394
 20
562.9869306883923
 30
0.0
 11
243.8063719508395
 21
562.9869306883923
 31
0.0
  0
LINE
  5
CF6
330
1F
100
AcDbEntity
  8
0
  6
Continuous
 62
     7
100
AcDbLine
 10
206.0563719508394
 20
558.4869306883924
 30
0.0
 11
239.5563719508394
 21
558.4869306883924
 31
0.0
  0
LINE
  5
CF7
330
1F
100
AcDbEntity
  8
0
  6
Continuous
 62
     7
100
AcDbLine
 10
206.0563719508394
 20
543.4869306883923
 30
0.0
 11
239.5563719508394
 21
543.4869306883923
 31
0.0
  0
LINE
  5
CF8
330
1F
100
AcDbEntity
  8
0
  6
Continuous
 62
     7
100
AcDbLine
 10
207.7563719508395
 20
556.7869306883924
 30
0.0
 11
237.8563719508394
 21
556.7869306883924
 31
0.0
  0
LINE
  5
CF9
330
1F
100
AcDbEntity
  8
0
  6
Continuous
 62
     7
100
AcDbLine
 10
207.7563719508395
 20
545.1869306883925
 30
0.0
 11
237.8563719508394
 21
545.1869306883925
 31
0.0
  0
LINE
  5
CFA
330
1F
100
AcDbEntity
  8
0
  6
Continuous
 62
     7
100
AcDbLine
 10
206.5563719508395
 20
557.9869306883924
 30
0.0
 11
239.0563719508394
 21
557.9869306883924
 31
0.0
  0
LINE
  5
CFB
330
1F
100
AcDbEntity
  8
0
  6
Continuous
 62
     7
100
AcDbLine
 10
206.5563719508395
 20
543.9869306883925
 30
0.0
 11
239.0563719508394
 21
543.9869306883925
 31
0.0
  0
LINE
  5
CFC
330
1F
100
AcDbEntity
  8
0
  6
Continuous
 62
     7
100
AcDbLine
 10
213.8063719508394
 20
544.2869306883924
 30
0.0
 11
221.8063719508394
 21
544.2869306883924
 31
0.0
  0
LINE
  5
CFD
330
1F
100
AcDbEntity
  8
0
  6
Continuous
 62
     7
100
AcDbLine
 10
213.8063719508394
 20
557.6869306883925
 30
0.0
 11
221.8063719508394
 21
557.6869306883925
 31
0.0
  0
LINE
  5
CFE
330
1F
100
AcDbEntity
  8
0
  6
Continuous
 62
     7
100
AcDbLine
 10
212.8063719508395
 20
592.4869306883923
 30
0.0
 11
240.3063719508395
 21
592.4869306883923
 31
0.0
  0
LINE
  5
CFF
330
1F
100
AcDbEntity
  8
0
  6
Continuous
 62
     7
100
AcDbLine
 10
212.8063719508395
 20
583.4869306883924
 30
0.0
 11
240.3063719508395
 21
583.4869306883924
 31
0.0
  0
LINE
  5
D00
330
1F
100
AcDbEntity
  8
0
  6
Continuous
 62
     7
100
AcDbLine
 10
201.8063719508394
 20
562.9869306883923
 30
0.0
 11
243.8063719508395
 21
562.9869306883923
 31
0.0
  0
LINE
  5
D01
330
1F
100
AcDbEntity
  8
0
  6
Continuous
 62
     7
100
AcDbLine
 10
209.3063719508394
 20
594.4869306883925
 30
0.0
 11
236.306371950839
 21
594.4869306883925
 31
0.0
  0
LINE
  5
D02
330
1F
100
AcDbEntity
  8
0
  6
Continuous
 62
     7
100
AcDbLine
 10
206.0563719508394
 20
558.4869306883924
 30
0.0
 11
206.0563719508394
 21
543.4869306883923
 31
0.0
  0
LINE
  5
D03
330
1F
100
AcDbEntity
  8
0
  6
Continuous
 62
     7
100
AcDbLine
 10
207.7563719508395
 20
545.1869306883925
 30
0.0
 11
206.8563719508393
 21
544.2869306883924
 31
0.0
  0
LINE
  5
D04
330
1F
100
AcDbEntity
  8
0
  6
Continuous
 62
     7
100
AcDbLine
 10
206.5563719508395
 20
543.9869306883925
 30
0.0
 11
206.0563719508394
 21
543.4869306883923
 31
0.0
  0
LINE
  5
D05
330
1F
100
AcDbEntity
  8
0
  6
Continuous
 62
     7
100
AcDbLine
 10
207.7563719508395
 20
556.7869306883924
 30
0.0
 11
206.8563719508393
 21
557.6869306883925
 31
0.0
  0
LINE
  5
D06
330
1F
100
AcDbEntity
  8
0
  6
Continuous
 62
     7
100
AcDbLine
 10
206.5563719508395
 20
557.9869306883924
 30
0.0
 11
206.0563719508394
 21
558.4869306883924
 31
0.0
  0
LINE
  5
D07
330
1F
100
AcDbEntity
  8
0
  6
Continuous
 62
     7
100
AcDbLine
 10
207.7563719508395
 20
556.7869306883924
 30
0.0
 11
207.7563719508395
 21
545.1869306883925
 31
0.0
  0
LINE
  5
D08
330
1F
100
AcDbEntity
  8
0
  6
Continuous
 62
     7
100
AcDbLine
 10
211.8063719508394
 20
544.4869306883925
 30
0.0
 11
211.8063719508394
 21
543.9869306883925
 31
0.0
  0
LINE
  5
D09
330
1F
100
AcDbEntity
  8
0
  6
Continuous
 62
     7
100
AcDbLine
 10
213.8063719508394
 20
544.4869306883925
 30
0.0
 11
213.8063719508394
 21
543.9869306883925
 31
0.0
  0
LINE
  5
D0A
330
1F
100
AcDbEntity
  8
0
  6
Continuous
 62
     7
100
AcDbLine
 10
206.5563719508395
 20
551.9869306883921
 30
0.0
 11
207.0563719508395
 21
551.9869306883921
 31
0.0
  0
LINE
  5
D0B
330
1F
100
AcDbEntity
  8
0
  6
Continuous
 62
     7
100
AcDbLine
 10
206.5563719508395
 20
549.9869306883924
 30
0.0
 11
207.0563719508395
 21
549.9869306883924
 31
0.0
  0
LINE
  5
D0C
330
1F
100
AcDbEntity
  8
0
  6
Continuous
 62
     7
100
AcDbLine
 10
206.5563719508395
 20
557.9869306883924
 30
0.0
 11
206.5563719508395
 21
543.9869306883925
 31
0.0
  0
LINE
  5
D0D
330
1F
100
AcDbEntity
  8
0
  6
Continuous
 62
     7
100
AcDbLine
 10
206.8563719508393
 20
544.2869306883924
 30
0.0
 11
211.8063719508394
 21
544.2869306883924
 31
0.0
  0
LINE
  5
D0E
330
1F
100
AcDbEntity
  8
0
  6
Continuous
 62
     7
100
AcDbLine
 10
211.8063719508394
 20
544.4869306883925
 30
0.0
 11
213.8063719508394
 21
544.4869306883925
 31
0.0
  0
LINE
  5
D0F
330
1F
100
AcDbEntity
  8
0
  6
Continuous
 62
     7
100
AcDbLine
 10
211.8063719508394
 20
557.4869306883925
 30
0.0
 11
213.8063719508394
 21
557.4869306883925
 31
0.0
  0
LINE
  5
D10
330
1F
100
AcDbEntity
  8
0
  6
Continuous
 62
     7
100
AcDbLine
 10
211.8063719508394
 20
557.9869306883924
 30
0.0
 11
211.8063719508394
 21
557.4869306883925
 31
0.0
  0
LINE
  5
D11
330
1F
100
AcDbEntity
  8
0
  6
Continuous
 62
     7
100
AcDbLine
 10
213.8063719508394
 20
557.9869306883924
 30
0.0
 11
213.8063719508394
 21
557.4869306883925
 31
0.0
  0
LINE
  5
D12
330
1F
100
AcDbEntity
  8
0
  6
Continuous
 62
     7
100
AcDbLine
 10
206.8563719508393
 20
557.6869306883925
 30
0.0
 11
211.8063719508394
 21
557.6869306883925
 31
0.0
  0
LINE
  5
D13
330
1F
100
AcDbEntity
  8
0
  6
Continuous
 62
     7
100
AcDbLine
 10
206.8563719508393
 20
557.6869306883925
 30
0.0
 11
206.8563719508393
 21
551.9869306883921
 31
0.0
  0
LINE
  5
D14
330
1F
100
AcDbEntity
  8
0
  6
Continuous
 62
     7
100
AcDbLine
 10
206.8563719508393
 20
549.9869306883924
 30
0.0
 11
206.8563719508393
 21
544.2869306883924
 31
0.0
  0
LINE
  5
D15
330
1F
100
AcDbEntity
  8
0
  6
Continuous
 62
     7
100
AcDbLine
 10
207.0563719508395
 20
551.9869306883921
 30
0.0
 11
207.0563719508395
 21
549.9869306883924
 31
0.0
  0
LINE
  5
D16
330
1F
100
AcDbEntity
  8
0
  6
Continuous
 62
     7
100
AcDbLine
 10
211.8063719508394
 20
584.4869306883923
 30
0.0
 11
211.8063719508394
 21
591.4869306883924
 31
0.0
  0
LINE
  5
D17
330
1F
100
AcDbEntity
  8
0
  6
Continuous
 62
     7
100
AcDbLine
 10
203.8063719508394
 20
575.9869306883923
 30
0.0
 11
203.8063719508394
 21
572.9869306883925
 31
0.0
  0
LINE
  5
D18
330
1F
100
AcDbEntity
  8
0
  6
Continuous
 62
     7
100
AcDbLine
 10
211.8063719508394
 20
575.9869306883923
 30
0.0
 11
211.8063719508394
 21
572.9869306883925
 31
0.0
  0
LINE
  5
D19
330
1F
100
AcDbEntity
  8
0
  6
Continuous
 62
     7
100
AcDbLine
 10
213.8063719508394
 20
575.9869306883923
 30
0.0
 11
213.8063719508394
 21
572.9869306883925
 31
0.0
  0
LINE
  5
D1A
330
1F
100
AcDbEntity
  8
0
  6
Continuous
 62
     7
100
AcDbLine
 10
213.0379695484371
 20
595.7359296873909
 30
0.0
 11
212.6318053842729
 21
596.2738195772812
 31
0.0
  0
LINE
  5
D1B
330
1F
100
AcDbEntity
  8
0
  6
Continuous
 62
     7
100
AcDbLine
 10
209.5401757546432
 20
595.7868586163202
 30
0.0
 11
210.0623759548434
 21
596.2738195772812
 31
0.0
  0
LINE
  5
D1C
330
1F
100
AcDbEntity
  8
0
  6
Continuous
 62
     7
100
AcDbLine
 10
213.3227463252139
 20
596.0014211788826
 30
0.0
 11
213.8121237025911
 21
599.0852810387423
 31
0.0
  0
LINE
  5
D1D
330
1F
100
AcDbEntity
  8
0
  6
Continuous
 62
     7
100
AcDbLine
 10
212.7531907696579
 20
595.4704401979019
 30
0.0
 11
213.3227463252139
 21
596.0014211788826
 31
0.0
  0
LINE
  5
D1E
330
1F
100
AcDbEntity
  8
0
  6
Continuous
 62
     7
100
AcDbLine
 10
209.7791887676561
 20
595.4704401979019
 30
0.0
 11
212.7531907696579
 21
595.4704401979019
 31
0.0
  0
LINE
  5
D1F
330
1F
100
AcDbEntity
  8
0
  6
Continuous
 62
     7
100
AcDbLine
 10
209.301234813702
 20
596.1032790367406
 30
0.0
 11
209.7791887676561
 21
595.4704401979019
 31
0.0
  0
LINE
  5
D20
330
1F
100
AcDbEntity
  8
0
  6
Continuous
 62
     7
100
AcDbLine
 10
209.7744900689574
 20
599.0852810387423
 30
0.0
 11
209.301234813702
 21
596.1032790367406
 31
0.0
  0
LINE
  5
D21
330
1F
100
AcDbEntity
  8
0
  6
Continuous
 62
     7
100
AcDbLine
 10
210.0623759548434
 20
596.2738195772812
 30
0.0
 11
210.5085921710596
 21
599.0852810387423
 31
0.0
  0
LINE
  5
D22
330
1F
100
AcDbEntity
  8
0
  6
Continuous
 62
     7
100
AcDbLine
 10
213.078021600489
 20
599.0852810387423
 30
0.0
 11
212.6318053842729
 21
596.2738195772812
 31
0.0
  0
LINE
  5
D23
330
1F
100
AcDbEntity
  8
0
  6
Continuous
 62
     7
100
AcDbLine
 10
213.5088384173057
 20
599.4869306883921
 30
0.0
 11
213.8121237025911
 21
599.0852810387423
 31
0.0
  0
LINE
  5
D24
330
1F
100
AcDbEntity
  8
0
  6
Continuous
 62
     7
100
AcDbLine
 10
213.9395831620503
 20
599.8885803380417
 30
0.0
 11
213.5088384173057
 21
599.4869306883921
 31
0.0
  0
LINE
  5
D25
330
1F
100
AcDbEntity
  8
0
  6
Continuous
 62
     7
100
AcDbLine
 10
213.5088384173057
 20
599.4869306883921
 30
0.0
 11
213.078021600489
 21
599.0852810387423
 31
0.0
  0
LINE
  5
D26
330
1F
100
AcDbEntity
  8
0
  6
Continuous
 62
     7
100
AcDbLine
 10
213.2054810599484
 20
599.8885803380417
 30
0.0
 11
213.5088384173057
 21
599.4869306883921
 31
0.0
  0
LINE
  5
D27
330
1F
100
AcDbEntity
  8
0
  6
Continuous
 62
     7
100
AcDbLine
 10
210.2052348137021
 20
599.4869306883921
 30
0.0
 11
209.7744900689574
 21
599.0852810387423
 31
0.0
  0
LINE
  5
D28
330
1F
100
AcDbEntity
  8
0
  6
Continuous
 62
     7
100
AcDbLine
 10
209.9019495284168
 20
599.8885803380417
 30
0.0
 11
210.2052348137021
 21
599.4869306883921
 31
0.0
  0
LINE
  5
D29
330
1F
100
AcDbEntity
  8
0
  6
Continuous
 62
     7
100
AcDbLine
 10
210.2052348137021
 20
599.4869306883921
 30
0.0
 11
210.5085921710596
 21
599.0852810387423
 31
0.0
  0
LINE
  5
D2A
330
1F
100
AcDbEntity
  8
0
  6
Continuous
 62
     7
100
AcDbLine
 10
210.6360516305189
 20
599.8885803380417
 30
0.0
 11
210.2052348137021
 21
599.4869306883921
 31
0.0
  0
LINE
  5
D2B
330
1F
100
AcDbEntity
  8
0
  6
Continuous
 62
     7
100
AcDbLine
 10
212.6318053842729
 20
596.2738195772812
 30
0.0
 11
210.0623759548434
 21
596.2738195772812
 31
0.0
  0
LINE
  5
D2C
330
1F
100
AcDbEntity
  8
0
  6
Continuous
 62
     7
100
AcDbLine
 10
210.5085921710596
 20
599.0852810387423
 30
0.0
 11
213.078021600489
 21
599.0852810387423
 31
0.0
  0
LINE
  5
D2D
330
1F
100
AcDbEntity
  8
0
  6
Continuous
 62
     7
100
AcDbLine
 10
210.6360516305189
 20
599.8885803380417
 30
0.0
 11
213.2054810599484
 21
599.8885803380417
 31
0.0
  0
LINE
  5
D2E
330
1F
100
AcDbEntity
  8
0
  6
Continuous
 62
     7
100
AcDbLine
 10
231.8063719508391
 20
544.4869306883925
 30
0.0
 11
233.8063719508395
 21
544.4869306883925
 31
0.0
  0
LINE
  5
D2F
330
1F
100
AcDbEntity
  8
0
  6
Continuous
 62
     7
100
AcDbLine
 10
231.8063719508391
 20
557.4869306883925
 30
0.0
 11
233.8063719508395
 21
557.4869306883925
 31
0.0
  0
LINE
  5
D30
330
1F
100
AcDbEntity
  8
0
  6
Continuous
 62
     7
100
AcDbLine
 10
226.8063719508393
 20
535.4869306883925
 30
0.0
 11
226.8063719508393
 21
532.4869306883925
 31
0.0
  0
LINE
  5
D31
330
1F
100
AcDbEntity
  8
0
  6
Continuous
 62
     7
100
AcDbLine
 10
218.8063719508395
 20
535.4869306883925
 30
0.0
 11
218.8063719508395
 21
532.4869306883925
 31
0.0
  0
LINE
  5
D32
330
1F
100
AcDbEntity
  8
0
  6
Continuous
 62
     7
100
AcDbLine
 10
231.8063719508391
 20
544.4869306883925
 30
0.0
 11
231.8063719508391
 21
543.9869306883925
 31
0.0
  0
LINE
  5
D33
330
1F
100
AcDbEntity
  8
0
  6
Continuous
 62
     7
100
AcDbLine
 10
221.8063719508394
 20
544.4869306883925
 30
0.0
 11
221.8063719508394
 21
543.9869306883925
 31
0.0
  0
LINE
  5
D34
330
1F
100
AcDbEntity
  8
0
  6
Continuous
 62
     7
100
AcDbLine
 10
223.8063719508394
 20
544.4869306883925
 30
0.0
 11
223.8063719508394
 21
543.9869306883925
 31
0.0
  0
LINE
  5
D35
330
1F
100
AcDbEntity
  8
0
  6
Continuous
 62
     7
100
AcDbLine
 10
221.8063719508394
 20
544.4869306883925
 30
0.0
 11
223.8063719508394
 21
544.4869306883925
 31
0.0
  0
LINE
  5
D36
330
1F
100
AcDbEntity
  8
0
  6
Continuous
 62
     7
100
AcDbLine
 10
223.8063719508394
 20
544.2869306883924
 30
0.0
 11
231.8063719508391
 21
544.2869306883924
 31
0.0
  0
LINE
  5
D37
330
1F
100
AcDbEntity
  8
0
  6
Continuous
 62
     7
100
AcDbLine
 10
221.8063719508394
 20
557.4869306883925
 30
0.0
 11
223.8063719508394
 21
557.4869306883925
 31
0.0
  0
LINE
  5
D38
330
1F
100
AcDbEntity
  8
0
  6
Continuous
 62
     7
100
AcDbLine
 10
231.8063719508391
 20
557.9869306883924
 30
0.0
 11
231.8063719508391
 21
557.4869306883925
 31
0.0
  0
LINE
  5
D39
330
1F
100
AcDbEntity
  8
0
  6
Continuous
 62
     7
100
AcDbLine
 10
223.8063719508394
 20
557.9869306883924
 30
0.0
 11
223.8063719508394
 21
557.4869306883925
 31
0.0
  0
LINE
  5
D3A
330
1F
100
AcDbEntity
  8
0
  6
Continuous
 62
     7
100
AcDbLine
 10
221.8063719508394
 20
557.9869306883924
 30
0.0
 11
221.8063719508394
 21
557.4869306883925
 31
0.0
  0
LINE
  5
D3B
330
1F
100
AcDbEntity
  8
0
  6
Continuous
 62
     7
100
AcDbLine
 10
223.8063719508394
 20
557.6869306883925
 30
0.0
 11
231.8063719508391
 21
557.6869306883925
 31
0.0
  0
LINE
  5
D3C
330
1F
100
AcDbEntity
  8
0
  6
Continuous
 62
     7
100
AcDbLine
 10
223.3063719508395
 20
537.4869306883924
 30
0.0
 11
223.3063719508395
 21
537.4869306883924
 31
0.0
  0
LINE
  5
D3D
330
1F
100
AcDbEntity
  8
0
  6
Continuous
 62
     7
100
AcDbLine
 10
223.3063719508395
 20
535.9869306883925
 30
0.0
 11
223.3063719508395
 21
537.4869306883924
 31
0.0
  0
LINE
  5
D3E
330
1F
100
AcDbEntity
  8
0
  6
Continuous
 62
     7
100
AcDbLine
 10
224.8063719508394
 20
535.9869306883925
 30
0.0
 11
223.3063719508395
 21
535.9869306883925
 31
0.0
  0
LINE
  5
D3F
330
1F
100
AcDbEntity
  8
0
  6
Continuous
 62
     7
100
AcDbLine
 10
224.8063719508394
 20
534.9869306883923
 30
0.0
 11
224.8063719508394
 21
535.9869306883925
 31
0.0
  0
LINE
  5
D40
330
1F
100
AcDbEntity
  8
0
  6
Continuous
 62
     7
100
AcDbLine
 10
223.3063719508395
 20
534.9869306883923
 30
0.0
 11
224.8063719508394
 21
534.9869306883923
 31
0.0
  0
LINE
  5
D41
330
1F
100
AcDbEntity
  8
0
  6
Continuous
 62
     7
100
AcDbLine
 10
223.3063719508395
 20
533.4869306883924
 30
0.0
 11
223.3063719508395
 21
534.9869306883923
 31
0.0
  0
LINE
  5
D42
330
1F
100
AcDbEntity
  8
0
  6
Continuous
 62
     7
100
AcDbLine
 10
222.3063719508394
 20
533.4869306883924
 30
0.0
 11
223.3063719508395
 21
533.4869306883924
 31
0.0
  0
LINE
  5
D43
330
1F
100
AcDbEntity
  8
0
  6
Continuous
 62
     7
100
AcDbLine
 10
222.3063719508394
 20
534.9869306883923
 30
0.0
 11
222.3063719508394
 21
533.4869306883924
 31
0.0
  0
LINE
  5
D44
330
1F
100
AcDbEntity
  8
0
  6
Continuous
 62
     7
100
AcDbLine
 10
220.8063719508394
 20
534.9869306883923
 30
0.0
 11
222.3063719508394
 21
534.9869306883923
 31
0.0
  0
LINE
  5
D45
330
1F
100
AcDbEntity
  8
0
  6
Continuous
 62
     7
100
AcDbLine
 10
220.8063719508394
 20
535.9869306883925
 30
0.0
 11
220.8063719508394
 21
534.9869306883923
 31
0.0
  0
LINE
  5
D46
330
1F
100
AcDbEntity
  8
0
  6
Continuous
 62
     7
100
AcDbLine
 10
222.3063719508394
 20
535.9869306883925
 30
0.0
 11
220.8063719508394
 21
535.9869306883925
 31
0.0
  0
LINE
  5
D47
330
1F
100
AcDbEntity
  8
0
  6
Continuous
 62
     7
100
AcDbLine
 10
222.3063719508394
 20
537.4869306883924
 30
0.0
 11
222.3063719508394
 21
535.9869306883925
 31
0.0
  0
LINE
  5
D48
330
1F
100
AcDbEntity
  8
0
  6
Continuous
 62
     7
100
AcDbLine
 10
223.3063719508395
 20
537.4869306883924
 30
0.0
 11
222.3063719508394
 21
537.4869306883924
 31
0.0
  0
LINE
  5
D49
330
1F
100
AcDbEntity
  8
0
  6
Continuous
 62
     7
100
AcDbLine
 10
239.5563719508394
 20
558.4869306883924
 30
0.0
 11
239.5563719508394
 21
543.4869306883923
 31
0.0
  0
LINE
  5
D4A
330
1F
100
AcDbEntity
  8
0
  6
Continuous
 62
     7
100
AcDbLine
 10
239.0563719508394
 20
557.9869306883924
 30
0.0
 11
239.5563719508394
 21
558.4869306883924
 31
0.0
  0
LINE
  5
D4B
330
1F
100
AcDbEntity
  8
0
  6
Continuous
 62
     7
100
AcDbLine
 10
238.7563719508394
 20
557.6869306883925
 30
0.0
 11
237.8563719508394
 21
556.7869306883924
 31
0.0
  0
LINE
  5
D4C
330
1F
100
AcDbEntity
  8
0
  6
Continuous
 62
     7
100
AcDbLine
 10
239.0563719508394
 20
543.9869306883925
 30
0.0
 11
239.5563719508394
 21
543.4869306883923
 31
0.0
  0
LINE
  5
D4D
330
1F
100
AcDbEntity
  8
0
  6
Continuous
 62
     7
100
AcDbLine
 10
238.7563719508394
 20
544.2869306883924
 30
0.0
 11
237.8563719508394
 21
545.1869306883925
 31
0.0
  0
LINE
  5
D4E
330
1F
100
AcDbEntity
  8
0
  6
Continuous
 62
     7
100
AcDbLine
 10
237.8563719508394
 20
556.7869306883924
 30
0.0
 11
237.8563719508394
 21
545.1869306883925
 31
0.0
  0
LINE
  5
D4F
330
1F
100
AcDbEntity
  8
0
  6
Continuous
 62
     7
100
AcDbLine
 10
233.8063719508395
 20
544.4869306883925
 30
0.0
 11
233.8063719508395
 21
543.9869306883925
 31
0.0
  0
LINE
  5
D50
330
1F
100
AcDbEntity
  8
0
  6
Continuous
 62
     7
100
AcDbLine
 10
239.0563719508394
 20
557.9869306883924
 30
0.0
 11
239.0563719508394
 21
543.9869306883925
 31
0.0
  0
LINE
  5
D51
330
1F
100
AcDbEntity
  8
0
  6
Continuous
 62
     7
100
AcDbLine
 10
233.8063719508395
 20
544.2869306883924
 30
0.0
 11
238.7563719508394
 21
544.2869306883924
 31
0.0
  0
LINE
  5
D52
330
1F
100
AcDbEntity
  8
0
  6
Continuous
 62
     7
100
AcDbLine
 10
233.8063719508395
 20
557.9869306883924
 30
0.0
 11
233.8063719508395
 21
557.4869306883925
 31
0.0
  0
LINE
  5
D53
330
1F
100
AcDbEntity
  8
0
  6
Continuous
 62
     7
100
AcDbLine
 10
233.8063719508395
 20
557.6869306883925
 30
0.0
 11
238.7563719508394
 21
557.6869306883925
 31
0.0
  0
LINE
  5
D54
330
1F
100
AcDbEntity
  8
0
  6
Continuous
 62
     7
100
AcDbLine
 10
238.556371950839
 20
551.9869306883921
 30
0.0
 11
238.556371950839
 21
549.9869306883924
 31
0.0
  0
LINE
  5
D55
330
1F
100
AcDbEntity
  8
0
  6
Continuous
 62
     7
100
AcDbLine
 10
238.556371950839
 20
551.9869306883921
 30
0.0
 11
239.0563719508394
 21
551.9869306883921
 31
0.0
  0
LINE
  5
D56
330
1F
100
AcDbEntity
  8
0
  6
Continuous
 62
     7
100
AcDbLine
 10
238.556371950839
 20
549.9869306883924
 30
0.0
 11
239.0563719508394
 21
549.9869306883924
 31
0.0
  0
LINE
  5
D57
330
1F
100
AcDbEntity
  8
0
  6
Continuous
 62
     7
100
AcDbLine
 10
238.7563719508394
 20
557.6869306883925
 30
0.0
 11
238.7563719508394
 21
551.9869306883921
 31
0.0
  0
LINE
  5
D58
330
1F
100
AcDbEntity
  8
0
  6
Continuous
 62
     7
100
AcDbLine
 10
238.7563719508394
 20
549.9869306883924
 30
0.0
 11
238.7563719508394
 21
544.2869306883924
 31
0.0
  0
LINE
  5
D59
330
1F
100
AcDbEntity
  8
0
  6
Continuous
 62
     7
100
AcDbLine
 10
231.679188767656
 20
595.4704401979019
 30
0.0
 11
234.6531907696583
 21
595.4704401979019
 31
0.0
  0
LINE
  5
D5A
330
1F
100
AcDbEntity
  8
0
  6
Continuous
 62
     7
100
AcDbLine
 10
234.5318053842728
 20
596.2738195772812
 30
0.0
 11
231.9623759548431
 21
596.2738195772812
 31
0.0
  0
LINE
  5
D5B
330
1F
100
AcDbEntity
  8
0
  6
Continuous
 62
     7
100
AcDbLine
 10
232.4085921710596
 20
599.0852810387423
 30
0.0
 11
234.9780216004889
 21
599.0852810387423
 31
0.0
  0
LINE
  5
D5C
330
1F
100
AcDbEntity
  8
0
  6
Continuous
 62
     7
100
AcDbLine
 10
232.536051630519
 20
599.8885803380417
 30
0.0
 11
235.1054810599484
 21
599.8885803380417
 31
0.0
  0
LINE
  5
D5D
330
1F
100
AcDbEntity
  8
0
  6
Continuous
 62
     7
100
AcDbLine
 10
221.8063719508394
 20
575.9869306883923
 30
0.0
 11
221.8063719508394
 21
572.9869306883925
 31
0.0
  0
LINE
  5
D5E
330
1F
100
AcDbEntity
  8
0
  6
Continuous
 62
     7
100
AcDbLine
 10
223.8063719508394
 20
575.9869306883923
 30
0.0
 11
223.8063719508394
 21
572.9869306883925
 31
0.0
  0
LINE
  5
D5F
330
1F
100
AcDbEntity
  8
0
  6
Continuous
 62
     7
100
AcDbLine
 10
231.8063719508391
 20
575.9869306883923
 30
0.0
 11
231.8063719508391
 21
572.9869306883925
 31
0.0
  0
LINE
  5
D60
330
1F
100
AcDbEntity
  8
0
  6
Continuous
 62
     7
100
AcDbLine
 10
231.4401757546431
 20
595.7868586163202
 30
0.0
 11
231.9623759548431
 21
596.2738195772812
 31
0.0
  0
LINE
  5
D61
330
1F
100
AcDbEntity
  8
0
  6
Continuous
 62
     7
100
AcDbLine
 10
231.2012348137018
 20
596.1032790367406
 30
0.0
 11
231.679188767656
 21
595.4704401979019
 31
0.0
  0
LINE
  5
D62
330
1F
100
AcDbEntity
  8
0
  6
Continuous
 62
     7
100
AcDbLine
 10
231.6744900689573
 20
599.0852810387423
 30
0.0
 11
231.2012348137018
 21
596.1032790367406
 31
0.0
  0
LINE
  5
D63
330
1F
100
AcDbEntity
  8
0
  6
Continuous
 62
     7
100
AcDbLine
 10
231.9623759548431
 20
596.2738195772812
 30
0.0
 11
232.4085921710596
 21
599.0852810387423
 31
0.0
  0
LINE
  5
D64
330
1F
100
AcDbEntity
  8
0
  6
Continuous
 62
     7
100
AcDbLine
 10
232.1052348137023
 20
599.4869306883921
 30
0.0
 11
231.6744900689573
 21
599.0852810387423
 31
0.0
  0
LINE
  5
D65
330
1F
100
AcDbEntity
  8
0
  6
Continuous
 62
     7
100
AcDbLine
 10
231.8019495284168
 20
599.8885803380417
 30
0.0
 11
232.1052348137023
 21
599.4869306883921
 31
0.0
  0
LINE
  5
D66
330
1F
100
AcDbEntity
  8
0
  6
Continuous
 62
     7
100
AcDbLine
 10
232.1052348137023
 20
599.4869306883921
 30
0.0
 11
232.4085921710596
 21
599.0852810387423
 31
0.0
  0
LINE
  5
D67
330
1F
100
AcDbEntity
  8
0
  6
Continuous
 62
     7
100
AcDbLine
 10
232.536051630519
 20
599.8885803380417
 30
0.0
 11
232.1052348137023
 21
599.4869306883921
 31
0.0
  0
LINE
  5
D68
330
1F
100
AcDbEntity
  8
0
  6
Continuous
 62
     7
100
AcDbLine
 10
227.637969548437
 20
595.7359296873909
 30
0.0
 11
227.2318053842729
 21
596.2738195772812
 31
0.0
  0
LINE
  5
D69
330
1F
100
AcDbEntity
  8
0
  6
Continuous
 62
     7
100
AcDbLine
 10
224.1401757546431
 20
595.7868586163202
 30
0.0
 11
224.6623759548433
 21
596.2738195772812
 31
0.0
  0
LINE
  5
D6A
330
1F
100
AcDbEntity
  8
0
  6
Continuous
 62
     7
100
AcDbLine
 10
227.9227463252138
 20
596.0014211788826
 30
0.0
 11
228.4121237025911
 21
599.0852810387423
 31
0.0
  0
LINE
  5
D6B
330
1F
100
AcDbEntity
  8
0
  6
Continuous
 62
     7
100
AcDbLine
 10
227.3531907696578
 20
595.4704401979019
 30
0.0
 11
227.9227463252138
 21
596.0014211788826
 31
0.0
  0
LINE
  5
D6C
330
1F
100
AcDbEntity
  8
0
  6
Continuous
 62
     7
100
AcDbLine
 10
224.3791887676561
 20
595.4704401979019
 30
0.0
 11
227.3531907696578
 21
595.4704401979019
 31
0.0
  0
LINE
  5
D6D
330
1F
100
AcDbEntity
  8
0
  6
Continuous
 62
     7
100
AcDbLine
 10
223.901234813702
 20
596.1032790367406
 30
0.0
 11
224.3791887676561
 21
595.4704401979019
 31
0.0
  0
LINE
  5
D6E
330
1F
100
AcDbEntity
  8
0
  6
Continuous
 62
     7
100
AcDbLine
 10
224.3744900689574
 20
599.0852810387423
 30
0.0
 11
223.901234813702
 21
596.1032790367406
 31
0.0
  0
LINE
  5
D6F
330
1F
100
AcDbEntity
  8
0
  6
Continuous
 62
     7
100
AcDbLine
 10
224.6623759548433
 20
596.2738195772812
 30
0.0
 11
225.1085921710596
 21
599.0852810387423
 31
0.0
  0
LINE
  5
D70
330
1F
100
AcDbEntity
  8
0
  6
Continuous
 62
     7
100
AcDbLine
 10
227.678021600489
 20
599.0852810387423
 30
0.0
 11
227.2318053842729
 21
596.2738195772812
 31
0.0
  0
LINE
  5
D71
330
1F
100
AcDbEntity
  8
0
  6
Continuous
 62
     7
100
AcDbLine
 10
228.1088384173059
 20
599.4869306883921
 30
0.0
 11
228.4121237025911
 21
599.0852810387423
 31
0.0
  0
LINE
  5
D72
330
1F
100
AcDbEntity
  8
0
  6
Continuous
 62
     7
100
AcDbLine
 10
228.5395831620505
 20
599.8885803380417
 30
0.0
 11
228.1088384173059
 21
599.4869306883921
 31
0.0
  0
LINE
  5
D73
330
1F
100
AcDbEntity
  8
0
  6
Continuous
 62
     7
100
AcDbLine
 10
228.1088384173059
 20
599.4869306883921
 30
0.0
 11
227.678021600489
 21
599.0852810387423
 31
0.0
  0
LINE
  5
D74
330
1F
100
AcDbEntity
  8
0
  6
Continuous
 62
     7
100
AcDbLine
 10
227.8054810599484
 20
599.8885803380417
 30
0.0
 11
228.1088384173059
 21
599.4869306883921
 31
0.0
  0
LINE
  5
D75
330
1F
100
AcDbEntity
  8
0
  6
Continuous
 62
     7
100
AcDbLine
 10
224.8052348137024
 20
599.4869306883921
 30
0.0
 11
224.3744900689574
 21
599.0852810387423
 31
0.0
  0
LINE
  5
D76
330
1F
100
AcDbEntity
  8
0
  6
Continuous
 62
     7
100
AcDbLine
 10
224.5019495284167
 20
599.8885803380417
 30
0.0
 11
224.8052348137024
 21
599.4869306883921
 31
0.0
  0
LINE
  5
D77
330
1F
100
AcDbEntity
  8
0
  6
Continuous
 62
     7
100
AcDbLine
 10
224.8052348137024
 20
599.4869306883921
 30
0.0
 11
225.1085921710596
 21
599.0852810387423
 31
0.0
  0
LINE
  5
D78
330
1F
100
AcDbEntity
  8
0
  6
Continuous
 62
     7
100
AcDbLine
 10
225.2360516305191
 20
599.8885803380417
 30
0.0
 11
224.8052348137024
 21
599.4869306883921
 31
0.0
  0
LINE
  5
D79
330
1F
100
AcDbEntity
  8
0
  6
Continuous
 62
     7
100
AcDbLine
 10
227.2318053842729
 20
596.2738195772812
 30
0.0
 11
224.6623759548433
 21
596.2738195772812
 31
0.0
  0
LINE
  5
D7A
330
1F
100
AcDbEntity
  8
0
  6
Continuous
 62
     7
100
AcDbLine
 10
225.1085921710596
 20
599.0852810387423
 30
0.0
 11
227.678021600489
 21
599.0852810387423
 31
0.0
  0
LINE
  5
D7B
330
1F
100
AcDbEntity
  8
0
  6
Continuous
 62
     7
100
AcDbLine
 10
225.2360516305191
 20
599.8885803380417
 30
0.0
 11
227.8054810599484
 21
599.8885803380417
 31
0.0
  0
LINE
  5
D7C
330
1F
100
AcDbEntity
  8
0
  6
Continuous
 62
     7
100
AcDbLine
 10
220.337969548437
 20
595.7359296873909
 30
0.0
 11
219.9318053842727
 21
596.2738195772812
 31
0.0
  0
LINE
  5
D7D
330
1F
100
AcDbEntity
  8
0
  6
Continuous
 62
     7
100
AcDbLine
 10
216.8401757546433
 20
595.7868586163202
 30
0.0
 11
217.3623759548433
 21
596.2738195772812
 31
0.0
  0
LINE
  5
D7E
330
1F
100
AcDbEntity
  8
0
  6
Continuous
 62
     7
100
AcDbLine
 10
220.6227463252139
 20
596.0014211788826
 30
0.0
 11
221.1121237025913
 21
599.0852810387423
 31
0.0
  0
LINE
  5
D7F
330
1F
100
AcDbEntity
  8
0
  6
Continuous
 62
     7
100
AcDbLine
 10
220.0531907696583
 20
595.4704401979019
 30
0.0
 11
220.6227463252139
 21
596.0014211788826
 31
0.0
  0
LINE
  5
D80
330
1F
100
AcDbEntity
  8
0
  6
Continuous
 62
     7
100
AcDbLine
 10
217.0791887676561
 20
595.4704401979019
 30
0.0
 11
220.0531907696583
 21
595.4704401979019
 31
0.0
  0
LINE
  5
D81
330
1F
100
AcDbEntity
  8
0
  6
Continuous
 62
     7
100
AcDbLine
 10
216.6012348137019
 20
596.1032790367406
 30
0.0
 11
217.0791887676561
 21
595.4704401979019
 31
0.0
  0
LINE
  5
D82
330
1F
100
AcDbEntity
  8
0
  6
Continuous
 62
     7
100
AcDbLine
 10
217.0744900689574
 20
599.0852810387423
 30
0.0
 11
216.6012348137019
 21
596.1032790367406
 31
0.0
  0
LINE
  5
D83
330
1F
100
AcDbEntity
  8
0
  6
Continuous
 62
     7
100
AcDbLine
 10
217.3623759548433
 20
596.2738195772812
 30
0.0
 11
217.8085921710596
 21
599.0852810387423
 31
0.0
  0
LINE
  5
D84
330
1F
100
AcDbEntity
  8
0
  6
Continuous
 62
     7
100
AcDbLine
 10
220.378021600489
 20
599.0852810387423
 30
0.0
 11
219.9318053842727
 21
596.2738195772812
 31
0.0
  0
LINE
  5
D85
330
1F
100
AcDbEntity
  8
0
  6
Continuous
 62
     7
100
AcDbLine
 10
220.8088384173059
 20
599.4869306883921
 30
0.0
 11
221.1121237025913
 21
599.0852810387423
 31
0.0
  0
LINE
  5
D86
330
1F
100
AcDbEntity
  8
0
  6
Continuous
 62
     7
100
AcDbLine
 10
221.2395831620503
 20
599.8885803380417
 30
0.0
 11
220.8088384173059
 21
599.4869306883921
 31
0.0
  0
LINE
  5
D87
330
1F
100
AcDbEntity
  8
0
  6
Continuous
 62
     7
100
AcDbLine
 10
220.8088384173059
 20
599.4869306883921
 30
0.0
 11
220.378021600489
 21
599.0852810387423
 31
0.0
  0
LINE
  5
D88
330
1F
100
AcDbEntity
  8
0
  6
Continuous
 62
     7
100
AcDbLine
 10
220.5054810599484
 20
599.8885803380417
 30
0.0
 11
220.8088384173059
 21
599.4869306883921
 31
0.0
  0
LINE
  5
D89
330
1F
100
AcDbEntity
  8
0
  6
Continuous
 62
     7
100
AcDbLine
 10
217.5052348137023
 20
599.4869306883921
 30
0.0
 11
217.0744900689574
 21
599.0852810387423
 31
0.0
  0
LINE
  5
D8A
330
1F
100
AcDbEntity
  8
0
  6
Continuous
 62
     7
100
AcDbLine
 10
217.2019495284168
 20
599.8885803380417
 30
0.0
 11
217.5052348137023
 21
599.4869306883921
 31
0.0
  0
LINE
  5
D8B
330
1F
100
AcDbEntity
  8
0
  6
Continuous
 62
     7
100
AcDbLine
 10
217.5052348137023
 20
599.4869306883921
 30
0.0
 11
217.8085921710596
 21
599.0852810387423
 31
0.0
  0
LINE
  5
D8C
330
1F
100
AcDbEntity
  8
0
  6
Continuous
 62
     7
100
AcDbLine
 10
217.9360516305191
 20
599.8885803380417
 30
0.0
 11
217.5052348137023
 21
599.4869306883921
 31
0.0
  0
LINE
  5
D8D
330
1F
100
AcDbEntity
  8
0
  6
Continuous
 62
     7
100
AcDbLine
 10
219.9318053842727
 20
596.2738195772812
 30
0.0
 11
217.3623759548433
 21
596.2738195772812
 31
0.0
  0
LINE
  5
D8E
330
1F
100
AcDbEntity
  8
0
  6
Continuous
 62
     7
100
AcDbLine
 10
217.8085921710596
 20
599.0852810387423
 30
0.0
 11
220.378021600489
 21
599.0852810387423
 31
0.0
  0
LINE
  5
D8F
330
1F
100
AcDbEntity
  8
0
  6
Continuous
 62
     7
100
AcDbLine
 10
217.9360516305191
 20
599.8885803380417
 30
0.0
 11
220.5054810599484
 21
599.8885803380417
 31
0.0
  0
LINE
  5
D90
330
1F
100
AcDbEntity
  8
0
  6
Continuous
 62
     7
100
AcDbLine
 10
241.3063719508394
 20
584.4869306883923
 30
0.0
 11
241.3063719508394
 21
591.4869306883924
 31
0.0
  0
LINE
  5
D91
330
1F
100
AcDbEntity
  8
0
  6
Continuous
 62
     7
100
AcDbLine
 10
233.8063719508395
 20
575.9869306883923
 30
0.0
 11
233.8063719508395
 21
572.9869306883925
 31
0.0
  0
LINE
  5
D92
330
1F
100
AcDbEntity
  8
0
  6
Continuous
 62
     7
100
AcDbLine
 10
241.8063719508395
 20
575.9869306883923
 30
0.0
 11
241.8063719508395
 21
572.9869306883925
 31
0.0
  0
LINE
  5
D93
330
1F
100
AcDbEntity
  8
0
  6
Continuous
 62
     7
100
AcDbLine
 10
234.9379695484369
 20
595.7359296873909
 30
0.0
 11
234.5318053842728
 21
596.2738195772812
 31
0.0
  0
LINE
  5
D94
330
1F
100
AcDbEntity
  8
0
  6
Continuous
 62
     7
100
AcDbLine
 10
235.2227463252134
 20
596.0014211788826
 30
0.0
 11
235.7121237025912
 21
599.0852810387423
 31
0.0
  0
LINE
  5
D95
330
1F
100
AcDbEntity
  8
0
  6
Continuous
 62
     7
100
AcDbLine
 10
234.6531907696583
 20
595.4704401979019
 30
0.0
 11
235.2227463252134
 21
596.0014211788826
 31
0.0
  0
LINE
  5
D96
330
1F
100
AcDbEntity
  8
0
  6
Continuous
 62
     7
100
AcDbLine
 10
234.9780216004889
 20
599.0852810387423
 30
0.0
 11
234.5318053842728
 21
596.2738195772812
 31
0.0
  0
LINE
  5
D97
330
1F
100
AcDbEntity
  8
0
  6
Continuous
 62
     7
100
AcDbLine
 10
235.4088384173059
 20
599.4869306883921
 30
0.0
 11
235.7121237025912
 21
599.0852810387423
 31
0.0
  0
LINE
  5
D98
330
1F
100
AcDbEntity
  8
0
  6
Continuous
 62
     7
100
AcDbLine
 10
235.8395831620505
 20
599.8885803380417
 30
0.0
 11
235.4088384173059
 21
599.4869306883921
 31
0.0
  0
LINE
  5
D99
330
1F
100
AcDbEntity
  8
0
  6
Continuous
 62
     7
100
AcDbLine
 10
235.4088384173059
 20
599.4869306883921
 30
0.0
 11
234.9780216004889
 21
599.0852810387423
 31
0.0
  0
LINE
  5
D9A
330
1F
100
AcDbEntity
  8
0
  6
Continuous
 62
     7
100
AcDbLine
 10
235.1054810599484
 20
599.8885803380417
 30
0.0
 11
235.4088384173059
 21
599.4869306883921
 31
0.0
  0
ARC
  5
D9B
330
1F
100
AcDbEntity
  8
0
  6
Continuous
 62
     7
100
AcDbCircle
 10
215.3063716944834
 20
586.4869304320367
 30
10.59933933933931
 40
2.000000256355914
100
AcDbArc
 50
89.99999265594395
 51
0.0000073440544439
  0
ARC
  5
D9C
330
1F
100
AcDbEntity
  8
0
  6
Continuous
 62
     7
100
AcDbCircle
 10
215.3063734449895
 20
586.4869321825428
 30
10.59933933933931
 40
1.999998505850228
100
AcDbArc
 50
359.9999571957112
 51
90.00004280428553
  0
ARC
  5
D9D
330
1F
100
AcDbEntity
  8
0
  6
Continuous
 62
     7
100
AcDbCircle
 10
217.8063719508394
 20
572.9869306883925
 30
10.59933933933931
 40
3.999999999999971
100
AcDbArc
 50
180.0
 51
0.0
  0
ARC
  5
D9E
330
1F
100
AcDbEntity
  8
0
  6
Continuous
 62
     7
100
AcDbCircle
 10
217.8063719508394
 20
575.9869306883923
 30
10.59933933933931
 40
3.999999999999971
100
AcDbArc
 50
0.0
 51
180.0
  0
ARC
  5
D9F
330
1F
100
AcDbEntity
  8
0
  6
DASHED
 62
     7
 48
4.0
100
AcDbCircle
 10
217.8063715022164
 20
574.4869302397693
 30
10.59933933933931
 40
3.500000448622818
100
AcDbArc
 50
89.99999265594556
 51
0.0000073440544439
  0
ARC
  5
DA0
330
1F
100
AcDbEntity
  8
0
  6
Continuous
 62
     7
100
AcDbCircle
 10
215.3063716944834
 20
586.4869304320367
 30
10.59933933933931
 40
2.000000256355914
100
AcDbArc
 50
89.99999265594395
 51
0.0000073440544439
  0
ARC
  5
DA1
330
1F
100
AcDbEntity
  8
0
  6
Continuous
 62
     7
100
AcDbCircle
 10
215.3063734449895
 20
586.4869321825428
 30
10.59933933933931
 40
1.999998505850228
100
AcDbArc
 50
359.9999571957112
 51
90.00004280428553
  0
ARC
  5
DA2
330
1F
100
AcDbEntity
  8
0
  6
Continuous
 62
     7
100
AcDbCircle
 10
199.8063704566891
 20
534.4869291942418
 30
10.59933933933931
 40
1.999998505850228
100
AcDbArc
 50
179.9999571957112
 51
270.0000428042871
  0
ARC
  5
DA3
330
1F
100
AcDbEntity
  8
0
  6
Continuous
 62
     7
100
AcDbCircle
 10
201.806371203764
 20
563.9869299413175
 30
10.59933933933931
 40
0.9999992529251143
100
AcDbArc
 50
179.9999571957144
 51
270.0000428042871
  0
LINE
  5
DA4
330
1F
100
AcDbEntity
  8
0
  6
Continuous
 62
     7
100
AcDbLine
 10
209.8063719508393
 20
586.4869306883925
 30
10.59933933933931
 11
209.8063719508393
 21
586.4869306883925
 31
10.59933933933931
  0
ARC
  5
DA5
330
1F
100
AcDbEntity
  8
0
  6
Continuous
 62
     7
100
AcDbCircle
 10
207.8063716944833
 20
586.4869304320367
 30
10.59933933933931
 40
2.000000256355914
100
AcDbArc
 50
89.9999926559423
 51
0.0000073440544439
  0
ARC
  5
DA6
330
1F
100
AcDbEntity
  8
0
  6
Continuous
 62
     7
100
AcDbCircle
 10
207.8063734449894
 20
586.4869321825429
 30
10.59933933933931
 40
1.999998505850113
100
AcDbArc
 50
359.9999571957078
 51
90.00004280428392
  0
ARC
  5
DA7
330
1F
100
AcDbEntity
  8
0
  6
Continuous
 62
     7
100
AcDbCircle
 10
212.8063712037639
 20
584.4869299413167
 30
10.59933933933931
 40
0.9999992529250574
100
AcDbArc
 50
179.9999571957079
 51
270.0000428042871
  0
ARC
  5
DA8
330
1F
100
AcDbEntity
  8
0
  6
Continuous
 62
     7
100
AcDbCircle
 10
212.8063712037639
 20
591.4869314354673
 30
10.59933933933931
 40
0.9999992529250574
100
AcDbArc
 50
89.99995719571279
 51
180.0000428042888
  0
ARC
  5
DA9
330
1F
100
AcDbEntity
  8
0
  6
Continuous
 62
     7
100
AcDbCircle
 10
207.8063719508394
 20
572.9869306883925
 30
10.59933933933931
 40
3.999999999999971
100
AcDbArc
 50
180.0
 51
0.0
  0
ARC
  5
DAA
330
1F
100
AcDbEntity
  8
0
  6
Continuous
 62
     7
100
AcDbCircle
 10
207.8063719508394
 20
575.9869306883923
 30
10.59933933933931
 40
4.000000000000031
100
AcDbArc
 50
0.0
 51
180.0
  0
LINE
  5
DAB
330
1F
100
AcDbEntity
  8
0
  6
DASHED
 62
     7
 48
4.0
100
AcDbLine
 10
211.3063719508394
 20
574.4869306883924
 30
10.59933933933931
 11
211.3063719508394
 21
574.4869306883924
 31
10.59933933933931
  0
ARC
  5
DAC
330
1F
100
AcDbEntity
  8
0
  6
DASHED
 62
     7
 48
4.0
100
AcDbCircle
 10
207.8063715022164
 20
574.4869302397693
 30
10.59933933933931
 40
3.500000448622818
100
AcDbArc
 50
89.99999265594556
 51
0.0000073440544439
  0
ARC
  5
DAD
330
1F
100
AcDbEntity
  8
0
  6
DASHED
 62
     7
 48
4.0
100
AcDbCircle
 10
207.8063745656024
 20
574.4869333031556
 30
10.59933933933931
 40
3.499997385237866
100
AcDbArc
 50
359.9999571957143
 51
90.00004280428717
  0
LINE
  5
DAE
330
1F
100
AcDbEntity
  8
0
  6
Continuous
 62
     7
100
AcDbLine
 10
209.8063719508393
 20
586.4869306883925
 30
10.59933933933931
 11
209.8063719508393
 21
586.4869306883925
 31
10.59933933933931
  0
ARC
  5
DAF
330
1F
100
AcDbEntity
  8
0
  6
Continuous
 62
     7
100
AcDbCircle
 10
207.8063716944833
 20
586.4869304320367
 30
10.59933933933931
 40
2.000000256355914
100
AcDbArc
 50
89.9999926559423
 51
0.0000073440544439
  0
ARC
  5
DB0
330
1F
100
AcDbEntity
  8
0
  6
Continuous
 62
     7
100
AcDbCircle
 10
207.8063734449894
 20
586.4869321825429
 30
10.59933933933931
 40
1.999998505850113
100
AcDbArc
 50
359.9999571957078
 51
90.00004280428392
  0
ARC
  5
DB1
330
1F
100
AcDbEntity
  8
0
  6
Continuous
 62
     7
100
AcDbCircle
 10
201.806371203764
 20
563.9869299413175
 30
10.59933933933931
 40
0.9999992529251143
100
AcDbArc
 50
179.9999571957144
 51
270.0000428042871
  0
ARC
  5
DB2
330
1F
100
AcDbEntity
  8
0
  6
Continuous
 62
     7
100
AcDbCircle
 10
209.3063712037642
 20
595.4869299413167
 30
10.59933933933931
 40
0.9999992529251143
100
AcDbArc
 50
179.9999571957144
 51
270.0000428042871
  0
LINE
  5
DB3
330
1F
100
AcDbEntity
  8
0
  6
Continuous
 62
     7
100
AcDbLine
 10
214.7151747536419
 20
595.9432450027066
 30
10.59933933933931
 11
214.7151747536419
 21
595.9432450027066
 31
10.59933933933931
  0
ARC
  5
DB4
330
1F
100
AcDbEntity
  8
0
  6
Continuous
 62
     7
100
AcDbCircle
 10
214.3295010305333
 20
595.9432449532719
 30
10.59933933933931
 40
0.3856737231085057
100
AcDbArc
 50
89.99999265595043
 51
0.0000073440577008
  0
ARC
  5
DB5
330
1F
100
AcDbEntity
  8
0
  6
Continuous
 62
     7
100
AcDbCircle
 10
214.3295013680953
 20
595.9432452908339
 30
10.59933933933931
 40
0.3856733855464993
100
AcDbArc
 50
359.9999571957209
 51
90.00004280429529
  0
ARC
  5
DB6
330
1F
100
AcDbEntity
  8
0
  6
Continuous
 62
     7
100
AcDbCircle
 10
222.8063719508393
 20
535.4869306883925
 30
10.59933933933931
 40
3.999999999999916
100
AcDbArc
 50
0.0
 51
180.0
  0
LINE
  5
DB7
330
1F
100
AcDbEntity
  8
0
  6
Continuous
 62
     7
100
AcDbLine
 10
225.5563719508395
 20
535.4869306883925
 30
10.59933933933931
 11
225.5563719508395
 21
535.4869306883925
 31
10.59933933933931
  0
ARC
  5
DB8
330
1F
100
AcDbEntity
  8
0
  6
Continuous
 62
     7
100
AcDbCircle
 10
222.8063715983501
 20
535.4869303359033
 30
10.59933933933931
 40
2.750000352489309
100
AcDbArc
 50
89.99999265594556
 51
0.0000073440544439
  0
ARC
  5
DB9
330
1F
100
AcDbEntity
  8
0
  6
Continuous
 62
     7
100
AcDbCircle
 10
222.8063740052955
 20
535.4869327428493
 30
10.59933933933931
 40
2.749997945544018
100
AcDbArc
 50
359.9999571957112
 51
90.00004280428717
  0
ARC
  5
DBA
330
1F
100
AcDbEntity
  8
0
  6
Continuous
 62
     7
100
AcDbCircle
 10
245.8063734449893
 20
534.4869291942418
 30
10.59933933933931
 40
1.999998505850228
100
AcDbArc
 50
269.9999571957127
 51
0.0000428042888088
  0
LINE
  5
DBB
330
1F
100
AcDbEntity
  8
0
  6
Continuous
 62
     7
100
AcDbLine
 10
217.3063719508395
 20
586.4869306883925
 30
10.59933933933931
 11
217.3063719508395
 21
586.4869306883925
 31
10.59933933933931
  0
LINE
  5
DBC
330
1F
100
AcDbEntity
  8
0
  6
Continuous
 62
     7
100
AcDbLine
 10
224.8063719508394
 20
586.4869306883925
 30
10.59933933933931
 11
224.8063719508394
 21
586.4869306883925
 31
10.59933933933931
  0
ARC
  5
DBD
330
1F
100
AcDbEntity
  8
0
  6
Continuous
 62
     7
100
AcDbCircle
 10
222.8063716944834
 20
586.4869304320367
 30
10.59933933933931
 40
2.000000256355914
100
AcDbArc
 50
89.99999265594556
 51
0.0000073440544439
  0
ARC
  5
DBE
330
1F
100
AcDbEntity
  8
0
  6
Continuous
 62
     7
100
AcDbCircle
 10
222.8063734449898
 20
586.4869321825428
 30
10.59933933933931
 40
1.99999850585017
100
AcDbArc
 50
359.9999571957112
 51
90.00004280428717
  0
LINE
  5
DBF
330
1F
100
AcDbEntity
  8
0
  6
Continuous
 62
     7
100
AcDbLine
 10
232.3063719508393
 20
586.4869306883925
 30
10.59933933933931
 11
232.3063719508393
 21
586.4869306883925
 31
10.59933933933931
  0
ARC
  5
DC0
330
1F
100
AcDbEntity
  8
0
  6
Continuous
 62
     7
100
AcDbCircle
 10
230.3063716944834
 20
586.4869304320367
 30
10.59933933933931
 40
2.000000256355914
100
AcDbArc
 50
89.9999926559423
 51
0.0000073440544439
  0
ARC
  5
DC1
330
1F
100
AcDbEntity
  8
0
  6
Continuous
 62
     7
100
AcDbCircle
 10
230.3063734449894
 20
586.4869321825429
 30
10.59933933933931
 40
1.999998505850113
100
AcDbArc
 50
359.9999571957078
 51
90.00004280428392
  0
ARC
  5
DC2
330
1F
100
AcDbEntity
  8
0
  6
Continuous
 62
     7
100
AcDbCircle
 10
227.8063719508393
 20
572.9869306883925
 30
10.59933933933931
 40
3.999999999999861
100
AcDbArc
 50
180.0
 51
0.0
  0
ARC
  5
DC3
330
1F
100
AcDbEntity
  8
0
  6
Continuous
 62
     7
100
AcDbCircle
 10
227.8063719508393
 20
575.9869306883923
 30
10.59933933933931
 40
3.999999999999916
100
AcDbArc
 50
0.0
 51
180.0
  0
LINE
  5
DC4
330
1F
100
AcDbEntity
  8
0
  6
DASHED
 62
     7
 48
4.0
100
AcDbLine
 10
231.3063719508393
 20
574.4869306883924
 30
10.59933933933931
 11
231.3063719508393
 21
574.4869306883924
 31
10.59933933933931
  0
ARC
  5
DC5
330
1F
100
AcDbEntity
  8
0
  6
DASHED
 62
     7
 48
4.0
100
AcDbCircle
 10
227.8063715022164
 20
574.4869302397693
 30
10.59933933933931
 40
3.500000448622701
100
AcDbArc
 50
89.99999265594395
 51
0.000007344051187
  0
ARC
  5
DC6
330
1F
100
AcDbEntity
  8
0
  6
DASHED
 62
     7
 48
4.0
100
AcDbCircle
 10
227.8063745656019
 20
574.4869333031556
 30
10.59933933933931
 40
3.499997385237756
100
AcDbArc
 50
359.9999571957112
 51
90.00004280428553
  0
LINE
  5
DC7
330
1F
100
AcDbEntity
  8
0
  6
DASHED
 62
     7
 48
4.0
100
AcDbLine
 10
221.3063719508395
 20
574.4869306883924
 30
10.59933933933931
 11
221.3063719508395
 21
574.4869306883924
 31
10.59933933933931
  0
ARC
  5
DC8
330
1F
100
AcDbEntity
  8
0
  6
DASHED
 62
     7
 48
4.0
100
AcDbCircle
 10
217.8063745656024
 20
574.4869333031556
 30
10.59933933933931
 40
3.499997385237866
100
AcDbArc
 50
359.9999571957143
 51
90.00004280428717
  0
LINE
  5
DC9
330
1F
100
AcDbEntity
  8
0
  6
Continuous
 62
     7
100
AcDbLine
 10
232.3063719508393
 20
586.4869306883925
 30
10.59933933933931
 11
232.3063719508393
 21
586.4869306883925
 31
10.59933933933931
  0
ARC
  5
DCA
330
1F
100
AcDbEntity
  8
0
  6
Continuous
 62
     7
100
AcDbCircle
 10
230.3063716944834
 20
586.4869304320367
 30
10.59933933933931
 40
2.000000256355914
100
AcDbArc
 50
89.9999926559423
 51
0.0000073440544439
  0
ARC
  5
DCB
330
1F
100
AcDbEntity
  8
0
  6
Continuous
 62
     7
100
AcDbCircle
 10
230.3063734449894
 20
586.4869321825429
 30
10.59933933933931
 40
1.999998505850113
100
AcDbArc
 50
359.9999571957078
 51
90.00004280428392
  0
LINE
  5
DCC
330
1F
100
AcDbEntity
  8
0
  6
Continuous
 62
     7
100
AcDbLine
 10
224.8063719508394
 20
586.4869306883925
 30
10.59933933933931
 11
224.8063719508394
 21
586.4869306883925
 31
10.59933933933931
  0
ARC
  5
DCD
330
1F
100
AcDbEntity
  8
0
  6
Continuous
 62
     7
100
AcDbCircle
 10
222.8063716944834
 20
586.4869304320367
 30
10.59933933933931
 40
2.000000256355914
100
AcDbArc
 50
89.99999265594556
 51
0.0000073440544439
  0
ARC
  5
DCE
330
1F
100
AcDbEntity
  8
0
  6
Continuous
 62
     7
100
AcDbCircle
 10
222.8063734449898
 20
586.4869321825428
 30
10.59933933933931
 40
1.99999850585017
100
AcDbArc
 50
359.9999571957112
 51
90.00004280428717
  0
LINE
  5
DCF
330
1F
100
AcDbEntity
  8
0
  6
Continuous
 62
     7
100
AcDbLine
 10
217.3063719508395
 20
586.4869306883925
 30
10.59933933933931
 11
217.3063719508395
 21
586.4869306883925
 31
10.59933933933931
  0
LINE
  5
DD0
330
1F
100
AcDbEntity
  8
0
  6
Continuous
 62
     7
100
AcDbLine
 10
229.3151747536418
 20
595.9432450027066
 30
10.59933933933931
 11
229.3151747536418
 21
595.9432450027066
 31
10.59933933933931
  0
ARC
  5
DD1
330
1F
100
AcDbEntity
  8
0
  6
Continuous
 62
     7
100
AcDbCircle
 10
228.9295010305333
 20
595.9432449532719
 30
10.59933933933931
 40
0.3856737231085057
100
AcDbArc
 50
89.9999926559423
 51
0.0000073440577008
  0
ARC
  5
DD2
330
1F
100
AcDbEntity
  8
0
  6
Continuous
 62
     7
100
AcDbCircle
 10
228.9295013680955
 20
595.9432452908339
 30
10.59933933933931
 40
0.3856733855465564
100
AcDbArc
 50
359.9999571957209
 51
90.00004280428717
  0
LINE
  5
DD3
330
1F
100
AcDbEntity
  8
0
  6
Continuous
 62
     7
100
AcDbLine
 10
222.0151747536418
 20
595.9432450027066
 30
10.59933933933931
 11
222.0151747536418
 21
595.9432450027066
 31
10.59933933933931
  0
ARC
  5
DD4
330
1F
100
AcDbEntity
  8
0
  6
Continuous
 62
     7
100
AcDbCircle
 10
221.629501030533
 20
595.9432449532719
 30
10.59933933933931
 40
0.3856737231085057
100
AcDbArc
 50
89.99999265593414
 51
0.0000073440577008
  0
ARC
  5
DD5
330
1F
100
AcDbEntity
  8
0
  6
Continuous
 62
     7
100
AcDbCircle
 10
221.6295013680956
 20
595.9432452908339
 30
10.59933933933931
 40
0.3856733855464425
100
AcDbArc
 50
359.9999571957046
 51
90.0000428042774
  0
LINE
  5
DD6
330
1F
100
AcDbEntity
  8
0
  6
Continuous
 62
     7
100
AcDbLine
 10
239.8063719508395
 20
586.4869306883925
 30
10.59933933933931
 11
239.8063719508395
 21
586.4869306883925
 31
10.59933933933931
  0
ARC
  5
DD7
330
1F
100
AcDbEntity
  8
0
  6
Continuous
 62
     7
100
AcDbCircle
 10
237.8063716944834
 20
586.4869304320367
 30
10.59933933933931
 40
2.000000256355914
100
AcDbArc
 50
89.99999265594556
 51
0.0000073440544439
  0
ARC
  5
DD8
330
1F
100
AcDbEntity
  8
0
  6
Continuous
 62
     7
100
AcDbCircle
 10
237.8063734449895
 20
586.4869321825428
 30
10.59933933933931
 40
1.99999850585017
100
AcDbArc
 50
359.9999571957112
 51
90.00004280428717
  0
ARC
  5
DD9
330
1F
100
AcDbEntity
  8
0
  6
Continuous
 62
     7
100
AcDbCircle
 10
243.806372697914
 20
563.9869299413175
 30
10.59933933933931
 40
0.9999992529251711
100
AcDbArc
 50
269.9999571957127
 51
0.0000428042855519
  0
ARC
  5
DDA
330
1F
100
AcDbEntity
  8
0
  6
Continuous
 62
     7
100
AcDbCircle
 10
240.3063726979143
 20
584.4869299413167
 30
10.59933933933931
 40
0.9999992529250574
100
AcDbArc
 50
269.999957195716
 51
0.0000428042920657
  0
ARC
  5
DDB
330
1F
100
AcDbEntity
  8
0
  6
Continuous
 62
     7
100
AcDbCircle
 10
240.3063726979143
 20
591.4869314354673
 30
10.59933933933931
 40
0.9999992529251143
100
AcDbArc
 50
359.9999571957078
 51
90.00004280428392
  0
ARC
  5
DDC
330
1F
100
AcDbEntity
  8
0
  6
Continuous
 62
     7
100
AcDbCircle
 10
237.8063719508395
 20
572.9869306883925
 30
10.59933933933931
 40
4.000000000000031
100
AcDbArc
 50
180.0
 51
0.0
  0
ARC
  5
DDD
330
1F
100
AcDbEntity
  8
0
  6
Continuous
 62
     7
100
AcDbCircle
 10
237.8063719508395
 20
575.9869306883923
 30
10.59933933933931
 40
3.999999999999971
100
AcDbArc
 50
0.0
 51
180.0
  0
ARC
  5
DDE
330
1F
100
AcDbEntity
  8
0
  6
Continuous
 62
     7
100
AcDbCircle
 10
243.806372697914
 20
563.9869299413175
 30
10.59933933933931
 40
0.9999992529251711
100
AcDbArc
 50
269.9999571957127
 51
0.0000428042855519
  0
LINE
  5
DDF
330
1F
100
AcDbEntity
  8
0
  6
DASHED
 62
     7
 48
4.0
100
AcDbLine
 10
241.3063719508394
 20
574.4869306883924
 30
10.59933933933931
 11
241.3063719508394
 21
574.4869306883924
 31
10.59933933933931
  0
ARC
  5
DE0
330
1F
100
AcDbEntity
  8
0
  6
DASHED
 62
     7
 48
4.0
100
AcDbCircle
 10
237.8063715022164
 20
574.4869302397693
 30
10.59933933933931
 40
3.500000448622818
100
AcDbArc
 50
89.99999265594556
 51
0.0000073440544439
  0
ARC
  5
DE1
330
1F
100
AcDbEntity
  8
0
  6
DASHED
 62
     7
 48
4.0
100
AcDbCircle
 10
237.8063745656024
 20
574.4869333031556
 30
10.59933933933931
 40
3.499997385237814
100
AcDbArc
 50
359.9999571957143
 51
90.00004280428717
  0
LINE
  5
DE2
330
1F
100
AcDbEntity
  8
0
  6
Continuous
 62
     7
100
AcDbLine
 10
239.8063719508395
 20
586.4869306883925
 30
10.59933933933931
 11
239.8063719508395
 21
586.4869306883925
 31
10.59933933933931
  0
ARC
  5
DE3
330
1F
100
AcDbEntity
  8
0
  6
Continuous
 62
     7
100
AcDbCircle
 10
237.8063716944834
 20
586.4869304320367
 30
10.59933933933931
 40
2.000000256355914
100
AcDbArc
 50
89.99999265594556
 51
0.0000073440544439
  0
ARC
  5
DE4
330
1F
100
AcDbEntity
  8
0
  6
Continuous
 62
     7
100
AcDbCircle
 10
237.8063734449895
 20
586.4869321825428
 30
10.59933933933931
 40
1.99999850585017
100
AcDbArc
 50
359.9999571957112
 51
90.00004280428717
  0
ARC
  5
DE5
330
1F
100
AcDbEntity
  8
0
  6
Continuous
 62
     7
100
AcDbCircle
 10
236.3063726979143
 20
595.4869299413167
 30
10.59933933933931
 40
0.9999992529251711
100
AcDbArc
 50
269.9999571957095
 51
0.0000428042855519
  0
LINE
  5
DE6
330
1F
100
AcDbEntity
  8
0
  6
Continuous
 62
     7
100
AcDbLine
 10
236.615174753642
 20
595.9432450027066
 30
10.59933933933931
 11
236.615174753642
 21
595.9432450027066
 31
10.59933933933931
  0
ARC
  5
DE7
330
1F
100
AcDbEntity
  8
0
  6
Continuous
 62
     7
100
AcDbCircle
 10
236.2295010305329
 20
595.9432449532719
 30
10.59933933933931
 40
0.3856737231085057
100
AcDbArc
 50
89.99999265593414
 51
0.0000073440577008
  0
ARC
  5
DE8
330
1F
100
AcDbEntity
  8
0
  6
Continuous
 62
     7
100
AcDbCircle
 10
236.2295013680955
 20
595.9432452908339
 30
10.59933933933931
 40
0.3856733855464425
100
AcDbArc
 50
359.9999571957046
 51
90.0000428042774
  0
LINE
  5
DE9
330
1F
100
AcDbEntity
  8
0
  6
Continuous
 62
     7
100
AcDbLine
 10
199.8063719508395
 20
636.4869306883924
 30
0.0
 11
245.8063719508394
 21
636.4869306883924
 31
0.0
  0
LINE
  5
DEA
330
1F
100
AcDbEntity
  8
0
  6
Continuous
 62
     7
100
AcDbLine
 10
201.8063719508394
 20
627.4869306883921
 30
0.0
 11
243.8063719508395
 21
627.4869306883921
 31
0.0
  0
LINE
  5
DEB
330
1F
100
AcDbEntity
  8
0
  6
Continuous
 62
     7
100
AcDbLine
 10
201.8063719508394
 20
627.4869306883921
 30
0.0
 11
243.8063719508395
 21
627.4869306883921
 31
0.0
  0
LINE
  5
DEC
330
1F
100
AcDbEntity
  8
0
  6
Continuous
 62
     7
100
AcDbLine
 10
209.3063719508394
 20
619.8869306883924
 30
0.0
 11
236.306371950839
 21
619.8869306883924
 31
0.0
  0
LINE
  5
DED
330
1F
100
AcDbEntity
  8
0
  6
Continuous
 62
     7
100
AcDbLine
 10
209.3063719508394
 20
609.8869306883925
 30
0.0
 11
236.306371950839
 21
609.8869306883925
 31
0.0
  0
LINE
  5
DEE
330
1F
100
AcDbEntity
  8
0
  6
Continuous
 62
     7
100
AcDbLine
 10
209.3063719508394
 20
604.4869306883923
 30
0.0
 11
236.306371950839
 21
604.4869306883923
 31
0.0
  0
LINE
  5
DEF
330
1F
100
AcDbEntity
  8
0
  6
Continuous
 62
     7
100
AcDbLine
 10
208.3063719508394
 20
618.8869306883924
 30
0.0
 11
208.3063719508394
 21
610.8869306883924
 31
0.0
  0
LINE
  5
DF0
330
1F
100
AcDbEntity
  8
0
  6
Continuous
 62
     7
100
AcDbLine
 10
213.0379695484371
 20
611.1359296873914
 30
0.0
 11
212.6318053842729
 21
611.6738195772812
 31
0.0
  0
LINE
  5
DF1
330
1F
100
AcDbEntity
  8
0
  6
Continuous
 62
     7
100
AcDbLine
 10
209.5401757546432
 20
611.1868586163202
 30
0.0
 11
210.0623759548434
 21
611.6738195772812
 31
0.0
  0
LINE
  5
DF2
330
1F
100
AcDbEntity
  8
0
  6
Continuous
 62
     7
100
AcDbLine
 10
210.7145661450334
 20
618.5870027604644
 30
0.0
 11
211.082195774663
 21
618.1001238815854
 31
0.0
  0
LINE
  5
DF3
330
1F
100
AcDbEntity
  8
0
  6
Continuous
 62
     7
100
AcDbLine
 10
214.1087563352237
 20
618.5263521098135
 30
0.0
 11
213.6516972761643
 21
618.1001238815854
 31
0.0
  0
LINE
  5
DF4
330
1F
100
AcDbEntity
  8
0
  6
Continuous
 62
     7
100
AcDbLine
 10
213.3227463252139
 20
611.401421178883
 30
0.0
 11
213.8121237025911
 21
614.4852810387424
 31
0.0
  0
LINE
  5
DF5
330
1F
100
AcDbEntity
  8
0
  6
Continuous
 62
     7
100
AcDbLine
 10
212.7531907696579
 20
610.8704401979017
 30
0.0
 11
213.3227463252139
 21
611.401421178883
 31
0.0
  0
LINE
  5
DF6
330
1F
100
AcDbEntity
  8
0
  6
Continuous
 62
     7
100
AcDbLine
 10
209.7791887676561
 20
610.8704401979017
 30
0.0
 11
212.7531907696579
 21
610.8704401979017
 31
0.0
  0
LINE
  5
DF7
330
1F
100
AcDbEntity
  8
0
  6
Continuous
 62
     7
100
AcDbLine
 10
209.301234813702
 20
611.5032790367408
 30
0.0
 11
209.7791887676561
 21
610.8704401979017
 31
0.0
  0
LINE
  5
DF8
330
1F
100
AcDbEntity
  8
0
  6
Continuous
 62
     7
100
AcDbLine
 10
209.7744900689574
 20
614.4852810387424
 30
0.0
 11
209.301234813702
 21
611.5032790367408
 31
0.0
  0
LINE
  5
DF9
330
1F
100
AcDbEntity
  8
0
  6
Continuous
 62
     7
100
AcDbLine
 10
214.3936071860744
 20
618.1492049626669
 30
0.0
 11
213.9395831620503
 21
615.2885803380418
 31
0.0
  0
LINE
  5
DFA
330
1F
100
AcDbEntity
  8
0
  6
Continuous
 62
     7
100
AcDbLine
 10
213.8239795584469
 20
618.9034211788825
 30
0.0
 11
214.3936071860744
 21
618.1492049626669
 31
0.0
  0
LINE
  5
DFB
330
1F
100
AcDbEntity
  8
0
  6
Continuous
 62
     7
100
AcDbLine
 10
211.053927506395
 20
618.9034211788825
 30
0.0
 11
213.8239795584469
 21
618.9034211788825
 31
0.0
  0
LINE
  5
DFC
330
1F
100
AcDbEntity
  8
0
  6
Continuous
 62
     7
100
AcDbLine
 10
210.3751327115999
 20
618.2705022599638
 30
0.0
 11
211.053927506395
 21
618.9034211788825
 31
0.0
  0
LINE
  5
DFD
330
1F
100
AcDbEntity
  8
0
  6
Continuous
 62
     7
100
AcDbLine
 10
209.9019495284168
 20
615.2885803380418
 30
0.0
 11
210.3751327115999
 21
618.2705022599638
 31
0.0
  0
LINE
  5
DFE
330
1F
100
AcDbEntity
  8
0
  6
Continuous
 62
     7
100
AcDbLine
 10
210.6360516305189
 20
615.2885803380418
 30
0.0
 11
211.082195774663
 21
618.1001238815854
 31
0.0
  0
LINE
  5
DFF
330
1F
100
AcDbEntity
  8
0
  6
Continuous
 62
     7
100
AcDbLine
 10
210.0623759548434
 20
611.6738195772812
 30
0.0
 11
210.5085921710596
 21
614.4852810387424
 31
0.0
  0
LINE
  5
E00
330
1F
100
AcDbEntity
  8
0
  6
Continuous
 62
     7
100
AcDbLine
 10
213.078021600489
 20
614.4852810387424
 30
0.0
 11
212.6318053842729
 21
611.6738195772812
 31
0.0
  0
LINE
  5
E01
330
1F
100
AcDbEntity
  8
0
  6
Continuous
 62
     7
100
AcDbLine
 10
213.6516972761643
 20
618.1001238815854
 30
0.0
 11
213.2054810599484
 21
615.2885803380418
 31
0.0
  0
LINE
  5
E02
330
1F
100
AcDbEntity
  8
0
  6
Continuous
 62
     7
100
AcDbLine
 10
213.5088384173057
 20
614.8869306883924
 30
0.0
 11
213.8121237025911
 21
614.4852810387424
 31
0.0
  0
LINE
  5
E03
330
1F
100
AcDbEntity
  8
0
  6
Continuous
 62
     7
100
AcDbLine
 10
213.9395831620503
 20
615.2885803380418
 30
0.0
 11
213.5088384173057
 21
614.8869306883924
 31
0.0
  0
LINE
  5
E04
330
1F
100
AcDbEntity
  8
0
  6
Continuous
 62
     7
100
AcDbLine
 10
213.5088384173057
 20
614.8869306883924
 30
0.0
 11
213.078021600489
 21
614.4852810387424
 31
0.0
  0
LINE
  5
E05
330
1F
100
AcDbEntity
  8
0
  6
Continuous
 62
     7
100
AcDbLine
 10
213.2054810599484
 20
615.2885803380418
 30
0.0
 11
213.5088384173057
 21
614.8869306883924
 31
0.0
  0
LINE
  5
E06
330
1F
100
AcDbEntity
  8
0
  6
Continuous
 62
     7
100
AcDbLine
 10
210.2052348137021
 20
614.8869306883924
 30
0.0
 11
209.7744900689574
 21
614.4852810387424
 31
0.0
  0
LINE
  5
E07
330
1F
100
AcDbEntity
  8
0
  6
Continuous
 62
     7
100
AcDbLine
 10
209.9019495284168
 20
615.2885803380418
 30
0.0
 11
210.2052348137021
 21
614.8869306883924
 31
0.0
  0
LINE
  5
E08
330
1F
100
AcDbEntity
  8
0
  6
Continuous
 62
     7
100
AcDbLine
 10
210.2052348137021
 20
614.8869306883924
 30
0.0
 11
210.5085921710596
 21
614.4852810387424
 31
0.0
  0
LINE
  5
E09
330
1F
100
AcDbEntity
  8
0
  6
Continuous
 62
     7
100
AcDbLine
 10
210.6360516305189
 20
615.2885803380418
 30
0.0
 11
210.2052348137021
 21
614.8869306883924
 31
0.0
  0
LINE
  5
E0A
330
1F
100
AcDbEntity
  8
0
  6
Continuous
 62
     7
100
AcDbLine
 10
212.6318053842729
 20
611.6738195772812
 30
0.0
 11
210.0623759548434
 21
611.6738195772812
 31
0.0
  0
LINE
  5
E0B
330
1F
100
AcDbEntity
  8
0
  6
Continuous
 62
     7
100
AcDbLine
 10
211.082195774663
 20
618.1001238815854
 30
0.0
 11
213.6516972761643
 21
618.1001238815854
 31
0.0
  0
LINE
  5
E0C
330
1F
100
AcDbEntity
  8
0
  6
Continuous
 62
     7
100
AcDbLine
 10
210.5085921710596
 20
614.4852810387424
 30
0.0
 11
213.078021600489
 21
614.4852810387424
 31
0.0
  0
LINE
  5
E0D
330
1F
100
AcDbEntity
  8
0
  6
Continuous
 62
     7
100
AcDbLine
 10
210.6360516305189
 20
615.2885803380418
 30
0.0
 11
213.2054810599484
 21
615.2885803380418
 31
0.0
  0
LINE
  5
E0E
330
1F
100
AcDbEntity
  8
0
  6
Continuous
 62
     7
100
AcDbLine
 10
210.7145661450334
 20
603.1870027604644
 30
0.0
 11
211.082195774663
 21
602.7001238815853
 31
0.0
  0
LINE
  5
E0F
330
1F
100
AcDbEntity
  8
0
  6
Continuous
 62
     7
100
AcDbLine
 10
214.1087563352237
 20
603.1263521098135
 30
0.0
 11
213.6516972761643
 21
602.7001238815853
 31
0.0
  0
LINE
  5
E10
330
1F
100
AcDbEntity
  8
0
  6
Continuous
 62
     7
100
AcDbLine
 10
213.8239795584469
 20
603.5034211788818
 30
0.0
 11
214.3936071860744
 21
602.7492049626669
 31
0.0
  0
LINE
  5
E11
330
1F
100
AcDbEntity
  8
0
  6
Continuous
 62
     7
100
AcDbLine
 10
211.053927506395
 20
603.5034211788818
 30
0.0
 11
213.8239795584469
 21
603.5034211788818
 31
0.0
  0
LINE
  5
E12
330
1F
100
AcDbEntity
  8
0
  6
Continuous
 62
     7
100
AcDbLine
 10
210.3751327115999
 20
602.8705022599639
 30
0.0
 11
211.053927506395
 21
603.5034211788818
 31
0.0
  0
LINE
  5
E13
330
1F
100
AcDbEntity
  8
0
  6
Continuous
 62
     7
100
AcDbLine
 10
211.082195774663
 20
602.7001238815853
 30
0.0
 11
213.6516972761643
 21
602.7001238815853
 31
0.0
  0
LINE
  5
E14
330
1F
100
AcDbEntity
  8
0
  6
Continuous
 62
     7
100
AcDbLine
 10
232.6145661450334
 20
618.5870027604644
 30
0.0
 11
232.9821957746632
 21
618.1001238815854
 31
0.0
  0
LINE
  5
E15
330
1F
100
AcDbEntity
  8
0
  6
Continuous
 62
     7
100
AcDbLine
 10
231.679188767656
 20
610.8704401979017
 30
0.0
 11
234.6531907696583
 21
610.8704401979017
 31
0.0
  0
LINE
  5
E16
330
1F
100
AcDbEntity
  8
0
  6
Continuous
 62
     7
100
AcDbLine
 10
232.2751327116
 20
618.2705022599638
 30
0.0
 11
232.9539275063949
 21
618.9034211788825
 31
0.0
  0
LINE
  5
E17
330
1F
100
AcDbEntity
  8
0
  6
Continuous
 62
     7
100
AcDbLine
 10
232.536051630519
 20
615.2885803380418
 30
0.0
 11
232.9821957746632
 21
618.1001238815854
 31
0.0
  0
LINE
  5
E18
330
1F
100
AcDbEntity
  8
0
  6
Continuous
 62
     7
100
AcDbLine
 10
234.5318053842728
 20
611.6738195772812
 30
0.0
 11
231.9623759548431
 21
611.6738195772812
 31
0.0
  0
LINE
  5
E19
330
1F
100
AcDbEntity
  8
0
  6
Continuous
 62
     7
100
AcDbLine
 10
232.4085921710596
 20
614.4852810387424
 30
0.0
 11
234.9780216004889
 21
614.4852810387424
 31
0.0
  0
LINE
  5
E1A
330
1F
100
AcDbEntity
  8
0
  6
Continuous
 62
     7
100
AcDbLine
 10
232.536051630519
 20
615.2885803380418
 30
0.0
 11
235.1054810599484
 21
615.2885803380418
 31
0.0
  0
LINE
  5
E1B
330
1F
100
AcDbEntity
  8
0
  6
Continuous
 62
     7
100
AcDbLine
 10
232.6145661450334
 20
603.1870027604644
 30
0.0
 11
232.9821957746632
 21
602.7001238815853
 31
0.0
  0
LINE
  5
E1C
330
1F
100
AcDbEntity
  8
0
  6
Continuous
 62
     7
100
AcDbLine
 10
232.2751327116
 20
602.8705022599639
 30
0.0
 11
232.9539275063949
 21
603.5034211788818
 31
0.0
  0
LINE
  5
E1D
330
1F
100
AcDbEntity
  8
0
  6
Continuous
 62
     7
100
AcDbLine
 10
226.8063719508393
 20
636.4869306883924
 30
0.0
 11
226.8063719508393
 21
633.4869306883923
 31
0.0
  0
LINE
  5
E1E
330
1F
100
AcDbEntity
  8
0
  6
Continuous
 62
     7
100
AcDbLine
 10
218.8063719508395
 20
636.4869306883924
 30
0.0
 11
218.8063719508395
 21
633.4869306883923
 31
0.0
  0
LINE
  5
E1F
330
1F
100
AcDbEntity
  8
0
  6
Continuous
 62
     7
100
AcDbLine
 10
231.4401757546431
 20
611.1868586163202
 30
0.0
 11
231.9623759548431
 21
611.6738195772812
 31
0.0
  0
LINE
  5
E20
330
1F
100
AcDbEntity
  8
0
  6
Continuous
 62
     7
100
AcDbLine
 10
231.2012348137018
 20
611.5032790367408
 30
0.0
 11
231.679188767656
 21
610.8704401979017
 31
0.0
  0
LINE
  5
E21
330
1F
100
AcDbEntity
  8
0
  6
Continuous
 62
     7
100
AcDbLine
 10
231.6744900689573
 20
614.4852810387424
 30
0.0
 11
231.2012348137018
 21
611.5032790367408
 31
0.0
  0
LINE
  5
E22
330
1F
100
AcDbEntity
  8
0
  6
Continuous
 62
     7
100
AcDbLine
 10
231.8019495284168
 20
615.2885803380418
 30
0.0
 11
232.2751327116
 21
618.2705022599638
 31
0.0
  0
LINE
  5
E23
330
1F
100
AcDbEntity
  8
0
  6
Continuous
 62
     7
100
AcDbLine
 10
231.9623759548431
 20
611.6738195772812
 30
0.0
 11
232.4085921710596
 21
614.4852810387424
 31
0.0
  0
LINE
  5
E24
330
1F
100
AcDbEntity
  8
0
  6
Continuous
 62
     7
100
AcDbLine
 10
232.1052348137023
 20
614.8869306883924
 30
0.0
 11
231.6744900689573
 21
614.4852810387424
 31
0.0
  0
LINE
  5
E25
330
1F
100
AcDbEntity
  8
0
  6
Continuous
 62
     7
100
AcDbLine
 10
231.8019495284168
 20
615.2885803380418
 30
0.0
 11
232.1052348137023
 21
614.8869306883924
 31
0.0
  0
LINE
  5
E26
330
1F
100
AcDbEntity
  8
0
  6
Continuous
 62
     7
100
AcDbLine
 10
232.1052348137023
 20
614.8869306883924
 30
0.0
 11
232.4085921710596
 21
614.4852810387424
 31
0.0
  0
LINE
  5
E27
330
1F
100
AcDbEntity
  8
0
  6
Continuous
 62
     7
100
AcDbLine
 10
232.536051630519
 20
615.2885803380418
 30
0.0
 11
232.1052348137023
 21
614.8869306883924
 31
0.0
  0
LINE
  5
E28
330
1F
100
AcDbEntity
  8
0
  6
Continuous
 62
     7
100
AcDbLine
 10
227.637969548437
 20
611.1359296873914
 30
0.0
 11
227.2318053842729
 21
611.6738195772812
 31
0.0
  0
LINE
  5
E29
330
1F
100
AcDbEntity
  8
0
  6
Continuous
 62
     7
100
AcDbLine
 10
224.1401757546431
 20
611.1868586163202
 30
0.0
 11
224.6623759548433
 21
611.6738195772812
 31
0.0
  0
LINE
  5
E2A
330
1F
100
AcDbEntity
  8
0
  6
Continuous
 62
     7
100
AcDbLine
 10
225.3145661450336
 20
618.5870027604644
 30
0.0
 11
225.6821957746629
 21
618.1001238815854
 31
0.0
  0
LINE
  5
E2B
330
1F
100
AcDbEntity
  8
0
  6
Continuous
 62
     7
100
AcDbLine
 10
228.7087563352236
 20
618.5263521098135
 30
0.0
 11
228.2516972761645
 21
618.1001238815854
 31
0.0
  0
LINE
  5
E2C
330
1F
100
AcDbEntity
  8
0
  6
Continuous
 62
     7
100
AcDbLine
 10
227.9227463252138
 20
611.401421178883
 30
0.0
 11
228.4121237025911
 21
614.4852810387424
 31
0.0
  0
LINE
  5
E2D
330
1F
100
AcDbEntity
  8
0
  6
Continuous
 62
     7
100
AcDbLine
 10
227.3531907696578
 20
610.8704401979017
 30
0.0
 11
227.9227463252138
 21
611.401421178883
 31
0.0
  0
LINE
  5
E2E
330
1F
100
AcDbEntity
  8
0
  6
Continuous
 62
     7
100
AcDbLine
 10
224.3791887676561
 20
610.8704401979017
 30
0.0
 11
227.3531907696578
 21
610.8704401979017
 31
0.0
  0
LINE
  5
E2F
330
1F
100
AcDbEntity
  8
0
  6
Continuous
 62
     7
100
AcDbLine
 10
223.901234813702
 20
611.5032790367408
 30
0.0
 11
224.3791887676561
 21
610.8704401979017
 31
0.0
  0
LINE
  5
E30
330
1F
100
AcDbEntity
  8
0
  6
Continuous
 62
     7
100
AcDbLine
 10
224.3744900689574
 20
614.4852810387424
 30
0.0
 11
223.901234813702
 21
611.5032790367408
 31
0.0
  0
LINE
  5
E31
330
1F
100
AcDbEntity
  8
0
  6
Continuous
 62
     7
100
AcDbLine
 10
228.9936071860743
 20
618.1492049626669
 30
0.0
 11
228.5395831620505
 21
615.2885803380418
 31
0.0
  0
LINE
  5
E32
330
1F
100
AcDbEntity
  8
0
  6
Continuous
 62
     7
100
AcDbLine
 10
228.4239795584467
 20
618.9034211788825
 30
0.0
 11
228.9936071860743
 21
618.1492049626669
 31
0.0
  0
LINE
  5
E33
330
1F
100
AcDbEntity
  8
0
  6
Continuous
 62
     7
100
AcDbLine
 10
225.6539275063949
 20
618.9034211788825
 30
0.0
 11
228.4239795584467
 21
618.9034211788825
 31
0.0
  0
LINE
  5
E34
330
1F
100
AcDbEntity
  8
0
  6
Continuous
 62
     7
100
AcDbLine
 10
224.9751327116
 20
618.2705022599638
 30
0.0
 11
225.6539275063949
 21
618.9034211788825
 31
0.0
  0
LINE
  5
E35
330
1F
100
AcDbEntity
  8
0
  6
Continuous
 62
     7
100
AcDbLine
 10
224.5019495284167
 20
615.2885803380418
 30
0.0
 11
224.9751327116
 21
618.2705022599638
 31
0.0
  0
LINE
  5
E36
330
1F
100
AcDbEntity
  8
0
  6
Continuous
 62
     7
100
AcDbLine
 10
225.2360516305191
 20
615.2885803380418
 30
0.0
 11
225.6821957746629
 21
618.1001238815854
 31
0.0
  0
LINE
  5
E37
330
1F
100
AcDbEntity
  8
0
  6
Continuous
 62
     7
100
AcDbLine
 10
224.6623759548433
 20
611.6738195772812
 30
0.0
 11
225.1085921710596
 21
614.4852810387424
 31
0.0
  0
LINE
  5
E38
330
1F
100
AcDbEntity
  8
0
  6
Continuous
 62
     7
100
AcDbLine
 10
227.678021600489
 20
614.4852810387424
 30
0.0
 11
227.2318053842729
 21
611.6738195772812
 31
0.0
  0
LINE
  5
E39
330
1F
100
AcDbEntity
  8
0
  6
Continuous
 62
     7
100
AcDbLine
 10
228.2516972761645
 20
618.1001238815854
 30
0.0
 11
227.8054810599484
 21
615.2885803380418
 31
0.0
  0
LINE
  5
E3A
330
1F
100
AcDbEntity
  8
0
  6
Continuous
 62
     7
100
AcDbLine
 10
228.1088384173059
 20
614.8869306883924
 30
0.0
 11
228.4121237025911
 21
614.4852810387424
 31
0.0
  0
LINE
  5
E3B
330
1F
100
AcDbEntity
  8
0
  6
Continuous
 62
     7
100
AcDbLine
 10
228.5395831620505
 20
615.2885803380418
 30
0.0
 11
228.1088384173059
 21
614.8869306883924
 31
0.0
  0
LINE
  5
E3C
330
1F
100
AcDbEntity
  8
0
  6
Continuous
 62
     7
100
AcDbLine
 10
228.1088384173059
 20
614.8869306883924
 30
0.0
 11
227.678021600489
 21
614.4852810387424
 31
0.0
  0
LINE
  5
E3D
330
1F
100
AcDbEntity
  8
0
  6
Continuous
 62
     7
100
AcDbLine
 10
227.8054810599484
 20
615.2885803380418
 30
0.0
 11
228.1088384173059
 21
614.8869306883924
 31
0.0
  0
LINE
  5
E3E
330
1F
100
AcDbEntity
  8
0
  6
Continuous
 62
     7
100
AcDbLine
 10
224.8052348137024
 20
614.8869306883924
 30
0.0
 11
224.3744900689574
 21
614.4852810387424
 31
0.0
  0
LINE
  5
E3F
330
1F
100
AcDbEntity
  8
0
  6
Continuous
 62
     7
100
AcDbLine
 10
224.5019495284167
 20
615.2885803380418
 30
0.0
 11
224.8052348137024
 21
614.8869306883924
 31
0.0
  0
LINE
  5
E40
330
1F
100
AcDbEntity
  8
0
  6
Continuous
 62
     7
100
AcDbLine
 10
224.8052348137024
 20
614.8869306883924
 30
0.0
 11
225.1085921710596
 21
614.4852810387424
 31
0.0
  0
LINE
  5
E41
330
1F
100
AcDbEntity
  8
0
  6
Continuous
 62
     7
100
AcDbLine
 10
225.2360516305191
 20
615.2885803380418
 30
0.0
 11
224.8052348137024
 21
614.8869306883924
 31
0.0
  0
LINE
  5
E42
330
1F
100
AcDbEntity
  8
0
  6
Continuous
 62
     7
100
AcDbLine
 10
227.2318053842729
 20
611.6738195772812
 30
0.0
 11
224.6623759548433
 21
611.6738195772812
 31
0.0
  0
LINE
  5
E43
330
1F
100
AcDbEntity
  8
0
  6
Continuous
 62
     7
100
AcDbLine
 10
225.6821957746629
 20
618.1001238815854
 30
0.0
 11
228.2516972761645
 21
618.1001238815854
 31
0.0
  0
LINE
  5
E44
330
1F
100
AcDbEntity
  8
0
  6
Continuous
 62
     7
100
AcDbLine
 10
225.1085921710596
 20
614.4852810387424
 30
0.0
 11
227.678021600489
 21
614.4852810387424
 31
0.0
  0
LINE
  5
E45
330
1F
100
AcDbEntity
  8
0
  6
Continuous
 62
     7
100
AcDbLine
 10
225.2360516305191
 20
615.2885803380418
 30
0.0
 11
227.8054810599484
 21
615.2885803380418
 31
0.0
  0
LINE
  5
E46
330
1F
100
AcDbEntity
  8
0
  6
Continuous
 62
     7
100
AcDbLine
 10
220.337969548437
 20
611.1359296873914
 30
0.0
 11
219.9318053842727
 21
611.6738195772812
 31
0.0
  0
LINE
  5
E47
330
1F
100
AcDbEntity
  8
0
  6
Continuous
 62
     7
100
AcDbLine
 10
216.8401757546433
 20
611.1868586163202
 30
0.0
 11
217.3623759548433
 21
611.6738195772812
 31
0.0
  0
LINE
  5
E48
330
1F
100
AcDbEntity
  8
0
  6
Continuous
 62
     7
100
AcDbLine
 10
218.0145661450334
 20
618.5870027604644
 30
0.0
 11
218.382195774663
 21
618.1001238815854
 31
0.0
  0
LINE
  5
E49
330
1F
100
AcDbEntity
  8
0
  6
Continuous
 62
     7
100
AcDbLine
 10
221.4087563352236
 20
618.5263521098135
 30
0.0
 11
220.9516972761648
 21
618.1001238815854
 31
0.0
  0
LINE
  5
E4A
330
1F
100
AcDbEntity
  8
0
  6
Continuous
 62
     7
100
AcDbLine
 10
220.6227463252139
 20
611.401421178883
 30
0.0
 11
221.1121237025913
 21
614.4852810387424
 31
0.0
  0
LINE
  5
E4B
330
1F
100
AcDbEntity
  8
0
  6
Continuous
 62
     7
100
AcDbLine
 10
220.0531907696583
 20
610.8704401979017
 30
0.0
 11
220.6227463252139
 21
611.401421178883
 31
0.0
  0
LINE
  5
E4C
330
1F
100
AcDbEntity
  8
0
  6
Continuous
 62
     7
100
AcDbLine
 10
217.0791887676561
 20
610.8704401979017
 30
0.0
 11
220.0531907696583
 21
610.8704401979017
 31
0.0
  0
LINE
  5
E4D
330
1F
100
AcDbEntity
  8
0
  6
Continuous
 62
     7
100
AcDbLine
 10
216.6012348137019
 20
611.5032790367408
 30
0.0
 11
217.0791887676561
 21
610.8704401979017
 31
0.0
  0
LINE
  5
E4E
330
1F
100
AcDbEntity
  8
0
  6
Continuous
 62
     7
100
AcDbLine
 10
217.0744900689574
 20
614.4852810387424
 30
0.0
 11
216.6012348137019
 21
611.5032790367408
 31
0.0
  0
LINE
  5
E4F
330
1F
100
AcDbEntity
  8
0
  6
Continuous
 62
     7
100
AcDbLine
 10
221.6936071860744
 20
618.1492049626669
 30
0.0
 11
221.2395831620503
 21
615.2885803380418
 31
0.0
  0
LINE
  5
E50
330
1F
100
AcDbEntity
  8
0
  6
Continuous
 62
     7
100
AcDbLine
 10
221.1239795584468
 20
618.9034211788825
 30
0.0
 11
221.6936071860744
 21
618.1492049626669
 31
0.0
  0
LINE
  5
E51
330
1F
100
AcDbEntity
  8
0
  6
Continuous
 62
     7
100
AcDbLine
 10
218.3539275063949
 20
618.9034211788825
 30
0.0
 11
221.1239795584468
 21
618.9034211788825
 31
0.0
  0
LINE
  5
E52
330
1F
100
AcDbEntity
  8
0
  6
Continuous
 62
     7
100
AcDbLine
 10
217.6751327115999
 20
618.2705022599638
 30
0.0
 11
218.3539275063949
 21
618.9034211788825
 31
0.0
  0
LINE
  5
E53
330
1F
100
AcDbEntity
  8
0
  6
Continuous
 62
     7
100
AcDbLine
 10
217.2019495284168
 20
615.2885803380418
 30
0.0
 11
217.6751327115999
 21
618.2705022599638
 31
0.0
  0
LINE
  5
E54
330
1F
100
AcDbEntity
  8
0
  6
Continuous
 62
     7
100
AcDbLine
 10
217.9360516305191
 20
615.2885803380418
 30
0.0
 11
218.382195774663
 21
618.1001238815854
 31
0.0
  0
LINE
  5
E55
330
1F
100
AcDbEntity
  8
0
  6
Continuous
 62
     7
100
AcDbLine
 10
217.3623759548433
 20
611.6738195772812
 30
0.0
 11
217.8085921710596
 21
614.4852810387424
 31
0.0
  0
LINE
  5
E56
330
1F
100
AcDbEntity
  8
0
  6
Continuous
 62
     7
100
AcDbLine
 10
220.378021600489
 20
614.4852810387424
 30
0.0
 11
219.9318053842727
 21
611.6738195772812
 31
0.0
  0
LINE
  5
E57
330
1F
100
AcDbEntity
  8
0
  6
Continuous
 62
     7
100
AcDbLine
 10
220.9516972761648
 20
618.1001238815854
 30
0.0
 11
220.5054810599484
 21
615.2885803380418
 31
0.0
  0
LINE
  5
E58
330
1F
100
AcDbEntity
  8
0
  6
Continuous
 62
     7
100
AcDbLine
 10
220.8088384173059
 20
614.8869306883924
 30
0.0
 11
221.1121237025913
 21
614.4852810387424
 31
0.0
  0
LINE
  5
E59
330
1F
100
AcDbEntity
  8
0
  6
Continuous
 62
     7
100
AcDbLine
 10
221.2395831620503
 20
615.2885803380418
 30
0.0
 11
220.8088384173059
 21
614.8869306883924
 31
0.0
  0
LINE
  5
E5A
330
1F
100
AcDbEntity
  8
0
  6
Continuous
 62
     7
100
AcDbLine
 10
220.8088384173059
 20
614.8869306883924
 30
0.0
 11
220.378021600489
 21
614.4852810387424
 31
0.0
  0
LINE
  5
E5B
330
1F
100
AcDbEntity
  8
0
  6
Continuous
 62
     7
100
AcDbLine
 10
220.5054810599484
 20
615.2885803380418
 30
0.0
 11
220.8088384173059
 21
614.8869306883924
 31
0.0
  0
LINE
  5
E5C
330
1F
100
AcDbEntity
  8
0
  6
Continuous
 62
     7
100
AcDbLine
 10
217.5052348137023
 20
614.8869306883924
 30
0.0
 11
217.0744900689574
 21
614.4852810387424
 31
0.0
  0
LINE
  5
E5D
330
1F
100
AcDbEntity
  8
0
  6
Continuous
 62
     7
100
AcDbLine
 10
217.2019495284168
 20
615.2885803380418
 30
0.0
 11
217.5052348137023
 21
614.8869306883924
 31
0.0
  0
LINE
  5
E5E
330
1F
100
AcDbEntity
  8
0
  6
Continuous
 62
     7
100
AcDbLine
 10
217.5052348137023
 20
614.8869306883924
 30
0.0
 11
217.8085921710596
 21
614.4852810387424
 31
0.0
  0
LINE
  5
E5F
330
1F
100
AcDbEntity
  8
0
  6
Continuous
 62
     7
100
AcDbLine
 10
217.9360516305191
 20
615.2885803380418
 30
0.0
 11
217.5052348137023
 21
614.8869306883924
 31
0.0
  0
LINE
  5
E60
330
1F
100
AcDbEntity
  8
0
  6
Continuous
 62
     7
100
AcDbLine
 10
219.9318053842727
 20
611.6738195772812
 30
0.0
 11
217.3623759548433
 21
611.6738195772812
 31
0.0
  0
LINE
  5
E61
330
1F
100
AcDbEntity
  8
0
  6
Continuous
 62
     7
100
AcDbLine
 10
218.382195774663
 20
618.1001238815854
 30
0.0
 11
220.9516972761648
 21
618.1001238815854
 31
0.0
  0
LINE
  5
E62
330
1F
100
AcDbEntity
  8
0
  6
Continuous
 62
     7
100
AcDbLine
 10
217.8085921710596
 20
614.4852810387424
 30
0.0
 11
220.378021600489
 21
614.4852810387424
 31
0.0
  0
LINE
  5
E63
330
1F
100
AcDbEntity
  8
0
  6
Continuous
 62
     7
100
AcDbLine
 10
217.9360516305191
 20
615.2885803380418
 30
0.0
 11
220.5054810599484
 21
615.2885803380418
 31
0.0
  0
LINE
  5
E64
330
1F
100
AcDbEntity
  8
0
  6
Continuous
 62
     7
100
AcDbLine
 10
225.3145661450336
 20
603.1870027604644
 30
0.0
 11
225.6821957746629
 21
602.7001238815853
 31
0.0
  0
LINE
  5
E65
330
1F
100
AcDbEntity
  8
0
  6
Continuous
 62
     7
100
AcDbLine
 10
228.7087563352236
 20
603.1263521098135
 30
0.0
 11
228.2516972761645
 21
602.7001238815853
 31
0.0
  0
LINE
  5
E66
330
1F
100
AcDbEntity
  8
0
  6
Continuous
 62
     7
100
AcDbLine
 10
228.4239795584467
 20
603.5034211788818
 30
0.0
 11
228.9936071860743
 21
602.7492049626669
 31
0.0
  0
LINE
  5
E67
330
1F
100
AcDbEntity
  8
0
  6
Continuous
 62
     7
100
AcDbLine
 10
225.6539275063949
 20
603.5034211788818
 30
0.0
 11
228.4239795584467
 21
603.5034211788818
 31
0.0
  0
LINE
  5
E68
330
1F
100
AcDbEntity
  8
0
  6
Continuous
 62
     7
100
AcDbLine
 10
224.9751327116
 20
602.8705022599639
 30
0.0
 11
225.6539275063949
 21
603.5034211788818
 31
0.0
  0
LINE
  5
E69
330
1F
100
AcDbEntity
  8
0
  6
Continuous
 62
     7
100
AcDbLine
 10
225.6821957746629
 20
602.7001238815853
 30
0.0
 11
228.2516972761645
 21
602.7001238815853
 31
0.0
  0
LINE
  5
E6A
330
1F
100
AcDbEntity
  8
0
  6
Continuous
 62
     7
100
AcDbLine
 10
218.0145661450334
 20
603.1870027604644
 30
0.0
 11
218.382195774663
 21
602.7001238815853
 31
0.0
  0
LINE
  5
E6B
330
1F
100
AcDbEntity
  8
0
  6
Continuous
 62
     7
100
AcDbLine
 10
221.4087563352236
 20
603.1263521098135
 30
0.0
 11
220.9516972761648
 21
602.7001238815853
 31
0.0
  0
LINE
  5
E6C
330
1F
100
AcDbEntity
  8
0
  6
Continuous
 62
     7
100
AcDbLine
 10
221.1239795584468
 20
603.5034211788818
 30
0.0
 11
221.6936071860744
 21
602.7492049626669
 31
0.0
  0
LINE
  5
E6D
330
1F
100
AcDbEntity
  8
0
  6
Continuous
 62
     7
100
AcDbLine
 10
218.3539275063949
 20
603.5034211788818
 30
0.0
 11
221.1239795584468
 21
603.5034211788818
 31
0.0
  0
LINE
  5
E6E
330
1F
100
AcDbEntity
  8
0
  6
Continuous
 62
     7
100
AcDbLine
 10
217.6751327115999
 20
602.8705022599639
 30
0.0
 11
218.3539275063949
 21
603.5034211788818
 31
0.0
  0
LINE
  5
E6F
330
1F
100
AcDbEntity
  8
0
  6
Continuous
 62
     7
100
AcDbLine
 10
218.382195774663
 20
602.7001238815853
 30
0.0
 11
220.9516972761648
 21
602.7001238815853
 31
0.0
  0
LINE
  5
E70
330
1F
100
AcDbEntity
  8
0
  6
Continuous
 62
     7
100
AcDbLine
 10
223.3063719508395
 20
635.4869306883922
 30
0.0
 11
223.3063719508395
 21
635.4869306883922
 31
0.0
  0
LINE
  5
E71
330
1F
100
AcDbEntity
  8
0
  6
Continuous
 62
     7
100
AcDbLine
 10
223.3063719508395
 20
633.9869306883921
 30
0.0
 11
223.3063719508395
 21
635.4869306883922
 31
0.0
  0
LINE
  5
E72
330
1F
100
AcDbEntity
  8
0
  6
Continuous
 62
     7
100
AcDbLine
 10
224.8063719508394
 20
633.9869306883921
 30
0.0
 11
223.3063719508395
 21
633.9869306883921
 31
0.0
  0
LINE
  5
E73
330
1F
100
AcDbEntity
  8
0
  6
Continuous
 62
     7
100
AcDbLine
 10
224.8063719508394
 20
632.9869306883924
 30
0.0
 11
224.8063719508394
 21
633.9869306883921
 31
0.0
  0
LINE
  5
E74
330
1F
100
AcDbEntity
  8
0
  6
Continuous
 62
     7
100
AcDbLine
 10
223.3063719508395
 20
632.9869306883924
 30
0.0
 11
224.8063719508394
 21
632.9869306883924
 31
0.0
  0
LINE
  5
E75
330
1F
100
AcDbEntity
  8
0
  6
Continuous
 62
     7
100
AcDbLine
 10
223.3063719508395
 20
631.4869306883921
 30
0.0
 11
223.3063719508395
 21
632.9869306883924
 31
0.0
  0
LINE
  5
E76
330
1F
100
AcDbEntity
  8
0
  6
Continuous
 62
     7
100
AcDbLine
 10
222.3063719508394
 20
631.4869306883921
 30
0.0
 11
223.3063719508395
 21
631.4869306883921
 31
0.0
  0
LINE
  5
E77
330
1F
100
AcDbEntity
  8
0
  6
Continuous
 62
     7
100
AcDbLine
 10
222.3063719508394
 20
632.9869306883924
 30
0.0
 11
222.3063719508394
 21
631.4869306883921
 31
0.0
  0
LINE
  5
E78
330
1F
100
AcDbEntity
  8
0
  6
Continuous
 62
     7
100
AcDbLine
 10
220.8063719508394
 20
632.9869306883924
 30
0.0
 11
222.3063719508394
 21
632.9869306883924
 31
0.0
  0
LINE
  5
E79
330
1F
100
AcDbEntity
  8
0
  6
Continuous
 62
     7
100
AcDbLine
 10
220.8063719508394
 20
633.9869306883921
 30
0.0
 11
220.8063719508394
 21
632.9869306883924
 31
0.0
  0
LINE
  5
E7A
330
1F
100
AcDbEntity
  8
0
  6
Continuous
 62
     7
100
AcDbLine
 10
222.3063719508394
 20
633.9869306883921
 30
0.0
 11
220.8063719508394
 21
633.9869306883921
 31
0.0
  0
LINE
  5
E7B
330
1F
100
AcDbEntity
  8
0
  6
Continuous
 62
     7
100
AcDbLine
 10
222.3063719508394
 20
635.4869306883922
 30
0.0
 11
222.3063719508394
 21
633.9869306883921
 31
0.0
  0
LINE
  5
E7C
330
1F
100
AcDbEntity
  8
0
  6
Continuous
 62
     7
100
AcDbLine
 10
223.3063719508395
 20
635.4869306883922
 30
0.0
 11
222.3063719508394
 21
635.4869306883922
 31
0.0
  0
LINE
  5
E7D
330
1F
100
AcDbEntity
  8
0
  6
Continuous
 62
     7
100
AcDbLine
 10
237.3063719508394
 20
618.8869306883924
 30
0.0
 11
237.3063719508394
 21
610.8869306883924
 31
0.0
  0
LINE
  5
E7E
330
1F
100
AcDbEntity
  8
0
  6
Continuous
 62
     7
100
AcDbLine
 10
234.9379695484369
 20
611.1359296873914
 30
0.0
 11
234.5318053842728
 21
611.6738195772812
 31
0.0
  0
LINE
  5
E7F
330
1F
100
AcDbEntity
  8
0
  6
Continuous
 62
     7
100
AcDbLine
 10
236.0087563352236
 20
618.5263521098135
 30
0.0
 11
235.5516972761646
 21
618.1001238815854
 31
0.0
  0
LINE
  5
E80
330
1F
100
AcDbEntity
  8
0
  6
Continuous
 62
     7
100
AcDbLine
 10
235.2227463252134
 20
611.401421178883
 30
0.0
 11
235.7121237025912
 21
614.4852810387424
 31
0.0
  0
LINE
  5
E81
330
1F
100
AcDbEntity
  8
0
  6
Continuous
 62
     7
100
AcDbLine
 10
234.6531907696583
 20
610.8704401979017
 30
0.0
 11
235.2227463252134
 21
611.401421178883
 31
0.0
  0
LINE
  5
E82
330
1F
100
AcDbEntity
  8
0
  6
Continuous
 62
     7
100
AcDbLine
 10
236.2936071860744
 20
618.1492049626669
 30
0.0
 11
235.8395831620505
 21
615.2885803380418
 31
0.0
  0
LINE
  5
E83
330
1F
100
AcDbEntity
  8
0
  6
Continuous
 62
     7
100
AcDbLine
 10
235.7239795584469
 20
618.9034211788825
 30
0.0
 11
236.2936071860744
 21
618.1492049626669
 31
0.0
  0
LINE
  5
E84
330
1F
100
AcDbEntity
  8
0
  6
Continuous
 62
     7
100
AcDbLine
 10
232.9539275063949
 20
618.9034211788825
 30
0.0
 11
235.7239795584469
 21
618.9034211788825
 31
0.0
  0
LINE
  5
E85
330
1F
100
AcDbEntity
  8
0
  6
Continuous
 62
     7
100
AcDbLine
 10
234.9780216004889
 20
614.4852810387424
 30
0.0
 11
234.5318053842728
 21
611.6738195772812
 31
0.0
  0
LINE
  5
E86
330
1F
100
AcDbEntity
  8
0
  6
Continuous
 62
     7
100
AcDbLine
 10
235.5516972761646
 20
618.1001238815854
 30
0.0
 11
235.1054810599484
 21
615.2885803380418
 31
0.0
  0
LINE
  5
E87
330
1F
100
AcDbEntity
  8
0
  6
Continuous
 62
     7
100
AcDbLine
 10
235.4088384173059
 20
614.8869306883924
 30
0.0
 11
235.7121237025912
 21
614.4852810387424
 31
0.0
  0
LINE
  5
E88
330
1F
100
AcDbEntity
  8
0
  6
Continuous
 62
     7
100
AcDbLine
 10
235.8395831620505
 20
615.2885803380418
 30
0.0
 11
235.4088384173059
 21
614.8869306883924
 31
0.0
  0
LINE
  5
E89
330
1F
100
AcDbEntity
  8
0
  6
Continuous
 62
     7
100
AcDbLine
 10
235.4088384173059
 20
614.8869306883924
 30
0.0
 11
234.9780216004889
 21
614.4852810387424
 31
0.0
  0
LINE
  5
E8A
330
1F
100
AcDbEntity
  8
0
  6
Continuous
 62
     7
100
AcDbLine
 10
235.1054810599484
 20
615.2885803380418
 30
0.0
 11
235.4088384173059
 21
614.8869306883924
 31
0.0
  0
LINE
  5
E8B
330
1F
100
AcDbEntity
  8
0
  6
Continuous
 62
     7
100
AcDbLine
 10
232.9821957746632
 20
618.1001238815854
 30
0.0
 11
235.5516972761646
 21
618.1001238815854
 31
0.0
  0
LINE
  5
E8C
330
1F
100
AcDbEntity
  8
0
  6
Continuous
 62
     7
100
AcDbLine
 10
236.0087563352236
 20
603.1263521098135
 30
0.0
 11
235.5516972761646
 21
602.7001238815853
 31
0.0
  0
LINE
  5
E8D
330
1F
100
AcDbEntity
  8
0
  6
Continuous
 62
     7
100
AcDbLine
 10
235.7239795584469
 20
603.5034211788818
 30
0.0
 11
236.2936071860744
 21
602.7492049626669
 31
0.0
  0
LINE
  5
E8E
330
1F
100
AcDbEntity
  8
0
  6
Continuous
 62
     7
100
AcDbLine
 10
232.9539275063949
 20
603.5034211788818
 30
0.0
 11
235.7239795584469
 21
603.5034211788818
 31
0.0
  0
LINE
  5
E8F
330
1F
100
AcDbEntity
  8
0
  6
Continuous
 62
     7
100
AcDbLine
 10
232.9821957746632
 20
602.7001238815853
 30
0.0
 11
235.5516972761646
 21
602.7001238815853
 31
0.0
  0
ARC
  5
E90
330
1F
100
AcDbEntity
  8
0
  6
Continuous
 62
     7
100
AcDbCircle
 10
199.8063704566891
 20
634.4869321825423
 30
10.59933933933931
 40
1.99999850585034
100
AcDbArc
 50
89.99995719571606
 51
180.0000428042888
  0
ARC
  5
E91
330
1F
100
AcDbEntity
  8
0
  6
Continuous
 62
     7
100
AcDbCircle
 10
201.806371203764
 20
626.4869314354672
 30
10.59933933933931
 40
0.9999992529250574
100
AcDbArc
 50
89.99995719571279
 51
180.0000428042888
  0
ARC
  5
E92
330
1F
100
AcDbEntity
  8
0
  6
Continuous
 62
     7
100
AcDbCircle
 10
201.806371203764
 20
626.4869314354672
 30
10.59933933933931
 40
0.9999992529250574
100
AcDbArc
 50
89.99995719571279
 51
180.0000428042888
  0
ARC
  5
E93
330
1F
100
AcDbEntity
  8
0
  6
Continuous
 62
     7
100
AcDbCircle
 10
209.3063712037642
 20
618.8869314354669
 30
10.59933933933931
 40
0.9999992529250574
100
AcDbArc
 50
89.99995719571279
 51
180.0000428042888
  0
ARC
  5
E94
330
1F
100
AcDbEntity
  8
0
  6
Continuous
 62
     7
100
AcDbCircle
 10
209.3063712037642
 20
610.8869299413165
 30
10.59933933933931
 40
0.9999992529250574
100
AcDbArc
 50
179.9999571957144
 51
270.0000428042903
  0
ARC
  5
E95
330
1F
100
AcDbEntity
  8
0
  6
Continuous
 62
     7
100
AcDbCircle
 10
209.3063712037642
 20
603.4869314354673
 30
10.59933933933931
 40
0.9999992529250574
100
AcDbArc
 50
89.99995719570955
 51
180.0000428042822
  0
LINE
  5
E96
330
1F
100
AcDbEntity
  8
0
  6
Continuous
 62
     7
100
AcDbLine
 10
214.7151747536419
 20
611.3432450027063
 30
10.59933933933931
 11
214.7151747536419
 21
611.3432450027063
 31
10.59933933933931
  0
ARC
  5
E97
330
1F
100
AcDbEntity
  8
0
  6
Continuous
 62
     7
100
AcDbCircle
 10
214.3295010305333
 20
611.3432449532714
 30
10.59933933933931
 40
0.3856737231087333
100
AcDbArc
 50
89.99999265591624
 51
0.0000073440251319
  0
ARC
  5
E98
330
1F
100
AcDbEntity
  8
0
  6
Continuous
 62
     7
100
AcDbCircle
 10
214.3295013680953
 20
611.3432452908332
 30
10.59933933933931
 40
0.3856733855467269
100
AcDbArc
 50
359.9999571956884
 51
90.00004280426111
  0
ARC
  5
E99
330
1F
100
AcDbEntity
  8
0
  6
Continuous
 62
     7
100
AcDbCircle
 10
222.8063719508393
 20
633.4869306883923
 30
10.59933933933931
 40
3.999999999999861
100
AcDbArc
 50
180.0
 51
0.0
  0
LINE
  5
E9A
330
1F
100
AcDbEntity
  8
0
  6
Continuous
 62
     7
100
AcDbLine
 10
229.3151747536418
 20
611.3432450027063
 30
10.59933933933931
 11
229.3151747536418
 21
611.3432450027063
 31
10.59933933933931
  0
ARC
  5
E9B
330
1F
100
AcDbEntity
  8
0
  6
Continuous
 62
     7
100
AcDbCircle
 10
228.9295010305333
 20
611.3432449532714
 30
10.59933933933931
 40
0.3856737231087333
100
AcDbArc
 50
89.99999265590806
 51
0.0000073440251319
  0
ARC
  5
E9C
330
1F
100
AcDbEntity
  8
0
  6
Continuous
 62
     7
100
AcDbCircle
 10
228.9295013680948
 20
611.3432452908332
 30
10.59933933933931
 40
0.385673385546784
100
AcDbArc
 50
359.9999571956884
 51
90.00004280425299
  0
LINE
  5
E9D
330
1F
100
AcDbEntity
  8
0
  6
Continuous
 62
     7
100
AcDbLine
 10
222.0151747536418
 20
611.3432450027063
 30
10.59933933933931
 11
222.0151747536418
 21
611.3432450027063
 31
10.59933933933931
  0
ARC
  5
E9E
330
1F
100
AcDbEntity
  8
0
  6
Continuous
 62
     7
100
AcDbCircle
 10
221.629501030533
 20
611.3432449532714
 30
10.59933933933931
 40
0.3856737231087333
100
AcDbArc
 50
89.99999265589995
 51
0.0000073440251319
  0
ARC
  5
E9F
330
1F
100
AcDbEntity
  8
0
  6
Continuous
 62
     7
100
AcDbCircle
 10
221.6295013680955
 20
611.3432452908339
 30
10.59933933933931
 40
0.3856733855466701
100
AcDbArc
 50
359.9999571956721
 51
90.00004280424484
  0
LINE
  5
EA0
330
1F
100
AcDbEntity
  8
0
  6
Continuous
 62
     7
100
AcDbLine
 10
225.5563719508395
 20
633.4869306883923
 30
10.59933933933931
 11
225.5563719508395
 21
633.4869306883923
 31
10.59933933933931
  0
ARC
  5
EA1
330
1F
100
AcDbEntity
  8
0
  6
Continuous
 62
     7
100
AcDbCircle
 10
222.8063715983501
 20
633.4869303359027
 30
10.59933933933931
 40
2.750000352489192
100
AcDbArc
 50
89.99999265594881
 51
0.0000073440577008
  0
ARC
  5
EA2
330
1F
100
AcDbEntity
  8
0
  6
Continuous
 62
     7
100
AcDbCircle
 10
222.8063740052959
 20
633.4869327428483
 30
10.59933933933931
 40
2.749997945543851
100
AcDbArc
 50
359.9999571957177
 51
90.00004280429044
  0
ARC
  5
EA3
330
1F
100
AcDbEntity
  8
0
  6
Continuous
 62
     7
100
AcDbCircle
 10
245.8063734449893
 20
634.4869321825423
 30
10.59933933933931
 40
1.99999850585034
100
AcDbArc
 50
359.9999571957078
 51
90.00004280428392
  0
ARC
  5
EA4
330
1F
100
AcDbEntity
  8
0
  6
Continuous
 62
     7
100
AcDbCircle
 10
243.806372697914
 20
626.4869314354672
 30
10.59933933933931
 40
0.9999992529251143
100
AcDbArc
 50
359.9999571957078
 51
90.00004280428717
  0
ARC
  5
EA5
330
1F
100
AcDbEntity
  8
0
  6
Continuous
 62
     7
100
AcDbCircle
 10
243.806372697914
 20
626.4869314354672
 30
10.59933933933931
 40
0.9999992529251143
100
AcDbArc
 50
359.9999571957078
 51
90.00004280428717
  0
ARC
  5
EA6
330
1F
100
AcDbEntity
  8
0
  6
Continuous
 62
     7
100
AcDbCircle
 10
236.3063726979143
 20
618.8869314354669
 30
10.59933933933931
 40
0.9999992529252279
100
AcDbArc
 50
359.9999571957209
 51
90.00004280429044
  0
ARC
  5
EA7
330
1F
100
AcDbEntity
  8
0
  6
Continuous
 62
     7
100
AcDbCircle
 10
236.3063726979143
 20
610.8869299413173
 30
10.59933933933931
 40
0.9999992529251711
100
AcDbArc
 50
269.9999571957063
 51
0.0000428042790381
  0
ARC
  5
EA8
330
1F
100
AcDbEntity
  8
0
  6
Continuous
 62
     7
100
AcDbCircle
 10
236.3063726979143
 20
603.4869314354673
 30
10.59933933933931
 40
0.9999992529251711
100
AcDbArc
 50
359.9999571957209
 51
90.00004280429372
  0
LINE
  5
EA9
330
1F
100
AcDbEntity
  8
0
  6
Continuous
 62
     7
100
AcDbLine
 10
236.615174753642
 20
611.3432450027063
 30
10.59933933933931
 11
236.615174753642
 21
611.3432450027063
 31
10.59933933933931
  0
ARC
  5
EAA
330
1F
100
AcDbEntity
  8
0
  6
Continuous
 62
     7
100
AcDbCircle
 10
236.2295010305329
 20
611.3432449532714
 30
10.59933933933931
 40
0.3856737231087333
100
AcDbArc
 50
89.99999265589995
 51
0.0000073440251319
  0
ARC
  5
EAB
330
1F
100
AcDbEntity
  8
0
  6
Continuous
 62
     7
100
AcDbCircle
 10
236.2295013680955
 20
611.3432452908339
 30
10.59933933933931
 40
0.3856733855466701
100
AcDbArc
 50
359.9999571956721
 51
90.00004280424484
  0
LINE
  5
EC2
330
1F
100
AcDbEntity
  8
0
  6
Continuous
 62
     7
100
AcDbLine
 10
640.0663769538411
 20
634.4869326883916
 30
0.0
 11
640.0663769538411
 21
534.5910336883921
 31
0.0
  0
ARC
  5
EC3
330
1F
100
AcDbEntity
  8
0
  6
Continuous
 62
     7
100
AcDbCircle
 10
642.066373459692
 20
534.5910321942437
 30
0.0
 40
1.999996505851514
100
AcDbArc
 50
179.9999571957112
 51
270.0000428042953
  0
LINE
  5
EC4
330
1F
100
AcDbEntity
  8
0
  6
Continuous
 62
     7
100
AcDbLine
 10
642.0663749538412
 20
532.591035688392
 30
0.0
 11
643.5663749538412
 21
532.591035688392
 31
0.0
  0
ARC
  5
EC5
330
1F
100
AcDbEntity
  8
0
  6
Continuous
 62
     7
100
AcDbCircle
 10
642.066373459692
 20
634.4869341825411
 30
0.0
 40
1.999996505851686
100
AcDbArc
 50
89.99995719571119
 51
180.0000428042888
  0
LINE
  5
EC6
330
1F
100
AcDbEntity
  8
0
  6
Continuous
 62
     7
100
AcDbLine
 10
643.5663749538412
 20
636.4869306883924
 30
0.0
 11
642.0663749538412
 21
636.4869306883924
 31
0.0
  0
LINE
  5
10C9
330
1F
100
AcDbEntity
  8
0
  6
DASHED
 62
     4
 48
5.0
100
AcDbLine
 10
250.0063719508394
 20
670.2218650715947
 30
0.0
 11
250.0063719508394
 21
689.1969306883922
 31
0.0
  0
LINE
  5
10CA
330
1F
100
AcDbEntity
  8
0
  6
DASHED
 62
     4
 48
5.0
100
AcDbLine
 10
262.7396396673744
 20
680.2087417120144
 30
0.0
 11
262.7396396673744
 21
689.1969306883922
 31
0.0
  0
LINE
  5
10CB
330
1F
100
AcDbEntity
  8
0
  6
DASHED
 62
     4
 48
5.0
100
AcDbLine
 10
253.8113719508388
 20
680.2087417120144
 30
0.0
 11
253.8113719508388
 21
689.1969306883922
 31
0.0
  0
LINE
  5
10CC
330
1F
100
AcDbEntity
  8
0
  6
DASHED
 62
     4
 48
5.0
100
AcDbLine
 10
261.4213719508385
 20
680.2087417120144
 30
0.0
 11
261.4213719508385
 21
689.1969306883922
 31
0.0
  0
LINE
  5
10CD
330
1F
100
AcDbEntity
  8
0
  6
DASHED
 62
     4
 48
5.0
100
AcDbLine
 10
270.3496396673745
 20
680.2087417120144
 30
0.0
 11
270.3496396673745
 21
689.1969306883922
 31
0.0
  0
LINE
  5
10CE
330
1F
100
AcDbEntity
  8
0
  6
DASHED
 62
     4
 48
5.0
100
AcDbLine
 10
269.0313719508385
 20
680.2087417120144
 30
0.0
 11
269.0313719508385
 21
689.1969306883922
 31
0.0
  0
LINE
  5
10CF
330
1F
100
AcDbEntity
  8
0
  6
DASHED
 62
     4
 48
5.0
100
AcDbLine
 10
277.9596396673742
 20
680.2087417120144
 30
0.0
 11
277.9596396673742
 21
689.1969306883922
 31
0.0
  0
LINE
  5
10D0
330
1F
100
AcDbEntity
  8
0
  6
DASHED
 62
     4
 48
5.0
100
AcDbLine
 10
284.2513719508381
 20
680.2087417120144
 30
0.0
 11
284.2513719508381
 21
689.1969306883922
 31
0.0
  0
LINE
  5
10D1
330
1F
100
AcDbEntity
  8
0
  6
DASHED
 62
     4
 48
5.0
100
AcDbLine
 10
285.5696396673733
 20
680.2087417120144
 30
0.0
 11
285.5696396673733
 21
689.1969306883922
 31
0.0
  0
LINE
  5
10D2
330
1F
100
AcDbEntity
  8
0
  6
DASHED
 62
     4
 48
5.0
100
AcDbLine
 10
276.6413719508385
 20
680.2087417120144
 30
0.0
 11
276.6413719508385
 21
689.1969306883922
 31
0.0
  0
LINE
  5
10D3
330
1F
100
AcDbEntity
  8
0
  6
DASHED
 62
     4
 48
5.0
100
AcDbLine
 10
308.3996396673725
 20
680.2087417120144
 30
0.0
 11
308.3996396673725
 21
689.1969306883922
 31
0.0
  0
LINE
  5
10D4
330
1F
100
AcDbEntity
  8
0
  6
DASHED
 62
     4
 48
5.0
100
AcDbLine
 10
307.0813719508373
 20
680.2087417120144
 30
0.0
 11
307.0813719508373
 21
689.1969306883922
 31
0.0
  0
LINE
  5
10D5
330
1F
100
AcDbEntity
  8
0
  6
DASHED
 62
     4
 48
5.0
100
AcDbLine
 10
293.1796396673739
 20
680.2087417120144
 30
0.0
 11
293.1796396673739
 21
689.1969306883922
 31
0.0
  0
LINE
  5
10D6
330
1F
100
AcDbEntity
  8
0
  6
DASHED
 62
     4
 48
5.0
100
AcDbLine
 10
291.8613719508385
 20
680.2087417120144
 30
0.0
 11
291.8613719508385
 21
689.1969306883922
 31
0.0
  0
LINE
  5
10D7
330
1F
100
AcDbEntity
  8
0
  6
DASHED
 62
     4
 48
5.0
100
AcDbLine
 10
300.789639667372
 20
680.2087417120144
 30
0.0
 11
300.789639667372
 21
689.1969306883922
 31
0.0
  0
LINE
  5
10D8
330
1F
100
AcDbEntity
  8
0
  6
DASHED
 62
     4
 48
5.0
100
AcDbLine
 10
299.4713719508381
 20
680.2087417120144
 30
0.0
 11
299.4713719508381
 21
689.1969306883922
 31
0.0
  0
LINE
  5
10D9
330
1F
100
AcDbEntity
  8
0
  6
DASHED
 62
     4
 48
5.0
100
AcDbLine
 10
322.3013719508376
 20
680.2087417120144
 30
0.0
 11
322.3013719508376
 21
689.1969306883922
 31
0.0
  0
LINE
  5
10DA
330
1F
100
AcDbEntity
  8
0
  6
DASHED
 62
     4
 48
5.0
100
AcDbLine
 10
323.6196396673718
 20
680.2087417120144
 30
0.0
 11
323.6196396673718
 21
689.1969306883922
 31
0.0
  0
LINE
  5
10DB
330
1F
100
AcDbEntity
  8
0
  6
DASHED
 62
     4
 48
5.0
100
AcDbLine
 10
331.2296396673716
 20
680.2087417120144
 30
0.0
 11
331.2296396673716
 21
689.1969306883922
 31
0.0
  0
LINE
  5
10DC
330
1F
100
AcDbEntity
  8
0
  6
DASHED
 62
     4
 48
5.0
100
AcDbLine
 10
329.9113719508376
 20
680.2087417120144
 30
0.0
 11
329.9113719508376
 21
689.1969306883922
 31
0.0
  0
LINE
  5
10DD
330
1F
100
AcDbEntity
  8
0
  6
DASHED
 62
     4
 48
5.0
100
AcDbLine
 10
316.0096396673718
 20
680.2087417120144
 30
0.0
 11
316.0096396673718
 21
689.1969306883922
 31
0.0
  0
LINE
  5
10DE
330
1F
100
AcDbEntity
  8
0
  6
DASHED
 62
     4
 48
5.0
100
AcDbLine
 10
314.6913719508376
 20
680.2087417120144
 30
0.0
 11
314.6913719508376
 21
689.1969306883922
 31
0.0
  0
LINE
  5
10DF
330
1F
100
AcDbEntity
  8
0
  6
DASHED
 62
     4
 48
5.0
100
AcDbLine
 10
354.0596396673715
 20
680.2087417120144
 30
0.0
 11
354.0596396673715
 21
689.1969306883922
 31
0.0
  0
LINE
  5
10E0
330
1F
100
AcDbEntity
  8
0
  6
DASHED
 62
     4
 48
5.0
100
AcDbLine
 10
352.7413719508369
 20
680.2087417120144
 30
0.0
 11
352.7413719508369
 21
689.1969306883922
 31
0.0
  0
LINE
  5
10E1
330
1F
100
AcDbEntity
  8
0
  6
DASHED
 62
     4
 48
5.0
100
AcDbLine
 10
337.5213719508368
 20
680.2087417120144
 30
0.0
 11
337.5213719508368
 21
689.1969306883922
 31
0.0
  0
LINE
  5
10E2
330
1F
100
AcDbEntity
  8
0
  6
DASHED
 62
     4
 48
5.0
100
AcDbLine
 10
338.8396396673723
 20
680.2087417120144
 30
0.0
 11
338.8396396673723
 21
689.1969306883922
 31
0.0
  0
LINE
  5
10E3
330
1F
100
AcDbEntity
  8
0
  6
DASHED
 62
     4
 48
5.0
100
AcDbLine
 10
346.4496396673713
 20
680.2087417120144
 30
0.0
 11
346.4496396673713
 21
689.1969306883922
 31
0.0
  0
LINE
  5
10E4
330
1F
100
AcDbEntity
  8
0
  6
DASHED
 62
     4
 48
5.0
100
AcDbLine
 10
345.1313719508373
 20
680.2087417120144
 30
0.0
 11
345.1313719508373
 21
689.1969306883922
 31
0.0
  0
LINE
  5
10E5
330
1F
100
AcDbEntity
  8
0
  6
DASHED
 62
     4
 48
5.0
100
AcDbLine
 10
365.4746396673715
 20
670.2218650715947
 30
0.0
 11
365.4746396673715
 21
689.1969306883922
 31
0.0
  0
LINE
  5
10E6
330
1F
100
AcDbEntity
  8
0
  6
DASHED
 62
     4
 48
5.0
100
AcDbLine
 10
361.6696396673712
 20
680.2087417120144
 30
0.0
 11
361.6696396673712
 21
689.1969306883922
 31
0.0
  0
LINE
  5
10E7
330
1F
100
AcDbEntity
  8
0
  6
DASHED
 62
     4
 48
5.0
100
AcDbLine
 10
360.351371950836
 20
680.2087417120144
 30
0.0
 11
360.351371950836
 21
689.1969306883922
 31
0.0
  0
CIRCLE
  5
10E8
330
1F
100
AcDbEntity
  8
0
  6
Continuous
 62
     7
100
AcDbCircle
 10
395.5133789578573
 20
592.9458696273294
 30
0.0
 40
3.003000759534833
  0
LINE
  5
10E9
330
1F
100
AcDbEntity
  8
0
  6
DASHED
 62
     4
 48
5.0
100
AcDbLine
 10
365.4746396673715
 20
680.2087417120144
 30
0.0
 11
250.0063719508394
 21
680.2087417120144
 31
0.0
  0
LINE
  5
10EA
330
1F
100
AcDbEntity
  8
0
  6
DASHED
 62
     4
 48
5.0
100
AcDbLine
 10
365.4746396673715
 20
670.2218650715947
 30
0.0
 11
250.0063719508394
 21
670.2218650715947
 31
0.0
  0
LINE
  5
10EB
330
1F
100
AcDbEntity
  8
0
  6
DASHED
 62
     4
 48
5.0
100
AcDbLine
 10
283.1380109744608
 20
685.4363483209381
 30
0.0
 11
281.6399794783979
 21
685.4363483209381
 31
0.0
  0
LINE
  5
10EC
330
1F
100
AcDbEntity
  8
0
  6
DASHED
 62
     4
 48
5.0
100
AcDbLine
 10
281.6399794783979
 20
684.4376606568958
 30
0.0
 11
283.1380109744608
 21
684.4376606568958
 31
0.0
  0
LINE
  5
10ED
330
1F
100
AcDbEntity
  8
0
  6
DASHED
 62
     4
 48
5.0
100
AcDbLine
 10
254.049660824855
 20
672.6773004810435
 30
0.0
 11
255.0483484888971
 21
672.6773004810435
 31
0.0
  0
LINE
  5
10EE
330
1F
100
AcDbEntity
  8
0
  6
DASHED
 62
     4
 48
5.0
100
AcDbLine
 10
255.0483484888971
 20
676.6720511372112
 30
0.0
 11
254.049660824855
 21
676.6720511372112
 31
0.0
  0
LINE
  5
10EF
330
1F
100
AcDbEntity
  8
0
  6
DASHED
 62
     4
 48
5.0
100
AcDbLine
 10
251.3246396673741
 20
670.2218650715947
 30
0.0
 11
251.3246396673741
 21
680.2087417120144
 31
0.0
  0
LINE
  5
10F0
330
1F
100
AcDbEntity
  8
0
  6
DASHED
 62
     4
 48
5.0
100
AcDbLine
 10
252.5516293287926
 20
675.1740196411486
 30
0.0
 11
252.5516293287926
 21
674.1753319771064
 31
0.0
  0
LINE
  5
10F1
330
1F
100
AcDbEntity
  8
0
  6
DASHED
 62
     4
 48
5.0
100
AcDbLine
 10
254.049660824855
 20
674.1753319771064
 30
0.0
 11
254.049660824855
 21
672.6773004810435
 31
0.0
  0
LINE
  5
10F2
330
1F
100
AcDbEntity
  8
0
  6
DASHED
 62
     4
 48
5.0
100
AcDbLine
 10
252.5516293287926
 20
674.1753319771064
 30
0.0
 11
254.049660824855
 21
674.1753319771064
 31
0.0
  0
LINE
  5
10F3
330
1F
100
AcDbEntity
  8
0
  6
DASHED
 62
     4
 48
5.0
100
AcDbLine
 10
254.049660824855
 20
675.1740196411486
 30
0.0
 11
252.5516293287926
 21
675.1740196411486
 31
0.0
  0
LINE
  5
10F4
330
1F
100
AcDbEntity
  8
0
  6
DASHED
 62
     4
 48
5.0
100
AcDbLine
 10
254.049660824855
 20
676.6720511372112
 30
0.0
 11
254.049660824855
 21
675.1740196411486
 31
0.0
  0
LINE
  5
10F5
330
1F
100
AcDbEntity
  8
0
  6
DASHED
 62
     4
 48
5.0
100
AcDbLine
 10
265.2263719508393
 20
670.2218650715947
 30
0.0
 11
265.2263719508393
 21
680.2087417120144
 31
0.0
  0
LINE
  5
10F6
330
1F
100
AcDbEntity
  8
0
  6
DASHED
 62
     4
 48
5.0
100
AcDbLine
 10
258.934639667374
 20
670.2218650715947
 30
0.0
 11
258.934639667374
 21
680.2087417120144
 31
0.0
  0
LINE
  5
10F7
330
1F
100
AcDbEntity
  8
0
  6
DASHED
 62
     4
 48
5.0
100
AcDbLine
 10
257.6163719508395
 20
670.2218650715947
 30
0.0
 11
257.6163719508395
 21
680.2087417120144
 31
0.0
  0
LINE
  5
10F8
330
1F
100
AcDbEntity
  8
0
  6
DASHED
 62
     4
 48
5.0
100
AcDbLine
 10
266.5446396673738
 20
670.2218650715947
 30
0.0
 11
266.5446396673738
 21
680.2087417120144
 31
0.0
  0
LINE
  5
10F9
330
1F
100
AcDbEntity
  8
0
  6
DASHED
 62
     4
 48
5.0
100
AcDbLine
 10
274.1546396673736
 20
670.2218650715947
 30
0.0
 11
274.1546396673736
 21
680.2087417120144
 31
0.0
  0
LINE
  5
10FA
330
1F
100
AcDbEntity
  8
0
  6
DASHED
 62
     4
 48
5.0
100
AcDbLine
 10
272.8363719508383
 20
670.2218650715947
 30
0.0
 11
272.8363719508383
 21
680.2087417120144
 31
0.0
  0
LINE
  5
10FB
330
1F
100
AcDbEntity
  8
0
  6
DASHED
 62
     4
 48
5.0
100
AcDbLine
 10
281.7646396673732
 20
670.2218650715947
 30
0.0
 11
281.7646396673732
 21
680.2087417120144
 31
0.0
  0
LINE
  5
10FC
330
1F
100
AcDbEntity
  8
0
  6
DASHED
 62
     4
 48
5.0
100
AcDbLine
 10
280.446371950839
 20
670.2218650715947
 30
0.0
 11
280.446371950839
 21
680.2087417120144
 31
0.0
  0
LINE
  5
10FD
330
1F
100
AcDbEntity
  8
0
  6
DASHED
 62
     4
 48
5.0
100
AcDbLine
 10
267.7716293287915
 20
674.1753319771064
 30
0.0
 11
269.2696608248543
 21
674.1753319771064
 31
0.0
  0
LINE
  5
10FE
330
1F
100
AcDbEntity
  8
0
  6
DASHED
 62
     4
 48
5.0
100
AcDbLine
 10
269.2696608248543
 20
675.1740196411486
 30
0.0
 11
267.7716293287915
 21
675.1740196411486
 31
0.0
  0
LINE
  5
10FF
330
1F
100
AcDbEntity
  8
0
  6
DASHED
 62
     4
 48
5.0
100
AcDbLine
 10
261.659660824855
 20
672.6773004810435
 30
0.0
 11
262.6583484888966
 21
672.6773004810435
 31
0.0
  0
LINE
  5
1100
330
1F
100
AcDbEntity
  8
0
  6
DASHED
 62
     4
 48
5.0
100
AcDbLine
 10
262.6583484888966
 20
676.6720511372112
 30
0.0
 11
261.659660824855
 21
676.6720511372112
 31
0.0
  0
LINE
  5
1101
330
1F
100
AcDbEntity
  8
0
  6
DASHED
 62
     4
 48
5.0
100
AcDbLine
 10
260.1616293287921
 20
675.1740196411486
 30
0.0
 11
260.1616293287921
 21
674.1753319771064
 31
0.0
  0
LINE
  5
1102
330
1F
100
AcDbEntity
  8
0
  6
DASHED
 62
     4
 48
5.0
100
AcDbLine
 10
256.5463799849604
 20
674.1753319771064
 30
0.0
 11
256.5463799849604
 21
675.1740196411486
 31
0.0
  0
LINE
  5
1103
330
1F
100
AcDbEntity
  8
0
  6
DASHED
 62
     4
 48
5.0
100
AcDbLine
 10
261.659660824855
 20
674.1753319771064
 30
0.0
 11
261.659660824855
 21
672.6773004810435
 31
0.0
  0
LINE
  5
1104
330
1F
100
AcDbEntity
  8
0
  6
DASHED
 62
     4
 48
5.0
100
AcDbLine
 10
260.1616293287921
 20
674.1753319771064
 30
0.0
 11
261.659660824855
 21
674.1753319771064
 31
0.0
  0
LINE
  5
1105
330
1F
100
AcDbEntity
  8
0
  6
DASHED
 62
     4
 48
5.0
100
AcDbLine
 10
256.5463799849604
 20
674.1753319771064
 30
0.0
 11
256.5463799849604
 21
674.1753319771064
 31
0.0
  0
LINE
  5
1106
330
1F
100
AcDbEntity
  8
0
  6
DASHED
 62
     4
 48
5.0
100
AcDbLine
 10
255.0483484888971
 20
674.1753319771064
 30
0.0
 11
256.5463799849604
 21
674.1753319771064
 31
0.0
  0
LINE
  5
1107
330
1F
100
AcDbEntity
  8
0
  6
DASHED
 62
     4
 48
5.0
100
AcDbLine
 10
255.0483484888971
 20
672.6773004810435
 30
0.0
 11
255.0483484888971
 21
674.1753319771064
 31
0.0
  0
LINE
  5
1108
330
1F
100
AcDbEntity
  8
0
  6
DASHED
 62
     4
 48
5.0
100
AcDbLine
 10
261.659660824855
 20
675.1740196411486
 30
0.0
 11
260.1616293287921
 21
675.1740196411486
 31
0.0
  0
LINE
  5
1109
330
1F
100
AcDbEntity
  8
0
  6
DASHED
 62
     4
 48
5.0
100
AcDbLine
 10
256.5463799849604
 20
675.1740196411486
 30
0.0
 11
255.0483484888971
 21
675.1740196411486
 31
0.0
  0
LINE
  5
110A
330
1F
100
AcDbEntity
  8
0
  6
DASHED
 62
     4
 48
5.0
100
AcDbLine
 10
255.0483484888971
 20
675.1740196411486
 30
0.0
 11
255.0483484888971
 21
676.6720511372112
 31
0.0
  0
LINE
  5
110B
330
1F
100
AcDbEntity
  8
0
  6
DASHED
 62
     4
 48
5.0
100
AcDbLine
 10
261.659660824855
 20
676.6720511372112
 30
0.0
 11
261.659660824855
 21
675.1740196411486
 31
0.0
  0
LINE
  5
110C
330
1F
100
AcDbEntity
  8
0
  6
DASHED
 62
     4
 48
5.0
100
AcDbLine
 10
264.15637998496
 20
674.1753319771064
 30
0.0
 11
264.15637998496
 21
675.1740196411486
 31
0.0
  0
LINE
  5
110D
330
1F
100
AcDbEntity
  8
0
  6
DASHED
 62
     4
 48
5.0
100
AcDbLine
 10
267.7716293287915
 20
675.1740196411486
 30
0.0
 11
267.7716293287915
 21
674.1753319771064
 31
0.0
  0
LINE
  5
110E
330
1F
100
AcDbEntity
  8
0
  6
DASHED
 62
     4
 48
5.0
100
AcDbLine
 10
264.15637998496
 20
674.1753319771064
 30
0.0
 11
264.15637998496
 21
674.1753319771064
 31
0.0
  0
LINE
  5
110F
330
1F
100
AcDbEntity
  8
0
  6
DASHED
 62
     4
 48
5.0
100
AcDbLine
 10
262.6583484888966
 20
674.1753319771064
 30
0.0
 11
264.15637998496
 21
674.1753319771064
 31
0.0
  0
LINE
  5
1110
330
1F
100
AcDbEntity
  8
0
  6
DASHED
 62
     4
 48
5.0
100
AcDbLine
 10
262.6583484888966
 20
672.6773004810435
 30
0.0
 11
262.6583484888966
 21
674.1753319771064
 31
0.0
  0
LINE
  5
1111
330
1F
100
AcDbEntity
  8
0
  6
DASHED
 62
     4
 48
5.0
100
AcDbLine
 10
264.15637998496
 20
675.1740196411486
 30
0.0
 11
262.6583484888966
 21
675.1740196411486
 31
0.0
  0
LINE
  5
1112
330
1F
100
AcDbEntity
  8
0
  6
DASHED
 62
     4
 48
5.0
100
AcDbLine
 10
262.6583484888966
 20
675.1740196411486
 30
0.0
 11
262.6583484888966
 21
676.6720511372112
 31
0.0
  0
LINE
  5
1113
330
1F
100
AcDbEntity
  8
0
  6
DASHED
 62
     4
 48
5.0
100
AcDbLine
 10
258.8099794783985
 20
686.9343798170008
 30
0.0
 11
257.8112918143568
 21
686.9343798170008
 31
0.0
  0
LINE
  5
1114
330
1F
100
AcDbEntity
  8
0
  6
DASHED
 62
     4
 48
5.0
100
AcDbLine
 10
260.3080109744615
 20
685.4363483209381
 30
0.0
 11
258.8099794783985
 21
685.4363483209381
 31
0.0
  0
LINE
  5
1115
330
1F
100
AcDbEntity
  8
0
  6
DASHED
 62
     4
 48
5.0
100
AcDbLine
 10
260.3080109744615
 20
684.4376606568958
 30
0.0
 11
260.3080109744615
 21
684.4376606568958
 31
0.0
  0
LINE
  5
1116
330
1F
100
AcDbEntity
  8
0
  6
DASHED
 62
     4
 48
5.0
100
AcDbLine
 10
258.8099794783985
 20
684.4376606568958
 30
0.0
 11
260.3080109744615
 21
684.4376606568958
 31
0.0
  0
LINE
  5
1117
330
1F
100
AcDbEntity
  8
0
  6
DASHED
 62
     4
 48
5.0
100
AcDbLine
 10
258.8099794783985
 20
682.9396291608331
 30
0.0
 11
258.8099794783985
 21
684.4376606568958
 31
0.0
  0
LINE
  5
1118
330
1F
100
AcDbEntity
  8
0
  6
DASHED
 62
     4
 48
5.0
100
AcDbLine
 10
260.3080109744615
 20
684.4376606568958
 30
0.0
 11
260.3080109744615
 21
685.4363483209381
 31
0.0
  0
LINE
  5
1119
330
1F
100
AcDbEntity
  8
0
  6
DASHED
 62
     4
 48
5.0
100
AcDbLine
 10
257.8112918143568
 20
685.4363483209381
 30
0.0
 11
256.3132603182932
 21
685.4363483209381
 31
0.0
  0
LINE
  5
111A
330
1F
100
AcDbEntity
  8
0
  6
DASHED
 62
     4
 48
5.0
100
AcDbLine
 10
256.3132603182932
 20
684.4376606568958
 30
0.0
 11
257.8112918143568
 21
684.4376606568958
 31
0.0
  0
LINE
  5
111B
330
1F
100
AcDbEntity
  8
0
  6
DASHED
 62
     4
 48
5.0
100
AcDbLine
 10
256.3132603182932
 20
685.4363483209381
 30
0.0
 11
256.3132603182932
 21
684.4376606568958
 31
0.0
  0
LINE
  5
111C
330
1F
100
AcDbEntity
  8
0
  6
DASHED
 62
     4
 48
5.0
100
AcDbLine
 10
257.8112918143568
 20
684.4376606568958
 30
0.0
 11
257.8112918143568
 21
682.9396291608331
 31
0.0
  0
LINE
  5
111D
330
1F
100
AcDbEntity
  8
0
  6
DASHED
 62
     4
 48
5.0
100
AcDbLine
 10
257.8112918143568
 20
682.9396291608331
 30
0.0
 11
258.8099794783985
 21
682.9396291608331
 31
0.0
  0
LINE
  5
111E
330
1F
100
AcDbEntity
  8
0
  6
DASHED
 62
     4
 48
5.0
100
AcDbLine
 10
258.8099794783985
 20
685.4363483209381
 30
0.0
 11
258.8099794783985
 21
686.9343798170008
 31
0.0
  0
LINE
  5
111F
330
1F
100
AcDbEntity
  8
0
  6
DASHED
 62
     4
 48
5.0
100
AcDbLine
 10
257.8112918143568
 20
686.9343798170008
 30
0.0
 11
257.8112918143568
 21
685.4363483209381
 31
0.0
  0
LINE
  5
1120
330
1F
100
AcDbEntity
  8
0
  6
DASHED
 62
     4
 48
5.0
100
AcDbLine
 10
266.4199794783978
 20
686.9343798170008
 30
0.0
 11
265.421291814356
 21
686.9343798170008
 31
0.0
  0
LINE
  5
1121
330
1F
100
AcDbEntity
  8
0
  6
DASHED
 62
     4
 48
5.0
100
AcDbLine
 10
265.421291814356
 20
682.9396291608331
 30
0.0
 11
266.4199794783978
 21
682.9396291608331
 31
0.0
  0
LINE
  5
1122
330
1F
100
AcDbEntity
  8
0
  6
DASHED
 62
     4
 48
5.0
100
AcDbLine
 10
265.421291814356
 20
685.4363483209381
 30
0.0
 11
263.9232603182928
 21
685.4363483209381
 31
0.0
  0
LINE
  5
1123
330
1F
100
AcDbEntity
  8
0
  6
DASHED
 62
     4
 48
5.0
100
AcDbLine
 10
263.9232603182928
 20
684.4376606568958
 30
0.0
 11
265.421291814356
 21
684.4376606568958
 31
0.0
  0
LINE
  5
1124
330
1F
100
AcDbEntity
  8
0
  6
DASHED
 62
     4
 48
5.0
100
AcDbLine
 10
263.9232603182928
 20
685.4363483209381
 30
0.0
 11
263.9232603182928
 21
684.4376606568958
 31
0.0
  0
LINE
  5
1125
330
1F
100
AcDbEntity
  8
0
  6
DASHED
 62
     4
 48
5.0
100
AcDbLine
 10
265.421291814356
 20
684.4376606568958
 30
0.0
 11
265.421291814356
 21
682.9396291608331
 31
0.0
  0
LINE
  5
1126
330
1F
100
AcDbEntity
  8
0
  6
DASHED
 62
     4
 48
5.0
100
AcDbLine
 10
265.421291814356
 20
686.9343798170008
 30
0.0
 11
265.421291814356
 21
685.4363483209381
 31
0.0
  0
LINE
  5
1127
330
1F
100
AcDbEntity
  8
0
  6
DASHED
 62
     4
 48
5.0
100
AcDbLine
 10
267.9180109744605
 20
685.4363483209381
 30
0.0
 11
266.4199794783978
 21
685.4363483209381
 31
0.0
  0
LINE
  5
1128
330
1F
100
AcDbEntity
  8
0
  6
DASHED
 62
     4
 48
5.0
100
AcDbLine
 10
267.9180109744605
 20
684.4376606568958
 30
0.0
 11
267.9180109744605
 21
684.4376606568958
 31
0.0
  0
LINE
  5
1129
330
1F
100
AcDbEntity
  8
0
  6
DASHED
 62
     4
 48
5.0
100
AcDbLine
 10
266.4199794783978
 20
684.4376606568958
 30
0.0
 11
267.9180109744605
 21
684.4376606568958
 31
0.0
  0
LINE
  5
112A
330
1F
100
AcDbEntity
  8
0
  6
DASHED
 62
     4
 48
5.0
100
AcDbLine
 10
266.4199794783978
 20
682.9396291608331
 30
0.0
 11
266.4199794783978
 21
684.4376606568958
 31
0.0
  0
LINE
  5
112B
330
1F
100
AcDbEntity
  8
0
  6
DASHED
 62
     4
 48
5.0
100
AcDbLine
 10
267.9180109744605
 20
684.4376606568958
 30
0.0
 11
267.9180109744605
 21
685.4363483209381
 31
0.0
  0
LINE
  5
112C
330
1F
100
AcDbEntity
  8
0
  6
DASHED
 62
     4
 48
5.0
100
AcDbLine
 10
266.4199794783978
 20
685.4363483209381
 30
0.0
 11
266.4199794783978
 21
686.9343798170008
 31
0.0
  0
LINE
  5
112D
330
1F
100
AcDbEntity
  8
0
  6
DASHED
 62
     4
 48
5.0
100
AcDbLine
 10
275.3816293287915
 20
674.1753319771064
 30
0.0
 11
276.8796608248545
 21
674.1753319771064
 31
0.0
  0
LINE
  5
112E
330
1F
100
AcDbEntity
  8
0
  6
DASHED
 62
     4
 48
5.0
100
AcDbLine
 10
276.8796608248545
 20
675.1740196411486
 30
0.0
 11
275.3816293287915
 21
675.1740196411486
 31
0.0
  0
LINE
  5
112F
330
1F
100
AcDbEntity
  8
0
  6
DASHED
 62
     4
 48
5.0
100
AcDbLine
 10
271.7663799849593
 20
675.1740196411486
 30
0.0
 11
270.2683484888962
 21
675.1740196411486
 31
0.0
  0
LINE
  5
1130
330
1F
100
AcDbEntity
  8
0
  6
DASHED
 62
     4
 48
5.0
100
AcDbLine
 10
270.2683484888962
 20
674.1753319771064
 30
0.0
 11
271.7663799849593
 21
674.1753319771064
 31
0.0
  0
LINE
  5
1131
330
1F
100
AcDbEntity
  8
0
  6
DASHED
 62
     4
 48
5.0
100
AcDbLine
 10
270.2683484888962
 20
672.6773004810435
 30
0.0
 11
270.2683484888962
 21
674.1753319771064
 31
0.0
  0
LINE
  5
1132
330
1F
100
AcDbEntity
  8
0
  6
DASHED
 62
     4
 48
5.0
100
AcDbLine
 10
269.2696608248543
 20
674.1753319771064
 30
0.0
 11
269.2696608248543
 21
672.6773004810435
 31
0.0
  0
LINE
  5
1133
330
1F
100
AcDbEntity
  8
0
  6
DASHED
 62
     4
 48
5.0
100
AcDbLine
 10
269.2696608248543
 20
672.6773004810435
 30
0.0
 11
270.2683484888962
 21
672.6773004810435
 31
0.0
  0
LINE
  5
1134
330
1F
100
AcDbEntity
  8
0
  6
DASHED
 62
     4
 48
5.0
100
AcDbLine
 10
270.2683484888962
 20
675.1740196411486
 30
0.0
 11
270.2683484888962
 21
676.6720511372112
 31
0.0
  0
LINE
  5
1135
330
1F
100
AcDbEntity
  8
0
  6
DASHED
 62
     4
 48
5.0
100
AcDbLine
 10
269.2696608248543
 20
676.6720511372112
 30
0.0
 11
269.2696608248543
 21
675.1740196411486
 31
0.0
  0
LINE
  5
1136
330
1F
100
AcDbEntity
  8
0
  6
DASHED
 62
     4
 48
5.0
100
AcDbLine
 10
270.2683484888962
 20
676.6720511372112
 30
0.0
 11
269.2696608248543
 21
676.6720511372112
 31
0.0
  0
LINE
  5
1137
330
1F
100
AcDbEntity
  8
0
  6
DASHED
 62
     4
 48
5.0
100
AcDbLine
 10
275.3816293287915
 20
675.1740196411486
 30
0.0
 11
275.3816293287915
 21
674.1753319771064
 31
0.0
  0
LINE
  5
1138
330
1F
100
AcDbEntity
  8
0
  6
DASHED
 62
     4
 48
5.0
100
AcDbLine
 10
271.7663799849593
 20
674.1753319771064
 30
0.0
 11
271.7663799849593
 21
675.1740196411486
 31
0.0
  0
LINE
  5
1139
330
1F
100
AcDbEntity
  8
0
  6
DASHED
 62
     4
 48
5.0
100
AcDbLine
 10
271.7663799849593
 20
674.1753319771064
 30
0.0
 11
271.7663799849593
 21
674.1753319771064
 31
0.0
  0
LINE
  5
113A
330
1F
100
AcDbEntity
  8
0
  6
DASHED
 62
     4
 48
5.0
100
AcDbLine
 10
279.3763799849591
 20
674.1753319771064
 30
0.0
 11
279.3763799849591
 21
675.1740196411486
 31
0.0
  0
LINE
  5
113B
330
1F
100
AcDbEntity
  8
0
  6
DASHED
 62
     4
 48
5.0
100
AcDbLine
 10
277.8783484888955
 20
674.1753319771064
 30
0.0
 11
279.3763799849591
 21
674.1753319771064
 31
0.0
  0
LINE
  5
113C
330
1F
100
AcDbEntity
  8
0
  6
DASHED
 62
     4
 48
5.0
100
AcDbLine
 10
277.8783484888955
 20
672.6773004810435
 30
0.0
 11
277.8783484888955
 21
674.1753319771064
 31
0.0
  0
LINE
  5
113D
330
1F
100
AcDbEntity
  8
0
  6
DASHED
 62
     4
 48
5.0
100
AcDbLine
 10
279.3763799849591
 20
674.1753319771064
 30
0.0
 11
279.3763799849591
 21
674.1753319771064
 31
0.0
  0
LINE
  5
113E
330
1F
100
AcDbEntity
  8
0
  6
DASHED
 62
     4
 48
5.0
100
AcDbLine
 10
276.8796608248545
 20
674.1753319771064
 30
0.0
 11
276.8796608248545
 21
672.6773004810435
 31
0.0
  0
LINE
  5
113F
330
1F
100
AcDbEntity
  8
0
  6
DASHED
 62
     4
 48
5.0
100
AcDbLine
 10
276.8796608248545
 20
672.6773004810435
 30
0.0
 11
277.8783484888955
 21
672.6773004810435
 31
0.0
  0
LINE
  5
1140
330
1F
100
AcDbEntity
  8
0
  6
DASHED
 62
     4
 48
5.0
100
AcDbLine
 10
279.3763799849591
 20
675.1740196411486
 30
0.0
 11
277.8783484888955
 21
675.1740196411486
 31
0.0
  0
LINE
  5
1141
330
1F
100
AcDbEntity
  8
0
  6
DASHED
 62
     4
 48
5.0
100
AcDbLine
 10
277.8783484888955
 20
675.1740196411486
 30
0.0
 11
277.8783484888955
 21
676.6720511372112
 31
0.0
  0
LINE
  5
1142
330
1F
100
AcDbEntity
  8
0
  6
DASHED
 62
     4
 48
5.0
100
AcDbLine
 10
276.8796608248545
 20
676.6720511372112
 30
0.0
 11
276.8796608248545
 21
675.1740196411486
 31
0.0
  0
LINE
  5
1143
330
1F
100
AcDbEntity
  8
0
  6
DASHED
 62
     4
 48
5.0
100
AcDbLine
 10
277.8783484888955
 20
676.6720511372112
 30
0.0
 11
276.8796608248545
 21
676.6720511372112
 31
0.0
  0
LINE
  5
1144
330
1F
100
AcDbEntity
  8
0
  6
DASHED
 62
     4
 48
5.0
100
AcDbLine
 10
274.0299794783978
 20
686.9343798170008
 30
0.0
 11
273.0312918143555
 21
686.9343798170008
 31
0.0
  0
LINE
  5
1145
330
1F
100
AcDbEntity
  8
0
  6
DASHED
 62
     4
 48
5.0
100
AcDbLine
 10
275.5280109744604
 20
685.4363483209381
 30
0.0
 11
274.0299794783978
 21
685.4363483209381
 31
0.0
  0
LINE
  5
1146
330
1F
100
AcDbEntity
  8
0
  6
DASHED
 62
     4
 48
5.0
100
AcDbLine
 10
275.5280109744604
 20
684.4376606568958
 30
0.0
 11
275.5280109744604
 21
684.4376606568958
 31
0.0
  0
LINE
  5
1147
330
1F
100
AcDbEntity
  8
0
  6
DASHED
 62
     4
 48
5.0
100
AcDbLine
 10
274.0299794783978
 20
684.4376606568958
 30
0.0
 11
275.5280109744604
 21
684.4376606568958
 31
0.0
  0
LINE
  5
1148
330
1F
100
AcDbEntity
  8
0
  6
DASHED
 62
     4
 48
5.0
100
AcDbLine
 10
274.0299794783978
 20
682.9396291608331
 30
0.0
 11
274.0299794783978
 21
684.4376606568958
 31
0.0
  0
LINE
  5
1149
330
1F
100
AcDbEntity
  8
0
  6
DASHED
 62
     4
 48
5.0
100
AcDbLine
 10
275.5280109744604
 20
684.4376606568958
 30
0.0
 11
275.5280109744604
 21
685.4363483209381
 31
0.0
  0
LINE
  5
114A
330
1F
100
AcDbEntity
  8
0
  6
DASHED
 62
     4
 48
5.0
100
AcDbLine
 10
273.0312918143555
 20
685.4363483209381
 30
0.0
 11
271.5332603182925
 21
685.4363483209381
 31
0.0
  0
LINE
  5
114B
330
1F
100
AcDbEntity
  8
0
  6
DASHED
 62
     4
 48
5.0
100
AcDbLine
 10
271.5332603182925
 20
684.4376606568958
 30
0.0
 11
273.0312918143555
 21
684.4376606568958
 31
0.0
  0
LINE
  5
114C
330
1F
100
AcDbEntity
  8
0
  6
DASHED
 62
     4
 48
5.0
100
AcDbLine
 10
271.5332603182925
 20
685.4363483209381
 30
0.0
 11
271.5332603182925
 21
684.4376606568958
 31
0.0
  0
LINE
  5
114D
330
1F
100
AcDbEntity
  8
0
  6
DASHED
 62
     4
 48
5.0
100
AcDbLine
 10
273.0312918143555
 20
684.4376606568958
 30
0.0
 11
273.0312918143555
 21
682.9396291608331
 31
0.0
  0
LINE
  5
114E
330
1F
100
AcDbEntity
  8
0
  6
DASHED
 62
     4
 48
5.0
100
AcDbLine
 10
273.0312918143555
 20
682.9396291608331
 30
0.0
 11
274.0299794783978
 21
682.9396291608331
 31
0.0
  0
LINE
  5
114F
330
1F
100
AcDbEntity
  8
0
  6
DASHED
 62
     4
 48
5.0
100
AcDbLine
 10
273.0312918143555
 20
686.9343798170008
 30
0.0
 11
273.0312918143555
 21
685.4363483209381
 31
0.0
  0
LINE
  5
1150
330
1F
100
AcDbEntity
  8
0
  6
DASHED
 62
     4
 48
5.0
100
AcDbLine
 10
274.0299794783978
 20
685.4363483209381
 30
0.0
 11
274.0299794783978
 21
686.9343798170008
 31
0.0
  0
LINE
  5
1151
330
1F
100
AcDbEntity
  8
0
  6
DASHED
 62
     4
 48
5.0
100
AcDbLine
 10
281.6399794783979
 20
686.9343798170008
 30
0.0
 11
280.6412918143558
 21
686.9343798170008
 31
0.0
  0
LINE
  5
1152
330
1F
100
AcDbEntity
  8
0
  6
DASHED
 62
     4
 48
5.0
100
AcDbLine
 10
281.6399794783979
 20
682.9396291608331
 30
0.0
 11
281.6399794783979
 21
684.4376606568958
 31
0.0
  0
LINE
  5
1153
330
1F
100
AcDbEntity
  8
0
  6
DASHED
 62
     4
 48
5.0
100
AcDbLine
 10
280.6412918143558
 20
682.9396291608331
 30
0.0
 11
281.6399794783979
 21
682.9396291608331
 31
0.0
  0
LINE
  5
1154
330
1F
100
AcDbEntity
  8
0
  6
DASHED
 62
     4
 48
5.0
100
AcDbLine
 10
280.6412918143558
 20
684.4376606568958
 30
0.0
 11
280.6412918143558
 21
682.9396291608331
 31
0.0
  0
LINE
  5
1155
330
1F
100
AcDbEntity
  8
0
  6
DASHED
 62
     4
 48
5.0
100
AcDbLine
 10
279.1432603182925
 20
685.4363483209381
 30
0.0
 11
279.1432603182925
 21
684.4376606568958
 31
0.0
  0
LINE
  5
1156
330
1F
100
AcDbEntity
  8
0
  6
DASHED
 62
     4
 48
5.0
100
AcDbLine
 10
280.6412918143558
 20
685.4363483209381
 30
0.0
 11
279.1432603182925
 21
685.4363483209381
 31
0.0
  0
LINE
  5
1157
330
1F
100
AcDbEntity
  8
0
  6
DASHED
 62
     4
 48
5.0
100
AcDbLine
 10
279.1432603182925
 20
684.4376606568958
 30
0.0
 11
280.6412918143558
 21
684.4376606568958
 31
0.0
  0
LINE
  5
1158
330
1F
100
AcDbEntity
  8
0
  6
DASHED
 62
     4
 48
5.0
100
AcDbLine
 10
280.6412918143558
 20
686.9343798170008
 30
0.0
 11
280.6412918143558
 21
685.4363483209381
 31
0.0
  0
LINE
  5
1159
330
1F
100
AcDbEntity
  8
0
  6
DASHED
 62
     4
 48
5.0
100
AcDbLine
 10
281.6399794783979
 20
685.4363483209381
 30
0.0
 11
281.6399794783979
 21
686.9343798170008
 31
0.0
  0
CIRCLE
  5
115A
330
1F
100
AcDbEntity
  8
0
  6
Continuous
 62
     7
100
AcDbCircle
 10
371.4893549338327
 20
592.9458696273294
 30
0.0
 40
3.003000759534948
  0
CIRCLE
  5
115B
330
1F
100
AcDbEntity
  8
0
  6
Continuous
 62
     7
100
AcDbCircle
 10
383.5013669458449
 20
592.9458696273294
 30
0.0
 40
3.003000759534833
  0
CIRCLE
  5
115C
330
1F
100
AcDbEntity
  8
0
  6
Continuous
 62
     7
100
AcDbCircle
 10
366.961662494317
 20
620.9538783831616
 30
0.0
 40
2.002000506356785
  0
CIRCLE
  5
115D
330
1F
100
AcDbEntity
  8
0
  6
Continuous
 62
     7
100
AcDbCircle
 10
366.9617105423656
 20
615.8487732780558
 30
0.0
 40
2.002000506356556
  0
CIRCLE
  5
115E
330
1F
100
AcDbEntity
  8
0
  6
Continuous
 62
     7
100
AcDbCircle
 10
366.9617585904135
 20
610.7436681729507
 30
0.0
 40
2.002000506356556
  0
LINE
  5
115F
330
1F
100
AcDbEntity
  8
0
  6
Continuous
 62
     7
100
AcDbLine
 10
394.5123757133869
 20
608.9618878868146
 30
0.0
 11
394.5123757133869
 21
600.9538798788067
 31
0.0
  0
LINE
  5
1160
330
1F
100
AcDbEntity
  8
0
  6
Continuous
 62
     7
100
AcDbLine
 10
372.4903536913643
 20
608.9618878868146
 30
0.0
 11
372.4903536913643
 21
600.9538798788067
 31
0.0
  0
LINE
  5
1161
330
1F
100
AcDbEntity
  8
0
  6
Continuous
 62
     7
100
AcDbLine
 10
372.4903536913643
 20
600.9538798788067
 30
0.0
 11
394.5123757133869
 21
600.9538798788067
 31
0.0
  0
LINE
  5
1162
330
1F
100
AcDbEntity
  8
0
  6
Continuous
 62
     7
100
AcDbLine
 10
372.4903536913643
 20
612.9658918908188
 30
0.0
 11
394.5123757133869
 21
612.9658918908188
 31
0.0
  0
LINE
  5
1163
330
1F
100
AcDbEntity
  8
0
  6
Continuous
 62
     7
100
AcDbLine
 10
372.4903536913643
 20
608.9618878868146
 30
0.0
 11
394.5123757133869
 21
608.9618878868146
 31
0.0
  0
LINE
  5
1164
330
1F
100
AcDbEntity
  8
0
  6
Continuous
 62
     7
100
AcDbLine
 10
372.4903536913643
 20
620.9738998988268
 30
0.0
 11
394.5123757133869
 21
620.9738998988268
 31
0.0
  0
LINE
  5
1165
330
1F
100
AcDbEntity
  8
0
  6
Continuous
 62
     7
100
AcDbLine
 10
372.4903536913643
 20
620.9738998988268
 30
0.0
 11
372.4903536913643
 21
612.9658918908188
 31
0.0
  0
LINE
  5
1166
330
1F
100
AcDbEntity
  8
0
  6
Continuous
 62
     7
100
AcDbLine
 10
394.5123757133869
 20
620.9738998988268
 30
0.0
 11
394.5123757133869
 21
612.9658918908188
 31
0.0
  0
LINE
  5
1167
330
1F
100
AcDbEntity
  8
0
  6
DASHED
 62
     4
 48
5.0
100
AcDbLine
 10
338.7583484888939
 20
674.1753319771064
 30
0.0
 11
340.2563799849569
 21
674.1753319771064
 31
0.0
  0
LINE
  5
1168
330
1F
100
AcDbEntity
  8
0
  6
DASHED
 62
     4
 48
5.0
100
AcDbLine
 10
340.2563799849569
 20
675.1740196411486
 30
0.0
 11
338.7583484888939
 21
675.1740196411486
 31
0.0
  0
LINE
  5
1169
330
1F
100
AcDbEntity
  8
0
  6
DASHED
 62
     4
 48
5.0
100
AcDbLine
 10
311.0812918143549
 20
685.4363483209381
 30
0.0
 11
309.5832603182921
 21
685.4363483209381
 31
0.0
  0
LINE
  5
116A
330
1F
100
AcDbEntity
  8
0
  6
DASHED
 62
     4
 48
5.0
100
AcDbLine
 10
309.5832603182921
 20
684.4376606568958
 30
0.0
 11
311.0812918143549
 21
684.4376606568958
 31
0.0
  0
LINE
  5
116B
330
1F
100
AcDbEntity
  8
0
  6
DASHED
 62
     4
 48
5.0
100
AcDbLine
 10
303.2763719508372
 20
670.2218650715947
 30
0.0
 11
303.2763719508372
 21
680.2087417120144
 31
0.0
  0
LINE
  5
116C
330
1F
100
AcDbEntity
  8
0
  6
DASHED
 62
     4
 48
5.0
100
AcDbLine
 10
304.5946396673735
 20
670.2218650715947
 30
0.0
 11
304.5946396673735
 21
680.2087417120144
 31
0.0
  0
LINE
  5
116D
330
1F
100
AcDbEntity
  8
0
  6
DASHED
 62
     4
 48
5.0
100
AcDbLine
 10
296.9846396673736
 20
670.2218650715947
 30
0.0
 11
296.9846396673736
 21
680.2087417120144
 31
0.0
  0
LINE
  5
116E
330
1F
100
AcDbEntity
  8
0
  6
DASHED
 62
     4
 48
5.0
100
AcDbLine
 10
295.6663719508373
 20
670.2218650715947
 30
0.0
 11
295.6663719508373
 21
680.2087417120144
 31
0.0
  0
LINE
  5
116F
330
1F
100
AcDbEntity
  8
0
  6
DASHED
 62
     4
 48
5.0
100
AcDbLine
 10
289.3746396673742
 20
670.2218650715947
 30
0.0
 11
289.3746396673742
 21
680.2087417120144
 31
0.0
  0
LINE
  5
1170
330
1F
100
AcDbEntity
  8
0
  6
DASHED
 62
     4
 48
5.0
100
AcDbLine
 10
288.0563719508376
 20
670.2218650715947
 30
0.0
 11
288.0563719508376
 21
680.2087417120144
 31
0.0
  0
LINE
  5
1171
330
1F
100
AcDbEntity
  8
0
  6
DASHED
 62
     4
 48
5.0
100
AcDbLine
 10
296.8599794783971
 20
686.9343798170008
 30
0.0
 11
295.8612918143558
 21
686.9343798170008
 31
0.0
  0
LINE
  5
1172
330
1F
100
AcDbEntity
  8
0
  6
DASHED
 62
     4
 48
5.0
100
AcDbLine
 10
295.8612918143558
 20
682.9396291608331
 30
0.0
 11
296.8599794783971
 21
682.9396291608331
 31
0.0
  0
LINE
  5
1173
330
1F
100
AcDbEntity
  8
0
  6
DASHED
 62
     4
 48
5.0
100
AcDbLine
 10
286.9863799849587
 20
674.1753319771064
 30
0.0
 11
286.9863799849587
 21
675.1740196411486
 31
0.0
  0
LINE
  5
1174
330
1F
100
AcDbEntity
  8
0
  6
DASHED
 62
     4
 48
5.0
100
AcDbLine
 10
282.9916293287908
 20
675.1740196411486
 30
0.0
 11
282.9916293287908
 21
674.1753319771064
 31
0.0
  0
LINE
  5
1175
330
1F
100
AcDbEntity
  8
0
  6
DASHED
 62
     4
 48
5.0
100
AcDbLine
 10
285.4883484888961
 20
674.1753319771064
 30
0.0
 11
286.9863799849587
 21
674.1753319771064
 31
0.0
  0
LINE
  5
1176
330
1F
100
AcDbEntity
  8
0
  6
DASHED
 62
     4
 48
5.0
100
AcDbLine
 10
284.4896608248538
 20
672.6773004810435
 30
0.0
 11
285.4883484888961
 21
672.6773004810435
 31
0.0
  0
LINE
  5
1177
330
1F
100
AcDbEntity
  8
0
  6
DASHED
 62
     4
 48
5.0
100
AcDbLine
 10
284.4896608248538
 20
674.1753319771064
 30
0.0
 11
284.4896608248538
 21
672.6773004810435
 31
0.0
  0
LINE
  5
1178
330
1F
100
AcDbEntity
  8
0
  6
DASHED
 62
     4
 48
5.0
100
AcDbLine
 10
285.4883484888961
 20
672.6773004810435
 30
0.0
 11
285.4883484888961
 21
674.1753319771064
 31
0.0
  0
LINE
  5
1179
330
1F
100
AcDbEntity
  8
0
  6
DASHED
 62
     4
 48
5.0
100
AcDbLine
 10
286.9863799849587
 20
674.1753319771064
 30
0.0
 11
286.9863799849587
 21
674.1753319771064
 31
0.0
  0
LINE
  5
117A
330
1F
100
AcDbEntity
  8
0
  6
DASHED
 62
     4
 48
5.0
100
AcDbLine
 10
282.9916293287908
 20
674.1753319771064
 30
0.0
 11
284.4896608248538
 21
674.1753319771064
 31
0.0
  0
LINE
  5
117B
330
1F
100
AcDbEntity
  8
0
  6
DASHED
 62
     4
 48
5.0
100
AcDbLine
 10
285.4883484888961
 20
676.6720511372112
 30
0.0
 11
284.4896608248538
 21
676.6720511372112
 31
0.0
  0
LINE
  5
117C
330
1F
100
AcDbEntity
  8
0
  6
DASHED
 62
     4
 48
5.0
100
AcDbLine
 10
286.9863799849587
 20
675.1740196411486
 30
0.0
 11
285.4883484888961
 21
675.1740196411486
 31
0.0
  0
LINE
  5
117D
330
1F
100
AcDbEntity
  8
0
  6
DASHED
 62
     4
 48
5.0
100
AcDbLine
 10
284.4896608248538
 20
676.6720511372112
 30
0.0
 11
284.4896608248538
 21
675.1740196411486
 31
0.0
  0
LINE
  5
117E
330
1F
100
AcDbEntity
  8
0
  6
DASHED
 62
     4
 48
5.0
100
AcDbLine
 10
285.4883484888961
 20
675.1740196411486
 30
0.0
 11
285.4883484888961
 21
676.6720511372112
 31
0.0
  0
LINE
  5
117F
330
1F
100
AcDbEntity
  8
0
  6
DASHED
 62
     4
 48
5.0
100
AcDbLine
 10
284.4896608248538
 20
675.1740196411486
 30
0.0
 11
282.9916293287908
 21
675.1740196411486
 31
0.0
  0
LINE
  5
1180
330
1F
100
AcDbEntity
  8
0
  6
DASHED
 62
     4
 48
5.0
100
AcDbLine
 10
294.5963799849581
 20
674.1753319771064
 30
0.0
 11
294.5963799849581
 21
675.1740196411486
 31
0.0
  0
LINE
  5
1181
330
1F
100
AcDbEntity
  8
0
  6
DASHED
 62
     4
 48
5.0
100
AcDbLine
 10
290.6016293287905
 20
675.1740196411486
 30
0.0
 11
290.6016293287905
 21
674.1753319771064
 31
0.0
  0
LINE
  5
1182
330
1F
100
AcDbEntity
  8
0
  6
DASHED
 62
     4
 48
5.0
100
AcDbLine
 10
290.6016293287905
 20
674.1753319771064
 30
0.0
 11
292.0996608248541
 21
674.1753319771064
 31
0.0
  0
LINE
  5
1183
330
1F
100
AcDbEntity
  8
0
  6
DASHED
 62
     4
 48
5.0
100
AcDbLine
 10
293.0983484888955
 20
674.1753319771064
 30
0.0
 11
294.5963799849581
 21
674.1753319771064
 31
0.0
  0
LINE
  5
1184
330
1F
100
AcDbEntity
  8
0
  6
DASHED
 62
     4
 48
5.0
100
AcDbLine
 10
293.0983484888955
 20
672.6773004810435
 30
0.0
 11
293.0983484888955
 21
674.1753319771064
 31
0.0
  0
LINE
  5
1185
330
1F
100
AcDbEntity
  8
0
  6
DASHED
 62
     4
 48
5.0
100
AcDbLine
 10
292.0996608248541
 20
672.6773004810435
 30
0.0
 11
293.0983484888955
 21
672.6773004810435
 31
0.0
  0
LINE
  5
1186
330
1F
100
AcDbEntity
  8
0
  6
DASHED
 62
     4
 48
5.0
100
AcDbLine
 10
292.0996608248541
 20
674.1753319771064
 30
0.0
 11
292.0996608248541
 21
672.6773004810435
 31
0.0
  0
LINE
  5
1187
330
1F
100
AcDbEntity
  8
0
  6
DASHED
 62
     4
 48
5.0
100
AcDbLine
 10
294.5963799849581
 20
674.1753319771064
 30
0.0
 11
294.5963799849581
 21
674.1753319771064
 31
0.0
  0
LINE
  5
1188
330
1F
100
AcDbEntity
  8
0
  6
DASHED
 62
     4
 48
5.0
100
AcDbLine
 10
292.0996608248541
 20
675.1740196411486
 30
0.0
 11
290.6016293287905
 21
675.1740196411486
 31
0.0
  0
LINE
  5
1189
330
1F
100
AcDbEntity
  8
0
  6
DASHED
 62
     4
 48
5.0
100
AcDbLine
 10
293.0983484888955
 20
676.6720511372112
 30
0.0
 11
292.0996608248541
 21
676.6720511372112
 31
0.0
  0
LINE
  5
118A
330
1F
100
AcDbEntity
  8
0
  6
DASHED
 62
     4
 48
5.0
100
AcDbLine
 10
294.5963799849581
 20
675.1740196411486
 30
0.0
 11
293.0983484888955
 21
675.1740196411486
 31
0.0
  0
LINE
  5
118B
330
1F
100
AcDbEntity
  8
0
  6
DASHED
 62
     4
 48
5.0
100
AcDbLine
 10
292.0996608248541
 20
676.6720511372112
 30
0.0
 11
292.0996608248541
 21
675.1740196411486
 31
0.0
  0
LINE
  5
118C
330
1F
100
AcDbEntity
  8
0
  6
DASHED
 62
     4
 48
5.0
100
AcDbLine
 10
293.0983484888955
 20
675.1740196411486
 30
0.0
 11
293.0983484888955
 21
676.6720511372112
 31
0.0
  0
LINE
  5
118D
330
1F
100
AcDbEntity
  8
0
  6
DASHED
 62
     4
 48
5.0
100
AcDbLine
 10
290.7480109744608
 20
685.4363483209381
 30
0.0
 11
289.2499794783978
 21
685.4363483209381
 31
0.0
  0
LINE
  5
118E
330
1F
100
AcDbEntity
  8
0
  6
DASHED
 62
     4
 48
5.0
100
AcDbLine
 10
289.2499794783978
 20
684.4376606568958
 30
0.0
 11
290.7480109744608
 21
684.4376606568958
 31
0.0
  0
LINE
  5
118F
330
1F
100
AcDbEntity
  8
0
  6
DASHED
 62
     4
 48
5.0
100
AcDbLine
 10
289.2499794783978
 20
686.9343798170008
 30
0.0
 11
288.2512918143551
 21
686.9343798170008
 31
0.0
  0
LINE
  5
1190
330
1F
100
AcDbEntity
  8
0
  6
DASHED
 62
     4
 48
5.0
100
AcDbLine
 10
289.2499794783978
 20
682.9396291608331
 30
0.0
 11
289.2499794783978
 21
684.4376606568958
 31
0.0
  0
LINE
  5
1191
330
1F
100
AcDbEntity
  8
0
  6
DASHED
 62
     4
 48
5.0
100
AcDbLine
 10
288.2512918143551
 20
682.9396291608331
 30
0.0
 11
289.2499794783978
 21
682.9396291608331
 31
0.0
  0
LINE
  5
1192
330
1F
100
AcDbEntity
  8
0
  6
DASHED
 62
     4
 48
5.0
100
AcDbLine
 10
288.2512918143551
 20
684.4376606568958
 30
0.0
 11
288.2512918143551
 21
682.9396291608331
 31
0.0
  0
LINE
  5
1193
330
1F
100
AcDbEntity
  8
0
  6
DASHED
 62
     4
 48
5.0
100
AcDbLine
 10
286.7532603182922
 20
685.4363483209381
 30
0.0
 11
286.7532603182922
 21
684.4376606568958
 31
0.0
  0
LINE
  5
1194
330
1F
100
AcDbEntity
  8
0
  6
DASHED
 62
     4
 48
5.0
100
AcDbLine
 10
288.2512918143551
 20
685.4363483209381
 30
0.0
 11
286.7532603182922
 21
685.4363483209381
 31
0.0
  0
LINE
  5
1195
330
1F
100
AcDbEntity
  8
0
  6
DASHED
 62
     4
 48
5.0
100
AcDbLine
 10
286.7532603182922
 20
684.4376606568958
 30
0.0
 11
288.2512918143551
 21
684.4376606568958
 31
0.0
  0
LINE
  5
1196
330
1F
100
AcDbEntity
  8
0
  6
DASHED
 62
     4
 48
5.0
100
AcDbLine
 10
288.2512918143551
 20
686.9343798170008
 30
0.0
 11
288.2512918143551
 21
685.4363483209381
 31
0.0
  0
LINE
  5
1197
330
1F
100
AcDbEntity
  8
0
  6
DASHED
 62
     4
 48
5.0
100
AcDbLine
 10
289.2499794783978
 20
685.4363483209381
 30
0.0
 11
289.2499794783978
 21
686.9343798170008
 31
0.0
  0
LINE
  5
1198
330
1F
100
AcDbEntity
  8
0
  6
DASHED
 62
     4
 48
5.0
100
AcDbLine
 10
283.1380109744608
 20
684.4376606568958
 30
0.0
 11
283.1380109744608
 21
684.4376606568958
 31
0.0
  0
LINE
  5
1199
330
1F
100
AcDbEntity
  8
0
  6
DASHED
 62
     4
 48
5.0
100
AcDbLine
 10
283.1380109744608
 20
684.4376606568958
 30
0.0
 11
283.1380109744608
 21
685.4363483209381
 31
0.0
  0
LINE
  5
119A
330
1F
100
AcDbEntity
  8
0
  6
DASHED
 62
     4
 48
5.0
100
AcDbLine
 10
290.7480109744608
 20
684.4376606568958
 30
0.0
 11
290.7480109744608
 21
684.4376606568958
 31
0.0
  0
LINE
  5
119B
330
1F
100
AcDbEntity
  8
0
  6
DASHED
 62
     4
 48
5.0
100
AcDbLine
 10
290.7480109744608
 20
684.4376606568958
 30
0.0
 11
290.7480109744608
 21
685.4363483209381
 31
0.0
  0
LINE
  5
119C
330
1F
100
AcDbEntity
  8
0
  6
DASHED
 62
     4
 48
5.0
100
AcDbLine
 10
295.8612918143558
 20
684.4376606568958
 30
0.0
 11
295.8612918143558
 21
682.9396291608331
 31
0.0
  0
LINE
  5
119D
330
1F
100
AcDbEntity
  8
0
  6
DASHED
 62
     4
 48
5.0
100
AcDbLine
 10
294.3632603182924
 20
685.4363483209381
 30
0.0
 11
294.3632603182924
 21
684.4376606568958
 31
0.0
  0
LINE
  5
119E
330
1F
100
AcDbEntity
  8
0
  6
DASHED
 62
     4
 48
5.0
100
AcDbLine
 10
295.8612918143558
 20
685.4363483209381
 30
0.0
 11
294.3632603182924
 21
685.4363483209381
 31
0.0
  0
LINE
  5
119F
330
1F
100
AcDbEntity
  8
0
  6
DASHED
 62
     4
 48
5.0
100
AcDbLine
 10
294.3632603182924
 20
684.4376606568958
 30
0.0
 11
295.8612918143558
 21
684.4376606568958
 31
0.0
  0
LINE
  5
11A0
330
1F
100
AcDbEntity
  8
0
  6
DASHED
 62
     4
 48
5.0
100
AcDbLine
 10
295.8612918143558
 20
686.9343798170008
 30
0.0
 11
295.8612918143558
 21
685.4363483209381
 31
0.0
  0
LINE
  5
11A1
330
1F
100
AcDbEntity
  8
0
  6
DASHED
 62
     4
 48
5.0
100
AcDbLine
 10
302.2063799849584
 20
674.1753319771064
 30
0.0
 11
302.2063799849584
 21
675.1740196411486
 31
0.0
  0
LINE
  5
11A2
330
1F
100
AcDbEntity
  8
0
  6
DASHED
 62
     4
 48
5.0
100
AcDbLine
 10
298.2116293287901
 20
675.1740196411486
 30
0.0
 11
298.2116293287901
 21
674.1753319771064
 31
0.0
  0
LINE
  5
11A3
330
1F
100
AcDbEntity
  8
0
  6
DASHED
 62
     4
 48
5.0
100
AcDbLine
 10
300.7083484888953
 20
674.1753319771064
 30
0.0
 11
302.2063799849584
 21
674.1753319771064
 31
0.0
  0
LINE
  5
11A4
330
1F
100
AcDbEntity
  8
0
  6
DASHED
 62
     4
 48
5.0
100
AcDbLine
 10
300.7083484888953
 20
672.6773004810435
 30
0.0
 11
300.7083484888953
 21
674.1753319771064
 31
0.0
  0
LINE
  5
11A5
330
1F
100
AcDbEntity
  8
0
  6
DASHED
 62
     4
 48
5.0
100
AcDbLine
 10
299.7096608248536
 20
672.6773004810435
 30
0.0
 11
300.7083484888953
 21
672.6773004810435
 31
0.0
  0
LINE
  5
11A6
330
1F
100
AcDbEntity
  8
0
  6
DASHED
 62
     4
 48
5.0
100
AcDbLine
 10
299.7096608248536
 20
674.1753319771064
 30
0.0
 11
299.7096608248536
 21
672.6773004810435
 31
0.0
  0
LINE
  5
11A7
330
1F
100
AcDbEntity
  8
0
  6
DASHED
 62
     4
 48
5.0
100
AcDbLine
 10
302.2063799849584
 20
674.1753319771064
 30
0.0
 11
302.2063799849584
 21
674.1753319771064
 31
0.0
  0
LINE
  5
11A8
330
1F
100
AcDbEntity
  8
0
  6
DASHED
 62
     4
 48
5.0
100
AcDbLine
 10
298.2116293287901
 20
674.1753319771064
 30
0.0
 11
299.7096608248536
 21
674.1753319771064
 31
0.0
  0
LINE
  5
11A9
330
1F
100
AcDbEntity
  8
0
  6
DASHED
 62
     4
 48
5.0
100
AcDbLine
 10
300.7083484888953
 20
676.6720511372112
 30
0.0
 11
299.7096608248536
 21
676.6720511372112
 31
0.0
  0
LINE
  5
11AA
330
1F
100
AcDbEntity
  8
0
  6
DASHED
 62
     4
 48
5.0
100
AcDbLine
 10
302.2063799849584
 20
675.1740196411486
 30
0.0
 11
300.7083484888953
 21
675.1740196411486
 31
0.0
  0
LINE
  5
11AB
330
1F
100
AcDbEntity
  8
0
  6
DASHED
 62
     4
 48
5.0
100
AcDbLine
 10
299.7096608248536
 20
676.6720511372112
 30
0.0
 11
299.7096608248536
 21
675.1740196411486
 31
0.0
  0
LINE
  5
11AC
330
1F
100
AcDbEntity
  8
0
  6
DASHED
 62
     4
 48
5.0
100
AcDbLine
 10
300.7083484888953
 20
675.1740196411486
 30
0.0
 11
300.7083484888953
 21
676.6720511372112
 31
0.0
  0
LINE
  5
11AD
330
1F
100
AcDbEntity
  8
0
  6
DASHED
 62
     4
 48
5.0
100
AcDbLine
 10
299.7096608248536
 20
675.1740196411486
 30
0.0
 11
298.2116293287901
 21
675.1740196411486
 31
0.0
  0
LINE
  5
11AE
330
1F
100
AcDbEntity
  8
0
  6
DASHED
 62
     4
 48
5.0
100
AcDbLine
 10
309.816379984958
 20
674.1753319771064
 30
0.0
 11
309.816379984958
 21
675.1740196411486
 31
0.0
  0
LINE
  5
11AF
330
1F
100
AcDbEntity
  8
0
  6
DASHED
 62
     4
 48
5.0
100
AcDbLine
 10
305.8216293287901
 20
675.1740196411486
 30
0.0
 11
305.8216293287901
 21
674.1753319771064
 31
0.0
  0
LINE
  5
11B0
330
1F
100
AcDbEntity
  8
0
  6
DASHED
 62
     4
 48
5.0
100
AcDbLine
 10
308.318348488895
 20
674.1753319771064
 30
0.0
 11
309.816379984958
 21
674.1753319771064
 31
0.0
  0
LINE
  5
11B1
330
1F
100
AcDbEntity
  8
0
  6
DASHED
 62
     4
 48
5.0
100
AcDbLine
 10
308.318348488895
 20
672.6773004810435
 30
0.0
 11
308.318348488895
 21
674.1753319771064
 31
0.0
  0
LINE
  5
11B2
330
1F
100
AcDbEntity
  8
0
  6
DASHED
 62
     4
 48
5.0
100
AcDbLine
 10
307.319660824853
 20
672.6773004810435
 30
0.0
 11
308.318348488895
 21
672.6773004810435
 31
0.0
  0
LINE
  5
11B3
330
1F
100
AcDbEntity
  8
0
  6
DASHED
 62
     4
 48
5.0
100
AcDbLine
 10
307.319660824853
 20
674.1753319771064
 30
0.0
 11
307.319660824853
 21
672.6773004810435
 31
0.0
  0
LINE
  5
11B4
330
1F
100
AcDbEntity
  8
0
  6
DASHED
 62
     4
 48
5.0
100
AcDbLine
 10
309.816379984958
 20
674.1753319771064
 30
0.0
 11
309.816379984958
 21
674.1753319771064
 31
0.0
  0
LINE
  5
11B5
330
1F
100
AcDbEntity
  8
0
  6
DASHED
 62
     4
 48
5.0
100
AcDbLine
 10
305.8216293287901
 20
674.1753319771064
 30
0.0
 11
307.319660824853
 21
674.1753319771064
 31
0.0
  0
LINE
  5
11B6
330
1F
100
AcDbEntity
  8
0
  6
DASHED
 62
     4
 48
5.0
100
AcDbLine
 10
308.318348488895
 20
676.6720511372112
 30
0.0
 11
307.319660824853
 21
676.6720511372112
 31
0.0
  0
LINE
  5
11B7
330
1F
100
AcDbEntity
  8
0
  6
DASHED
 62
     4
 48
5.0
100
AcDbLine
 10
309.816379984958
 20
675.1740196411486
 30
0.0
 11
308.318348488895
 21
675.1740196411486
 31
0.0
  0
LINE
  5
11B8
330
1F
100
AcDbEntity
  8
0
  6
DASHED
 62
     4
 48
5.0
100
AcDbLine
 10
307.319660824853
 20
676.6720511372112
 30
0.0
 11
307.319660824853
 21
675.1740196411486
 31
0.0
  0
LINE
  5
11B9
330
1F
100
AcDbEntity
  8
0
  6
DASHED
 62
     4
 48
5.0
100
AcDbLine
 10
308.318348488895
 20
675.1740196411486
 30
0.0
 11
308.318348488895
 21
676.6720511372112
 31
0.0
  0
LINE
  5
11BA
330
1F
100
AcDbEntity
  8
0
  6
DASHED
 62
     4
 48
5.0
100
AcDbLine
 10
307.319660824853
 20
675.1740196411486
 30
0.0
 11
305.8216293287901
 21
675.1740196411486
 31
0.0
  0
LINE
  5
11BB
330
1F
100
AcDbEntity
  8
0
  6
DASHED
 62
     4
 48
5.0
100
AcDbLine
 10
304.4699794783971
 20
686.9343798170008
 30
0.0
 11
303.471291814355
 21
686.9343798170008
 31
0.0
  0
LINE
  5
11BC
330
1F
100
AcDbEntity
  8
0
  6
DASHED
 62
     4
 48
5.0
100
AcDbLine
 10
303.471291814355
 20
682.9396291608331
 30
0.0
 11
304.4699794783971
 21
682.9396291608331
 31
0.0
  0
LINE
  5
11BD
330
1F
100
AcDbEntity
  8
0
  6
DASHED
 62
     4
 48
5.0
100
AcDbLine
 10
303.471291814355
 20
684.4376606568958
 30
0.0
 11
303.471291814355
 21
682.9396291608331
 31
0.0
  0
LINE
  5
11BE
330
1F
100
AcDbEntity
  8
0
  6
DASHED
 62
     4
 48
5.0
100
AcDbLine
 10
301.9732603182916
 20
685.4363483209381
 30
0.0
 11
301.9732603182916
 21
684.4376606568958
 31
0.0
  0
LINE
  5
11BF
330
1F
100
AcDbEntity
  8
0
  6
DASHED
 62
     4
 48
5.0
100
AcDbLine
 10
303.471291814355
 20
685.4363483209381
 30
0.0
 11
301.9732603182916
 21
685.4363483209381
 31
0.0
  0
LINE
  5
11C0
330
1F
100
AcDbEntity
  8
0
  6
DASHED
 62
     4
 48
5.0
100
AcDbLine
 10
301.9732603182916
 20
684.4376606568958
 30
0.0
 11
303.471291814355
 21
684.4376606568958
 31
0.0
  0
LINE
  5
11C1
330
1F
100
AcDbEntity
  8
0
  6
DASHED
 62
     4
 48
5.0
100
AcDbLine
 10
303.471291814355
 20
686.9343798170008
 30
0.0
 11
303.471291814355
 21
685.4363483209381
 31
0.0
  0
LINE
  5
11C2
330
1F
100
AcDbEntity
  8
0
  6
DASHED
 62
     4
 48
5.0
100
AcDbLine
 10
298.3580109744601
 20
685.4363483209381
 30
0.0
 11
296.8599794783971
 21
685.4363483209381
 31
0.0
  0
LINE
  5
11C3
330
1F
100
AcDbEntity
  8
0
  6
DASHED
 62
     4
 48
5.0
100
AcDbLine
 10
298.3580109744601
 20
684.4376606568958
 30
0.0
 11
298.3580109744601
 21
684.4376606568958
 31
0.0
  0
LINE
  5
11C4
330
1F
100
AcDbEntity
  8
0
  6
DASHED
 62
     4
 48
5.0
100
AcDbLine
 10
296.8599794783971
 20
684.4376606568958
 30
0.0
 11
298.3580109744601
 21
684.4376606568958
 31
0.0
  0
LINE
  5
11C5
330
1F
100
AcDbEntity
  8
0
  6
DASHED
 62
     4
 48
5.0
100
AcDbLine
 10
296.8599794783971
 20
682.9396291608331
 30
0.0
 11
296.8599794783971
 21
684.4376606568958
 31
0.0
  0
LINE
  5
11C6
330
1F
100
AcDbEntity
  8
0
  6
DASHED
 62
     4
 48
5.0
100
AcDbLine
 10
298.3580109744601
 20
684.4376606568958
 30
0.0
 11
298.3580109744601
 21
685.4363483209381
 31
0.0
  0
LINE
  5
11C7
330
1F
100
AcDbEntity
  8
0
  6
DASHED
 62
     4
 48
5.0
100
AcDbLine
 10
296.8599794783971
 20
685.4363483209381
 30
0.0
 11
296.8599794783971
 21
686.9343798170008
 31
0.0
  0
LINE
  5
11C8
330
1F
100
AcDbEntity
  8
0
  6
DASHED
 62
     4
 48
5.0
100
AcDbLine
 10
309.5832603182921
 20
685.4363483209381
 30
0.0
 11
309.5832603182921
 21
684.4376606568958
 31
0.0
  0
LINE
  5
11C9
330
1F
100
AcDbEntity
  8
0
  6
DASHED
 62
     4
 48
5.0
100
AcDbLine
 10
305.96801097446
 20
685.4363483209381
 30
0.0
 11
304.4699794783971
 21
685.4363483209381
 31
0.0
  0
LINE
  5
11CA
330
1F
100
AcDbEntity
  8
0
  6
DASHED
 62
     4
 48
5.0
100
AcDbLine
 10
305.96801097446
 20
684.4376606568958
 30
0.0
 11
305.96801097446
 21
684.4376606568958
 31
0.0
  0
LINE
  5
11CB
330
1F
100
AcDbEntity
  8
0
  6
DASHED
 62
     4
 48
5.0
100
AcDbLine
 10
304.4699794783971
 20
684.4376606568958
 30
0.0
 11
305.96801097446
 21
684.4376606568958
 31
0.0
  0
LINE
  5
11CC
330
1F
100
AcDbEntity
  8
0
  6
DASHED
 62
     4
 48
5.0
100
AcDbLine
 10
304.4699794783971
 20
682.9396291608331
 30
0.0
 11
304.4699794783971
 21
684.4376606568958
 31
0.0
  0
LINE
  5
11CD
330
1F
100
AcDbEntity
  8
0
  6
DASHED
 62
     4
 48
5.0
100
AcDbLine
 10
305.96801097446
 20
684.4376606568958
 30
0.0
 11
305.96801097446
 21
685.4363483209381
 31
0.0
  0
LINE
  5
11CE
330
1F
100
AcDbEntity
  8
0
  6
DASHED
 62
     4
 48
5.0
100
AcDbLine
 10
304.4699794783971
 20
685.4363483209381
 30
0.0
 11
304.4699794783971
 21
686.9343798170008
 31
0.0
  0
LINE
  5
11CF
330
1F
100
AcDbEntity
  8
0
  6
DASHED
 62
     4
 48
5.0
100
AcDbLine
 10
312.2046396673731
 20
670.2218650715947
 30
0.0
 11
312.2046396673731
 21
680.2087417120144
 31
0.0
  0
LINE
  5
11D0
330
1F
100
AcDbEntity
  8
0
  6
DASHED
 62
     4
 48
5.0
100
AcDbLine
 10
310.8863719508375
 20
670.2218650715947
 30
0.0
 11
310.8863719508375
 21
680.2087417120144
 31
0.0
  0
LINE
  5
11D1
330
1F
100
AcDbEntity
  8
0
  6
DASHED
 62
     4
 48
5.0
100
AcDbLine
 10
335.0346396673726
 20
670.2218650715947
 30
0.0
 11
335.0346396673726
 21
680.2087417120144
 31
0.0
  0
LINE
  5
11D2
330
1F
100
AcDbEntity
  8
0
  6
DASHED
 62
     4
 48
5.0
100
AcDbLine
 10
333.7163719508371
 20
670.2218650715947
 30
0.0
 11
333.7163719508371
 21
680.2087417120144
 31
0.0
  0
LINE
  5
11D3
330
1F
100
AcDbEntity
  8
0
  6
DASHED
 62
     4
 48
5.0
100
AcDbLine
 10
327.4246396673726
 20
670.2218650715947
 30
0.0
 11
327.4246396673726
 21
680.2087417120144
 31
0.0
  0
LINE
  5
11D4
330
1F
100
AcDbEntity
  8
0
  6
DASHED
 62
     4
 48
5.0
100
AcDbLine
 10
326.1063719508375
 20
670.2218650715947
 30
0.0
 11
326.1063719508375
 21
680.2087417120144
 31
0.0
  0
LINE
  5
11D5
330
1F
100
AcDbEntity
  8
0
  6
DASHED
 62
     4
 48
5.0
100
AcDbLine
 10
318.4963719508368
 20
670.2218650715947
 30
0.0
 11
318.4963719508368
 21
680.2087417120144
 31
0.0
  0
LINE
  5
11D6
330
1F
100
AcDbEntity
  8
0
  6
DASHED
 62
     4
 48
5.0
100
AcDbLine
 10
323.5383484888947
 20
674.1753319771064
 30
0.0
 11
325.0363799849574
 21
674.1753319771064
 31
0.0
  0
LINE
  5
11D7
330
1F
100
AcDbEntity
  8
0
  6
DASHED
 62
     4
 48
5.0
100
AcDbLine
 10
325.0363799849574
 20
675.1740196411486
 30
0.0
 11
323.5383484888947
 21
675.1740196411486
 31
0.0
  0
LINE
  5
11D8
330
1F
100
AcDbEntity
  8
0
  6
DASHED
 62
     4
 48
5.0
100
AcDbLine
 10
317.4263799849577
 20
674.1753319771064
 30
0.0
 11
317.4263799849577
 21
675.1740196411486
 31
0.0
  0
LINE
  5
11D9
330
1F
100
AcDbEntity
  8
0
  6
DASHED
 62
     4
 48
5.0
100
AcDbLine
 10
313.4316293287896
 20
675.1740196411486
 30
0.0
 11
313.4316293287896
 21
674.1753319771064
 31
0.0
  0
LINE
  5
11DA
330
1F
100
AcDbEntity
  8
0
  6
DASHED
 62
     4
 48
5.0
100
AcDbLine
 10
317.4263799849577
 20
674.1753319771064
 30
0.0
 11
317.4263799849577
 21
674.1753319771064
 31
0.0
  0
LINE
  5
11DB
330
1F
100
AcDbEntity
  8
0
  6
DASHED
 62
     4
 48
5.0
100
AcDbLine
 10
314.9296608248527
 20
672.6773004810435
 30
0.0
 11
315.9283484888947
 21
672.6773004810435
 31
0.0
  0
LINE
  5
11DC
330
1F
100
AcDbEntity
  8
0
  6
DASHED
 62
     4
 48
5.0
100
AcDbLine
 10
314.9296608248527
 20
674.1753319771064
 30
0.0
 11
314.9296608248527
 21
672.6773004810435
 31
0.0
  0
LINE
  5
11DD
330
1F
100
AcDbEntity
  8
0
  6
DASHED
 62
     4
 48
5.0
100
AcDbLine
 10
315.9283484888947
 20
672.6773004810435
 30
0.0
 11
315.9283484888947
 21
674.1753319771064
 31
0.0
  0
LINE
  5
11DE
330
1F
100
AcDbEntity
  8
0
  6
DASHED
 62
     4
 48
5.0
100
AcDbLine
 10
315.9283484888947
 20
674.1753319771064
 30
0.0
 11
317.4263799849577
 21
674.1753319771064
 31
0.0
  0
LINE
  5
11DF
330
1F
100
AcDbEntity
  8
0
  6
DASHED
 62
     4
 48
5.0
100
AcDbLine
 10
313.4316293287896
 20
674.1753319771064
 30
0.0
 11
314.9296608248527
 21
674.1753319771064
 31
0.0
  0
LINE
  5
11E0
330
1F
100
AcDbEntity
  8
0
  6
DASHED
 62
     4
 48
5.0
100
AcDbLine
 10
315.9283484888947
 20
676.6720511372112
 30
0.0
 11
314.9296608248527
 21
676.6720511372112
 31
0.0
  0
LINE
  5
11E1
330
1F
100
AcDbEntity
  8
0
  6
DASHED
 62
     4
 48
5.0
100
AcDbLine
 10
317.4263799849577
 20
675.1740196411486
 30
0.0
 11
315.9283484888947
 21
675.1740196411486
 31
0.0
  0
LINE
  5
11E2
330
1F
100
AcDbEntity
  8
0
  6
DASHED
 62
     4
 48
5.0
100
AcDbLine
 10
314.9296608248527
 20
676.6720511372112
 30
0.0
 11
314.9296608248527
 21
675.1740196411486
 31
0.0
  0
LINE
  5
11E3
330
1F
100
AcDbEntity
  8
0
  6
DASHED
 62
     4
 48
5.0
100
AcDbLine
 10
315.9283484888947
 20
675.1740196411486
 30
0.0
 11
315.9283484888947
 21
676.6720511372112
 31
0.0
  0
LINE
  5
11E4
330
1F
100
AcDbEntity
  8
0
  6
DASHED
 62
     4
 48
5.0
100
AcDbLine
 10
314.9296608248527
 20
675.1740196411486
 30
0.0
 11
313.4316293287896
 21
675.1740196411486
 31
0.0
  0
LINE
  5
11E5
330
1F
100
AcDbEntity
  8
0
  6
DASHED
 62
     4
 48
5.0
100
AcDbLine
 10
321.0416293287899
 20
675.1740196411486
 30
0.0
 11
321.0416293287899
 21
674.1753319771064
 31
0.0
  0
LINE
  5
11E6
330
1F
100
AcDbEntity
  8
0
  6
DASHED
 62
     4
 48
5.0
100
AcDbLine
 10
322.5396608248528
 20
672.6773004810435
 30
0.0
 11
323.5383484888947
 21
672.6773004810435
 31
0.0
  0
LINE
  5
11E7
330
1F
100
AcDbEntity
  8
0
  6
DASHED
 62
     4
 48
5.0
100
AcDbLine
 10
322.5396608248528
 20
674.1753319771064
 30
0.0
 11
322.5396608248528
 21
672.6773004810435
 31
0.0
  0
LINE
  5
11E8
330
1F
100
AcDbEntity
  8
0
  6
DASHED
 62
     4
 48
5.0
100
AcDbLine
 10
321.0416293287899
 20
674.1753319771064
 30
0.0
 11
322.5396608248528
 21
674.1753319771064
 31
0.0
  0
LINE
  5
11E9
330
1F
100
AcDbEntity
  8
0
  6
DASHED
 62
     4
 48
5.0
100
AcDbLine
 10
323.5383484888947
 20
672.6773004810435
 30
0.0
 11
323.5383484888947
 21
674.1753319771064
 31
0.0
  0
LINE
  5
11EA
330
1F
100
AcDbEntity
  8
0
  6
DASHED
 62
     4
 48
5.0
100
AcDbLine
 10
323.5383484888947
 20
676.6720511372112
 30
0.0
 11
322.5396608248528
 21
676.6720511372112
 31
0.0
  0
LINE
  5
11EB
330
1F
100
AcDbEntity
  8
0
  6
DASHED
 62
     4
 48
5.0
100
AcDbLine
 10
322.5396608248528
 20
675.1740196411486
 30
0.0
 11
321.0416293287899
 21
675.1740196411486
 31
0.0
  0
LINE
  5
11EC
330
1F
100
AcDbEntity
  8
0
  6
DASHED
 62
     4
 48
5.0
100
AcDbLine
 10
322.5396608248528
 20
676.6720511372112
 30
0.0
 11
322.5396608248528
 21
675.1740196411486
 31
0.0
  0
LINE
  5
11ED
330
1F
100
AcDbEntity
  8
0
  6
DASHED
 62
     4
 48
5.0
100
AcDbLine
 10
323.5383484888947
 20
675.1740196411486
 30
0.0
 11
323.5383484888947
 21
676.6720511372112
 31
0.0
  0
LINE
  5
11EE
330
1F
100
AcDbEntity
  8
0
  6
DASHED
 62
     4
 48
5.0
100
AcDbLine
 10
318.6912918143546
 20
685.4363483209381
 30
0.0
 11
317.1932603182916
 21
685.4363483209381
 31
0.0
  0
LINE
  5
11EF
330
1F
100
AcDbEntity
  8
0
  6
DASHED
 62
     4
 48
5.0
100
AcDbLine
 10
317.1932603182916
 20
684.4376606568958
 30
0.0
 11
318.6912918143546
 21
684.4376606568958
 31
0.0
  0
LINE
  5
11F0
330
1F
100
AcDbEntity
  8
0
  6
DASHED
 62
     4
 48
5.0
100
AcDbLine
 10
313.5780109744596
 20
685.4363483209381
 30
0.0
 11
312.0799794783966
 21
685.4363483209381
 31
0.0
  0
LINE
  5
11F1
330
1F
100
AcDbEntity
  8
0
  6
DASHED
 62
     4
 48
5.0
100
AcDbLine
 10
312.0799794783966
 20
684.4376606568958
 30
0.0
 11
313.5780109744596
 21
684.4376606568958
 31
0.0
  0
LINE
  5
11F2
330
1F
100
AcDbEntity
  8
0
  6
DASHED
 62
     4
 48
5.0
100
AcDbLine
 10
312.0799794783966
 20
686.9343798170008
 30
0.0
 11
311.0812918143549
 21
686.9343798170008
 31
0.0
  0
LINE
  5
11F3
330
1F
100
AcDbEntity
  8
0
  6
DASHED
 62
     4
 48
5.0
100
AcDbLine
 10
312.0799794783966
 20
682.9396291608331
 30
0.0
 11
312.0799794783966
 21
684.4376606568958
 31
0.0
  0
LINE
  5
11F4
330
1F
100
AcDbEntity
  8
0
  6
DASHED
 62
     4
 48
5.0
100
AcDbLine
 10
311.0812918143549
 20
682.9396291608331
 30
0.0
 11
312.0799794783966
 21
682.9396291608331
 31
0.0
  0
LINE
  5
11F5
330
1F
100
AcDbEntity
  8
0
  6
DASHED
 62
     4
 48
5.0
100
AcDbLine
 10
311.0812918143549
 20
684.4376606568958
 30
0.0
 11
311.0812918143549
 21
682.9396291608331
 31
0.0
  0
LINE
  5
11F6
330
1F
100
AcDbEntity
  8
0
  6
DASHED
 62
     4
 48
5.0
100
AcDbLine
 10
311.0812918143549
 20
686.9343798170008
 30
0.0
 11
311.0812918143549
 21
685.4363483209381
 31
0.0
  0
LINE
  5
11F7
330
1F
100
AcDbEntity
  8
0
  6
DASHED
 62
     4
 48
5.0
100
AcDbLine
 10
312.0799794783966
 20
685.4363483209381
 30
0.0
 11
312.0799794783966
 21
686.9343798170008
 31
0.0
  0
LINE
  5
11F8
330
1F
100
AcDbEntity
  8
0
  6
DASHED
 62
     4
 48
5.0
100
AcDbLine
 10
317.1932603182916
 20
685.4363483209381
 30
0.0
 11
317.1932603182916
 21
684.4376606568958
 31
0.0
  0
LINE
  5
11F9
330
1F
100
AcDbEntity
  8
0
  6
DASHED
 62
     4
 48
5.0
100
AcDbLine
 10
313.5780109744596
 20
684.4376606568958
 30
0.0
 11
313.5780109744596
 21
684.4376606568958
 31
0.0
  0
LINE
  5
11FA
330
1F
100
AcDbEntity
  8
0
  6
DASHED
 62
     4
 48
5.0
100
AcDbLine
 10
313.5780109744596
 20
684.4376606568958
 30
0.0
 11
313.5780109744596
 21
685.4363483209381
 31
0.0
  0
LINE
  5
11FB
330
1F
100
AcDbEntity
  8
0
  6
DASHED
 62
     4
 48
5.0
100
AcDbLine
 10
321.1880109744593
 20
684.4376606568958
 30
0.0
 11
321.1880109744593
 21
684.4376606568958
 31
0.0
  0
LINE
  5
11FC
330
1F
100
AcDbEntity
  8
0
  6
DASHED
 62
     4
 48
5.0
100
AcDbLine
 10
321.1880109744593
 20
684.4376606568958
 30
0.0
 11
321.1880109744593
 21
685.4363483209381
 31
0.0
  0
LINE
  5
11FD
330
1F
100
AcDbEntity
  8
0
  6
DASHED
 62
     4
 48
5.0
100
AcDbLine
 10
319.6899794783963
 20
686.9343798170008
 30
0.0
 11
318.6912918143546
 21
686.9343798170008
 31
0.0
  0
LINE
  5
11FE
330
1F
100
AcDbEntity
  8
0
  6
DASHED
 62
     4
 48
5.0
100
AcDbLine
 10
319.6899794783963
 20
682.9396291608331
 30
0.0
 11
319.6899794783963
 21
684.4376606568958
 31
0.0
  0
LINE
  5
11FF
330
1F
100
AcDbEntity
  8
0
  6
DASHED
 62
     4
 48
5.0
100
AcDbLine
 10
318.6912918143546
 20
682.9396291608331
 30
0.0
 11
319.6899794783963
 21
682.9396291608331
 31
0.0
  0
LINE
  5
1200
330
1F
100
AcDbEntity
  8
0
  6
DASHED
 62
     4
 48
5.0
100
AcDbLine
 10
318.6912918143546
 20
684.4376606568958
 30
0.0
 11
318.6912918143546
 21
682.9396291608331
 31
0.0
  0
LINE
  5
1201
330
1F
100
AcDbEntity
  8
0
  6
DASHED
 62
     4
 48
5.0
100
AcDbLine
 10
318.6912918143546
 20
686.9343798170008
 30
0.0
 11
318.6912918143546
 21
685.4363483209381
 31
0.0
  0
LINE
  5
1202
330
1F
100
AcDbEntity
  8
0
  6
DASHED
 62
     4
 48
5.0
100
AcDbLine
 10
319.6899794783963
 20
685.4363483209381
 30
0.0
 11
319.6899794783963
 21
686.9343798170008
 31
0.0
  0
LINE
  5
1203
330
1F
100
AcDbEntity
  8
0
  6
DASHED
 62
     4
 48
5.0
100
AcDbLine
 10
321.1880109744593
 20
685.4363483209381
 30
0.0
 11
319.6899794783963
 21
685.4363483209381
 31
0.0
  0
LINE
  5
1204
330
1F
100
AcDbEntity
  8
0
  6
DASHED
 62
     4
 48
5.0
100
AcDbLine
 10
319.6899794783963
 20
684.4376606568958
 30
0.0
 11
321.1880109744593
 21
684.4376606568958
 31
0.0
  0
LINE
  5
1205
330
1F
100
AcDbEntity
  8
0
  6
DASHED
 62
     4
 48
5.0
100
AcDbLine
 10
331.1483484888946
 20
674.1753319771064
 30
0.0
 11
332.6463799849574
 21
674.1753319771064
 31
0.0
  0
LINE
  5
1206
330
1F
100
AcDbEntity
  8
0
  6
DASHED
 62
     4
 48
5.0
100
AcDbLine
 10
332.6463799849574
 20
675.1740196411486
 30
0.0
 11
331.1483484888946
 21
675.1740196411486
 31
0.0
  0
LINE
  5
1207
330
1F
100
AcDbEntity
  8
0
  6
DASHED
 62
     4
 48
5.0
100
AcDbLine
 10
328.6516293287896
 20
675.1740196411486
 30
0.0
 11
328.6516293287896
 21
674.1753319771064
 31
0.0
  0
LINE
  5
1208
330
1F
100
AcDbEntity
  8
0
  6
DASHED
 62
     4
 48
5.0
100
AcDbLine
 10
325.0363799849574
 20
674.1753319771064
 30
0.0
 11
325.0363799849574
 21
675.1740196411486
 31
0.0
  0
LINE
  5
1209
330
1F
100
AcDbEntity
  8
0
  6
DASHED
 62
     4
 48
5.0
100
AcDbLine
 10
330.1496608248529
 20
672.6773004810435
 30
0.0
 11
331.1483484888946
 21
672.6773004810435
 31
0.0
  0
LINE
  5
120A
330
1F
100
AcDbEntity
  8
0
  6
DASHED
 62
     4
 48
5.0
100
AcDbLine
 10
330.1496608248529
 20
674.1753319771064
 30
0.0
 11
330.1496608248529
 21
672.6773004810435
 31
0.0
  0
LINE
  5
120B
330
1F
100
AcDbEntity
  8
0
  6
DASHED
 62
     4
 48
5.0
100
AcDbLine
 10
328.6516293287896
 20
674.1753319771064
 30
0.0
 11
330.1496608248529
 21
674.1753319771064
 31
0.0
  0
LINE
  5
120C
330
1F
100
AcDbEntity
  8
0
  6
DASHED
 62
     4
 48
5.0
100
AcDbLine
 10
331.1483484888946
 20
672.6773004810435
 30
0.0
 11
331.1483484888946
 21
674.1753319771064
 31
0.0
  0
LINE
  5
120D
330
1F
100
AcDbEntity
  8
0
  6
DASHED
 62
     4
 48
5.0
100
AcDbLine
 10
325.0363799849574
 20
674.1753319771064
 30
0.0
 11
325.0363799849574
 21
674.1753319771064
 31
0.0
  0
LINE
  5
120E
330
1F
100
AcDbEntity
  8
0
  6
DASHED
 62
     4
 48
5.0
100
AcDbLine
 10
331.1483484888946
 20
676.6720511372112
 30
0.0
 11
330.1496608248529
 21
676.6720511372112
 31
0.0
  0
LINE
  5
120F
330
1F
100
AcDbEntity
  8
0
  6
DASHED
 62
     4
 48
5.0
100
AcDbLine
 10
330.1496608248529
 20
675.1740196411486
 30
0.0
 11
328.6516293287896
 21
675.1740196411486
 31
0.0
  0
LINE
  5
1210
330
1F
100
AcDbEntity
  8
0
  6
DASHED
 62
     4
 48
5.0
100
AcDbLine
 10
330.1496608248529
 20
676.6720511372112
 30
0.0
 11
330.1496608248529
 21
675.1740196411486
 31
0.0
  0
LINE
  5
1211
330
1F
100
AcDbEntity
  8
0
  6
DASHED
 62
     4
 48
5.0
100
AcDbLine
 10
331.1483484888946
 20
675.1740196411486
 30
0.0
 11
331.1483484888946
 21
676.6720511372112
 31
0.0
  0
LINE
  5
1212
330
1F
100
AcDbEntity
  8
0
  6
DASHED
 62
     4
 48
5.0
100
AcDbLine
 10
338.7583484888939
 20
672.6773004810435
 30
0.0
 11
338.7583484888939
 21
674.1753319771064
 31
0.0
  0
LINE
  5
1213
330
1F
100
AcDbEntity
  8
0
  6
DASHED
 62
     4
 48
5.0
100
AcDbLine
 10
338.7583484888939
 20
675.1740196411486
 30
0.0
 11
338.7583484888939
 21
676.6720511372112
 31
0.0
  0
LINE
  5
1214
330
1F
100
AcDbEntity
  8
0
  6
DASHED
 62
     4
 48
5.0
100
AcDbLine
 10
336.2616293287894
 20
675.1740196411486
 30
0.0
 11
336.2616293287894
 21
674.1753319771064
 31
0.0
  0
LINE
  5
1215
330
1F
100
AcDbEntity
  8
0
  6
DASHED
 62
     4
 48
5.0
100
AcDbLine
 10
332.6463799849574
 20
674.1753319771064
 30
0.0
 11
332.6463799849574
 21
675.1740196411486
 31
0.0
  0
LINE
  5
1216
330
1F
100
AcDbEntity
  8
0
  6
DASHED
 62
     4
 48
5.0
100
AcDbLine
 10
332.6463799849574
 20
674.1753319771064
 30
0.0
 11
332.6463799849574
 21
674.1753319771064
 31
0.0
  0
LINE
  5
1217
330
1F
100
AcDbEntity
  8
0
  6
DASHED
 62
     4
 48
5.0
100
AcDbLine
 10
337.7596608248526
 20
674.1753319771064
 30
0.0
 11
337.7596608248526
 21
672.6773004810435
 31
0.0
  0
LINE
  5
1218
330
1F
100
AcDbEntity
  8
0
  6
DASHED
 62
     4
 48
5.0
100
AcDbLine
 10
336.2616293287894
 20
674.1753319771064
 30
0.0
 11
337.7596608248526
 21
674.1753319771064
 31
0.0
  0
LINE
  5
1219
330
1F
100
AcDbEntity
  8
0
  6
DASHED
 62
     4
 48
5.0
100
AcDbLine
 10
337.7596608248526
 20
675.1740196411486
 30
0.0
 11
336.2616293287894
 21
675.1740196411486
 31
0.0
  0
LINE
  5
121A
330
1F
100
AcDbEntity
  8
0
  6
DASHED
 62
     4
 48
5.0
100
AcDbLine
 10
337.7596608248526
 20
676.6720511372112
 30
0.0
 11
337.7596608248526
 21
675.1740196411486
 31
0.0
  0
LINE
  5
121B
330
1F
100
AcDbEntity
  8
0
  6
DASHED
 62
     4
 48
5.0
100
AcDbLine
 10
337.7596608248526
 20
672.6773004810435
 30
0.0
 11
338.7583484888939
 21
672.6773004810435
 31
0.0
  0
LINE
  5
121C
330
1F
100
AcDbEntity
  8
0
  6
DASHED
 62
     4
 48
5.0
100
AcDbLine
 10
338.7583484888939
 20
676.6720511372112
 30
0.0
 11
337.7596608248526
 21
676.6720511372112
 31
0.0
  0
LINE
  5
121D
330
1F
100
AcDbEntity
  8
0
  6
DASHED
 62
     4
 48
5.0
100
AcDbLine
 10
328.7980109744593
 20
684.4376606568958
 30
0.0
 11
328.7980109744593
 21
684.4376606568958
 31
0.0
  0
LINE
  5
121E
330
1F
100
AcDbEntity
  8
0
  6
DASHED
 62
     4
 48
5.0
100
AcDbLine
 10
328.7980109744593
 20
684.4376606568958
 30
0.0
 11
328.7980109744593
 21
685.4363483209381
 31
0.0
  0
LINE
  5
121F
330
1F
100
AcDbEntity
  8
0
  6
DASHED
 62
     4
 48
5.0
100
AcDbLine
 10
327.2999794783962
 20
686.9343798170008
 30
0.0
 11
326.3012918143541
 21
686.9343798170008
 31
0.0
  0
LINE
  5
1220
330
1F
100
AcDbEntity
  8
0
  6
DASHED
 62
     4
 48
5.0
100
AcDbLine
 10
326.3012918143541
 20
685.4363483209381
 30
0.0
 11
324.803260318291
 21
685.4363483209381
 31
0.0
  0
LINE
  5
1221
330
1F
100
AcDbEntity
  8
0
  6
DASHED
 62
     4
 48
5.0
100
AcDbLine
 10
327.2999794783962
 20
682.9396291608331
 30
0.0
 11
327.2999794783962
 21
684.4376606568958
 31
0.0
  0
LINE
  5
1222
330
1F
100
AcDbEntity
  8
0
  6
DASHED
 62
     4
 48
5.0
100
AcDbLine
 10
326.3012918143541
 20
682.9396291608331
 30
0.0
 11
327.2999794783962
 21
682.9396291608331
 31
0.0
  0
LINE
  5
1223
330
1F
100
AcDbEntity
  8
0
  6
DASHED
 62
     4
 48
5.0
100
AcDbLine
 10
326.3012918143541
 20
684.4376606568958
 30
0.0
 11
326.3012918143541
 21
682.9396291608331
 31
0.0
  0
LINE
  5
1224
330
1F
100
AcDbEntity
  8
0
  6
DASHED
 62
     4
 48
5.0
100
AcDbLine
 10
324.803260318291
 20
684.4376606568958
 30
0.0
 11
326.3012918143541
 21
684.4376606568958
 31
0.0
  0
LINE
  5
1225
330
1F
100
AcDbEntity
  8
0
  6
DASHED
 62
     4
 48
5.0
100
AcDbLine
 10
324.803260318291
 20
685.4363483209381
 30
0.0
 11
324.803260318291
 21
684.4376606568958
 31
0.0
  0
LINE
  5
1226
330
1F
100
AcDbEntity
  8
0
  6
DASHED
 62
     4
 48
5.0
100
AcDbLine
 10
326.3012918143541
 20
686.9343798170008
 30
0.0
 11
326.3012918143541
 21
685.4363483209381
 31
0.0
  0
LINE
  5
1227
330
1F
100
AcDbEntity
  8
0
  6
DASHED
 62
     4
 48
5.0
100
AcDbLine
 10
327.2999794783962
 20
685.4363483209381
 30
0.0
 11
327.2999794783962
 21
686.9343798170008
 31
0.0
  0
LINE
  5
1228
330
1F
100
AcDbEntity
  8
0
  6
DASHED
 62
     4
 48
5.0
100
AcDbLine
 10
328.7980109744593
 20
685.4363483209381
 30
0.0
 11
327.2999794783962
 21
685.4363483209381
 31
0.0
  0
LINE
  5
1229
330
1F
100
AcDbEntity
  8
0
  6
DASHED
 62
     4
 48
5.0
100
AcDbLine
 10
327.2999794783962
 20
684.4376606568958
 30
0.0
 11
328.7980109744593
 21
684.4376606568958
 31
0.0
  0
LINE
  5
122A
330
1F
100
AcDbEntity
  8
0
  6
DASHED
 62
     4
 48
5.0
100
AcDbLine
 10
333.9112918143535
 20
685.4363483209381
 30
0.0
 11
332.4132603182911
 21
685.4363483209381
 31
0.0
  0
LINE
  5
122B
330
1F
100
AcDbEntity
  8
0
  6
DASHED
 62
     4
 48
5.0
100
AcDbLine
 10
332.4132603182911
 20
684.4376606568958
 30
0.0
 11
333.9112918143535
 21
684.4376606568958
 31
0.0
  0
LINE
  5
122C
330
1F
100
AcDbEntity
  8
0
  6
DASHED
 62
     4
 48
5.0
100
AcDbLine
 10
332.4132603182911
 20
685.4363483209381
 30
0.0
 11
332.4132603182911
 21
684.4376606568958
 31
0.0
  0
LINE
  5
122D
330
1F
100
AcDbEntity
  8
0
  6
DASHED
 62
     4
 48
5.0
100
AcDbLine
 10
336.4080109744592
 20
684.4376606568958
 30
0.0
 11
336.4080109744592
 21
684.4376606568958
 31
0.0
  0
LINE
  5
122E
330
1F
100
AcDbEntity
  8
0
  6
DASHED
 62
     4
 48
5.0
100
AcDbLine
 10
336.4080109744592
 20
684.4376606568958
 30
0.0
 11
336.4080109744592
 21
685.4363483209381
 31
0.0
  0
LINE
  5
122F
330
1F
100
AcDbEntity
  8
0
  6
DASHED
 62
     4
 48
5.0
100
AcDbLine
 10
334.9099794783961
 20
686.9343798170008
 30
0.0
 11
333.9112918143535
 21
686.9343798170008
 31
0.0
  0
LINE
  5
1230
330
1F
100
AcDbEntity
  8
0
  6
DASHED
 62
     4
 48
5.0
100
AcDbLine
 10
333.9112918143535
 20
682.9396291608331
 30
0.0
 11
334.9099794783961
 21
682.9396291608331
 31
0.0
  0
LINE
  5
1231
330
1F
100
AcDbEntity
  8
0
  6
DASHED
 62
     4
 48
5.0
100
AcDbLine
 10
333.9112918143535
 20
684.4376606568958
 30
0.0
 11
333.9112918143535
 21
682.9396291608331
 31
0.0
  0
LINE
  5
1232
330
1F
100
AcDbEntity
  8
0
  6
DASHED
 62
     4
 48
5.0
100
AcDbLine
 10
334.9099794783961
 20
682.9396291608331
 30
0.0
 11
334.9099794783961
 21
684.4376606568958
 31
0.0
  0
LINE
  5
1233
330
1F
100
AcDbEntity
  8
0
  6
DASHED
 62
     4
 48
5.0
100
AcDbLine
 10
333.9112918143535
 20
686.9343798170008
 30
0.0
 11
333.9112918143535
 21
685.4363483209381
 31
0.0
  0
LINE
  5
1234
330
1F
100
AcDbEntity
  8
0
  6
DASHED
 62
     4
 48
5.0
100
AcDbLine
 10
334.9099794783961
 20
685.4363483209381
 30
0.0
 11
334.9099794783961
 21
686.9343798170008
 31
0.0
  0
LINE
  5
1235
330
1F
100
AcDbEntity
  8
0
  6
DASHED
 62
     4
 48
5.0
100
AcDbLine
 10
336.4080109744592
 20
685.4363483209381
 30
0.0
 11
334.9099794783961
 21
685.4363483209381
 31
0.0
  0
LINE
  5
1236
330
1F
100
AcDbEntity
  8
0
  6
DASHED
 62
     4
 48
5.0
100
AcDbLine
 10
334.9099794783961
 20
684.4376606568958
 30
0.0
 11
336.4080109744592
 21
684.4376606568958
 31
0.0
  0
CIRCLE
  5
1237
330
1F
100
AcDbEntity
  8
0
  6
Continuous
 62
     7
100
AcDbCircle
 10
388.5063719508499
 20
654.0069306883921
 30
0.0
 40
3.003000759534833
  0
CIRCLE
  5
1238
330
1F
100
AcDbEntity
  8
0
  6
Continuous
 62
     7
100
AcDbCircle
 10
378.4963619408394
 20
654.0069306883921
 30
0.0
 40
3.003000759534833
  0
CIRCLE
  5
1239
330
1F
100
AcDbEntity
  8
0
  6
Continuous
 62
     7
100
AcDbCircle
 10
366.9616805123358
 20
654.0069314362157
 30
0.0
 40
2.002000506356785
  0
CIRCLE
  5
123A
330
1F
100
AcDbEntity
  8
0
  6
Continuous
 62
     7
100
AcDbCircle
 10
366.9616144462693
 20
628.4814059106889
 30
0.0
 40
2.002000506356556
  0
CIRCLE
  5
123B
330
1F
100
AcDbEntity
  8
0
  6
Continuous
 62
     7
100
AcDbCircle
 10
366.9616544863089
 20
643.7967212260047
 30
0.0
 40
2.002000506356671
  0
CIRCLE
  5
123C
330
1F
100
AcDbEntity
  8
0
  6
Continuous
 62
     7
100
AcDbCircle
 10
366.9616284602839
 20
633.5865110157941
 30
0.0
 40
2.002000506356671
  0
CIRCLE
  5
123D
330
1F
100
AcDbEntity
  8
0
  6
Continuous
 62
     7
100
AcDbCircle
 10
366.961640472296
 20
638.6916161209
 30
0.0
 40
2.002000506356785
  0
CIRCLE
  5
123E
330
1F
100
AcDbEntity
  8
0
  6
Continuous
 62
     7
100
AcDbCircle
 10
366.9616685003229
 20
648.9018263311097
 30
0.0
 40
2.002000506356556
  0
CIRCLE
  5
123F
330
1F
100
AcDbEntity
  8
0
  6
Continuous
 62
     7
100
AcDbCircle
 10
378.4963619408394
 20
640.9939176753782
 30
0.0
 40
3.003000759534833
  0
CIRCLE
  5
1240
330
1F
100
AcDbEntity
  8
0
  6
Continuous
 62
     7
100
AcDbCircle
 10
388.5063719508499
 20
640.9939176753782
 30
0.0
 40
3.003000759534833
  0
CIRCLE
  5
1241
330
1F
100
AcDbEntity
  8
0
  6
Continuous
 62
     7
100
AcDbCircle
 10
378.4963619408394
 20
627.980904662365
 30
0.0
 40
3.003000759534721
  0
CIRCLE
  5
1242
330
1F
100
AcDbEntity
  8
0
  6
Continuous
 62
     7
100
AcDbCircle
 10
388.5063719508499
 20
627.980904662365
 30
0.0
 40
3.003000759534721
  0
LINE
  5
1243
330
1F
100
AcDbEntity
  8
0
  6
DASHED
 62
     4
 48
5.0
100
AcDbLine
 10
350.2546396673725
 20
670.2218650715947
 30
0.0
 11
350.2546396673725
 21
680.2087417120144
 31
0.0
  0
LINE
  5
1244
330
1F
100
AcDbEntity
  8
0
  6
DASHED
 62
     4
 48
5.0
100
AcDbLine
 10
348.9363719508363
 20
670.2218650715947
 30
0.0
 11
348.9363719508363
 21
680.2087417120144
 31
0.0
  0
LINE
  5
1245
330
1F
100
AcDbEntity
  8
0
  6
DASHED
 62
     4
 48
5.0
100
AcDbLine
 10
342.6446396673723
 20
670.2218650715947
 30
0.0
 11
342.6446396673723
 21
680.2087417120144
 31
0.0
  0
LINE
  5
1246
330
1F
100
AcDbEntity
  8
0
  6
DASHED
 62
     4
 48
5.0
100
AcDbLine
 10
341.3263719508368
 20
670.2218650715947
 30
0.0
 11
341.3263719508368
 21
680.2087417120144
 31
0.0
  0
LINE
  5
1247
330
1F
100
AcDbEntity
  8
0
  6
DASHED
 62
     4
 48
5.0
100
AcDbLine
 10
364.1563719508358
 20
670.2218650715947
 30
0.0
 11
364.1563719508358
 21
680.2087417120144
 31
0.0
  0
LINE
  5
1248
330
1F
100
AcDbEntity
  8
0
  6
DASHED
 62
     4
 48
5.0
100
AcDbLine
 10
357.8646396673722
 20
670.2218650715947
 30
0.0
 11
357.8646396673722
 21
680.2087417120144
 31
0.0
  0
LINE
  5
1249
330
1F
100
AcDbEntity
  8
0
  6
DASHED
 62
     4
 48
5.0
100
AcDbLine
 10
356.5463719508366
 20
670.2218650715947
 30
0.0
 11
356.5463719508366
 21
680.2087417120144
 31
0.0
  0
LINE
  5
124A
330
1F
100
AcDbEntity
  8
0
  6
DASHED
 62
     4
 48
5.0
100
AcDbLine
 10
351.4816293287889
 20
674.1753319771064
 30
0.0
 11
352.979660824851
 21
674.1753319771064
 31
0.0
  0
LINE
  5
124B
330
1F
100
AcDbEntity
  8
0
  6
DASHED
 62
     4
 48
5.0
100
AcDbLine
 10
352.979660824851
 20
675.1740196411486
 30
0.0
 11
351.4816293287889
 21
675.1740196411486
 31
0.0
  0
LINE
  5
124C
330
1F
100
AcDbEntity
  8
0
  6
DASHED
 62
     4
 48
5.0
100
AcDbLine
 10
345.3696608248519
 20
672.6773004810435
 30
0.0
 11
346.3683484888939
 21
672.6773004810435
 31
0.0
  0
LINE
  5
124D
330
1F
100
AcDbEntity
  8
0
  6
DASHED
 62
     4
 48
5.0
100
AcDbLine
 10
346.3683484888939
 20
676.6720511372112
 30
0.0
 11
345.3696608248519
 21
676.6720511372112
 31
0.0
  0
LINE
  5
124E
330
1F
100
AcDbEntity
  8
0
  6
DASHED
 62
     4
 48
5.0
100
AcDbLine
 10
343.8716293287892
 20
675.1740196411486
 30
0.0
 11
343.8716293287892
 21
674.1753319771064
 31
0.0
  0
LINE
  5
124F
330
1F
100
AcDbEntity
  8
0
  6
DASHED
 62
     4
 48
5.0
100
AcDbLine
 10
340.2563799849569
 20
674.1753319771064
 30
0.0
 11
340.2563799849569
 21
675.1740196411486
 31
0.0
  0
LINE
  5
1250
330
1F
100
AcDbEntity
  8
0
  6
DASHED
 62
     4
 48
5.0
100
AcDbLine
 10
343.8716293287892
 20
674.1753319771064
 30
0.0
 11
345.3696608248519
 21
674.1753319771064
 31
0.0
  0
LINE
  5
1251
330
1F
100
AcDbEntity
  8
0
  6
DASHED
 62
     4
 48
5.0
100
AcDbLine
 10
345.3696608248519
 20
674.1753319771064
 30
0.0
 11
345.3696608248519
 21
672.6773004810435
 31
0.0
  0
LINE
  5
1252
330
1F
100
AcDbEntity
  8
0
  6
DASHED
 62
     4
 48
5.0
100
AcDbLine
 10
340.2563799849569
 20
674.1753319771064
 30
0.0
 11
340.2563799849569
 21
674.1753319771064
 31
0.0
  0
LINE
  5
1253
330
1F
100
AcDbEntity
  8
0
  6
DASHED
 62
     4
 48
5.0
100
AcDbLine
 10
345.3696608248519
 20
675.1740196411486
 30
0.0
 11
343.8716293287892
 21
675.1740196411486
 31
0.0
  0
LINE
  5
1254
330
1F
100
AcDbEntity
  8
0
  6
DASHED
 62
     4
 48
5.0
100
AcDbLine
 10
345.3696608248519
 20
676.6720511372112
 30
0.0
 11
345.3696608248519
 21
675.1740196411486
 31
0.0
  0
LINE
  5
1255
330
1F
100
AcDbEntity
  8
0
  6
DASHED
 62
     4
 48
5.0
100
AcDbLine
 10
351.4816293287889
 20
675.1740196411486
 30
0.0
 11
351.4816293287889
 21
674.1753319771064
 31
0.0
  0
LINE
  5
1256
330
1F
100
AcDbEntity
  8
0
  6
DASHED
 62
     4
 48
5.0
100
AcDbLine
 10
347.8663799849566
 20
674.1753319771064
 30
0.0
 11
347.8663799849566
 21
675.1740196411486
 31
0.0
  0
LINE
  5
1257
330
1F
100
AcDbEntity
  8
0
  6
DASHED
 62
     4
 48
5.0
100
AcDbLine
 10
347.8663799849566
 20
674.1753319771064
 30
0.0
 11
347.8663799849566
 21
674.1753319771064
 31
0.0
  0
LINE
  5
1258
330
1F
100
AcDbEntity
  8
0
  6
DASHED
 62
     4
 48
5.0
100
AcDbLine
 10
346.3683484888939
 20
672.6773004810435
 30
0.0
 11
346.3683484888939
 21
674.1753319771064
 31
0.0
  0
LINE
  5
1259
330
1F
100
AcDbEntity
  8
0
  6
DASHED
 62
     4
 48
5.0
100
AcDbLine
 10
346.3683484888939
 20
674.1753319771064
 30
0.0
 11
347.8663799849566
 21
674.1753319771064
 31
0.0
  0
LINE
  5
125A
330
1F
100
AcDbEntity
  8
0
  6
DASHED
 62
     4
 48
5.0
100
AcDbLine
 10
347.8663799849566
 20
675.1740196411486
 30
0.0
 11
346.3683484888939
 21
675.1740196411486
 31
0.0
  0
LINE
  5
125B
330
1F
100
AcDbEntity
  8
0
  6
DASHED
 62
     4
 48
5.0
100
AcDbLine
 10
346.3683484888939
 20
675.1740196411486
 30
0.0
 11
346.3683484888939
 21
676.6720511372112
 31
0.0
  0
LINE
  5
125C
330
1F
100
AcDbEntity
  8
0
  6
DASHED
 62
     4
 48
5.0
100
AcDbLine
 10
344.0180109744583
 20
684.4376606568958
 30
0.0
 11
344.0180109744583
 21
684.4376606568958
 31
0.0
  0
LINE
  5
125D
330
1F
100
AcDbEntity
  8
0
  6
DASHED
 62
     4
 48
5.0
100
AcDbLine
 10
344.0180109744583
 20
684.4376606568958
 30
0.0
 11
344.0180109744583
 21
685.4363483209381
 31
0.0
  0
LINE
  5
125E
330
1F
100
AcDbEntity
  8
0
  6
DASHED
 62
     4
 48
5.0
100
AcDbLine
 10
342.5199794783956
 20
686.9343798170008
 30
0.0
 11
341.5212918143541
 21
686.9343798170008
 31
0.0
  0
LINE
  5
125F
330
1F
100
AcDbEntity
  8
0
  6
DASHED
 62
     4
 48
5.0
100
AcDbLine
 10
341.5212918143541
 20
685.4363483209381
 30
0.0
 11
340.0232603182904
 21
685.4363483209381
 31
0.0
  0
LINE
  5
1260
330
1F
100
AcDbEntity
  8
0
  6
DASHED
 62
     4
 48
5.0
100
AcDbLine
 10
342.5199794783956
 20
682.9396291608331
 30
0.0
 11
342.5199794783956
 21
684.4376606568958
 31
0.0
  0
LINE
  5
1261
330
1F
100
AcDbEntity
  8
0
  6
DASHED
 62
     4
 48
5.0
100
AcDbLine
 10
341.5212918143541
 20
682.9396291608331
 30
0.0
 11
342.5199794783956
 21
682.9396291608331
 31
0.0
  0
LINE
  5
1262
330
1F
100
AcDbEntity
  8
0
  6
DASHED
 62
     4
 48
5.0
100
AcDbLine
 10
341.5212918143541
 20
684.4376606568958
 30
0.0
 11
341.5212918143541
 21
682.9396291608331
 31
0.0
  0
LINE
  5
1263
330
1F
100
AcDbEntity
  8
0
  6
DASHED
 62
     4
 48
5.0
100
AcDbLine
 10
340.0232603182904
 20
684.4376606568958
 30
0.0
 11
341.5212918143541
 21
684.4376606568958
 31
0.0
  0
LINE
  5
1264
330
1F
100
AcDbEntity
  8
0
  6
DASHED
 62
     4
 48
5.0
100
AcDbLine
 10
340.0232603182904
 20
685.4363483209381
 30
0.0
 11
340.0232603182904
 21
684.4376606568958
 31
0.0
  0
LINE
  5
1265
330
1F
100
AcDbEntity
  8
0
  6
DASHED
 62
     4
 48
5.0
100
AcDbLine
 10
341.5212918143541
 20
686.9343798170008
 30
0.0
 11
341.5212918143541
 21
685.4363483209381
 31
0.0
  0
LINE
  5
1266
330
1F
100
AcDbEntity
  8
0
  6
DASHED
 62
     4
 48
5.0
100
AcDbLine
 10
342.5199794783956
 20
685.4363483209381
 30
0.0
 11
342.5199794783956
 21
686.9343798170008
 31
0.0
  0
LINE
  5
1267
330
1F
100
AcDbEntity
  8
0
  6
DASHED
 62
     4
 48
5.0
100
AcDbLine
 10
344.0180109744583
 20
685.4363483209381
 30
0.0
 11
342.5199794783956
 21
685.4363483209381
 31
0.0
  0
LINE
  5
1268
330
1F
100
AcDbEntity
  8
0
  6
DASHED
 62
     4
 48
5.0
100
AcDbLine
 10
342.5199794783956
 20
684.4376606568958
 30
0.0
 11
344.0180109744583
 21
684.4376606568958
 31
0.0
  0
LINE
  5
1269
330
1F
100
AcDbEntity
  8
0
  6
DASHED
 62
     4
 48
5.0
100
AcDbLine
 10
351.6280109744584
 20
684.4376606568958
 30
0.0
 11
351.6280109744584
 21
684.4376606568958
 31
0.0
  0
LINE
  5
126A
330
1F
100
AcDbEntity
  8
0
  6
DASHED
 62
     4
 48
5.0
100
AcDbLine
 10
351.6280109744584
 20
684.4376606568958
 30
0.0
 11
351.6280109744584
 21
685.4363483209381
 31
0.0
  0
LINE
  5
126B
330
1F
100
AcDbEntity
  8
0
  6
DASHED
 62
     4
 48
5.0
100
AcDbLine
 10
350.1299794783951
 20
686.9343798170008
 30
0.0
 11
349.1312918143534
 21
686.9343798170008
 31
0.0
  0
LINE
  5
126C
330
1F
100
AcDbEntity
  8
0
  6
DASHED
 62
     4
 48
5.0
100
AcDbLine
 10
349.1312918143534
 20
685.4363483209381
 30
0.0
 11
347.6332603182901
 21
685.4363483209381
 31
0.0
  0
LINE
  5
126D
330
1F
100
AcDbEntity
  8
0
  6
DASHED
 62
     4
 48
5.0
100
AcDbLine
 10
350.1299794783951
 20
682.9396291608331
 30
0.0
 11
350.1299794783951
 21
684.4376606568958
 31
0.0
  0
LINE
  5
126E
330
1F
100
AcDbEntity
  8
0
  6
DASHED
 62
     4
 48
5.0
100
AcDbLine
 10
349.1312918143534
 20
682.9396291608331
 30
0.0
 11
350.1299794783951
 21
682.9396291608331
 31
0.0
  0
LINE
  5
126F
330
1F
100
AcDbEntity
  8
0
  6
DASHED
 62
     4
 48
5.0
100
AcDbLine
 10
349.1312918143534
 20
684.4376606568958
 30
0.0
 11
349.1312918143534
 21
682.9396291608331
 31
0.0
  0
LINE
  5
1270
330
1F
100
AcDbEntity
  8
0
  6
DASHED
 62
     4
 48
5.0
100
AcDbLine
 10
347.6332603182901
 20
684.4376606568958
 30
0.0
 11
349.1312918143534
 21
684.4376606568958
 31
0.0
  0
LINE
  5
1271
330
1F
100
AcDbEntity
  8
0
  6
DASHED
 62
     4
 48
5.0
100
AcDbLine
 10
347.6332603182901
 20
685.4363483209381
 30
0.0
 11
347.6332603182901
 21
684.4376606568958
 31
0.0
  0
LINE
  5
1272
330
1F
100
AcDbEntity
  8
0
  6
DASHED
 62
     4
 48
5.0
100
AcDbLine
 10
349.1312918143534
 20
686.9343798170008
 30
0.0
 11
349.1312918143534
 21
685.4363483209381
 31
0.0
  0
LINE
  5
1273
330
1F
100
AcDbEntity
  8
0
  6
DASHED
 62
     4
 48
5.0
100
AcDbLine
 10
350.1299794783951
 20
685.4363483209381
 30
0.0
 11
350.1299794783951
 21
686.9343798170008
 31
0.0
  0
LINE
  5
1274
330
1F
100
AcDbEntity
  8
0
  6
DASHED
 62
     4
 48
5.0
100
AcDbLine
 10
351.6280109744584
 20
685.4363483209381
 30
0.0
 11
350.1299794783951
 21
685.4363483209381
 31
0.0
  0
LINE
  5
1275
330
1F
100
AcDbEntity
  8
0
  6
DASHED
 62
     4
 48
5.0
100
AcDbLine
 10
350.1299794783951
 20
684.4376606568958
 30
0.0
 11
351.6280109744584
 21
684.4376606568958
 31
0.0
  0
LINE
  5
1276
330
1F
100
AcDbEntity
  8
0
  6
DASHED
 62
     4
 48
5.0
100
AcDbLine
 10
359.0916293287886
 20
674.1753319771064
 30
0.0
 11
360.589660824851
 21
674.1753319771064
 31
0.0
  0
LINE
  5
1277
330
1F
100
AcDbEntity
  8
0
  6
DASHED
 62
     4
 48
5.0
100
AcDbLine
 10
360.589660824851
 20
675.1740196411486
 30
0.0
 11
359.0916293287886
 21
675.1740196411486
 31
0.0
  0
LINE
  5
1278
330
1F
100
AcDbEntity
  8
0
  6
DASHED
 62
     4
 48
5.0
100
AcDbLine
 10
355.4763799849563
 20
675.1740196411486
 30
0.0
 11
353.9783484888935
 21
675.1740196411486
 31
0.0
  0
LINE
  5
1279
330
1F
100
AcDbEntity
  8
0
  6
DASHED
 62
     4
 48
5.0
100
AcDbLine
 10
353.9783484888935
 20
674.1753319771064
 30
0.0
 11
355.4763799849563
 21
674.1753319771064
 31
0.0
  0
LINE
  5
127A
330
1F
100
AcDbEntity
  8
0
  6
DASHED
 62
     4
 48
5.0
100
AcDbLine
 10
353.9783484888935
 20
672.6773004810435
 30
0.0
 11
353.9783484888935
 21
674.1753319771064
 31
0.0
  0
LINE
  5
127B
330
1F
100
AcDbEntity
  8
0
  6
DASHED
 62
     4
 48
5.0
100
AcDbLine
 10
352.979660824851
 20
674.1753319771064
 30
0.0
 11
352.979660824851
 21
672.6773004810435
 31
0.0
  0
LINE
  5
127C
330
1F
100
AcDbEntity
  8
0
  6
DASHED
 62
     4
 48
5.0
100
AcDbLine
 10
352.979660824851
 20
672.6773004810435
 30
0.0
 11
353.9783484888935
 21
672.6773004810435
 31
0.0
  0
LINE
  5
127D
330
1F
100
AcDbEntity
  8
0
  6
DASHED
 62
     4
 48
5.0
100
AcDbLine
 10
353.9783484888935
 20
676.6720511372112
 30
0.0
 11
352.979660824851
 21
676.6720511372112
 31
0.0
  0
LINE
  5
127E
330
1F
100
AcDbEntity
  8
0
  6
DASHED
 62
     4
 48
5.0
100
AcDbLine
 10
353.9783484888935
 20
675.1740196411486
 30
0.0
 11
353.9783484888935
 21
676.6720511372112
 31
0.0
  0
LINE
  5
127F
330
1F
100
AcDbEntity
  8
0
  6
DASHED
 62
     4
 48
5.0
100
AcDbLine
 10
352.979660824851
 20
676.6720511372112
 30
0.0
 11
352.979660824851
 21
675.1740196411486
 31
0.0
  0
LINE
  5
1280
330
1F
100
AcDbEntity
  8
0
  6
DASHED
 62
     4
 48
5.0
100
AcDbLine
 10
359.0916293287886
 20
675.1740196411486
 30
0.0
 11
359.0916293287886
 21
674.1753319771064
 31
0.0
  0
LINE
  5
1281
330
1F
100
AcDbEntity
  8
0
  6
DASHED
 62
     4
 48
5.0
100
AcDbLine
 10
355.4763799849563
 20
674.1753319771064
 30
0.0
 11
355.4763799849563
 21
675.1740196411486
 31
0.0
  0
LINE
  5
1282
330
1F
100
AcDbEntity
  8
0
  6
DASHED
 62
     4
 48
5.0
100
AcDbLine
 10
355.4763799849563
 20
674.1753319771064
 30
0.0
 11
355.4763799849563
 21
674.1753319771064
 31
0.0
  0
LINE
  5
1283
330
1F
100
AcDbEntity
  8
0
  6
DASHED
 62
     4
 48
5.0
100
AcDbLine
 10
363.0863799849568
 20
674.1753319771064
 30
0.0
 11
363.0863799849568
 21
675.1740196411486
 31
0.0
  0
LINE
  5
1284
330
1F
100
AcDbEntity
  8
0
  6
DASHED
 62
     7
 48
5.0
100
AcDbLine
 10
364.0864588209151
 20
674.6891967277628
 30
0.0
 11
364.0864588209151
 21
674.6891967277628
 31
0.0
  0
LINE
  5
1285
330
1F
100
AcDbEntity
  8
0
  6
DASHED
 62
     4
 48
5.0
100
AcDbLine
 10
363.0863799849568
 20
674.1753319771064
 30
0.0
 11
363.0863799849568
 21
674.1753319771064
 31
0.0
  0
LINE
  5
1286
330
1F
100
AcDbEntity
  8
0
  6
DASHED
 62
     4
 48
5.0
100
AcDbLine
 10
361.5883484888928
 20
674.1753319771064
 30
0.0
 11
363.0863799849568
 21
674.1753319771064
 31
0.0
  0
LINE
  5
1287
330
1F
100
AcDbEntity
  8
0
  6
DASHED
 62
     4
 48
5.0
100
AcDbLine
 10
361.5883484888928
 20
672.6773004810435
 30
0.0
 11
361.5883484888928
 21
674.1753319771064
 31
0.0
  0
LINE
  5
1288
330
1F
100
AcDbEntity
  8
0
  6
DASHED
 62
     4
 48
5.0
100
AcDbLine
 10
360.589660824851
 20
674.1753319771064
 30
0.0
 11
360.589660824851
 21
672.6773004810435
 31
0.0
  0
LINE
  5
1289
330
1F
100
AcDbEntity
  8
0
  6
DASHED
 62
     4
 48
5.0
100
AcDbLine
 10
360.589660824851
 20
672.6773004810435
 30
0.0
 11
361.5883484888928
 21
672.6773004810435
 31
0.0
  0
LINE
  5
128A
330
1F
100
AcDbEntity
  8
0
  6
DASHED
 62
     4
 48
5.0
100
AcDbLine
 10
361.5883484888928
 20
676.6720511372112
 30
0.0
 11
360.589660824851
 21
676.6720511372112
 31
0.0
  0
LINE
  5
128B
330
1F
100
AcDbEntity
  8
0
  6
DASHED
 62
     4
 48
5.0
100
AcDbLine
 10
363.0863799849568
 20
675.1740196411486
 30
0.0
 11
361.5883484888928
 21
675.1740196411486
 31
0.0
  0
LINE
  5
128C
330
1F
100
AcDbEntity
  8
0
  6
DASHED
 62
     4
 48
5.0
100
AcDbLine
 10
361.5883484888928
 20
675.1740196411486
 30
0.0
 11
361.5883484888928
 21
676.6720511372112
 31
0.0
  0
LINE
  5
128D
330
1F
100
AcDbEntity
  8
0
  6
DASHED
 62
     4
 48
5.0
100
AcDbLine
 10
360.589660824851
 20
676.6720511372112
 30
0.0
 11
360.589660824851
 21
675.1740196411486
 31
0.0
  0
LINE
  5
128E
330
1F
100
AcDbEntity
  8
0
  6
DASHED
 62
     4
 48
5.0
100
AcDbLine
 10
359.2380109744581
 20
684.4376606568958
 30
0.0
 11
359.2380109744581
 21
684.4376606568958
 31
0.0
  0
LINE
  5
128F
330
1F
100
AcDbEntity
  8
0
  6
DASHED
 62
     4
 48
5.0
100
AcDbLine
 10
359.2380109744581
 20
684.4376606568958
 30
0.0
 11
359.2380109744581
 21
685.4363483209381
 31
0.0
  0
LINE
  5
1290
330
1F
100
AcDbEntity
  8
0
  6
DASHED
 62
     4
 48
5.0
100
AcDbLine
 10
357.7399794783951
 20
686.9343798170008
 30
0.0
 11
356.7412918143533
 21
686.9343798170008
 31
0.0
  0
LINE
  5
1291
330
1F
100
AcDbEntity
  8
0
  6
DASHED
 62
     4
 48
5.0
100
AcDbLine
 10
356.7412918143533
 20
685.4363483209381
 30
0.0
 11
355.2432603182904
 21
685.4363483209381
 31
0.0
  0
LINE
  5
1292
330
1F
100
AcDbEntity
  8
0
  6
DASHED
 62
     4
 48
5.0
100
AcDbLine
 10
357.7399794783951
 20
682.9396291608331
 30
0.0
 11
357.7399794783951
 21
684.4376606568958
 31
0.0
  0
LINE
  5
1293
330
1F
100
AcDbEntity
  8
0
  6
DASHED
 62
     4
 48
5.0
100
AcDbLine
 10
356.7412918143533
 20
682.9396291608331
 30
0.0
 11
357.7399794783951
 21
682.9396291608331
 31
0.0
  0
LINE
  5
1294
330
1F
100
AcDbEntity
  8
0
  6
DASHED
 62
     4
 48
5.0
100
AcDbLine
 10
356.7412918143533
 20
684.4376606568958
 30
0.0
 11
356.7412918143533
 21
682.9396291608331
 31
0.0
  0
LINE
  5
1295
330
1F
100
AcDbEntity
  8
0
  6
DASHED
 62
     4
 48
5.0
100
AcDbLine
 10
355.2432603182904
 20
684.4376606568958
 30
0.0
 11
356.7412918143533
 21
684.4376606568958
 31
0.0
  0
LINE
  5
1296
330
1F
100
AcDbEntity
  8
0
  6
DASHED
 62
     4
 48
5.0
100
AcDbLine
 10
355.2432603182904
 20
685.4363483209381
 30
0.0
 11
355.2432603182904
 21
684.4376606568958
 31
0.0
  0
LINE
  5
1297
330
1F
100
AcDbEntity
  8
0
  6
DASHED
 62
     4
 48
5.0
100
AcDbLine
 10
356.7412918143533
 20
686.9343798170008
 30
0.0
 11
356.7412918143533
 21
685.4363483209381
 31
0.0
  0
LINE
  5
1298
330
1F
100
AcDbEntity
  8
0
  6
DASHED
 62
     4
 48
5.0
100
AcDbLine
 10
357.7399794783951
 20
685.4363483209381
 30
0.0
 11
357.7399794783951
 21
686.9343798170008
 31
0.0
  0
LINE
  5
1299
330
1F
100
AcDbEntity
  8
0
  6
DASHED
 62
     4
 48
5.0
100
AcDbLine
 10
359.2380109744581
 20
685.4363483209381
 30
0.0
 11
357.7399794783951
 21
685.4363483209381
 31
0.0
  0
LINE
  5
129A
330
1F
100
AcDbEntity
  8
0
  6
DASHED
 62
     4
 48
5.0
100
AcDbLine
 10
357.7399794783951
 20
684.4376606568958
 30
0.0
 11
359.2380109744581
 21
684.4376606568958
 31
0.0
  0
LINE
  5
129B
330
1F
100
AcDbEntity
  8
0
  6
DASHED
 62
     4
 48
5.0
100
AcDbLine
 10
365.4746396673715
 20
689.1969306883922
 30
0.0
 11
250.0063719508394
 21
689.1969306883922
 31
0.0
  0
CIRCLE
  5
129C
330
1F
100
AcDbEntity
  8
0
  6
DASHED
 62
     4
100
AcDbCircle
 10
311.5806358872848
 20
684.937006727201
 30
10.5748440157477
 40
2.996060753842466
  0
CIRCLE
  5
129D
330
1F
100
AcDbEntity
  8
0
  6
DASHED
 62
     4
100
AcDbCircle
 10
265.920635887286
 20
684.937006727201
 30
10.5748440157477
 40
2.996060753842578
  0
CIRCLE
  5
129E
330
1F
100
AcDbEntity
  8
0
  6
DASHED
 62
     4
100
AcDbCircle
 10
258.3106358872859
 20
684.937006727201
 30
10.5748440157477
 40
2.996060753842578
  0
CIRCLE
  5
129F
330
1F
100
AcDbEntity
  8
0
  6
DASHED
 62
     4
100
AcDbCircle
 10
288.7506358872854
 20
684.937006727201
 30
10.5748440157477
 40
2.996060753842466
  0
CIRCLE
  5
12A0
330
1F
100
AcDbEntity
  8
0
  6
DASHED
 62
     4
100
AcDbCircle
 10
281.1406358872861
 20
684.937006727201
 30
10.5748440157477
 40
2.996060753842466
  0
CIRCLE
  5
12A1
330
1F
100
AcDbEntity
  8
0
  6
DASHED
 62
     4
100
AcDbCircle
 10
273.5306358872857
 20
684.937006727201
 30
10.5748440157477
 40
2.996060753842578
  0
CIRCLE
  5
12A2
330
1F
100
AcDbEntity
  8
0
  6
DASHED
 62
     4
100
AcDbCircle
 10
296.3606358872857
 20
684.937006727201
 30
10.5748440157477
 40
2.996060753842466
  0
CIRCLE
  5
12A3
330
1F
100
AcDbEntity
  8
0
  6
DASHED
 62
     4
100
AcDbCircle
 10
303.9706358872853
 20
684.937006727201
 30
10.5748440157477
 40
2.996060753842466
  0
CIRCLE
  5
12A4
330
1F
100
AcDbEntity
  8
0
  6
DASHED
 62
     4
100
AcDbCircle
 10
357.2406358872833
 20
684.937006727201
 30
10.5748440157477
 40
2.996060753842466
  0
CIRCLE
  5
12A5
330
1F
100
AcDbEntity
  8
0
  6
DASHED
 62
     4
100
AcDbCircle
 10
334.4106358872843
 20
684.937006727201
 30
10.5748440157477
 40
2.996060753842466
  0
CIRCLE
  5
12A6
330
1F
100
AcDbEntity
  8
0
  6
DASHED
 62
     4
100
AcDbCircle
 10
326.8006358872844
 20
684.937006727201
 30
10.5748440157477
 40
2.996060753842466
  0
CIRCLE
  5
12A7
330
1F
100
AcDbEntity
  8
0
  6
DASHED
 62
     4
100
AcDbCircle
 10
319.1906358872842
 20
684.937006727201
 30
10.5748440157477
 40
2.996060753842466
  0
CIRCLE
  5
12A8
330
1F
100
AcDbEntity
  8
0
  6
DASHED
 62
     4
100
AcDbCircle
 10
342.0206358872841
 20
684.937006727201
 30
10.5748440157477
 40
2.996060753842466
  0
CIRCLE
  5
12A9
330
1F
100
AcDbEntity
  8
0
  6
DASHED
 62
     4
100
AcDbCircle
 10
349.6306358872838
 20
684.937006727201
 30
10.5748440157477
 40
2.996060753842466
  0
CIRCLE
  5
12AA
330
1F
100
AcDbEntity
  8
0
  6
DASHED
 62
     4
100
AcDbCircle
 10
284.9890068951586
 20
674.6746780474117
 30
10.5748440157477
 40
2.996060753842466
  0
CIRCLE
  5
12AB
330
1F
100
AcDbEntity
  8
0
  6
DASHED
 62
     4
100
AcDbCircle
 10
254.5490068951596
 20
674.6746780474117
 30
10.5748440157477
 40
2.996060753842578
  0
CIRCLE
  5
12AC
330
1F
100
AcDbEntity
  8
0
  6
DASHED
 62
     4
100
AcDbCircle
 10
269.7690068951593
 20
674.6746780474117
 30
10.5748440157477
 40
2.996060753842578
  0
CIRCLE
  5
12AD
330
1F
100
AcDbEntity
  8
0
  6
DASHED
 62
     4
100
AcDbCircle
 10
262.1590068951594
 20
674.6746780474117
 30
10.5748440157477
 40
2.996060753842578
  0
CIRCLE
  5
12AE
330
1F
100
AcDbEntity
  8
0
  6
DASHED
 62
     4
100
AcDbCircle
 10
277.3790068951594
 20
674.6746780474117
 30
10.5748440157477
 40
2.996060753842466
  0
CIRCLE
  5
12AF
330
1F
100
AcDbEntity
  8
0
  6
DASHED
 62
     4
100
AcDbCircle
 10
338.2590068951573
 20
674.6746780474117
 30
10.5748440157477
 40
2.996060753842466
  0
CIRCLE
  5
12B0
330
1F
100
AcDbEntity
  8
0
  6
DASHED
 62
     4
100
AcDbCircle
 10
307.819006895158
 20
674.6746780474117
 30
10.5748440157477
 40
2.996060753842466
  0
CIRCLE
  5
12B1
330
1F
100
AcDbEntity
  8
0
  6
DASHED
 62
     4
100
AcDbCircle
 10
292.5990068951589
 20
674.6746780474117
 30
10.5748440157477
 40
2.996060753842466
  0
CIRCLE
  5
12B2
330
1F
100
AcDbEntity
  8
0
  6
DASHED
 62
     4
100
AcDbCircle
 10
300.2090068951583
 20
674.6746780474117
 30
10.5748440157477
 40
2.996060753842466
  0
CIRCLE
  5
12B3
330
1F
100
AcDbEntity
  8
0
  6
DASHED
 62
     4
100
AcDbCircle
 10
323.0390068951584
 20
674.6746780474117
 30
10.5748440157477
 40
2.996060753842466
  0
CIRCLE
  5
12B4
330
1F
100
AcDbEntity
  8
0
  6
DASHED
 62
     4
100
AcDbCircle
 10
315.4290068951583
 20
674.6746780474117
 30
10.5748440157477
 40
2.996060753842466
  0
CIRCLE
  5
12B5
330
1F
100
AcDbEntity
  8
0
  6
DASHED
 62
     4
100
AcDbCircle
 10
330.6490068951581
 20
674.6746780474117
 30
10.5748440157477
 40
2.996060753842466
  0
CIRCLE
  5
12B6
330
1F
100
AcDbEntity
  8
0
  6
DASHED
 62
     4
100
AcDbCircle
 10
353.4790068951576
 20
674.6746780474117
 30
10.5748440157477
 40
2.996060753842466
  0
CIRCLE
  5
12B7
330
1F
100
AcDbEntity
  8
0
  6
DASHED
 62
     4
100
AcDbCircle
 10
345.869006895157
 20
674.6746780474117
 30
10.5748440157477
 40
2.996060753842466
  0
CIRCLE
  5
12B8
330
1F
100
AcDbEntity
  8
0
  6
DASHED
 62
     4
100
AcDbCircle
 10
361.0890068951566
 20
674.6746780474117
 30
10.5748440157477
 40
2.996060753842466
  0
LINE
  5
12B9
330
1F
100
AcDbEntity
  8
0
  6
Continuous
 62
     7
100
AcDbLine
 10
527.8663719508495
 20
705.9569306883921
 30
0.0
 11
111.8663719508395
 21
705.9569306883921
 31
0.0
  0
ENDSEC
  0
SECTION
  2
OBJECTS
  0
DICTIONARY
  5
C
330
0
100
AcDbDictionary
281
     1
  3
ACAD_GROUP
350
D
  3
ACAD_LAYOUT
350
1A
  3
ACAD_MLINESTYLE
350
17
  3
ACAD_PLOTSETTINGS
350
19
  3
ACAD_PLOTSTYLENAME
350
E
  0
DICTIONARY
  5
D
102
{ACAD_REACTORS
330
C
102
}
330
C
100
AcDbDictionary
281
     1
  0
DICTIONARY
  5
1A
102
{ACAD_REACTORS
330
C
102
}
330
C
100
AcDbDictionary
281
     1
  3
Model
350
22
  3
ﾚｲｱｳﾄ1
350
51
  0
DICTIONARY
  5
17
102
{ACAD_REACTORS
330
C
102
}
330
C
100
AcDbDictionary
281
     1
  3
Standard
350
18
  0
DICTIONARY
  5
19
102
{ACAD_REACTORS
330
C
102
}
330
C
100
AcDbDictionary
281
     1
  0
ACDBDICTIONARYWDFLT
  5
E
102
{ACAD_REACTORS
330
C
102
}
330
C
100
AcDbDictionary
281
     1
  3
Normal
350
F
100
AcDbDictionaryWithDefault
340
F
  0
LAYOUT
  5
22
102
{ACAD_REACTORS
330
1A
102
}
330
1A
100
AcDbPlotSettings
  1

  2
none_device
  4
ANSI_A_(8.50_x_11.00_Inches)
  6

 40
6.349999904632567
 41
19.04999923706053
 42
6.350006103515625
 43
19.04998779296875
 44
215.8999938964841
 45
279.3999938964843
 46
0.0
 47
0.0
 48
0.0
 49
0.0
140
0.0
141
0.0
142
1.0
143
78.436453180766
 70
 11952
 72
     0
 73
     1
 74
     0
  7

 75
     0
147
0.0127491741332998
148
0.0
149
0.0
100
AcDbLayout
  1
Model
 70
     1
 71
     0
 10
0.0
 20
0.0
 11
12.0
 21
9.0
 12
0.0
 22
0.0
 32
0.0
 14
0.0
 24
0.0
 34
0.0
 15
0.0
 25
0.0
 35
0.0
146
0.0
 13
0.0
 23
0.0
 33
0.0
 16
1.0
 26
0.0
 36
0.0
 17
0.0
 27
1.0
 37
0.0
 76
     0
330
1F
  0
LAYOUT
  5
51
102
{ACAD_REACTORS
330
1A
102
}
330
1A
100
AcDbPlotSettings
  1

  2
None
  4

  6

 40
0.0
 41
0.0
 42
0.0
 43
0.0
 44
0.0
 45
0.0
 46
0.0
 47
0.0
 48
0.0
 49
0.0
140
0.0
141
0.0
142
1.0
143
1.0
 70
   688
 72
     0
 73
     0
 74
     5
  7

 75
    16
147
1.0
148
0.0
149
0.0
100
AcDbLayout
  1
ﾚｲｱｳﾄ1
 70
     1
 71
     1
 10
0.0
 20
0.0
 11
12.0
 21
9.0
 12
0.0
 22
0.0
 32
0.0
 14
0.0
 24
0.0
 34
0.0
 15
0.0
 25
0.0
 35
0.0
146
0.0
 13
0.0
 23
0.0
 33
0.0
 16
1.0
 26
0.0
 36
0.0
 17
0.0
 27
1.0
 37
0.0
 76
     0
330
50
  0
MLINESTYLE
  5
18
102
{ACAD_REACTORS
330
17
102
}
330
17
100
AcDbMlineStyle
  2
STANDARD
 70
     0
  3

 62
   256
 51
90.0
 52
90.0
 71
     2
 49
0.5
 62
   256
  6
BYLAYER
 49
-0.5
 62
   256
  6
BYLAYER
  0
ACDBPLACEHOLDER
  5
F
102
{ACAD_REACTORS
330
E
102
}
330
E
  0
ENDSEC
  0
EOF
