  0
SECTION
  2
HEADER
  9
$ACADVER
  1
AC1015
  9
$ACADMAINTVER
 70
    10
  9
$DWGCODEPAGE
  3
ANSI_932
  9
$INSBASE
 10
0.0
 20
0.0
 30
0.0
  9
$EXTMIN
 10
458.0232102192248
 20
326.1765306301475
 30
0.0
  9
$EXTMAX
 10
567.4374242192246
 20
407.2542526871026
 30
0.0
  9
$LIMMIN
 10
0.0
 20
0.0
  9
$LIMMAX
 10
420.0
 20
297.0
  9
$ORTHOMODE
 70
     0
  9
$REGENMODE
 70
     1
  9
$FILLMODE
 70
     1
  9
$QTEXTMODE
 70
     0
  9
$MIRRTEXT
 70
     1
  9
$LTSCALE
 40
1.0
  9
$ATTMODE
 70
     1
  9
$TEXTSIZE
 40
2.5
  9
$TRACEWID
 40
1.0
  9
$TEXTSTYLE
  7
Standard
  9
$CLAYER
  8
0
  9
$CELTYPE
  6
ByLayer
  9
$CECOLOR
 62
   256
  9
$CELTSCALE
 40
1.0
  9
$DISPSILH
 70
     0
  9
$DIMSCALE
 40
1.0
  9
$DIMASZ
 40
2.5
  9
$DIMEXO
 40
0.625
  9
$DIMDLI
 40
3.75
  9
$DIMRND
 40
0.0
  9
$DIMDLE
 40
0.0
  9
$DIMEXE
 40
1.25
  9
$DIMTP
 40
0.0
  9
$DIMTM
 40
0.0
  9
$DIMTXT
 40
2.5
  9
$DIMCEN
 40
2.5
  9
$DIMTSZ
 40
0.0
  9
$DIMTOL
 70
     0
  9
$DIMLIM
 70
     0
  9
$DIMTIH
 70
     0
  9
$DIMTOH
 70
     0
  9
$DIMSE1
 70
     0
  9
$DIMSE2
 70
     0
  9
$DIMTAD
 70
     1
  9
$DIMZIN
 70
     8
  9
$DIMBLK
  1

  9
$DIMASO
 70
     1
  9
$DIMSHO
 70
     1
  9
$DIMPOST
  1

  9
$DIMAPOST
  1

  9
$DIMALT
 70
     0
  9
$DIMALTD
 70
     3
  9
$DIMALTF
 40
0.03937007874016
  9
$DIMLFAC
 40
1.0
  9
$DIMTOFL
 70
     1
  9
$DIMTVP
 40
0.0
  9
$DIMTIX
 70
     0
  9
$DIMSOXD
 70
     0
  9
$DIMSAH
 70
     0
  9
$DIMBLK1
  1

  9
$DIMBLK2
  1

  9
$DIMSTYLE
  2
ISO-25
  9
$DIMCLRD
 70
     0
  9
$DIMCLRE
 70
     0
  9
$DIMCLRT
 70
     0
  9
$DIMTFAC
 40
1.0
  9
$DIMGAP
 40
0.625
  9
$DIMJUST
 70
     0
  9
$DIMSD1
 70
     0
  9
$DIMSD2
 70
     0
  9
$DIMTOLJ
 70
     0
  9
$DIMTZIN
 70
     8
  9
$DIMALTZ
 70
     0
  9
$DIMALTTZ
 70
     0
  9
$DIMUPT
 70
     0
  9
$DIMDEC
 70
     2
  9
$DIMTDEC
 70
     2
  9
$DIMALTU
 70
     2
  9
$DIMALTTD
 70
     3
  9
$DIMTXSTY
  7
Standard
  9
$DIMAUNIT
 70
     0
  9
$DIMADEC
 70
     0
  9
$DIMALTRND
 40
0.0
  9
$DIMAZIN
 70
     0
  9
$DIMDSEP
 70
    44
  9
$DIMATFIT
 70
     3
  9
$DIMFRAC
 70
     0
  9
$DIMLDRBLK
  1

  9
$DIMLUNIT
 70
     2
  9
$DIMLWD
 70
    -2
  9
$DIMLWE
 70
    -2
  9
$DIMTMOVE
 70
     0
  9
$LUNITS
 70
     2
  9
$LUPREC
 70
     4
  9
$SKETCHINC
 40
1.0
  9
$FILLETRAD
 40
10.0
  9
$AUNITS
 70
     0
  9
$AUPREC
 70
     0
  9
$MENU
  1
.
  9
$ELEVATION
 40
0.0
  9
$PELEVATION
 40
0.0
  9
$THICKNESS
 40
0.0
  9
$LIMCHECK
 70
     0
  9
$CHAMFERA
 40
10.0
  9
$CHAMFERB
 40
10.0
  9
$CHAMFERC
 40
20.0
  9
$CHAMFERD
 40
0.0
  9
$SKPOLY
 70
     0
  9
$TDCREATE
 40
2456499.776256238
  9
$TDUCREATE
 40
2456499.401256238
  9
$TDUPDATE
 40
2456500.620262315
  9
$TDUUPDATE
 40
2456500.245262315
  9
$TDINDWG
 40
0.0004138657
  9
$TDUSRTIMER
 40
0.0004131366
  9
$USRTIMER
 70
     1
  9
$ANGBASE
 50
0.0
  9
$ANGDIR
 70
     0
  9
$PDMODE
 70
     0
  9
$PDSIZE
 40
0.0
  9
$PLINEWID
 40
0.0
  9
$SPLFRAME
 70
     0
  9
$SPLINETYPE
 70
     6
  9
$SPLINESEGS
 70
     8
  9
$HANDSEED
  5
2FF
  9
$SURFTAB1
 70
     6
  9
$SURFTAB2
 70
     6
  9
$SURFTYPE
 70
     6
  9
$SURFU
 70
     6
  9
$SURFV
 70
     6
  9
$UCSBASE
  2

  9
$UCSNAME
  2

  9
$UCSORG
 10
0.0
 20
0.0
 30
0.0
  9
$UCSXDIR
 10
1.0
 20
0.0
 30
0.0
  9
$UCSYDIR
 10
0.0
 20
1.0
 30
0.0
  9
$UCSORTHOREF
  2

  9
$UCSORTHOVIEW
 70
     0
  9
$UCSORGTOP
 10
0.0
 20
0.0
 30
0.0
  9
$UCSORGBOTTOM
 10
0.0
 20
0.0
 30
0.0
  9
$UCSORGLEFT
 10
0.0
 20
0.0
 30
0.0
  9
$UCSORGRIGHT
 10
0.0
 20
0.0
 30
0.0
  9
$UCSORGFRONT
 10
0.0
 20
0.0
 30
0.0
  9
$UCSORGBACK
 10
0.0
 20
0.0
 30
0.0
  9
$PUCSBASE
  2

  9
$PUCSNAME
  2

  9
$PUCSORG
 10
0.0
 20
0.0
 30
0.0
  9
$PUCSXDIR
 10
1.0
 20
0.0
 30
0.0
  9
$PUCSYDIR
 10
0.0
 20
1.0
 30
0.0
  9
$PUCSORTHOREF
  2

  9
$PUCSORTHOVIEW
 70
     0
  9
$PUCSORGTOP
 10
0.0
 20
0.0
 30
0.0
  9
$PUCSORGBOTTOM
 10
0.0
 20
0.0
 30
0.0
  9
$PUCSORGLEFT
 10
0.0
 20
0.0
 30
0.0
  9
$PUCSORGRIGHT
 10
0.0
 20
0.0
 30
0.0
  9
$PUCSORGFRONT
 10
0.0
 20
0.0
 30
0.0
  9
$PUCSORGBACK
 10
0.0
 20
0.0
 30
0.0
  9
$USERI1
 70
     0
  9
$USERI2
 70
     0
  9
$USERI3
 70
     0
  9
$USERI4
 70
     0
  9
$USERI5
 70
     0
  9
$USERR1
 40
0.0
  9
$USERR2
 40
0.0
  9
$USERR3
 40
0.0
  9
$USERR4
 40
0.0
  9
$USERR5
 40
0.0
  9
$WORLDVIEW
 70
     1
  9
$SHADEDGE
 70
     3
  9
$SHADEDIF
 70
    70
  9
$TILEMODE
 70
     1
  9
$MAXACTVP
 70
    64
  9
$PINSBASE
 10
0.0
 20
0.0
 30
0.0
  9
$PLIMCHECK
 70
     0
  9
$PEXTMIN
 10
0.0
 20
0.0
 30
0.0
  9
$PEXTMAX
 10
0.0
 20
0.0
 30
0.0
  9
$PLIMMIN
 10
0.0
 20
0.0
  9
$PLIMMAX
 10
12.0
 20
9.0
  9
$UNITMODE
 70
     0
  9
$VISRETAIN
 70
     1
  9
$PLINEGEN
 70
     0
  9
$PSLTSCALE
 70
     1
  9
$TREEDEPTH
 70
  3020
  9
$CMLSTYLE
  2
Standard
  9
$CMLJUST
 70
     0
  9
$CMLSCALE
 40
20.0
  9
$PROXYGRAPHICS
 70
     1
  9
$MEASUREMENT
 70
     1
  9
$CELWEIGHT
370
    -1
  9
$ENDCAPS
280
     0
  9
$JOINSTYLE
280
     0
  9
$LWDISPLAY
290
     0
  9
$INSUNITS
 70
     4
  9
$HYPERLINKBASE
  1

  9
$STYLESHEET
  1

  9
$XEDIT
290
     1
  9
$CEPSNTYPE
380
     0
  9
$PSTYLEMODE
290
     1
  9
$FINGERPRINTGUID
  2
{FDEAD578-A652-11D2-9A35-0060089B3A3F}
  9
$VERSIONGUID
  2
{7113D709-7DAD-443E-9118-40577F90B139}
  9
$EXTNAMES
290
     1
  9
$PSVPSCALE
 40
0.0
  9
$OLESTARTUP
290
     0
  0
ENDSEC
  0
SECTION
  2
CLASSES
  0
CLASS
  1
ACDBDICTIONARYWDFLT
  2
AcDbDictionaryWithDefault
  3
AutoCAD 2000
 90
        0
280
     0
281
     0
  0
CLASS
  1
ACDBPLACEHOLDER
  2
AcDbPlaceHolder
  3
AutoCAD 2000
 90
        0
280
     0
281
     0
  0
CLASS
  1
LAYOUT
  2
AcDbLayout
  3
AutoCAD 2000
 90
        0
280
     0
281
     0
  0
ENDSEC
  0
SECTION
  2
TABLES
  0
TABLE
  2
VPORT
  5
8
330
0
100
AcDbSymbolTable
 70
     2
  0
VPORT
  5
2FE
330
8
100
AcDbSymbolTableRecord
100
AcDbViewportTableRecord
  2
*Active
 70
     0
 10
0.0
 20
0.0
 11
1.0
 21
1.0
 12
511.9440365173493
 22
366.9482425289937
 13
0.0
 23
0.0
 14
10.0
 24
10.0
 15
10.0
 25
10.0
 16
0.0
 26
0.0
 36
1.0
 17
0.0
 27
0.0
 37
0.0
 40
107.2518442376368
 41
1.781954887218045
 42
50.0
 43
0.0
 44
0.0
 50
0.0
 51
0.0
 71
     0
 72
   100
 73
     1
 74
     3
 75
     0
 76
     0
 77
     0
 78
     0
281
     0
 65
     1
110
0.0
120
0.0
130
0.0
111
1.0
121
0.0
131
0.0
112
0.0
122
1.0
132
0.0
 79
     0
146
0.0
  0
ENDTAB
  0
TABLE
  2
LTYPE
  5
5
330
0
100
AcDbSymbolTable
 70
     2
  0
LTYPE
  5
14
330
5
100
AcDbSymbolTableRecord
100
AcDbLinetypeTableRecord
  2
ByBlock
 70
     0
  3

 72
    65
 73
     0
 40
0.0
  0
LTYPE
  5
15
330
5
100
AcDbSymbolTableRecord
100
AcDbLinetypeTableRecord
  2
ByLayer
 70
     0
  3

 72
    65
 73
     0
 40
0.0
  0
LTYPE
  5
16
330
5
100
AcDbSymbolTableRecord
100
AcDbLinetypeTableRecord
  2
Continuous
 70
     0
  3
Solid line
 72
    65
 73
     0
 40
0.0
  0
LTYPE
  5
61
330
5
100
AcDbSymbolTableRecord
100
AcDbLinetypeTableRecord
  2
DASHED
 70
     0
  3
DASHED
 72
    65
 73
     2
 40
0.75
 49
0.5
 74
     0
 49
-0.25
 74
     0
  0
ENDTAB
  0
TABLE
  2
LAYER
  5
2
330
0
100
AcDbSymbolTable
 70
     1
  0
LAYER
  5
10
330
2
100
AcDbSymbolTableRecord
100
AcDbLayerTableRecord
  2
0
 70
     0
 62
     7
  6
Continuous
370
    -3
390
F
  0
ENDTAB
  0
TABLE
  2
STYLE
  5
3
330
0
100
AcDbSymbolTable
 70
     1
  0
STYLE
  5
11
330
3
100
AcDbSymbolTableRecord
100
AcDbTextStyleTableRecord
  2
Standard
 70
     0
 40
0.0
 41
1.0
 50
0.0
 71
     0
 42
2.5
  3
txt
  4

  0
ENDTAB
  0
TABLE
  2
VIEW
  5
6
330
0
100
AcDbSymbolTable
 70
     0
  0
ENDTAB
  0
TABLE
  2
UCS
  5
7
330
0
100
AcDbSymbolTable
 70
     0
  0
ENDTAB
  0
TABLE
  2
APPID
  5
9
330
0
100
AcDbSymbolTable
 70
     1
  0
APPID
  5
12
330
9
100
AcDbSymbolTableRecord
100
AcDbRegAppTableRecord
  2
ACAD
 70
     0
  0
ENDTAB
  0
TABLE
  2
DIMSTYLE
  5
A
330
0
100
AcDbSymbolTable
 70
     1
100
AcDbDimStyleTable
 71
     1
340
27
  0
DIMSTYLE
105
27
330
A
100
AcDbSymbolTableRecord
100
AcDbDimStyleTableRecord
  2
ISO-25
 70
     0
 41
2.5
 42
0.625
 43
3.75
 44
1.25
 73
     0
 74
     0
 77
     1
 78
     8
140
2.5
141
2.5
143
0.03937007874016
147
0.625
171
     3
172
     1
271
     2
272
     2
274
     3
278
    44
283
     0
284
     8
340
11
  0
ENDTAB
  0
TABLE
  2
BLOCK_RECORD
  5
1
330
0
100
AcDbSymbolTable
 70
     1
  0
BLOCK_RECORD
  5
1F
330
1
100
AcDbSymbolTableRecord
100
AcDbBlockTableRecord
  2
*Model_Space
340
22
  0
BLOCK_RECORD
  5
50
330
1
100
AcDbSymbolTableRecord
100
AcDbBlockTableRecord
  2
*Paper_Space
340
51
  0
BLOCK_RECORD
  5
55
330
1
100
AcDbSymbolTableRecord
100
AcDbBlockTableRecord
  2
*Paper_Space0
340
56
  0
ENDTAB
  0
ENDSEC
  0
SECTION
  2
BLOCKS
  0
BLOCK
  5
20
330
1F
100
AcDbEntity
  8
0
100
AcDbBlockBegin
  2
*Model_Space
 70
     0
 10
0.0
 20
0.0
 30
0.0
  3
*Model_Space
  1

  0
ENDBLK
  5
21
330
1F
100
AcDbEntity
  8
0
100
AcDbBlockEnd
  0
BLOCK
  5
52
330
50
100
AcDbEntity
 67
     1
  8
0
100
AcDbBlockBegin
  2
*Paper_Space
 70
     0
 10
0.0
 20
0.0
 30
0.0
  3
*Paper_Space
  1

  0
ENDBLK
  5
53
330
50
100
AcDbEntity
 67
     1
  8
0
100
AcDbBlockEnd
  0
BLOCK
  5
57
330
55
100
AcDbEntity
  8
0
100
AcDbBlockBegin
  2
*Paper_Space0
 70
     0
 10
0.0
 20
0.0
 30
0.0
  3
*Paper_Space0
  1

  0
ENDBLK
  5
58
330
55
100
AcDbEntity
  8
0
100
AcDbBlockEnd
  0
ENDSEC
  0
SECTION
  2
ENTITIES
  0
LINE
  5
1AF
330
1F
100
AcDbEntity
  8
0
  6
Continuous
 62
     7
100
AcDbLine
 10
550.0324522192246
 20
376.715391658625
 30
0.0
 11
545.4324522192246
 21
376.715391658625
 31
0.0
  0
LINE
  5
1B0
330
1F
100
AcDbEntity
  8
0
  6
Continuous
 62
     7
100
AcDbLine
 10
540.8392732192244
 20
397.526017658625
 30
0.0
 11
540.5437092192244
 21
397.5774206586251
 31
0.0
  0
LINE
  5
1B1
330
1F
100
AcDbEntity
  8
0
  6
Continuous
 62
     7
100
AcDbLine
 10
541.1907392192245
 20
399.5469486586248
 30
0.0
 11
540.8951752192243
 21
399.598350658625
 31
0.0
  0
LINE
  5
1B2
330
1F
100
AcDbEntity
  8
0
  6
Continuous
 62
     7
100
AcDbLine
 10
540.5437092192244
 20
397.5774206586251
 30
0.0
 11
540.8951752192243
 21
399.598350658625
 31
0.0
  0
ARC
  5
1B3
330
1F
100
AcDbEntity
  8
0
  6
Continuous
 62
     7
100
AcDbCircle
 10
544.9607191561017
 20
403.7153885897255
 30
0.0
 40
3.000003068901082
100
AcDbArc
 50
90.0000560901641
 51
170.1341539216516
  0
LINE
  5
1B4
330
1F
100
AcDbEntity
  8
0
  6
Continuous
 62
     7
100
AcDbLine
 10
545.4324522192246
 20
406.715391658625
 30
0.0
 11
544.9607162192246
 21
406.715391658625
 31
0.0
  0
LINE
  5
1B5
330
1F
100
AcDbEntity
  8
0
  6
Continuous
 62
     7
100
AcDbLine
 10
543.4374252192246
 20
381.215391658625
 30
0.0
 11
543.4374252192246
 21
383.7153916586251
 31
0.0
  0
LINE
  5
1B6
330
1F
100
AcDbEntity
  8
0
  6
Continuous
 62
     7
100
AcDbLine
 10
544.3324522192243
 20
380.5153916586251
 30
0.0
 11
543.4374252192246
 21
382.2059982141806
 31
0.0
  0
LINE
  5
1B7
330
1F
100
AcDbEntity
  8
0
  6
Continuous
 62
     7
100
AcDbLine
 10
543.4374252192246
 20
383.7153916586251
 30
0.0
 11
543.4374252192246
 21
382.2059982141806
 31
0.0
  0
ARC
  5
1B8
330
1F
100
AcDbEntity
  8
0
  6
Continuous
 62
     7
100
AcDbCircle
 10
541.437443602053
 20
383.4564677771621
 30
0.0
 40
3.000018382829248
100
AcDbArc
 50
170.1343053458804
 51
180.0000404608276
  0
LINE
  5
1B9
330
1F
100
AcDbEntity
  8
0
  6
Continuous
 62
     7
100
AcDbLine
 10
544.3324522192243
 20
380.2153916586251
 30
0.0
 11
543.6551022192244
 21
379.7638246586251
 31
0.0
  0
LINE
  5
1BA
330
1F
100
AcDbEntity
  8
0
  6
Continuous
 62
     7
100
AcDbLine
 10
543.2287137117021
 20
380.2153916586251
 30
0.0
 11
544.3324522192243
 21
380.2153916586251
 31
0.0
  0
ARC
  5
1BB
330
1F
100
AcDbEntity
  8
0
  6
Continuous
 62
     7
100
AcDbCircle
 10
543.9324519390511
 20
379.3477995959921
 30
0.0
 40
0.4999997198266292
100
AcDbArc
 50
123.6900368313692
 51
171.912345401067
  0
LINE
  5
1BC
330
1F
100
AcDbEntity
  8
0
  6
Continuous
 62
     7
100
AcDbLine
 10
543.4374252192246
 20
378.665391658625
 30
0.0
 11
543.4374252192246
 21
379.4181435117518
 31
0.0
  0
LINE
  5
1BD
330
1F
100
AcDbEntity
  8
0
  6
Continuous
 62
     7
100
AcDbLine
 10
538.4374252192246
 20
379.715690658625
 30
0.0
 11
538.4374252192246
 21
379.7153916586251
 31
0.0
  0
ARC
  5
1BE
330
1F
100
AcDbEntity
  8
0
  6
Continuous
 62
     7
100
AcDbCircle
 10
538.7374249951018
 20
379.0153914345024
 30
0.0
 40
0.2999997758775221
100
AcDbArc
 50
179.9999571957079
 51
270.0000428042789
  0
LINE
  5
1BF
330
1F
100
AcDbEntity
  8
0
  6
Continuous
 62
     7
100
AcDbLine
 10
538.7374252192246
 20
378.715391658625
 30
0.0
 11
540.9374252192247
 21
378.715391658625
 31
0.0
  0
LINE
  5
1C0
330
1F
100
AcDbEntity
  8
0
  6
Continuous
 62
     7
100
AcDbLine
 10
543.4374252192246
 20
378.665391658625
 30
0.0
 11
538.4374252192246
 21
376.715391658625
 31
0.0
  0
LINE
  5
1C1
330
1F
100
AcDbEntity
  8
0
  6
Continuous
 62
     7
100
AcDbLine
 10
544.3324522192243
 20
380.5153916586251
 30
0.0
 11
544.3324522192243
 21
380.2153916586251
 31
0.0
  0
ARC
  5
1C2
330
1F
100
AcDbEntity
  8
0
  6
Continuous
 62
     7
100
AcDbCircle
 10
540.9374270869126
 20
381.2153897909372
 30
0.0
 40
2.49999813231274
100
AcDbArc
 50
269.9999571957111
 51
0.0000428042888088
  0
LINE
  5
1C3
330
1F
100
AcDbEntity
  8
0
  6
Continuous
 62
     7
100
AcDbLine
 10
538.4374252192246
 20
383.4564656586251
 30
0.0
 11
538.4374252192246
 21
379.0153916586251
 31
0.0
  0
LINE
  5
1C4
330
1F
100
AcDbEntity
  8
0
  6
Continuous
 62
     7
100
AcDbLine
 10
543.4374252192246
 20
383.7153916586251
 30
0.0
 11
545.4282162192246
 21
383.7153926586251
 31
0.0
  0
LINE
  5
1C5
330
1F
100
AcDbEntity
  8
0
  6
Continuous
 62
     7
100
AcDbLine
 10
543.4374252192246
 20
383.7153916586251
 30
0.0
 11
545.4324522192246
 21
383.7153916586251
 31
0.0
  0
LINE
  5
1C6
330
1F
100
AcDbEntity
  8
0
  6
Continuous
 62
     7
100
AcDbLine
 10
545.4324522192246
 20
378.665391658625
 30
0.0
 11
543.4374252192246
 21
378.665391658625
 31
0.0
  0
LINE
  5
1C7
330
1F
100
AcDbEntity
  8
0
  6
Continuous
 62
     7
100
AcDbLine
 10
538.4817892192246
 20
383.970488658625
 30
0.0
 11
542.0050812192246
 21
404.229414658625
 31
0.0
  0
LINE
  5
1C8
330
1F
100
AcDbEntity
  8
0
  6
Continuous
 62
     7
100
AcDbLine
 10
545.4324522192246
 20
383.7153916586251
 30
0.0
 11
545.4324522192246
 21
406.715391658625
 31
0.0
  0
LINE
  5
1C9
330
1F
100
AcDbEntity
  8
0
  6
Continuous
 62
     7
100
AcDbLine
 10
545.4324522192246
 20
378.665391658625
 30
0.0
 11
545.4324522192246
 21
406.715391658625
 31
0.0
  0
LINE
  5
1CA
330
1F
100
AcDbEntity
  8
0
  6
Continuous
 62
     7
100
AcDbLine
 10
545.4324522192246
 20
383.7153916586251
 30
0.0
 11
545.4324522192246
 21
406.715391658625
 31
0.0
  0
ARC
  5
1CB
330
1F
100
AcDbEntity
  8
0
  6
Continuous
 62
     7
100
AcDbCircle
 10
544.9607185616391
 20
329.7153942275246
 30
0.0
 40
3.000002568900517
100
AcDbArc
 50
189.8658574317285
 51
269.999955263217
  0
LINE
  5
1CC
330
1F
100
AcDbEntity
  8
0
  6
Continuous
 62
     7
100
AcDbLine
 10
545.4324522192246
 20
326.715391658625
 30
0.0
 11
544.9607162192246
 21
326.715391658625
 31
0.0
  0
LINE
  5
1CD
330
1F
100
AcDbEntity
  8
0
  6
Continuous
 62
     7
100
AcDbLine
 10
550.0324522192246
 20
356.7153916586251
 30
0.0
 11
545.4324522192246
 21
356.7153916586251
 31
0.0
  0
LINE
  5
1CE
330
1F
100
AcDbEntity
  8
0
  6
Continuous
 62
     7
100
AcDbLine
 10
545.4324522192246
 20
354.765391658625
 30
0.0
 11
545.4324522192246
 21
378.665391658625
 31
0.0
  0
LINE
  5
1CF
330
1F
100
AcDbEntity
  8
0
  6
Continuous
 62
     7
100
AcDbLine
 10
550.0324522192246
 20
356.7153916586251
 30
0.0
 11
550.0324522192246
 21
376.715391658625
 31
0.0
  0
LINE
  5
1D0
330
1F
100
AcDbEntity
  8
0
  6
Continuous
 62
     7
100
AcDbLine
 10
543.2388262192244
 20
353.215391658625
 30
0.0
 11
544.3324522192243
 21
353.215391658625
 31
0.0
  0
LINE
  5
1D1
330
1F
100
AcDbEntity
  8
0
  6
Continuous
 62
     7
100
AcDbLine
 10
544.3324522192243
 20
352.915391658625
 30
0.0
 11
544.3324522192243
 21
353.215391658625
 31
0.0
  0
LINE
  5
1D2
330
1F
100
AcDbEntity
  8
0
  6
Continuous
 62
     7
100
AcDbLine
 10
544.3324522192243
 20
353.215391658625
 30
0.0
 11
543.6551022192244
 21
353.666958658625
 31
0.0
  0
LINE
  5
1D3
330
1F
100
AcDbEntity
  8
0
  6
Continuous
 62
     7
100
AcDbLine
 10
543.4374252192246
 20
352.2153916586251
 30
0.0
 11
543.4374252192246
 21
349.715391658625
 31
0.0
  0
LINE
  5
1D4
330
1F
100
AcDbEntity
  8
0
  6
Continuous
 62
     7
100
AcDbLine
 10
543.4374252192246
 20
349.715391658625
 30
0.0
 11
543.4374252192246
 21
351.2247851030695
 31
0.0
  0
LINE
  5
1D5
330
1F
100
AcDbEntity
  8
0
  6
Continuous
 62
     7
100
AcDbLine
 10
544.3324522192243
 20
352.915391658625
 30
0.0
 11
543.4374252192246
 21
351.2247851030695
 31
0.0
  0
ARC
  5
1D6
330
1F
100
AcDbEntity
  8
0
  6
Continuous
 62
     7
100
AcDbCircle
 10
543.9324519390511
 20
354.082983721258
 30
0.0
 40
0.4999997198266057
100
AcDbArc
 50
188.0876545989167
 51
236.3099631686306
  0
LINE
  5
1D7
330
1F
100
AcDbEntity
  8
0
  6
Continuous
 62
     7
100
AcDbLine
 10
543.4374252192246
 20
354.0126398054983
 30
0.0
 11
543.4374252192246
 21
354.765391658625
 31
0.0
  0
ARC
  5
1D8
330
1F
100
AcDbEntity
  8
0
  6
Continuous
 62
     7
100
AcDbCircle
 10
541.4374436020533
 20
349.9743155400881
 30
0.0
 40
3.000018382829418
100
AcDbArc
 50
179.9999595391691
 51
189.8656946541195
  0
LINE
  5
1D9
330
1F
100
AcDbEntity
  8
0
  6
Continuous
 62
     7
100
AcDbLine
 10
538.4374252192246
 20
349.9743176586251
 30
0.0
 11
538.4374252192246
 21
354.4153916586251
 31
0.0
  0
ARC
  5
1DA
330
1F
100
AcDbEntity
  8
0
  6
Continuous
 62
     7
100
AcDbCircle
 10
538.7374249951018
 20
354.4153918827476
 30
0.0
 40
0.2999997758775221
100
AcDbArc
 50
89.99995719572096
 51
180.0000428042953
  0
LINE
  5
1DB
330
1F
100
AcDbEntity
  8
0
  6
Continuous
 62
     7
100
AcDbLine
 10
538.7374252192246
 20
354.7153916586251
 30
0.0
 11
540.9374252192247
 21
354.7153916586251
 31
0.0
  0
ARC
  5
1DC
330
1F
100
AcDbEntity
  8
0
  6
Continuous
 62
     7
100
AcDbCircle
 10
540.9374270869126
 20
352.2153935263129
 30
0.0
 40
2.49999813231274
100
AcDbArc
 50
359.9999571957112
 51
90.00004280428553
  0
LINE
  5
1DD
330
1F
100
AcDbEntity
  8
0
  6
Continuous
 62
     7
100
AcDbLine
 10
543.4374252192246
 20
354.765391658625
 30
0.0
 11
538.4374252192246
 21
356.7153916586251
 31
0.0
  0
LINE
  5
1DE
330
1F
100
AcDbEntity
  8
0
  6
Continuous
 62
     7
100
AcDbLine
 10
541.6149782192246
 20
331.4444606586251
 30
0.0
 11
541.3194142192246
 21
331.393058658625
 31
0.0
  0
LINE
  5
1DF
330
1F
100
AcDbEntity
  8
0
  6
Continuous
 62
     7
100
AcDbLine
 10
541.2635122192243
 20
333.4653916586251
 30
0.0
 11
540.9679482192244
 21
333.413989658625
 31
0.0
  0
LINE
  5
1E0
330
1F
100
AcDbEntity
  8
0
  6
Continuous
 62
     7
100
AcDbLine
 10
540.9679482192244
 20
333.413989658625
 30
0.0
 11
541.3194142192246
 21
331.393058658625
 31
0.0
  0
LINE
  5
1E1
330
1F
100
AcDbEntity
  8
0
  6
Continuous
 62
     7
100
AcDbLine
 10
538.4374252192246
 20
354.217966658625
 30
0.0
 11
538.4374252192246
 21
379.2128166586251
 31
0.0
  0
LINE
  5
1E2
330
1F
100
AcDbEntity
  8
0
  6
Continuous
 62
     7
100
AcDbLine
 10
545.4324522192246
 20
354.765391658625
 30
0.0
 11
543.4374252192246
 21
354.765391658625
 31
0.0
  0
LINE
  5
1E3
330
1F
100
AcDbEntity
  8
0
  6
Continuous
 62
     7
100
AcDbLine
 10
543.4374252192246
 20
349.715391658625
 30
0.0
 11
545.4324522192246
 21
349.7153906607437
 31
0.0
  0
LINE
  5
1E4
330
1F
100
AcDbEntity
  8
0
  6
Continuous
 62
     7
100
AcDbLine
 10
543.4374252192246
 20
349.715391658625
 30
0.0
 11
545.4324522192246
 21
349.7153906607437
 31
0.0
  0
LINE
  5
1E5
330
1F
100
AcDbEntity
  8
0
  6
Continuous
 62
     7
100
AcDbLine
 10
538.4817892192246
 20
349.460294658625
 30
0.0
 11
542.0050812192246
 21
329.201367658625
 31
0.0
  0
LINE
  5
1E6
330
1F
100
AcDbEntity
  8
0
  6
Continuous
 62
     7
100
AcDbLine
 10
545.4324522192246
 20
354.765391658625
 30
0.0
 11
545.4324522192246
 21
326.715391658625
 31
0.0
  0
LINE
  5
1E7
330
1F
100
AcDbEntity
  8
0
  6
Continuous
 62
     7
100
AcDbLine
 10
545.4324522192246
 20
349.715391658625
 30
0.0
 11
545.4324522192246
 21
326.715391658625
 31
0.0
  0
LINE
  5
1E8
330
1F
100
AcDbEntity
  8
0
100
AcDbLine
 10
545.4324522192246
 20
406.715391658625
 30
0.0
 11
545.4324522192246
 21
326.715391658625
 31
0.0
  0
ARC
  5
1E9
330
1F
100
AcDbEntity
  8
0
  6
DASHED
 62
     4
 48
2.0
100
AcDbCircle
 10
468.2749247678581
 20
336.0528922072583
 30
0.0
 40
0.4374996731547269
100
AcDbArc
 50
359.9999571957112
 51
90.00004280428553
  0
LINE
  5
1EA
330
1F
100
AcDbEntity
  8
0
100
AcDbLine
 10
465.2999244410128
 20
335.6571577749621
 30
0.0
 11
465.2999244410128
 21
335.354300880413
 31
0.0
  0
LINE
  5
1EB
330
1F
100
AcDbEntity
  8
0
  6
DASHED
 62
     4
 48
2.0
100
AcDbLine
 10
465.2999244410128
 20
336.490391880413
 30
0.0
 11
465.2999244410128
 21
335.6571577749621
 31
0.0
  0
ARC
  5
1EC
330
1F
100
AcDbEntity
  8
0
  6
DASHED
 62
     4
 48
2.0
100
AcDbCircle
 10
468.2749247678581
 20
328.8778915535676
 30
0.0
 40
0.4374996731547269
100
AcDbArc
 50
269.9999571957111
 51
0.0000428042888088
  0
LINE
  5
1ED
330
1F
100
AcDbEntity
  8
0
  6
DASHED
 62
     4
 48
2.0
100
AcDbLine
 10
468.7124244410126
 20
333.0778918804131
 30
0.0
 11
468.7124244410126
 21
331.8528918804131
 31
0.0
  0
LINE
  5
1EE
330
1F
100
AcDbEntity
  8
0
100
AcDbLine
 10
467.5763324410126
 20
333.0778918804131
 30
0.0
 11
467.8791854869577
 21
333.0778918804131
 31
0.0
  0
LINE
  5
1EF
330
1F
100
AcDbEntity
  8
0
100
AcDbLine
 10
467.5763324410126
 20
331.8528918804131
 30
0.0
 11
467.8791836176702
 21
331.8528918804131
 31
0.0
  0
LINE
  5
1F0
330
1F
100
AcDbEntity
  8
0
100
AcDbLine
 10
465.2999244410128
 20
329.2736336466802
 30
0.0
 11
465.2999244410128
 21
329.576483880413
 31
0.0
  0
LINE
  5
1F1
330
1F
100
AcDbEntity
  8
0
  6
DASHED
 62
     4
 48
2.0
100
AcDbLine
 10
467.8791854869577
 20
333.0778918804131
 30
0.0
 11
468.7124244410126
 21
333.0778918804131
 31
0.0
  0
LINE
  5
1F2
330
1F
100
AcDbEntity
  8
0
  6
DASHED
 62
     4
 48
2.0
100
AcDbLine
 10
468.7124244410126
 20
331.8528918804131
 30
0.0
 11
467.8791836176702
 21
331.8528918804131
 31
0.0
  0
LINE
  5
1F3
330
1F
100
AcDbEntity
  8
0
  6
DASHED
 62
     4
 48
2.0
100
AcDbLine
 10
465.2999244410128
 20
329.2736336466802
 30
0.0
 11
465.2999244410128
 21
328.4403918804131
 31
0.0
  0
LINE
  5
1F4
330
1F
100
AcDbEntity
  8
0
  6
Continuous
 62
     7
 48
2.0
100
AcDbLine
 10
465.1686744410126
 20
330.802891880413
 30
0.0
 11
465.1686744410126
 21
331.984141880413
 31
0.0
  0
LINE
  5
1F5
330
1F
100
AcDbEntity
  8
0
  6
Continuous
 62
     7
 48
2.0
100
AcDbLine
 10
465.1686744410126
 20
332.946641880413
 30
0.0
 11
467.6405494410126
 21
332.946641880413
 31
0.0
  0
LINE
  5
1F6
330
1F
100
AcDbEntity
  8
0
  6
Continuous
 62
     7
 48
2.0
100
AcDbLine
 10
465.1686744410126
 20
331.984141880413
 30
0.0
 11
467.6405494410126
 21
331.984141880413
 31
0.0
  0
LINE
  5
1F7
330
1F
100
AcDbEntity
  8
0
  6
DASHED
 62
     4
 48
2.0
100
AcDbLine
 10
468.7124244410126
 20
336.0528918804131
 30
0.0
 11
468.7124244410126
 21
328.8778918804131
 31
0.0
  0
LINE
  5
1F8
330
1F
100
AcDbEntity
  8
0
  6
Continuous
 62
     7
 48
2.0
100
AcDbLine
 10
465.1686744410126
 20
332.946641880413
 30
0.0
 11
465.1686744410126
 21
334.1278918804131
 31
0.0
  0
LINE
  5
1F9
330
1F
100
AcDbEntity
  8
0
100
AcDbLine
 10
464.0749244410128
 20
335.6571582084732
 30
0.0
 11
464.0749244410128
 21
335.354300880413
 31
0.0
  0
LINE
  5
1FA
330
1F
100
AcDbEntity
  8
0
  6
DASHED
 62
     4
 48
2.0
100
AcDbLine
 10
464.0749244410128
 20
335.6571582084732
 30
0.0
 11
464.0749244410128
 21
336.490391880413
 31
0.0
  0
ARC
  5
1FB
330
1F
100
AcDbEntity
  8
0
  6
DASHED
 62
     4
 48
2.0
100
AcDbCircle
 10
461.0999241141671
 20
336.0528922072583
 30
0.0
 40
0.4374996731547269
100
AcDbArc
 50
89.99995719571119
 51
180.0000428042855
  0
LINE
  5
1FC
330
1F
100
AcDbEntity
  8
0
100
AcDbLine
 10
464.0749244410128
 20
329.2736327191962
 30
0.0
 11
464.0749244410128
 21
329.576483880413
 31
0.0
  0
LINE
  5
1FD
330
1F
100
AcDbEntity
  8
0
100
AcDbLine
 10
461.4956590558795
 20
333.0778918804131
 30
0.0
 11
461.7985154410126
 21
333.0778918804131
 31
0.0
  0
LINE
  5
1FE
330
1F
100
AcDbEntity
  8
0
100
AcDbLine
 10
461.4956604311986
 20
331.8528918804131
 30
0.0
 11
461.7985154410126
 21
331.8528918804131
 31
0.0
  0
LINE
  5
1FF
330
1F
100
AcDbEntity
  8
0
  6
DASHED
 62
     4
 48
2.0
100
AcDbLine
 10
464.0749244410128
 20
328.4403918804131
 30
0.0
 11
464.0749244410128
 21
329.2736327191962
 31
0.0
  0
LINE
  5
200
330
1F
100
AcDbEntity
  8
0
  6
Continuous
 62
     7
 48
2.0
100
AcDbLine
 10
461.7342994410128
 20
332.946641880413
 30
0.0
 11
464.2061744410128
 21
332.946641880413
 31
0.0
  0
LINE
  5
201
330
1F
100
AcDbEntity
  8
0
  6
Continuous
 62
     7
 48
2.0
100
AcDbLine
 10
461.7342994410128
 20
331.984141880413
 30
0.0
 11
464.2061744410128
 21
331.984141880413
 31
0.0
  0
LINE
  5
202
330
1F
100
AcDbEntity
  8
0
  6
Continuous
 62
     7
 48
2.0
100
AcDbLine
 10
464.2061744410128
 20
330.802891880413
 30
0.0
 11
464.2061744410128
 21
331.984141880413
 31
0.0
  0
LINE
  5
203
330
1F
100
AcDbEntity
  8
0
  6
DASHED
 62
     4
 48
2.0
100
AcDbLine
 10
460.6624244410127
 20
331.8528918804131
 30
0.0
 11
460.6624244410127
 21
333.0778918804131
 31
0.0
  0
ARC
  5
204
330
1F
100
AcDbEntity
  8
0
  6
DASHED
 62
     4
 48
2.0
100
AcDbCircle
 10
461.0999241141671
 20
328.8778915535676
 30
0.0
 40
0.4374996731547269
100
AcDbArc
 50
179.9999571957112
 51
270.0000428042855
  0
LINE
  5
205
330
1F
100
AcDbEntity
  8
0
  6
DASHED
 62
     4
 48
2.0
100
AcDbLine
 10
460.6624244410127
 20
333.0778918804131
 30
0.0
 11
461.4956590558795
 21
333.0778918804131
 31
0.0
  0
LINE
  5
206
330
1F
100
AcDbEntity
  8
0
  6
DASHED
 62
     4
 48
2.0
100
AcDbLine
 10
461.4956604311986
 20
331.8528918804131
 30
0.0
 11
460.6624244410127
 21
331.8528918804131
 31
0.0
  0
LINE
  5
207
330
1F
100
AcDbEntity
  8
0
  6
DASHED
 62
     4
 48
2.0
100
AcDbLine
 10
460.6624244410127
 20
328.8778918804131
 30
0.0
 11
460.6624244410127
 21
336.0528918804131
 31
0.0
  0
LINE
  5
208
330
1F
100
AcDbEntity
  8
0
  6
Continuous
 62
     7
 48
2.0
100
AcDbLine
 10
464.2061744410128
 20
332.946641880413
 30
0.0
 11
464.2061744410128
 21
334.1278918804131
 31
0.0
  0
LINE
  5
209
330
1F
100
AcDbEntity
  8
0
  6
DASHED
 62
     4
 48
2.0
100
AcDbLine
 10
468.2749244410127
 20
328.4403918804131
 30
0.0
 11
461.0999244410128
 21
328.4403918804131
 31
0.0
  0
LINE
  5
20A
330
1F
100
AcDbEntity
  8
0
  6
DASHED
 62
     4
 48
2.0
100
AcDbLine
 10
461.0999244410128
 20
336.490391880413
 30
0.0
 11
468.2749244410127
 21
336.490391880413
 31
0.0
  0
LINE
  5
20B
330
1F
100
AcDbEntity
  8
0
  6
DASHED
 62
     4
 48
2.0
100
AcDbLine
 10
465.2999244410128
 20
328.4403918804131
 30
0.0
 11
464.0749244410128
 21
328.4403918804131
 31
0.0
  0
LINE
  5
20C
330
1F
100
AcDbEntity
  8
0
  6
DASHED
 62
     4
 48
2.0
100
AcDbLine
 10
464.0749244410128
 20
336.490391880413
 30
0.0
 11
465.2999244410128
 21
336.490391880413
 31
0.0
  0
CIRCLE
  5
20D
330
1F
100
AcDbEntity
  8
0
100
AcDbCircle
 10
464.6874266472192
 20
332.4653940866193
 30
0.0
 40
2.953122793794419
  0
CIRCLE
  5
20E
330
1F
100
AcDbEntity
  8
0
100
AcDbCircle
 10
464.687424869007
 20
332.4653983084073
 30
0.0
 40
3.249997572006547
  0
LINE
  5
20F
330
1F
100
AcDbEntity
  8
0
  6
Continuous
 62
     7
 48
2.0
100
AcDbLine
 10
464.2061744410128
 20
330.802891880413
 30
0.0
 11
465.1686744410126
 21
330.802891880413
 31
0.0
  0
LINE
  5
210
330
1F
100
AcDbEntity
  8
0
  6
Continuous
 62
     7
 48
2.0
100
AcDbLine
 10
464.2061744410128
 20
334.1278918804131
 30
0.0
 11
465.1686744410126
 21
334.1278918804131
 31
0.0
  0
CIRCLE
  5
211
330
1F
100
AcDbEntity
  8
0
100
AcDbCircle
 10
482.187428453739
 20
332.4654008931393
 30
0.0
 40
3.249997572006547
  0
CIRCLE
  5
212
330
1F
100
AcDbEntity
  8
0
100
AcDbCircle
 10
482.187430231951
 20
332.4653966713513
 30
0.0
 40
2.953122793794419
  0
LINE
  5
213
330
1F
100
AcDbEntity
  8
0
100
AcDbLine
 10
482.7999280257446
 20
335.6571603596941
 30
0.0
 11
482.7999280257446
 21
335.3543034651448
 31
0.0
  0
LINE
  5
214
330
1F
100
AcDbEntity
  8
0
100
AcDbLine
 10
481.5749280257447
 20
335.6571607932051
 30
0.0
 11
481.5749280257447
 21
335.3543034651448
 31
0.0
  0
LINE
  5
215
330
1F
100
AcDbEntity
  8
0
100
AcDbLine
 10
478.9956640159306
 20
331.852894465145
 30
0.0
 11
479.2985190257446
 21
331.852894465145
 31
0.0
  0
LINE
  5
216
330
1F
100
AcDbEntity
  8
0
100
AcDbLine
 10
478.9956626406115
 20
333.0778944651451
 30
0.0
 11
479.2985190257446
 21
333.0778944651451
 31
0.0
  0
LINE
  5
217
330
1F
100
AcDbEntity
  8
0
100
AcDbLine
 10
482.7999280257446
 20
329.2736362314121
 30
0.0
 11
482.7999280257446
 21
329.576486465145
 31
0.0
  0
LINE
  5
218
330
1F
100
AcDbEntity
  8
0
100
AcDbLine
 10
481.5749280257447
 20
329.2736353039281
 30
0.0
 11
481.5749280257447
 21
329.576486465145
 31
0.0
  0
LINE
  5
219
330
1F
100
AcDbEntity
  8
0
100
AcDbLine
 10
485.0763360257446
 20
331.852894465145
 30
0.0
 11
485.3791872024022
 21
331.852894465145
 31
0.0
  0
LINE
  5
21A
330
1F
100
AcDbEntity
  8
0
100
AcDbLine
 10
485.0763360257446
 20
333.0778944651451
 30
0.0
 11
485.3791890716895
 21
333.0778944651451
 31
0.0
  0
ARC
  5
21B
330
1F
100
AcDbEntity
  8
0
  6
DASHED
 62
     4
 48
2.0
100
AcDbCircle
 10
485.5651050158993
 20
404.2962492241545
 30
0.0
 40
0.4999996264625369
100
AcDbArc
 50
359.9999571957112
 51
90.00004280428878
  0
LINE
  5
21C
330
1F
100
AcDbEntity
  8
0
  6
DASHED
 62
     4
 48
2.0
100
AcDbLine
 10
482.1651046423617
 20
404.7962488506168
 30
0.0
 11
482.1651046423617
 21
403.8941169468312
 31
0.0
  0
LINE
  5
21D
330
1F
100
AcDbEntity
  8
0
  6
DASHED
 62
     4
 48
2.0
100
AcDbLine
 10
486.0651046423618
 20
400.8962488506169
 30
0.0
 11
486.0651046423618
 21
399.4962488506168
 31
0.0
  0
LINE
  5
21E
330
1F
100
AcDbEntity
  8
0
100
AcDbLine
 10
484.7667146423616
 20
399.4962488506168
 30
0.0
 11
485.1178312922748
 21
399.4962488506168
 31
0.0
  0
LINE
  5
21F
330
1F
100
AcDbEntity
  8
0
100
AcDbLine
 10
485.1251070606616
 20
400.8962488506169
 30
0.0
 11
484.7667146423616
 21
400.8962488506169
 31
0.0
  0
LINE
  5
220
330
1F
100
AcDbEntity
  8
0
  6
DASHED
 62
     4
 48
2.0
100
AcDbLine
 10
485.1251070606616
 20
400.8962488506169
 30
0.0
 11
486.0651046423618
 21
400.8962488506169
 31
0.0
  0
LINE
  5
221
330
1F
100
AcDbEntity
  8
0
  6
DASHED
 62
     4
 48
2.0
100
AcDbLine
 10
486.0651046423618
 20
399.4962488506168
 30
0.0
 11
485.1178312922748
 21
399.4962488506168
 31
0.0
  0
LINE
  5
222
330
1F
100
AcDbEntity
  8
0
100
AcDbLine
 10
482.1651046423617
 20
403.8941169468312
 30
0.0
 11
482.1651046423617
 21
403.4978587851551
 31
0.0
  0
LINE
  5
223
330
1F
100
AcDbEntity
  8
0
  6
DASHED
 62
     4
 48
2.0
100
AcDbLine
 10
480.7651046423616
 20
403.9046334372592
 30
0.0
 11
480.7651046423616
 21
404.7962488506168
 31
0.0
  0
ARC
  5
224
330
1F
100
AcDbEntity
  8
0
  6
DASHED
 62
     4
 48
2.0
100
AcDbCircle
 10
477.3651042688241
 20
404.2962492241545
 30
0.0
 40
0.4999996264625369
100
AcDbArc
 50
89.99995719571119
 51
180.0000428042888
  0
LINE
  5
225
330
1F
100
AcDbEntity
  8
0
  6
Continuous
 62
     7
 48
2.0
100
AcDbLine
 10
478.0901046423617
 20
400.7462488506169
 30
0.0
 11
480.9151046423616
 21
400.7462488506169
 31
0.0
  0
LINE
  5
226
330
1F
100
AcDbEntity
  8
0
  6
Continuous
 62
     7
 48
2.0
100
AcDbLine
 10
478.0901046423617
 20
399.6462488506168
 30
0.0
 11
480.9151046423616
 21
399.6462488506168
 31
0.0
  0
LINE
  5
227
330
1F
100
AcDbEntity
  8
0
  6
Continuous
 62
     7
 48
2.0
100
AcDbLine
 10
482.0151046423616
 20
400.7462488506169
 30
0.0
 11
482.0151046423616
 21
402.0962488506169
 31
0.0
  0
LINE
  5
228
330
1F
100
AcDbEntity
  8
0
  6
Continuous
 62
     7
 48
2.0
100
AcDbLine
 10
480.9151046423616
 20
400.7462488506169
 30
0.0
 11
480.9151046423616
 21
402.0962488506169
 31
0.0
  0
LINE
  5
229
330
1F
100
AcDbEntity
  8
0
  6
Continuous
 62
     7
 48
2.0
100
AcDbLine
 10
482.0151046423616
 20
398.2962488506166
 30
0.0
 11
482.0151046423616
 21
399.6462488506168
 31
0.0
  0
LINE
  5
22A
330
1F
100
AcDbEntity
  8
0
  6
Continuous
 62
     7
 48
2.0
100
AcDbLine
 10
480.9151046423616
 20
398.2962488506166
 30
0.0
 11
480.9151046423616
 21
399.6462488506168
 31
0.0
  0
LINE
  5
22B
330
1F
100
AcDbEntity
  8
0
  6
Continuous
 62
     7
 48
2.0
100
AcDbLine
 10
480.9151046423616
 20
398.2962488506166
 30
0.0
 11
482.0151046423616
 21
398.2962488506166
 31
0.0
  0
LINE
  5
22C
330
1F
100
AcDbEntity
  8
0
  6
Continuous
 62
     7
 48
2.0
100
AcDbLine
 10
480.9151046423616
 20
402.0962488506169
 30
0.0
 11
482.0151046423616
 21
402.0962488506169
 31
0.0
  0
LINE
  5
22D
330
1F
100
AcDbEntity
  8
0
  6
DASHED
 62
     4
 48
2.0
100
AcDbLine
 10
476.8651046423618
 20
399.4962488506168
 30
0.0
 11
476.8651046423618
 21
400.8962488506169
 31
0.0
  0
LINE
  5
22E
330
1F
100
AcDbEntity
  8
0
  6
DASHED
 62
     4
 48
2.0
100
AcDbLine
 10
476.8651046423618
 20
400.8962488506169
 30
0.0
 11
477.7497580474652
 21
400.8962488506169
 31
0.0
  0
LINE
  5
22F
330
1F
100
AcDbEntity
  8
0
  6
DASHED
 62
     4
 48
2.0
100
AcDbLine
 10
477.7570343663706
 20
399.4962488506168
 30
0.0
 11
476.8651046423618
 21
399.4962488506168
 31
0.0
  0
LINE
  5
230
330
1F
100
AcDbEntity
  8
0
100
AcDbLine
 10
477.7497580474652
 20
400.8962488506169
 30
0.0
 11
478.1634956423617
 21
400.8962488506169
 31
0.0
  0
LINE
  5
231
330
1F
100
AcDbEntity
  8
0
100
AcDbLine
 10
477.7570343663706
 20
399.4962488506168
 30
0.0
 11
478.1634956423617
 21
399.4962488506168
 31
0.0
  0
LINE
  5
232
330
1F
100
AcDbEntity
  8
0
100
AcDbLine
 10
480.7651046423616
 20
403.9046334372592
 30
0.0
 11
480.7651046423616
 21
403.4978578506168
 31
0.0
  0
LINE
  5
233
330
1F
100
AcDbEntity
  8
0
  6
DASHED
 62
     4
 48
2.0
100
AcDbLine
 10
477.3651046423617
 20
404.7962488506168
 30
0.0
 11
485.5651046423616
 21
404.7962488506168
 31
0.0
  0
LINE
  5
234
330
1F
100
AcDbEntity
  8
0
  6
DASHED
 62
     4
 48
2.0
100
AcDbLine
 10
480.7651046423616
 20
404.7962488506168
 30
0.0
 11
482.1651046423617
 21
404.7962488506168
 31
0.0
  0
LINE
  5
235
330
1F
100
AcDbEntity
  8
0
  6
Continuous
 62
     7
 48
2.0
100
AcDbLine
 10
482.0151046423616
 20
400.7462488506169
 30
0.0
 11
484.8401046423616
 21
400.7462488506169
 31
0.0
  0
LINE
  5
236
330
1F
100
AcDbEntity
  8
0
  6
Continuous
 62
     7
 48
2.0
100
AcDbLine
 10
482.0151046423616
 20
399.6462488506168
 30
0.0
 11
484.8401046423616
 21
399.6462488506168
 31
0.0
  0
ARC
  5
237
330
1F
100
AcDbEntity
  8
0
  6
DASHED
 62
     4
 48
2.0
100
AcDbCircle
 10
485.5651050158993
 20
396.0962484770793
 30
0.0
 40
0.4999996264625369
100
AcDbArc
 50
269.9999571957111
 51
0.0000428042855519
  0
LINE
  5
238
330
1F
100
AcDbEntity
  8
0
100
AcDbLine
 10
482.1651046423617
 20
396.8946388506168
 30
0.0
 11
482.1651046423617
 21
396.5366724618177
 31
0.0
  0
LINE
  5
239
330
1F
100
AcDbEntity
  8
0
  6
DASHED
 62
     4
 48
2.0
100
AcDbLine
 10
482.1651046423617
 20
396.5366724618177
 30
0.0
 11
482.1651046423617
 21
395.5962488506168
 31
0.0
  0
LINE
  5
23A
330
1F
100
AcDbEntity
  8
0
100
AcDbLine
 10
480.7651046423616
 20
396.5261565154808
 30
0.0
 11
480.7651046423616
 21
396.8946388506168
 31
0.0
  0
LINE
  5
23B
330
1F
100
AcDbEntity
  8
0
  6
DASHED
 62
     4
 48
2.0
100
AcDbLine
 10
480.7651046423616
 20
395.5962488506168
 30
0.0
 11
480.7651046423616
 21
396.5261565154808
 31
0.0
  0
ARC
  5
23C
330
1F
100
AcDbEntity
  8
0
  6
DASHED
 62
     4
 48
2.0
100
AcDbCircle
 10
477.3651042688241
 20
396.0962484770793
 30
0.0
 40
0.4999996264625655
100
AcDbArc
 50
179.9999571957144
 51
270.0000428042887
  0
LINE
  5
23D
330
1F
100
AcDbEntity
  8
0
  6
DASHED
 62
     4
 48
2.0
100
AcDbLine
 10
485.5651046423616
 20
395.5962488506168
 30
0.0
 11
477.3651046423617
 21
395.5962488506168
 31
0.0
  0
LINE
  5
23E
330
1F
100
AcDbEntity
  8
0
  6
DASHED
 62
     4
 48
2.0
100
AcDbLine
 10
482.1651046423617
 20
395.5962488506168
 30
0.0
 11
480.7651046423616
 21
395.5962488506168
 31
0.0
  0
LINE
  5
23F
330
1F
100
AcDbEntity
  8
0
  6
DASHED
 62
     4
 48
2.0
100
AcDbLine
 10
476.8651046423618
 20
396.0962488506169
 30
0.0
 11
476.8651046423618
 21
404.2962488506169
 31
0.0
  0
LINE
  5
240
330
1F
100
AcDbEntity
  8
0
  6
DASHED
 62
     4
 48
2.0
100
AcDbLine
 10
486.0651046423618
 20
404.2962488506169
 30
0.0
 11
486.0651046423618
 21
396.0962488506169
 31
0.0
  0
CIRCLE
  5
241
330
1F
100
AcDbEntity
  8
0
100
AcDbCircle
 10
481.4374295471234
 20
400.2153979865236
 30
0.0
 40
3.749997198469111
  0
CIRCLE
  5
242
330
1F
100
AcDbEntity
  8
0
100
AcDbCircle
 10
481.4651042097612
 20
400.1962484180161
 30
0.0
 40
3.375000432600613
  0
CIRCLE
  5
243
330
1F
100
AcDbEntity
  8
0
100
AcDbCircle
 10
465.4374265931441
 20
400.2153950325441
 30
0.0
 40
3.375000432600613
  0
CIRCLE
  5
244
330
1F
100
AcDbEntity
  8
0
100
AcDbCircle
 10
465.4097519305063
 20
400.2345446010517
 30
0.0
 40
3.749997198469111
  0
LINE
  5
245
330
1F
100
AcDbEntity
  8
0
100
AcDbLine
 10
461.7293567497535
 20
399.5153954651448
 30
0.0
 11
462.1358180257446
 21
399.5153954651448
 31
0.0
  0
LINE
  5
246
330
1F
100
AcDbEntity
  8
0
100
AcDbLine
 10
461.7220804308481
 20
400.915395465145
 30
0.0
 11
462.1358180257446
 21
400.915395465145
 31
0.0
  0
LINE
  5
247
330
1F
100
AcDbEntity
  8
0
100
AcDbLine
 10
466.1374270257446
 20
403.9132635613592
 30
0.0
 11
466.1374270257446
 21
403.5170053996831
 31
0.0
  0
LINE
  5
248
330
1F
100
AcDbEntity
  8
0
100
AcDbLine
 10
464.7374270257446
 20
403.9237800517873
 30
0.0
 11
464.7374270257446
 21
403.5170044651447
 31
0.0
  0
LINE
  5
249
330
1F
100
AcDbEntity
  8
0
100
AcDbLine
 10
469.0974294440446
 20
400.915395465145
 30
0.0
 11
468.7390370257445
 21
400.915395465145
 31
0.0
  0
LINE
  5
24A
330
1F
100
AcDbEntity
  8
0
100
AcDbLine
 10
468.7390370257445
 20
399.5153954651448
 30
0.0
 11
469.0901536756576
 21
399.5153954651448
 31
0.0
  0
LINE
  5
24B
330
1F
100
AcDbEntity
  8
0
100
AcDbLine
 10
466.1374270257446
 20
396.9137854651446
 30
0.0
 11
466.1374270257446
 21
396.5558190763458
 31
0.0
  0
LINE
  5
24C
330
1F
100
AcDbEntity
  8
0
100
AcDbLine
 10
464.7374270257446
 20
396.5453031300086
 30
0.0
 11
464.7374270257446
 21
396.9137854651446
 31
0.0
  0
LINE
  5
24D
330
1F
100
AcDbEntity
  8
0
  6
Continuous
 62
     7
100
AcDbLine
 10
467.9374260257445
 20
332.4653984651451
 30
0.0
 11
467.9374260257445
 21
332.4653984651451
 31
0.0
  0
ARC
  5
24E
330
1F
100
AcDbEntity
  8
0
  6
DASHED
 62
     4
 48
2.0
100
AcDbCircle
 10
485.7749283525901
 20
336.0528947919903
 30
0.0
 40
0.4374996731547269
100
AcDbArc
 50
359.9999571957112
 51
90.00004280428553
  0
LINE
  5
24F
330
1F
100
AcDbEntity
  8
0
  6
DASHED
 62
     4
 48
2.0
100
AcDbLine
 10
486.2124280257447
 20
333.0778944651451
 30
0.0
 11
486.2124280257447
 21
331.852894465145
 31
0.0
  0
LINE
  5
250
330
1F
100
AcDbEntity
  8
0
  6
DASHED
 62
     4
 48
2.0
100
AcDbLine
 10
481.5749280257447
 20
335.6571607932051
 30
0.0
 11
481.5749280257447
 21
336.490394465145
 31
0.0
  0
LINE
  5
251
330
1F
100
AcDbEntity
  8
0
  6
DASHED
 62
     4
 48
2.0
100
AcDbLine
 10
481.5749280257447
 20
336.490394465145
 30
0.0
 11
482.7999280257446
 21
336.490394465145
 31
0.0
  0
LINE
  5
252
330
1F
100
AcDbEntity
  8
0
  6
DASHED
 62
     4
 48
2.0
100
AcDbLine
 10
482.7999280257446
 20
336.490394465145
 30
0.0
 11
482.7999280257446
 21
335.6571603596941
 31
0.0
  0
LINE
  5
253
330
1F
100
AcDbEntity
  8
0
  6
Continuous
 62
     7
 48
2.0
100
AcDbLine
 10
481.7061780257446
 20
334.1278944651451
 30
0.0
 11
482.6686780257447
 21
334.1278944651451
 31
0.0
  0
LINE
  5
254
330
1F
100
AcDbEntity
  8
0
  6
Continuous
 62
     7
 48
2.0
100
AcDbLine
 10
481.7061780257446
 20
332.946644465145
 30
0.0
 11
481.7061780257446
 21
334.1278944651451
 31
0.0
  0
LINE
  5
255
330
1F
100
AcDbEntity
  8
0
  6
Continuous
 62
     7
 48
2.0
100
AcDbLine
 10
482.6686780257447
 20
332.946644465145
 30
0.0
 11
482.6686780257447
 21
334.1278944651451
 31
0.0
  0
ARC
  5
256
330
1F
100
AcDbEntity
  8
0
  6
Continuous
 62
     7
100
AcDbCircle
 10
482.187428453739
 20
332.4654008931393
 30
0.0
 40
3.249997572006547
100
AcDbArc
 50
359.9999571957143
 51
90.00004280428553
  0
LINE
  5
257
330
1F
100
AcDbEntity
  8
0
  6
DASHED
 62
     4
 48
2.0
100
AcDbLine
 10
485.3791890716895
 20
333.0778944651451
 30
0.0
 11
486.2124280257447
 21
333.0778944651451
 31
0.0
  0
LINE
  5
258
330
1F
100
AcDbEntity
  8
0
  6
DASHED
 62
     4
 48
2.0
100
AcDbLine
 10
486.2124280257447
 20
331.852894465145
 30
0.0
 11
485.3791872024022
 21
331.852894465145
 31
0.0
  0
LINE
  5
259
330
1F
100
AcDbEntity
  8
0
  6
Continuous
 62
     7
 48
2.0
100
AcDbLine
 10
482.6686780257447
 20
331.984144465145
 30
0.0
 11
485.1405530257446
 21
331.984144465145
 31
0.0
  0
LINE
  5
25A
330
1F
100
AcDbEntity
  8
0
  6
Continuous
 62
     7
 48
2.0
100
AcDbLine
 10
482.6686780257447
 20
332.946644465145
 30
0.0
 11
485.1405530257446
 21
332.946644465145
 31
0.0
  0
ARC
  5
25B
330
1F
100
AcDbEntity
  8
0
  6
DASHED
 62
     4
 48
2.0
100
AcDbCircle
 10
485.7749283525901
 20
328.8778941382996
 30
0.0
 40
0.4374996731547269
100
AcDbArc
 50
269.9999571957111
 51
0.0000428042888088
  0
LINE
  5
25C
330
1F
100
AcDbEntity
  8
0
  6
DASHED
 62
     4
 48
2.0
100
AcDbLine
 10
482.7999280257446
 20
329.2736362314121
 30
0.0
 11
482.7999280257446
 21
328.4403944651451
 31
0.0
  0
LINE
  5
25D
330
1F
100
AcDbEntity
  8
0
  6
DASHED
 62
     4
 48
2.0
100
AcDbLine
 10
482.7999280257446
 20
328.4403944651451
 30
0.0
 11
481.5749280257447
 21
328.4403944651451
 31
0.0
  0
LINE
  5
25E
330
1F
100
AcDbEntity
  8
0
  6
DASHED
 62
     4
 48
2.0
100
AcDbLine
 10
481.5749280257447
 20
328.4403944651451
 30
0.0
 11
481.5749280257447
 21
329.2736353039281
 31
0.0
  0
LINE
  5
25F
330
1F
100
AcDbEntity
  8
0
  6
Continuous
 62
     7
 48
2.0
100
AcDbLine
 10
481.7061780257446
 20
330.802894465145
 30
0.0
 11
482.6686780257447
 21
330.802894465145
 31
0.0
  0
LINE
  5
260
330
1F
100
AcDbEntity
  8
0
  6
DASHED
 62
     4
 48
2.0
100
AcDbLine
 10
486.2124280257447
 20
336.0528944651451
 30
0.0
 11
486.2124280257447
 21
328.8778944651451
 31
0.0
  0
LINE
  5
261
330
1F
100
AcDbEntity
  8
0
  6
Continuous
 62
     7
 48
2.0
100
AcDbLine
 10
481.7061780257446
 20
330.802894465145
 30
0.0
 11
481.7061780257446
 21
331.984144465145
 31
0.0
  0
LINE
  5
262
330
1F
100
AcDbEntity
  8
0
  6
Continuous
 62
     7
 48
2.0
100
AcDbLine
 10
482.6686780257447
 20
330.802894465145
 30
0.0
 11
482.6686780257447
 21
331.984144465145
 31
0.0
  0
ARC
  5
263
330
1F
100
AcDbEntity
  8
0
  6
DASHED
 62
     4
 48
2.0
100
AcDbCircle
 10
478.5999276988991
 20
336.0528947919903
 30
0.0
 40
0.4374996731547269
100
AcDbArc
 50
89.99995719571119
 51
180.0000428042855
  0
LINE
  5
264
330
1F
100
AcDbEntity
  8
0
  6
DASHED
 62
     4
 48
2.0
100
AcDbLine
 10
478.9956640159306
 20
331.852894465145
 30
0.0
 11
478.1624280257447
 21
331.852894465145
 31
0.0
  0
LINE
  5
265
330
1F
100
AcDbEntity
  8
0
  6
DASHED
 62
     4
 48
2.0
100
AcDbLine
 10
478.1624280257447
 20
331.852894465145
 30
0.0
 11
478.1624280257447
 21
333.0778944651451
 31
0.0
  0
LINE
  5
266
330
1F
100
AcDbEntity
  8
0
  6
DASHED
 62
     4
 48
2.0
100
AcDbLine
 10
478.1624280257447
 20
333.0778944651451
 30
0.0
 11
478.9956626406115
 21
333.0778944651451
 31
0.0
  0
ARC
  5
267
330
1F
100
AcDbEntity
  8
0
  6
DASHED
 62
     4
 48
2.0
100
AcDbCircle
 10
478.5999276988991
 20
328.8778941382996
 30
0.0
 40
0.4374996731547269
100
AcDbArc
 50
179.9999571957112
 51
270.0000428042855
  0
LINE
  5
268
330
1F
100
AcDbEntity
  8
0
  6
DASHED
 62
     4
 48
2.0
100
AcDbLine
 10
478.1624280257447
 20
328.8778944651451
 30
0.0
 11
478.1624280257447
 21
336.0528944651451
 31
0.0
  0
LINE
  5
269
330
1F
100
AcDbEntity
  8
0
  6
DASHED
 62
     4
 48
2.0
100
AcDbLine
 10
478.5999280257446
 20
336.490394465145
 30
0.0
 11
485.7749280257447
 21
336.490394465145
 31
0.0
  0
LINE
  5
26A
330
1F
100
AcDbEntity
  8
0
  6
DASHED
 62
     4
 48
2.0
100
AcDbLine
 10
485.7749280257447
 20
328.4403944651451
 30
0.0
 11
478.5999280257446
 21
328.4403944651451
 31
0.0
  0
LINE
  5
26B
330
1F
100
AcDbEntity
  8
0
  6
Continuous
 62
     7
 48
2.0
100
AcDbLine
 10
479.2343030257447
 20
331.984144465145
 30
0.0
 11
481.7061780257446
 21
331.984144465145
 31
0.0
  0
LINE
  5
26C
330
1F
100
AcDbEntity
  8
0
  6
Continuous
 62
     7
 48
2.0
100
AcDbLine
 10
479.2343030257447
 20
332.946644465145
 30
0.0
 11
481.7061780257446
 21
332.946644465145
 31
0.0
  0
ARC
  5
26D
330
1F
100
AcDbEntity
  8
0
  6
DASHED
 62
     4
 48
2.0
100
AcDbCircle
 10
469.5374273992823
 20
404.3153958386823
 30
0.0
 40
0.4999996264625369
100
AcDbArc
 50
359.9999571957112
 51
90.00004280428878
  0
LINE
  5
26E
330
1F
100
AcDbEntity
  8
0
  6
DASHED
 62
     4
 48
2.0
100
AcDbLine
 10
464.7374270257446
 20
403.9237800517873
 30
0.0
 11
464.7374270257446
 21
404.8153954651446
 31
0.0
  0
LINE
  5
26F
330
1F
100
AcDbEntity
  8
0
  6
DASHED
 62
     4
 48
2.0
100
AcDbLine
 10
464.7374270257446
 20
404.8153954651446
 30
0.0
 11
466.1374270257446
 21
404.8153954651446
 31
0.0
  0
LINE
  5
270
330
1F
100
AcDbEntity
  8
0
  6
DASHED
 62
     4
 48
2.0
100
AcDbLine
 10
466.1374270257446
 20
404.8153954651446
 30
0.0
 11
466.1374270257446
 21
403.9132635613592
 31
0.0
  0
LINE
  5
271
330
1F
100
AcDbEntity
  8
0
  6
Continuous
 62
     7
 48
2.0
100
AcDbLine
 10
464.8874270257445
 20
402.1153954651451
 30
0.0
 11
465.9874270257445
 21
402.1153954651451
 31
0.0
  0
ARC
  5
272
330
1F
100
AcDbEntity
  8
0
  6
DASHED
 62
     4
 48
2.0
100
AcDbCircle
 10
469.5374273992823
 20
396.1153950916075
 30
0.0
 40
0.4999996264625369
100
AcDbArc
 50
269.9999571957111
 51
0.0000428042855519
  0
LINE
  5
273
330
1F
100
AcDbEntity
  8
0
  6
DASHED
 62
     4
 48
2.0
100
AcDbLine
 10
469.0974294440446
 20
400.915395465145
 30
0.0
 11
470.0374270257447
 21
400.915395465145
 31
0.0
  0
LINE
  5
274
330
1F
100
AcDbEntity
  8
0
  6
DASHED
 62
     4
 48
2.0
100
AcDbLine
 10
470.0374270257447
 20
400.915395465145
 30
0.0
 11
470.0374270257447
 21
399.5153954651448
 31
0.0
  0
LINE
  5
275
330
1F
100
AcDbEntity
  8
0
  6
DASHED
 62
     4
 48
2.0
100
AcDbLine
 10
470.0374270257447
 20
399.5153954651448
 30
0.0
 11
469.0901536756576
 21
399.5153954651448
 31
0.0
  0
LINE
  5
276
330
1F
100
AcDbEntity
  8
0
  6
DASHED
 62
     4
 48
2.0
100
AcDbLine
 10
466.1374270257446
 20
396.5558190763458
 30
0.0
 11
466.1374270257446
 21
395.6153954651448
 31
0.0
  0
LINE
  5
277
330
1F
100
AcDbEntity
  8
0
  6
DASHED
 62
     4
 48
2.0
100
AcDbLine
 10
466.1374270257446
 20
395.6153954651448
 30
0.0
 11
464.7374270257446
 21
395.6153954651448
 31
0.0
  0
LINE
  5
278
330
1F
100
AcDbEntity
  8
0
  6
DASHED
 62
     4
 48
2.0
100
AcDbLine
 10
464.7374270257446
 20
395.6153954651448
 30
0.0
 11
464.7374270257446
 21
396.5453031300086
 31
0.0
  0
LINE
  5
279
330
1F
100
AcDbEntity
  8
0
  6
Continuous
 62
     7
 48
2.0
100
AcDbLine
 10
464.8874270257445
 20
398.3153954651446
 30
0.0
 11
465.9874270257445
 21
398.3153954651446
 31
0.0
  0
LINE
  5
27A
330
1F
100
AcDbEntity
  8
0
  6
Continuous
 62
     7
 48
2.0
100
AcDbLine
 10
464.8874270257445
 20
398.3153954651446
 30
0.0
 11
464.8874270257445
 21
399.6653954651446
 31
0.0
  0
LINE
  5
27B
330
1F
100
AcDbEntity
  8
0
  6
Continuous
 62
     7
 48
2.0
100
AcDbLine
 10
465.9874270257445
 20
398.3153954651446
 30
0.0
 11
465.9874270257445
 21
399.6653954651446
 31
0.0
  0
LINE
  5
27C
330
1F
100
AcDbEntity
  8
0
  6
Continuous
 62
     7
 48
2.0
100
AcDbLine
 10
465.9874270257445
 20
399.6653954651446
 30
0.0
 11
468.8124270257445
 21
399.6653954651446
 31
0.0
  0
LINE
  5
27D
330
1F
100
AcDbEntity
  8
0
  6
Continuous
 62
     7
 48
2.0
100
AcDbLine
 10
465.9874270257445
 20
400.765395465145
 30
0.0
 11
468.8124270257445
 21
400.765395465145
 31
0.0
  0
LINE
  5
27E
330
1F
100
AcDbEntity
  8
0
  6
Continuous
 62
     7
 48
2.0
100
AcDbLine
 10
464.8874270257445
 20
400.765395465145
 30
0.0
 11
464.8874270257445
 21
402.1153954651451
 31
0.0
  0
LINE
  5
27F
330
1F
100
AcDbEntity
  8
0
  6
Continuous
 62
     7
 48
2.0
100
AcDbLine
 10
465.9874270257445
 20
400.765395465145
 30
0.0
 11
465.9874270257445
 21
402.1153954651451
 31
0.0
  0
LINE
  5
280
330
1F
100
AcDbEntity
  8
0
  6
DASHED
 62
     4
 48
2.0
100
AcDbLine
 10
470.0374270257447
 20
404.3153954651447
 30
0.0
 11
470.0374270257447
 21
396.115395465145
 31
0.0
  0
ARC
  5
281
330
1F
100
AcDbEntity
  8
0
  6
DASHED
 62
     4
 48
2.0
100
AcDbCircle
 10
461.3374266522071
 20
404.3153958386823
 30
0.0
 40
0.4999996264625369
100
AcDbArc
 50
89.99995719571119
 51
180.0000428042888
  0
LINE
  5
282
330
1F
100
AcDbEntity
  8
0
  6
DASHED
 62
     4
 48
2.0
100
AcDbLine
 10
460.8374270257447
 20
400.915395465145
 30
0.0
 11
461.7220804308481
 21
400.915395465145
 31
0.0
  0
ARC
  5
283
330
1F
100
AcDbEntity
  8
0
  6
DASHED
 62
     4
 48
2.0
100
AcDbCircle
 10
461.3374266522071
 20
396.1153950916075
 30
0.0
 40
0.4999996264625655
100
AcDbArc
 50
179.9999571957144
 51
270.0000428042887
  0
LINE
  5
284
330
1F
100
AcDbEntity
  8
0
  6
DASHED
 62
     4
 48
2.0
100
AcDbLine
 10
461.7293567497535
 20
399.5153954651448
 30
0.0
 11
460.8374270257447
 21
399.5153954651448
 31
0.0
  0
LINE
  5
285
330
1F
100
AcDbEntity
  8
0
  6
DASHED
 62
     4
 48
2.0
100
AcDbLine
 10
460.8374270257447
 20
399.5153954651448
 30
0.0
 11
460.8374270257447
 21
400.915395465145
 31
0.0
  0
LINE
  5
286
330
1F
100
AcDbEntity
  8
0
  6
DASHED
 62
     4
 48
2.0
100
AcDbLine
 10
460.8374270257447
 20
396.115395465145
 30
0.0
 11
460.8374270257447
 21
404.3153954651447
 31
0.0
  0
LINE
  5
287
330
1F
100
AcDbEntity
  8
0
  6
Continuous
 62
     7
 48
2.0
100
AcDbLine
 10
462.0624270257446
 20
399.6653954651446
 30
0.0
 11
464.8874270257445
 21
399.6653954651446
 31
0.0
  0
LINE
  5
288
330
1F
100
AcDbEntity
  8
0
  6
Continuous
 62
     7
 48
2.0
100
AcDbLine
 10
462.0624270257446
 20
400.765395465145
 30
0.0
 11
464.8874270257445
 21
400.765395465145
 31
0.0
  0
LINE
  5
289
330
1F
100
AcDbEntity
  8
0
  6
DASHED
 62
     4
 48
2.0
100
AcDbLine
 10
461.3374270257446
 20
404.8153954651446
 30
0.0
 11
469.5374270257446
 21
404.8153954651446
 31
0.0
  0
LINE
  5
28A
330
1F
100
AcDbEntity
  8
0
  6
DASHED
 62
     4
 48
2.0
100
AcDbLine
 10
469.5374270257446
 20
395.6153954651448
 30
0.0
 11
461.3374270257446
 21
395.6153954651448
 31
0.0
  0
ARC
  5
28B
330
1F
100
AcDbEntity
  8
0
  6
DASHED
 62
     4
100
AcDbCircle
 10
473.4374255014239
 20
343.9653949408243
 30
0.0
 40
2.25
100
AcDbArc
 50
0.0
 51
180.0
  0
ARC
  5
28C
330
1F
100
AcDbEntity
  8
0
  6
DASHED
 62
     4
100
AcDbCircle
 10
473.4374255014239
 20
340.9653949408243
 30
0.0
 40
2.25
100
AcDbArc
 50
180.0
 51
0.0
  0
LINE
  5
28D
330
1F
100
AcDbEntity
  8
0
  6
DASHED
 62
     4
100
AcDbLine
 10
471.1874255014241
 20
343.9653949408243
 30
0.0
 11
471.1874255014241
 21
340.9653949408243
 31
0.0
  0
LINE
  5
28E
330
1F
100
AcDbEntity
  8
0
  6
DASHED
 62
     4
100
AcDbLine
 10
475.6874255014241
 20
343.9653949408243
 30
0.0
 11
475.6874255014241
 21
340.9653949408243
 31
0.0
  0
CIRCLE
  5
28F
330
1F
100
AcDbEntity
  8
0
  6
DASHED
 62
     4
100
AcDbCircle
 10
473.4374272130237
 20
390.465394652424
 30
0.0
 40
2.250000288400419
  0
ARC
  5
290
330
1F
100
AcDbEntity
  8
0
  6
Continuous
 62
     7
100
AcDbCircle
 10
486.0368673518856
 20
345.2037893908228
 30
0.0
 40
0.4999999439198798
100
AcDbArc
 50
269.9472726676793
 51
359.9682888208501
  0
ARC
  5
291
330
1F
100
AcDbEntity
  8
0
  6
Continuous
 62
     7
100
AcDbCircle
 10
486.0333668453436
 20
345.2037922854311
 30
0.0
 40
0.499999838062348
100
AcDbArc
 50
179.9472450934306
 51
269.9473307020054
  0
LINE
  5
292
330
1F
100
AcDbEntity
  8
0
  6
Continuous
 62
     7
100
AcDbLine
 10
486.5421182192248
 20
354.7081526586251
 30
0.0
 11
486.5368672192247
 21
345.203512658625
 31
0.0
  0
LINE
  5
293
330
1F
100
AcDbEntity
  8
0
  6
Continuous
 62
     7
100
AcDbLine
 10
485.5351702192248
 20
345.1613756586251
 30
0.0
 11
485.5393532192247
 21
349.704248658625
 31
0.0
  0
ARC
  5
294
330
1F
100
AcDbEntity
  8
0
  6
Continuous
 62
     7
100
AcDbCircle
 10
460.8374245357714
 20
345.2107509414321
 30
0.0
 40
0.500000316546613
100
AcDbArc
 50
180.0000324072764
 51
270.0210485604484
  0
ARC
  5
295
330
1F
100
AcDbEntity
  8
0
  6
Continuous
 62
     7
100
AcDbCircle
 10
460.8409245928998
 20
345.2107512852248
 30
0.0
 40
0.4999996603185175
100
AcDbArc
 50
270.0210420416206
 51
0.0211276501975281
  0
ARC
  5
296
330
1F
100
AcDbEntity
  8
0
  6
Continuous
 62
     7
100
AcDbCircle
 10
486.0374239026783
 20
388.220032375818
 30
0.0
 40
0.5000003165466131
100
AcDbArc
 50
0.0000324072764128
 51
90.02104856044848
  0
ARC
  5
297
330
1F
100
AcDbEntity
  8
0
  6
Continuous
 62
     7
100
AcDbCircle
 10
486.0339238455496
 20
388.2200320320251
 30
0.0
 40
0.4999996603185391
100
AcDbArc
 50
90.02104204162387
 51
180.0211276501974
  0
LINE
  5
298
330
1F
100
AcDbEntity
  8
0
  6
Continuous
 62
     7
100
AcDbLine
 10
486.5374242192247
 20
378.715391658625
 30
0.0
 11
486.5374242192247
 21
388.2200326586248
 31
0.0
  0
LINE
  5
299
330
1F
100
AcDbEntity
  8
0
  6
Continuous
 62
     7
100
AcDbLine
 10
485.5357662192248
 20
388.2198476586251
 30
0.0
 11
485.5374232192247
 21
383.7198486586251
 31
0.0
  0
ARC
  5
29A
330
1F
100
AcDbEntity
  8
0
  6
Continuous
 62
     7
100
AcDbCircle
 10
460.8374245357714
 20
388.220032375818
 30
0.0
 40
0.5000003165466131
100
AcDbArc
 50
89.97895143955153
 51
179.9999675927234
  0
ARC
  5
29B
330
1F
100
AcDbEntity
  8
0
  6
Continuous
 62
     7
100
AcDbCircle
 10
460.8409245928998
 20
388.2200320320251
 30
0.0
 40
0.4999996603185249
100
AcDbArc
 50
359.9788723498023
 51
89.97895795837612
  0
LINE
  5
29C
330
1F
100
AcDbEntity
  8
0
  6
Continuous
 62
     7
100
AcDbLine
 10
460.3374242192248
 20
354.7153916586251
 30
0.0
 11
460.3374242192248
 21
345.210750658625
 31
0.0
  0
LINE
  5
29D
330
1F
100
AcDbEntity
  8
0
  6
Continuous
 62
     7
100
AcDbLine
 10
461.3390982192249
 20
345.1680606586251
 30
0.0
 11
461.3374252192247
 21
349.710934658625
 31
0.0
  0
LINE
  5
29E
330
1F
100
AcDbEntity
  8
0
  6
Continuous
 62
     7
100
AcDbLine
 10
460.3374242192248
 20
378.715391658625
 30
0.0
 11
460.3374242192248
 21
388.2200326586248
 31
0.0
  0
LINE
  5
29F
330
1F
100
AcDbEntity
  8
0
  6
Continuous
 62
     7
100
AcDbLine
 10
461.3390822192248
 20
388.2198476586251
 30
0.0
 11
461.3374252192247
 21
383.7198486586251
 31
0.0
  0
LINE
  5
2A0
330
1F
100
AcDbEntity
  8
0
  6
Continuous
 62
     7
100
AcDbLine
 10
467.9374242192247
 20
332.465391658625
 30
0.0
 11
467.9374242192247
 21
332.465391658625
 31
0.0
  0
LINE
  5
2A1
330
1F
100
AcDbEntity
  8
0
  6
Continuous
 62
     7
100
AcDbLine
 10
461.3379762192248
 20
348.2153916586251
 30
0.0
 11
485.5379782192247
 21
348.2153916586251
 31
0.0
  0
LINE
  5
2A2
330
1F
100
AcDbEntity
  8
0
  6
Continuous
 62
     7
100
AcDbLine
 10
487.4374242192248
 20
326.9833406586251
 30
0.0
 11
487.4374242192248
 21
354.7153916586251
 31
0.0
  0
LINE
  5
2A3
330
1F
100
AcDbEntity
  8
0
  6
Continuous
 62
     7
100
AcDbLine
 10
459.4374242192247
 20
354.7153916586251
 30
0.0
 11
459.4374242192247
 21
326.9833406586251
 31
0.0
  0
LINE
  5
2A4
330
1F
100
AcDbEntity
  8
0
  6
Continuous
 62
     7
100
AcDbLine
 10
485.5374232192247
 20
349.715391658625
 30
0.0
 11
461.3374252192247
 21
349.715391658625
 31
0.0
  0
LINE
  5
2A5
330
1F
100
AcDbEntity
  8
0
  6
Continuous
 62
     7
100
AcDbLine
 10
460.3374242192248
 20
354.7153916586251
 30
0.0
 11
458.4374242192247
 21
354.7153916586251
 31
0.0
  0
LINE
  5
2A6
330
1F
100
AcDbEntity
  8
0
  6
Continuous
 62
     7
100
AcDbLine
 10
488.4374242192247
 20
354.7153916586251
 30
0.0
 11
486.5374242192247
 21
354.7153916586251
 31
0.0
  0
LINE
  5
2A7
330
1F
100
AcDbEntity
  8
0
  6
Continuous
 62
     7
100
AcDbLine
 10
458.4374242192247
 20
354.7153916586251
 30
0.0
 11
458.4374242192247
 21
328.715391658625
 31
0.0
  0
ARC
  5
2A8
330
1F
100
AcDbEntity
  8
0
  6
Continuous
 62
     7
100
AcDbCircle
 10
460.4374227250744
 20
328.7153901644746
 30
0.0
 40
1.999998505850186
100
AcDbArc
 50
179.9999571957112
 51
270.0000428042855
  0
LINE
  5
2A9
330
1F
100
AcDbEntity
  8
0
  6
Continuous
 62
     7
100
AcDbLine
 10
460.4374242192248
 20
326.7153916586249
 30
0.0
 11
486.4374242192248
 21
326.7153916586249
 31
0.0
  0
ARC
  5
2AA
330
1F
100
AcDbEntity
  8
0
  6
Continuous
 62
     7
100
AcDbCircle
 10
486.4374257133751
 20
328.7153901644746
 30
0.0
 40
1.999998505850189
100
AcDbArc
 50
269.9999571957144
 51
0.0000428042888088
  0
LINE
  5
2AB
330
1F
100
AcDbEntity
  8
0
  6
Continuous
 62
     7
100
AcDbLine
 10
488.4374242192247
 20
328.715391658625
 30
0.0
 11
488.4374242192247
 21
354.7153916586251
 31
0.0
  0
ARC
  5
2AC
330
1F
100
AcDbEntity
  8
0
  6
Continuous
 62
     7
100
AcDbCircle
 10
553.9374327250745
 20
383.7153931527755
 30
0.0
 40
1.999998505850189
100
AcDbArc
 50
89.99995719571442
 51
180.0000428042855
  0
LINE
  5
2AD
330
1F
100
AcDbEntity
  8
0
  6
Continuous
 62
     7
100
AcDbLine
 10
551.9374342192246
 20
349.715391658625
 30
0.0
 11
551.9374342192246
 21
383.7153916586251
 31
0.0
  0
ARC
  5
2AE
330
1F
100
AcDbEntity
  8
0
  6
Continuous
 62
     7
100
AcDbCircle
 10
553.9374327250745
 20
349.7153901644747
 30
0.0
 40
1.999998505850189
100
AcDbArc
 50
179.9999571957112
 51
270.0000428042855
  0
LINE
  5
2AF
330
1F
100
AcDbEntity
  8
0
  6
Continuous
 62
     7
100
AcDbLine
 10
562.9374342192248
 20
347.715391658625
 30
0.0
 11
553.9374342192246
 21
347.715391658625
 31
0.0
  0
ARC
  5
2B0
330
1F
100
AcDbEntity
  8
0
  6
Continuous
 62
     7
100
AcDbCircle
 10
562.9374357133752
 20
349.7153901644747
 30
0.0
 40
1.999998505850204
100
AcDbArc
 50
269.9999571957144
 51
0.0000428042888088
  0
LINE
  5
2B1
330
1F
100
AcDbEntity
  8
0
  6
Continuous
 62
     7
100
AcDbLine
 10
564.9374342192247
 20
383.7153916586251
 30
0.0
 11
564.9374342192247
 21
349.715391658625
 31
0.0
  0
ARC
  5
2B2
330
1F
100
AcDbEntity
  8
0
  6
Continuous
 62
     7
100
AcDbCircle
 10
562.9374357133752
 20
383.7153931527755
 30
0.0
 40
1.999998505850189
100
AcDbArc
 50
359.9999571957112
 51
90.00004280428553
  0
LINE
  5
2B3
330
1F
100
AcDbEntity
  8
0
  6
Continuous
 62
     7
100
AcDbLine
 10
553.9374342192246
 20
385.7153916586251
 30
0.0
 11
562.9374342192248
 21
385.7153916586251
 31
0.0
  0
LINE
  5
2B4
330
1F
100
AcDbEntity
  8
0
  6
Continuous
 62
     7
100
AcDbLine
 10
552.4374342192246
 20
347.1969236586251
 30
0.0
 11
566.4374332192246
 21
347.1969236586251
 31
0.0
  0
ARC
  5
2B5
330
1F
100
AcDbEntity
  8
0
  6
Continuous
 62
     7
100
AcDbCircle
 10
552.4374334721496
 20
348.1969229115499
 30
0.0
 40
0.9999992529251022
100
AcDbArc
 50
179.9999571957112
 51
270.0000428042855
  0
LINE
  5
2B6
330
1F
100
AcDbEntity
  8
0
  6
Continuous
 62
     7
100
AcDbLine
 10
551.4374342192247
 20
385.1969236586248
 30
0.0
 11
551.4374342192247
 21
348.1969236586251
 31
0.0
  0
ARC
  5
2B7
330
1F
100
AcDbEntity
  8
0
  6
Continuous
 62
     7
100
AcDbCircle
 10
552.4374334721496
 20
385.1969244057001
 30
0.0
 40
0.999999252925088
100
AcDbArc
 50
89.99995719571442
 51
180.0000428042855
  0
LINE
  5
2B8
330
1F
100
AcDbEntity
  8
0
  6
Continuous
 62
     7
100
AcDbLine
 10
566.4374352192244
 20
386.1969236586249
 30
0.0
 11
552.4374342192246
 21
386.1969236586249
 31
0.0
  0
LINE
  5
2B9
330
1F
100
AcDbEntity
  8
0
  6
Continuous
 62
     7
100
AcDbLine
 10
482.4374272192248
 20
378.7153866586251
 30
0.0
 11
464.4374272192248
 21
378.7153866586251
 31
0.0
  0
LINE
  5
2BA
330
1F
100
AcDbEntity
  8
0
  6
Continuous
 62
     7
100
AcDbLine
 10
464.4374272192248
 20
375.715386658625
 30
0.0
 11
482.4374272192248
 21
375.715386658625
 31
0.0
  0
LINE
  5
2BB
330
1F
100
AcDbEntity
  8
0
  6
Continuous
 62
     7
100
AcDbLine
 10
482.4374272192248
 20
375.715386658625
 30
0.0
 11
482.4374272192248
 21
378.7153866586251
 31
0.0
  0
LINE
  5
2BC
330
1F
100
AcDbEntity
  8
0
  6
Continuous
 62
     7
100
AcDbLine
 10
464.4374272192248
 20
378.7153866586251
 30
0.0
 11
464.4374272192248
 21
375.715386658625
 31
0.0
  0
LINE
  5
2BD
330
1F
100
AcDbEntity
  8
0
  6
Continuous
 62
     7
100
AcDbLine
 10
465.9374272192247
 20
357.215396658625
 30
0.0
 11
480.9374272192248
 21
357.215396658625
 31
0.0
  0
LINE
  5
2BE
330
1F
100
AcDbEntity
  8
0
  6
Continuous
 62
     7
100
AcDbLine
 10
465.9374272192247
 20
355.215396658625
 30
0.0
 11
480.9374272192248
 21
355.215396658625
 31
0.0
  0
LINE
  5
2BF
330
1F
100
AcDbEntity
  8
0
  6
Continuous
 62
     7
100
AcDbLine
 10
482.4374272192248
 20
354.715396658625
 30
0.0
 11
464.4374272192248
 21
354.715396658625
 31
0.0
  0
LINE
  5
2C0
330
1F
100
AcDbEntity
  8
0
  6
Continuous
 62
     7
100
AcDbLine
 10
464.4374272192248
 20
357.7153966586251
 30
0.0
 11
482.4374272192248
 21
357.7153966586251
 31
0.0
  0
LINE
  5
2C1
330
1F
100
AcDbEntity
  8
0
  6
Continuous
 62
     7
100
AcDbLine
 10
482.4374272192248
 20
357.7153966586251
 30
0.0
 11
482.4374272192248
 21
354.715396658625
 31
0.0
  0
LINE
  5
2C2
330
1F
100
AcDbEntity
  8
0
  6
Continuous
 62
     7
100
AcDbLine
 10
464.4374272192248
 20
354.715396658625
 30
0.0
 11
464.4374272192248
 21
357.7153966586251
 31
0.0
  0
LINE
  5
2C3
330
1F
100
AcDbEntity
  8
0
  6
Continuous
 62
     7
100
AcDbLine
 10
480.9374272192248
 20
357.215396658625
 30
0.0
 11
480.9374272192248
 21
355.215396658625
 31
0.0
  0
LINE
  5
2C4
330
1F
100
AcDbEntity
  8
0
  6
Continuous
 62
     7
100
AcDbLine
 10
465.9374272192247
 20
355.215396658625
 30
0.0
 11
465.9374272192247
 21
357.215396658625
 31
0.0
  0
LINE
  5
2C5
330
1F
100
AcDbEntity
  8
0
  6
Continuous
 62
     7
100
AcDbLine
 10
485.5368722192247
 20
385.2153916586248
 30
0.0
 11
461.3368712192247
 21
385.2153916586248
 31
0.0
  0
LINE
  5
2C6
330
1F
100
AcDbEntity
  8
0
  6
Continuous
 62
     7
100
AcDbLine
 10
459.4374242192247
 20
406.447442658625
 30
0.0
 11
459.4374242192247
 21
378.715391658625
 31
0.0
  0
LINE
  5
2C7
330
1F
100
AcDbEntity
  8
0
  6
Continuous
 62
     7
100
AcDbLine
 10
487.4374242192248
 20
378.715391658625
 30
0.0
 11
487.4374242192248
 21
406.447442658625
 31
0.0
  0
LINE
  5
2C8
330
1F
100
AcDbEntity
  8
0
  6
Continuous
 62
     7
100
AcDbLine
 10
461.3374252192247
 20
383.7153916586251
 30
0.0
 11
485.5374232192247
 21
383.7153916586251
 31
0.0
  0
LINE
  5
2C9
330
1F
100
AcDbEntity
  8
0
  6
Continuous
 62
     7
100
AcDbLine
 10
486.5374242192247
 20
378.715391658625
 30
0.0
 11
488.4374242192247
 21
378.715391658625
 31
0.0
  0
LINE
  5
2CA
330
1F
100
AcDbEntity
  8
0
  6
Continuous
 62
     7
100
AcDbLine
 10
458.4374242192247
 20
378.715391658625
 30
0.0
 11
460.3374242192248
 21
378.715391658625
 31
0.0
  0
LINE
  5
2CB
330
1F
100
AcDbEntity
  8
0
  6
Continuous
 62
     7
100
AcDbLine
 10
488.4374242192247
 20
378.715391658625
 30
0.0
 11
488.4374242192247
 21
404.715391658625
 31
0.0
  0
ARC
  5
2CC
330
1F
100
AcDbEntity
  8
0
  6
Continuous
 62
     7
100
AcDbCircle
 10
486.4374257133751
 20
404.7153931527752
 30
0.0
 40
1.999998505850189
100
AcDbArc
 50
359.9999571957112
 51
90.00004280428553
  0
LINE
  5
2CD
330
1F
100
AcDbEntity
  8
0
  6
Continuous
 62
     7
100
AcDbLine
 10
486.4374242192248
 20
406.715391658625
 30
0.0
 11
460.4374242192248
 21
406.715391658625
 31
0.0
  0
ARC
  5
2CE
330
1F
100
AcDbEntity
  8
0
  6
Continuous
 62
     7
100
AcDbCircle
 10
460.4374227250744
 20
404.7153931527752
 30
0.0
 40
1.999998505850189
100
AcDbArc
 50
89.99995719571442
 51
180.0000428042855
  0
LINE
  5
2CF
330
1F
100
AcDbEntity
  8
0
  6
Continuous
 62
     7
100
AcDbLine
 10
458.4374242192247
 20
404.715391658625
 30
0.0
 11
458.4374242192247
 21
378.715391658625
 31
0.0
  0
LINE
  5
2D0
330
1F
100
AcDbEntity
  8
0
  6
Continuous
 62
     7
100
AcDbLine
 10
566.9374242192247
 20
330.715391658625
 30
0.0
 11
566.9374242192247
 21
326.7153916586249
 31
0.0
  0
LINE
  5
2D1
330
1F
100
AcDbEntity
  8
0
  6
Continuous
 62
     7
100
AcDbLine
 10
566.9374242192247
 20
406.715391658625
 30
0.0
 11
566.9374242192247
 21
402.7153916586248
 31
0.0
  0
LINE
  5
2D2
330
1F
100
AcDbEntity
  8
0
  6
Continuous
 62
     7
100
AcDbLine
 10
566.9374242192247
 20
330.715391658625
 30
0.0
 11
566.4374242192244
 21
330.715391658625
 31
0.0
  0
LINE
  5
2D3
330
1F
100
AcDbEntity
  8
0
  6
Continuous
 62
     7
100
AcDbLine
 10
566.4374242192244
 20
402.7153916586248
 30
0.0
 11
566.9374242192247
 21
402.7153916586248
 31
0.0
  0
LINE
  5
2D4
330
1F
100
AcDbEntity
  8
0
  6
Continuous
 62
     7
100
AcDbLine
 10
566.4374242192244
 20
402.7153916586248
 30
0.0
 11
566.4374242192244
 21
330.715391658625
 31
0.0
  0
LINE
  5
2D5
330
1F
100
AcDbEntity
  8
0
  6
Continuous
 62
     7
 48
2.0
100
AcDbLine
 10
460.5374242192247
 20
356.7153916586251
 30
0.0
 11
460.5374242192247
 21
349.715391658625
 31
0.0
  0
LINE
  5
2D6
330
1F
100
AcDbEntity
  8
0
  6
Continuous
 62
     7
100
AcDbLine
 10
458.4374242192247
 20
356.7153916586251
 30
0.0
 11
460.5374242192247
 21
356.7153916586251
 31
0.0
  0
LINE
  5
2D7
330
1F
100
AcDbEntity
  8
0
  6
Continuous
 62
     7
100
AcDbLine
 10
460.3374242192248
 20
354.7153916586251
 30
0.0
 11
458.4374242192247
 21
354.7153916586251
 31
0.0
  0
LINE
  5
2D8
330
1F
100
AcDbEntity
  8
0
  6
Continuous
 62
     7
100
AcDbLine
 10
488.4374242192247
 20
354.7153916586251
 30
0.0
 11
486.5374242192247
 21
354.7153916586251
 31
0.0
  0
LINE
  5
2D9
330
1F
100
AcDbEntity
  8
0
  6
Continuous
 62
     7
100
AcDbLine
 10
488.4374242192247
 20
328.715391658625
 30
0.0
 11
488.4374242192247
 21
354.7153916586251
 31
0.0
  0
ARC
  5
2DA
330
1F
100
AcDbEntity
  8
0
  6
Continuous
 62
     7
100
AcDbCircle
 10
486.4374257133751
 20
328.7153901644746
 30
0.0
 40
1.999998505850189
100
AcDbArc
 50
269.9999571957144
 51
0.0000428042888088
  0
LINE
  5
2DB
330
1F
100
AcDbEntity
  8
0
  6
Continuous
 62
     7
100
AcDbLine
 10
460.4374242192248
 20
326.7153916586249
 30
0.0
 11
486.4374242192248
 21
326.7153916586249
 31
0.0
  0
ARC
  5
2DC
330
1F
100
AcDbEntity
  8
0
  6
Continuous
 62
     7
100
AcDbCircle
 10
460.4374227250744
 20
328.7153901644746
 30
0.0
 40
1.999998505850186
100
AcDbArc
 50
179.9999571957112
 51
270.0000428042855
  0
LINE
  5
2DD
330
1F
100
AcDbEntity
  8
0
  6
Continuous
 62
     7
100
AcDbLine
 10
458.4374242192247
 20
354.7153916586251
 30
0.0
 11
458.4374242192247
 21
328.715391658625
 31
0.0
  0
LINE
  5
2DE
330
1F
100
AcDbEntity
  8
0
  6
Continuous
 62
     7
100
AcDbLine
 10
488.4374252192247
 20
354.7653916586251
 30
0.0
 11
486.3374252192247
 21
354.7653916586251
 31
0.0
  0
LINE
  5
2DF
330
1F
100
AcDbEntity
  8
0
  6
Continuous
 62
     7
100
AcDbLine
 10
486.3374252192247
 20
378.665391658625
 30
0.0
 11
488.4374252192247
 21
378.665391658625
 31
0.0
  0
LINE
  5
2E0
330
1F
100
AcDbEntity
  8
0
  6
Continuous
 62
     7
100
AcDbLine
 10
458.4374252192247
 20
378.665391658625
 30
0.0
 11
460.5374252192247
 21
378.665391658625
 31
0.0
  0
LINE
  5
2E1
330
1F
100
AcDbEntity
  8
0
  6
Continuous
 62
     7
100
AcDbLine
 10
486.3374242192247
 20
376.715391658625
 30
0.0
 11
488.4374242192247
 21
376.715391658625
 31
0.0
  0
LINE
  5
2E2
330
1F
100
AcDbEntity
  8
0
  6
Continuous
 62
     7
100
AcDbLine
 10
460.4374242192248
 20
376.715391658625
 30
0.0
 11
460.5374242192247
 21
376.715391658625
 31
0.0
  0
LINE
  5
2E3
330
1F
100
AcDbEntity
  8
0
  6
Continuous
 62
     7
 48
2.0
100
AcDbLine
 10
486.3374242192247
 20
356.7153916586251
 30
0.0
 11
486.3374242192247
 21
349.715391658625
 31
0.0
  0
LINE
  5
2E4
330
1F
100
AcDbEntity
  8
0
  6
Continuous
 62
     7
 48
2.0
100
AcDbLine
 10
486.3374242192247
 20
383.7153916586251
 30
0.0
 11
486.3374242192247
 21
376.715391658625
 31
0.0
  0
LINE
  5
2E5
330
1F
100
AcDbEntity
  8
0
  6
Continuous
 62
     7
 48
2.0
100
AcDbLine
 10
460.5374242192247
 20
383.7153916586251
 30
0.0
 11
460.5374242192247
 21
376.715391658625
 31
0.0
  0
LINE
  5
2E6
330
1F
100
AcDbEntity
  8
0
  6
Continuous
 62
     7
100
AcDbLine
 10
488.4374242192247
 20
356.7153916586251
 30
0.0
 11
486.3374242192247
 21
356.7153916586251
 31
0.0
  0
LINE
  5
2E7
330
1F
100
AcDbEntity
  8
0
  6
Continuous
 62
     7
100
AcDbLine
 10
458.4374242192247
 20
376.715391658625
 30
0.0
 11
460.4374242192248
 21
376.715391658625
 31
0.0
  0
LINE
  5
2E8
330
1F
100
AcDbEntity
  8
0
  6
Continuous
 62
     7
100
AcDbLine
 10
487.4374242192248
 20
376.715391658625
 30
0.0
 11
487.4374242192248
 21
356.7153916586251
 31
0.0
  0
LINE
  5
2E9
330
1F
100
AcDbEntity
  8
0
  6
Continuous
 62
     7
100
AcDbLine
 10
459.4374242192247
 20
356.7153916586251
 30
0.0
 11
459.4374242192247
 21
376.715391658625
 31
0.0
  0
LINE
  5
2EA
330
1F
100
AcDbEntity
  8
0
  6
Continuous
 62
     7
100
AcDbLine
 10
486.3374242192247
 20
349.715391658625
 30
0.0
 11
460.5374242192247
 21
349.715391658625
 31
0.0
  0
LINE
  5
2EB
330
1F
100
AcDbEntity
  8
0
  6
Continuous
 62
     7
100
AcDbLine
 10
460.5374242192247
 20
383.7153916586251
 30
0.0
 11
486.3374242192247
 21
383.7153916586251
 31
0.0
  0
LINE
  5
2EC
330
1F
100
AcDbEntity
  8
0
  6
Continuous
 62
     7
100
AcDbLine
 10
458.4374242192247
 20
354.7653916586251
 30
0.0
 11
458.4374242192247
 21
378.665391658625
 31
0.0
  0
LINE
  5
2ED
330
1F
100
AcDbEntity
  8
0
  6
Continuous
 62
     7
100
AcDbLine
 10
488.4374242192247
 20
378.665391658625
 30
0.0
 11
488.4374242192247
 21
354.7653916586251
 31
0.0
  0
LINE
  5
2EE
330
1F
100
AcDbEntity
  8
0
  6
Continuous
 62
     7
100
AcDbLine
 10
488.4374242192247
 20
328.7153901644746
 30
0.0
 11
488.4374242192247
 21
404.7153916586248
 31
0.0
  0
LINE
  5
2EF
330
1F
100
AcDbEntity
  8
0
  6
Continuous
 62
     7
100
AcDbLine
 10
458.4374242192247
 20
404.7153916586248
 30
0.0
 11
458.4374242192247
 21
328.715391658625
 31
0.0
  0
LINE
  5
2F0
330
1F
100
AcDbEntity
  8
0
  6
Continuous
 62
     7
 48
2.0
100
AcDbLine
 10
486.4374257133751
 20
406.715391658625
 30
0.0
 11
460.4374227250744
 21
406.715391658625
 31
0.0
  0
LINE
  5
2F1
330
1F
100
AcDbEntity
  8
0
  6
Continuous
 62
     7
100
AcDbLine
 10
567.4374242192246
 20
327.8153916586251
 30
0.0
 11
566.9374242192247
 21
327.8153916586251
 31
0.0
  0
LINE
  5
2F2
330
1F
100
AcDbEntity
  8
0
  6
Continuous
 62
     7
100
AcDbLine
 10
567.4374242192246
 20
405.615391658625
 30
0.0
 11
567.4374242192246
 21
327.8153916586251
 31
0.0
  0
LINE
  5
2F3
330
1F
100
AcDbEntity
  8
0
  6
Continuous
 62
     7
100
AcDbLine
 10
566.9374242192247
 20
405.615391658625
 30
0.0
 11
567.4374242192246
 21
405.615391658625
 31
0.0
  0
LINE
  5
2F4
330
1F
100
AcDbEntity
  8
0
  6
Continuous
 62
     7
100
AcDbLine
 10
545.4320832192247
 20
328.715391658625
 30
0.0
 11
566.9374242192247
 21
328.715391658625
 31
0.0
  0
LINE
  5
2F5
330
1F
100
AcDbEntity
  8
0
  6
Continuous
 62
     7
100
AcDbLine
 10
545.4320832192247
 20
404.715391658625
 30
0.0
 11
566.9374242192247
 21
404.715391658625
 31
0.0
  0
LINE
  5
2F6
330
1F
100
AcDbEntity
  8
0
  6
Continuous
 62
     7
100
AcDbLine
 10
566.9374242192247
 20
326.7153916586249
 30
0.0
 11
545.4324522192246
 21
326.7153916586249
 31
0.0
  0
LINE
  5
2F7
330
1F
100
AcDbEntity
  8
0
  6
Continuous
 62
     7
100
AcDbLine
 10
545.4324522192246
 20
406.715391658625
 30
0.0
 11
566.9374242192247
 21
406.715391658625
 31
0.0
  0
ENDSEC
  0
SECTION
  2
OBJECTS
  0
DICTIONARY
  5
C
330
0
100
AcDbDictionary
281
     1
  3
ACAD_GROUP
350
D
  3
ACAD_LAYOUT
350
1A
  3
ACAD_MLINESTYLE
350
17
  3
ACAD_PLOTSETTINGS
350
19
  3
ACAD_PLOTSTYLENAME
350
E
  3
DWGPROPS
350
2F8
  0
DICTIONARY
  5
D
102
{ACAD_REACTORS
330
C
102
}
330
C
100
AcDbDictionary
281
     1
  0
DICTIONARY
  5
1A
102
{ACAD_REACTORS
330
C
102
}
330
C
100
AcDbDictionary
281
     1
  3
Model
350
22
  3
ﾚｲｱｳﾄ1
350
51
  3
ﾚｲｱｳﾄ2
350
56
  0
DICTIONARY
  5
17
102
{ACAD_REACTORS
330
C
102
}
330
C
100
AcDbDictionary
281
     1
  3
Standard
350
18
  0
DICTIONARY
  5
19
102
{ACAD_REACTORS
330
C
102
}
330
C
100
AcDbDictionary
281
     1
  0
ACDBDICTIONARYWDFLT
  5
E
102
{ACAD_REACTORS
330
C
102
}
330
C
100
AcDbDictionary
281
     1
  3
Normal
350
F
100
AcDbDictionaryWithDefault
340
F
  0
XRECORD
  5
2F8
102
{ACAD_REACTORS
330
C
102
}
330
C
100
AcDbXrecord
280
     1
  1
DWGPROPS COOKIE
  2

  3

  4

  6

  7

  8

  9

300
=
301
=
302
=
303
=
304
=
305
=
306
=
307
=
308
=
309
=
 40
0.0002142592592593
 41
2456499.776256238
 42
2456499.776470312
  1

 90
        0
  0
LAYOUT
  5
22
102
{ACAD_REACTORS
330
1A
102
}
330
1A
100
AcDbPlotSettings
  1

  2
none_device
  4
ANSI_A_(8.50_x_11.00_Inches)
  6

 40
6.349999904632567
 41
19.04999923706053
 42
6.350006103515625
 43
19.04998779296875
 44
215.8999938964842
 45
279.3999938964843
 46
0.0
 47
0.0
 48
0.0
 49
0.0
140
0.0
141
0.0
142
1.0
143
78.436453180766
 70
 11952
 72
     0
 73
     1
 74
     0
  7

 75
     0
147
0.0127491741332998
148
0.0
149
0.0
100
AcDbLayout
  1
Model
 70
     1
 71
     0
 10
0.0
 20
0.0
 11
12.0
 21
9.0
 12
0.0
 22
0.0
 32
0.0
 14
0.0
 24
0.0
 34
0.0
 15
0.0
 25
0.0
 35
0.0
146
0.0
 13
0.0
 23
0.0
 33
0.0
 16
1.0
 26
0.0
 36
0.0
 17
0.0
 27
1.0
 37
0.0
 76
     0
330
1F
  0
LAYOUT
  5
51
102
{ACAD_REACTORS
330
1A
102
}
330
1A
100
AcDbPlotSettings
  1

  2
None
  4

  6

 40
0.0
 41
0.0
 42
0.0
 43
0.0
 44
0.0
 45
0.0
 46
0.0
 47
0.0
 48
0.0
 49
0.0
140
0.0
141
0.0
142
1.0
143
1.0
 70
   688
 72
     0
 73
     0
 74
     5
  7

 75
    16
147
1.0
148
0.0
149
0.0
100
AcDbLayout
  1
ﾚｲｱｳﾄ1
 70
     1
 71
     1
 10
0.0
 20
0.0
 11
12.0
 21
9.0
 12
0.0
 22
0.0
 32
0.0
 14
0.0
 24
0.0
 34
0.0
 15
0.0
 25
0.0
 35
0.0
146
0.0
 13
0.0
 23
0.0
 33
0.0
 16
1.0
 26
0.0
 36
0.0
 17
0.0
 27
1.0
 37
0.0
 76
     0
330
50
  0
LAYOUT
  5
56
102
{ACAD_REACTORS
330
1A
102
}
330
1A
100
AcDbPlotSettings
  1

  2
None
  4

  6

 40
0.0
 41
0.0
 42
0.0
 43
0.0
 44
0.0
 45
0.0
 46
0.0
 47
0.0
 48
0.0
 49
0.0
140
0.0
141
0.0
142
1.0
143
1.0
 70
   688
 72
     0
 73
     0
 74
     5
  7

 75
    16
147
1.0
148
0.0
149
0.0
100
AcDbLayout
  1
ﾚｲｱｳﾄ2
 70
     1
 71
     2
 10
0.0
 20
0.0
 11
12.0
 21
9.0
 12
0.0
 22
0.0
 32
0.0
 14
0.0
 24
0.0
 34
0.0
 15
0.0
 25
0.0
 35
0.0
146
0.0
 13
0.0
 23
0.0
 33
0.0
 16
1.0
 26
0.0
 36
0.0
 17
0.0
 27
1.0
 37
0.0
 76
     0
330
55
  0
MLINESTYLE
  5
18
102
{ACAD_REACTORS
330
17
102
}
330
17
100
AcDbMlineStyle
  2
STANDARD
 70
     0
  3

 62
   256
 51
90.0
 52
90.0
 71
     2
 49
0.5
 62
   256
  6
BYLAYER
 49
-0.5
 62
   256
  6
BYLAYER
  0
ACDBPLACEHOLDER
  5
F
102
{ACAD_REACTORS
330
E
102
}
330
E
  0
ENDSEC
  0
EOF
