  0
SECTION
  2
HEADER
  9
$ACADVER
  1
AC1015
  9
$ACADMAINTVER
 70
    10
  9
$DWGCODEPAGE
  3
ANSI_932
  9
$INSBASE
 10
0.0
 20
0.0
 30
0.0
  9
$EXTMIN
 10
382.4277303083134
 20
254.0860874377541
 30
0.0
  9
$EXTMAX
 10
565.3833657083136
 20
354.5412648377543
 30
0.0
  9
$LIMMIN
 10
0.0
 20
0.0
  9
$LIMMAX
 10
420.0
 20
297.0
  9
$ORTHOMODE
 70
     0
  9
$REGENMODE
 70
     1
  9
$FILLMODE
 70
     1
  9
$QTEXTMODE
 70
     0
  9
$MIRRTEXT
 70
     1
  9
$LTSCALE
 40
1.0
  9
$ATTMODE
 70
     1
  9
$TEXTSIZE
 40
2.5
  9
$TRACEWID
 40
1.0
  9
$TEXTSTYLE
  7
Standard
  9
$CLAYER
  8
0
  9
$CELTYPE
  6
ByLayer
  9
$CECOLOR
 62
   256
  9
$CELTSCALE
 40
1.0
  9
$DISPSILH
 70
     0
  9
$DIMSCALE
 40
1.0
  9
$DIMASZ
 40
2.5
  9
$DIMEXO
 40
0.625
  9
$DIMDLI
 40
3.75
  9
$DIMRND
 40
0.0
  9
$DIMDLE
 40
0.0
  9
$DIMEXE
 40
1.25
  9
$DIMTP
 40
0.0
  9
$DIMTM
 40
0.0
  9
$DIMTXT
 40
2.5
  9
$DIMCEN
 40
2.5
  9
$DIMTSZ
 40
0.0
  9
$DIMTOL
 70
     0
  9
$DIMLIM
 70
     0
  9
$DIMTIH
 70
     0
  9
$DIMTOH
 70
     0
  9
$DIMSE1
 70
     0
  9
$DIMSE2
 70
     0
  9
$DIMTAD
 70
     1
  9
$DIMZIN
 70
     8
  9
$DIMBLK
  1

  9
$DIMASO
 70
     1
  9
$DIMSHO
 70
     1
  9
$DIMPOST
  1

  9
$DIMAPOST
  1

  9
$DIMALT
 70
     0
  9
$DIMALTD
 70
     3
  9
$DIMALTF
 40
0.03937007874016
  9
$DIMLFAC
 40
1.0
  9
$DIMTOFL
 70
     1
  9
$DIMTVP
 40
0.0
  9
$DIMTIX
 70
     0
  9
$DIMSOXD
 70
     0
  9
$DIMSAH
 70
     0
  9
$DIMBLK1
  1

  9
$DIMBLK2
  1

  9
$DIMSTYLE
  2
ISO-25
  9
$DIMCLRD
 70
     0
  9
$DIMCLRE
 70
     0
  9
$DIMCLRT
 70
     0
  9
$DIMTFAC
 40
1.0
  9
$DIMGAP
 40
0.625
  9
$DIMJUST
 70
     0
  9
$DIMSD1
 70
     0
  9
$DIMSD2
 70
     0
  9
$DIMTOLJ
 70
     0
  9
$DIMTZIN
 70
     8
  9
$DIMALTZ
 70
     0
  9
$DIMALTTZ
 70
     0
  9
$DIMUPT
 70
     0
  9
$DIMDEC
 70
     2
  9
$DIMTDEC
 70
     2
  9
$DIMALTU
 70
     2
  9
$DIMALTTD
 70
     3
  9
$DIMTXSTY
  7
Standard
  9
$DIMAUNIT
 70
     0
  9
$DIMADEC
 70
     0
  9
$DIMALTRND
 40
0.0
  9
$DIMAZIN
 70
     0
  9
$DIMDSEP
 70
    44
  9
$DIMATFIT
 70
     3
  9
$DIMFRAC
 70
     0
  9
$DIMLDRBLK
  1

  9
$DIMLUNIT
 70
     2
  9
$DIMLWD
 70
    -2
  9
$DIMLWE
 70
    -2
  9
$DIMTMOVE
 70
     0
  9
$LUNITS
 70
     2
  9
$LUPREC
 70
     4
  9
$SKETCHINC
 40
1.0
  9
$FILLETRAD
 40
10.0
  9
$AUNITS
 70
     0
  9
$AUPREC
 70
     0
  9
$MENU
  1
.
  9
$ELEVATION
 40
0.0
  9
$PELEVATION
 40
0.0
  9
$THICKNESS
 40
0.0
  9
$LIMCHECK
 70
     0
  9
$CHAMFERA
 40
10.0
  9
$CHAMFERB
 40
10.0
  9
$CHAMFERC
 40
20.0
  9
$CHAMFERD
 40
0.0
  9
$SKPOLY
 70
     0
  9
$TDCREATE
 40
2456499.781966956
  9
$TDUCREATE
 40
2456499.406966956
  9
$TDUPDATE
 40
2456500.621359676
  9
$TDUUPDATE
 40
2456500.246359676
  9
$TDINDWG
 40
0.0007026736
  9
$TDUSRTIMER
 40
0.0007026736
  9
$USRTIMER
 70
     1
  9
$ANGBASE
 50
0.0
  9
$ANGDIR
 70
     0
  9
$PDMODE
 70
     0
  9
$PDSIZE
 40
0.0
  9
$PLINEWID
 40
0.0
  9
$SPLFRAME
 70
     0
  9
$SPLINETYPE
 70
     6
  9
$SPLINESEGS
 70
     8
  9
$HANDSEED
  5
3B7
  9
$SURFTAB1
 70
     6
  9
$SURFTAB2
 70
     6
  9
$SURFTYPE
 70
     6
  9
$SURFU
 70
     6
  9
$SURFV
 70
     6
  9
$UCSBASE
  2

  9
$UCSNAME
  2

  9
$UCSORG
 10
0.0
 20
0.0
 30
0.0
  9
$UCSXDIR
 10
1.0
 20
0.0
 30
0.0
  9
$UCSYDIR
 10
0.0
 20
1.0
 30
0.0
  9
$UCSORTHOREF
  2

  9
$UCSORTHOVIEW
 70
     0
  9
$UCSORGTOP
 10
0.0
 20
0.0
 30
0.0
  9
$UCSORGBOTTOM
 10
0.0
 20
0.0
 30
0.0
  9
$UCSORGLEFT
 10
0.0
 20
0.0
 30
0.0
  9
$UCSORGRIGHT
 10
0.0
 20
0.0
 30
0.0
  9
$UCSORGFRONT
 10
0.0
 20
0.0
 30
0.0
  9
$UCSORGBACK
 10
0.0
 20
0.0
 30
0.0
  9
$PUCSBASE
  2

  9
$PUCSNAME
  2

  9
$PUCSORG
 10
0.0
 20
0.0
 30
0.0
  9
$PUCSXDIR
 10
1.0
 20
0.0
 30
0.0
  9
$PUCSYDIR
 10
0.0
 20
1.0
 30
0.0
  9
$PUCSORTHOREF
  2

  9
$PUCSORTHOVIEW
 70
     0
  9
$PUCSORGTOP
 10
0.0
 20
0.0
 30
0.0
  9
$PUCSORGBOTTOM
 10
0.0
 20
0.0
 30
0.0
  9
$PUCSORGLEFT
 10
0.0
 20
0.0
 30
0.0
  9
$PUCSORGRIGHT
 10
0.0
 20
0.0
 30
0.0
  9
$PUCSORGFRONT
 10
0.0
 20
0.0
 30
0.0
  9
$PUCSORGBACK
 10
0.0
 20
0.0
 30
0.0
  9
$USERI1
 70
     0
  9
$USERI2
 70
     0
  9
$USERI3
 70
     0
  9
$USERI4
 70
     0
  9
$USERI5
 70
     0
  9
$USERR1
 40
0.0
  9
$USERR2
 40
0.0
  9
$USERR3
 40
0.0
  9
$USERR4
 40
0.0
  9
$USERR5
 40
0.0
  9
$WORLDVIEW
 70
     1
  9
$SHADEDGE
 70
     3
  9
$SHADEDIF
 70
    70
  9
$TILEMODE
 70
     1
  9
$MAXACTVP
 70
    64
  9
$PINSBASE
 10
0.0
 20
0.0
 30
0.0
  9
$PLIMCHECK
 70
     0
  9
$PEXTMIN
 10
0.0
 20
0.0
 30
0.0
  9
$PEXTMAX
 10
0.0
 20
0.0
 30
0.0
  9
$PLIMMIN
 10
0.0
 20
0.0
  9
$PLIMMAX
 10
12.0
 20
9.0
  9
$UNITMODE
 70
     0
  9
$VISRETAIN
 70
     1
  9
$PLINEGEN
 70
     0
  9
$PSLTSCALE
 70
     1
  9
$TREEDEPTH
 70
  3020
  9
$CMLSTYLE
  2
Standard
  9
$CMLJUST
 70
     0
  9
$CMLSCALE
 40
20.0
  9
$PROXYGRAPHICS
 70
     1
  9
$MEASUREMENT
 70
     1
  9
$CELWEIGHT
370
    -1
  9
$ENDCAPS
280
     0
  9
$JOINSTYLE
280
     0
  9
$LWDISPLAY
290
     0
  9
$INSUNITS
 70
     4
  9
$HYPERLINKBASE
  1

  9
$STYLESHEET
  1

  9
$XEDIT
290
     1
  9
$CEPSNTYPE
380
     0
  9
$PSTYLEMODE
290
     1
  9
$FINGERPRINTGUID
  2
{FDEAD578-A652-11D2-9A35-0060089B3A3F}
  9
$VERSIONGUID
  2
{C9F5C8BA-CF19-4C1F-B9BC-C868AE2EFFE4}
  9
$EXTNAMES
290
     1
  9
$PSVPSCALE
 40
0.0
  9
$OLESTARTUP
290
     0
  0
ENDSEC
  0
SECTION
  2
CLASSES
  0
CLASS
  1
ACDBDICTIONARYWDFLT
  2
AcDbDictionaryWithDefault
  3
AutoCAD 2000
 90
        0
280
     0
281
     0
  0
CLASS
  1
ACDBPLACEHOLDER
  2
AcDbPlaceHolder
  3
AutoCAD 2000
 90
        0
280
     0
281
     0
  0
CLASS
  1
LAYOUT
  2
AcDbLayout
  3
AutoCAD 2000
 90
        0
280
     0
281
     0
  0
ENDSEC
  0
SECTION
  2
TABLES
  0
TABLE
  2
VPORT
  5
8
330
0
100
AcDbSymbolTable
 70
     2
  0
VPORT
  5
3B6
330
8
100
AcDbSymbolTableRecord
100
AcDbViewportTableRecord
  2
*Active
 70
     0
 10
0.0
 20
0.0
 11
1.0
 21
1.0
 12
484.3720500420577
 22
305.3962104732331
 13
0.0
 23
0.0
 14
10.0
 24
10.0
 15
10.0
 25
10.0
 16
0.0
 26
0.0
 36
1.0
 17
0.0
 27
0.0
 37
0.0
 40
153.2596039709179
 41
1.781954887218045
 42
50.0
 43
0.0
 44
0.0
 50
0.0
 51
0.0
 71
     0
 72
   100
 73
     1
 74
     3
 75
     0
 76
     0
 77
     0
 78
     0
281
     0
 65
     1
110
0.0
120
0.0
130
0.0
111
1.0
121
0.0
131
0.0
112
0.0
122
1.0
132
0.0
 79
     0
146
0.0
  0
ENDTAB
  0
TABLE
  2
LTYPE
  5
5
330
0
100
AcDbSymbolTable
 70
     2
  0
LTYPE
  5
14
330
5
100
AcDbSymbolTableRecord
100
AcDbLinetypeTableRecord
  2
ByBlock
 70
     0
  3

 72
    65
 73
     0
 40
0.0
  0
LTYPE
  5
15
330
5
100
AcDbSymbolTableRecord
100
AcDbLinetypeTableRecord
  2
ByLayer
 70
     0
  3

 72
    65
 73
     0
 40
0.0
  0
LTYPE
  5
16
330
5
100
AcDbSymbolTableRecord
100
AcDbLinetypeTableRecord
  2
Continuous
 70
     0
  3
Solid line
 72
    65
 73
     0
 40
0.0
  0
LTYPE
  5
61
330
5
100
AcDbSymbolTableRecord
100
AcDbLinetypeTableRecord
  2
DASHED
 70
     0
  3
DASHED
 72
    65
 73
     2
 40
0.75
 49
0.5
 74
     0
 49
-0.25
 74
     0
  0
ENDTAB
  0
TABLE
  2
LAYER
  5
2
330
0
100
AcDbSymbolTable
 70
     1
  0
LAYER
  5
10
330
2
100
AcDbSymbolTableRecord
100
AcDbLayerTableRecord
  2
0
 70
     0
 62
     7
  6
Continuous
370
    -3
390
F
  0
ENDTAB
  0
TABLE
  2
STYLE
  5
3
330
0
100
AcDbSymbolTable
 70
     1
  0
STYLE
  5
11
330
3
100
AcDbSymbolTableRecord
100
AcDbTextStyleTableRecord
  2
Standard
 70
     0
 40
0.0
 41
1.0
 50
0.0
 71
     0
 42
2.5
  3
txt
  4

  0
ENDTAB
  0
TABLE
  2
VIEW
  5
6
330
0
100
AcDbSymbolTable
 70
     0
  0
ENDTAB
  0
TABLE
  2
UCS
  5
7
330
0
100
AcDbSymbolTable
 70
     0
  0
ENDTAB
  0
TABLE
  2
APPID
  5
9
330
0
100
AcDbSymbolTable
 70
     1
  0
APPID
  5
12
330
9
100
AcDbSymbolTableRecord
100
AcDbRegAppTableRecord
  2
ACAD
 70
     0
  0
ENDTAB
  0
TABLE
  2
DIMSTYLE
  5
A
330
0
100
AcDbSymbolTable
 70
     1
100
AcDbDimStyleTable
 71
     1
340
27
  0
DIMSTYLE
105
27
330
A
100
AcDbSymbolTableRecord
100
AcDbDimStyleTableRecord
  2
ISO-25
 70
     0
 41
2.5
 42
0.625
 43
3.75
 44
1.25
 73
     0
 74
     0
 77
     1
 78
     8
140
2.5
141
2.5
143
0.03937007874016
147
0.625
171
     3
172
     1
271
     2
272
     2
274
     3
278
    44
283
     0
284
     8
340
11
  0
ENDTAB
  0
TABLE
  2
BLOCK_RECORD
  5
1
330
0
100
AcDbSymbolTable
 70
     1
  0
BLOCK_RECORD
  5
1F
330
1
100
AcDbSymbolTableRecord
100
AcDbBlockTableRecord
  2
*Model_Space
340
22
  0
BLOCK_RECORD
  5
50
330
1
100
AcDbSymbolTableRecord
100
AcDbBlockTableRecord
  2
*Paper_Space
340
51
  0
BLOCK_RECORD
  5
55
330
1
100
AcDbSymbolTableRecord
100
AcDbBlockTableRecord
  2
*Paper_Space0
340
56
  0
ENDTAB
  0
ENDSEC
  0
SECTION
  2
BLOCKS
  0
BLOCK
  5
20
330
1F
100
AcDbEntity
  8
0
100
AcDbBlockBegin
  2
*Model_Space
 70
     0
 10
0.0
 20
0.0
 30
0.0
  3
*Model_Space
  1

  0
ENDBLK
  5
21
330
1F
100
AcDbEntity
  8
0
100
AcDbBlockEnd
  0
BLOCK
  5
52
330
50
100
AcDbEntity
 67
     1
  8
0
100
AcDbBlockBegin
  2
*Paper_Space
 70
     0
 10
0.0
 20
0.0
 30
0.0
  3
*Paper_Space
  1

  0
ENDBLK
  5
53
330
50
100
AcDbEntity
 67
     1
  8
0
100
AcDbBlockEnd
  0
BLOCK
  5
57
330
55
100
AcDbEntity
  8
0
100
AcDbBlockBegin
  2
*Paper_Space0
 70
     0
 10
0.0
 20
0.0
 30
0.0
  3
*Paper_Space0
  1

  0
ENDBLK
  5
58
330
55
100
AcDbEntity
  8
0
100
AcDbBlockEnd
  0
ENDSEC
  0
SECTION
  2
ENTITIES
  0
LINE
  5
20B
330
1F
100
AcDbEntity
  8
0
  6
DASHED
 62
     4
100
AcDbLine
 10
427.8833657083136
 20
261.2856294377541
 30
0.0
 11
427.8833657083136
 21
351.8856294377541
 31
0.0
  0
LINE
  5
20C
330
1F
100
AcDbEntity
  8
0
  6
DASHED
 62
     4
100
AcDbLine
 10
382.8833657083136
 20
351.8856294377541
 30
0.0
 11
382.8833657083136
 21
261.2856294377541
 31
0.0
  0
LINE
  5
20D
330
1F
100
AcDbEntity
  8
0
  6
DASHED
 62
     4
 48
2.0
100
AcDbLine
 10
388.1839657083135
 20
330.3862324377541
 30
0.0
 11
388.1839657083135
 21
341.3850324377541
 31
0.0
  0
LINE
  5
20E
330
1F
100
AcDbEntity
  8
0
  6
DASHED
 62
     4
 48
2.0
100
AcDbLine
 10
400.1827657083135
 20
341.3850324377541
 30
0.0
 11
400.1827657083135
 21
330.3862324377541
 31
0.0
  0
ARC
  5
20F
330
1F
100
AcDbEntity
  8
0
  6
Continuous
 62
     7
100
AcDbCircle
 10
394.1884556893347
 20
335.8886854574411
 30
0.0
 40
3.749999998188378
100
AcDbArc
 50
180.0422005561024
 51
90.04221524421211
  0
CIRCLE
  5
210
330
1F
100
AcDbEntity
  8
0
  6
DASHED
 62
     4
100
AcDbCircle
 10
394.1884556893347
 20
335.8886854574411
 30
0.0
 40
4.367178660964365
  0
CIRCLE
  5
211
330
1F
100
AcDbEntity
  8
0
  6
DASHED
 62
     4
100
AcDbCircle
 10
416.5884556893348
 20
335.8886854574411
 30
0.0
 40
4.367178660964365
  0
ARC
  5
212
330
1F
100
AcDbEntity
  8
0
  6
Continuous
 62
     7
100
AcDbCircle
 10
416.5884556893348
 20
335.8886854574411
 30
0.0
 40
3.749999998188378
100
AcDbArc
 50
180.0422005561024
 51
90.04221524421211
  0
LINE
  5
213
330
1F
100
AcDbEntity
  8
0
  6
Continuous
 62
     7
100
AcDbLine
 10
383.0833657083136
 20
342.0856294377541
 30
0.0
 11
383.0833657083136
 21
316.0856294377541
 31
0.0
  0
LINE
  5
214
330
1F
100
AcDbEntity
  8
0
  6
Continuous
 62
     7
100
AcDbLine
 10
427.6833657083137
 20
316.0856294377541
 30
0.0
 11
427.6833657083137
 21
342.0856294377541
 31
0.0
  0
LINE
  5
215
330
1F
100
AcDbEntity
  8
0
  6
Continuous
 62
     7
100
AcDbLine
 10
383.8833657083135
 20
343.6856294377542
 30
0.0
 11
383.8833657083135
 21
316.0856294377541
 31
0.0
  0
LINE
  5
216
330
1F
100
AcDbEntity
  8
0
  6
Continuous
 62
     7
100
AcDbLine
 10
426.8833657083136
 20
316.0856294377541
 30
0.0
 11
426.8833657083136
 21
343.6856294377542
 31
0.0
  0
LINE
  5
217
330
1F
100
AcDbEntity
  8
0
  6
DASHED
 62
     4
 48
2.0
100
AcDbLine
 10
410.5839657083135
 20
330.3862324377541
 30
0.0
 11
410.5839657083135
 21
341.3850324377541
 31
0.0
  0
LINE
  5
218
330
1F
100
AcDbEntity
  8
0
  6
DASHED
 62
     4
 48
2.0
100
AcDbLine
 10
422.5827657083137
 20
341.3850324377541
 30
0.0
 11
422.5827657083137
 21
330.3862324377541
 31
0.0
  0
LINE
  5
219
330
1F
100
AcDbEntity
  8
0
  6
Continuous
 62
     7
100
AcDbLine
 10
427.8833657083136
 20
342.0856294377541
 30
0.0
 11
427.8833657083136
 21
316.0856294377541
 31
0.0
  0
LINE
  5
21A
330
1F
100
AcDbEntity
  8
0
  6
Continuous
 62
     7
100
AcDbLine
 10
382.8833657083136
 20
316.0856294377541
 30
0.0
 11
382.8833657083136
 21
342.0856294377541
 31
0.0
  0
ARC
  5
21B
330
1F
100
AcDbEntity
  8
0
  6
Continuous
 62
     7
100
AcDbCircle
 10
425.6833672024638
 20
266.0856279436039
 30
0.0
 40
1.999998505850174
100
AcDbArc
 50
269.9999571957144
 51
0.0000428042871804
  0
ARC
  5
21C
330
1F
100
AcDbEntity
  8
0
  6
Continuous
 62
     7
100
AcDbCircle
 10
385.0833642141632
 20
266.0856279436039
 30
0.0
 40
1.999998505850204
100
AcDbArc
 50
179.9999571957128
 51
270.0000428042855
  0
LINE
  5
21D
330
1F
100
AcDbEntity
  8
0
  6
Continuous
 62
     7
100
AcDbLine
 10
426.8833657083136
 20
264.4856294377542
 30
0.0
 11
426.8833657083136
 21
292.0856294377541
 31
0.0
  0
LINE
  5
21E
330
1F
100
AcDbEntity
  8
0
  6
Continuous
 62
     7
100
AcDbLine
 10
383.8833657083135
 20
292.0856294377541
 30
0.0
 11
383.8833657083135
 21
264.4856294377542
 31
0.0
  0
ARC
  5
21F
330
1F
100
AcDbEntity
  8
0
  6
Continuous
 62
     7
100
AcDbCircle
 10
425.883367202464
 20
266.0856279436039
 30
0.0
 40
1.999998505850174
100
AcDbArc
 50
269.9999571957144
 51
0.0000428042871804
  0
ARC
  5
220
330
1F
100
AcDbEntity
  8
0
  6
Continuous
 62
     7
100
AcDbCircle
 10
384.8833642141633
 20
266.0856279436039
 30
0.0
 40
1.999998505850204
100
AcDbArc
 50
179.9999571957128
 51
270.0000428042855
  0
LINE
  5
221
330
1F
100
AcDbEntity
  8
0
  6
DASHED
 62
     4
100
AcDbLine
 10
409.3833657083136
 20
254.0860874377541
 30
0.0
 11
401.3833657083136
 21
254.0860874377541
 31
0.0
  0
ARC
  5
222
330
1F
100
AcDbEntity
  8
0
  6
DASHED
 62
     4
100
AcDbCircle
 10
405.3833640317984
 20
259.0860810185211
 30
0.0
 40
2.250002636875493
100
AcDbArc
 50
26.38780699082155
 51
77.16038311050404
  0
ARC
  5
223
330
1F
100
AcDbEntity
  8
0
  6
DASHED
 62
     4
100
AcDbCircle
 10
405.3833667083137
 20
259.0860810343483
 30
0.0
 40
2.249998984729983
100
AcDbArc
 50
206.3877728940746
 51
333.6122271059253
  0
LINE
  5
224
330
1F
100
AcDbEntity
  8
0
  6
DASHED
 62
     4
100
AcDbLine
 10
408.1333637083136
 20
262.0860874377541
 30
0.0
 11
405.8833637083135
 21
262.0860874377541
 31
0.0
  0
LINE
  5
225
330
1F
100
AcDbEntity
  8
0
  6
Continuous
 62
     7
100
AcDbLine
 10
385.0833657083136
 20
264.0856294377541
 30
0.0
 11
425.6833657083135
 21
264.0856294377541
 31
0.0
  0
LINE
  5
226
330
1F
100
AcDbEntity
  8
0
  6
Continuous
 62
     7
100
AcDbLine
 10
384.8833657083135
 20
264.0856294377541
 30
0.0
 11
425.8833657083135
 21
264.0856294377541
 31
0.0
  0
LINE
  5
227
330
1F
100
AcDbEntity
  8
0
  6
DASHED
 62
     4
100
AcDbLine
 10
385.0833657083136
 20
259.0856294377541
 30
0.0
 11
397.1833657083135
 21
259.0856294377541
 31
0.0
  0
ARC
  5
228
330
1F
100
AcDbEntity
  8
0
  6
DASHED
 62
     4
100
AcDbCircle
 10
385.0833640647481
 20
261.2856277941889
 30
0.0
 40
2.199998356435187
100
AcDbArc
 50
179.9999571957128
 51
270.0000428042887
  0
LINE
  5
229
330
1F
100
AcDbEntity
  8
0
  6
DASHED
 62
     4
100
AcDbLine
 10
399.3833657083135
 20
261.2856294377541
 30
0.0
 11
397.1833657083135
 21
259.0856294377541
 31
0.0
  0
LINE
  5
22A
330
1F
100
AcDbEntity
  8
0
  6
DASHED
 62
     4
100
AcDbLine
 10
393.4333657083135
 20
259.0860874377541
 30
0.0
 11
399.3833657083135
 21
259.0860874377541
 31
0.0
  0
LINE
  5
22B
330
1F
100
AcDbEntity
  8
0
  6
DASHED
 62
     4
100
AcDbLine
 10
397.1833657083135
 20
259.0860874377541
 30
0.0
 11
392.5833657083137
 21
259.0860874377541
 31
0.0
  0
LINE
  5
22C
330
1F
100
AcDbEntity
  8
0
  6
DASHED
 62
     4
100
AcDbLine
 10
399.3833657083135
 20
256.0860874377541
 30
0.0
 11
399.3833657083135
 21
259.0860874377541
 31
0.0
  0
LINE
  5
22D
330
1F
100
AcDbEntity
  8
0
  6
DASHED
 62
     4
100
AcDbLine
 10
399.3833657083135
 20
256.0860874377541
 30
0.0
 11
401.3833657083136
 21
254.0860874377541
 31
0.0
  0
LINE
  5
22E
330
1F
100
AcDbEntity
  8
0
  6
DASHED
 62
     4
100
AcDbLine
 10
401.3833657083136
 20
258.0860824377541
 30
0.0
 11
403.3678027083135
 21
258.0860824377541
 31
0.0
  0
LINE
  5
22F
330
1F
100
AcDbEntity
  8
0
  6
DASHED
 62
     4
100
AcDbLine
 10
401.3833667083137
 20
260.0860824377541
 30
0.0
 11
403.3678027083135
 21
260.0860824377541
 31
0.0
  0
ARC
  5
230
330
1F
100
AcDbEntity
  8
0
  6
DASHED
 62
     4
100
AcDbCircle
 10
402.6333633347761
 20
262.5860870642166
 30
0.0
 40
0.4999996264625369
100
AcDbArc
 50
179.9999571957112
 51
270.0000428042887
  0
LINE
  5
231
330
1F
100
AcDbEntity
  8
0
  6
DASHED
 62
     4
100
AcDbLine
 10
399.6333637083136
 20
262.0860874377541
 30
0.0
 11
402.6333637083136
 21
262.0860874377541
 31
0.0
  0
LINE
  5
232
330
1F
100
AcDbEntity
  8
0
  6
DASHED
 62
     4
100
AcDbLine
 10
402.1333657083136
 20
262.5860874377541
 30
0.0
 11
402.1333657083136
 21
264.0856294377541
 31
0.0
  0
LINE
  5
233
330
1F
100
AcDbEntity
  8
0
  6
DASHED
 62
     4
100
AcDbLine
 10
399.6333637083136
 20
262.0860874377541
 30
0.0
 11
399.3833657083135
 21
262.0860874377541
 31
0.0
  0
LINE
  5
234
330
1F
100
AcDbEntity
  8
0
  6
DASHED
 62
     4
100
AcDbLine
 10
399.3833657083135
 20
261.2856294377541
 30
0.0
 11
399.3833657083135
 21
264.0856294377541
 31
0.0
  0
LINE
  5
235
330
1F
100
AcDbEntity
  8
0
  6
DASHED
 62
     4
100
AcDbLine
 10
400.6333657083136
 20
264.0860874377541
 30
0.0
 11
400.6333657083136
 21
263.0860874377541
 31
0.0
  0
LINE
  5
236
330
1F
100
AcDbEntity
  8
0
  6
DASHED
 62
     4
100
AcDbLine
 10
401.3833667083137
 20
260.0860824377541
 30
0.0
 11
401.3833657083136
 21
258.0860824377541
 31
0.0
  0
ARC
  5
237
330
1F
100
AcDbEntity
  8
0
  6
DASHED
 62
     4
100
AcDbCircle
 10
399.6333644553887
 20
263.086086690679
 30
0.0
 40
0.9999992529251022
100
AcDbArc
 50
269.9999571957144
 51
0.0000428042871804
  0
LINE
  5
238
330
1F
100
AcDbEntity
  8
0
  6
DASHED
 62
     4
100
AcDbLine
 10
399.3833657083135
 20
262.0860874377541
 30
0.0
 11
399.3833657083135
 21
264.0860874377541
 31
0.0
  0
ARC
  5
239
330
1F
100
AcDbEntity
  8
0
  6
DASHED
 62
     4
100
AcDbCircle
 10
405.3833673311803
 20
259.0860826258176
 30
0.0
 40
2.25000008285018
100
AcDbArc
 50
102.8396303118256
 51
153.6122064315071
  0
LINE
  5
23A
330
1F
100
AcDbEntity
  8
0
  6
DASHED
 62
     4
100
AcDbLine
 10
404.8833657083135
 20
262.0860874377541
 30
0.0
 11
404.8833657083135
 21
261.2798234377543
 31
0.0
  0
LINE
  5
23B
330
1F
100
AcDbEntity
  8
0
  6
DASHED
 62
     4
100
AcDbLine
 10
405.8833657083136
 20
262.0860874377541
 30
0.0
 11
405.8833657083136
 21
261.2798244377541
 31
0.0
  0
LINE
  5
23C
330
1F
100
AcDbEntity
  8
0
  6
DASHED
 62
     4
100
AcDbLine
 10
404.8833637083136
 20
262.0860874377541
 30
0.0
 11
402.6333637083136
 21
262.0860874377541
 31
0.0
  0
LINE
  5
23D
330
1F
100
AcDbEntity
  8
0
  6
DASHED
 62
     4
100
AcDbLine
 10
425.6833657083135
 20
259.0860874377541
 30
0.0
 11
413.5833657083137
 21
259.0860874377541
 31
0.0
  0
LINE
  5
23E
330
1F
100
AcDbEntity
  8
0
  6
DASHED
 62
     4
100
AcDbLine
 10
413.5833657083137
 20
259.0856294377541
 30
0.0
 11
418.1833657083135
 21
259.0856294377541
 31
0.0
  0
LINE
  5
23F
330
1F
100
AcDbEntity
  8
0
  6
DASHED
 62
     4
100
AcDbLine
 10
411.3833657083135
 20
259.0860874377541
 30
0.0
 11
417.3333657083135
 21
259.0860874377541
 31
0.0
  0
LINE
  5
240
330
1F
100
AcDbEntity
  8
0
  6
DASHED
 62
     4
100
AcDbLine
 10
411.3833657083135
 20
259.0860874377541
 30
0.0
 11
411.3833657083135
 21
256.0860874377541
 31
0.0
  0
LINE
  5
241
330
1F
100
AcDbEntity
  8
0
  6
DASHED
 62
     4
100
AcDbLine
 10
411.3833657083135
 20
256.0860874377541
 30
0.0
 11
409.3833657083136
 21
254.0860874377541
 31
0.0
  0
ARC
  5
242
330
1F
100
AcDbEntity
  8
0
  6
DASHED
 62
     4
100
AcDbCircle
 10
411.1333629612383
 20
263.086086690679
 30
0.0
 40
0.9999992529251022
100
AcDbArc
 50
179.9999571957128
 51
270.0000428042855
  0
LINE
  5
243
330
1F
100
AcDbEntity
  8
0
  6
DASHED
 62
     4
100
AcDbLine
 10
408.1333637083136
 20
262.0860874377541
 30
0.0
 11
411.1333637083136
 21
262.0860874377541
 31
0.0
  0
LINE
  5
244
330
1F
100
AcDbEntity
  8
0
  6
DASHED
 62
     4
100
AcDbLine
 10
408.6333657083136
 20
264.0856294377541
 30
0.0
 11
408.6333637083136
 21
262.5860874377541
 31
0.0
  0
LINE
  5
245
330
1F
100
AcDbEntity
  8
0
  6
DASHED
 62
     4
100
AcDbLine
 10
410.1333657083135
 20
263.0860874377541
 30
0.0
 11
410.1333657083135
 21
264.0856294377541
 31
0.0
  0
LINE
  5
246
330
1F
100
AcDbEntity
  8
0
  6
DASHED
 62
     4
100
AcDbLine
 10
409.3833657083136
 20
260.0860824377541
 30
0.0
 11
409.3833657083136
 21
258.0860824377541
 31
0.0
  0
LINE
  5
247
330
1F
100
AcDbEntity
  8
0
  6
DASHED
 62
     4
100
AcDbLine
 10
407.3989307083135
 20
258.0860824377541
 30
0.0
 11
409.3833657083136
 21
258.0860824377541
 31
0.0
  0
LINE
  5
248
330
1F
100
AcDbEntity
  8
0
  6
DASHED
 62
     4
100
AcDbLine
 10
407.3989307083135
 20
260.0860824377541
 30
0.0
 11
409.3833657083136
 21
260.0860824377541
 31
0.0
  0
ARC
  5
249
330
1F
100
AcDbEntity
  8
0
  6
DASHED
 62
     4
100
AcDbCircle
 10
408.1333640818511
 20
262.5860870642166
 30
0.0
 40
0.4999996264625369
100
AcDbArc
 50
269.9999571957111
 51
0.0000428042888088
  0
LINE
  5
24A
330
1F
100
AcDbEntity
  8
0
  6
DASHED
 62
     4
100
AcDbLine
 10
411.3833657083135
 20
262.0860874377541
 30
0.0
 11
411.1333637083136
 21
262.0860874377541
 31
0.0
  0
LINE
  5
24B
330
1F
100
AcDbEntity
  8
0
  6
DASHED
 62
     4
100
AcDbLine
 10
411.3833657083135
 20
261.2856294377541
 30
0.0
 11
413.5833657083137
 21
259.0856294377541
 31
0.0
  0
LINE
  5
24C
330
1F
100
AcDbEntity
  8
0
  6
DASHED
 62
     4
100
AcDbLine
 10
411.3833657083135
 20
261.2856294377541
 30
0.0
 11
411.3833657083135
 21
264.0856294377541
 31
0.0
  0
LINE
  5
24D
330
1F
100
AcDbEntity
  8
0
  6
DASHED
 62
     4
100
AcDbLine
 10
411.3833657083135
 20
262.0860874377541
 30
0.0
 11
411.3833657083135
 21
264.0860874377541
 31
0.0
  0
ARC
  5
24E
330
1F
100
AcDbEntity
  8
0
  6
DASHED
 62
     4
100
AcDbCircle
 10
425.6833673518791
 20
261.2856277941889
 30
0.0
 40
2.199998356435187
100
AcDbArc
 50
269.9999571957111
 51
0.0000428042871804
  0
ARC
  5
24F
330
1F
100
AcDbEntity
  8
0
  6
DASHED
 62
     4
100
AcDbCircle
 10
405.3863352062506
 20
281.3428165387532
 30
0.0
 40
2.25
100
AcDbArc
 50
0.0
 51
180.0
  0
ARC
  5
250
330
1F
100
AcDbEntity
  8
0
  6
DASHED
 62
     4
100
AcDbCircle
 10
405.3863352062506
 20
278.3428165387531
 30
0.0
 40
2.25
100
AcDbArc
 50
180.0
 51
0.0
  0
CIRCLE
  5
251
330
1F
100
AcDbEntity
  8
0
  6
DASHED
 62
     4
100
AcDbCircle
 10
405.3863369178503
 20
327.8428162503526
 30
0.0
 40
2.250000288400404
  0
LINE
  5
252
330
1F
100
AcDbEntity
  8
0
  6
Continuous
 62
     7
100
AcDbLine
 10
414.3833677083136
 20
316.0856244377541
 30
0.0
 11
396.3833677083137
 21
316.0856244377541
 31
0.0
  0
LINE
  5
253
330
1F
100
AcDbEntity
  8
0
  6
Continuous
 62
     7
100
AcDbLine
 10
396.3833677083137
 20
313.0856244377541
 30
0.0
 11
414.3833677083136
 21
313.0856244377541
 31
0.0
  0
LINE
  5
254
330
1F
100
AcDbEntity
  8
0
  6
Continuous
 62
     7
100
AcDbLine
 10
385.9839167083137
 20
285.5856294377541
 30
0.0
 11
424.7828137083137
 21
285.5856294377541
 31
0.0
  0
LINE
  5
255
330
1F
100
AcDbEntity
  8
0
  6
Continuous
 62
     7
100
AcDbLine
 10
424.7833647083137
 20
287.0856294377541
 30
0.0
 11
385.9833657083136
 21
287.0856294377541
 31
0.0
  0
LINE
  5
256
330
1F
100
AcDbEntity
  8
0
  6
Continuous
 62
     7
100
AcDbLine
 10
424.7828137083137
 20
322.5856294377541
 30
0.0
 11
385.9839167083137
 21
322.5856294377541
 31
0.0
  0
LINE
  5
257
330
1F
100
AcDbEntity
  8
0
  6
Continuous
 62
     7
100
AcDbLine
 10
385.9833657083136
 20
321.0856294377541
 30
0.0
 11
424.7833647083137
 21
321.0856294377541
 31
0.0
  0
LINE
  5
258
330
1F
100
AcDbEntity
  8
0
  6
Continuous
 62
     7
100
AcDbLine
 10
425.7833657083136
 20
287.0856294377541
 30
0.0
 11
384.9833657083136
 21
287.0856294377541
 31
0.0
  0
LINE
  5
259
330
1F
100
AcDbEntity
  8
0
  6
Continuous
 62
     7
100
AcDbLine
 10
384.9833657083136
 20
321.0856294377541
 30
0.0
 11
425.7833657083136
 21
321.0856294377541
 31
0.0
  0
LINE
  5
25A
330
1F
100
AcDbEntity
  8
0
  6
Continuous
 62
     7
100
AcDbLine
 10
397.8833677083136
 20
294.5856344377541
 30
0.0
 11
412.8833677083137
 21
294.5856344377541
 31
0.0
  0
LINE
  5
25B
330
1F
100
AcDbEntity
  8
0
  6
Continuous
 62
     7
100
AcDbLine
 10
397.8833677083136
 20
292.5856344377541
 30
0.0
 11
412.8833677083137
 21
292.5856344377541
 31
0.0
  0
LINE
  5
25C
330
1F
100
AcDbEntity
  8
0
  6
Continuous
 62
     7
100
AcDbLine
 10
414.3833677083136
 20
292.0856344377541
 30
0.0
 11
396.3833677083137
 21
292.0856344377541
 31
0.0
  0
LINE
  5
25D
330
1F
100
AcDbEntity
  8
0
  6
Continuous
 62
     7
100
AcDbLine
 10
396.3833677083137
 20
295.0856344377541
 30
0.0
 11
414.3833677083136
 21
295.0856344377541
 31
0.0
  0
LINE
  5
25E
330
1F
100
AcDbEntity
  8
0
  6
Continuous
 62
     7
100
AcDbLine
 10
382.8833657083136
 20
292.1356294377541
 30
0.0
 11
382.8833657083136
 21
316.0356294377541
 31
0.0
  0
LINE
  5
25F
330
1F
100
AcDbEntity
  8
0
  6
Continuous
 62
     7
100
AcDbLine
 10
383.8833657083135
 20
294.0856294377541
 30
0.0
 11
383.8833657083135
 21
314.0856294377541
 31
0.0
  0
LINE
  5
260
330
1F
100
AcDbEntity
  8
0
  6
Continuous
 62
     7
100
AcDbLine
 10
383.0833657083136
 20
292.0856294377541
 30
0.0
 11
383.0833657083136
 21
266.0856294377541
 31
0.0
  0
LINE
  5
261
330
1F
100
AcDbEntity
  8
0
  6
Continuous
 62
     7
100
AcDbLine
 10
382.8833657083136
 20
292.0856294377541
 30
0.0
 11
382.8833657083136
 21
266.0856294377541
 31
0.0
  0
LINE
  5
262
330
1F
100
AcDbEntity
  8
0
  6
Continuous
 62
     7
100
AcDbLine
 10
384.9833657083136
 20
292.0856294377541
 30
0.0
 11
384.9833657083136
 21
283.5809884377541
 31
0.0
  0
LINE
  5
263
330
1F
100
AcDbEntity
  8
0
  6
Continuous
 62
     7
 48
2.0
100
AcDbLine
 10
384.9833657083136
 20
294.0856294377541
 30
0.0
 11
384.9833657083136
 21
287.0856294377541
 31
0.0
  0
ARC
  5
264
330
1F
100
AcDbEntity
  8
0
  6
Continuous
 62
     7
100
AcDbCircle
 10
385.4833660248601
 20
283.5809887205611
 30
0.0
 40
0.5000003165465988
100
AcDbArc
 50
180.0000324072747
 51
270.0210485604451
  0
ARC
  5
265
330
1F
100
AcDbEntity
  8
0
  6
Continuous
 62
     7
100
AcDbCircle
 10
385.4868660819887
 20
283.5809890643541
 30
0.0
 40
0.4999996603184966
100
AcDbArc
 50
270.0210420416206
 51
0.0211276501942712
  0
LINE
  5
266
330
1F
100
AcDbEntity
  8
0
  6
Continuous
 62
     7
100
AcDbLine
 10
385.9846727083136
 20
283.5342144377542
 30
0.0
 11
385.9833657083136
 21
287.0811724377541
 31
0.0
  0
LINE
  5
267
330
1F
100
AcDbEntity
  8
0
  6
Continuous
 62
     7
100
AcDbLine
 10
384.9833657083136
 20
292.0856294377541
 30
0.0
 11
383.0833657083136
 21
292.0856294377541
 31
0.0
  0
LINE
  5
268
330
1F
100
AcDbEntity
  8
0
  6
Continuous
 62
     7
100
AcDbLine
 10
382.8833657083136
 20
294.0856294377541
 30
0.0
 11
384.9833657083136
 21
294.0856294377541
 31
0.0
  0
LINE
  5
269
330
1F
100
AcDbEntity
  8
0
  6
Continuous
 62
     7
100
AcDbLine
 10
384.7833657083135
 20
292.0856294377541
 30
0.0
 11
382.8833657083136
 21
292.0856294377541
 31
0.0
  0
LINE
  5
26A
330
1F
100
AcDbEntity
  8
0
  6
Continuous
 62
     7
 48
2.0
100
AcDbLine
 10
397.1146157083137
 20
269.3543754377541
 30
0.0
 11
399.5864907083136
 21
269.3543754377541
 31
0.0
  0
LINE
  5
26B
330
1F
100
AcDbEntity
  8
0
  6
Continuous
 62
     7
 48
2.0
100
AcDbLine
 10
397.1146157083137
 20
270.3168754377541
 30
0.0
 11
399.5864907083136
 21
270.3168754377541
 31
0.0
  0
LINE
  5
26C
330
1F
100
AcDbEntity
  8
0
  6
DASHED
 62
     4
 48
2.0
100
AcDbLine
 10
400.2208657083135
 20
265.8106254377542
 30
0.0
 11
393.0458657083136
 21
265.8106254377542
 31
0.0
  0
CIRCLE
  5
26D
330
1F
100
AcDbEntity
  8
0
100
AcDbCircle
 10
396.6333671363079
 20
269.8356318657486
 30
0.0
 40
3.249997572006547
  0
CIRCLE
  5
26E
330
1F
100
AcDbEntity
  8
0
100
AcDbCircle
 10
396.6333671363079
 20
269.8356318657486
 30
0.0
 40
2.953118572005937
  0
LINE
  5
26F
330
1F
100
AcDbEntity
  8
0
  6
DASHED
 62
     4
 48
2.0
100
AcDbLine
 10
393.0458657083136
 20
273.8606254377541
 30
0.0
 11
400.2208657083135
 21
273.8606254377541
 31
0.0
  0
LINE
  5
270
330
1F
100
AcDbEntity
  8
0
  6
Continuous
 62
     7
 48
2.0
100
AcDbLine
 10
393.6802407083136
 20
269.3543754377541
 30
0.0
 11
396.1521157083136
 21
269.3543754377541
 31
0.0
  0
LINE
  5
271
330
1F
100
AcDbEntity
  8
0
  6
Continuous
 62
     7
 48
2.0
100
AcDbLine
 10
393.6802407083136
 20
270.3168754377541
 30
0.0
 11
396.1521157083136
 21
270.3168754377541
 31
0.0
  0
LINE
  5
272
330
1F
100
AcDbEntity
  8
0
100
AcDbLine
 10
393.4416013231804
 20
270.4481254377542
 30
0.0
 11
393.7444577083135
 21
270.4481254377542
 31
0.0
  0
LINE
  5
273
330
1F
100
AcDbEntity
  8
0
100
AcDbLine
 10
393.4416026984994
 20
269.2231254377541
 30
0.0
 11
393.7444577083135
 21
269.2231254377541
 31
0.0
  0
LINE
  5
274
330
1F
100
AcDbEntity
  8
0
  6
DASHED
 62
     4
 48
2.0
100
AcDbLine
 10
392.6083657083136
 20
269.2231254377541
 30
0.0
 11
392.6083657083136
 21
270.4481254377542
 31
0.0
  0
LINE
  5
275
330
1F
100
AcDbEntity
  8
0
  6
DASHED
 62
     4
 48
2.0
100
AcDbLine
 10
392.6083657083136
 20
270.4481254377542
 30
0.0
 11
393.4416013231804
 21
270.4481254377542
 31
0.0
  0
LINE
  5
276
330
1F
100
AcDbEntity
  8
0
  6
DASHED
 62
     4
 48
2.0
100
AcDbLine
 10
393.4416026984994
 20
269.2231254377541
 30
0.0
 11
392.6083657083136
 21
269.2231254377541
 31
0.0
  0
ARC
  5
277
330
1F
100
AcDbEntity
  8
0
  6
DASHED
 62
     4
 48
2.0
100
AcDbCircle
 10
393.0458653814682
 20
273.4231257645995
 30
0.0
 40
0.4374996731547269
100
AcDbArc
 50
89.99995719571119
 51
180.0000428042871
  0
ARC
  5
278
330
1F
100
AcDbEntity
  8
0
  6
DASHED
 62
     4
 48
2.0
100
AcDbCircle
 10
393.0458653814682
 20
266.2481251109088
 30
0.0
 40
0.4374996731547269
100
AcDbArc
 50
179.9999571957128
 51
270.0000428042855
  0
LINE
  5
279
330
1F
100
AcDbEntity
  8
0
  6
DASHED
 62
     4
 48
2.0
100
AcDbLine
 10
392.6083657083136
 20
266.2481254377542
 30
0.0
 11
392.6083657083136
 21
273.4231254377541
 31
0.0
  0
LINE
  5
27A
330
1F
100
AcDbEntity
  8
0
100
AcDbLine
 10
396.0208657083136
 20
273.0273915739146
 30
0.0
 11
396.0208657083136
 21
272.7245344377541
 31
0.0
  0
LINE
  5
27B
330
1F
100
AcDbEntity
  8
0
100
AcDbLine
 10
397.2458657083135
 20
273.0273915242034
 30
0.0
 11
397.2458657083135
 21
272.7245344377541
 31
0.0
  0
LINE
  5
27C
330
1F
100
AcDbEntity
  8
0
  6
Continuous
 62
     7
 48
2.0
100
AcDbLine
 10
396.1521157083136
 20
270.3168754377541
 30
0.0
 11
396.1521157083136
 21
271.4981254377542
 31
0.0
  0
LINE
  5
27D
330
1F
100
AcDbEntity
  8
0
  6
Continuous
 62
     7
 48
2.0
100
AcDbLine
 10
397.1146157083137
 20
268.1731254377541
 30
0.0
 11
397.1146157083137
 21
269.3543754377541
 31
0.0
  0
LINE
  5
27E
330
1F
100
AcDbEntity
  8
0
  6
Continuous
 62
     7
 48
2.0
100
AcDbLine
 10
397.1146157083137
 20
270.3168754377541
 30
0.0
 11
397.1146157083137
 21
271.4981254377542
 31
0.0
  0
LINE
  5
27F
330
1F
100
AcDbEntity
  8
0
  6
Continuous
 62
     7
 48
2.0
100
AcDbLine
 10
396.1521157083136
 20
268.1731254377541
 30
0.0
 11
397.1146157083137
 21
268.1731254377541
 31
0.0
  0
LINE
  5
280
330
1F
100
AcDbEntity
  8
0
  6
Continuous
 62
     7
 48
2.0
100
AcDbLine
 10
396.1521157083136
 20
271.4981254377542
 30
0.0
 11
397.1146157083137
 21
271.4981254377542
 31
0.0
  0
LINE
  5
281
330
1F
100
AcDbEntity
  8
0
  6
Continuous
 62
     7
 48
2.0
100
AcDbLine
 10
396.1521157083136
 20
268.1731254377541
 30
0.0
 11
396.1521157083136
 21
269.3543754377541
 31
0.0
  0
LINE
  5
282
330
1F
100
AcDbEntity
  8
0
  6
DASHED
 62
     4
 48
2.0
100
AcDbLine
 10
397.2458657083135
 20
273.8606254377541
 30
0.0
 11
397.2458657083135
 21
273.0273915242034
 31
0.0
  0
LINE
  5
283
330
1F
100
AcDbEntity
  8
0
  6
DASHED
 62
     4
 48
2.0
100
AcDbLine
 10
396.0208657083136
 20
273.0273915739146
 30
0.0
 11
396.0208657083136
 21
273.8606254377541
 31
0.0
  0
LINE
  5
284
330
1F
100
AcDbEntity
  8
0
  6
DASHED
 62
     4
 48
2.0
100
AcDbLine
 10
397.2458657083135
 20
265.8106254377542
 30
0.0
 11
396.0208657083136
 21
265.8106254377542
 31
0.0
  0
LINE
  5
285
330
1F
100
AcDbEntity
  8
0
100
AcDbLine
 10
396.0208657083136
 20
266.643866468437
 30
0.0
 11
396.0208657083136
 21
266.9467174377543
 31
0.0
  0
LINE
  5
286
330
1F
100
AcDbEntity
  8
0
100
AcDbLine
 10
397.2458657083135
 20
266.6438670121205
 30
0.0
 11
397.2458657083135
 21
266.9467174377543
 31
0.0
  0
LINE
  5
287
330
1F
100
AcDbEntity
  8
0
  6
DASHED
 62
     4
 48
2.0
100
AcDbLine
 10
396.0208657083136
 20
265.8106254377542
 30
0.0
 11
396.0208657083136
 21
266.643866468437
 31
0.0
  0
LINE
  5
288
330
1F
100
AcDbEntity
  8
0
  6
DASHED
 62
     4
 48
2.0
100
AcDbLine
 10
397.2458657083135
 20
266.6438670121205
 30
0.0
 11
397.2458657083135
 21
265.8106254377542
 31
0.0
  0
LINE
  5
289
330
1F
100
AcDbEntity
  8
0
  6
DASHED
 62
     4
 48
2.0
100
AcDbLine
 10
396.0208657083136
 20
273.8606254377541
 30
0.0
 11
397.2458657083135
 21
273.8606254377541
 31
0.0
  0
LINE
  5
28A
330
1F
100
AcDbEntity
  8
0
  6
DASHED
 62
     4
 48
2.0
100
AcDbLine
 10
400.6583657083137
 20
270.4481254377542
 30
0.0
 11
400.6583657083137
 21
269.2231254377541
 31
0.0
  0
LINE
  5
28B
330
1F
100
AcDbEntity
  8
0
100
AcDbLine
 10
399.8251277542585
 20
270.4481254377542
 30
0.0
 11
399.5222747083135
 21
270.4481254377542
 31
0.0
  0
LINE
  5
28C
330
1F
100
AcDbEntity
  8
0
100
AcDbLine
 10
399.8251258849709
 20
269.2231254377541
 30
0.0
 11
399.5222747083135
 21
269.2231254377541
 31
0.0
  0
LINE
  5
28D
330
1F
100
AcDbEntity
  8
0
  6
DASHED
 62
     4
 48
2.0
100
AcDbLine
 10
399.8251277542585
 20
270.4481254377542
 30
0.0
 11
400.6583657083137
 21
270.4481254377542
 31
0.0
  0
LINE
  5
28E
330
1F
100
AcDbEntity
  8
0
  6
DASHED
 62
     4
 48
2.0
100
AcDbLine
 10
400.6583657083137
 20
269.2231254377541
 30
0.0
 11
399.8251258849709
 21
269.2231254377541
 31
0.0
  0
ARC
  5
28F
330
1F
100
AcDbEntity
  8
0
  6
DASHED
 62
     4
 48
2.0
100
AcDbCircle
 10
400.2208660351589
 20
273.4231257645995
 30
0.0
 40
0.4374996731547269
100
AcDbArc
 50
359.9999571957126
 51
90.00004280428553
  0
ARC
  5
290
330
1F
100
AcDbEntity
  8
0
  6
DASHED
 62
     4
 48
2.0
100
AcDbCircle
 10
400.2208660351589
 20
266.2481251109088
 30
0.0
 40
0.4374996731547269
100
AcDbArc
 50
269.9999571957111
 51
0.0000428042871804
  0
LINE
  5
291
330
1F
100
AcDbEntity
  8
0
  6
DASHED
 62
     4
 48
2.0
100
AcDbLine
 10
400.6583657083137
 20
273.4231254377541
 30
0.0
 11
400.6583657083137
 21
266.2481254377542
 31
0.0
  0
LINE
  5
292
330
1F
100
AcDbEntity
  8
0
  6
DASHED
 62
     4
100
AcDbLine
 10
403.1363352062506
 20
281.3428165387532
 30
0.0
 11
403.1363352062506
 21
278.3428165387531
 31
0.0
  0
LINE
  5
293
330
1F
100
AcDbEntity
  8
0
  6
Continuous
 62
     7
100
AcDbLine
 10
396.3833677083137
 20
292.0856344377541
 30
0.0
 11
396.3833677083137
 21
295.0856344377541
 31
0.0
  0
LINE
  5
294
330
1F
100
AcDbEntity
  8
0
  6
Continuous
 62
     7
100
AcDbLine
 10
397.8833677083136
 20
292.5856344377541
 30
0.0
 11
397.8833677083136
 21
294.5856344377541
 31
0.0
  0
LINE
  5
295
330
1F
100
AcDbEntity
  8
0
  6
DASHED
 62
     4
 48
2.0
100
AcDbLine
 10
399.6827657083136
 20
329.8862324377541
 30
0.0
 11
388.6839657083135
 21
329.8862324377541
 31
0.0
  0
LINE
  5
296
330
1F
100
AcDbEntity
  8
0
  6
Continuous
 62
     7
100
AcDbLine
 10
384.9833657083136
 20
316.0856294377541
 30
0.0
 11
384.9833657083136
 21
324.5902704377541
 31
0.0
  0
LINE
  5
297
330
1F
100
AcDbEntity
  8
0
  6
Continuous
 62
     7
 48
2.0
100
AcDbLine
 10
384.9833657083136
 20
314.0856294377541
 30
0.0
 11
384.9833657083136
 21
321.0856294377541
 31
0.0
  0
LINE
  5
298
330
1F
100
AcDbEntity
  8
0
  6
Continuous
 62
     7
100
AcDbLine
 10
383.0833657083136
 20
316.0856294377541
 30
0.0
 11
384.9833657083136
 21
316.0856294377541
 31
0.0
  0
LINE
  5
299
330
1F
100
AcDbEntity
  8
0
  6
Continuous
 62
     7
100
AcDbLine
 10
382.8833657083136
 20
316.0356294377541
 30
0.0
 11
384.7833657083135
 21
316.0356294377541
 31
0.0
  0
LINE
  5
29A
330
1F
100
AcDbEntity
  8
0
  6
Continuous
 62
     7
100
AcDbLine
 10
382.8833657083136
 20
314.0856294377541
 30
0.0
 11
384.9833657083136
 21
314.0856294377541
 31
0.0
  0
ARC
  5
29B
330
1F
100
AcDbEntity
  8
0
  6
Continuous
 62
     7
100
AcDbCircle
 10
385.4833660248601
 20
324.5902701549471
 30
0.0
 40
0.5000003165465988
100
AcDbArc
 50
89.97895143955476
 51
179.9999675927251
  0
ARC
  5
29C
330
1F
100
AcDbEntity
  8
0
  6
Continuous
 62
     7
100
AcDbCircle
 10
385.4868655819893
 20
324.5902693111543
 30
0.0
 40
0.5000001605023458
100
AcDbArc
 50
359.9788150751726
 51
89.97890068374962
  0
LINE
  5
29D
330
1F
100
AcDbEntity
  8
0
  6
Continuous
 62
     7
100
AcDbLine
 10
385.9846727083136
 20
324.6370444377542
 30
0.0
 11
385.9833657083136
 21
321.0900864377541
 31
0.0
  0
ARC
  5
29E
330
1F
100
AcDbEntity
  8
0
  6
DASHED
 62
     4
 48
2.0
100
AcDbCircle
 10
388.6839653347758
 20
330.3862320642164
 30
0.0
 40
0.4999996264625369
100
AcDbArc
 50
179.9999571957144
 51
270.0000428042887
  0
LINE
  5
29F
330
1F
100
AcDbEntity
  8
0
  6
Continuous
 62
     7
100
AcDbLine
 10
396.3833677083137
 20
316.0856244377541
 30
0.0
 11
396.3833677083137
 21
313.0856244377541
 31
0.0
  0
LINE
  5
2A0
330
1F
100
AcDbEntity
  8
0
  6
DASHED
 62
     4
 48
2.0
100
AcDbLine
 10
394.1859877083133
 20
331.5214064377542
 30
0.0
 11
394.1859877083133
 21
331.5214064377542
 31
0.0
  0
LINE
  5
2A1
330
1F
100
AcDbEntity
  8
0
  6
DASHED
 62
     4
 48
2.0
100
AcDbLine
 10
393.2460637083134
 20
331.6243980831088
 30
0.0
 11
393.2460637083135
 21
329.8862324377541
 31
0.0
  0
LINE
  5
2A2
330
1F
100
AcDbEntity
  8
0
  6
DASHED
 62
     4
 48
2.0
100
AcDbLine
 10
395.1206637083135
 20
329.8862324377541
 30
0.0
 11
395.1206637083135
 21
331.6221602124513
 31
0.0
  0
ARC
  5
2A3
330
1F
100
AcDbEntity
  8
0
  6
DASHED
 62
     4
 48
2.0
100
AcDbCircle
 10
399.6827660818512
 20
330.3862320642164
 30
0.0
 40
0.4999996264625655
100
AcDbArc
 50
269.9999571957111
 51
0.0000428042855519
  0
LINE
  5
2A4
330
1F
100
AcDbEntity
  8
0
  6
Continuous
 62
     7
100
AcDbLine
 10
427.8833657083136
 20
316.0356294377541
 30
0.0
 11
427.8833657083136
 21
292.1356294377541
 31
0.0
  0
LINE
  5
2A5
330
1F
100
AcDbEntity
  8
0
  6
Continuous
 62
     7
100
AcDbLine
 10
426.8833657083136
 20
314.0856294377541
 30
0.0
 11
426.8833657083136
 21
294.0856294377541
 31
0.0
  0
CIRCLE
  5
2A6
330
1F
100
AcDbEntity
  8
0
100
AcDbCircle
 10
414.1333681363079
 20
269.8356318657486
 30
0.0
 40
2.953118572005937
  0
CIRCLE
  5
2A7
330
1F
100
AcDbEntity
  8
0
100
AcDbCircle
 10
414.1333681363079
 20
269.8356318657486
 30
0.0
 40
3.249997572006547
  0
LINE
  5
2A8
330
1F
100
AcDbEntity
  8
0
  6
Continuous
 62
     7
 48
2.0
100
AcDbLine
 10
414.6146167083135
 20
270.3168754377541
 30
0.0
 11
417.0864917083137
 21
270.3168754377541
 31
0.0
  0
LINE
  5
2A9
330
1F
100
AcDbEntity
  8
0
  6
Continuous
 62
     7
 48
2.0
100
AcDbLine
 10
414.6146167083135
 20
269.3543754377541
 30
0.0
 11
417.0864917083137
 21
269.3543754377541
 31
0.0
  0
LINE
  5
2AA
330
1F
100
AcDbEntity
  8
0
  6
DASHED
 62
     4
 48
2.0
100
AcDbLine
 10
417.7208667083136
 20
265.8106254377542
 30
0.0
 11
410.5458667083136
 21
265.8106254377542
 31
0.0
  0
LINE
  5
2AB
330
1F
100
AcDbEntity
  8
0
  6
DASHED
 62
     4
 48
2.0
100
AcDbLine
 10
410.5458667083136
 20
273.8606254377541
 30
0.0
 11
417.7208667083136
 21
273.8606254377541
 31
0.0
  0
LINE
  5
2AC
330
1F
100
AcDbEntity
  8
0
  6
DASHED
 62
     4
 48
2.0
100
AcDbLine
 10
410.1083667083136
 20
270.4481254377542
 30
0.0
 11
410.9416023231804
 21
270.4481254377542
 31
0.0
  0
LINE
  5
2AD
330
1F
100
AcDbEntity
  8
0
  6
DASHED
 62
     4
 48
2.0
100
AcDbLine
 10
410.9416036984995
 20
269.2231254377541
 30
0.0
 11
410.1083667083136
 21
269.2231254377541
 31
0.0
  0
LINE
  5
2AE
330
1F
100
AcDbEntity
  8
0
  6
DASHED
 62
     4
 48
2.0
100
AcDbLine
 10
410.1083667083136
 20
269.2231254377541
 30
0.0
 11
410.1083667083136
 21
270.4481254377542
 31
0.0
  0
ARC
  5
2AF
330
1F
100
AcDbEntity
  8
0
  6
DASHED
 62
     4
 48
2.0
100
AcDbCircle
 10
410.5458663814682
 20
273.4231257645995
 30
0.0
 40
0.4374996731547269
100
AcDbArc
 50
89.99995719571119
 51
180.0000428042871
  0
LINE
  5
2B0
330
1F
100
AcDbEntity
  8
0
  6
DASHED
 62
     4
 48
2.0
100
AcDbLine
 10
410.1083667083136
 20
266.2481254377542
 30
0.0
 11
410.1083667083136
 21
273.4231254377541
 31
0.0
  0
ARC
  5
2B1
330
1F
100
AcDbEntity
  8
0
  6
DASHED
 62
     4
 48
2.0
100
AcDbCircle
 10
410.5458663814682
 20
266.2481251109088
 30
0.0
 40
0.4374996731547269
100
AcDbArc
 50
179.9999571957128
 51
270.0000428042855
  0
LINE
  5
2B2
330
1F
100
AcDbEntity
  8
0
100
AcDbLine
 10
414.7458667083135
 20
266.6438670121205
 30
0.0
 11
414.7458667083135
 21
266.9467174377543
 31
0.0
  0
LINE
  5
2B3
330
1F
100
AcDbEntity
  8
0
100
AcDbLine
 10
413.5208667083135
 20
266.643866468437
 30
0.0
 11
413.5208667083135
 21
266.9467174377543
 31
0.0
  0
LINE
  5
2B4
330
1F
100
AcDbEntity
  8
0
100
AcDbLine
 10
414.7458667083135
 20
273.0273915242034
 30
0.0
 11
414.7458667083135
 21
272.7245344377541
 31
0.0
  0
LINE
  5
2B5
330
1F
100
AcDbEntity
  8
0
100
AcDbLine
 10
413.5208667083135
 20
273.0273915739146
 30
0.0
 11
413.5208667083135
 21
272.7245344377541
 31
0.0
  0
LINE
  5
2B6
330
1F
100
AcDbEntity
  8
0
100
AcDbLine
 10
410.9416036984995
 20
269.2231254377541
 30
0.0
 11
411.2444587083135
 21
269.2231254377541
 31
0.0
  0
LINE
  5
2B7
330
1F
100
AcDbEntity
  8
0
100
AcDbLine
 10
410.9416023231804
 20
270.4481254377542
 30
0.0
 11
411.2444587083135
 21
270.4481254377542
 31
0.0
  0
LINE
  5
2B8
330
1F
100
AcDbEntity
  8
0
  6
Continuous
 62
     7
 48
2.0
100
AcDbLine
 10
411.1802417083135
 20
270.3168754377541
 30
0.0
 11
413.6521167083135
 21
270.3168754377541
 31
0.0
  0
LINE
  5
2B9
330
1F
100
AcDbEntity
  8
0
  6
Continuous
 62
     7
 48
2.0
100
AcDbLine
 10
411.1802417083135
 20
269.3543754377541
 30
0.0
 11
413.6521167083135
 21
269.3543754377541
 31
0.0
  0
LINE
  5
2BA
330
1F
100
AcDbEntity
  8
0
  6
Continuous
 62
     7
 48
2.0
100
AcDbLine
 10
414.6146167083135
 20
270.3168754377541
 30
0.0
 11
414.6146167083135
 21
271.4981254377542
 31
0.0
  0
LINE
  5
2BB
330
1F
100
AcDbEntity
  8
0
  6
Continuous
 62
     7
 48
2.0
100
AcDbLine
 10
414.6146167083135
 20
268.1731254377541
 30
0.0
 11
414.6146167083135
 21
269.3543754377541
 31
0.0
  0
LINE
  5
2BC
330
1F
100
AcDbEntity
  8
0
  6
Continuous
 62
     7
 48
2.0
100
AcDbLine
 10
413.6521167083135
 20
270.3168754377541
 30
0.0
 11
413.6521167083135
 21
271.4981254377542
 31
0.0
  0
LINE
  5
2BD
330
1F
100
AcDbEntity
  8
0
  6
Continuous
 62
     7
 48
2.0
100
AcDbLine
 10
413.6521167083135
 20
268.1731254377541
 30
0.0
 11
413.6521167083135
 21
269.3543754377541
 31
0.0
  0
LINE
  5
2BE
330
1F
100
AcDbEntity
  8
0
  6
Continuous
 62
     7
 48
2.0
100
AcDbLine
 10
413.6521167083135
 20
271.4981254377542
 30
0.0
 11
414.6146167083135
 21
271.4981254377542
 31
0.0
  0
LINE
  5
2BF
330
1F
100
AcDbEntity
  8
0
  6
Continuous
 62
     7
 48
2.0
100
AcDbLine
 10
413.6521167083135
 20
268.1731254377541
 30
0.0
 11
414.6146167083135
 21
268.1731254377541
 31
0.0
  0
LINE
  5
2C0
330
1F
100
AcDbEntity
  8
0
  6
DASHED
 62
     4
 48
2.0
100
AcDbLine
 10
413.5208667083135
 20
265.8106254377542
 30
0.0
 11
413.5208667083135
 21
266.643866468437
 31
0.0
  0
LINE
  5
2C1
330
1F
100
AcDbEntity
  8
0
  6
DASHED
 62
     4
 48
2.0
100
AcDbLine
 10
414.7458667083135
 20
265.8106254377542
 30
0.0
 11
413.5208667083135
 21
265.8106254377542
 31
0.0
  0
LINE
  5
2C2
330
1F
100
AcDbEntity
  8
0
  6
DASHED
 62
     4
 48
2.0
100
AcDbLine
 10
414.7458667083135
 20
266.6438670121205
 30
0.0
 11
414.7458667083135
 21
265.8106254377542
 31
0.0
  0
LINE
  5
2C3
330
1F
100
AcDbEntity
  8
0
  6
DASHED
 62
     4
 48
2.0
100
AcDbLine
 10
414.7458667083135
 20
273.8606254377541
 30
0.0
 11
414.7458667083135
 21
273.0273915242034
 31
0.0
  0
LINE
  5
2C4
330
1F
100
AcDbEntity
  8
0
  6
DASHED
 62
     4
 48
2.0
100
AcDbLine
 10
413.5208667083135
 20
273.8606254377541
 30
0.0
 11
414.7458667083135
 21
273.8606254377541
 31
0.0
  0
LINE
  5
2C5
330
1F
100
AcDbEntity
  8
0
  6
DASHED
 62
     4
 48
2.0
100
AcDbLine
 10
413.5208667083135
 20
273.0273915739146
 30
0.0
 11
413.5208667083135
 21
273.8606254377541
 31
0.0
  0
LINE
  5
2C6
330
1F
100
AcDbEntity
  8
0
  6
DASHED
 62
     4
100
AcDbLine
 10
407.6363352062506
 20
281.3428165387532
 30
0.0
 11
407.6363352062506
 21
278.3428165387531
 31
0.0
  0
LINE
  5
2C7
330
1F
100
AcDbEntity
  8
0
100
AcDbLine
 10
417.325126884971
 20
269.2231254377541
 30
0.0
 11
417.0222757083136
 21
269.2231254377541
 31
0.0
  0
LINE
  5
2C8
330
1F
100
AcDbEntity
  8
0
100
AcDbLine
 10
417.3251287542583
 20
270.4481254377542
 30
0.0
 11
417.0222757083136
 21
270.4481254377542
 31
0.0
  0
LINE
  5
2C9
330
1F
100
AcDbEntity
  8
0
  6
DASHED
 62
     4
 48
2.0
100
AcDbLine
 10
418.1583667083137
 20
269.2231254377541
 30
0.0
 11
417.325126884971
 21
269.2231254377541
 31
0.0
  0
LINE
  5
2CA
330
1F
100
AcDbEntity
  8
0
  6
DASHED
 62
     4
 48
2.0
100
AcDbLine
 10
418.1583667083137
 20
270.4481254377542
 30
0.0
 11
418.1583667083137
 21
269.2231254377541
 31
0.0
  0
LINE
  5
2CB
330
1F
100
AcDbEntity
  8
0
  6
DASHED
 62
     4
 48
2.0
100
AcDbLine
 10
417.3251287542583
 20
270.4481254377542
 30
0.0
 11
418.1583667083137
 21
270.4481254377542
 31
0.0
  0
ARC
  5
2CC
330
1F
100
AcDbEntity
  8
0
  6
DASHED
 62
     4
 48
2.0
100
AcDbCircle
 10
417.7208670351591
 20
266.2481251109088
 30
0.0
 40
0.4374996731547269
100
AcDbArc
 50
269.9999571957111
 51
0.0000428042871804
  0
LINE
  5
2CD
330
1F
100
AcDbEntity
  8
0
  6
DASHED
 62
     4
 48
2.0
100
AcDbLine
 10
418.1583667083137
 20
273.4231254377541
 30
0.0
 11
418.1583667083137
 21
266.2481254377542
 31
0.0
  0
ARC
  5
2CE
330
1F
100
AcDbEntity
  8
0
  6
DASHED
 62
     4
 48
2.0
100
AcDbCircle
 10
417.7208670351591
 20
273.4231257645995
 30
0.0
 40
0.4374996731547269
100
AcDbArc
 50
359.9999571957126
 51
90.00004280428553
  0
LINE
  5
2CF
330
1F
100
AcDbEntity
  8
0
  6
Continuous
 62
     7
100
AcDbLine
 10
414.3833677083136
 20
295.0856344377541
 30
0.0
 11
414.3833677083136
 21
292.0856344377541
 31
0.0
  0
LINE
  5
2D0
330
1F
100
AcDbEntity
  8
0
  6
Continuous
 62
     7
100
AcDbLine
 10
412.8833677083137
 20
294.5856344377541
 30
0.0
 11
412.8833677083137
 21
292.5856344377541
 31
0.0
  0
LINE
  5
2D1
330
1F
100
AcDbEntity
  8
0
  6
Continuous
 62
     7
100
AcDbLine
 10
427.6833657083137
 20
266.0856294377541
 30
0.0
 11
427.6833657083137
 21
292.0856294377541
 31
0.0
  0
LINE
  5
2D2
330
1F
100
AcDbEntity
  8
0
  6
Continuous
 62
     7
100
AcDbLine
 10
427.8833657083136
 20
266.0856294377541
 30
0.0
 11
427.8833657083136
 21
292.0856294377541
 31
0.0
  0
LINE
  5
2D3
330
1F
100
AcDbEntity
  8
0
  6
Continuous
 62
     7
100
AcDbLine
 10
425.7833657083136
 20
292.0856294377541
 30
0.0
 11
425.7833657083136
 21
283.5809884377541
 31
0.0
  0
LINE
  5
2D4
330
1F
100
AcDbEntity
  8
0
  6
Continuous
 62
     7
 48
2.0
100
AcDbLine
 10
425.7833657083136
 20
294.0856294377541
 30
0.0
 11
425.7833657083136
 21
287.0856294377541
 31
0.0
  0
ARC
  5
2D5
330
1F
100
AcDbEntity
  8
0
  6
Continuous
 62
     7
100
AcDbCircle
 10
425.2833648917669
 20
283.580989220378
 30
0.0
 40
0.5000008165471486
100
AcDbArc
 50
269.9788941649087
 51
359.9999103180813
  0
ARC
  5
2D6
330
1F
100
AcDbEntity
  8
0
  6
Continuous
 62
     7
100
AcDbCircle
 10
425.2798648346385
 20
283.5809885643548
 30
0.0
 40
0.4999991605031552
100
AcDbArc
 50
179.97881503289
 51
269.9789006414654
  0
LINE
  5
2D7
330
1F
100
AcDbEntity
  8
0
  6
Continuous
 62
     7
100
AcDbLine
 10
424.7820577083135
 20
283.5342144377542
 30
0.0
 11
424.7833647083137
 21
287.0811724377541
 31
0.0
  0
LINE
  5
2D8
330
1F
100
AcDbEntity
  8
0
  6
Continuous
 62
     7
100
AcDbLine
 10
427.6833657083137
 20
292.0856294377541
 30
0.0
 11
425.7833657083136
 21
292.0856294377541
 31
0.0
  0
LINE
  5
2D9
330
1F
100
AcDbEntity
  8
0
  6
Continuous
 62
     7
100
AcDbLine
 10
427.8833657083136
 20
292.1356294377541
 30
0.0
 11
425.9833657083136
 21
292.1356294377541
 31
0.0
  0
LINE
  5
2DA
330
1F
100
AcDbEntity
  8
0
  6
Continuous
 62
     7
100
AcDbLine
 10
427.8833657083136
 20
294.0856294377541
 30
0.0
 11
425.7833657083136
 21
294.0856294377541
 31
0.0
  0
LINE
  5
2DB
330
1F
100
AcDbEntity
  8
0
  6
Continuous
 62
     7
100
AcDbLine
 10
414.3833677083136
 20
313.0856244377541
 30
0.0
 11
414.3833677083136
 21
316.0856244377541
 31
0.0
  0
LINE
  5
2DC
330
1F
100
AcDbEntity
  8
0
  6
DASHED
 62
     4
 48
2.0
100
AcDbLine
 10
422.0827657083137
 20
329.8862324377541
 30
0.0
 11
411.0839657083135
 21
329.8862324377541
 31
0.0
  0
ARC
  5
2DD
330
1F
100
AcDbEntity
  8
0
  6
DASHED
 62
     4
 48
2.0
100
AcDbCircle
 10
411.083965334776
 20
330.3862320642164
 30
0.0
 40
0.4999996264625369
100
AcDbArc
 50
179.9999571957144
 51
270.0000428042887
  0
LINE
  5
2DE
330
1F
100
AcDbEntity
  8
0
  6
DASHED
 62
     4
 48
2.0
100
AcDbLine
 10
416.5859877083136
 20
331.5214064377542
 30
0.0
 11
416.5859877083136
 21
331.5214064377542
 31
0.0
  0
LINE
  5
2DF
330
1F
100
AcDbEntity
  8
0
  6
DASHED
 62
     4
 48
2.0
100
AcDbLine
 10
417.5206637083135
 20
329.8862324377541
 30
0.0
 11
417.5206637083135
 21
331.6221602124513
 31
0.0
  0
LINE
  5
2E0
330
1F
100
AcDbEntity
  8
0
  6
DASHED
 62
     4
 48
2.0
100
AcDbLine
 10
415.6460637083135
 20
331.6243980831088
 30
0.0
 11
415.6460637083135
 21
329.8862324377541
 31
0.0
  0
ARC
  5
2E1
330
1F
100
AcDbEntity
  8
0
  6
DASHED
 62
     4
 48
2.0
100
AcDbCircle
 10
422.0827660818513
 20
330.3862320642164
 30
0.0
 40
0.4999996264625655
100
AcDbArc
 50
269.9999571957111
 51
0.0000428042855519
  0
LINE
  5
2E2
330
1F
100
AcDbEntity
  8
0
  6
Continuous
 62
     7
100
AcDbLine
 10
425.7833657083136
 20
316.0856294377541
 30
0.0
 11
425.7833657083136
 21
324.5902704377541
 31
0.0
  0
LINE
  5
2E3
330
1F
100
AcDbEntity
  8
0
  6
Continuous
 62
     7
 48
2.0
100
AcDbLine
 10
425.7833657083136
 20
314.0856294377541
 30
0.0
 11
425.7833657083136
 21
321.0856294377541
 31
0.0
  0
LINE
  5
2E4
330
1F
100
AcDbEntity
  8
0
  6
Continuous
 62
     7
100
AcDbLine
 10
425.7833657083136
 20
316.0856294377541
 30
0.0
 11
427.6833657083137
 21
316.0856294377541
 31
0.0
  0
LINE
  5
2E5
330
1F
100
AcDbEntity
  8
0
  6
Continuous
 62
     7
100
AcDbLine
 10
425.9833657083136
 20
316.0356294377541
 30
0.0
 11
427.8833657083136
 21
316.0356294377541
 31
0.0
  0
LINE
  5
2E6
330
1F
100
AcDbEntity
  8
0
  6
Continuous
 62
     7
100
AcDbLine
 10
425.7833657083136
 20
314.0856294377541
 30
0.0
 11
427.8833657083136
 21
314.0856294377541
 31
0.0
  0
ARC
  5
2E7
330
1F
100
AcDbEntity
  8
0
  6
Continuous
 62
     7
100
AcDbCircle
 10
425.2833648917669
 20
324.5902696551306
 30
0.0
 40
0.5000008165471486
100
AcDbArc
 50
0.0000896819185782
 51
90.02110583509127
  0
ARC
  5
2E8
330
1F
100
AcDbEntity
  8
0
  6
Continuous
 62
     7
100
AcDbCircle
 10
425.2798653346377
 20
324.5902698111534
 30
0.0
 40
0.4999996606875043
100
AcDbArc
 50
90.02115663316436
 51
180.0212422417411
  0
LINE
  5
2E9
330
1F
100
AcDbEntity
  8
0
  6
Continuous
 62
     7
100
AcDbLine
 10
424.7820577083135
 20
324.6370444377542
 30
0.0
 11
424.7833647083137
 21
321.0900864377541
 31
0.0
  0
LINE
  5
2EA
330
1F
100
AcDbEntity
  8
0
  6
DASHED
 62
     4
100
AcDbLine
 10
425.6833657083135
 20
354.0856294377541
 30
0.0
 11
385.0833657083136
 21
354.0856294377541
 31
0.0
  0
CIRCLE
  5
2EB
330
1F
100
AcDbEntity
  8
0
  6
DASHED
 62
     4
100
AcDbCircle
 10
405.3826783892326
 20
349.0863017568351
 30
0.0
 40
2.249998319081469
  0
LINE
  5
2EC
330
1F
100
AcDbEntity
  8
0
  6
Continuous
 62
     7
100
AcDbLine
 10
425.6833657083135
 20
344.0856294377541
 30
0.0
 11
385.0833657083136
 21
344.0856294377541
 31
0.0
  0
LINE
  5
2ED
330
1F
100
AcDbEntity
  8
0
  6
Continuous
 62
     7
100
AcDbLine
 10
392.3833657083136
 20
344.0856294377541
 30
0.0
 11
418.3833657083136
 21
344.0856294377541
 31
0.0
  0
LINE
  5
2EE
330
1F
100
AcDbEntity
  8
0
  6
Continuous
 62
     7
 48
2.0
100
AcDbLine
 10
425.8833657083135
 20
344.0856294377541
 30
0.0
 11
384.8833657083135
 21
344.0856294377541
 31
0.0
  0
LINE
  5
2EF
330
1F
100
AcDbEntity
  8
0
  6
Continuous
 62
     4
100
AcDbLine
 10
390.5060959013939
 20
336.5977204377541
 30
0.0
 11
389.8792192310425
 21
336.5977204377541
 31
0.0
  0
LINE
  5
2F0
330
1F
100
AcDbEntity
  8
0
  6
Continuous
 62
     4
100
AcDbLine
 10
390.5072784106725
 20
335.1735394377541
 30
0.0
 11
389.8802291832991
 21
335.1735394377541
 31
0.0
  0
ARC
  5
2F1
330
1F
100
AcDbEntity
  8
0
  6
Continuous
 62
     7
100
AcDbCircle
 10
394.1884524047187
 20
335.8886887372211
 30
0.0
 40
3.749996715990556
100
AcDbArc
 50
90.04216509586825
 51
180.042250704443
  0
LINE
  5
2F2
330
1F
100
AcDbEntity
  8
0
  6
DASHED
 62
     4
 48
2.0
100
AcDbLine
 10
388.6839657083135
 20
341.8850324377541
 30
0.0
 11
399.6827657083136
 21
341.8850324377541
 31
0.0
  0
ARC
  5
2F3
330
1F
100
AcDbEntity
  8
0
  6
DASHED
 62
     4
 48
2.0
100
AcDbCircle
 10
388.6839653347758
 20
341.3850328112918
 30
0.0
 40
0.4999996264625369
100
AcDbArc
 50
89.99995719571119
 51
180.0000428042888
  0
LINE
  5
2F4
330
1F
100
AcDbEntity
  8
0
  6
DASHED
 62
     4
 48
2.0
100
AcDbLine
 10
389.9223764546558
 20
336.8229324377541
 30
0.0
 11
388.1839657083135
 21
336.8229324377541
 31
0.0
  0
LINE
  5
2F5
330
1F
100
AcDbEntity
  8
0
  6
DASHED
 62
     4
 48
2.0
100
AcDbLine
 10
388.1839657083135
 20
334.9483324377541
 30
0.0
 11
389.9237182231889
 21
334.9483324377541
 31
0.0
  0
ARC
  5
2F6
330
1F
100
AcDbEntity
  8
0
  6
Continuous
 62
     7
100
AcDbCircle
 10
385.0833642141632
 20
342.0856309319044
 30
0.0
 40
1.999998505850174
100
AcDbArc
 50
89.99995719571442
 51
180.0000428042871
  0
ARC
  5
2F7
330
1F
100
AcDbEntity
  8
0
  6
Continuous
 62
     7
100
AcDbCircle
 10
384.8833642141633
 20
342.0856309319044
 30
0.0
 40
1.999998505850174
100
AcDbArc
 50
89.99995719571442
 51
180.0000428042871
  0
ARC
  5
2F8
330
1F
100
AcDbEntity
  8
0
  6
DASHED
 62
     4
100
AcDbCircle
 10
385.0833640647481
 20
351.8856310813196
 30
0.0
 40
2.199998356435246
100
AcDbArc
 50
89.99995719571119
 51
180.0000428042871
  0
LINE
  5
2F9
330
1F
100
AcDbEntity
  8
0
  6
Continuous
 62
     4
100
AcDbLine
 10
397.8708149036299
 20
336.5977204377541
 30
0.0
 11
398.497692147627
 21
336.5977204377541
 31
0.0
  0
LINE
  5
2FA
330
1F
100
AcDbEntity
  8
0
  6
Continuous
 62
     4
100
AcDbLine
 10
397.8696329679968
 20
335.1735394377541
 30
0.0
 11
398.4966821953704
 21
335.1735394377541
 31
0.0
  0
LINE
  5
2FB
330
1F
100
AcDbEntity
  8
0
  6
DASHED
 62
     4
 48
2.0
100
AcDbLine
 10
395.1206637083135
 20
340.1552107024308
 30
0.0
 11
395.1206637083135
 21
341.8850324377541
 31
0.0
  0
LINE
  5
2FC
330
1F
100
AcDbEntity
  8
0
  6
DASHED
 62
     4
 48
2.0
100
AcDbLine
 10
393.2460637083135
 20
341.8850324377541
 30
0.0
 11
393.2460637083135
 21
340.1529728317733
 31
0.0
  0
LINE
  5
2FD
330
1F
100
AcDbEntity
  8
0
  6
Continuous
 62
     7
 48
2.0
100
AcDbLine
 10
394.8954557083135
 20
338.3455784377541
 30
0.0
 11
393.4712747083135
 21
338.3455784377541
 31
0.0
  0
LINE
  5
2FE
330
1F
100
AcDbEntity
  8
0
  6
Continuous
 62
     7
 48
2.0
100
AcDbLine
 10
394.8954557083135
 20
333.4256804377541
 30
0.0
 11
393.4712747083135
 21
333.4256804377541
 31
0.0
  0
LINE
  5
2FF
330
1F
100
AcDbEntity
  8
0
  6
Continuous
 62
     4
100
AcDbLine
 10
394.1856927083136
 20
339.6386844377541
 30
0.0
 11
394.1856927083136
 21
339.6386844377541
 31
0.0
  0
LINE
  5
300
330
1F
100
AcDbEntity
  8
0
  6
Continuous
 62
     7
 48
2.0
100
AcDbLine
 10
393.4712747083135
 20
333.4256804377541
 30
0.0
 11
393.4712747083135
 21
335.1735394377541
 31
0.0
  0
LINE
  5
301
330
1F
100
AcDbEntity
  8
0
  6
Continuous
 62
     7
 48
2.0
100
AcDbLine
 10
393.4712747083135
 20
335.1735394377541
 30
0.0
 11
390.5072784106725
 21
335.1735394377541
 31
0.0
  0
LINE
  5
302
330
1F
100
AcDbEntity
  8
0
  6
Continuous
 62
     7
 48
2.0
100
AcDbLine
 10
393.4712747083135
 20
336.5977204377541
 30
0.0
 11
390.5060959013939
 21
336.5977204377541
 31
0.0
  0
LINE
  5
303
330
1F
100
AcDbEntity
  8
0
  6
Continuous
 62
     7
 48
2.0
100
AcDbLine
 10
393.4712747083135
 20
336.5977204377541
 30
0.0
 11
393.4712747083135
 21
338.3455784377541
 31
0.0
  0
LINE
  5
304
330
1F
100
AcDbEntity
  8
0
  6
Continuous
 62
     7
 48
2.0
100
AcDbLine
 10
394.8954557083135
 20
333.4256804377541
 30
0.0
 11
394.8954557083135
 21
335.1735394377541
 31
0.0
  0
LINE
  5
305
330
1F
100
AcDbEntity
  8
0
  6
Continuous
 62
     7
 48
2.0
100
AcDbLine
 10
397.8696329679968
 20
335.1735394377541
 30
0.0
 11
394.8954557083135
 21
335.1735394377541
 31
0.0
  0
LINE
  5
306
330
1F
100
AcDbEntity
  8
0
  6
Continuous
 62
     7
 48
2.0
100
AcDbLine
 10
397.8708149036299
 20
336.5977204377541
 30
0.0
 11
394.8954557083135
 21
336.5977204377541
 31
0.0
  0
LINE
  5
307
330
1F
100
AcDbEntity
  8
0
  6
Continuous
 62
     7
 48
2.0
100
AcDbLine
 10
394.8954557083135
 20
336.5977204377541
 30
0.0
 11
394.8954557083135
 21
338.3455784377541
 31
0.0
  0
ARC
  5
308
330
1F
100
AcDbEntity
  8
0
  6
DASHED
 62
     4
 48
2.0
100
AcDbCircle
 10
399.6827660818512
 20
341.3850328112918
 30
0.0
 40
0.4999996264625369
100
AcDbArc
 50
359.9999571957112
 51
90.00004280428878
  0
LINE
  5
309
330
1F
100
AcDbEntity
  8
0
  6
DASHED
 62
     4
 48
2.0
100
AcDbLine
 10
398.4531931554806
 20
334.9483324377541
 30
0.0
 11
400.1827657083135
 21
334.9483324377541
 31
0.0
  0
LINE
  5
30A
330
1F
100
AcDbEntity
  8
0
  6
DASHED
 62
     4
 48
2.0
100
AcDbLine
 10
400.1827657083135
 20
336.8229324377541
 30
0.0
 11
398.4545349240136
 21
336.8229324377541
 31
0.0
  0
ARC
  5
30B
330
1F
100
AcDbEntity
  8
0
  6
Continuous
 62
     7
100
AcDbCircle
 10
416.5884524047188
 20
335.8886887372211
 30
0.0
 40
3.749996715990556
100
AcDbArc
 50
90.04216509586825
 51
180.042250704443
  0
LINE
  5
30C
330
1F
100
AcDbEntity
  8
0
  6
DASHED
 62
     4
 48
2.0
100
AcDbLine
 10
411.0839657083135
 20
341.8850324377541
 30
0.0
 11
422.0827657083137
 21
341.8850324377541
 31
0.0
  0
LINE
  5
30D
330
1F
100
AcDbEntity
  8
0
  6
Continuous
 62
     7
 48
2.0
100
AcDbLine
 10
415.8712747083136
 20
336.5977204377541
 30
0.0
 11
412.9060959013939
 21
336.5977204377541
 31
0.0
  0
LINE
  5
30E
330
1F
100
AcDbEntity
  8
0
  6
Continuous
 62
     7
 48
2.0
100
AcDbLine
 10
415.8712747083136
 20
335.1735394377541
 30
0.0
 11
412.9072784106726
 21
335.1735394377541
 31
0.0
  0
ARC
  5
30F
330
1F
100
AcDbEntity
  8
0
  6
DASHED
 62
     4
 48
2.0
100
AcDbCircle
 10
411.083965334776
 20
341.3850328112918
 30
0.0
 40
0.4999996264625369
100
AcDbArc
 50
89.99995719571119
 51
180.0000428042888
  0
LINE
  5
310
330
1F
100
AcDbEntity
  8
0
  6
DASHED
 62
     4
 48
2.0
100
AcDbLine
 10
410.5839657083135
 20
334.9483324377541
 30
0.0
 11
412.323718223189
 21
334.9483324377541
 31
0.0
  0
LINE
  5
311
330
1F
100
AcDbEntity
  8
0
  6
DASHED
 62
     4
 48
2.0
100
AcDbLine
 10
412.3223764546558
 20
336.8229324377541
 30
0.0
 11
410.5839657083135
 21
336.8229324377541
 31
0.0
  0
LINE
  5
312
330
1F
100
AcDbEntity
  8
0
  6
Continuous
 62
     4
100
AcDbLine
 10
412.9072784106726
 20
335.1735394377541
 30
0.0
 11
412.2802291832991
 21
335.1735394377541
 31
0.0
  0
LINE
  5
313
330
1F
100
AcDbEntity
  8
0
  6
Continuous
 62
     4
100
AcDbLine
 10
412.9060959013939
 20
336.5977204377541
 30
0.0
 11
412.2792192310426
 21
336.5977204377541
 31
0.0
  0
ARC
  5
314
330
1F
100
AcDbEntity
  8
0
  6
DASHED
 62
     4
 48
2.0
100
AcDbCircle
 10
422.0827660818513
 20
341.3850328112918
 30
0.0
 40
0.4999996264625369
100
AcDbArc
 50
359.9999571957112
 51
90.00004280428878
  0
LINE
  5
315
330
1F
100
AcDbEntity
  8
0
  6
DASHED
 62
     4
 48
2.0
100
AcDbLine
 10
415.6460637083135
 20
341.8850324377541
 30
0.0
 11
415.6460637083135
 21
340.1529728317733
 31
0.0
  0
LINE
  5
316
330
1F
100
AcDbEntity
  8
0
  6
DASHED
 62
     4
 48
2.0
100
AcDbLine
 10
417.5206637083135
 20
340.1552107024308
 30
0.0
 11
417.5206637083135
 21
341.8850324377541
 31
0.0
  0
LINE
  5
317
330
1F
100
AcDbEntity
  8
0
  6
Continuous
 62
     7
 48
2.0
100
AcDbLine
 10
420.2708149036301
 20
336.5977204377541
 30
0.0
 11
417.2954557083135
 21
336.5977204377541
 31
0.0
  0
LINE
  5
318
330
1F
100
AcDbEntity
  8
0
  6
Continuous
 62
     7
 48
2.0
100
AcDbLine
 10
420.2696329679969
 20
335.1735394377541
 30
0.0
 11
417.2954557083135
 21
335.1735394377541
 31
0.0
  0
LINE
  5
319
330
1F
100
AcDbEntity
  8
0
  6
Continuous
 62
     4
100
AcDbLine
 10
416.5856927083137
 20
339.6386844377541
 30
0.0
 11
416.5856927083137
 21
339.6386844377541
 31
0.0
  0
LINE
  5
31A
330
1F
100
AcDbEntity
  8
0
  6
Continuous
 62
     7
 48
2.0
100
AcDbLine
 10
415.8712747083136
 20
336.5977204377541
 30
0.0
 11
415.8712747083136
 21
338.3455784377541
 31
0.0
  0
LINE
  5
31B
330
1F
100
AcDbEntity
  8
0
  6
Continuous
 62
     7
 48
2.0
100
AcDbLine
 10
415.8712747083136
 20
333.4256804377541
 30
0.0
 11
415.8712747083136
 21
335.1735394377541
 31
0.0
  0
LINE
  5
31C
330
1F
100
AcDbEntity
  8
0
  6
Continuous
 62
     7
 48
2.0
100
AcDbLine
 10
417.2954557083135
 20
336.5977204377541
 30
0.0
 11
417.2954557083135
 21
338.3455784377541
 31
0.0
  0
LINE
  5
31D
330
1F
100
AcDbEntity
  8
0
  6
Continuous
 62
     7
 48
2.0
100
AcDbLine
 10
417.2954557083135
 20
333.4256804377541
 30
0.0
 11
417.2954557083135
 21
335.1735394377541
 31
0.0
  0
LINE
  5
31E
330
1F
100
AcDbEntity
  8
0
  6
Continuous
 62
     7
 48
2.0
100
AcDbLine
 10
417.2954557083135
 20
338.3455784377541
 30
0.0
 11
415.8712747083136
 21
338.3455784377541
 31
0.0
  0
LINE
  5
31F
330
1F
100
AcDbEntity
  8
0
  6
Continuous
 62
     7
 48
2.0
100
AcDbLine
 10
417.2954557083135
 20
333.4256804377541
 30
0.0
 11
415.8712747083136
 21
333.4256804377541
 31
0.0
  0
LINE
  5
320
330
1F
100
AcDbEntity
  8
0
  6
Continuous
 62
     4
100
AcDbLine
 10
420.2696329679969
 20
335.1735394377541
 30
0.0
 11
420.8966821953705
 21
335.1735394377541
 31
0.0
  0
LINE
  5
321
330
1F
100
AcDbEntity
  8
0
  6
Continuous
 62
     4
100
AcDbLine
 10
420.2708149036301
 20
336.5977204377541
 30
0.0
 11
420.8976921476271
 21
336.5977204377541
 31
0.0
  0
LINE
  5
322
330
1F
100
AcDbEntity
  8
0
  6
DASHED
 62
     4
 48
2.0
100
AcDbLine
 10
422.5827657083137
 20
336.8229324377541
 30
0.0
 11
420.8545349240138
 21
336.8229324377541
 31
0.0
  0
LINE
  5
323
330
1F
100
AcDbEntity
  8
0
  6
DASHED
 62
     4
 48
2.0
100
AcDbLine
 10
420.8531931554806
 20
334.9483324377541
 30
0.0
 11
422.5827657083137
 21
334.9483324377541
 31
0.0
  0
ARC
  5
324
330
1F
100
AcDbEntity
  8
0
  6
Continuous
 62
     7
100
AcDbCircle
 10
425.6833672024638
 20
342.0856309319044
 30
0.0
 40
1.999998505850204
100
AcDbArc
 50
359.9999571957126
 51
90.00004280428553
  0
ARC
  5
325
330
1F
100
AcDbEntity
  8
0
  6
Continuous
 62
     7
100
AcDbCircle
 10
425.883367202464
 20
342.0856309319044
 30
0.0
 40
1.999998505850204
100
AcDbArc
 50
359.9999571957126
 51
90.00004280428553
  0
ARC
  5
326
330
1F
100
AcDbEntity
  8
0
  6
DASHED
 62
     4
100
AcDbCircle
 10
425.6833673518788
 20
351.8856310813196
 30
0.0
 40
2.199998356435219
100
AcDbArc
 50
359.9999571957126
 51
90.00004280428553
  0
LINE
  5
327
330
1F
100
AcDbEntity
  8
0
  6
DASHED
 62
     4
100
AcDbLine
 10
565.3833657083136
 20
319.5856294377541
 30
0.0
 11
565.3833657083136
 21
354.0856294377541
 31
0.0
  0
LINE
  5
328
330
1F
100
AcDbEntity
  8
0
  6
DASHED
 62
     4
100
AcDbLine
 10
554.8833657083133
 20
344.0856294377541
 30
0.0
 11
554.8833657083133
 21
264.0856294377541
 31
0.0
  0
LINE
  5
329
330
1F
100
AcDbEntity
  8
0
  6
DASHED
 62
     4
100
AcDbLine
 10
554.3833657083134
 20
344.0856294377541
 30
0.0
 11
554.3833657083134
 21
264.0856294377541
 31
0.0
  0
LINE
  5
32A
330
1F
100
AcDbEntity
  8
0
  6
DASHED
 62
     4
100
AcDbLine
 10
550.3827237083132
 20
344.0856294377541
 30
0.0
 11
550.3827237083132
 21
264.0856294377541
 31
0.0
  0
LINE
  5
32B
330
1F
100
AcDbEntity
  8
0
  6
DASHED
 62
     4
100
AcDbLine
 10
549.8827237083136
 20
344.0856294377541
 30
0.0
 11
549.8827237083136
 21
264.0856294377541
 31
0.0
  0
LINE
  5
32C
330
1F
100
AcDbEntity
  8
0
  6
DASHED
 62
     4
100
AcDbLine
 10
547.3827237083136
 20
344.0856294377541
 30
0.0
 11
547.3827237083136
 21
264.0856294377541
 31
0.0
  0
LINE
  5
32D
330
1F
100
AcDbEntity
  8
0
  6
DASHED
 62
     4
100
AcDbLine
 10
547.8827237083136
 20
344.0856294377541
 30
0.0
 11
547.8827237083136
 21
264.0856294377541
 31
0.0
  0
LINE
  5
32E
330
1F
100
AcDbEntity
  8
0
  6
DASHED
 62
     4
100
AcDbLine
 10
539.8833667083136
 20
344.0856294377541
 30
0.0
 11
539.8833667083136
 21
264.0856394377542
 31
0.0
  0
LINE
  5
32F
330
1F
100
AcDbEntity
  8
0
  6
DASHED
 62
     4
100
AcDbLine
 10
539.3833667083136
 20
344.0856294377541
 30
0.0
 11
539.3833667083136
 21
264.0856394377542
 31
0.0
  0
LINE
  5
330
330
1F
100
AcDbEntity
  8
0
  6
DASHED
 62
     4
100
AcDbLine
 10
537.3833667083133
 20
344.0856294377541
 30
0.0
 11
537.3833667083133
 21
264.0856394377542
 31
0.0
  0
LINE
  5
331
330
1F
100
AcDbEntity
  8
0
  6
DASHED
 62
     4
100
AcDbLine
 10
536.8833667083134
 20
344.0856294377541
 30
0.0
 11
536.8833667083134
 21
264.0856394377542
 31
0.0
  0
LINE
  5
332
330
1F
100
AcDbEntity
  8
0
  6
DASHED
 62
     4
100
AcDbLine
 10
529.3833667083134
 20
344.0856294377541
 30
0.0
 11
529.3833667083134
 21
264.0856364377544
 31
0.0
  0
LINE
  5
333
330
1F
100
AcDbEntity
  8
0
  6
DASHED
 62
     4
100
AcDbLine
 10
529.8833667083133
 20
344.0856294377541
 30
0.0
 11
529.8833667083133
 21
264.0856364377544
 31
0.0
  0
LINE
  5
334
330
1F
100
AcDbEntity
  8
0
  6
DASHED
 62
     4
100
AcDbLine
 10
527.3833667083136
 20
344.0856294377541
 30
0.0
 11
527.3833667083136
 21
264.0856364377544
 31
0.0
  0
LINE
  5
335
330
1F
100
AcDbEntity
  8
0
  6
DASHED
 62
     4
100
AcDbLine
 10
526.8833667083136
 20
344.0856294377541
 30
0.0
 11
526.8833667083136
 21
264.0856364377544
 31
0.0
  0
LINE
  5
336
330
1F
100
AcDbEntity
  8
0
  6
DASHED
 62
     4
100
AcDbLine
 10
519.8833637083136
 20
344.0856294377541
 30
0.0
 11
519.8833637083136
 21
264.0856324377541
 31
0.0
  0
LINE
  5
337
330
1F
100
AcDbEntity
  8
0
  6
DASHED
 62
     4
100
AcDbLine
 10
519.3833637083136
 20
344.0856294377541
 30
0.0
 11
519.3833637083136
 21
264.0856324377541
 31
0.0
  0
LINE
  5
338
330
1F
100
AcDbEntity
  8
0
  6
DASHED
 62
     4
100
AcDbLine
 10
517.3833637083134
 20
344.0856294377541
 30
0.0
 11
517.3833637083134
 21
264.0856324377541
 31
0.0
  0
LINE
  5
339
330
1F
100
AcDbEntity
  8
0
  6
DASHED
 62
     4
100
AcDbLine
 10
516.8833637083134
 20
344.0856294377541
 30
0.0
 11
516.8833637083134
 21
264.0856324377541
 31
0.0
  0
LINE
  5
33A
330
1F
100
AcDbEntity
  8
0
  6
DASHED
 62
     4
100
AcDbLine
 10
509.3833657083133
 20
344.0856294377541
 30
0.0
 11
509.3833657083133
 21
264.0856294377541
 31
0.0
  0
LINE
  5
33B
330
1F
100
AcDbEntity
  8
0
  6
DASHED
 62
     4
100
AcDbLine
 10
509.8833657083136
 20
344.0856294377541
 30
0.0
 11
509.8833657083136
 21
264.0856294377541
 31
0.0
  0
LINE
  5
33C
330
1F
100
AcDbEntity
  8
0
  6
DASHED
 62
     4
100
AcDbLine
 10
507.3833657083135
 20
344.0856294377541
 30
0.0
 11
507.3833657083135
 21
264.0856294377541
 31
0.0
  0
LINE
  5
33D
330
1F
100
AcDbEntity
  8
0
  6
DASHED
 62
     4
100
AcDbLine
 10
506.8833657083136
 20
344.0856294377541
 30
0.0
 11
506.8833657083136
 21
264.0856294377541
 31
0.0
  0
LINE
  5
33E
330
1F
100
AcDbEntity
  8
0
  6
DASHED
 62
     4
100
AcDbLine
 10
499.8833657083133
 20
344.0856294377541
 30
0.0
 11
499.8833657083133
 21
264.0856294377541
 31
0.0
  0
LINE
  5
33F
330
1F
100
AcDbEntity
  8
0
  6
DASHED
 62
     4
100
AcDbLine
 10
499.3833657083135
 20
344.0856294377541
 30
0.0
 11
499.3833657083135
 21
264.0856294377541
 31
0.0
  0
LINE
  5
340
330
1F
100
AcDbEntity
  8
0
  6
DASHED
 62
     4
100
AcDbLine
 10
555.8833657083136
 20
344.0856294377541
 30
0.0
 11
555.8833657083136
 21
264.0856294377541
 31
0.0
  0
LINE
  5
341
330
1F
100
AcDbEntity
  8
0
  6
DASHED
 62
     4
100
AcDbLine
 10
498.3833657083136
 20
344.0856294377541
 30
0.0
 11
498.3833657083136
 21
264.0856294377541
 31
0.0
  0
LINE
  5
342
330
1F
100
AcDbEntity
  8
0
  6
DASHED
 62
     4
100
AcDbLine
 10
495.8833657083133
 20
344.0856294377541
 30
0.0
 11
495.8833657083133
 21
264.0856294377541
 31
0.0
  0
LINE
  5
343
330
1F
100
AcDbEntity
  8
0
  6
DASHED
 62
     4
100
AcDbLine
 10
494.3833657083136
 20
344.0856294377541
 30
0.0
 11
494.3833657083136
 21
264.0856294377541
 31
0.0
  0
LINE
  5
344
330
1F
100
AcDbEntity
  8
0
  6
DASHED
 62
     4
100
AcDbLine
 10
557.3833657083135
 20
344.0856294377541
 30
0.0
 11
557.3833657083135
 21
259.0856294377541
 31
0.0
  0
LINE
  5
345
330
1F
100
AcDbEntity
  8
0
100
AcDbLine
 10
472.3783927083135
 20
344.0856294377541
 30
0.0
 11
472.3783927083135
 21
264.0856294377541
 31
0.0
  0
LINE
  5
346
330
1F
100
AcDbEntity
  8
0
  6
Continuous
 62
     7
100
AcDbLine
 10
465.4277297083136
 20
321.3407264377542
 30
0.0
 11
468.9510217083135
 21
341.5996524377541
 31
0.0
  0
LINE
  5
347
330
1F
100
AcDbEntity
  8
0
  6
Continuous
 62
     7
100
AcDbLine
 10
472.3783927083135
 20
321.0856294377541
 30
0.0
 11
472.3783927083135
 21
344.0856294377541
 31
0.0
  0
LINE
  5
348
330
1F
100
AcDbEntity
  8
0
  6
Continuous
 62
     7
100
AcDbLine
 10
493.3833657083136
 20
340.0856294377541
 30
0.0
 11
493.3833657083136
 21
268.0856294377541
 31
0.0
  0
LINE
  5
349
330
1F
100
AcDbEntity
  8
0
  6
Continuous
 62
     7
100
AcDbLine
 10
494.3833657083136
 20
342.9856294377541
 30
0.0
 11
494.3833657083136
 21
265.1856294377541
 31
0.0
  0
LINE
  5
34A
330
1F
100
AcDbEntity
  8
0
  6
Continuous
 62
     7
100
AcDbLine
 10
472.3783927083135
 20
321.0856294377541
 30
0.0
 11
472.3783927083135
 21
344.0856294377541
 31
0.0
  0
LINE
  5
34B
330
1F
100
AcDbEntity
  8
0
  6
Continuous
 62
     7
100
AcDbLine
 10
472.3783927083135
 20
316.0356294377541
 30
0.0
 11
472.3783927083135
 21
344.0856294377541
 31
0.0
  0
LINE
  5
34C
330
1F
100
AcDbEntity
  8
0
  6
DASHED
 62
     4
100
AcDbLine
 10
494.3833657083136
 20
264.0856294377541
 30
0.0
 11
557.3833657083135
 21
264.0856294377541
 31
0.0
  0
ARC
  5
34D
330
1F
100
AcDbEntity
  8
0
  6
Continuous
 62
     7
100
AcDbCircle
 10
471.9066590507281
 20
267.0856320066536
 30
0.0
 40
3.000002568900517
100
AcDbArc
 50
189.86585743173
 51
269.999955263217
  0
LINE
  5
34E
330
1F
100
AcDbEntity
  8
0
  6
Continuous
 62
     7
100
AcDbLine
 10
472.3783927083135
 20
287.0856294377541
 30
0.0
 11
472.3783927083135
 21
264.0856294377541
 31
0.0
  0
LINE
  5
34F
330
1F
100
AcDbEntity
  8
0
  6
Continuous
 62
     7
100
AcDbLine
 10
493.8833657083135
 20
268.0856294377541
 30
0.0
 11
493.8833657083135
 21
264.0856294377541
 31
0.0
  0
LINE
  5
350
330
1F
100
AcDbEntity
  8
0
  6
Continuous
 62
     7
100
AcDbLine
 10
472.3783927083135
 20
292.1356294377541
 30
0.0
 11
472.3783927083135
 21
264.0856294377541
 31
0.0
  0
LINE
  5
351
330
1F
100
AcDbEntity
  8
0
  6
Continuous
 62
     7
100
AcDbLine
 10
472.3783927083135
 20
264.0856294377541
 30
0.0
 11
471.9066567083136
 21
264.0856294377541
 31
0.0
  0
LINE
  5
352
330
1F
100
AcDbEntity
  8
0
  6
Continuous
 62
     7
100
AcDbLine
 10
493.8833657083135
 20
264.0856294377541
 30
0.0
 11
472.3783927083135
 21
264.0856294377541
 31
0.0
  0
LINE
  5
353
330
1F
100
AcDbEntity
  8
0
  6
Continuous
 62
     7
100
AcDbLine
 10
494.3833657083136
 20
265.1856294377541
 30
0.0
 11
493.8833657083135
 21
265.1856294377541
 31
0.0
  0
LINE
  5
354
330
1F
100
AcDbEntity
  8
0
  6
Continuous
 62
     7
100
AcDbLine
 10
470.3833657083135
 20
287.0856294377541
 30
0.0
 11
472.3783927083135
 21
287.0856284398728
 31
0.0
  0
LINE
  5
355
330
1F
100
AcDbEntity
  8
0
  6
Continuous
 62
     7
100
AcDbLine
 10
470.3833657083135
 20
321.0856294377541
 30
0.0
 11
472.3741567083136
 21
321.0856304377541
 31
0.0
  0
LINE
  5
356
330
1F
100
AcDbEntity
  8
0
  6
Continuous
 62
     7
100
AcDbLine
 10
470.3833657083135
 20
321.0856294377541
 30
0.0
 11
472.3783927083135
 21
321.0856294377541
 31
0.0
  0
LINE
  5
357
330
1F
100
AcDbEntity
  8
0
  6
Continuous
 62
     7
100
AcDbLine
 10
470.3833657083135
 20
287.0856294377541
 30
0.0
 11
472.3783927083135
 21
287.0856284398728
 31
0.0
  0
LINE
  5
358
330
1F
100
AcDbEntity
  8
0
  6
Continuous
 62
     7
100
AcDbLine
 10
472.3783927083135
 20
292.1356294377541
 30
0.0
 11
470.3833657083135
 21
292.1356294377541
 31
0.0
  0
LINE
  5
359
330
1F
100
AcDbEntity
  8
0
  6
Continuous
 62
     7
100
AcDbLine
 10
472.3783927083135
 20
316.0356294377541
 30
0.0
 11
470.3833657083135
 21
316.0356294377541
 31
0.0
  0
LINE
  5
35A
330
1F
100
AcDbEntity
  8
0
  6
Continuous
 62
     7
100
AcDbLine
 10
465.3833657083136
 20
291.5882044377541
 30
0.0
 11
465.3833657083136
 21
316.5830544377541
 31
0.0
  0
LINE
  5
35B
330
1F
100
AcDbEntity
  8
0
  6
Continuous
 62
     7
100
AcDbLine
 10
465.4277297083136
 20
286.8305324377542
 30
0.0
 11
468.9510217083135
 21
266.5716054377541
 31
0.0
  0
LINE
  5
35C
330
1F
100
AcDbEntity
  8
0
  6
Continuous
 62
     7
100
AcDbLine
 10
467.9138887083134
 20
270.7842274377541
 30
0.0
 11
468.2653547083135
 21
268.7632964377541
 31
0.0
  0
LINE
  5
35D
330
1F
100
AcDbEntity
  8
0
  6
Continuous
 62
     7
100
AcDbLine
 10
468.2094527083135
 20
270.8356294377541
 30
0.0
 11
467.9138887083134
 21
270.7842274377541
 31
0.0
  0
LINE
  5
35E
330
1F
100
AcDbEntity
  8
0
  6
Continuous
 62
     7
100
AcDbLine
 10
468.5609187083136
 20
268.8146984377541
 30
0.0
 11
468.2653547083135
 21
268.7632964377541
 31
0.0
  0
LINE
  5
35F
330
1F
100
AcDbEntity
  8
0
  6
Continuous
 62
     7
100
AcDbLine
 10
465.3833657083136
 20
287.3445554377541
 30
0.0
 11
465.3833657083136
 21
291.7856294377541
 31
0.0
  0
ARC
  5
360
330
1F
100
AcDbEntity
  8
0
  6
Continuous
 62
     7
100
AcDbCircle
 10
467.8833675760015
 20
289.5856313054421
 30
0.0
 40
2.49999813231274
100
AcDbArc
 50
359.9999571957126
 51
90.00004280428553
  0
LINE
  5
361
330
1F
100
AcDbEntity
  8
0
  6
Continuous
 62
     7
100
AcDbLine
 10
471.2783927083135
 20
290.5856294377541
 30
0.0
 11
470.6010427083133
 21
291.0371964377541
 31
0.0
  0
ARC
  5
362
330
1F
100
AcDbEntity
  8
0
  6
Continuous
 62
     7
100
AcDbCircle
 10
468.3833840911423
 20
287.3445533192171
 30
0.0
 40
3.000018382829418
100
AcDbArc
 50
179.9999595391706
 51
189.8656946541195
  0
LINE
  5
363
330
1F
100
AcDbEntity
  8
0
  6
Continuous
 62
     7
100
AcDbLine
 10
470.3833657083135
 20
289.5856294377541
 30
0.0
 11
470.3833657083135
 21
287.0856294377541
 31
0.0
  0
LINE
  5
364
330
1F
100
AcDbEntity
  8
0
  6
Continuous
 62
     7
100
AcDbLine
 10
471.2783927083135
 20
290.2856294377541
 30
0.0
 11
471.2783927083135
 21
290.5856294377541
 31
0.0
  0
LINE
  5
365
330
1F
100
AcDbEntity
  8
0
  6
Continuous
 62
     7
100
AcDbLine
 10
471.2783927083135
 20
290.2856294377541
 30
0.0
 11
470.3833657083135
 21
288.5950228821986
 31
0.0
  0
LINE
  5
366
330
1F
100
AcDbEntity
  8
0
  6
Continuous
 62
     7
100
AcDbLine
 10
470.3833657083135
 20
287.0856294377541
 30
0.0
 11
470.3833657083135
 21
288.5950228821986
 31
0.0
  0
LINE
  5
367
330
1F
100
AcDbEntity
  8
0
  6
Continuous
 62
     7
100
AcDbLine
 10
470.1847667083135
 20
290.5856294377541
 30
0.0
 11
471.2783927083135
 21
290.5856294377541
 31
0.0
  0
LINE
  5
368
330
1F
100
AcDbEntity
  8
0
  6
Continuous
 62
     7
100
AcDbLine
 10
470.3833657083135
 20
292.1356294377541
 30
0.0
 11
465.3833657083136
 21
294.0856294377541
 31
0.0
  0
LINE
  5
369
330
1F
100
AcDbEntity
  8
0
  6
Continuous
 62
     7
100
AcDbLine
 10
465.6833657083136
 20
292.0856294377541
 30
0.0
 11
467.8833657083136
 21
292.0856294377541
 31
0.0
  0
ARC
  5
36A
330
1F
100
AcDbEntity
  8
0
  6
Continuous
 62
     7
100
AcDbCircle
 10
465.683365484191
 20
291.7856296618766
 30
0.0
 40
0.2999997758775221
100
AcDbArc
 50
89.99995719572096
 51
180.0000428042953
  0
LINE
  5
36B
330
1F
100
AcDbEntity
  8
0
  6
Continuous
 62
     7
100
AcDbLine
 10
470.3833657083135
 20
291.3828775846273
 30
0.0
 11
470.3833657083135
 21
292.1356294377541
 31
0.0
  0
ARC
  5
36C
330
1F
100
AcDbEntity
  8
0
  6
Continuous
 62
     7
100
AcDbCircle
 10
470.8783924281402
 20
291.4532215003871
 30
0.0
 40
0.4999997198266057
100
AcDbArc
 50
188.0876545989146
 51
236.3099631686279
  0
LINE
  5
36D
330
1F
100
AcDbEntity
  8
0
  6
Continuous
 62
     7
100
AcDbLine
 10
470.3833657083135
 20
316.0356294377541
 30
0.0
 11
470.3833657083135
 21
316.7883812908808
 31
0.0
  0
ARC
  5
36E
330
1F
100
AcDbEntity
  8
0
  6
Continuous
 62
     7
100
AcDbCircle
 10
465.683365484191
 20
316.3856292136316
 30
0.0
 40
0.2999997758775221
100
AcDbArc
 50
179.9999571957094
 51
270.0000428042789
  0
ARC
  5
36F
330
1F
100
AcDbEntity
  8
0
  6
Continuous
 62
     7
100
AcDbCircle
 10
467.8833675760015
 20
318.5856275700662
 30
0.0
 40
2.49999813231274
100
AcDbArc
 50
269.9999571957144
 51
0.0000428042871804
  0
LINE
  5
370
330
1F
100
AcDbEntity
  8
0
  6
Continuous
 62
     7
100
AcDbLine
 10
470.3833657083135
 20
316.0356294377541
 30
0.0
 11
465.3833657083136
 21
314.0856294377541
 31
0.0
  0
LINE
  5
371
330
1F
100
AcDbEntity
  8
0
  6
Continuous
 62
     7
100
AcDbLine
 10
465.6833657083136
 20
316.0856294377541
 30
0.0
 11
467.8833657083136
 21
316.0856294377541
 31
0.0
  0
LINE
  5
372
330
1F
100
AcDbEntity
  8
0
  6
Continuous
 62
     7
100
AcDbLine
 10
465.3833657083136
 20
320.8267034377541
 30
0.0
 11
465.3833657083136
 21
316.3856294377541
 31
0.0
  0
ARC
  5
373
330
1F
100
AcDbEntity
  8
0
  6
Continuous
 62
     7
100
AcDbCircle
 10
468.3833840911421
 20
320.8267055562913
 30
0.0
 40
3.000018382829248
100
AcDbArc
 50
170.1343053458804
 51
180.0000404608292
  0
LINE
  5
374
330
1F
100
AcDbEntity
  8
0
  6
Continuous
 62
     7
100
AcDbLine
 10
465.3833657083136
 20
317.0859284377541
 30
0.0
 11
465.3833657083136
 21
317.0856294377541
 31
0.0
  0
LINE
  5
375
330
1F
100
AcDbEntity
  8
0
  6
Continuous
 62
     7
100
AcDbLine
 10
470.3833657083135
 20
318.5856294377541
 30
0.0
 11
470.3833657083135
 21
321.0856294377541
 31
0.0
  0
ARC
  5
376
330
1F
100
AcDbEntity
  8
0
  6
Continuous
 62
     7
100
AcDbCircle
 10
470.8783924281402
 20
316.7180373751211
 30
0.0
 40
0.4999997198266292
100
AcDbArc
 50
123.6900368313692
 51
171.912345401067
  0
LINE
  5
377
330
1F
100
AcDbEntity
  8
0
  6
Continuous
 62
     7
100
AcDbLine
 10
471.2783927083135
 20
317.5856294377541
 30
0.0
 11
470.6010427083133
 21
317.1340624377541
 31
0.0
  0
LINE
  5
378
330
1F
100
AcDbEntity
  8
0
  6
Continuous
 62
     7
100
AcDbLine
 10
471.2783927083135
 20
317.8856294377542
 30
0.0
 11
471.2783927083135
 21
317.5856294377541
 31
0.0
  0
LINE
  5
379
330
1F
100
AcDbEntity
  8
0
  6
Continuous
 62
     7
100
AcDbLine
 10
471.2783927083135
 20
317.8856294377542
 30
0.0
 11
470.3833657083135
 21
319.5762359933096
 31
0.0
  0
LINE
  5
37A
330
1F
100
AcDbEntity
  8
0
  6
Continuous
 62
     7
100
AcDbLine
 10
470.3833657083135
 20
321.0856294377541
 30
0.0
 11
470.3833657083135
 21
319.5762359933096
 31
0.0
  0
LINE
  5
37B
330
1F
100
AcDbEntity
  8
0
  6
Continuous
 62
     7
100
AcDbLine
 10
470.1746542007911
 20
317.5856294377541
 30
0.0
 11
471.2783927083135
 21
317.5856294377541
 31
0.0
  0
LINE
  5
37C
330
1F
100
AcDbEntity
  8
0
  6
Continuous
 62
     7
100
AcDbLine
 10
478.8833747083137
 20
287.0856294377541
 30
0.0
 11
478.8833747083137
 21
321.0856294377541
 31
0.0
  0
LINE
  5
37D
330
1F
100
AcDbEntity
  8
0
  6
Continuous
 62
     7
100
AcDbLine
 10
491.8833747083134
 20
321.0856294377541
 30
0.0
 11
491.8833747083134
 21
287.0856294377541
 31
0.0
  0
LINE
  5
37E
330
1F
100
AcDbEntity
  8
0
  6
Continuous
 62
     7
100
AcDbLine
 10
478.3833747083135
 20
322.5671614377541
 30
0.0
 11
478.3833747083135
 21
285.5671614377541
 31
0.0
  0
LINE
  5
37F
330
1F
100
AcDbEntity
  8
0
  6
Continuous
 62
     7
100
AcDbLine
 10
476.9783927083135
 20
294.0856294377541
 30
0.0
 11
476.9783927083135
 21
314.0856294377541
 31
0.0
  0
LINE
  5
380
330
1F
100
AcDbEntity
  8
0
  6
Continuous
 62
     7
100
AcDbLine
 10
472.3783927083135
 20
292.1356294377541
 30
0.0
 11
472.3783927083135
 21
316.0356294377541
 31
0.0
  0
LINE
  5
381
330
1F
100
AcDbEntity
  8
0
  6
Continuous
 62
     7
100
AcDbLine
 10
489.8833747083132
 20
285.0856294377541
 30
0.0
 11
480.8833747083136
 21
285.0856294377541
 31
0.0
  0
LINE
  5
382
330
1F
100
AcDbEntity
  8
0
  6
Continuous
 62
     7
100
AcDbLine
 10
479.3833747083134
 20
284.5671614377542
 30
0.0
 11
493.3833747083136
 21
284.5671614377542
 31
0.0
  0
LINE
  5
383
330
1F
100
AcDbEntity
  8
0
  6
Continuous
 62
     7
100
AcDbLine
 10
472.3783927083135
 20
266.0856294377541
 30
0.0
 11
493.8833657083135
 21
266.0856294377541
 31
0.0
  0
ARC
  5
384
330
1F
100
AcDbEntity
  8
0
  6
Continuous
 62
     7
100
AcDbCircle
 10
480.8833732141632
 20
287.0856279436036
 30
0.0
 40
1.999998505850174
100
AcDbArc
 50
179.9999571957128
 51
270.0000428042855
  0
ARC
  5
385
330
1F
100
AcDbEntity
  8
0
  6
Continuous
 62
     7
100
AcDbCircle
 10
479.3833739612384
 20
285.5671606906791
 30
0.0
 40
0.9999992529250738
100
AcDbArc
 50
179.9999571957128
 51
270.0000428042887
  0
LINE
  5
386
330
1F
100
AcDbEntity
  8
0
  6
Continuous
 62
     7
100
AcDbLine
 10
476.9783927083135
 20
294.0856294377541
 30
0.0
 11
472.3783927083135
 21
294.0856294377541
 31
0.0
  0
LINE
  5
387
330
1F
100
AcDbEntity
  8
0
  6
Continuous
 62
     7
100
AcDbLine
 10
493.8833657083135
 20
268.0856294377541
 30
0.0
 11
493.3833657083136
 21
268.0856294377541
 31
0.0
  0
ARC
  5
388
330
1F
100
AcDbEntity
  8
0
  6
Continuous
 62
     7
100
AcDbCircle
 10
489.8833762024638
 20
287.0856279436036
 30
0.0
 40
1.999998505850204
100
AcDbArc
 50
269.9999571957144
 51
0.0000428042871804
  0
LINE
  5
389
330
1F
100
AcDbEntity
  8
0
  6
Continuous
 62
     7
100
AcDbLine
 10
480.8833747083136
 20
323.0856294377541
 30
0.0
 11
489.8833747083132
 21
323.0856294377541
 31
0.0
  0
LINE
  5
38A
330
1F
100
AcDbEntity
  8
0
  6
Continuous
 62
     7
100
AcDbLine
 10
493.3833767083132
 20
323.5671614377541
 30
0.0
 11
479.3833747083134
 21
323.5671614377541
 31
0.0
  0
LINE
  5
38B
330
1F
100
AcDbEntity
  8
0
  6
Continuous
 62
     7
100
AcDbLine
 10
476.9783927083135
 20
314.0856294377541
 30
0.0
 11
472.3783927083135
 21
314.0856294377541
 31
0.0
  0
ARC
  5
38C
330
1F
100
AcDbEntity
  8
0
  6
Continuous
 62
     7
100
AcDbCircle
 10
480.8833732141632
 20
321.0856309319044
 30
0.0
 40
1.999998505850204
100
AcDbArc
 50
89.99995719571442
 51
180.0000428042871
  0
ARC
  5
38D
330
1F
100
AcDbEntity
  8
0
  6
Continuous
 62
     7
100
AcDbCircle
 10
479.3833739612384
 20
322.5671621848293
 30
0.0
 40
0.9999992529251022
100
AcDbArc
 50
89.99995719571119
 51
180.0000428042871
  0
ARC
  5
38E
330
1F
100
AcDbEntity
  8
0
  6
Continuous
 62
     7
100
AcDbCircle
 10
489.8833762024638
 20
321.0856309319044
 30
0.0
 40
1.999998505850174
100
AcDbArc
 50
359.9999571957126
 51
90.00004280428553
  0
LINE
  5
38F
330
1F
100
AcDbEntity
  8
0
  6
DASHED
 62
     4
100
AcDbLine
 10
561.3833657083135
 20
254.2856294377541
 30
0.0
 11
561.3833657083135
 21
286.2856294377541
 31
0.0
  0
LINE
  5
390
330
1F
100
AcDbEntity
  8
0
  6
DASHED
 62
     4
100
AcDbLine
 10
565.3833657083136
 20
285.2856294377541
 30
0.0
 11
565.3833657083136
 21
254.2856294377541
 31
0.0
  0
LINE
  5
391
330
1F
100
AcDbEntity
  8
0
  6
DASHED
 62
     4
100
AcDbLine
 10
565.3833657083136
 20
259.2856294377541
 30
0.0
 11
561.3833657083135
 21
259.2856294377541
 31
0.0
  0
LINE
  5
392
330
1F
100
AcDbEntity
  8
0
  6
DASHED
 62
     4
100
AcDbLine
 10
565.3833657083136
 20
256.2856294377541
 30
0.0
 11
561.3833657083135
 21
256.2856294377541
 31
0.0
  0
LINE
  5
393
330
1F
100
AcDbEntity
  8
0
  6
DASHED
 62
     4
100
AcDbLine
 10
565.3833657083136
 20
254.2856294377541
 30
0.0
 11
561.3833657083135
 21
254.2856294377541
 31
0.0
  0
LINE
  5
394
330
1F
100
AcDbEntity
  8
0
  6
DASHED
 62
     4
100
AcDbLine
 10
565.3833657083136
 20
264.2856294377541
 30
0.0
 11
561.3833657083135
 21
264.2856294377541
 31
0.0
  0
LINE
  5
395
330
1F
100
AcDbEntity
  8
0
  6
DASHED
 62
     4
100
AcDbLine
 10
561.3833657083135
 20
261.2856294377541
 30
0.0
 11
557.3833657083135
 21
261.2856294377541
 31
0.0
  0
LINE
  5
396
330
1F
100
AcDbEntity
  8
0
  6
DASHED
 62
     4
100
AcDbLine
 10
557.3833657083135
 20
259.0856294377541
 30
0.0
 11
561.3833657083135
 21
259.0856294377541
 31
0.0
  0
LINE
  5
397
330
1F
100
AcDbEntity
  8
0
  6
DASHED
 62
     4
100
AcDbLine
 10
561.3833657083135
 20
321.5856294377541
 30
0.0
 11
561.3833657083135
 21
286.2856294377541
 31
0.0
  0
LINE
  5
398
330
1F
100
AcDbEntity
  8
0
  6
DASHED
 62
     4
100
AcDbLine
 10
563.1833657083135
 20
286.2856294377541
 30
0.0
 11
561.3833657083135
 21
286.2856294377541
 31
0.0
  0
LINE
  5
399
330
1F
100
AcDbEntity
  8
0
  6
DASHED
 62
     4
100
AcDbLine
 10
562.3833657083134
 20
288.2856294377541
 30
0.0
 11
563.3833657083136
 21
288.2856294377541
 31
0.0
  0
LINE
  5
39A
330
1F
100
AcDbEntity
  8
0
  6
DASHED
 62
     4
100
AcDbLine
 10
561.3833657083135
 20
286.2856294377541
 30
0.0
 11
565.3833657083136
 21
286.2856294377541
 31
0.0
  0
LINE
  5
39B
330
1F
100
AcDbEntity
  8
0
  6
DASHED
 62
     4
100
AcDbLine
 10
562.3833657083134
 20
286.2856294377541
 30
0.0
 11
562.3833657083134
 21
288.2856294377541
 31
0.0
  0
LINE
  5
39C
330
1F
100
AcDbEntity
  8
0
  6
DASHED
 62
     4
100
AcDbLine
 10
563.3833657083136
 20
288.2856294377541
 30
0.0
 11
564.7166987083136
 21
286.2856294377541
 31
0.0
  0
LINE
  5
39D
330
1F
100
AcDbEntity
  8
0
  6
DASHED
 62
     4
100
AcDbLine
 10
562.3833657083134
 20
321.5856294377541
 30
0.0
 11
562.8833657083134
 21
319.5856294377541
 31
0.0
  0
LINE
  5
39E
330
1F
100
AcDbEntity
  8
0
  6
DASHED
 62
     4
100
AcDbLine
 10
561.3833657083135
 20
321.5856294377541
 30
0.0
 11
565.3833657083136
 21
321.5856294377541
 31
0.0
  0
LINE
  5
39F
330
1F
100
AcDbEntity
  8
0
  6
DASHED
 62
     4
100
AcDbLine
 10
565.3833657083136
 20
319.5856294377541
 30
0.0
 11
565.3833657083136
 21
323.5856294377541
 31
0.0
  0
LINE
  5
3A0
330
1F
100
AcDbEntity
  8
0
  6
DASHED
 62
     4
100
AcDbLine
 10
562.8833657083134
 20
319.5856294377541
 30
0.0
 11
565.3833657083136
 21
319.5856294377541
 31
0.0
  0
LINE
  5
3A1
330
1F
100
AcDbEntity
  8
0
  6
DASHED
 62
     4
100
AcDbLine
 10
557.3833657083135
 20
344.0856294377541
 30
0.0
 11
494.3833657083136
 21
344.0856294377541
 31
0.0
  0
LINE
  5
3A2
330
1F
100
AcDbEntity
  8
0
  6
Continuous
 62
     7
100
AcDbLine
 10
472.3783927083135
 20
344.0856294377541
 30
0.0
 11
471.9066567083136
 21
344.0856294377541
 31
0.0
  0
LINE
  5
3A3
330
1F
100
AcDbEntity
  8
0
  6
Continuous
 62
     7
100
AcDbLine
 10
467.4896497083135
 20
334.9476584377541
 30
0.0
 11
467.8411157083135
 21
336.9685884377541
 31
0.0
  0
LINE
  5
3A4
330
1F
100
AcDbEntity
  8
0
  6
Continuous
 62
     7
100
AcDbLine
 10
468.1366797083133
 20
336.9171864377542
 30
0.0
 11
467.8411157083135
 21
336.9685884377541
 31
0.0
  0
LINE
  5
3A5
330
1F
100
AcDbEntity
  8
0
  6
Continuous
 62
     7
100
AcDbLine
 10
467.7852137083132
 20
334.8962554377541
 30
0.0
 11
467.4896497083135
 21
334.9476584377541
 31
0.0
  0
ARC
  5
3A6
330
1F
100
AcDbEntity
  8
0
  6
Continuous
 62
     7
100
AcDbCircle
 10
471.9066596451906
 20
341.0856263688545
 30
0.0
 40
3.000003068901082
100
AcDbArc
 50
90.0000560901641
 51
170.13415392165
  0
LINE
  5
3A7
330
1F
100
AcDbEntity
  8
0
  6
Continuous
 62
     7
100
AcDbLine
 10
472.3780247083135
 20
342.0856294377541
 30
0.0
 11
493.8833657083135
 21
342.0856294377541
 31
0.0
  0
LINE
  5
3A8
330
1F
100
AcDbEntity
  8
0
  6
Continuous
 62
     7
100
AcDbLine
 10
472.3783927083135
 20
344.0856294377541
 30
0.0
 11
493.8833657083135
 21
344.0856294377541
 31
0.0
  0
LINE
  5
3A9
330
1F
100
AcDbEntity
  8
0
  6
Continuous
 62
     7
100
AcDbLine
 10
493.8833657083135
 20
344.0856294377541
 30
0.0
 11
493.8833657083135
 21
340.0856294377541
 31
0.0
  0
LINE
  5
3AA
330
1F
100
AcDbEntity
  8
0
  6
Continuous
 62
     7
100
AcDbLine
 10
493.3833657083136
 20
340.0856294377541
 30
0.0
 11
493.8833657083135
 21
340.0856294377541
 31
0.0
  0
LINE
  5
3AB
330
1F
100
AcDbEntity
  8
0
  6
Continuous
 62
     7
100
AcDbLine
 10
493.8833657083135
 20
342.9856294377541
 30
0.0
 11
494.3833657083136
 21
342.9856294377541
 31
0.0
  0
LINE
  5
3AC
330
1F
100
AcDbEntity
  8
0
  6
DASHED
 62
     4
100
AcDbLine
 10
561.3833657083135
 20
354.0856294377541
 30
0.0
 11
561.3833657083135
 21
344.0856294377541
 31
0.0
  0
LINE
  5
3AD
330
1F
100
AcDbEntity
  8
0
  6
DASHED
 62
     4
100
AcDbLine
 10
561.3833657083135
 20
344.0856294377541
 30
0.0
 11
557.3833657083135
 21
344.0856294377541
 31
0.0
  0
LINE
  5
3AE
330
1F
100
AcDbEntity
  8
0
  6
DASHED
 62
     4
100
AcDbLine
 10
565.3833657083136
 20
351.8856294377541
 30
0.0
 11
561.3833657083135
 21
351.8856294377541
 31
0.0
  0
LINE
  5
3AF
330
1F
100
AcDbEntity
  8
0
  6
DASHED
 62
     4
100
AcDbLine
 10
565.3833657083136
 20
354.0856294377541
 30
0.0
 11
561.3833657083135
 21
354.0856294377541
 31
0.0
  0
ENDSEC
  0
SECTION
  2
OBJECTS
  0
DICTIONARY
  5
C
330
0
100
AcDbDictionary
281
     1
  3
ACAD_GROUP
350
D
  3
ACAD_LAYOUT
350
1A
  3
ACAD_MLINESTYLE
350
17
  3
ACAD_PLOTSETTINGS
350
19
  3
ACAD_PLOTSTYLENAME
350
E
  3
DWGPROPS
350
3B0
  0
DICTIONARY
  5
D
102
{ACAD_REACTORS
330
C
102
}
330
C
100
AcDbDictionary
281
     1
  0
DICTIONARY
  5
1A
102
{ACAD_REACTORS
330
C
102
}
330
C
100
AcDbDictionary
281
     1
  3
Model
350
22
  3
ﾚｲｱｳﾄ1
350
51
  3
ﾚｲｱｳﾄ2
350
56
  0
DICTIONARY
  5
17
102
{ACAD_REACTORS
330
C
102
}
330
C
100
AcDbDictionary
281
     1
  3
Standard
350
18
  0
DICTIONARY
  5
19
102
{ACAD_REACTORS
330
C
102
}
330
C
100
AcDbDictionary
281
     1
  0
ACDBDICTIONARYWDFLT
  5
E
102
{ACAD_REACTORS
330
C
102
}
330
C
100
AcDbDictionary
281
     1
  3
Normal
350
F
100
AcDbDictionaryWithDefault
340
F
  0
XRECORD
  5
3B0
102
{ACAD_REACTORS
330
C
102
}
330
C
100
AcDbXrecord
280
     1
  1
DWGPROPS COOKIE
  2

  3

  4

  6

  7

  8

  9

300
=
301
=
302
=
303
=
304
=
305
=
306
=
307
=
308
=
309
=
 40
0.0003234722222222
 41
2456499.781966956
 42
2456499.782290427
  1

 90
        0
  0
LAYOUT
  5
22
102
{ACAD_REACTORS
330
1A
102
}
330
1A
100
AcDbPlotSettings
  1

  2
none_device
  4
ANSI_A_(8.50_x_11.00_Inches)
  6

 40
6.349999904632567
 41
19.04999923706053
 42
6.350006103515625
 43
19.04998779296875
 44
215.8999938964842
 45
279.3999938964843
 46
0.0
 47
0.0
 48
0.0
 49
0.0
140
0.0
141
0.0
142
1.0
143
78.436453180766
 70
 11952
 72
     0
 73
     1
 74
     0
  7

 75
     0
147
0.0127491741332998
148
0.0
149
0.0
100
AcDbLayout
  1
Model
 70
     1
 71
     0
 10
0.0
 20
0.0
 11
12.0
 21
9.0
 12
0.0
 22
0.0
 32
0.0
 14
0.0
 24
0.0
 34
0.0
 15
0.0
 25
0.0
 35
0.0
146
0.0
 13
0.0
 23
0.0
 33
0.0
 16
1.0
 26
0.0
 36
0.0
 17
0.0
 27
1.0
 37
0.0
 76
     0
330
1F
  0
LAYOUT
  5
51
102
{ACAD_REACTORS
330
1A
102
}
330
1A
100
AcDbPlotSettings
  1

  2
None
  4

  6

 40
0.0
 41
0.0
 42
0.0
 43
0.0
 44
0.0
 45
0.0
 46
0.0
 47
0.0
 48
0.0
 49
0.0
140
0.0
141
0.0
142
1.0
143
1.0
 70
   688
 72
     0
 73
     0
 74
     5
  7

 75
    16
147
1.0
148
0.0
149
0.0
100
AcDbLayout
  1
ﾚｲｱｳﾄ1
 70
     1
 71
     1
 10
0.0
 20
0.0
 11
12.0
 21
9.0
 12
0.0
 22
0.0
 32
0.0
 14
0.0
 24
0.0
 34
0.0
 15
0.0
 25
0.0
 35
0.0
146
0.0
 13
0.0
 23
0.0
 33
0.0
 16
1.0
 26
0.0
 36
0.0
 17
0.0
 27
1.0
 37
0.0
 76
     0
330
50
  0
LAYOUT
  5
56
102
{ACAD_REACTORS
330
1A
102
}
330
1A
100
AcDbPlotSettings
  1

  2
None
  4

  6

 40
0.0
 41
0.0
 42
0.0
 43
0.0
 44
0.0
 45
0.0
 46
0.0
 47
0.0
 48
0.0
 49
0.0
140
0.0
141
0.0
142
1.0
143
1.0
 70
   688
 72
     0
 73
     0
 74
     5
  7

 75
    16
147
1.0
148
0.0
149
0.0
100
AcDbLayout
  1
ﾚｲｱｳﾄ2
 70
     1
 71
     2
 10
0.0
 20
0.0
 11
12.0
 21
9.0
 12
0.0
 22
0.0
 32
0.0
 14
0.0
 24
0.0
 34
0.0
 15
0.0
 25
0.0
 35
0.0
146
0.0
 13
0.0
 23
0.0
 33
0.0
 16
1.0
 26
0.0
 36
0.0
 17
0.0
 27
1.0
 37
0.0
 76
     0
330
55
  0
MLINESTYLE
  5
18
102
{ACAD_REACTORS
330
17
102
}
330
17
100
AcDbMlineStyle
  2
STANDARD
 70
     0
  3

 62
   256
 51
90.0
 52
90.0
 71
     2
 49
0.5
 62
   256
  6
BYLAYER
 49
-0.5
 62
   256
  6
BYLAYER
  0
ACDBPLACEHOLDER
  5
F
102
{ACAD_REACTORS
330
E
102
}
330
E
  0
ENDSEC
  0
EOF
