  0
SECTION
  2
HEADER
  9
$ACADVER
  1
AC1015
  9
$ACADMAINTVER
 70
     6
  9
$DWGCODEPAGE
  3
ANSI_1252
  9
$INSBASE
 10
0.0
 20
0.0
 30
0.0
  9
$EXTMIN
 10
0.0
 20
0.0
 30
0.0
  9
$EXTMAX
 10
732.380798
 20
624.801575
 30
2.0
  9
$LIMMIN
 10
0.0
 20
0.0
  9
$LIMMAX
 10
420.0
 20
297.0
  9
$ORTHOMODE
 70
     0
  9
$REGENMODE
 70
     1
  9
$FILLMODE
 70
     1
  9
$QTEXTMODE
 70
     0
  9
$MIRRTEXT
 70
     1
  9
$LTSCALE
 40
1.0
  9
$ATTMODE
 70
     1
  9
$TEXTSIZE
 40
2.5
  9
$TRACEWID
 40
1.0
  9
$TEXTSTYLE
  7
Standard
  9
$CLAYER
  8
0
  9
$CELTYPE
  6
ByLayer
  9
$CECOLOR
 62
   256
  9
$CELTSCALE
 40
1.0
  9
$DISPSILH
 70
     0
  9
$DIMSCALE
 40
1.0
  9
$DIMASZ
 40
2.5
  9
$DIMEXO
 40
0.625
  9
$DIMDLI
 40
3.75
  9
$DIMRND
 40
0.0
  9
$DIMDLE
 40
0.0
  9
$DIMEXE
 40
1.25
  9
$DIMTP
 40
0.0
  9
$DIMTM
 40
0.0
  9
$DIMTXT
 40
2.5
  9
$DIMCEN
 40
2.5
  9
$DIMTSZ
 40
0.0
  9
$DIMTOL
 70
     0
  9
$DIMLIM
 70
     0
  9
$DIMTIH
 70
     0
  9
$DIMTOH
 70
     0
  9
$DIMSE1
 70
     0
  9
$DIMSE2
 70
     0
  9
$DIMTAD
 70
     1
  9
$DIMZIN
 70
     8
  9
$DIMBLK
  1

  9
$DIMASO
 70
     1
  9
$DIMSHO
 70
     1
  9
$DIMPOST
  1

  9
$DIMAPOST
  1

  9
$DIMALT
 70
     0
  9
$DIMALTD
 70
     3
  9
$DIMALTF
 40
0.03937
  9
$DIMLFAC
 40
1.0
  9
$DIMTOFL
 70
     1
  9
$DIMTVP
 40
0.0
  9
$DIMTIX
 70
     0
  9
$DIMSOXD
 70
     0
  9
$DIMSAH
 70
     0
  9
$DIMBLK1
  1

  9
$DIMBLK2
  1

  9
$DIMSTYLE
  2
Standard
  9
$DIMCLRD
 70
     0
  9
$DIMCLRE
 70
     0
  9
$DIMCLRT
 70
     0
  9
$DIMTFAC
 40
1.0
  9
$DIMGAP
 40
0.625
  9
$DIMJUST
 70
     0
  9
$DIMSD1
 70
     0
  9
$DIMSD2
 70
     0
  9
$DIMTOLJ
 70
     0
  9
$DIMTZIN
 70
     8
  9
$DIMALTZ
 70
     0
  9
$DIMALTTZ
 70
     0
  9
$DIMUPT
 70
     0
  9
$DIMDEC
 70
     2
  9
$DIMTDEC
 70
     2
  9
$DIMALTU
 70
     2
  9
$DIMALTTD
 70
     3
  9
$DIMTXSTY
  7
Standard
  9
$DIMAUNIT
 70
     0
  9
$DIMADEC
 70
     0
  9
$DIMALTRND
 40
0.0
  9
$DIMAZIN
 70
     0
  9
$DIMDSEP
 70
    44
  9
$DIMATFIT
 70
     0
  9
$DIMFRAC
 70
     0
  9
$DIMLDRBLK
  1

  9
$DIMLUNIT
 70
     2
  9
$DIMLWD
 70
    -2
  9
$DIMLWE
 70
    -2
  9
$DIMTMOVE
 70
     0
  9
$LUNITS
 70
     2
  9
$LUPREC
 70
     4
  9
$SKETCHINC
 40
1.0
  9
$FILLETRAD
 40
2.5
  9
$AUNITS
 70
     0
  9
$AUPREC
 70
     0
  9
$MENU
  1
.
  9
$ELEVATION
 40
0.0
  9
$PELEVATION
 40
0.0
  9
$THICKNESS
 40
0.0
  9
$LIMCHECK
 70
     0
  9
$CHAMFERA
 40
2.5
  9
$CHAMFERB
 40
2.5
  9
$CHAMFERC
 40
0.0
  9
$CHAMFERD
 40
0.0
  9
$SKPOLY
 70
     0
  9
$TDCREATE
 40
2447893.375
  9
$TDUCREATE
 40
0.0
  9
$TDUPDATE
 40
2459482.463568461
  9
$TDUUPDATE
 40
2459482.088568461
  9
$TDINDWG
 40
0.0
  9
$TDUSRTIMER
 40
0.0
  9
$USRTIMER
 70
     1
  9
$ANGBASE
 50
0.0
  9
$ANGDIR
 70
     0
  9
$PDMODE
 70
     0
  9
$PDSIZE
 40
0.0
  9
$PLINEWID
 40
0.0
  9
$SPLFRAME
 70
     0
  9
$SPLINETYPE
 70
     6
  9
$SPLINESEGS
 70
     8
  9
$HANDSEED
  5
498
  9
$SURFTAB1
 70
     6
  9
$SURFTAB2
 70
     6
  9
$SURFTYPE
 70
     6
  9
$SURFU
 70
     6
  9
$SURFV
 70
     6
  9
$UCSBASE
  2

  9
$UCSNAME
  2

  9
$UCSORG
 10
0.0
 20
0.0
 30
0.0
  9
$UCSXDIR
 10
1.0
 20
0.0
 30
0.0
  9
$UCSYDIR
 10
0.0
 20
1.0
 30
0.0
  9
$UCSORTHOREF
  2

  9
$UCSORTHOVIEW
 70
     1
  9
$UCSORGTOP
 10
0.0
 20
0.0
 30
0.0
  9
$UCSORGBOTTOM
 10
0.0
 20
0.0
 30
0.0
  9
$UCSORGLEFT
 10
0.0
 20
0.0
 30
0.0
  9
$UCSORGRIGHT
 10
0.0
 20
0.0
 30
0.0
  9
$UCSORGFRONT
 10
0.0
 20
0.0
 30
0.0
  9
$UCSORGBACK
 10
0.0
 20
0.0
 30
0.0
  9
$PUCSBASE
  2

  9
$PUCSNAME
  2

  9
$PUCSORG
 10
0.0
 20
0.0
 30
0.0
  9
$PUCSXDIR
 10
1.0
 20
0.0
 30
0.0
  9
$PUCSYDIR
 10
0.0
 20
1.0
 30
0.0
  9
$PUCSORTHOREF
  2

  9
$PUCSORTHOVIEW
 70
     0
  9
$PUCSORGTOP
 10
0.0
 20
0.0
 30
0.0
  9
$PUCSORGBOTTOM
 10
0.0
 20
0.0
 30
0.0
  9
$PUCSORGLEFT
 10
0.0
 20
0.0
 30
0.0
  9
$PUCSORGRIGHT
 10
0.0
 20
0.0
 30
0.0
  9
$PUCSORGFRONT
 10
0.0
 20
0.0
 30
0.0
  9
$PUCSORGBACK
 10
0.0
 20
0.0
 30
0.0
  9
$USERI1
 70
     0
  9
$USERI2
 70
     0
  9
$USERI3
 70
     0
  9
$USERI4
 70
     0
  9
$USERI5
 70
     0
  9
$USERR1
 40
0.0
  9
$USERR2
 40
0.0
  9
$USERR3
 40
0.0
  9
$USERR4
 40
0.0
  9
$USERR5
 40
0.0
  9
$WORLDVIEW
 70
     1
  9
$SHADEDGE
 70
     3
  9
$SHADEDIF
 70
    70
  9
$TILEMODE
 70
     1
  9
$MAXACTVP
 70
    64
  9
$PINSBASE
 10
0.0
 20
0.0
 30
0.0
  9
$PLIMCHECK
 70
     0
  9
$PEXTMIN
 10
0.0
 20
0.0
 30
0.0
  9
$PEXTMAX
 10
732.380798
 20
624.801575
 30
2.0
  9
$PLIMMIN
 10
0.0
 20
0.0
  9
$PLIMMAX
 10
420.0
 20
297.0
  9
$UNITMODE
 70
     0
  9
$VISRETAIN
 70
     0
  9
$PLINEGEN
 70
     0
  9
$PSLTSCALE
 70
     1
  9
$TREEDEPTH
 70
  3020
  9
$CMLSTYLE
  2
Standard
  9
$CMLJUST
 70
     0
  9
$CMLSCALE
 40
20.0
  9
$PROXYGRAPHICS
 70
     1
  9
$MEASUREMENT
 70
     1
  9
$CELWEIGHT
370
    -1
  9
$ENDCAPS
280
     0
  9
$JOINSTYLE
280
     0
  9
$LWDISPLAY
290
     0
  9
$INSUNITS
 70
     0
  9
$HYPERLINKBASE
  1

  9
$STYLESHEET
  1

  9
$XEDIT
290
     1
  9
$CEPSNTYPE
380
     0
  9
$PSTYLEMODE
290
     0
  9
$FINGERPRINTGUID
  2
{759A1BFA-ED3E-428C-8D4B-52F1DEBAB5FB}
  9
$VERSIONGUID
  2
{FAEB1C32-E019-11D5-929B-00C0DF256EC4}
  9
$EXTNAMES
290
     1
  9
$PSVPSCALE
 40
0.0
  9
$OLESTARTUP
290
     0
  0
ENDSEC
  0
SECTION
  2
CLASSES
  0
CLASS
  1
ACDBDICTIONARYWDFLT
  2
AcDbDictionaryWithDefault
  3
ObjectDBX Classes
 90
        0
280
     0
281
     0
  0
CLASS
  1
VISUALSTYLE
  2
AcDbVisualStyle
  3
ObjectDBX Classes
 90
     4095
280
     0
281
     0
  0
CLASS
  1
MATERIAL
  2
AcDbMaterial
  3
ObjectDBX Classes
 90
     1153
280
     0
281
     0
  0
CLASS
  1
SCALE
  2
AcDbScale
  3
ObjectDBX Classes
 90
     1153
280
     0
281
     0
  0
CLASS
  1
TABLESTYLE
  2
AcDbTableStyle
  3
ObjectDBX Classes
 90
     4095
280
     0
281
     0
  0
CLASS
  1
MLEADERSTYLE
  2
AcDbMLeaderStyle
  3
ACDB_MLEADERSTYLE_CLASS
 90
     4095
280
     0
281
     0
  0
CLASS
  1
SUN
  2
AcDbSun
  3
SCENEOE
 90
     1153
280
     0
281
     0
  0
CLASS
  1
ACDBPLACEHOLDER
  2
AcDbPlaceHolder
  3
ObjectDBX Classes
 90
        0
280
     0
281
     0
  0
CLASS
  1
LAYOUT
  2
AcDbLayout
  3
ObjectDBX Classes
 90
        0
280
     0
281
     0
  0
ENDSEC
  0
SECTION
  2
TABLES
  0
TABLE
  2
VPORT
  5
8
330
0
100
AcDbSymbolTable
 70
     1
  0
VPORT
  5
29
330
8
100
AcDbSymbolTableRecord
100
AcDbViewportTableRecord
  2
*Active
 70
     0
 10
0.0
 20
0.0
 11
1.0
 21
1.0
 12
10.429907
 22
4.5
 13
0.0
 23
0.0
 14
0.5
 24
0.5
 15
0.5
 25
0.5
 16
0.0
 26
0.0
 36
1.0
 17
0.0
 27
0.0
 37
0.0
 40
9.0
 41
1.972973
 42
50.0
 43
0.0
 44
0.0
 50
0.0
 51
0.0
 71
     0
 72
   100
 73
     1
 74
     3
 75
     0
 76
     0
 77
     0
 78
     0
281
     0
 65
     1
110
0.0
120
0.0
130
0.0
111
1.0
121
0.0
131
0.0
112
0.0
122
1.0
132
0.0
 79
     0
146
0.0
  0
ENDTAB
  0
TABLE
  2
LTYPE
  5
5
330
0
100
AcDbSymbolTable
 70
     1
  0
LTYPE
  5
14
330
5
100
AcDbSymbolTableRecord
100
AcDbLinetypeTableRecord
  2
ByBlock
 70
     0
  3

 72
    65
 73
     0
 40
0.0
  0
LTYPE
  5
15
330
5
100
AcDbSymbolTableRecord
100
AcDbLinetypeTableRecord
  2
ByLayer
 70
     0
  3

 72
    65
 73
     0
 40
0.0
  0
LTYPE
  5
16
330
5
100
AcDbSymbolTableRecord
100
AcDbLinetypeTableRecord
  2
Continuous
 70
     0
  3
Solid line
 72
    65
 73
     0
 40
0.0
  0
ENDTAB
  0
TABLE
  2
LAYER
  5
2
330
0
100
AcDbSymbolTable
 70
     1
  0
LAYER
  5
10
330
2
100
AcDbSymbolTableRecord
100
AcDbLayerTableRecord
  2
0
 70
     0
 62
     7
  6
Continuous
370
    -3
390
F
  0
ENDTAB
  0
TABLE
  2
STYLE
  5
3
330
0
100
AcDbSymbolTable
 70
     1
  0
STYLE
  5
11
330
3
100
AcDbSymbolTableRecord
100
AcDbTextStyleTableRecord
  2
Standard
 70
     0
 40
0.0
 41
1.0
 50
0.0
 71
     0
 42
2.5
  3
txt
  4

  0
ENDTAB
  0
TABLE
  2
VIEW
  5
6
330
0
100
AcDbSymbolTable
 70
     0
  0
ENDTAB
  0
TABLE
  2
UCS
  5
7
330
0
100
AcDbSymbolTable
 70
     0
  0
ENDTAB
  0
TABLE
  2
APPID
  5
9
330
0
100
AcDbSymbolTable
 70
     1
  0
APPID
  5
12
330
9
100
AcDbSymbolTableRecord
100
AcDbRegAppTableRecord
  2
ACAD
 70
     0
  0
ENDTAB
  0
TABLE
  2
DIMSTYLE
  5
A
330
0
100
AcDbSymbolTable
 70
     1
100
AcDbDimStyleTable
  0
DIMSTYLE
105
27
330
A
100
AcDbSymbolTableRecord
100
AcDbDimStyleTableRecord
  2
Standard
 70
     0
178
     0
340
11
  0
ENDTAB
  0
TABLE
  2
BLOCK_RECORD
  5
1
330
0
100
AcDbSymbolTable
 70
     1
  0
BLOCK_RECORD
  5
1F
330
1
100
AcDbSymbolTableRecord
100
AcDbBlockTableRecord
  2
*Model_Space
340
22
  0
BLOCK_RECORD
  5
1B
330
1
100
AcDbSymbolTableRecord
100
AcDbBlockTableRecord
  2
*Paper_Space
340
1E
  0
BLOCK_RECORD
  5
23
330
1
100
AcDbSymbolTableRecord
100
AcDbBlockTableRecord
  2
*Paper_Space0
340
26
  0
ENDTAB
  0
ENDSEC
  0
SECTION
  2
BLOCKS
  0
BLOCK
  5
20
330
1F
100
AcDbEntity
  8
0
100
AcDbBlockBegin
  2
*Model_Space
 70
     0
 10
0.0
 20
0.0
 30
0.0
  3
*Model_Space
  1

  0
ENDBLK
  5
21
330
1F
100
AcDbEntity
  8
0
100
AcDbBlockEnd
  0
BLOCK
  5
1C
330
1B
100
AcDbEntity
 67
     1
  8
0
100
AcDbBlockBegin
  2
*Paper_Space
 70
     0
 10
0.0
 20
0.0
 30
0.0
  3
*Paper_Space
  1

  0
ENDBLK
  5
1D
330
1B
100
AcDbEntity
 67
     1
  8
0
100
AcDbBlockEnd
  0
BLOCK
  5
24
330
23
100
AcDbEntity
  8
0
100
AcDbBlockBegin
  2
*Paper_Space0
 70
     0
 10
0.0
 20
0.0
 30
0.0
  3
*Paper_Space0
  1

  0
ENDBLK
  5
25
330
23
100
AcDbEntity
  8
0
100
AcDbBlockEnd
  0
ENDSEC
  0
SECTION
  2
ENTITIES
  0
LINE
  5
6E
330
1F
100
AcDbEntity
  8
0
 62
     7
370
    35
100
AcDbLine
 10
489.539795
 20
386.873749
 30
0.0
 11
489.539795
 21
383.873749
 31
0.0
  0
LINE
  5
6F
330
1F
100
AcDbEntity
  8
0
 62
     7
370
    35
100
AcDbLine
 10
489.539795
 20
386.873749
 30
0.0
 11
489.539795
 21
386.943756
 31
0.0
  0
LINE
  5
70
330
1F
100
AcDbEntity
  8
0
 62
     7
370
    35
100
AcDbLine
 10
489.539795
 20
327.673767
 30
0.0
 11
489.539795
 21
331.973755
 31
0.0
  0
LINE
  5
71
330
1F
100
AcDbEntity
  8
0
 62
     7
370
    35
100
AcDbLine
 10
489.539795
 20
334.973755
 30
0.0
 11
489.539795
 21
331.973755
 31
0.0
  0
LINE
  5
72
330
1F
100
AcDbEntity
  8
0
 62
     7
370
    35
100
AcDbLine
 10
489.539795
 20
383.873749
 30
0.0
 11
489.539795
 21
334.973755
 31
0.0
  0
LINE
  5
73
330
1F
100
AcDbEntity
  8
0
 62
     7
370
    35
100
AcDbLine
 10
494.839813
 20
332.273743
 30
0.0
 11
494.839813
 21
334.973755
 31
0.0
  0
LINE
  5
74
330
1F
100
AcDbEntity
  8
0
 62
     7
370
    35
100
AcDbLine
 10
494.839813
 20
332.273743
 30
0.0
 11
489.839813
 21
332.273743
 31
0.0
  0
LINE
  5
75
330
1F
100
AcDbEntity
  8
0
 62
     7
370
    35
100
AcDbLine
 10
489.839813
 20
334.973755
 30
0.0
 11
489.839813
 21
332.273743
 31
0.0
  0
LINE
  5
76
330
1F
100
AcDbEntity
  8
0
 62
     7
370
    35
100
AcDbLine
 10
489.539795
 20
334.973755
 30
0.0
 11
489.839813
 21
334.973755
 31
0.0
  0
LINE
  5
77
330
1F
100
AcDbEntity
  8
0
 62
     7
370
    35
100
AcDbLine
 10
495.139801
 20
331.973755
 30
0.0
 11
489.539795
 21
331.973755
 31
0.0
  0
LINE
  5
78
330
1F
100
AcDbEntity
  8
0
 62
     7
370
    35
100
AcDbLine
 10
495.139801
 20
386.873749
 30
0.0
 11
489.539795
 21
386.873749
 31
0.0
  0
LINE
  5
79
330
1F
100
AcDbEntity
  8
0
 62
     7
370
    35
100
AcDbLine
 10
489.539795
 20
383.873749
 30
0.0
 11
489.839813
 21
383.873749
 31
0.0
  0
LINE
  5
7A
330
1F
100
AcDbEntity
  8
0
 62
     7
370
    35
100
AcDbLine
 10
489.839813
 20
386.573761
 30
0.0
 11
489.839813
 21
383.873749
 31
0.0
  0
LINE
  5
7B
330
1F
100
AcDbEntity
  8
0
 62
     7
370
    35
100
AcDbLine
 10
489.839813
 20
386.573761
 30
0.0
 11
494.839813
 21
386.573761
 31
0.0
  0
LINE
  5
7C
330
1F
100
AcDbEntity
  8
0
 62
     7
370
    35
100
AcDbLine
 10
494.839813
 20
383.873749
 30
0.0
 11
494.839813
 21
386.573761
 31
0.0
  0
LINE
  5
7D
330
1F
100
AcDbEntity
  8
0
 62
     7
370
    35
100
AcDbLine
 10
494.839813
 20
334.973755
 30
0.0
 11
494.839813
 21
383.873749
 31
0.0
  0
LINE
  5
7E
330
1F
100
AcDbEntity
  8
0
 62
     7
370
    35
100
AcDbLine
 10
495.139801
 20
327.673767
 30
0.0
 11
494.539795
 21
327.673767
 31
0.0
  0
LINE
  5
7F
330
1F
100
AcDbEntity
  8
0
 62
     7
370
    35
100
AcDbLine
 10
489.739777
 20
327.673767
 30
0.0
 11
489.539795
 21
327.673767
 31
0.0
  0
LINE
  5
80
330
1F
100
AcDbEntity
  8
0
 62
     7
370
    35
100
AcDbLine
 10
489.739807
 20
330.523743
 30
0.0
 11
489.739807
 21
330.023743
 31
0.0
  0
LINE
  5
81
330
1F
100
AcDbEntity
  8
0
 62
     7
370
    35
100
AcDbLine
 10
489.739807
 20
331.973755
 30
0.0
 11
489.739807
 21
330.523743
 31
0.0
  0
LINE
  5
82
330
1F
100
AcDbEntity
  8
0
 62
     7
370
    35
100
AcDbLine
 10
494.539795
 20
331.973755
 30
0.0
 11
494.539795
 21
330.523743
 31
0.0
  0
LINE
  5
83
330
1F
100
AcDbEntity
  8
0
 62
     7
370
    35
100
AcDbLine
 10
494.539795
 20
330.523743
 30
0.0
 11
494.539795
 21
330.023743
 31
0.0
  0
LINE
  5
84
330
1F
100
AcDbEntity
  8
0
 62
     7
370
    35
100
AcDbLine
 10
494.539795
 20
330.023743
 30
0.0
 11
494.539795
 21
325.023743
 31
0.0
  0
LINE
  5
85
330
1F
100
AcDbEntity
  8
0
 62
     7
370
    35
100
AcDbLine
 10
489.739807
 20
330.023743
 30
0.0
 11
489.739807
 21
325.023743
 31
0.0
  0
ARC
  5
86
330
1F
100
AcDbEntity
  8
0
 62
     7
370
    35
100
AcDbCircle
 10
494.039795
 20
330.023743
 30
0.0
 40
0.500000000000004
100
AcDbArc
 50
0.0
 51
90.000003
  0
ARC
  5
87
330
1F
100
AcDbEntity
  8
0
 62
     7
370
    35
100
AcDbCircle
 10
490.239807
 20
330.023743
 30
0.0
 40
0.500000000000004
100
AcDbArc
 50
90.000003
 51
180.000005
  0
LINE
  5
88
330
1F
100
AcDbEntity
  8
0
 62
     7
370
    35
100
AcDbLine
 10
490.239807
 20
330.523743
 30
0.0
 11
494.039795
 21
330.523743
 31
0.0
  0
ARC
  5
89
330
1F
100
AcDbEntity
  8
0
 62
     7
370
    35
100
AcDbCircle
 10
494.039795
 20
325.023743
 30
0.0
 40
0.5
100
AcDbArc
 50
269.999997
 51
360.0
  0
ARC
  5
8A
330
1F
100
AcDbEntity
  8
0
 62
     7
370
    35
100
AcDbCircle
 10
490.239807
 20
325.023743
 30
0.0
 40
0.5
100
AcDbArc
 50
180.000005
 51
269.999997
  0
LINE
  5
8B
330
1F
100
AcDbEntity
  8
0
 62
     7
370
    35
100
AcDbLine
 10
490.239807
 20
324.523743
 30
0.0
 11
494.039795
 21
324.523743
 31
0.0
  0
LINE
  5
8C
330
1F
100
AcDbEntity
  8
0
 62
     7
370
    35
100
AcDbLine
 10
487.139801
 20
308.84375
 30
0.0
 11
487.139801
 21
304.84375
 31
0.0
  0
LINE
  5
8D
330
1F
100
AcDbEntity
  8
0
 62
     7
370
    35
100
AcDbLine
 10
487.139801
 20
308.84375
 30
0.0
 11
496.539795
 21
308.84375
 31
0.0
  0
LINE
  5
8E
330
1F
100
AcDbEntity
  8
0
 62
     7
370
    35
100
AcDbLine
 10
487.139801
 20
304.84375
 30
0.0
 11
485.639801
 21
304.84375
 31
0.0
  0
LINE
  5
8F
330
1F
100
AcDbEntity
  8
0
 62
     7
370
    35
100
AcDbLine
 10
496.539795
 20
296.043762
 30
0.0
 11
496.539795
 21
308.84375
 31
0.0
  0
LINE
  5
90
330
1F
100
AcDbEntity
  8
0
 62
     7
370
    35
100
AcDbLine
 10
485.639801
 20
300.043762
 30
0.0
 11
485.639801
 21
304.84375
 31
0.0
  0
LINE
  5
91
330
1F
100
AcDbEntity
  8
0
 62
     7
370
    35
100
AcDbLine
 10
485.639801
 20
300.043762
 30
0.0
 11
487.139801
 21
300.043762
 31
0.0
  0
LINE
  5
92
330
1F
100
AcDbEntity
  8
0
 62
     7
370
    35
100
AcDbLine
 10
487.139801
 20
300.043762
 30
0.0
 11
487.139801
 21
296.043762
 31
0.0
  0
LINE
  5
93
330
1F
100
AcDbEntity
  8
0
 62
     7
370
    35
100
AcDbLine
 10
496.539795
 20
296.043762
 30
0.0
 11
487.139801
 21
296.043762
 31
0.0
  0
LINE
  5
94
330
1F
100
AcDbEntity
  8
0
 62
     7
370
    35
100
AcDbLine
 10
497.239807
 20
310.34375
 30
0.0
 11
484.639801
 21
310.34375
 31
0.0
  0
LINE
  5
95
330
1F
100
AcDbEntity
  8
0
 62
     7
370
    35
100
AcDbLine
 10
497.239807
 20
294.543762
 30
0.0
 11
484.639801
 21
294.543762
 31
0.0
  0
LINE
  5
96
330
1F
100
AcDbEntity
  8
0
 62
     7
370
    35
100
AcDbLine
 10
484.639801
 20
294.543762
 30
0.0
 11
484.639801
 21
310.34375
 31
0.0
  0
LINE
  5
97
330
1F
100
AcDbEntity
  8
0
 62
     7
370
    35
100
AcDbLine
 10
516.169739
 20
275.543762
 30
0.0
 11
518.009827
 21
275.543762
 31
0.0
  0
LINE
  5
98
330
1F
100
AcDbEntity
  8
0
 62
     7
370
    35
100
AcDbLine
 10
518.009827
 20
275.543762
 30
0.0
 11
518.009827
 21
276.043762
 31
0.0
  0
LINE
  5
99
330
1F
100
AcDbEntity
  8
0
 62
     7
370
    35
100
AcDbLine
 10
495.13974
 20
325.543762
 30
0.0
 11
494.539734
 21
325.543762
 31
0.0
  0
LINE
  5
9A
330
1F
100
AcDbEntity
  8
0
 62
     7
370
    35
100
AcDbLine
 10
489.739716
 20
325.543762
 30
0.0
 11
489.339722
 21
325.543762
 31
0.0
  0
LINE
  5
9B
330
1F
100
AcDbEntity
  8
0
 62
     7
370
    35
100
AcDbLine
 10
513.969727
 20
319.11377
 30
0.0
 11
516.014771
 21
319.11377
 31
0.0
  0
LINE
  5
9C
330
1F
100
AcDbEntity
  8
0
 62
     7
370
    35
100
AcDbLine
 10
518.014771
 20
276.043762
 30
0.0
 11
516.169739
 21
276.043762
 31
0.0
  0
LINE
  5
9D
330
1F
100
AcDbEntity
  8
0
 62
     7
370
    35
100
AcDbLine
 10
516.014771
 20
276.598663
 30
0.0
 11
516.014771
 21
319.11377
 31
0.0
  0
LINE
  5
9E
330
1F
100
AcDbEntity
  8
0
 62
     7
370
    35
100
AcDbLine
 10
516.014771
 20
319.11377
 30
0.0
 11
518.014771
 21
319.11377
 31
0.0
  0
LINE
  5
9F
330
1F
100
AcDbEntity
  8
0
 62
     7
370
    35
100
AcDbLine
 10
518.014771
 20
276.043762
 30
0.0
 11
518.014771
 21
319.11377
 31
0.0
  0
LINE
  5
A0
330
1F
100
AcDbEntity
  8
0
 62
     7
370
    35
100
AcDbLine
 10
524.014771
 20
316.403137
 30
0.0
 11
524.014771
 21
278.754395
 31
0.0
  0
LINE
  5
A1
330
1F
100
AcDbEntity
  8
0
 62
     7
370
    35
100
AcDbLine
 10
524.014771
 20
277.754395
 30
0.0
 11
524.014771
 21
278.754395
 31
0.0
  0
LINE
  5
A2
330
1F
100
AcDbEntity
  8
0
 62
     7
370
    35
100
AcDbLine
 10
524.014771
 20
316.403137
 30
0.0
 11
524.014771
 21
317.403137
 31
0.0
  0
LINE
  5
A3
330
1F
100
AcDbEntity
  8
0
 62
     7
370
    35
100
AcDbLine
 10
518.014771
 20
317.403137
 30
0.0
 11
524.014771
 21
317.403137
 31
0.0
  0
LINE
  5
A4
330
1F
100
AcDbEntity
  8
0
 62
     7
370
    35
100
AcDbLine
 10
518.014771
 20
277.754395
 30
0.0
 11
524.014771
 21
277.754395
 31
0.0
  0
LINE
  5
A5
330
1F
100
AcDbEntity
  8
0
 62
     7
370
    35
100
AcDbLine
 10
453.509796
 20
285.543701
 30
0.0
 11
453.509796
 21
278.543701
 31
0.0
  0
LINE
  5
A6
330
1F
100
AcDbEntity
  8
0
 62
     7
370
    35
100
AcDbLine
 10
489.339813
 20
386.943756
 30
0.0
 11
495.139801
 21
386.943756
 31
0.0
  0
LINE
  5
A7
330
1F
100
AcDbEntity
  8
0
 62
     7
370
    35
100
AcDbLine
 10
489.339813
 20
386.943756
 30
0.0
 11
489.339813
 21
323.943756
 31
0.0
  0
LINE
  5
A8
330
1F
100
AcDbEntity
  8
0
 62
     7
370
    35
100
AcDbLine
 10
473.639801
 20
289.143768
 30
0.0
 11
501.439789
 21
289.143768
 31
0.0
  0
ARC
  5
A9
330
1F
100
AcDbEntity
  8
0
 62
     7
370
    35
100
AcDbCircle
 10
501.439789
 20
290.143768
 30
0.0
 40
1.0
100
AcDbArc
 50
269.999997
 51
360.0
  0
LINE
  5
AA
330
1F
100
AcDbEntity
  8
0
 62
     7
370
    35
100
AcDbLine
 10
502.439789
 20
290.143768
 30
0.0
 11
502.439789
 21
392.943756
 31
0.0
  0
ARC
  5
AB
330
1F
100
AcDbEntity
  8
0
 62
     7
370
    35
100
AcDbCircle
 10
501.439789
 20
392.943756
 30
0.0
 40
1.0
100
AcDbArc
 50
360.0
 51
90.000003
  0
LINE
  5
AC
330
1F
100
AcDbEntity
  8
0
 62
     7
370
    35
100
AcDbLine
 10
501.439789
 20
393.943756
 30
0.0
 11
473.639801
 21
393.943756
 31
0.0
  0
ARC
  5
AD
330
1F
100
AcDbEntity
  8
0
 62
     7
370
    35
100
AcDbCircle
 10
473.639801
 20
392.943756
 30
0.0
 40
1.0
100
AcDbArc
 50
90.000003
 51
179.999995
  0
LINE
  5
AE
330
1F
100
AcDbEntity
  8
0
 62
     7
370
    35
100
AcDbLine
 10
472.639801
 20
392.943756
 30
0.0
 11
472.639801
 21
290.143768
 31
0.0
  0
ARC
  5
AF
330
1F
100
AcDbEntity
  8
0
 62
     7
370
    35
100
AcDbCircle
 10
473.639801
 20
290.143768
 30
0.0
 40
1.0
100
AcDbArc
 50
180.000005
 51
269.999997
  0
LINE
  5
B0
330
1F
100
AcDbEntity
  8
0
 62
     7
370
    35
100
AcDbLine
 10
484.439789
 20
310.543762
 30
0.0
 11
497.239807
 21
310.543762
 31
0.0
  0
LINE
  5
B1
330
1F
100
AcDbEntity
  8
0
 62
     7
370
    35
100
AcDbLine
 10
497.239807
 20
294.34375
 30
0.0
 11
497.239807
 21
310.543762
 31
0.0
  0
LINE
  5
B2
330
1F
100
AcDbEntity
  8
0
 62
     7
370
    35
100
AcDbLine
 10
497.239807
 20
294.34375
 30
0.0
 11
484.439789
 21
294.34375
 31
0.0
  0
LINE
  5
B3
330
1F
100
AcDbEntity
  8
0
 62
     7
370
    35
100
AcDbLine
 10
484.439789
 20
294.34375
 30
0.0
 11
484.439789
 21
310.543762
 31
0.0
  0
LINE
  5
B4
330
1F
100
AcDbEntity
  8
0
 62
     7
370
    35
100
AcDbLine
 10
495.139801
 20
323.943756
 30
0.0
 11
495.139801
 21
386.943756
 31
0.0
  0
LINE
  5
B5
330
1F
100
AcDbEntity
  8
0
 62
     7
370
    35
100
AcDbLine
 10
495.139801
 20
323.943756
 30
0.0
 11
489.339813
 21
323.943756
 31
0.0
  0
LINE
  5
B6
330
1F
100
AcDbEntity
  8
0
 62
     7
370
    35
100
AcDbLine
 10
456.269806
 20
285.543762
 30
0.0
 11
456.269806
 21
286.043762
 31
0.0
  0
ARC
  5
B7
330
1F
100
AcDbEntity
  8
0
 62
     7
370
    35
100
AcDbCircle
 10
456.769897
 20
286.043884
 30
0.0
 40
0.5001182101796602
100
AcDbArc
 50
180.01565
 51
270.015652
  0
ARC
  5
B8
330
1F
100
AcDbEntity
  8
0
 62
     7
370
    35
100
AcDbCircle
 10
456.769897
 20
277.04361
 30
0.0
 40
0.5001182101781473
100
AcDbArc
 50
89.984348
 51
179.98435
  0
LINE
  5
B9
330
1F
100
AcDbEntity
  8
0
 62
     7
370
    35
100
AcDbLine
 10
456.269806
 20
277.043762
 30
0.0
 11
456.269806
 21
277.543762
 31
0.0
  0
LINE
  5
BA
330
1F
100
AcDbEntity
  8
0
 62
     7
370
    35
100
AcDbLine
 10
456.269806
 20
285.543762
 30
0.0
 11
456.269806
 21
277.543762
 31
0.0
  0
LINE
  5
BB
330
1F
100
AcDbEntity
  8
0
 62
     7
370
    35
100
AcDbLine
 10
456.269806
 20
272.143768
 30
0.0
 11
456.269806
 21
277.043762
 31
0.0
  0
LINE
  5
BC
330
1F
100
AcDbEntity
  8
0
 62
     7
370
    35
100
AcDbLine
 10
456.269806
 20
286.043762
 30
0.0
 11
456.269806
 21
416.944
 31
0.0
  0
LINE
  5
BD
330
1F
100
AcDbEntity
  8
0
 62
     7
370
    35
100
AcDbLine
 10
456.269806
 20
417.147461
 30
0.0
 11
456.269806
 21
416.944
 31
0.0
  0
ARC
  5
BE
330
1F
100
AcDbEntity
  8
0
 62
     7
370
    35
100
AcDbCircle
 10
456.738617
 20
416.974915
 30
0.0
 40
0.4995684371366671
100
AcDbArc
 50
110.204672
 51
159.795308
  0
ARC
  5
BF
330
1F
100
AcDbEntity
  8
0
 62
     7
370
    35
100
AcDbCircle
 10
456.769806
 20
272.143768
 30
0.0
 40
0.5
100
AcDbArc
 50
180.000005
 51
269.999997
  0
LINE
  5
C0
330
1F
100
AcDbEntity
  8
0
 62
     7
370
    35
100
AcDbLine
 10
489.339813
 20
280.543762
 30
0.0
 11
489.339813
 21
273.128601
 31
0.0
  0
ARC
  5
C1
330
1F
100
AcDbEntity
  8
0
 62
     7
370
    35
100
AcDbCircle
 10
492.339813
 20
280.543762
 30
0.0
 40
3.0
100
AcDbArc
 50
90.000003
 51
179.999995
  0
LINE
  5
C2
330
1F
100
AcDbEntity
  8
0
 62
     7
370
    35
100
AcDbLine
 10
492.339813
 20
283.543762
 30
0.0
 11
506.084961
 21
283.543762
 31
0.0
  0
LINE
  5
C3
330
1F
100
AcDbEntity
  8
0
 62
     7
370
    35
100
AcDbLine
 10
506.084961
 20
398.543762
 30
0.0
 11
492.339813
 21
398.543762
 31
0.0
  0
ARC
  5
C4
330
1F
100
AcDbEntity
  8
0
 62
     7
370
    35
100
AcDbCircle
 10
492.339813
 20
401.543762
 30
0.0
 40
3.0
100
AcDbArc
 50
180.000005
 51
269.999997
  0
LINE
  5
C5
330
1F
100
AcDbEntity
  8
0
 62
     7
370
    35
100
AcDbLine
 10
489.339813
 20
401.543762
 30
0.0
 11
489.339813
 21
415.958923
 31
0.0
  0
LINE
  5
C6
330
1F
100
AcDbEntity
  8
0
 62
     7
370
    35
100
AcDbLine
 10
461.6698
 20
285.543762
 30
0.0
 11
457.754639
 21
285.543762
 31
0.0
  0
ARC
  5
C7
330
1F
100
AcDbEntity
  8
0
 62
     7
370
    35
100
AcDbCircle
 10
461.6698
 20
281.543762
 30
0.0
 40
4.0
100
AcDbArc
 50
269.999997
 51
90.000003
  0
LINE
  5
C8
330
1F
100
AcDbEntity
  8
0
 62
     7
370
    35
100
AcDbLine
 10
457.754639
 20
277.543762
 30
0.0
 11
461.6698
 21
277.543762
 31
0.0
  0
LINE
  5
C9
330
1F
100
AcDbEntity
  8
0
 62
     7
370
    35
100
AcDbLine
 10
456.769806
 20
271.643768
 30
0.0
 11
488.839813
 21
271.643768
 31
0.0
  0
LINE
  5
CA
330
1F
100
AcDbEntity
  8
0
 62
     7
370
    35
100
AcDbLine
 10
489.339813
 20
272.143982
 30
0.0
 11
489.339813
 21
273.128601
 31
0.0
  0
LINE
  5
CB
330
1F
100
AcDbEntity
  8
0
 62
     7
370
    35
100
AcDbLine
 10
507.06955
 20
283.543762
 30
0.0
 11
506.084961
 21
283.543762
 31
0.0
  0
LINE
  5
CC
330
1F
100
AcDbEntity
  8
0
 62
     7
370
    35
100
AcDbLine
 10
507.569794
 20
284.043762
 30
0.0
 11
507.569794
 21
398.043762
 31
0.0
  0
LINE
  5
CD
330
1F
100
AcDbEntity
  8
0
 62
     7
370
    35
100
AcDbLine
 10
507.06955
 20
398.543762
 30
0.0
 11
506.084961
 21
398.543762
 31
0.0
  0
LINE
  5
CE
330
1F
100
AcDbEntity
  8
0
 62
     7
370
    35
100
AcDbLine
 10
489.339813
 20
416.943512
 30
0.0
 11
489.339813
 21
415.958923
 31
0.0
  0
LINE
  5
CF
330
1F
100
AcDbEntity
  8
0
 62
     7
370
    35
100
AcDbLine
 10
488.839813
 20
417.443756
 30
0.0
 11
456.769562
 21
417.443756
 31
0.0
  0
ARC
  5
D0
330
1F
100
AcDbEntity
  8
0
 62
     7
370
    35
100
AcDbCircle
 10
488.839661
 20
272.14386
 30
0.0
 40
0.5001182101794419
100
AcDbArc
 50
270.015652
 51
0.015652
  0
LINE
  5
D1
330
1F
100
AcDbEntity
  8
0
 62
     7
370
    35
100
AcDbLine
 10
489.339813
 20
271.643768
 30
0.0
 11
507.069794
 21
271.643768
 31
0.0
  0
LINE
  5
D2
330
1F
100
AcDbEntity
  8
0
 62
     7
370
    35
100
AcDbLine
 10
488.839813
 20
271.643768
 30
0.0
 11
489.339813
 21
271.643768
 31
0.0
  0
ARC
  5
D3
330
1F
100
AcDbEntity
  8
0
 62
     7
370
    35
100
AcDbCircle
 10
507.069702
 20
284.043884
 30
0.0
 40
0.5001182101794212
100
AcDbArc
 50
269.98435
 51
359.984348
  0
LINE
  5
D4
330
1F
100
AcDbEntity
  8
0
 62
     7
370
    35
100
AcDbLine
 10
507.569794
 20
283.543762
 30
0.0
 11
507.569794
 21
284.043762
 31
0.0
  0
LINE
  5
D5
330
1F
100
AcDbEntity
  8
0
 62
     7
370
    35
100
AcDbLine
 10
507.569794
 20
272.143768
 30
0.0
 11
507.569794
 21
283.543762
 31
0.0
  0
ARC
  5
D6
330
1F
100
AcDbEntity
  8
0
 62
     7
370
    35
100
AcDbCircle
 10
507.069794
 20
272.143768
 30
0.0
 40
0.5
100
AcDbArc
 50
269.999997
 51
360.0
  0
ARC
  5
D7
330
1F
100
AcDbEntity
  8
0
 62
     7
370
    35
100
AcDbCircle
 10
507.069702
 20
398.04361
 30
0.0
 40
0.500118210179599
100
AcDbArc
 50
0.015652
 51
90.01565
  0
ARC
  5
D8
330
1F
100
AcDbEntity
  8
0
 62
     7
370
    35
100
AcDbCircle
 10
488.839661
 20
416.943665
 30
0.0
 40
0.5001182101796757
100
AcDbArc
 50
359.984348
 51
89.984348
  0
ARC
  5
D9
330
1F
100
AcDbEntity
  8
0
 62
     7
370
    35
100
AcDbCircle
 10
507.069794
 20
416.943756
 30
0.0
 40
0.5
100
AcDbArc
 50
0.0
 51
90.000003
  0
LINE
  5
DA
330
1F
100
AcDbEntity
  8
0
 62
     7
370
    35
100
AcDbLine
 10
507.569794
 20
398.543762
 30
0.0
 11
507.569794
 21
416.943756
 31
0.0
  0
LINE
  5
DB
330
1F
100
AcDbEntity
  8
0
 62
     7
370
    35
100
AcDbLine
 10
507.569794
 20
398.043762
 30
0.0
 11
507.569794
 21
398.543762
 31
0.0
  0
LINE
  5
DC
330
1F
100
AcDbEntity
  8
0
 62
     7
370
    35
100
AcDbLine
 10
456.769562
 20
417.443756
 30
0.0
 11
456.566101
 21
417.443756
 31
0.0
  0
LINE
  5
DD
330
1F
100
AcDbEntity
  8
0
 62
     7
370
    35
100
AcDbLine
 10
489.339813
 20
417.443756
 30
0.0
 11
488.839813
 21
417.443756
 31
0.0
  0
LINE
  5
DE
330
1F
100
AcDbEntity
  8
0
 62
     7
370
    35
100
AcDbLine
 10
507.069794
 20
417.443756
 30
0.0
 11
489.339813
 21
417.443756
 31
0.0
  0
LINE
  5
DF
330
1F
100
AcDbEntity
  8
0
 62
     7
370
    35
100
AcDbLine
 10
456.77005
 20
277.543762
 30
0.0
 11
457.754639
 21
277.543762
 31
0.0
  0
LINE
  5
E0
330
1F
100
AcDbEntity
  8
0
 62
     7
370
    35
100
AcDbLine
 10
456.77005
 20
285.543762
 30
0.0
 11
457.754639
 21
285.543762
 31
0.0
  0
ARC
  5
E1
330
1F
100
AcDbEntity
  8
0
 62
     7
370
    35
100
AcDbCircle
 10
473.539795
 20
393.043762
 30
0.0
 40
1.0
100
AcDbArc
 50
90.000003
 51
180.000005
  0
LINE
  5
E2
330
1F
100
AcDbEntity
  8
0
 62
     7
370
    35
100
AcDbLine
 10
501.539795
 20
394.043762
 30
0.0
 11
473.539795
 21
394.043762
 31
0.0
  0
ARC
  5
E3
330
1F
100
AcDbEntity
  8
0
 62
     7
370
    35
100
AcDbCircle
 10
501.539795
 20
393.043762
 30
0.0
 40
1.0
100
AcDbArc
 50
0.0
 51
90.000003
  0
LINE
  5
E4
330
1F
100
AcDbEntity
  8
0
 62
     7
370
    35
100
AcDbLine
 10
502.539795
 20
290.043762
 30
0.0
 11
502.539795
 21
393.043762
 31
0.0
  0
ARC
  5
E5
330
1F
100
AcDbEntity
  8
0
 62
     7
370
    35
100
AcDbCircle
 10
501.539795
 20
290.043762
 30
0.0
 40
1.0
100
AcDbArc
 50
269.999997
 51
360.0
  0
ARC
  5
E6
330
1F
100
AcDbEntity
  8
0
 62
     7
370
    35
100
AcDbCircle
 10
473.539795
 20
290.043762
 30
0.0
 40
1.0
100
AcDbArc
 50
180.000005
 51
269.999997
  0
LINE
  5
E7
330
1F
100
AcDbEntity
  8
0
 62
     7
370
    35
100
AcDbLine
 10
472.539795
 20
393.043762
 30
0.0
 11
472.539795
 21
290.043762
 31
0.0
  0
LINE
  5
E8
330
1F
100
AcDbEntity
  8
0
 62
     7
370
    35
100
AcDbLine
 10
473.539795
 20
289.043762
 30
0.0
 11
501.539795
 21
289.043762
 31
0.0
  0
ARC
  5
E9
330
1F
100
AcDbEntity
  8
0
 62
     7
370
    35
100
AcDbCircle
 10
456.1698
 20
417.539917
 30
0.0
 40
1.500005501928003
100
AcDbArc
 50
90.000242
 51
180.000241
  0
LINE
  5
EA
330
1F
100
AcDbEntity
  8
0
 62
     7
370
    35
100
AcDbLine
 10
454.6698
 20
417.539917
 30
0.0
 11
454.6698
 21
271.547607
 31
0.0
  0
LINE
  5
EB
330
1F
100
AcDbEntity
  8
0
 62
     7
370
    35
100
AcDbLine
 10
455.6698
 20
417.539917
 30
0.0
 11
455.6698
 21
271.547607
 31
0.0
  0
ARC
  5
EC
330
1F
100
AcDbEntity
  8
0
 62
     7
370
    35
100
AcDbCircle
 10
456.1698
 20
271.547577
 30
0.0
 40
1.500005502096679
100
AcDbArc
 50
179.999759
 51
269.999758
  0
LINE
  5
ED
330
1F
100
AcDbEntity
  8
0
 62
     7
370
    35
100
AcDbLine
 10
449.6698
 20
413.543762
 30
0.0
 11
449.6698
 21
411.043762
 31
0.0
  0
LINE
  5
EE
330
1F
100
AcDbEntity
  8
0
 62
     7
370
    35
100
AcDbLine
 10
449.6698
 20
416.043762
 30
0.0
 11
449.6698
 21
413.543762
 31
0.0
  0
LINE
  5
EF
330
1F
100
AcDbEntity
  8
0
 62
     7
370
    35
100
AcDbLine
 10
454.6698
 20
272.543762
 30
0.0
 11
449.869812
 21
272.543762
 31
0.0
  0
LINE
  5
F0
330
1F
100
AcDbEntity
  8
0
 62
     7
370
    35
100
AcDbLine
 10
449.869812
 20
273.043762
 30
0.0
 11
449.869812
 21
272.543762
 31
0.0
  0
LINE
  5
F1
330
1F
100
AcDbEntity
  8
0
 62
     7
370
    35
100
AcDbLine
 10
449.869812
 20
278.543762
 30
0.0
 11
449.869812
 21
278.043762
 31
0.0
  0
LINE
  5
F2
330
1F
100
AcDbEntity
  8
0
 62
     7
370
    35
100
AcDbLine
 10
454.6698
 20
278.543762
 30
0.0
 11
449.869812
 21
278.543762
 31
0.0
  0
LINE
  5
F3
330
1F
100
AcDbEntity
  8
0
 62
     7
370
    35
100
AcDbLine
 10
454.6698
 20
285.543762
 30
0.0
 11
449.869812
 21
285.543762
 31
0.0
  0
LINE
  5
F4
330
1F
100
AcDbEntity
  8
0
 62
     7
370
    35
100
AcDbLine
 10
449.869812
 20
409.543762
 30
0.0
 11
449.869812
 21
285.543762
 31
0.0
  0
LINE
  5
F5
330
1F
100
AcDbEntity
  8
0
 62
     7
370
    35
100
AcDbLine
 10
454.6698
 20
409.543762
 30
0.0
 11
449.869812
 21
409.543762
 31
0.0
  0
LINE
  5
F6
330
1F
100
AcDbEntity
  8
0
 62
     7
370
    35
100
AcDbLine
 10
449.6698
 20
382.043762
 30
0.0
 11
449.6698
 21
379.543762
 31
0.0
  0
LINE
  5
F7
330
1F
100
AcDbEntity
  8
0
 62
     7
370
    35
100
AcDbLine
 10
449.869812
 20
411.043762
 30
0.0
 11
449.869812
 21
409.543762
 31
0.0
  0
LINE
  5
F8
330
1F
100
AcDbEntity
  8
0
 62
     7
370
    35
100
AcDbLine
 10
449.869812
 20
416.543762
 30
0.0
 11
449.869812
 21
416.043762
 31
0.0
  0
LINE
  5
F9
330
1F
100
AcDbEntity
  8
0
 62
     7
370
    35
100
AcDbLine
 10
454.6698
 20
416.543762
 30
0.0
 11
449.869812
 21
416.543762
 31
0.0
  0
LINE
  5
FA
330
1F
100
AcDbEntity
  8
0
 62
     7
370
    35
100
AcDbLine
 10
449.6698
 20
275.543762
 30
0.0
 11
449.6698
 21
273.043762
 31
0.0
  0
LINE
  5
FB
330
1F
100
AcDbEntity
  8
0
 62
     7
370
    35
100
AcDbLine
 10
449.6698
 20
278.043762
 30
0.0
 11
449.6698
 21
275.543762
 31
0.0
  0
ARC
  5
FC
330
1F
100
AcDbEntity
  8
0
 62
     7
370
    35
100
AcDbCircle
 10
456.1698
 20
417.543732
 30
0.0
 40
0.5000217866826435
100
AcDbArc
 50
90.000713
 51
180.43654
  0
LINE
  5
FD
330
1F
100
AcDbEntity
  8
0
 62
     7
370
    35
100
AcDbLine
 10
456.1698
 20
419.039917
 30
0.0
 11
507.6698
 21
419.039917
 31
0.0
  0
ARC
  5
FE
330
1F
100
AcDbEntity
  8
0
 62
     7
370
    35
100
AcDbCircle
 10
456.1698
 20
271.543762
 30
0.0
 40
0.500015271834874
100
AcDbArc
 50
179.5629
 51
270.000059
  0
LINE
  5
FF
330
1F
100
AcDbEntity
  8
0
 62
     7
370
    35
100
AcDbLine
 10
456.1698
 20
418.043762
 30
0.0
 11
507.6698
 21
418.043762
 31
0.0
  0
LINE
  5
100
330
1F
100
AcDbEntity
  8
0
 62
     7
370
    35
100
AcDbLine
 10
507.6698
 20
271.043762
 30
0.0
 11
456.1698
 21
271.043762
 31
0.0
  0
ARC
  5
101
330
1F
100
AcDbEntity
  8
0
 62
     7
370
    35
100
AcDbCircle
 10
507.6698
 20
271.543762
 30
0.0
 40
0.5000217866841651
100
AcDbArc
 50
270.000708
 51
0.436544
  0
LINE
  5
102
330
1F
100
AcDbEntity
  8
0
 62
     7
370
    35
100
AcDbLine
 10
508.1698
 20
271.547607
 30
0.0
 11
508.1698
 21
417.539917
 31
0.0
  0
ARC
  5
103
330
1F
100
AcDbEntity
  8
0
 62
     7
370
    35
100
AcDbCircle
 10
507.6698
 20
417.543732
 30
0.0
 40
0.5000152718350676
100
AcDbArc
 50
359.562894
 51
90.000057
  0
LINE
  5
104
330
1F
100
AcDbEntity
  8
0
 62
     7
370
    35
100
AcDbLine
 10
507.6698
 20
271.543762
 30
0.0
 11
507.6698
 21
417.543762
 31
0.0
  0
LINE
  5
105
330
1F
100
AcDbEntity
  8
0
 62
     7
370
    35
100
AcDbLine
 10
507.6698
 20
271.543762
 30
0.0
 11
456.1698
 21
271.543762
 31
0.0
  0
LINE
  5
106
330
1F
100
AcDbEntity
  8
0
 62
     7
370
    35
100
AcDbLine
 10
456.1698
 20
417.543762
 30
0.0
 11
456.1698
 21
271.543762
 31
0.0
  0
LINE
  5
107
330
1F
100
AcDbEntity
  8
0
 62
     7
370
    35
100
AcDbLine
 10
456.1698
 20
417.543762
 30
0.0
 11
507.6698
 21
417.543762
 31
0.0
  0
LINE
  5
108
330
1F
100
AcDbEntity
  8
0
 62
     7
370
    35
100
AcDbLine
 10
507.6698
 20
270.047577
 30
0.0
 11
456.1698
 21
270.047577
 31
0.0
  0
LINE
  5
109
330
1F
100
AcDbEntity
  8
0
 62
     7
370
    35
100
AcDbLine
 10
449.6698
 20
379.543762
 30
0.0
 11
449.6698
 21
377.043762
 31
0.0
  0
LINE
  5
10A
330
1F
100
AcDbEntity
  8
0
 62
     7
370
    35
100
AcDbLine
 10
509.1698
 20
271.547607
 30
0.0
 11
509.1698
 21
417.539917
 31
0.0
  0
LINE
  5
10B
330
1F
100
AcDbEntity
  8
0
 62
     7
370
    35
100
AcDbLine
 10
489.509796
 20
332.543762
 30
0.0
 11
489.339722
 21
332.543762
 31
0.0
  0
LINE
  5
10C
330
1F
100
AcDbEntity
  8
0
 62
     7
370
    35
100
AcDbLine
 10
489.509796
 20
332.543762
 30
0.0
 11
489.509796
 21
325.543762
 31
0.0
  0
LINE
  5
10D
330
1F
100
AcDbEntity
  8
0
 62
     7
370
    35
100
AcDbLine
 10
489.509796
 20
325.543762
 30
0.0
 11
489.739716
 21
325.543762
 31
0.0
  0
LINE
  5
10E
330
1F
100
AcDbEntity
  8
0
 62
     7
370
    35
100
AcDbLine
 10
489.539764
 20
362.043762
 30
0.0
 11
489.339722
 21
362.043762
 31
0.0
  0
LINE
  5
10F
330
1F
100
AcDbEntity
  8
0
 62
     7
370
    35
100
AcDbLine
 10
489.339722
 20
360.043762
 30
0.0
 11
489.539764
 21
360.043762
 31
0.0
  0
ARC
  5
110
330
1F
100
AcDbEntity
  8
0
 62
     7
370
    35
100
AcDbCircle
 10
507.6698
 20
417.539917
 30
0.0
 40
1.500005502096671
100
AcDbArc
 50
359.999758
 51
89.999757
  0
ARC
  5
111
330
1F
100
AcDbEntity
  8
0
 62
     7
370
    35
100
AcDbCircle
 10
507.6698
 20
271.547577
 30
0.0
 40
1.500005501928018
100
AcDbArc
 50
270.000243
 51
0.000242
  0
LINE
  5
112
330
1F
100
AcDbEntity
  8
0
 62
     7
370
    35
100
AcDbLine
 10
514.1698
 20
275.543762
 30
0.0
 11
514.1698
 21
278.043762
 31
0.0
  0
LINE
  5
113
330
1F
100
AcDbEntity
  8
0
 62
     7
370
    35
100
AcDbLine
 10
514.1698
 20
273.043762
 30
0.0
 11
514.1698
 21
275.543762
 31
0.0
  0
LINE
  5
114
330
1F
100
AcDbEntity
  8
0
 62
     7
370
    35
100
AcDbLine
 10
514.1698
 20
413.543762
 30
0.0
 11
514.1698
 21
416.043762
 31
0.0
  0
LINE
  5
115
330
1F
100
AcDbEntity
  8
0
 62
     7
370
    35
100
AcDbLine
 10
514.1698
 20
411.043762
 30
0.0
 11
514.1698
 21
413.543762
 31
0.0
  0
LINE
  5
116
330
1F
100
AcDbEntity
  8
0
 62
     7
370
    35
100
AcDbLine
 10
509.1698
 20
399.043762
 30
0.0
 11
513.969788
 21
399.043762
 31
0.0
  0
LINE
  5
117
330
1F
100
AcDbEntity
  8
0
 62
     7
370
    35
100
AcDbLine
 10
513.969788
 20
399.043762
 30
0.0
 11
513.969788
 21
279.543762
 31
0.0
  0
LINE
  5
118
330
1F
100
AcDbEntity
  8
0
 62
     7
370
    35
100
AcDbLine
 10
509.1698
 20
279.543762
 30
0.0
 11
513.969788
 21
279.543762
 31
0.0
  0
LINE
  5
119
330
1F
100
AcDbEntity
  8
0
 62
     7
370
    35
100
AcDbLine
 10
509.1698
 20
409.543762
 30
0.0
 11
513.969788
 21
409.543762
 31
0.0
  0
LINE
  5
11A
330
1F
100
AcDbEntity
  8
0
 62
     7
370
    35
100
AcDbLine
 10
513.969788
 20
409.543762
 30
0.0
 11
513.969788
 21
406.043762
 31
0.0
  0
LINE
  5
11B
330
1F
100
AcDbEntity
  8
0
 62
     7
370
    35
100
AcDbLine
 10
509.1698
 20
406.043762
 30
0.0
 11
513.969788
 21
406.043762
 31
0.0
  0
LINE
  5
11C
330
1F
100
AcDbEntity
  8
0
 62
     7
370
    35
100
AcDbLine
 10
509.1698
 20
272.543762
 30
0.0
 11
513.969788
 21
272.543762
 31
0.0
  0
LINE
  5
11D
330
1F
100
AcDbEntity
  8
0
 62
     7
370
    35
100
AcDbLine
 10
513.969788
 20
279.543762
 30
0.0
 11
513.969788
 21
278.043762
 31
0.0
  0
LINE
  5
11E
330
1F
100
AcDbEntity
  8
0
 62
     7
370
    35
100
AcDbLine
 10
513.969788
 20
273.043762
 30
0.0
 11
513.969788
 21
272.543762
 31
0.0
  0
LINE
  5
11F
330
1F
100
AcDbEntity
  8
0
 62
     7
370
    35
100
AcDbLine
 10
509.1698
 20
416.543762
 30
0.0
 11
513.969788
 21
416.543762
 31
0.0
  0
LINE
  5
120
330
1F
100
AcDbEntity
  8
0
 62
     7
370
    35
100
AcDbLine
 10
513.969788
 20
416.543762
 30
0.0
 11
513.969788
 21
416.043762
 31
0.0
  0
LINE
  5
121
330
1F
100
AcDbEntity
  8
0
 62
     7
370
    35
100
AcDbLine
 10
513.969788
 20
411.043762
 30
0.0
 11
513.969788
 21
409.543762
 31
0.0
  0
LINE
  5
122
330
1F
100
AcDbEntity
  8
0
 62
     7
370
    35
100
AcDbLine
 10
514.1698
 20
379.543762
 30
0.0
 11
514.1698
 21
382.043762
 31
0.0
  0
LINE
  5
123
330
1F
100
AcDbEntity
  8
0
 62
     7
370
    35
100
AcDbLine
 10
514.1698
 20
377.043762
 30
0.0
 11
514.1698
 21
379.543762
 31
0.0
  0
LINE
  5
124
330
1F
100
AcDbEntity
  8
0
 62
     7
370
    35
100
AcDbLine
 10
515.869812
 20
276.743744
 30
0.0
 11
515.869812
 21
275.543762
 31
0.0
  0
LINE
  5
125
330
1F
100
AcDbEntity
  8
0
 62
     7
370
    35
100
AcDbLine
 10
515.869812
 20
274.34375
 30
0.0
 11
515.869812
 21
275.543762
 31
0.0
  0
LINE
  5
126
330
1F
100
AcDbEntity
  8
0
 62
     7
370
    35
100
AcDbLine
 10
515.869812
 20
413.543762
 30
0.0
 11
515.869812
 21
414.743774
 31
0.0
  0
LINE
  5
127
330
1F
100
AcDbEntity
  8
0
 62
     7
370
    35
100
AcDbLine
 10
515.869812
 20
412.34375
 30
0.0
 11
515.869812
 21
413.543762
 31
0.0
  0
LINE
  5
128
330
1F
100
AcDbEntity
  8
0
 62
     7
370
    35
100
AcDbLine
 10
515.869812
 20
380.743744
 30
0.0
 11
515.869812
 21
379.543762
 31
0.0
  0
LINE
  5
129
330
1F
100
AcDbEntity
  8
0
 62
     7
370
    35
100
AcDbLine
 10
515.869812
 20
378.34375
 30
0.0
 11
515.869812
 21
379.543762
 31
0.0
  0
LINE
  5
12A
330
1F
100
AcDbEntity
  8
0
 62
     7
370
    35
100
AcDbLine
 10
516.1698
 20
276.443756
 30
0.0
 11
516.1698
 21
275.543762
 31
0.0
  0
LINE
  5
12B
330
1F
100
AcDbEntity
  8
0
 62
     7
370
    35
100
AcDbLine
 10
516.1698
 20
274.643768
 30
0.0
 11
516.1698
 21
275.543762
 31
0.0
  0
LINE
  5
12C
330
1F
100
AcDbEntity
  8
0
 62
     7
370
    35
100
AcDbLine
 10
516.1698
 20
413.543762
 30
0.0
 11
516.1698
 21
414.443756
 31
0.0
  0
LINE
  5
12D
330
1F
100
AcDbEntity
  8
0
 62
     7
370
    35
100
AcDbLine
 10
516.1698
 20
412.643768
 30
0.0
 11
516.1698
 21
413.543762
 31
0.0
  0
LINE
  5
12E
330
1F
100
AcDbEntity
  8
0
 62
     7
370
    35
100
AcDbLine
 10
516.1698
 20
380.443756
 30
0.0
 11
516.1698
 21
379.543762
 31
0.0
  0
LINE
  5
12F
330
1F
100
AcDbEntity
  8
0
 62
     7
370
    35
100
AcDbLine
 10
516.1698
 20
378.643768
 30
0.0
 11
516.1698
 21
379.543762
 31
0.0
  0
LINE
  5
130
330
1F
100
AcDbEntity
  8
0
 62
     7
370
    35
100
AcDbLine
 10
454.6698
 20
411.043762
 30
0.0
 11
449.6698
 21
411.043762
 31
0.0
  0
LINE
  5
131
330
1F
100
AcDbEntity
  8
0
 62
     7
370
    35
100
AcDbLine
 10
454.6698
 20
416.043762
 30
0.0
 11
449.6698
 21
416.043762
 31
0.0
  0
LINE
  5
132
330
1F
100
AcDbEntity
  8
0
 62
     7
370
    35
100
AcDbLine
 10
449.869751
 20
382.043762
 30
0.0
 11
449.6698
 21
382.043762
 31
0.0
  0
LINE
  5
133
330
1F
100
AcDbEntity
  8
0
 62
     7
370
    35
100
AcDbLine
 10
454.6698
 20
273.043762
 30
0.0
 11
449.6698
 21
273.043762
 31
0.0
  0
LINE
  5
134
330
1F
100
AcDbEntity
  8
0
 62
     7
370
    35
100
AcDbLine
 10
454.6698
 20
278.043762
 30
0.0
 11
449.6698
 21
278.043762
 31
0.0
  0
LINE
  5
135
330
1F
100
AcDbEntity
  8
0
 62
     7
370
    35
100
AcDbLine
 10
449.869751
 20
377.043762
 30
0.0
 11
449.6698
 21
377.043762
 31
0.0
  0
LINE
  5
136
330
1F
100
AcDbEntity
  8
0
 62
     7
370
    35
100
AcDbLine
 10
509.1698
 20
278.043762
 30
0.0
 11
514.1698
 21
278.043762
 31
0.0
  0
LINE
  5
137
330
1F
100
AcDbEntity
  8
0
 62
     7
370
    35
100
AcDbLine
 10
509.1698
 20
273.043762
 30
0.0
 11
514.1698
 21
273.043762
 31
0.0
  0
LINE
  5
138
330
1F
100
AcDbEntity
  8
0
 62
     7
370
    35
100
AcDbLine
 10
509.1698
 20
416.043762
 30
0.0
 11
514.1698
 21
416.043762
 31
0.0
  0
LINE
  5
139
330
1F
100
AcDbEntity
  8
0
 62
     7
370
    35
100
AcDbLine
 10
509.1698
 20
411.043762
 30
0.0
 11
514.1698
 21
411.043762
 31
0.0
  0
LINE
  5
13A
330
1F
100
AcDbEntity
  8
0
 62
     7
370
    35
100
AcDbLine
 10
513.969788
 20
382.043762
 30
0.0
 11
514.1698
 21
382.043762
 31
0.0
  0
LINE
  5
13B
330
1F
100
AcDbEntity
  8
0
 62
     7
370
    35
100
AcDbLine
 10
513.969788
 20
377.043762
 30
0.0
 11
514.1698
 21
377.043762
 31
0.0
  0
LINE
  5
13C
330
1F
100
AcDbEntity
  8
0
 62
     7
370
    35
100
AcDbLine
 10
514.1698
 20
276.743744
 30
0.0
 11
515.869812
 21
276.743744
 31
0.0
  0
LINE
  5
13D
330
1F
100
AcDbEntity
  8
0
 62
     7
370
    35
100
AcDbLine
 10
514.1698
 20
274.34375
 30
0.0
 11
515.869812
 21
274.34375
 31
0.0
  0
LINE
  5
13E
330
1F
100
AcDbEntity
  8
0
 62
     7
370
    35
100
AcDbLine
 10
514.1698
 20
414.743774
 30
0.0
 11
515.869812
 21
414.743774
 31
0.0
  0
LINE
  5
13F
330
1F
100
AcDbEntity
  8
0
 62
     7
370
    35
100
AcDbLine
 10
514.1698
 20
412.34375
 30
0.0
 11
515.869812
 21
412.34375
 31
0.0
  0
LINE
  5
140
330
1F
100
AcDbEntity
  8
0
 62
     7
370
    35
100
AcDbLine
 10
514.1698
 20
380.743744
 30
0.0
 11
515.869812
 21
380.743744
 31
0.0
  0
LINE
  5
141
330
1F
100
AcDbEntity
  8
0
 62
     7
370
    35
100
AcDbLine
 10
514.1698
 20
378.34375
 30
0.0
 11
515.869812
 21
378.34375
 31
0.0
  0
LINE
  5
142
330
1F
100
AcDbEntity
  8
0
 62
     7
370
    35
100
AcDbLine
 10
516.1698
 20
276.443756
 30
0.0
 11
515.869812
 21
276.743744
 31
0.0
  0
LINE
  5
143
330
1F
100
AcDbEntity
  8
0
 62
     7
370
    35
100
AcDbLine
 10
516.1698
 20
274.643768
 30
0.0
 11
515.869812
 21
274.34375
 31
0.0
  0
LINE
  5
144
330
1F
100
AcDbEntity
  8
0
 62
     7
370
    35
100
AcDbLine
 10
516.1698
 20
414.443756
 30
0.0
 11
515.869812
 21
414.743774
 31
0.0
  0
LINE
  5
145
330
1F
100
AcDbEntity
  8
0
 62
     7
370
    35
100
AcDbLine
 10
516.1698
 20
412.643768
 30
0.0
 11
515.869812
 21
412.34375
 31
0.0
  0
LINE
  5
146
330
1F
100
AcDbEntity
  8
0
 62
     7
370
    35
100
AcDbLine
 10
516.1698
 20
380.443756
 30
0.0
 11
515.869812
 21
380.743744
 31
0.0
  0
LINE
  5
147
330
1F
100
AcDbEntity
  8
0
 62
     7
370
    35
100
AcDbLine
 10
516.1698
 20
378.643768
 30
0.0
 11
515.869812
 21
378.34375
 31
0.0
  0
LINE
  5
148
330
1F
100
AcDbEntity
  8
0
 62
     7
370
    35
100
AcDbLine
 10
485.9198
 20
263.543762
 30
0.0
 11
487.9198
 21
265.543762
 31
0.0
  0
LINE
  5
149
330
1F
100
AcDbEntity
  8
0
 62
     7
370
    35
100
AcDbLine
 10
485.9198
 20
263.543762
 30
0.0
 11
477.9198
 21
263.543762
 31
0.0
  0
LINE
  5
14A
330
1F
100
AcDbEntity
  8
0
 62
     7
370
    35
100
AcDbLine
 10
477.9198
 20
263.543762
 30
0.0
 11
475.9198
 21
265.543762
 31
0.0
  0
LINE
  5
14B
330
1F
100
AcDbEntity
  8
0
 62
     7
370
    35
100
AcDbLine
 10
477.9198
 20
269.043762
 30
0.0
 11
477.9198
 21
267.043762
 31
0.0
  0
LINE
  5
14C
330
1F
100
AcDbEntity
  8
0
 62
     7
370
    35
100
AcDbLine
 10
477.9198
 20
267.043762
 30
0.0
 11
479.916229
 21
267.043762
 31
0.0
  0
LINE
  5
14D
330
1F
100
AcDbEntity
  8
0
 62
     7
370
    35
100
AcDbLine
 10
479.919861
 20
266.529724
 30
0.0
 11
479.916229
 21
267.043762
 31
0.0
  0
ARC
  5
14E
330
1F
100
AcDbEntity
  8
0
 62
     7
370
    35
100
AcDbCircle
 10
481.9198
 20
266.543762
 30
0.0
 40
2.0
100
AcDbArc
 50
180.402266
 51
359.597728
  0
LINE
  5
14F
330
1F
100
AcDbEntity
  8
0
 62
     7
370
    35
100
AcDbLine
 10
483.919739
 20
266.529724
 30
0.0
 11
483.92337
 21
267.043762
 31
0.0
  0
LINE
  5
150
330
1F
100
AcDbEntity
  8
0
 62
     7
370
    35
100
AcDbLine
 10
483.92337
 20
267.043762
 30
0.0
 11
485.9198
 21
267.043762
 31
0.0
  0
LINE
  5
151
330
1F
100
AcDbEntity
  8
0
 62
     7
370
    35
100
AcDbLine
 10
485.9198
 20
269.043762
 30
0.0
 11
485.9198
 21
267.043762
 31
0.0
  0
LINE
  5
152
330
1F
100
AcDbEntity
  8
0
 62
     7
370
    35
100
AcDbLine
 10
489.509796
 20
328.643768
 30
0.0
 11
489.339722
 21
328.643768
 31
0.0
  0
LINE
  5
153
330
1F
100
AcDbEntity
  8
0
 62
     7
370
    35
100
AcDbLine
 10
489.509796
 20
326.643768
 30
0.0
 11
489.339722
 21
326.643768
 31
0.0
  0
ARC
  5
154
330
1F
100
AcDbEntity
  8
0
 62
     7
370
    35
100
AcDbCircle
 10
478.9198
 20
269.043762
 30
0.0
 40
1.0
100
AcDbArc
 50
90.000003
 51
180.000005
  0
ARC
  5
155
330
1F
100
AcDbEntity
  8
0
 62
     7
370
    35
100
AcDbCircle
 10
484.9198
 20
269.043762
 30
0.0
 40
1.0
100
AcDbArc
 50
0.0
 51
90.000003
  0
LINE
  5
156
330
1F
100
AcDbEntity
  8
0
 62
     7
370
    35
100
AcDbLine
 10
484.9198
 20
270.043762
 30
0.0
 11
478.9198
 21
270.043762
 31
0.0
  0
LINE
  5
157
330
1F
100
AcDbEntity
  8
0
 62
     7
370
    35
100
AcDbLine
 10
475.9198
 20
270.047516
 30
0.0
 11
475.9198
 21
265.543762
 31
0.0
  0
LINE
  5
158
330
1F
100
AcDbEntity
  8
0
 62
     7
370
    35
100
AcDbLine
 10
487.9198
 20
265.543762
 30
0.0
 11
487.9198
 21
270.047516
 31
0.0
  0
LINE
  5
159
330
1F
100
AcDbEntity
  8
0
 62
     7
370
    35
100
AcDbLine
 10
502.128479
 20
401.644104
 30
0.0
 11
502.593079
 21
401.120483
 31
0.0
  0
LINE
  5
15A
330
1F
100
AcDbEntity
  8
0
 62
     7
370
    35
100
AcDbLine
 10
505.093048
 20
401.467041
 30
0.0
 11
504.569458
 21
401.002441
 31
0.0
  0
LINE
  5
15B
330
1F
100
AcDbEntity
  8
0
 62
     7
370
    35
100
AcDbLine
 10
505.211121
 20
403.44342
 30
0.0
 11
504.746521
 21
403.96701
 31
0.0
  0
LINE
  5
15C
330
1F
100
AcDbEntity
  8
0
 62
     7
370
    35
100
AcDbLine
 10
502.246552
 20
403.620483
 30
0.0
 11
502.770142
 21
404.085052
 31
0.0
  0
CIRCLE
  5
15D
330
1F
100
AcDbEntity
  8
0
 62
     7
370
    35
100
AcDbCircle
 10
503.6698
 20
402.543762
 30
0.0
 40
3.000000000000002
  0
LINE
  5
15E
330
1F
100
AcDbEntity
  8
0
 62
     7
370
    35
100
AcDbLine
 10
503.266296
 20
401.717834
 30
0.0
 11
502.593079
 21
401.120483
 31
0.0
  0
LINE
  5
15F
330
1F
100
AcDbEntity
  8
0
 62
     7
370
    35
100
AcDbLine
 10
503.972137
 20
401.675659
 30
0.0
 11
504.569458
 21
401.002441
 31
0.0
  0
ARC
  5
160
330
1F
100
AcDbEntity
  8
0
 62
     7
370
    35
100
AcDbCircle
 10
503.598114
 20
401.343811
 30
0.0
 40
0.5
100
AcDbArc
 50
41.581799
 51
131.581805
  0
LINE
  5
161
330
1F
100
AcDbEntity
  8
0
 62
     7
370
    35
100
AcDbLine
 10
502.128479
 20
401.644104
 30
0.0
 11
502.801697
 21
402.241425
 31
0.0
  0
LINE
  5
162
330
1F
100
AcDbEntity
  8
0
 62
     7
370
    35
100
AcDbLine
 10
502.246552
 20
403.620483
 30
0.0
 11
502.843872
 21
402.947266
 31
0.0
  0
ARC
  5
163
330
1F
100
AcDbEntity
  8
0
 62
     7
370
    35
100
AcDbCircle
 10
502.469849
 20
402.615417
 30
0.0
 40
0.5
100
AcDbArc
 50
311.5818
 51
41.581799
  0
LINE
  5
164
330
1F
100
AcDbEntity
  8
0
 62
     7
370
    35
100
AcDbLine
 10
505.093048
 20
401.467041
 30
0.0
 11
504.495728
 21
402.140228
 31
0.0
  0
LINE
  5
165
330
1F
100
AcDbEntity
  8
0
 62
     7
370
    35
100
AcDbLine
 10
505.211121
 20
403.44342
 30
0.0
 11
504.537903
 21
402.8461
 31
0.0
  0
ARC
  5
166
330
1F
100
AcDbEntity
  8
0
 62
     7
370
    35
100
AcDbCircle
 10
504.869751
 20
402.472076
 30
0.0
 40
0.5
100
AcDbArc
 50
131.581805
 51
221.581804
  0
LINE
  5
167
330
1F
100
AcDbEntity
  8
0
 62
     7
370
    35
100
AcDbLine
 10
504.073303
 20
403.36969
 30
0.0
 11
504.746521
 21
403.96701
 31
0.0
  0
LINE
  5
168
330
1F
100
AcDbEntity
  8
0
 62
     7
370
    35
100
AcDbLine
 10
503.367462
 20
403.411865
 30
0.0
 11
502.770142
 21
404.085052
 31
0.0
  0
ARC
  5
169
330
1F
100
AcDbEntity
  8
0
 62
     7
370
    35
100
AcDbCircle
 10
503.741486
 20
403.743713
 30
0.0
 40
0.5
100
AcDbArc
 50
221.581804
 51
311.5818
  0
LINE
  5
16A
330
1F
100
AcDbEntity
  8
0
 62
     7
370
    35
100
AcDbLine
 10
460.128479
 20
280.644104
 30
0.0
 11
460.593079
 21
280.120483
 31
0.0
  0
LINE
  5
16B
330
1F
100
AcDbEntity
  8
0
 62
     7
370
    35
100
AcDbLine
 10
463.093048
 20
280.467041
 30
0.0
 11
462.569458
 21
280.002441
 31
0.0
  0
LINE
  5
16C
330
1F
100
AcDbEntity
  8
0
 62
     7
370
    35
100
AcDbLine
 10
463.211121
 20
282.44342
 30
0.0
 11
462.746521
 21
282.96701
 31
0.0
  0
LINE
  5
16D
330
1F
100
AcDbEntity
  8
0
 62
     7
370
    35
100
AcDbLine
 10
460.246552
 20
282.620483
 30
0.0
 11
460.770142
 21
283.085052
 31
0.0
  0
CIRCLE
  5
16E
330
1F
100
AcDbEntity
  8
0
 62
     7
370
    35
100
AcDbCircle
 10
461.6698
 20
281.543762
 30
0.0
 40
3.000000000000002
  0
LINE
  5
16F
330
1F
100
AcDbEntity
  8
0
 62
     7
370
    35
100
AcDbLine
 10
461.266296
 20
280.717834
 30
0.0
 11
460.593079
 21
280.120483
 31
0.0
  0
LINE
  5
170
330
1F
100
AcDbEntity
  8
0
 62
     7
370
    35
100
AcDbLine
 10
461.972137
 20
280.675659
 30
0.0
 11
462.569458
 21
280.002441
 31
0.0
  0
ARC
  5
171
330
1F
100
AcDbEntity
  8
0
 62
     7
370
    35
100
AcDbCircle
 10
461.598114
 20
280.343811
 30
0.0
 40
0.5
100
AcDbArc
 50
41.581799
 51
131.581805
  0
LINE
  5
172
330
1F
100
AcDbEntity
  8
0
 62
     7
370
    35
100
AcDbLine
 10
460.128479
 20
280.644104
 30
0.0
 11
460.801697
 21
281.241425
 31
0.0
  0
LINE
  5
173
330
1F
100
AcDbEntity
  8
0
 62
     7
370
    35
100
AcDbLine
 10
460.246552
 20
282.620483
 30
0.0
 11
460.843872
 21
281.947266
 31
0.0
  0
ARC
  5
174
330
1F
100
AcDbEntity
  8
0
 62
     7
370
    35
100
AcDbCircle
 10
460.469849
 20
281.615417
 30
0.0
 40
0.5
100
AcDbArc
 50
311.5818
 51
41.581799
  0
LINE
  5
175
330
1F
100
AcDbEntity
  8
0
 62
     7
370
    35
100
AcDbLine
 10
463.093048
 20
280.467041
 30
0.0
 11
462.495728
 21
281.140228
 31
0.0
  0
LINE
  5
176
330
1F
100
AcDbEntity
  8
0
 62
     7
370
    35
100
AcDbLine
 10
463.211121
 20
282.44342
 30
0.0
 11
462.537903
 21
281.8461
 31
0.0
  0
ARC
  5
177
330
1F
100
AcDbEntity
  8
0
 62
     7
370
    35
100
AcDbCircle
 10
462.869751
 20
281.472076
 30
0.0
 40
0.5
100
AcDbArc
 50
131.581805
 51
221.581804
  0
LINE
  5
178
330
1F
100
AcDbEntity
  8
0
 62
     7
370
    35
100
AcDbLine
 10
462.073303
 20
282.36969
 30
0.0
 11
462.746521
 21
282.96701
 31
0.0
  0
LINE
  5
179
330
1F
100
AcDbEntity
  8
0
 62
     7
370
    35
100
AcDbLine
 10
461.367462
 20
282.411865
 30
0.0
 11
460.770142
 21
283.085052
 31
0.0
  0
ARC
  5
17A
330
1F
100
AcDbEntity
  8
0
 62
     7
370
    35
100
AcDbCircle
 10
461.741486
 20
282.743713
 30
0.0
 40
0.5
100
AcDbArc
 50
221.581804
 51
311.5818
  0
LINE
  5
17B
330
1F
100
AcDbEntity
  8
0
 62
     7
370
    35
100
AcDbLine
 10
494.539795
 20
498.701569
 30
0.0
 11
494.539795
 21
509.801514
 31
0.0
  0
LINE
  5
17C
330
1F
100
AcDbEntity
  8
0
 62
     7
370
    35
100
AcDbLine
 10
489.739807
 20
509.801575
 30
0.0
 11
489.739807
 21
498.701569
 31
0.0
  0
ARC
  5
17D
330
1F
100
AcDbEntity
  8
0
 62
     7
370
    35
100
AcDbCircle
 10
494.039795
 20
498.701569
 30
0.0
 40
0.5
100
AcDbArc
 50
269.999997
 51
360.0
  0
ARC
  5
17E
330
1F
100
AcDbEntity
  8
0
 62
     7
370
    35
100
AcDbCircle
 10
490.239807
 20
498.701569
 30
0.0
 40
0.5
100
AcDbArc
 50
180.000005
 51
269.999997
  0
LINE
  5
17F
330
1F
100
AcDbEntity
  8
0
 62
     7
370
    35
100
AcDbLine
 10
490.239807
 20
498.201569
 30
0.0
 11
494.039795
 21
498.201569
 31
0.0
  0
LINE
  5
180
330
1F
100
AcDbEntity
  8
0
 62
     7
370
    35
100
AcDbLine
 10
518.009827
 20
615.101562
 30
0.0
 11
516.1698
 21
615.101562
 31
0.0
  0
LINE
  5
181
330
1F
100
AcDbEntity
  8
0
 62
     7
370
    35
100
AcDbLine
 10
518.009827
 20
616.701538
 30
0.0
 11
514.1698
 21
616.701538
 31
0.0
  0
LINE
  5
182
330
1F
100
AcDbEntity
  8
0
 62
     7
370
    35
100
AcDbLine
 10
518.009827
 20
616.701538
 30
0.0
 11
518.009827
 21
615.101562
 31
0.0
  0
LINE
  5
183
330
1F
100
AcDbEntity
  8
0
 62
     7
370
    35
100
AcDbLine
 10
509.169861
 20
609.501587
 30
0.0
 11
516.014771
 21
609.501587
 31
0.0
  0
LINE
  5
184
330
1F
100
AcDbEntity
  8
0
 62
     7
370
    35
100
AcDbLine
 10
516.014771
 20
607.601562
 30
0.0
 11
516.014771
 21
609.501587
 31
0.0
  0
LINE
  5
185
330
1F
100
AcDbEntity
  8
0
 62
     7
370
    35
100
AcDbLine
 10
516.014771
 20
607.601562
 30
0.0
 11
518.014771
 21
607.601562
 31
0.0
  0
LINE
  5
186
330
1F
100
AcDbEntity
  8
0
 62
     7
370
    35
100
AcDbLine
 10
518.014771
 20
615.101562
 30
0.0
 11
518.014771
 21
607.601562
 31
0.0
  0
LINE
  5
187
330
1F
100
AcDbEntity
  8
0
 62
     7
370
    35
100
AcDbLine
 10
516.1698
 20
615.101562
 30
0.0
 11
518.014771
 21
615.101562
 31
0.0
  0
LINE
  5
188
330
1F
100
AcDbEntity
  8
0
 62
     7
370
    35
100
AcDbLine
 10
524.014771
 20
612.584839
 30
0.0
 11
524.014771
 21
613.801575
 31
0.0
  0
LINE
  5
189
330
1F
100
AcDbEntity
  8
0
 62
     7
370
    35
100
AcDbLine
 10
524.014771
 20
612.584839
 30
0.0
 11
524.014771
 21
609.790405
 31
0.0
  0
LINE
  5
18A
330
1F
100
AcDbEntity
  8
0
 62
     7
370
    35
100
AcDbLine
 10
524.014771
 20
608.601562
 30
0.0
 11
524.014771
 21
609.790405
 31
0.0
  0
LINE
  5
18B
330
1F
100
AcDbEntity
  8
0
 62
     7
370
    35
100
AcDbLine
 10
518.014771
 20
608.601562
 30
0.0
 11
524.014771
 21
608.601562
 31
0.0
  0
LINE
  5
18C
330
1F
100
AcDbEntity
  8
0
 62
     7
370
    35
100
AcDbLine
 10
518.014771
 20
613.801575
 30
0.0
 11
524.014771
 21
613.801575
 31
0.0
  0
LINE
  5
18D
330
1F
100
AcDbEntity
  8
0
 62
     7
370
    35
100
AcDbLine
 10
453.509796
 20
611.402954
 30
0.0
 11
453.509796
 21
609.200012
 31
0.0
  0
ARC
  5
18E
330
1F
100
AcDbEntity
  8
0
 62
     7
370
    35
100
AcDbCircle
 10
506.084961
 20
510.301575
 30
0.0
 40
0.5000000000000004
100
AcDbArc
 50
269.999997
 51
358.237609
  0
LINE
  5
18F
330
1F
100
AcDbEntity
  8
0
 62
     7
370
    35
100
AcDbLine
 10
506.084961
 20
509.801575
 30
0.0
 11
492.339813
 21
509.801575
 31
0.0
  0
LINE
  5
190
330
1F
100
AcDbEntity
  8
0
 62
     7
370
    35
100
AcDbLine
 10
488.841614
 20
509.801575
 30
0.0
 11
492.339813
 21
509.801575
 31
0.0
  0
ARC
  5
191
330
1F
100
AcDbEntity
  8
0
 62
     7
370
    35
100
AcDbCircle
 10
488.839813
 20
510.301575
 30
0.0
 40
0.5
100
AcDbArc
 50
269.999997
 51
360.0
  0
LINE
  5
192
330
1F
100
AcDbEntity
  8
0
 62
     7
370
    35
100
AcDbLine
 10
488.839813
 20
509.801575
 30
0.0
 11
457.754639
 21
509.801575
 31
0.0
  0
ARC
  5
193
330
1F
100
AcDbEntity
  8
0
 62
     7
370
    35
100
AcDbCircle
 10
457.754639
 20
510.301575
 30
0.0
 40
0.5000000000000004
100
AcDbArc
 50
181.762389
 51
269.999997
  0
LINE
  5
194
330
1F
100
AcDbEntity
  8
0
 62
     7
370
    35
100
AcDbLine
 10
507.569794
 20
542.301575
 30
0.0
 11
506.584717
 21
510.286194
 31
0.0
  0
LINE
  5
195
330
1F
100
AcDbEntity
  8
0
 62
     7
370
    35
100
AcDbLine
 10
489.339813
 20
542.301575
 30
0.0
 11
489.339813
 21
510.301575
 31
0.0
  0
LINE
  5
196
330
1F
100
AcDbEntity
  8
0
 62
     7
370
    35
100
AcDbLine
 10
456.269806
 20
542.301575
 30
0.0
 11
457.254883
 21
510.286194
 31
0.0
  0
ARC
  5
197
330
1F
100
AcDbEntity
  8
0
 62
     7
370
    35
100
AcDbCircle
 10
456.1698
 20
619.301575
 30
0.0
 40
1.500000000000001
100
AcDbArc
 50
90.000003
 51
180.000005
  0
LINE
  5
198
330
1F
100
AcDbEntity
  8
0
 62
     7
370
    35
100
AcDbLine
 10
454.6698
 20
619.301575
 30
0.0
 11
454.6698
 21
543.301575
 31
0.0
  0
LINE
  5
199
330
1F
100
AcDbEntity
  8
0
 62
     7
370
    35
100
AcDbLine
 10
454.6698
 20
543.301575
 30
0.0
 11
456.1698
 21
543.301575
 31
0.0
  0
LINE
  5
19A
330
1F
100
AcDbEntity
  8
0
 62
     7
370
    35
100
AcDbLine
 10
454.6698
 20
549.801575
 30
0.0
 11
449.6698
 21
549.801575
 31
0.0
  0
LINE
  5
19B
330
1F
100
AcDbEntity
  8
0
 62
     7
370
    35
100
AcDbLine
 10
454.6698
 20
544.801575
 30
0.0
 11
449.6698
 21
544.801575
 31
0.0
  0
LINE
  5
19C
330
1F
100
AcDbEntity
  8
0
 62
     7
370
    35
100
AcDbLine
 10
449.6698
 20
549.801575
 30
0.0
 11
449.6698
 21
544.801575
 31
0.0
  0
LINE
  5
19D
330
1F
100
AcDbEntity
  8
0
 62
     7
370
    35
100
AcDbLine
 10
454.6698
 20
603.301575
 30
0.0
 11
449.869812
 21
603.721558
 31
0.0
  0
LINE
  5
19E
330
1F
100
AcDbEntity
  8
0
 62
     7
370
    35
100
AcDbLine
 10
454.6698
 20
605.301575
 30
0.0
 11
449.869812
 21
604.881592
 31
0.0
  0
LINE
  5
19F
330
1F
100
AcDbEntity
  8
0
 62
     7
370
    35
100
AcDbLine
 10
449.869812
 20
604.881592
 30
0.0
 11
449.869812
 21
603.721558
 31
0.0
  0
LINE
  5
1A0
330
1F
100
AcDbEntity
  8
0
 62
     7
370
    35
100
AcDbLine
 10
454.6698
 20
607.301575
 30
0.0
 11
449.869812
 21
607.721558
 31
0.0
  0
LINE
  5
1A1
330
1F
100
AcDbEntity
  8
0
 62
     7
370
    35
100
AcDbLine
 10
454.6698
 20
609.301575
 30
0.0
 11
449.869812
 21
608.881592
 31
0.0
  0
LINE
  5
1A2
330
1F
100
AcDbEntity
  8
0
 62
     7
370
    35
100
AcDbLine
 10
449.869812
 20
608.881592
 30
0.0
 11
449.869812
 21
607.721558
 31
0.0
  0
LINE
  5
1A3
330
1F
100
AcDbEntity
  8
0
 62
     7
370
    35
100
AcDbLine
 10
454.6698
 20
611.301575
 30
0.0
 11
449.869812
 21
611.721558
 31
0.0
  0
LINE
  5
1A4
330
1F
100
AcDbEntity
  8
0
 62
     7
370
    35
100
AcDbLine
 10
454.6698
 20
613.301575
 30
0.0
 11
449.869812
 21
612.881592
 31
0.0
  0
LINE
  5
1A5
330
1F
100
AcDbEntity
  8
0
 62
     7
370
    35
100
AcDbLine
 10
449.869812
 20
612.881592
 30
0.0
 11
449.869812
 21
611.721558
 31
0.0
  0
LINE
  5
1A6
330
1F
100
AcDbEntity
  8
0
 62
     7
370
    35
100
AcDbLine
 10
449.869812
 20
616.801575
 30
0.0
 11
449.6698
 21
616.801575
 31
0.0
  0
LINE
  5
1A7
330
1F
100
AcDbEntity
  8
0
 62
     7
370
    35
100
AcDbLine
 10
449.6698
 20
616.801575
 30
0.0
 11
449.6698
 21
611.801575
 31
0.0
  0
LINE
  5
1A8
330
1F
100
AcDbEntity
  8
0
 62
     7
370
    35
100
AcDbLine
 10
449.869812
 20
611.801575
 30
0.0
 11
449.6698
 21
611.801575
 31
0.0
  0
LINE
  5
1A9
330
1F
100
AcDbEntity
  8
0
 62
     7
370
    35
100
AcDbLine
 10
454.6698
 20
615.301575
 30
0.0
 11
449.869812
 21
615.721558
 31
0.0
  0
LINE
  5
1AA
330
1F
100
AcDbEntity
  8
0
 62
     7
370
    35
100
AcDbLine
 10
454.6698
 20
617.301575
 30
0.0
 11
449.869812
 21
616.881592
 31
0.0
  0
LINE
  5
1AB
330
1F
100
AcDbEntity
  8
0
 62
     7
370
    35
100
AcDbLine
 10
449.869812
 20
616.881592
 30
0.0
 11
449.869812
 21
615.721558
 31
0.0
  0
LINE
  5
1AC
330
1F
100
AcDbEntity
  8
0
 62
     7
370
    35
100
AcDbLine
 10
454.6698
 20
599.301575
 30
0.0
 11
449.869812
 21
599.721558
 31
0.0
  0
LINE
  5
1AD
330
1F
100
AcDbEntity
  8
0
 62
     7
370
    35
100
AcDbLine
 10
454.6698
 20
597.301575
 30
0.0
 11
449.869812
 21
596.881592
 31
0.0
  0
LINE
  5
1AE
330
1F
100
AcDbEntity
  8
0
 62
     7
370
    35
100
AcDbLine
 10
454.6698
 20
595.301575
 30
0.0
 11
449.869812
 21
595.721558
 31
0.0
  0
LINE
  5
1AF
330
1F
100
AcDbEntity
  8
0
 62
     7
370
    35
100
AcDbLine
 10
454.6698
 20
593.301575
 30
0.0
 11
449.869812
 21
592.881592
 31
0.0
  0
LINE
  5
1B0
330
1F
100
AcDbEntity
  8
0
 62
     7
370
    35
100
AcDbLine
 10
454.6698
 20
591.301575
 30
0.0
 11
449.869812
 21
591.721558
 31
0.0
  0
LINE
  5
1B1
330
1F
100
AcDbEntity
  8
0
 62
     7
370
    35
100
AcDbLine
 10
454.6698
 20
589.301575
 30
0.0
 11
449.869812
 21
588.881592
 31
0.0
  0
LINE
  5
1B2
330
1F
100
AcDbEntity
  8
0
 62
     7
370
    35
100
AcDbLine
 10
454.6698
 20
587.301575
 30
0.0
 11
449.869812
 21
587.721558
 31
0.0
  0
LINE
  5
1B3
330
1F
100
AcDbEntity
  8
0
 62
     7
370
    35
100
AcDbLine
 10
454.6698
 20
585.301575
 30
0.0
 11
449.869812
 21
584.881592
 31
0.0
  0
LINE
  5
1B4
330
1F
100
AcDbEntity
  8
0
 62
     7
370
    35
100
AcDbLine
 10
454.6698
 20
583.301575
 30
0.0
 11
449.869812
 21
583.721558
 31
0.0
  0
LINE
  5
1B5
330
1F
100
AcDbEntity
  8
0
 62
     7
370
    35
100
AcDbLine
 10
454.6698
 20
581.301575
 30
0.0
 11
449.869812
 21
580.881592
 31
0.0
  0
LINE
  5
1B6
330
1F
100
AcDbEntity
  8
0
 62
     7
370
    35
100
AcDbLine
 10
454.6698
 20
579.301575
 30
0.0
 11
449.869812
 21
579.721558
 31
0.0
  0
LINE
  5
1B7
330
1F
100
AcDbEntity
  8
0
 62
     7
370
    35
100
AcDbLine
 10
454.6698
 20
577.301575
 30
0.0
 11
449.869812
 21
576.881592
 31
0.0
  0
LINE
  5
1B8
330
1F
100
AcDbEntity
  8
0
 62
     7
370
    35
100
AcDbLine
 10
454.6698
 20
575.301575
 30
0.0
 11
449.869812
 21
575.721558
 31
0.0
  0
LINE
  5
1B9
330
1F
100
AcDbEntity
  8
0
 62
     7
370
    35
100
AcDbLine
 10
454.6698
 20
573.301575
 30
0.0
 11
449.869812
 21
572.881592
 31
0.0
  0
LINE
  5
1BA
330
1F
100
AcDbEntity
  8
0
 62
     7
370
    35
100
AcDbLine
 10
454.6698
 20
571.301575
 30
0.0
 11
449.869812
 21
571.721558
 31
0.0
  0
LINE
  5
1BB
330
1F
100
AcDbEntity
  8
0
 62
     7
370
    35
100
AcDbLine
 10
454.6698
 20
569.301575
 30
0.0
 11
449.869812
 21
568.881592
 31
0.0
  0
LINE
  5
1BC
330
1F
100
AcDbEntity
  8
0
 62
     7
370
    35
100
AcDbLine
 10
454.6698
 20
567.301575
 30
0.0
 11
449.869812
 21
567.721558
 31
0.0
  0
LINE
  5
1BD
330
1F
100
AcDbEntity
  8
0
 62
     7
370
    35
100
AcDbLine
 10
454.6698
 20
565.301575
 30
0.0
 11
449.869812
 21
564.881592
 31
0.0
  0
LINE
  5
1BE
330
1F
100
AcDbEntity
  8
0
 62
     7
370
    35
100
AcDbLine
 10
454.6698
 20
563.301575
 30
0.0
 11
449.869812
 21
563.721558
 31
0.0
  0
LINE
  5
1BF
330
1F
100
AcDbEntity
  8
0
 62
     7
370
    35
100
AcDbLine
 10
454.6698
 20
561.301575
 30
0.0
 11
449.869812
 21
560.881592
 31
0.0
  0
LINE
  5
1C0
330
1F
100
AcDbEntity
  8
0
 62
     7
370
    35
100
AcDbLine
 10
454.6698
 20
559.301575
 30
0.0
 11
449.869812
 21
559.721558
 31
0.0
  0
LINE
  5
1C1
330
1F
100
AcDbEntity
  8
0
 62
     7
370
    35
100
AcDbLine
 10
454.6698
 20
557.301575
 30
0.0
 11
449.869812
 21
556.881592
 31
0.0
  0
LINE
  5
1C2
330
1F
100
AcDbEntity
  8
0
 62
     7
370
    35
100
AcDbLine
 10
454.6698
 20
555.301575
 30
0.0
 11
449.869812
 21
555.721558
 31
0.0
  0
LINE
  5
1C3
330
1F
100
AcDbEntity
  8
0
 62
     7
370
    35
100
AcDbLine
 10
454.6698
 20
551.301575
 30
0.0
 11
449.869812
 21
551.721558
 31
0.0
  0
LINE
  5
1C4
330
1F
100
AcDbEntity
  8
0
 62
     7
370
    35
100
AcDbLine
 10
454.6698
 20
553.301575
 30
0.0
 11
449.869812
 21
552.881592
 31
0.0
  0
LINE
  5
1C5
330
1F
100
AcDbEntity
  8
0
 62
     7
370
    35
100
AcDbLine
 10
449.869812
 20
552.881592
 30
0.0
 11
449.869812
 21
551.721558
 31
0.0
  0
LINE
  5
1C6
330
1F
100
AcDbEntity
  8
0
 62
     7
370
    35
100
AcDbLine
 10
449.869812
 20
556.881592
 30
0.0
 11
449.869812
 21
555.721558
 31
0.0
  0
LINE
  5
1C7
330
1F
100
AcDbEntity
  8
0
 62
     7
370
    35
100
AcDbLine
 10
449.869812
 20
560.881592
 30
0.0
 11
449.869812
 21
559.721558
 31
0.0
  0
LINE
  5
1C8
330
1F
100
AcDbEntity
  8
0
 62
     7
370
    35
100
AcDbLine
 10
449.869812
 20
564.881592
 30
0.0
 11
449.869812
 21
563.721558
 31
0.0
  0
LINE
  5
1C9
330
1F
100
AcDbEntity
  8
0
 62
     7
370
    35
100
AcDbLine
 10
449.869812
 20
568.881592
 30
0.0
 11
449.869812
 21
567.721558
 31
0.0
  0
LINE
  5
1CA
330
1F
100
AcDbEntity
  8
0
 62
     7
370
    35
100
AcDbLine
 10
449.869812
 20
572.881592
 30
0.0
 11
449.869812
 21
571.721558
 31
0.0
  0
LINE
  5
1CB
330
1F
100
AcDbEntity
  8
0
 62
     7
370
    35
100
AcDbLine
 10
449.869812
 20
576.881592
 30
0.0
 11
449.869812
 21
575.721558
 31
0.0
  0
LINE
  5
1CC
330
1F
100
AcDbEntity
  8
0
 62
     7
370
    35
100
AcDbLine
 10
449.869812
 20
580.881592
 30
0.0
 11
449.869812
 21
579.721558
 31
0.0
  0
LINE
  5
1CD
330
1F
100
AcDbEntity
  8
0
 62
     7
370
    35
100
AcDbLine
 10
449.869812
 20
584.881592
 30
0.0
 11
449.869812
 21
583.721558
 31
0.0
  0
LINE
  5
1CE
330
1F
100
AcDbEntity
  8
0
 62
     7
370
    35
100
AcDbLine
 10
449.869812
 20
588.881592
 30
0.0
 11
449.869812
 21
587.721558
 31
0.0
  0
LINE
  5
1CF
330
1F
100
AcDbEntity
  8
0
 62
     7
370
    35
100
AcDbLine
 10
449.869812
 20
592.881592
 30
0.0
 11
449.869812
 21
591.721558
 31
0.0
  0
LINE
  5
1D0
330
1F
100
AcDbEntity
  8
0
 62
     7
370
    35
100
AcDbLine
 10
449.869812
 20
596.881592
 30
0.0
 11
449.869812
 21
595.721558
 31
0.0
  0
LINE
  5
1D1
330
1F
100
AcDbEntity
  8
0
 62
     7
370
    35
100
AcDbLine
 10
454.6698
 20
601.301575
 30
0.0
 11
449.869812
 21
600.881592
 31
0.0
  0
LINE
  5
1D2
330
1F
100
AcDbEntity
  8
0
 62
     7
370
    35
100
AcDbLine
 10
449.869812
 20
600.881592
 30
0.0
 11
449.869812
 21
599.721558
 31
0.0
  0
LINE
  5
1D3
330
1F
100
AcDbEntity
  8
0
 62
     7
370
    35
100
AcDbLine
 10
454.6698
 20
549.801575
 30
0.0
 11
449.6698
 21
549.801575
 31
0.0
  0
LINE
  5
1D4
330
1F
100
AcDbEntity
  8
0
 62
     7
370
    35
100
AcDbLine
 10
499.439789
 20
620.801575
 30
0.0
 11
507.6698
 21
620.801575
 31
0.0
  0
LINE
  5
1D5
330
1F
100
AcDbEntity
  8
0
 62
     7
370
    35
100
AcDbLine
 10
499.439789
 20
620.801575
 30
0.0
 11
496.839813
 21
620.801575
 31
0.0
  0
LINE
  5
1D6
330
1F
100
AcDbEntity
  8
0
 62
     7
370
    35
100
AcDbLine
 10
456.1698
 20
620.801575
 30
0.0
 11
496.839813
 21
620.801575
 31
0.0
  0
LINE
  5
1D7
330
1F
100
AcDbEntity
  8
0
 62
     7
370
    35
100
AcDbLine
 10
455.6698
 20
542.301575
 30
0.0
 11
456.1698
 21
542.301575
 31
0.0
  0
LINE
  5
1D8
330
1F
100
AcDbEntity
  8
0
 62
     7
370
    35
100
AcDbLine
 10
456.1698
 20
543.301575
 30
0.0
 11
507.6698
 21
543.301575
 31
0.0
  0
LINE
  5
1D9
330
1F
100
AcDbEntity
  8
0
 62
     7
370
    35
100
AcDbLine
 10
499.139801
 20
610.581543
 30
0.0
 11
499.395935
 21
619.307312
 31
0.0
  0
LINE
  5
1DA
330
1F
100
AcDbEntity
  8
0
 62
     7
370
    35
100
AcDbLine
 10
497.139801
 20
610.581543
 30
0.0
 11
499.139801
 21
610.581543
 31
0.0
  0
LINE
  5
1DB
330
1F
100
AcDbEntity
  8
0
 62
     7
370
    35
100
AcDbLine
 10
497.139801
 20
610.581543
 30
0.0
 11
496.883667
 21
619.307312
 31
0.0
  0
LINE
  5
1DC
330
1F
100
AcDbEntity
  8
0
 62
     7
370
    35
100
AcDbLine
 10
490.4198
 20
606.101562
 30
0.0
 11
490.4198
 21
618.301575
 31
0.0
  0
LINE
  5
1DD
330
1F
100
AcDbEntity
  8
0
 62
     7
370
    35
100
AcDbLine
 10
490.4198
 20
618.301575
 30
0.0
 11
492.4198
 21
618.301575
 31
0.0
  0
LINE
  5
1DE
330
1F
100
AcDbEntity
  8
0
 62
     7
370
    35
100
AcDbLine
 10
492.4198
 20
606.101562
 30
0.0
 11
492.4198
 21
618.301575
 31
0.0
  0
LINE
  5
1DF
330
1F
100
AcDbEntity
  8
0
 62
     7
370
    35
100
AcDbLine
 10
492.4198
 20
606.101562
 30
0.0
 11
490.4198
 21
606.101562
 31
0.0
  0
LINE
  5
1E0
330
1F
100
AcDbEntity
  8
0
 62
     7
370
    35
100
AcDbLine
 10
466.4198
 20
618.301575
 30
0.0
 11
468.4198
 21
618.301575
 31
0.0
  0
LINE
  5
1E1
330
1F
100
AcDbEntity
  8
0
 62
     7
370
    35
100
AcDbLine
 10
468.4198
 20
606.101562
 30
0.0
 11
468.4198
 21
618.301575
 31
0.0
  0
LINE
  5
1E2
330
1F
100
AcDbEntity
  8
0
 62
     7
370
    35
100
AcDbLine
 10
468.4198
 20
606.101562
 30
0.0
 11
466.4198
 21
606.101562
 31
0.0
  0
LINE
  5
1E3
330
1F
100
AcDbEntity
  8
0
 62
     7
370
    35
100
AcDbLine
 10
466.4198
 20
606.101562
 30
0.0
 11
466.4198
 21
618.301575
 31
0.0
  0
LINE
  5
1E4
330
1F
100
AcDbEntity
  8
0
 62
     7
370
    35
100
AcDbLine
 10
486.4198
 20
618.301575
 30
0.0
 11
488.4198
 21
618.301575
 31
0.0
  0
LINE
  5
1E5
330
1F
100
AcDbEntity
  8
0
 62
     7
370
    35
100
AcDbLine
 10
488.4198
 20
606.101562
 30
0.0
 11
488.4198
 21
618.301575
 31
0.0
  0
LINE
  5
1E6
330
1F
100
AcDbEntity
  8
0
 62
     7
370
    35
100
AcDbLine
 10
488.4198
 20
606.101562
 30
0.0
 11
486.4198
 21
606.101562
 31
0.0
  0
LINE
  5
1E7
330
1F
100
AcDbEntity
  8
0
 62
     7
370
    35
100
AcDbLine
 10
486.4198
 20
606.101562
 30
0.0
 11
486.4198
 21
618.301575
 31
0.0
  0
LINE
  5
1E8
330
1F
100
AcDbEntity
  8
0
 62
     7
370
    35
100
AcDbLine
 10
478.4198
 20
618.301575
 30
0.0
 11
480.4198
 21
618.301575
 31
0.0
  0
LINE
  5
1E9
330
1F
100
AcDbEntity
  8
0
 62
     7
370
    35
100
AcDbLine
 10
480.4198
 20
606.101562
 30
0.0
 11
480.4198
 21
618.301575
 31
0.0
  0
LINE
  5
1EA
330
1F
100
AcDbEntity
  8
0
 62
     7
370
    35
100
AcDbLine
 10
480.4198
 20
606.101562
 30
0.0
 11
478.4198
 21
606.101562
 31
0.0
  0
LINE
  5
1EB
330
1F
100
AcDbEntity
  8
0
 62
     7
370
    35
100
AcDbLine
 10
478.4198
 20
606.101562
 30
0.0
 11
478.4198
 21
618.301575
 31
0.0
  0
LINE
  5
1EC
330
1F
100
AcDbEntity
  8
0
 62
     7
370
    35
100
AcDbLine
 10
462.4198
 20
618.301575
 30
0.0
 11
464.4198
 21
618.301575
 31
0.0
  0
LINE
  5
1ED
330
1F
100
AcDbEntity
  8
0
 62
     7
370
    35
100
AcDbLine
 10
464.4198
 20
606.101562
 30
0.0
 11
464.4198
 21
618.301575
 31
0.0
  0
LINE
  5
1EE
330
1F
100
AcDbEntity
  8
0
 62
     7
370
    35
100
AcDbLine
 10
464.4198
 20
606.101562
 30
0.0
 11
462.4198
 21
606.101562
 31
0.0
  0
LINE
  5
1EF
330
1F
100
AcDbEntity
  8
0
 62
     7
370
    35
100
AcDbLine
 10
462.4198
 20
606.101562
 30
0.0
 11
462.4198
 21
618.301575
 31
0.0
  0
LINE
  5
1F0
330
1F
100
AcDbEntity
  8
0
 62
     7
370
    35
100
AcDbLine
 10
470.4198
 20
618.301575
 30
0.0
 11
472.4198
 21
618.301575
 31
0.0
  0
LINE
  5
1F1
330
1F
100
AcDbEntity
  8
0
 62
     7
370
    35
100
AcDbLine
 10
472.4198
 20
606.101562
 30
0.0
 11
472.4198
 21
618.301575
 31
0.0
  0
LINE
  5
1F2
330
1F
100
AcDbEntity
  8
0
 62
     7
370
    35
100
AcDbLine
 10
472.4198
 20
606.101562
 30
0.0
 11
470.4198
 21
606.101562
 31
0.0
  0
LINE
  5
1F3
330
1F
100
AcDbEntity
  8
0
 62
     7
370
    35
100
AcDbLine
 10
470.4198
 20
606.101562
 30
0.0
 11
470.4198
 21
618.301575
 31
0.0
  0
LINE
  5
1F4
330
1F
100
AcDbEntity
  8
0
 62
     7
370
    35
100
AcDbLine
 10
474.4198
 20
618.301575
 30
0.0
 11
476.4198
 21
618.301575
 31
0.0
  0
LINE
  5
1F5
330
1F
100
AcDbEntity
  8
0
 62
     7
370
    35
100
AcDbLine
 10
476.4198
 20
606.101562
 30
0.0
 11
476.4198
 21
618.301575
 31
0.0
  0
LINE
  5
1F6
330
1F
100
AcDbEntity
  8
0
 62
     7
370
    35
100
AcDbLine
 10
476.4198
 20
606.101562
 30
0.0
 11
474.4198
 21
606.101562
 31
0.0
  0
LINE
  5
1F7
330
1F
100
AcDbEntity
  8
0
 62
     7
370
    35
100
AcDbLine
 10
474.4198
 20
606.101562
 30
0.0
 11
474.4198
 21
618.301575
 31
0.0
  0
LINE
  5
1F8
330
1F
100
AcDbEntity
  8
0
 62
     7
370
    35
100
AcDbLine
 10
482.4198
 20
618.301575
 30
0.0
 11
484.4198
 21
618.301575
 31
0.0
  0
LINE
  5
1F9
330
1F
100
AcDbEntity
  8
0
 62
     7
370
    35
100
AcDbLine
 10
484.4198
 20
606.101562
 30
0.0
 11
484.4198
 21
618.301575
 31
0.0
  0
LINE
  5
1FA
330
1F
100
AcDbEntity
  8
0
 62
     7
370
    35
100
AcDbLine
 10
484.4198
 20
606.101562
 30
0.0
 11
482.4198
 21
606.101562
 31
0.0
  0
LINE
  5
1FB
330
1F
100
AcDbEntity
  8
0
 62
     7
370
    35
100
AcDbLine
 10
482.4198
 20
606.101562
 30
0.0
 11
482.4198
 21
618.301575
 31
0.0
  0
LINE
  5
1FC
330
1F
100
AcDbEntity
  8
0
 62
     7
370
    35
100
AcDbLine
 10
458.4198
 20
618.301575
 30
0.0
 11
460.4198
 21
618.301575
 31
0.0
  0
LINE
  5
1FD
330
1F
100
AcDbEntity
  8
0
 62
     7
370
    35
100
AcDbLine
 10
460.4198
 20
606.101562
 30
0.0
 11
460.4198
 21
618.301575
 31
0.0
  0
LINE
  5
1FE
330
1F
100
AcDbEntity
  8
0
 62
     7
370
    35
100
AcDbLine
 10
460.4198
 20
606.101562
 30
0.0
 11
458.4198
 21
606.101562
 31
0.0
  0
LINE
  5
1FF
330
1F
100
AcDbEntity
  8
0
 62
     7
370
    35
100
AcDbLine
 10
458.4198
 20
606.101562
 30
0.0
 11
458.4198
 21
618.301575
 31
0.0
  0
LINE
  5
200
330
1F
100
AcDbEntity
  8
0
 62
     7
370
    35
100
AcDbLine
 10
456.1698
 20
542.301575
 30
0.0
 11
507.6698
 21
542.301575
 31
0.0
  0
LINE
  5
201
330
1F
100
AcDbEntity
  8
0
 62
     7
370
    35
100
AcDbLine
 10
507.6698
 20
542.301575
 30
0.0
 11
508.1698
 21
542.301575
 31
0.0
  0
LINE
  5
202
330
1F
100
AcDbEntity
  8
0
 62
     7
370
    35
100
AcDbLine
 10
509.1698
 20
619.301575
 30
0.0
 11
509.1698
 21
543.301575
 31
0.0
  0
LINE
  5
203
330
1F
100
AcDbEntity
  8
0
 62
     7
370
    35
100
AcDbLine
 10
496.839813
 20
620.801575
 30
0.0
 11
496.883667
 21
619.307312
 31
0.0
  0
ARC
  5
204
330
1F
100
AcDbEntity
  8
0
 62
     7
370
    35
100
AcDbCircle
 10
507.6698
 20
619.301575
 30
0.0
 40
1.5
100
AcDbArc
 50
0.0
 51
90.000003
  0
LINE
  5
205
330
1F
100
AcDbEntity
  8
0
 62
     7
370
    35
100
AcDbLine
 10
499.439789
 20
620.801575
 30
0.0
 11
499.395935
 21
619.307312
 31
0.0
  0
LINE
  5
206
330
1F
100
AcDbEntity
  8
0
 62
     7
370
    35
100
AcDbLine
 10
480.219788
 20
620.801575
 30
0.0
 11
480.219788
 21
622.801575
 31
0.0
  0
LINE
  5
207
330
1F
100
AcDbEntity
  8
0
 62
     7
370
    35
100
AcDbLine
 10
480.219788
 20
622.801575
 30
0.0
 11
479.219788
 21
622.801575
 31
0.0
  0
LINE
  5
208
330
1F
100
AcDbEntity
  8
0
 62
     7
370
    35
100
AcDbLine
 10
483.619812
 20
620.801575
 30
0.0
 11
483.619812
 21
622.801575
 31
0.0
  0
LINE
  5
209
330
1F
100
AcDbEntity
  8
0
 62
     7
370
    35
100
AcDbLine
 10
480.9198
 20
622.801575
 30
0.0
 11
480.219788
 21
622.801575
 31
0.0
  0
LINE
  5
20A
330
1F
100
AcDbEntity
  8
0
 62
     7
370
    35
100
AcDbLine
 10
483.619812
 20
622.801575
 30
0.0
 11
482.9198
 21
622.801575
 31
0.0
  0
LINE
  5
20B
330
1F
100
AcDbEntity
  8
0
 62
     7
370
    35
100
AcDbLine
 10
484.619812
 20
622.801575
 30
0.0
 11
483.619812
 21
622.801575
 31
0.0
  0
LINE
  5
20C
330
1F
100
AcDbEntity
  8
0
 62
     7
370
    35
100
AcDbLine
 10
487.9198
 20
620.801575
 30
0.0
 11
487.9198
 21
624.801575
 31
0.0
  0
LINE
  5
20D
330
1F
100
AcDbEntity
  8
0
 62
     7
370
    35
100
AcDbLine
 10
504.9198
 20
620.801575
 30
0.0
 11
504.9198
 21
624.801575
 31
0.0
  0
LINE
  5
20E
330
1F
100
AcDbEntity
  8
0
 62
     7
370
    35
100
AcDbLine
 10
504.9198
 20
624.801575
 30
0.0
 11
487.9198
 21
624.801575
 31
0.0
  0
LINE
  5
20F
330
1F
100
AcDbEntity
  8
0
 62
     7
370
    35
100
AcDbLine
 10
505.9198
 20
620.801575
 30
0.0
 11
505.9198
 21
622.301575
 31
0.0
  0
LINE
  5
210
330
1F
100
AcDbEntity
  8
0
 62
     7
370
    35
100
AcDbLine
 10
505.9198
 20
622.301575
 30
0.0
 11
504.91983
 21
622.301575
 31
0.0
  0
LINE
  5
211
330
1F
100
AcDbEntity
  8
0
 62
     7
370
    35
100
AcDbLine
 10
457.9198
 20
620.801575
 30
0.0
 11
457.9198
 21
622.301575
 31
0.0
  0
LINE
  5
212
330
1F
100
AcDbEntity
  8
0
 62
     7
370
    35
100
AcDbLine
 10
458.91983
 20
622.301575
 30
0.0
 11
457.9198
 21
622.301575
 31
0.0
  0
LINE
  5
213
330
1F
100
AcDbEntity
  8
0
 62
     7
370
    35
100
AcDbLine
 10
458.9198
 20
620.801575
 30
0.0
 11
458.9198
 21
624.801575
 31
0.0
  0
LINE
  5
214
330
1F
100
AcDbEntity
  8
0
 62
     7
370
    35
100
AcDbLine
 10
475.9198
 20
620.801575
 30
0.0
 11
475.9198
 21
624.801575
 31
0.0
  0
LINE
  5
215
330
1F
100
AcDbEntity
  8
0
 62
     7
370
    35
100
AcDbLine
 10
475.9198
 20
624.801575
 30
0.0
 11
458.9198
 21
624.801575
 31
0.0
  0
LINE
  5
216
330
1F
100
AcDbEntity
  8
0
 62
     7
370
    35
100
AcDbLine
 10
507.6698
 20
543.301575
 30
0.0
 11
509.1698
 21
543.301575
 31
0.0
  0
LINE
  5
217
330
1F
100
AcDbEntity
  8
0
 62
     7
370
    35
100
AcDbLine
 10
509.1698
 20
549.801575
 30
0.0
 11
514.1698
 21
549.801575
 31
0.0
  0
LINE
  5
218
330
1F
100
AcDbEntity
  8
0
 62
     7
370
    35
100
AcDbLine
 10
509.1698
 20
549.801575
 30
0.0
 11
514.1698
 21
549.801575
 31
0.0
  0
LINE
  5
219
330
1F
100
AcDbEntity
  8
0
 62
     7
370
    35
100
AcDbLine
 10
509.1698
 20
544.801575
 30
0.0
 11
514.1698
 21
544.801575
 31
0.0
  0
LINE
  5
21A
330
1F
100
AcDbEntity
  8
0
 62
     7
370
    35
100
AcDbLine
 10
514.1698
 20
544.801575
 30
0.0
 11
514.1698
 21
549.801575
 31
0.0
  0
LINE
  5
21B
330
1F
100
AcDbEntity
  8
0
 62
     7
370
    35
100
AcDbLine
 10
509.1698
 20
551.301575
 30
0.0
 11
513.969788
 21
551.721558
 31
0.0
  0
LINE
  5
21C
330
1F
100
AcDbEntity
  8
0
 62
     7
370
    35
100
AcDbLine
 10
509.1698
 20
553.301575
 30
0.0
 11
513.969788
 21
552.881592
 31
0.0
  0
LINE
  5
21D
330
1F
100
AcDbEntity
  8
0
 62
     7
370
    35
100
AcDbLine
 10
513.969788
 20
552.881592
 30
0.0
 11
513.969788
 21
551.721558
 31
0.0
  0
LINE
  5
21E
330
1F
100
AcDbEntity
  8
0
 62
     7
370
    35
100
AcDbLine
 10
509.1698
 20
555.301575
 30
0.0
 11
513.969788
 21
555.721558
 31
0.0
  0
LINE
  5
21F
330
1F
100
AcDbEntity
  8
0
 62
     7
370
    35
100
AcDbLine
 10
509.1698
 20
557.301575
 30
0.0
 11
513.969788
 21
556.881592
 31
0.0
  0
LINE
  5
220
330
1F
100
AcDbEntity
  8
0
 62
     7
370
    35
100
AcDbLine
 10
513.969788
 20
556.881592
 30
0.0
 11
513.969788
 21
555.721558
 31
0.0
  0
LINE
  5
221
330
1F
100
AcDbEntity
  8
0
 62
     7
370
    35
100
AcDbLine
 10
509.1698
 20
559.301575
 30
0.0
 11
513.969788
 21
559.721558
 31
0.0
  0
LINE
  5
222
330
1F
100
AcDbEntity
  8
0
 62
     7
370
    35
100
AcDbLine
 10
509.1698
 20
561.301575
 30
0.0
 11
513.969788
 21
560.881592
 31
0.0
  0
LINE
  5
223
330
1F
100
AcDbEntity
  8
0
 62
     7
370
    35
100
AcDbLine
 10
513.969788
 20
560.881592
 30
0.0
 11
513.969788
 21
559.721558
 31
0.0
  0
LINE
  5
224
330
1F
100
AcDbEntity
  8
0
 62
     7
370
    35
100
AcDbLine
 10
509.1698
 20
563.301575
 30
0.0
 11
513.969788
 21
563.721558
 31
0.0
  0
LINE
  5
225
330
1F
100
AcDbEntity
  8
0
 62
     7
370
    35
100
AcDbLine
 10
509.1698
 20
565.301575
 30
0.0
 11
513.969788
 21
564.881592
 31
0.0
  0
LINE
  5
226
330
1F
100
AcDbEntity
  8
0
 62
     7
370
    35
100
AcDbLine
 10
513.969788
 20
564.881592
 30
0.0
 11
513.969788
 21
563.721558
 31
0.0
  0
LINE
  5
227
330
1F
100
AcDbEntity
  8
0
 62
     7
370
    35
100
AcDbLine
 10
509.1698
 20
567.301575
 30
0.0
 11
513.969788
 21
567.721558
 31
0.0
  0
LINE
  5
228
330
1F
100
AcDbEntity
  8
0
 62
     7
370
    35
100
AcDbLine
 10
509.1698
 20
569.301575
 30
0.0
 11
513.969788
 21
568.881592
 31
0.0
  0
LINE
  5
229
330
1F
100
AcDbEntity
  8
0
 62
     7
370
    35
100
AcDbLine
 10
513.969788
 20
568.881592
 30
0.0
 11
513.969788
 21
567.721558
 31
0.0
  0
LINE
  5
22A
330
1F
100
AcDbEntity
  8
0
 62
     7
370
    35
100
AcDbLine
 10
509.1698
 20
571.301575
 30
0.0
 11
513.969788
 21
571.721558
 31
0.0
  0
LINE
  5
22B
330
1F
100
AcDbEntity
  8
0
 62
     7
370
    35
100
AcDbLine
 10
509.1698
 20
573.301575
 30
0.0
 11
513.969788
 21
572.881592
 31
0.0
  0
LINE
  5
22C
330
1F
100
AcDbEntity
  8
0
 62
     7
370
    35
100
AcDbLine
 10
513.969788
 20
572.881592
 30
0.0
 11
513.969788
 21
571.721558
 31
0.0
  0
LINE
  5
22D
330
1F
100
AcDbEntity
  8
0
 62
     7
370
    35
100
AcDbLine
 10
509.1698
 20
575.301575
 30
0.0
 11
513.969788
 21
575.721558
 31
0.0
  0
LINE
  5
22E
330
1F
100
AcDbEntity
  8
0
 62
     7
370
    35
100
AcDbLine
 10
509.1698
 20
577.301575
 30
0.0
 11
513.969788
 21
576.881592
 31
0.0
  0
LINE
  5
22F
330
1F
100
AcDbEntity
  8
0
 62
     7
370
    35
100
AcDbLine
 10
513.969788
 20
576.881592
 30
0.0
 11
513.969788
 21
575.721558
 31
0.0
  0
LINE
  5
230
330
1F
100
AcDbEntity
  8
0
 62
     7
370
    35
100
AcDbLine
 10
509.1698
 20
579.301575
 30
0.0
 11
513.969788
 21
579.721558
 31
0.0
  0
LINE
  5
231
330
1F
100
AcDbEntity
  8
0
 62
     7
370
    35
100
AcDbLine
 10
509.1698
 20
581.301575
 30
0.0
 11
513.969788
 21
580.881592
 31
0.0
  0
LINE
  5
232
330
1F
100
AcDbEntity
  8
0
 62
     7
370
    35
100
AcDbLine
 10
513.969788
 20
580.881592
 30
0.0
 11
513.969788
 21
579.721558
 31
0.0
  0
LINE
  5
233
330
1F
100
AcDbEntity
  8
0
 62
     7
370
    35
100
AcDbLine
 10
509.1698
 20
583.301575
 30
0.0
 11
513.969788
 21
583.721558
 31
0.0
  0
LINE
  5
234
330
1F
100
AcDbEntity
  8
0
 62
     7
370
    35
100
AcDbLine
 10
509.1698
 20
585.301575
 30
0.0
 11
513.969788
 21
584.881592
 31
0.0
  0
LINE
  5
235
330
1F
100
AcDbEntity
  8
0
 62
     7
370
    35
100
AcDbLine
 10
513.969788
 20
584.881592
 30
0.0
 11
513.969788
 21
583.721558
 31
0.0
  0
LINE
  5
236
330
1F
100
AcDbEntity
  8
0
 62
     7
370
    35
100
AcDbLine
 10
509.1698
 20
587.301575
 30
0.0
 11
513.969788
 21
587.721558
 31
0.0
  0
LINE
  5
237
330
1F
100
AcDbEntity
  8
0
 62
     7
370
    35
100
AcDbLine
 10
509.1698
 20
589.301575
 30
0.0
 11
513.969788
 21
588.881592
 31
0.0
  0
LINE
  5
238
330
1F
100
AcDbEntity
  8
0
 62
     7
370
    35
100
AcDbLine
 10
513.969788
 20
588.881592
 30
0.0
 11
513.969788
 21
587.721558
 31
0.0
  0
LINE
  5
239
330
1F
100
AcDbEntity
  8
0
 62
     7
370
    35
100
AcDbLine
 10
509.1698
 20
591.301575
 30
0.0
 11
513.969788
 21
591.721558
 31
0.0
  0
LINE
  5
23A
330
1F
100
AcDbEntity
  8
0
 62
     7
370
    35
100
AcDbLine
 10
509.1698
 20
593.301575
 30
0.0
 11
513.969788
 21
592.881592
 31
0.0
  0
LINE
  5
23B
330
1F
100
AcDbEntity
  8
0
 62
     7
370
    35
100
AcDbLine
 10
513.969788
 20
592.881592
 30
0.0
 11
513.969788
 21
591.721558
 31
0.0
  0
LINE
  5
23C
330
1F
100
AcDbEntity
  8
0
 62
     7
370
    35
100
AcDbLine
 10
509.1698
 20
595.301575
 30
0.0
 11
513.969788
 21
595.721558
 31
0.0
  0
LINE
  5
23D
330
1F
100
AcDbEntity
  8
0
 62
     7
370
    35
100
AcDbLine
 10
509.1698
 20
597.301575
 30
0.0
 11
513.969788
 21
596.881592
 31
0.0
  0
LINE
  5
23E
330
1F
100
AcDbEntity
  8
0
 62
     7
370
    35
100
AcDbLine
 10
513.969788
 20
596.881592
 30
0.0
 11
513.969788
 21
595.721558
 31
0.0
  0
LINE
  5
23F
330
1F
100
AcDbEntity
  8
0
 62
     7
370
    35
100
AcDbLine
 10
509.1698
 20
601.301575
 30
0.0
 11
513.969788
 21
600.881592
 31
0.0
  0
LINE
  5
240
330
1F
100
AcDbEntity
  8
0
 62
     7
370
    35
100
AcDbLine
 10
509.1698
 20
599.301575
 30
0.0
 11
513.969788
 21
599.721558
 31
0.0
  0
LINE
  5
241
330
1F
100
AcDbEntity
  8
0
 62
     7
370
    35
100
AcDbLine
 10
513.969788
 20
599.721558
 30
0.0
 11
513.969788
 21
600.881592
 31
0.0
  0
LINE
  5
242
330
1F
100
AcDbEntity
  8
0
 62
     7
370
    35
100
AcDbLine
 10
509.1698
 20
605.301575
 30
0.0
 11
513.969788
 21
604.881592
 31
0.0
  0
LINE
  5
243
330
1F
100
AcDbEntity
  8
0
 62
     7
370
    35
100
AcDbLine
 10
509.1698
 20
603.301575
 30
0.0
 11
513.969788
 21
603.721558
 31
0.0
  0
LINE
  5
244
330
1F
100
AcDbEntity
  8
0
 62
     7
370
    35
100
AcDbLine
 10
513.969788
 20
603.721558
 30
0.0
 11
513.969788
 21
604.881592
 31
0.0
  0
LINE
  5
245
330
1F
100
AcDbEntity
  8
0
 62
     7
370
    35
100
AcDbLine
 10
509.1698
 20
609.301575
 30
0.0
 11
513.969788
 21
608.881592
 31
0.0
  0
LINE
  5
246
330
1F
100
AcDbEntity
  8
0
 62
     7
370
    35
100
AcDbLine
 10
509.1698
 20
607.301575
 30
0.0
 11
513.969788
 21
607.721558
 31
0.0
  0
LINE
  5
247
330
1F
100
AcDbEntity
  8
0
 62
     7
370
    35
100
AcDbLine
 10
513.969788
 20
607.721558
 30
0.0
 11
513.969788
 21
608.881592
 31
0.0
  0
LINE
  5
248
330
1F
100
AcDbEntity
  8
0
 62
     7
370
    35
100
AcDbLine
 10
509.1698
 20
613.301575
 30
0.0
 11
513.969788
 21
612.881592
 31
0.0
  0
LINE
  5
249
330
1F
100
AcDbEntity
  8
0
 62
     7
370
    35
100
AcDbLine
 10
509.1698
 20
611.301575
 30
0.0
 11
513.969788
 21
611.721558
 31
0.0
  0
LINE
  5
24A
330
1F
100
AcDbEntity
  8
0
 62
     7
370
    35
100
AcDbLine
 10
513.969788
 20
611.721558
 30
0.0
 11
513.969788
 21
612.881592
 31
0.0
  0
LINE
  5
24B
330
1F
100
AcDbEntity
  8
0
 62
     7
370
    35
100
AcDbLine
 10
513.969788
 20
611.801575
 30
0.0
 11
514.1698
 21
611.801575
 31
0.0
  0
LINE
  5
24C
330
1F
100
AcDbEntity
  8
0
 62
     7
370
    35
100
AcDbLine
 10
514.1698
 20
611.801575
 30
0.0
 11
514.1698
 21
616.801575
 31
0.0
  0
LINE
  5
24D
330
1F
100
AcDbEntity
  8
0
 62
     7
370
    35
100
AcDbLine
 10
513.969788
 20
616.801575
 30
0.0
 11
514.1698
 21
616.801575
 31
0.0
  0
LINE
  5
24E
330
1F
100
AcDbEntity
  8
0
 62
     7
370
    35
100
AcDbLine
 10
509.1698
 20
617.301575
 30
0.0
 11
513.969788
 21
616.881592
 31
0.0
  0
LINE
  5
24F
330
1F
100
AcDbEntity
  8
0
 62
     7
370
    35
100
AcDbLine
 10
509.1698
 20
615.301575
 30
0.0
 11
513.969788
 21
615.721558
 31
0.0
  0
LINE
  5
250
330
1F
100
AcDbEntity
  8
0
 62
     7
370
    35
100
AcDbLine
 10
513.969788
 20
615.721558
 30
0.0
 11
513.969788
 21
616.881592
 31
0.0
  0
LINE
  5
251
330
1F
100
AcDbEntity
  8
0
 62
     7
370
    35
100
AcDbLine
 10
514.1698
 20
548.501587
 30
0.0
 11
515.869812
 21
548.501587
 31
0.0
  0
LINE
  5
252
330
1F
100
AcDbEntity
  8
0
 62
     7
370
    35
100
AcDbLine
 10
514.1698
 20
548.501587
 30
0.0
 11
515.869812
 21
548.501587
 31
0.0
  0
LINE
  5
253
330
1F
100
AcDbEntity
  8
0
 62
     7
370
    35
100
AcDbLine
 10
514.1698
 20
546.101562
 30
0.0
 11
515.869812
 21
546.101562
 31
0.0
  0
LINE
  5
254
330
1F
100
AcDbEntity
  8
0
 62
     7
370
    35
100
AcDbLine
 10
515.869812
 20
546.101562
 30
0.0
 11
515.869812
 21
548.501587
 31
0.0
  0
LINE
  5
255
330
1F
100
AcDbEntity
  8
0
 62
     7
370
    35
100
AcDbLine
 10
514.1698
 20
615.501587
 30
0.0
 11
515.869812
 21
615.501587
 31
0.0
  0
LINE
  5
256
330
1F
100
AcDbEntity
  8
0
 62
     7
370
    35
100
AcDbLine
 10
514.1698
 20
613.101562
 30
0.0
 11
515.869812
 21
613.101562
 31
0.0
  0
LINE
  5
257
330
1F
100
AcDbEntity
  8
0
 62
     7
370
    35
100
AcDbLine
 10
515.869812
 20
615.501587
 30
0.0
 11
515.869812
 21
613.101562
 31
0.0
  0
LINE
  5
258
330
1F
100
AcDbEntity
  8
0
 62
     7
370
    35
100
AcDbLine
 10
516.1698
 20
548.201538
 30
0.0
 11
515.869812
 21
548.501587
 31
0.0
  0
LINE
  5
259
330
1F
100
AcDbEntity
  8
0
 62
     7
370
    35
100
AcDbLine
 10
516.1698
 20
546.401611
 30
0.0
 11
515.869812
 21
546.101562
 31
0.0
  0
LINE
  5
25A
330
1F
100
AcDbEntity
  8
0
 62
     7
370
    35
100
AcDbLine
 10
516.1698
 20
546.401611
 30
0.0
 11
516.1698
 21
548.201538
 31
0.0
  0
LINE
  5
25B
330
1F
100
AcDbEntity
  8
0
 62
     7
370
    35
100
AcDbLine
 10
515.869812
 20
615.501587
 30
0.0
 11
516.1698
 21
615.201538
 31
0.0
  0
LINE
  5
25C
330
1F
100
AcDbEntity
  8
0
 62
     7
370
    35
100
AcDbLine
 10
515.869812
 20
613.101562
 30
0.0
 11
516.1698
 21
613.401611
 31
0.0
  0
LINE
  5
25D
330
1F
100
AcDbEntity
  8
0
 62
     7
370
    35
100
AcDbLine
 10
516.1698
 20
615.201538
 30
0.0
 11
516.1698
 21
613.401611
 31
0.0
  0
LINE
  5
25E
330
1F
100
AcDbEntity
  8
0
 62
     7
370
    35
100
AcDbLine
 10
454.6698
 20
555.301575
 30
0.0
 11
454.6698
 21
553.301575
 31
0.0
  0
LINE
  5
25F
330
1F
100
AcDbEntity
  8
0
 62
     7
370
    35
100
AcDbLine
 10
454.6698
 20
599.301575
 30
0.0
 11
454.6698
 21
597.301575
 31
0.0
  0
LINE
  5
260
330
1F
100
AcDbEntity
  8
0
 62
     7
370
    35
100
AcDbLine
 10
454.6698
 20
595.301575
 30
0.0
 11
454.6698
 21
593.301575
 31
0.0
  0
LINE
  5
261
330
1F
100
AcDbEntity
  8
0
 62
     7
370
    35
100
AcDbLine
 10
454.6698
 20
591.301575
 30
0.0
 11
454.6698
 21
589.301575
 31
0.0
  0
LINE
  5
262
330
1F
100
AcDbEntity
  8
0
 62
     7
370
    35
100
AcDbLine
 10
454.6698
 20
587.301575
 30
0.0
 11
454.6698
 21
585.301575
 31
0.0
  0
LINE
  5
263
330
1F
100
AcDbEntity
  8
0
 62
     7
370
    35
100
AcDbLine
 10
454.6698
 20
583.301575
 30
0.0
 11
454.6698
 21
581.301575
 31
0.0
  0
LINE
  5
264
330
1F
100
AcDbEntity
  8
0
 62
     7
370
    35
100
AcDbLine
 10
454.6698
 20
579.301575
 30
0.0
 11
454.6698
 21
577.301575
 31
0.0
  0
LINE
  5
265
330
1F
100
AcDbEntity
  8
0
 62
     7
370
    35
100
AcDbLine
 10
454.6698
 20
575.301575
 30
0.0
 11
454.6698
 21
573.301575
 31
0.0
  0
LINE
  5
266
330
1F
100
AcDbEntity
  8
0
 62
     7
370
    35
100
AcDbLine
 10
454.6698
 20
571.301575
 30
0.0
 11
454.6698
 21
569.301575
 31
0.0
  0
LINE
  5
267
330
1F
100
AcDbEntity
  8
0
 62
     7
370
    35
100
AcDbLine
 10
454.6698
 20
567.301575
 30
0.0
 11
454.6698
 21
565.301575
 31
0.0
  0
LINE
  5
268
330
1F
100
AcDbEntity
  8
0
 62
     7
370
    35
100
AcDbLine
 10
454.6698
 20
563.301575
 30
0.0
 11
454.6698
 21
561.301575
 31
0.0
  0
LINE
  5
269
330
1F
100
AcDbEntity
  8
0
 62
     7
370
    35
100
AcDbLine
 10
454.6698
 20
559.301575
 30
0.0
 11
454.6698
 21
557.301575
 31
0.0
  0
LINE
  5
26A
330
1F
100
AcDbEntity
  8
0
 62
     7
370
    35
100
AcDbLine
 10
454.6698
 20
543.301575
 30
0.0
 11
455.6698
 21
542.301575
 31
0.0
  0
LINE
  5
26B
330
1F
100
AcDbEntity
  8
0
 62
     7
370
    35
100
AcDbLine
 10
454.6698
 20
543.301575
 30
0.0
 11
455.352539
 21
542.618835
 31
0.0
  0
LINE
  5
26C
330
1F
100
AcDbEntity
  8
0
 62
     7
370
    35
100
AcDbLine
 10
509.1698
 20
543.301575
 30
0.0
 11
508.1698
 21
542.301575
 31
0.0
  0
LINE
  5
26D
330
1F
100
AcDbEntity
  8
0
 62
     7
370
    35
100
AcDbLine
 10
481.509796
 20
620.801575
 30
0.0
 11
487.91983
 21
620.801575
 31
0.0
  0
LINE
  5
26E
330
1F
100
AcDbEntity
  8
0
 62
     7
370
    35
100
AcDbLine
 10
480.9198
 20
623.301575
 30
0.0
 11
480.9198
 21
620.801575
 31
0.0
  0
LINE
  5
26F
330
1F
100
AcDbEntity
  8
0
 62
     7
370
    35
100
AcDbLine
 10
480.9198
 20
620.801575
 30
0.0
 11
482.9198
 21
620.801575
 31
0.0
  0
LINE
  5
270
330
1F
100
AcDbEntity
  8
0
 62
     7
370
    35
100
AcDbLine
 10
482.9198
 20
623.301575
 30
0.0
 11
482.9198
 21
620.801575
 31
0.0
  0
LINE
  5
271
330
1F
100
AcDbEntity
  8
0
 62
     7
370
    35
100
AcDbLine
 10
487.91983
 20
622.801575
 30
0.0
 11
485.1698
 21
622.801575
 31
0.0
  0
LINE
  5
272
330
1F
100
AcDbEntity
  8
0
 62
     7
370
    35
100
AcDbLine
 10
487.91983
 20
624.801575
 30
0.0
 11
475.91983
 21
624.801575
 31
0.0
  0
LINE
  5
273
330
1F
100
AcDbEntity
  8
0
 62
     7
370
    35
100
AcDbLine
 10
478.6698
 20
622.801575
 30
0.0
 11
475.91983
 21
622.801575
 31
0.0
  0
LINE
  5
274
330
1F
100
AcDbEntity
  8
0
 62
     7
370
    35
100
AcDbLine
 10
478.6698
 20
622.801575
 30
0.0
 11
478.6698
 21
623.301575
 31
0.0
  0
LINE
  5
275
330
1F
100
AcDbEntity
  8
0
 62
     7
370
    35
100
AcDbLine
 10
478.6698
 20
623.301575
 30
0.0
 11
485.1698
 21
623.301575
 31
0.0
  0
LINE
  5
276
330
1F
100
AcDbEntity
  8
0
 62
     7
370
    35
100
AcDbLine
 10
485.1698
 20
622.801575
 30
0.0
 11
485.1698
 21
623.301575
 31
0.0
  0
LINE
  5
277
330
1F
100
AcDbEntity
  8
0
 62
     7
370
    35
100
AcDbLine
 10
479.6698
 20
623.301514
 30
0.0
 11
479.6698
 21
622.801514
 31
0.0
  0
LINE
  5
278
330
1F
100
AcDbEntity
  8
0
 62
     7
370
    35
100
AcDbLine
 10
484.1698
 20
623.301514
 30
0.0
 11
484.1698
 21
622.801514
 31
0.0
  0
LINE
  5
279
330
1F
100
AcDbEntity
  8
0
 62
     7
370
    35
100
AcDbLine
 10
485.1698
 20
622.801575
 30
0.0
 11
485.1698
 21
621.801575
 31
0.0
  0
LINE
  5
27A
330
1F
100
AcDbEntity
  8
0
 62
     7
370
    35
100
AcDbLine
 10
487.91983
 20
621.801575
 30
0.0
 11
485.1698
 21
621.801575
 31
0.0
  0
LINE
  5
27B
330
1F
100
AcDbEntity
  8
0
 62
     7
370
    35
100
AcDbLine
 10
485.1698
 20
620.801575
 30
0.0
 11
485.1698
 21
621.801575
 31
0.0
  0
LINE
  5
27C
330
1F
100
AcDbEntity
  8
0
 62
     7
370
    35
100
AcDbLine
 10
487.91983
 20
620.801575
 30
0.0
 11
485.1698
 21
620.801575
 31
0.0
  0
LINE
  5
27D
330
1F
100
AcDbEntity
  8
0
 62
     7
370
    35
100
AcDbLine
 10
485.1698
 20
620.801575
 30
0.0
 11
483.860596
 21
620.801575
 31
0.0
  0
LINE
  5
27E
330
1F
100
AcDbEntity
  8
0
 62
     7
370
    35
100
AcDbLine
 10
478.6698
 20
620.801575
 30
0.0
 11
479.979004
 21
620.801575
 31
0.0
  0
LINE
  5
27F
330
1F
100
AcDbEntity
  8
0
 62
     7
370
    35
100
AcDbLine
 10
478.6698
 20
620.801575
 30
0.0
 11
475.91983
 21
620.801575
 31
0.0
  0
LINE
  5
280
330
1F
100
AcDbEntity
  8
0
 62
     7
370
    35
100
AcDbLine
 10
478.6698
 20
620.801575
 30
0.0
 11
478.6698
 21
621.801575
 31
0.0
  0
LINE
  5
281
330
1F
100
AcDbEntity
  8
0
 62
     7
370
    35
100
AcDbLine
 10
478.6698
 20
622.801575
 30
0.0
 11
478.6698
 21
621.801575
 31
0.0
  0
LINE
  5
282
330
1F
100
AcDbEntity
  8
0
 62
     7
370
    35
100
AcDbLine
 10
478.6698
 20
621.801575
 30
0.0
 11
475.91983
 21
621.801575
 31
0.0
  0
LINE
  5
283
330
1F
100
AcDbEntity
  8
0
 62
     7
370
    35
100
AcDbLine
 10
478.6698
 20
622.801575
 30
0.0
 11
480.069794
 21
622.801575
 31
0.0
  0
LINE
  5
284
330
1F
100
AcDbEntity
  8
0
 62
     7
370
    35
100
AcDbLine
 10
485.1698
 20
622.801575
 30
0.0
 11
483.769806
 21
622.801575
 31
0.0
  0
LINE
  5
285
330
1F
100
AcDbEntity
  8
0
 62
     7
370
    35
100
AcDbLine
 10
503.110229
 20
540.301575
 30
0.0
 11
501.1698
 21
540.301575
 31
0.0
  0
LINE
  5
286
330
1F
100
AcDbEntity
  8
0
 62
     7
370
    35
100
AcDbLine
 10
506.1698
 20
540.301575
 30
0.0
 11
503.110229
 21
540.301575
 31
0.0
  0
LINE
  5
287
330
1F
100
AcDbEntity
  8
0
 62
     7
370
    35
100
AcDbLine
 10
500.6698
 20
540.801575
 30
0.0
 11
500.6698
 21
542.301575
 31
0.0
  0
LINE
  5
288
330
1F
100
AcDbEntity
  8
0
 62
     7
370
    35
100
AcDbLine
 10
506.6698
 20
540.801575
 30
0.0
 11
506.6698
 21
542.301575
 31
0.0
  0
ARC
  5
289
330
1F
100
AcDbEntity
  8
0
 62
     7
370
    35
100
AcDbCircle
 10
501.1698
 20
540.801575
 30
0.0
 40
0.500000004108314
100
AcDbArc
 50
179.999995
 51
269.999997
  0
ARC
  5
28A
330
1F
100
AcDbEntity
  8
0
 62
     7
370
    35
100
AcDbCircle
 10
506.1698
 20
540.801575
 30
0.0
 40
0.5000000041073219
100
AcDbArc
 50
269.999997
 51
360.0
  0
LINE
  5
28B
330
1F
100
AcDbEntity
  8
0
 62
     7
370
    35
100
AcDbLine
 10
716.160767
 20
333.543762
 30
0.0
 11
716.160767
 21
319.113739
 31
0.0
  0
LINE
  5
28C
330
1F
100
AcDbEntity
  8
0
 62
     7
370
    35
100
AcDbLine
 10
716.160767
 20
276.043732
 30
0.0
 11
716.160767
 21
275.543762
 31
0.0
  0
LINE
  5
28D
330
1F
100
AcDbEntity
  8
0
 62
     7
370
    35
100
AcDbLine
 10
611.256836
 20
326.523743
 30
0.0
 11
617.380798
 21
326.523743
 31
0.0
  0
LINE
  5
28E
330
1F
100
AcDbEntity
  8
0
 62
     7
370
    35
100
AcDbLine
 10
611.256836
 20
325.023743
 30
0.0
 11
611.256836
 21
326.523743
 31
0.0
  0
LINE
  5
28F
330
1F
100
AcDbEntity
  8
0
 62
     7
370
    35
100
AcDbLine
 10
606.280762
 20
330.523743
 30
0.0
 11
617.380798
 21
330.523743
 31
0.0
  0
LINE
  5
290
330
1F
100
AcDbEntity
  8
0
 62
     7
370
    35
100
AcDbLine
 10
611.256836
 20
324.523743
 30
0.0
 11
611.256836
 21
325.023743
 31
0.0
  0
LINE
  5
291
330
1F
100
AcDbEntity
  8
0
 62
     7
370
    35
100
AcDbLine
 10
611.256836
 20
324.523743
 30
0.0
 11
606.280762
 21
324.523743
 31
0.0
  0
LINE
  5
292
330
1F
100
AcDbEntity
  8
0
 62
     7
370
    35
100
AcDbLine
 10
605.780762
 20
330.023743
 30
0.0
 11
605.780762
 21
325.023743
 31
0.0
  0
ARC
  5
293
330
1F
100
AcDbEntity
  8
0
 62
     7
370
    35
100
AcDbCircle
 10
606.280762
 20
330.023743
 30
0.0
 40
0.5
100
AcDbArc
 50
90.000003
 51
179.999995
  0
ARC
  5
294
330
1F
100
AcDbEntity
  8
0
 62
     7
370
    35
100
AcDbCircle
 10
606.280762
 20
325.023743
 30
0.0
 40
0.5
100
AcDbArc
 50
180.000005
 51
269.999997
  0
LINE
  5
295
330
1F
100
AcDbEntity
  8
0
 62
     7
370
    35
100
AcDbLine
 10
708.380798
 20
276.043762
 30
0.0
 11
709.180786
 21
276.043762
 31
0.0
  0
LINE
  5
296
330
1F
100
AcDbEntity
  8
0
 62
     7
370
    35
100
AcDbLine
 10
715.180786
 20
276.043762
 30
0.0
 11
709.180786
 21
276.043762
 31
0.0
  0
LINE
  5
297
330
1F
100
AcDbEntity
  8
0
 62
     7
370
    35
100
AcDbLine
 10
709.180786
 20
319.11377
 30
0.0
 11
715.180786
 21
319.11377
 31
0.0
  0
LINE
  5
298
330
1F
100
AcDbEntity
  8
0
 62
     7
370
    35
100
AcDbLine
 10
709.180786
 20
276.043762
 30
0.0
 11
709.180786
 21
319.11377
 31
0.0
  0
LINE
  5
299
330
1F
100
AcDbEntity
  8
0
 62
     7
370
    35
100
AcDbLine
 10
708.380798
 20
319.11377
 30
0.0
 11
709.180786
 21
319.11377
 31
0.0
  0
LINE
  5
29A
330
1F
100
AcDbEntity
  8
0
 62
     7
370
    35
100
AcDbLine
 10
722.680786
 20
275.543762
 30
0.0
 11
722.680786
 21
319.043762
 31
0.0
  0
LINE
  5
29B
330
1F
100
AcDbEntity
  8
0
 62
     7
370
    35
100
AcDbLine
 10
722.680786
 20
319.043762
 30
0.0
 11
722.680786
 21
325.543762
 31
0.0
  0
LINE
  5
29C
330
1F
100
AcDbEntity
  8
0
 62
     7
370
    35
100
AcDbLine
 10
724.280762
 20
275.543762
 30
0.0
 11
724.280762
 21
319.043762
 31
0.0
  0
LINE
  5
29D
330
1F
100
AcDbEntity
  8
0
 62
     7
370
    35
100
AcDbLine
 10
724.280762
 20
319.043762
 30
0.0
 11
724.280762
 21
325.543762
 31
0.0
  0
LINE
  5
29E
330
1F
100
AcDbEntity
  8
0
 62
     7
370
    35
100
AcDbLine
 10
724.280762
 20
275.543762
 30
0.0
 11
722.680786
 21
275.543762
 31
0.0
  0
LINE
  5
29F
330
1F
100
AcDbEntity
  8
0
 62
     7
370
    35
100
AcDbLine
 10
724.280762
 20
319.043762
 30
0.0
 11
722.680786
 21
319.043762
 31
0.0
  0
LINE
  5
2A0
330
1F
100
AcDbEntity
  8
0
 62
     7
370
    35
100
AcDbLine
 10
724.280762
 20
325.543762
 30
0.0
 11
722.680786
 21
325.543762
 31
0.0
  0
LINE
  5
2A1
330
1F
100
AcDbEntity
  8
0
 62
     7
370
    35
100
AcDbLine
 10
722.680786
 20
276.043762
 30
0.0
 11
715.180786
 21
276.043762
 31
0.0
  0
LINE
  5
2A2
330
1F
100
AcDbEntity
  8
0
 62
     7
370
    35
100
AcDbLine
 10
722.680786
 20
319.11377
 30
0.0
 11
715.180786
 21
319.11377
 31
0.0
  0
LINE
  5
2A3
330
1F
100
AcDbEntity
  8
0
 62
     7
370
    35
100
AcDbLine
 10
722.680786
 20
276.043762
 30
0.0
 11
722.680786
 21
319.11377
 31
0.0
  0
LINE
  5
2A4
330
1F
100
AcDbEntity
  8
0
 62
     7
370
    35
100
AcDbLine
 10
715.180786
 20
276.043762
 30
0.0
 11
715.180786
 21
319.11377
 31
0.0
  0
LINE
  5
2A5
330
1F
100
AcDbEntity
  8
0
 62
     7
370
    35
100
AcDbLine
 10
717.680786
 20
314.86377
 30
0.0
 11
719.880798
 21
314.86377
 31
0.0
  0
LINE
  5
2A6
330
1F
100
AcDbEntity
  8
0
 62
     7
370
    35
100
AcDbLine
 10
717.680786
 20
314.86377
 30
0.0
 11
717.680786
 21
280.293762
 31
0.0
  0
LINE
  5
2A7
330
1F
100
AcDbEntity
  8
0
 62
     7
370
    35
100
AcDbLine
 10
719.880798
 20
280.293762
 30
0.0
 11
717.680786
 21
280.293762
 31
0.0
  0
LINE
  5
2A8
330
1F
100
AcDbEntity
  8
0
 62
     7
370
    35
100
AcDbLine
 10
719.880798
 20
280.293762
 30
0.0
 11
719.880798
 21
314.86377
 31
0.0
  0
LINE
  5
2A9
330
1F
100
AcDbEntity
  8
0
 62
     7
370
    35
100
AcDbLine
 10
716.180786
 20
316.403137
 30
0.0
 11
716.180786
 21
278.754395
 31
0.0
  0
ARC
  5
2AA
330
1F
100
AcDbEntity
  8
0
 62
     7
370
    35
100
AcDbCircle
 10
717.180786
 20
278.754395
 30
0.0
 40
1.0
100
AcDbArc
 50
179.999995
 51
280.88553
  0
LINE
  5
2AB
330
1F
100
AcDbEntity
  8
0
 62
     7
370
    35
100
AcDbLine
 10
717.369629
 20
277.772369
 30
0.0
 11
720.164062
 21
278.309784
 31
0.0
  0
ARC
  5
2AC
330
1F
100
AcDbEntity
  8
0
 62
     7
370
    35
100
AcDbCircle
 10
719.880798
 20
279.782776
 30
0.0
 40
1.5
100
AcDbArc
 50
280.88553
 51
0.0
  0
LINE
  5
2AD
330
1F
100
AcDbEntity
  8
0
 62
     7
370
    35
100
AcDbLine
 10
721.380798
 20
279.782776
 30
0.0
 11
721.380798
 21
315.374725
 31
0.0
  0
ARC
  5
2AE
330
1F
100
AcDbEntity
  8
0
 62
     7
370
    35
100
AcDbCircle
 10
719.880798
 20
315.374725
 30
0.0
 40
1.5
100
AcDbArc
 50
360.0
 51
79.11447
  0
LINE
  5
2AF
330
1F
100
AcDbEntity
  8
0
 62
     7
370
    35
100
AcDbLine
 10
720.164062
 20
316.847748
 30
0.0
 11
717.369629
 21
317.385132
 31
0.0
  0
ARC
  5
2B0
330
1F
100
AcDbEntity
  8
0
 62
     7
370
    35
100
AcDbCircle
 10
717.180786
 20
316.403137
 30
0.0
 40
1.0
100
AcDbArc
 50
79.11447
 51
180.000005
  0
ARC
  5
2B1
330
1F
100
AcDbEntity
  8
0
 62
     7
370
    35
100
AcDbCircle
 10
617.880798
 20
273.128601
 30
0.0
 40
0.4999999999999969
100
AcDbArc
 50
180.000005
 51
268.237611
  0
LINE
  5
2B2
330
1F
100
AcDbEntity
  8
0
 62
     7
370
    35
100
AcDbLine
 10
617.380798
 20
280.543762
 30
0.0
 11
617.380798
 21
273.128601
 31
0.0
  0
LINE
  5
2B3
330
1F
100
AcDbEntity
  8
0
 62
     7
370
    35
100
AcDbLine
 10
617.380798
 20
284.041992
 30
0.0
 11
617.380798
 21
280.543762
 31
0.0
  0
ARC
  5
2B4
330
1F
100
AcDbEntity
  8
0
 62
     7
370
    35
100
AcDbCircle
 10
617.880798
 20
284.043762
 30
0.0
 40
0.5
100
AcDbArc
 50
179.999995
 51
269.999997
  0
LINE
  5
2B5
330
1F
100
AcDbEntity
  8
0
 62
     7
370
    35
100
AcDbLine
 10
617.380798
 20
284.043762
 30
0.0
 11
617.380798
 21
398.043762
 31
0.0
  0
ARC
  5
2B6
330
1F
100
AcDbEntity
  8
0
 62
     7
370
    35
100
AcDbCircle
 10
617.880798
 20
398.043762
 30
0.0
 40
0.5
100
AcDbArc
 50
90.000003
 51
180.000005
  0
LINE
  5
2B7
330
1F
100
AcDbEntity
  8
0
 62
     7
370
    35
100
AcDbLine
 10
617.380798
 20
401.543762
 30
0.0
 11
617.380798
 21
398.045532
 31
0.0
  0
LINE
  5
2B8
330
1F
100
AcDbEntity
  8
0
 62
     7
370
    35
100
AcDbLine
 10
617.380798
 20
401.543762
 30
0.0
 11
617.380798
 21
415.958923
 31
0.0
  0
ARC
  5
2B9
330
1F
100
AcDbEntity
  8
0
 62
     7
370
    35
100
AcDbCircle
 10
617.880798
 20
415.958923
 30
0.0
 40
0.4999999999999969
100
AcDbArc
 50
91.762389
 51
180.000005
  0
LINE
  5
2BA
330
1F
100
AcDbEntity
  8
0
 62
     7
370
    35
100
AcDbLine
 10
649.880798
 20
271.643768
 30
0.0
 11
617.865417
 21
272.628845
 31
0.0
  0
LINE
  5
2BB
330
1F
100
AcDbEntity
  8
0
 62
     7
370
    35
100
AcDbLine
 10
649.880798
 20
283.543762
 30
0.0
 11
617.880798
 21
283.543762
 31
0.0
  0
LINE
  5
2BC
330
1F
100
AcDbEntity
  8
0
 62
     7
370
    35
100
AcDbLine
 10
649.880798
 20
398.543762
 30
0.0
 11
617.880798
 21
398.543762
 31
0.0
  0
LINE
  5
2BD
330
1F
100
AcDbEntity
  8
0
 62
     7
370
    35
100
AcDbLine
 10
649.880798
 20
417.443756
 30
0.0
 11
617.865417
 21
416.458679
 31
0.0
  0
LINE
  5
2BE
330
1F
100
AcDbEntity
  8
0
 62
     7
370
    35
100
AcDbLine
 10
725.880798
 20
320.543762
 30
0.0
 11
724.280762
 21
320.543762
 31
0.0
  0
LINE
  5
2BF
330
1F
100
AcDbEntity
  8
0
 62
     7
370
    35
100
AcDbLine
 10
722.680786
 20
320.543762
 30
0.0
 11
716.160767
 21
320.543762
 31
0.0
  0
LINE
  5
2C0
330
1F
100
AcDbEntity
  8
0
 62
     7
370
    35
100
AcDbLine
 10
728.380798
 20
417.249481
 30
0.0
 11
728.380798
 21
271.838043
 31
0.0
  0
LINE
  5
2C1
330
1F
100
AcDbEntity
  8
0
 62
     7
370
    35
100
AcDbLine
 10
726.886536
 20
418.749451
 30
0.0
 11
650.880798
 21
419.039917
 31
0.0
  0
LINE
  5
2C2
330
1F
100
AcDbEntity
  8
0
 62
     7
370
    35
100
AcDbLine
 10
649.880798
 20
271.547577
 30
0.0
 11
649.880798
 21
271.043762
 31
0.0
  0
LINE
  5
2C3
330
1F
100
AcDbEntity
  8
0
 62
     7
370
    35
100
AcDbLine
 10
649.880798
 20
271.547607
 30
0.0
 11
649.880798
 21
417.539917
 31
0.0
  0
LINE
  5
2C4
330
1F
100
AcDbEntity
  8
0
 62
     7
370
    35
100
AcDbLine
 10
649.880798
 20
418.043762
 30
0.0
 11
649.880798
 21
417.539917
 31
0.0
  0
LINE
  5
2C5
330
1F
100
AcDbEntity
  8
0
 62
     7
370
    35
100
AcDbLine
 10
726.886536
 20
270.338043
 30
0.0
 11
650.880798
 21
270.047577
 31
0.0
  0
LINE
  5
2C6
330
1F
100
AcDbEntity
  8
0
 62
     7
370
    35
100
AcDbLine
 10
650.880798
 20
271.547607
 30
0.0
 11
650.880798
 21
417.539917
 31
0.0
  0
LINE
  5
2C7
330
1F
100
AcDbEntity
  8
0
 62
     7
370
    35
100
AcDbLine
 10
654.880798
 20
399.043762
 30
0.0
 11
654.880798
 21
279.543762
 31
0.0
  0
LINE
  5
2C8
330
1F
100
AcDbEntity
  8
0
 62
     7
370
    35
100
AcDbLine
 10
656.880798
 20
279.543762
 30
0.0
 11
656.880798
 21
399.043762
 31
0.0
  0
LINE
  5
2C9
330
1F
100
AcDbEntity
  8
0
 62
     7
370
    35
100
AcDbLine
 10
654.880798
 20
409.543762
 30
0.0
 11
654.880798
 21
406.043762
 31
0.0
  0
LINE
  5
2CA
330
1F
100
AcDbEntity
  8
0
 62
     7
370
    35
100
AcDbLine
 10
656.880798
 20
406.043762
 30
0.0
 11
656.880798
 21
409.543762
 31
0.0
  0
LINE
  5
2CB
330
1F
100
AcDbEntity
  8
0
 62
     7
370
    35
100
AcDbLine
 10
660.880798
 20
399.043762
 30
0.0
 11
660.880798
 21
272.543762
 31
0.0
  0
LINE
  5
2CC
330
1F
100
AcDbEntity
  8
0
 62
     7
370
    35
100
AcDbLine
 10
658.880798
 20
272.543762
 30
0.0
 11
658.880798
 21
399.043762
 31
0.0
  0
LINE
  5
2CD
330
1F
100
AcDbEntity
  8
0
 62
     7
370
    35
100
AcDbLine
 10
658.380798
 20
400.519257
 30
0.0
 11
725.880798
 21
400.243744
 31
0.0
  0
LINE
  5
2CE
330
1F
100
AcDbEntity
  8
0
 62
     7
370
    35
100
AcDbLine
 10
725.880798
 20
400.243744
 30
0.0
 11
725.880798
 21
404.84375
 31
0.0
  0
LINE
  5
2CF
330
1F
100
AcDbEntity
  8
0
 62
     7
370
    35
100
AcDbLine
 10
725.880798
 20
404.84375
 30
0.0
 11
658.380798
 21
404.568237
 31
0.0
  0
LINE
  5
2D0
330
1F
100
AcDbEntity
  8
0
 62
     7
370
    35
100
AcDbLine
 10
658.380798
 20
404.568237
 30
0.0
 11
658.380798
 21
400.519257
 31
0.0
  0
LINE
  5
2D1
330
1F
100
AcDbEntity
  8
0
 62
     7
370
    35
100
AcDbLine
 10
653.880798
 20
405.293762
 30
0.0
 11
653.880798
 21
399.793762
 31
0.0
  0
LINE
  5
2D2
330
1F
100
AcDbEntity
  8
0
 62
     7
370
    35
100
AcDbLine
 10
656.380798
 20
399.793762
 30
0.0
 11
653.880798
 21
399.793762
 31
0.0
  0
LINE
  5
2D3
330
1F
100
AcDbEntity
  8
0
 62
     7
370
    35
100
AcDbLine
 10
656.380798
 20
405.293762
 30
0.0
 11
656.380798
 21
399.793762
 31
0.0
  0
LINE
  5
2D4
330
1F
100
AcDbEntity
  8
0
 62
     7
370
    35
100
AcDbLine
 10
656.380798
 20
405.293762
 30
0.0
 11
653.880798
 21
405.293762
 31
0.0
  0
LINE
  5
2D5
330
1F
100
AcDbEntity
  8
0
 62
     7
370
    35
100
AcDbLine
 10
725.880798
 20
275.543762
 30
0.0
 11
725.880798
 21
333.543762
 31
0.0
  0
LINE
  5
2D6
330
1F
100
AcDbEntity
  8
0
 62
     7
370
    35
100
AcDbLine
 10
708.380798
 20
333.543762
 30
0.0
 11
725.880798
 21
333.543762
 31
0.0
  0
LINE
  5
2D7
330
1F
100
AcDbEntity
  8
0
 62
     7
370
    35
100
AcDbLine
 10
708.380798
 20
333.543762
 30
0.0
 11
708.380798
 21
275.543762
 31
0.0
  0
LINE
  5
2D8
330
1F
100
AcDbEntity
  8
0
 62
     7
370
    35
100
AcDbLine
 10
722.680786
 20
275.543762
 30
0.0
 11
708.380798
 21
275.543762
 31
0.0
  0
LINE
  5
2D9
330
1F
100
AcDbEntity
  8
0
 62
     7
370
    35
100
AcDbLine
 10
725.880798
 20
275.543762
 30
0.0
 11
724.280762
 21
275.543762
 31
0.0
  0
LINE
  5
2DA
330
1F
100
AcDbEntity
  8
0
 62
     7
370
    35
100
AcDbLine
 10
658.880798
 20
416.543762
 30
0.0
 11
658.880798
 21
406.043762
 31
0.0
  0
LINE
  5
2DB
330
1F
100
AcDbEntity
  8
0
 62
     7
370
    35
100
AcDbLine
 10
660.880798
 20
406.043762
 30
0.0
 11
660.880798
 21
416.543762
 31
0.0
  0
LINE
  5
2DC
330
1F
100
AcDbEntity
  8
0
 62
     7
370
    35
100
AcDbLine
 10
664.880798
 20
399.043762
 30
0.0
 11
664.880798
 21
272.543762
 31
0.0
  0
LINE
  5
2DD
330
1F
100
AcDbEntity
  8
0
 62
     7
370
    35
100
AcDbLine
 10
662.880798
 20
272.543762
 30
0.0
 11
662.880798
 21
399.043762
 31
0.0
  0
LINE
  5
2DE
330
1F
100
AcDbEntity
  8
0
 62
     7
370
    35
100
AcDbLine
 10
662.880798
 20
416.543762
 30
0.0
 11
662.880798
 21
406.043762
 31
0.0
  0
LINE
  5
2DF
330
1F
100
AcDbEntity
  8
0
 62
     7
370
    35
100
AcDbLine
 10
664.880798
 20
406.043762
 30
0.0
 11
664.880798
 21
416.543762
 31
0.0
  0
LINE
  5
2E0
330
1F
100
AcDbEntity
  8
0
 62
     7
370
    35
100
AcDbLine
 10
668.880798
 20
399.043762
 30
0.0
 11
668.880798
 21
272.543762
 31
0.0
  0
LINE
  5
2E1
330
1F
100
AcDbEntity
  8
0
 62
     7
370
    35
100
AcDbLine
 10
666.880798
 20
272.543762
 30
0.0
 11
666.880798
 21
399.043762
 31
0.0
  0
LINE
  5
2E2
330
1F
100
AcDbEntity
  8
0
 62
     7
370
    35
100
AcDbLine
 10
666.880798
 20
416.543762
 30
0.0
 11
666.880798
 21
406.043762
 31
0.0
  0
LINE
  5
2E3
330
1F
100
AcDbEntity
  8
0
 62
     7
370
    35
100
AcDbLine
 10
668.880798
 20
406.043762
 30
0.0
 11
668.880798
 21
416.543762
 31
0.0
  0
LINE
  5
2E4
330
1F
100
AcDbEntity
  8
0
 62
     7
370
    35
100
AcDbLine
 10
672.880798
 20
399.043762
 30
0.0
 11
672.880798
 21
272.543762
 31
0.0
  0
LINE
  5
2E5
330
1F
100
AcDbEntity
  8
0
 62
     7
370
    35
100
AcDbLine
 10
670.880798
 20
272.543762
 30
0.0
 11
670.880798
 21
399.043762
 31
0.0
  0
LINE
  5
2E6
330
1F
100
AcDbEntity
  8
0
 62
     7
370
    35
100
AcDbLine
 10
670.880798
 20
416.543762
 30
0.0
 11
670.880798
 21
406.043762
 31
0.0
  0
LINE
  5
2E7
330
1F
100
AcDbEntity
  8
0
 62
     7
370
    35
100
AcDbLine
 10
672.880798
 20
406.043762
 30
0.0
 11
672.880798
 21
416.543762
 31
0.0
  0
LINE
  5
2E8
330
1F
100
AcDbEntity
  8
0
 62
     7
370
    35
100
AcDbLine
 10
676.880798
 20
399.043762
 30
0.0
 11
676.880798
 21
272.543762
 31
0.0
  0
LINE
  5
2E9
330
1F
100
AcDbEntity
  8
0
 62
     7
370
    35
100
AcDbLine
 10
674.880798
 20
272.543762
 30
0.0
 11
674.880798
 21
399.043762
 31
0.0
  0
LINE
  5
2EA
330
1F
100
AcDbEntity
  8
0
 62
     7
370
    35
100
AcDbLine
 10
674.880798
 20
416.543762
 30
0.0
 11
674.880798
 21
406.043762
 31
0.0
  0
LINE
  5
2EB
330
1F
100
AcDbEntity
  8
0
 62
     7
370
    35
100
AcDbLine
 10
676.880798
 20
406.043762
 30
0.0
 11
676.880798
 21
416.543762
 31
0.0
  0
LINE
  5
2EC
330
1F
100
AcDbEntity
  8
0
 62
     7
370
    35
100
AcDbLine
 10
680.880798
 20
399.043762
 30
0.0
 11
680.880798
 21
272.543762
 31
0.0
  0
LINE
  5
2ED
330
1F
100
AcDbEntity
  8
0
 62
     7
370
    35
100
AcDbLine
 10
678.880798
 20
272.543762
 30
0.0
 11
678.880798
 21
399.043762
 31
0.0
  0
LINE
  5
2EE
330
1F
100
AcDbEntity
  8
0
 62
     7
370
    35
100
AcDbLine
 10
678.880798
 20
416.543762
 30
0.0
 11
678.880798
 21
406.043762
 31
0.0
  0
LINE
  5
2EF
330
1F
100
AcDbEntity
  8
0
 62
     7
370
    35
100
AcDbLine
 10
680.880798
 20
406.043762
 30
0.0
 11
680.880798
 21
416.543762
 31
0.0
  0
LINE
  5
2F0
330
1F
100
AcDbEntity
  8
0
 62
     7
370
    35
100
AcDbLine
 10
684.880798
 20
399.043762
 30
0.0
 11
684.880798
 21
272.543762
 31
0.0
  0
LINE
  5
2F1
330
1F
100
AcDbEntity
  8
0
 62
     7
370
    35
100
AcDbLine
 10
682.880798
 20
272.543762
 30
0.0
 11
682.880798
 21
399.043762
 31
0.0
  0
LINE
  5
2F2
330
1F
100
AcDbEntity
  8
0
 62
     7
370
    35
100
AcDbLine
 10
682.880798
 20
416.543762
 30
0.0
 11
682.880798
 21
406.043762
 31
0.0
  0
LINE
  5
2F3
330
1F
100
AcDbEntity
  8
0
 62
     7
370
    35
100
AcDbLine
 10
684.880798
 20
406.043762
 30
0.0
 11
684.880798
 21
416.543762
 31
0.0
  0
LINE
  5
2F4
330
1F
100
AcDbEntity
  8
0
 62
     7
370
    35
100
AcDbLine
 10
688.880798
 20
399.043762
 30
0.0
 11
688.880798
 21
272.543762
 31
0.0
  0
LINE
  5
2F5
330
1F
100
AcDbEntity
  8
0
 62
     7
370
    35
100
AcDbLine
 10
686.880798
 20
272.543762
 30
0.0
 11
686.880798
 21
399.043762
 31
0.0
  0
LINE
  5
2F6
330
1F
100
AcDbEntity
  8
0
 62
     7
370
    35
100
AcDbLine
 10
686.880798
 20
416.543762
 30
0.0
 11
686.880798
 21
406.043762
 31
0.0
  0
LINE
  5
2F7
330
1F
100
AcDbEntity
  8
0
 62
     7
370
    35
100
AcDbLine
 10
688.880798
 20
406.043762
 30
0.0
 11
688.880798
 21
416.543762
 31
0.0
  0
LINE
  5
2F8
330
1F
100
AcDbEntity
  8
0
 62
     7
370
    35
100
AcDbLine
 10
692.880798
 20
399.043762
 30
0.0
 11
692.880798
 21
272.543762
 31
0.0
  0
LINE
  5
2F9
330
1F
100
AcDbEntity
  8
0
 62
     7
370
    35
100
AcDbLine
 10
690.880798
 20
272.543762
 30
0.0
 11
690.880798
 21
399.043762
 31
0.0
  0
LINE
  5
2FA
330
1F
100
AcDbEntity
  8
0
 62
     7
370
    35
100
AcDbLine
 10
690.880798
 20
416.543762
 30
0.0
 11
690.880798
 21
406.043762
 31
0.0
  0
LINE
  5
2FB
330
1F
100
AcDbEntity
  8
0
 62
     7
370
    35
100
AcDbLine
 10
692.880798
 20
406.043762
 30
0.0
 11
692.880798
 21
416.543762
 31
0.0
  0
LINE
  5
2FC
330
1F
100
AcDbEntity
  8
0
 62
     7
370
    35
100
AcDbLine
 10
696.880798
 20
399.043762
 30
0.0
 11
696.880798
 21
272.543762
 31
0.0
  0
LINE
  5
2FD
330
1F
100
AcDbEntity
  8
0
 62
     7
370
    35
100
AcDbLine
 10
694.880798
 20
272.543762
 30
0.0
 11
694.880798
 21
399.043762
 31
0.0
  0
LINE
  5
2FE
330
1F
100
AcDbEntity
  8
0
 62
     7
370
    35
100
AcDbLine
 10
694.880798
 20
416.543762
 30
0.0
 11
694.880798
 21
406.043762
 31
0.0
  0
LINE
  5
2FF
330
1F
100
AcDbEntity
  8
0
 62
     7
370
    35
100
AcDbLine
 10
696.880798
 20
406.043762
 30
0.0
 11
696.880798
 21
416.543762
 31
0.0
  0
LINE
  5
300
330
1F
100
AcDbEntity
  8
0
 62
     7
370
    35
100
AcDbLine
 10
700.880798
 20
399.043762
 30
0.0
 11
700.880798
 21
272.543762
 31
0.0
  0
LINE
  5
301
330
1F
100
AcDbEntity
  8
0
 62
     7
370
    35
100
AcDbLine
 10
698.880798
 20
272.543762
 30
0.0
 11
698.880798
 21
399.043762
 31
0.0
  0
LINE
  5
302
330
1F
100
AcDbEntity
  8
0
 62
     7
370
    35
100
AcDbLine
 10
698.880798
 20
416.543762
 30
0.0
 11
698.880798
 21
406.043762
 31
0.0
  0
LINE
  5
303
330
1F
100
AcDbEntity
  8
0
 62
     7
370
    35
100
AcDbLine
 10
700.880798
 20
406.043762
 30
0.0
 11
700.880798
 21
416.543762
 31
0.0
  0
LINE
  5
304
330
1F
100
AcDbEntity
  8
0
 62
     7
370
    35
100
AcDbLine
 10
704.880798
 20
399.043762
 30
0.0
 11
704.880798
 21
272.543762
 31
0.0
  0
LINE
  5
305
330
1F
100
AcDbEntity
  8
0
 62
     7
370
    35
100
AcDbLine
 10
702.880798
 20
272.543762
 30
0.0
 11
702.880798
 21
399.043762
 31
0.0
  0
LINE
  5
306
330
1F
100
AcDbEntity
  8
0
 62
     7
370
    35
100
AcDbLine
 10
702.880798
 20
416.543762
 30
0.0
 11
702.880798
 21
406.043762
 31
0.0
  0
LINE
  5
307
330
1F
100
AcDbEntity
  8
0
 62
     7
370
    35
100
AcDbLine
 10
704.880798
 20
406.043762
 30
0.0
 11
704.880798
 21
416.543762
 31
0.0
  0
LINE
  5
308
330
1F
100
AcDbEntity
  8
0
 62
     7
370
    35
100
AcDbLine
 10
706.880798
 20
416.543762
 30
0.0
 11
706.880798
 21
406.043762
 31
0.0
  0
LINE
  5
309
330
1F
100
AcDbEntity
  8
0
 62
     7
370
    35
100
AcDbLine
 10
708.880798
 20
406.043762
 30
0.0
 11
708.880798
 21
416.543762
 31
0.0
  0
LINE
  5
30A
330
1F
100
AcDbEntity
  8
0
 62
     7
370
    35
100
AcDbLine
 10
706.880798
 20
399.043762
 30
0.0
 11
706.880798
 21
337.043762
 31
0.0
  0
LINE
  5
30B
330
1F
100
AcDbEntity
  8
0
 62
     7
370
    35
100
AcDbLine
 10
708.880798
 20
337.043762
 30
0.0
 11
708.880798
 21
399.043762
 31
0.0
  0
LINE
  5
30C
330
1F
100
AcDbEntity
  8
0
 62
     7
370
    35
100
AcDbLine
 10
710.880798
 20
416.543762
 30
0.0
 11
710.880798
 21
406.043762
 31
0.0
  0
LINE
  5
30D
330
1F
100
AcDbEntity
  8
0
 62
     7
370
    35
100
AcDbLine
 10
712.880798
 20
406.043762
 30
0.0
 11
712.880798
 21
416.543762
 31
0.0
  0
LINE
  5
30E
330
1F
100
AcDbEntity
  8
0
 62
     7
370
    35
100
AcDbLine
 10
710.880798
 20
399.043762
 30
0.0
 11
710.880798
 21
337.043762
 31
0.0
  0
LINE
  5
30F
330
1F
100
AcDbEntity
  8
0
 62
     7
370
    35
100
AcDbLine
 10
712.880798
 20
337.043762
 30
0.0
 11
712.880798
 21
399.043762
 31
0.0
  0
LINE
  5
310
330
1F
100
AcDbEntity
  8
0
 62
     7
370
    35
100
AcDbLine
 10
714.880798
 20
416.543762
 30
0.0
 11
714.880798
 21
406.043762
 31
0.0
  0
LINE
  5
311
330
1F
100
AcDbEntity
  8
0
 62
     7
370
    35
100
AcDbLine
 10
716.880798
 20
406.043762
 30
0.0
 11
716.880798
 21
416.543762
 31
0.0
  0
LINE
  5
312
330
1F
100
AcDbEntity
  8
0
 62
     7
370
    35
100
AcDbLine
 10
714.880798
 20
399.043762
 30
0.0
 11
714.880798
 21
337.043762
 31
0.0
  0
LINE
  5
313
330
1F
100
AcDbEntity
  8
0
 62
     7
370
    35
100
AcDbLine
 10
716.880798
 20
337.043762
 30
0.0
 11
716.880798
 21
399.043762
 31
0.0
  0
LINE
  5
314
330
1F
100
AcDbEntity
  8
0
 62
     7
370
    35
100
AcDbLine
 10
718.880798
 20
416.543762
 30
0.0
 11
718.880798
 21
406.043762
 31
0.0
  0
LINE
  5
315
330
1F
100
AcDbEntity
  8
0
 62
     7
370
    35
100
AcDbLine
 10
720.880798
 20
406.043762
 30
0.0
 11
720.880798
 21
416.543762
 31
0.0
  0
LINE
  5
316
330
1F
100
AcDbEntity
  8
0
 62
     7
370
    35
100
AcDbLine
 10
720.880798
 20
381.835052
 30
0.0
 11
720.880798
 21
399.043762
 31
0.0
  0
LINE
  5
317
330
1F
100
AcDbEntity
  8
0
 62
     7
370
    35
100
AcDbLine
 10
718.880798
 20
399.043762
 30
0.0
 11
718.880798
 21
337.043762
 31
0.0
  0
LINE
  5
318
330
1F
100
AcDbEntity
  8
0
 62
     7
370
    35
100
AcDbLine
 10
720.880798
 20
337.043762
 30
0.0
 11
720.880798
 21
377.252472
 31
0.0
  0
LINE
  5
319
330
1F
100
AcDbEntity
  8
0
 62
     7
370
    35
100
AcDbLine
 10
722.880798
 20
377.252472
 30
0.0
 11
722.880798
 21
337.043762
 31
0.0
  0
LINE
  5
31A
330
1F
100
AcDbEntity
  8
0
 62
     7
370
    35
100
AcDbLine
 10
724.880798
 20
337.043762
 30
0.0
 11
724.880798
 21
399.043762
 31
0.0
  0
LINE
  5
31B
330
1F
100
AcDbEntity
  8
0
 62
     7
370
    35
100
AcDbLine
 10
722.880798
 20
399.043762
 30
0.0
 11
722.880798
 21
381.835052
 31
0.0
  0
LINE
  5
31C
330
1F
100
AcDbEntity
  8
0
 62
     7
370
    35
100
AcDbLine
 10
722.880798
 20
416.543762
 30
0.0
 11
722.880798
 21
406.043762
 31
0.0
  0
LINE
  5
31D
330
1F
100
AcDbEntity
  8
0
 62
     7
370
    35
100
AcDbLine
 10
724.880798
 20
406.043762
 30
0.0
 11
724.880798
 21
416.543762
 31
0.0
  0
LINE
  5
31E
330
1F
100
AcDbEntity
  8
0
 62
     7
370
    35
100
AcDbLine
 10
724.780762
 20
332.543762
 30
0.0
 11
725.880798
 21
332.543762
 31
0.0
  0
ARC
  5
31F
330
1F
100
AcDbEntity
  8
0
 62
     7
370
    35
100
AcDbCircle
 10
724.280762
 20
332.543762
 30
0.0
 40
1.5
100
AcDbArc
 50
138.190477
 51
180.000005
  0
LINE
  5
320
330
1F
100
AcDbEntity
  8
0
 62
     7
370
    35
100
AcDbLine
 10
722.780762
 20
332.543762
 30
0.0
 11
722.780762
 21
330.543762
 31
0.0
  0
ARC
  5
321
330
1F
100
AcDbEntity
  8
0
 62
     7
370
    35
100
AcDbCircle
 10
724.280762
 20
330.543762
 30
0.0
 40
1.5
100
AcDbArc
 50
180.000005
 51
269.999997
  0
LINE
  5
322
330
1F
100
AcDbEntity
  8
0
 62
     7
370
    35
100
AcDbLine
 10
725.880798
 20
329.043762
 30
0.0
 11
724.280762
 21
329.043762
 31
0.0
  0
LINE
  5
323
330
1F
100
AcDbEntity
  8
0
 62
     7
370
    35
100
AcDbLine
 10
725.880798
 20
327.043762
 30
0.0
 11
720.680786
 21
327.043762
 31
0.0
  0
LINE
  5
324
330
1F
100
AcDbEntity
  8
0
 62
     7
370
    35
100
AcDbLine
 10
720.680786
 20
327.043762
 30
0.0
 11
720.680786
 21
326.043762
 31
0.0
  0
LINE
  5
325
330
1F
100
AcDbEntity
  8
0
 62
     7
370
    35
100
AcDbLine
 10
720.680786
 20
326.043762
 30
0.0
 11
722.680786
 21
324.743744
 31
0.0
  0
LINE
  5
326
330
1F
100
AcDbEntity
  8
0
 62
     7
370
    35
100
AcDbLine
 10
724.280762
 20
325.543762
 30
0.0
 11
722.680786
 21
325.543762
 31
0.0
  0
ARC
  5
327
330
1F
100
AcDbEntity
  8
0
 62
     7
370
    35
100
AcDbCircle
 10
725.880798
 20
328.043762
 30
0.0
 40
2.5
100
AcDbArc
 50
359.817627
 51
0.182373
  0
LINE
  5
328
330
1F
100
AcDbEntity
  8
0
 62
     7
370
    35
100
AcDbLine
 10
725.880798
 20
330.543762
 30
0.0
 11
724.780762
 21
330.543762
 31
0.0
  0
ARC
  5
329
330
1F
100
AcDbEntity
  8
0
 62
     7
370
    35
100
AcDbCircle
 10
724.780762
 20
331.043762
 30
0.0
 40
0.5
100
AcDbArc
 50
180.000005
 51
269.999997
  0
LINE
  5
32A
330
1F
100
AcDbEntity
  8
0
 62
     7
370
    35
100
AcDbLine
 10
724.280762
 20
332.043762
 30
0.0
 11
724.280762
 21
331.043762
 31
0.0
  0
ARC
  5
32B
330
1F
100
AcDbEntity
  8
0
 62
     7
370
    35
100
AcDbCircle
 10
724.780762
 20
332.043762
 30
0.0
 40
0.5
100
AcDbArc
 50
90.000003
 51
179.999995
  0
LINE
  5
32C
330
1F
100
AcDbEntity
  8
0
 62
     7
370
    35
100
AcDbLine
 10
725.880798
 20
325.543762
 30
0.0
 11
724.280762
 21
325.543762
 31
0.0
  0
LINE
  5
32D
330
1F
100
AcDbEntity
  8
0
 62
     7
370
    35
100
AcDbLine
 10
724.280762
 20
325.043762
 30
0.0
 11
724.280762
 21
325.543762
 31
0.0
  0
LINE
  5
32E
330
1F
100
AcDbEntity
  8
0
 62
     7
370
    35
100
AcDbLine
 10
729.380798
 20
362.043762
 30
0.0
 11
728.380798
 21
362.043762
 31
0.0
  0
LINE
  5
32F
330
1F
100
AcDbEntity
  8
0
 62
     7
370
    35
100
AcDbLine
 10
724.280762
 20
323.043762
 30
0.0
 11
724.280762
 21
321.043762
 31
0.0
  0
LINE
  5
330
330
1F
100
AcDbEntity
  8
0
 62
     7
370
    35
100
AcDbLine
 10
724.280762
 20
325.043762
 30
0.0
 11
724.280762
 21
323.043762
 31
0.0
  0
ARC
  5
331
330
1F
100
AcDbEntity
  8
0
 62
     7
370
    35
100
AcDbCircle
 10
726.880798
 20
271.838043
 30
0.0
 40
1.5
100
AcDbArc
 50
270.218967
 51
360.0
  0
ARC
  5
332
330
1F
100
AcDbEntity
  8
0
 62
     7
370
    35
100
AcDbCircle
 10
726.880798
 20
417.249481
 30
0.0
 40
1.5
100
AcDbArc
 50
0.0
 51
89.781033
  0
LINE
  5
333
330
1F
100
AcDbEntity
  8
0
 62
     7
370
    35
100
AcDbLine
 10
728.380798
 20
289.543762
 30
0.0
 11
728.880798
 21
289.543762
 31
0.0
  0
LINE
  5
334
330
1F
100
AcDbEntity
  8
0
 62
     7
370
    35
100
AcDbLine
 10
728.380798
 20
284.543762
 30
0.0
 11
728.880798
 21
284.543762
 31
0.0
  0
LINE
  5
335
330
1F
100
AcDbEntity
  8
0
 62
     7
370
    35
100
AcDbLine
 10
728.880798
 20
289.543762
 30
0.0
 11
728.880798
 21
284.543762
 31
0.0
  0
LINE
  5
336
330
1F
100
AcDbEntity
  8
0
 62
     7
370
    35
100
AcDbLine
 10
728.380798
 20
364.043762
 30
0.0
 11
732.380798
 21
364.043762
 31
0.0
  0
LINE
  5
337
330
1F
100
AcDbEntity
  8
0
 62
     7
370
    35
100
AcDbLine
 10
729.880798
 20
360.043762
 30
0.0
 11
732.380798
 21
360.043762
 31
0.0
  0
LINE
  5
338
330
1F
100
AcDbEntity
  8
0
 62
     7
370
    35
100
AcDbLine
 10
732.380798
 20
364.043762
 30
0.0
 11
732.380798
 21
360.043762
 31
0.0
  0
LINE
  5
339
330
1F
100
AcDbEntity
  8
0
 62
     7
370
    35
100
AcDbLine
 10
729.880798
 20
360.043762
 30
0.0
 11
729.380798
 21
362.043762
 31
0.0
  0
LINE
  5
33A
330
1F
100
AcDbEntity
  8
0
 62
     7
370
    35
100
AcDbLine
 10
728.380798
 20
326.643768
 30
0.0
 11
729.880798
 21
326.643768
 31
0.0
  0
LINE
  5
33B
330
1F
100
AcDbEntity
  8
0
 62
     7
370
    35
100
AcDbLine
 10
729.880798
 20
326.643768
 30
0.0
 11
732.380798
 21
326.643768
 31
0.0
  0
LINE
  5
33C
330
1F
100
AcDbEntity
  8
0
 62
     7
370
    35
100
AcDbLine
 10
728.380798
 20
324.643768
 30
0.0
 11
729.880798
 21
324.643768
 31
0.0
  0
LINE
  5
33D
330
1F
100
AcDbEntity
  8
0
 62
     7
370
    35
100
AcDbLine
 10
729.880798
 20
326.643768
 30
0.0
 11
729.880798
 21
324.643768
 31
0.0
  0
LINE
  5
33E
330
1F
100
AcDbEntity
  8
0
 62
     7
370
    35
100
AcDbLine
 10
728.380798
 20
304.643768
 30
0.0
 11
732.380798
 21
304.643768
 31
0.0
  0
LINE
  5
33F
330
1F
100
AcDbEntity
  8
0
 62
     7
370
    35
100
AcDbLine
 10
732.380798
 20
304.643768
 30
0.0
 11
732.380798
 21
326.643768
 31
0.0
  0
LINE
  5
340
330
1F
100
AcDbEntity
  8
0
 62
     7
370
    35
100
AcDbLine
 10
650.880798
 20
419.039917
 30
0.0
 11
649.880798
 21
418.043762
 31
0.0
  0
LINE
  5
341
330
1F
100
AcDbEntity
  8
0
 62
     7
370
    35
100
AcDbLine
 10
650.880798
 20
419.039917
 30
0.0
 11
650.880798
 21
417.539917
 31
0.0
  0
LINE
  5
342
330
1F
100
AcDbEntity
  8
0
 62
     7
370
    35
100
AcDbLine
 10
650.880798
 20
270.047577
 30
0.0
 11
649.880798
 21
271.043762
 31
0.0
  0
LINE
  5
343
330
1F
100
AcDbEntity
  8
0
 62
     7
370
    35
100
AcDbLine
 10
650.880798
 20
271.547607
 30
0.0
 11
650.880798
 21
270.047577
 31
0.0
  0
CIRCLE
  5
344
330
1F
100
AcDbEntity
  8
0
 62
     7
370
    35
100
AcDbCircle
 10
654.880798
 20
275.543762
 30
0.0
 40
2.499999999999274
  0
CIRCLE
  5
345
330
1F
100
AcDbEntity
  8
0
 62
     7
370
    35
100
AcDbCircle
 10
654.880798
 20
413.543762
 30
0.0
 40
2.499999999999817
  0
LINE
  5
346
330
1F
100
AcDbEntity
  8
0
 62
     7
370
    35
100
AcDbLine
 10
654.880798
 20
399.043762
 30
0.0
 11
655.300781
 21
399.043762
 31
0.0
  0
LINE
  5
347
330
1F
100
AcDbEntity
  8
0
 62
     7
370
    35
100
AcDbLine
 10
655.300781
 20
399.043762
 30
0.0
 11
656.460815
 21
399.043762
 31
0.0
  0
LINE
  5
348
330
1F
100
AcDbEntity
  8
0
 62
     7
370
    35
100
AcDbLine
 10
656.880798
 20
399.043762
 30
0.0
 11
656.460815
 21
399.043762
 31
0.0
  0
LINE
  5
349
330
1F
100
AcDbEntity
  8
0
 62
     7
370
    35
100
AcDbLine
 10
655.300781
 20
399.043762
 30
0.0
 11
655.300781
 21
279.543762
 31
0.0
  0
LINE
  5
34A
330
1F
100
AcDbEntity
  8
0
 62
     7
370
    35
100
AcDbLine
 10
654.880798
 20
279.543762
 30
0.0
 11
655.300781
 21
279.543762
 31
0.0
  0
LINE
  5
34B
330
1F
100
AcDbEntity
  8
0
 62
     7
370
    35
100
AcDbLine
 10
656.880798
 20
279.543762
 30
0.0
 11
656.460815
 21
279.543762
 31
0.0
  0
LINE
  5
34C
330
1F
100
AcDbEntity
  8
0
 62
     7
370
    35
100
AcDbLine
 10
656.460815
 20
279.543762
 30
0.0
 11
655.300781
 21
279.543762
 31
0.0
  0
LINE
  5
34D
330
1F
100
AcDbEntity
  8
0
 62
     7
370
    35
100
AcDbLine
 10
656.460815
 20
399.043762
 30
0.0
 11
656.460815
 21
279.543762
 31
0.0
  0
LINE
  5
34E
330
1F
100
AcDbEntity
  8
0
 62
     7
370
    35
100
AcDbLine
 10
654.880798
 20
409.543762
 30
0.0
 11
655.300781
 21
409.543762
 31
0.0
  0
LINE
  5
34F
330
1F
100
AcDbEntity
  8
0
 62
     7
370
    35
100
AcDbLine
 10
655.300781
 20
409.543762
 30
0.0
 11
655.300781
 21
406.043762
 31
0.0
  0
LINE
  5
350
330
1F
100
AcDbEntity
  8
0
 62
     7
370
    35
100
AcDbLine
 10
654.880798
 20
406.043762
 30
0.0
 11
655.300781
 21
406.043762
 31
0.0
  0
LINE
  5
351
330
1F
100
AcDbEntity
  8
0
 62
     7
370
    35
100
AcDbLine
 10
656.880798
 20
406.043762
 30
0.0
 11
656.460815
 21
406.043762
 31
0.0
  0
LINE
  5
352
330
1F
100
AcDbEntity
  8
0
 62
     7
370
    35
100
AcDbLine
 10
655.300781
 20
406.043762
 30
0.0
 11
656.460815
 21
406.043762
 31
0.0
  0
LINE
  5
353
330
1F
100
AcDbEntity
  8
0
 62
     7
370
    35
100
AcDbLine
 10
656.460815
 20
409.543762
 30
0.0
 11
656.460815
 21
406.043762
 31
0.0
  0
LINE
  5
354
330
1F
100
AcDbEntity
  8
0
 62
     7
370
    35
100
AcDbLine
 10
656.880798
 20
409.543762
 30
0.0
 11
656.460815
 21
409.543762
 31
0.0
  0
LINE
  5
355
330
1F
100
AcDbEntity
  8
0
 62
     7
370
    35
100
AcDbLine
 10
656.460815
 20
409.543762
 30
0.0
 11
655.300781
 21
409.543762
 31
0.0
  0
LINE
  5
356
330
1F
100
AcDbEntity
  8
0
 62
     7
370
    35
100
AcDbLine
 10
660.880798
 20
272.543762
 30
0.0
 11
660.460815
 21
272.543762
 31
0.0
  0
LINE
  5
357
330
1F
100
AcDbEntity
  8
0
 62
     7
370
    35
100
AcDbLine
 10
659.300781
 20
272.543762
 30
0.0
 11
660.460815
 21
272.543762
 31
0.0
  0
LINE
  5
358
330
1F
100
AcDbEntity
  8
0
 62
     7
370
    35
100
AcDbLine
 10
658.880798
 20
272.543762
 30
0.0
 11
659.300781
 21
272.543762
 31
0.0
  0
LINE
  5
359
330
1F
100
AcDbEntity
  8
0
 62
     7
370
    35
100
AcDbLine
 10
660.460815
 20
399.043762
 30
0.0
 11
660.460815
 21
272.543762
 31
0.0
  0
LINE
  5
35A
330
1F
100
AcDbEntity
  8
0
 62
     7
370
    35
100
AcDbLine
 10
660.880798
 20
399.043762
 30
0.0
 11
660.460815
 21
399.043762
 31
0.0
  0
LINE
  5
35B
330
1F
100
AcDbEntity
  8
0
 62
     7
370
    35
100
AcDbLine
 10
658.880798
 20
399.043762
 30
0.0
 11
659.300781
 21
399.043762
 31
0.0
  0
LINE
  5
35C
330
1F
100
AcDbEntity
  8
0
 62
     7
370
    35
100
AcDbLine
 10
660.460815
 20
399.043762
 30
0.0
 11
659.300781
 21
399.043762
 31
0.0
  0
LINE
  5
35D
330
1F
100
AcDbEntity
  8
0
 62
     7
370
    35
100
AcDbLine
 10
659.300781
 20
399.043762
 30
0.0
 11
659.300781
 21
272.543762
 31
0.0
  0
LINE
  5
35E
330
1F
100
AcDbEntity
  8
0
 62
     7
370
    35
100
AcDbLine
 10
658.880798
 20
416.543762
 30
0.0
 11
659.300781
 21
416.543762
 31
0.0
  0
LINE
  5
35F
330
1F
100
AcDbEntity
  8
0
 62
     7
370
    35
100
AcDbLine
 10
659.300781
 20
416.543762
 30
0.0
 11
659.300781
 21
406.043762
 31
0.0
  0
LINE
  5
360
330
1F
100
AcDbEntity
  8
0
 62
     7
370
    35
100
AcDbLine
 10
658.880798
 20
406.043762
 30
0.0
 11
659.300781
 21
406.043762
 31
0.0
  0
LINE
  5
361
330
1F
100
AcDbEntity
  8
0
 62
     7
370
    35
100
AcDbLine
 10
659.300781
 20
406.043762
 30
0.0
 11
660.460815
 21
406.043762
 31
0.0
  0
LINE
  5
362
330
1F
100
AcDbEntity
  8
0
 62
     7
370
    35
100
AcDbLine
 10
660.880798
 20
406.043762
 30
0.0
 11
660.460815
 21
406.043762
 31
0.0
  0
LINE
  5
363
330
1F
100
AcDbEntity
  8
0
 62
     7
370
    35
100
AcDbLine
 10
660.460815
 20
416.543762
 30
0.0
 11
660.460815
 21
406.043762
 31
0.0
  0
LINE
  5
364
330
1F
100
AcDbEntity
  8
0
 62
     7
370
    35
100
AcDbLine
 10
660.880798
 20
416.543762
 30
0.0
 11
660.460815
 21
416.543762
 31
0.0
  0
LINE
  5
365
330
1F
100
AcDbEntity
  8
0
 62
     7
370
    35
100
AcDbLine
 10
660.460815
 20
416.543762
 30
0.0
 11
659.300781
 21
416.543762
 31
0.0
  0
LINE
  5
366
330
1F
100
AcDbEntity
  8
0
 62
     7
370
    35
100
AcDbLine
 10
664.880798
 20
272.543762
 30
0.0
 11
664.460815
 21
272.543762
 31
0.0
  0
LINE
  5
367
330
1F
100
AcDbEntity
  8
0
 62
     7
370
    35
100
AcDbLine
 10
663.300781
 20
272.543762
 30
0.0
 11
664.460815
 21
272.543762
 31
0.0
  0
LINE
  5
368
330
1F
100
AcDbEntity
  8
0
 62
     7
370
    35
100
AcDbLine
 10
662.880798
 20
272.543762
 30
0.0
 11
663.300781
 21
272.543762
 31
0.0
  0
LINE
  5
369
330
1F
100
AcDbEntity
  8
0
 62
     7
370
    35
100
AcDbLine
 10
664.460815
 20
399.043762
 30
0.0
 11
664.460815
 21
272.543762
 31
0.0
  0
LINE
  5
36A
330
1F
100
AcDbEntity
  8
0
 62
     7
370
    35
100
AcDbLine
 10
664.880798
 20
399.043762
 30
0.0
 11
664.460815
 21
399.043762
 31
0.0
  0
LINE
  5
36B
330
1F
100
AcDbEntity
  8
0
 62
     7
370
    35
100
AcDbLine
 10
662.880798
 20
399.043762
 30
0.0
 11
663.300781
 21
399.043762
 31
0.0
  0
LINE
  5
36C
330
1F
100
AcDbEntity
  8
0
 62
     7
370
    35
100
AcDbLine
 10
664.460815
 20
399.043762
 30
0.0
 11
663.300781
 21
399.043762
 31
0.0
  0
LINE
  5
36D
330
1F
100
AcDbEntity
  8
0
 62
     7
370
    35
100
AcDbLine
 10
663.300781
 20
399.043762
 30
0.0
 11
663.300781
 21
272.543762
 31
0.0
  0
LINE
  5
36E
330
1F
100
AcDbEntity
  8
0
 62
     7
370
    35
100
AcDbLine
 10
662.880798
 20
416.543762
 30
0.0
 11
663.300781
 21
416.543762
 31
0.0
  0
LINE
  5
36F
330
1F
100
AcDbEntity
  8
0
 62
     7
370
    35
100
AcDbLine
 10
663.300781
 20
416.543762
 30
0.0
 11
663.300781
 21
406.043762
 31
0.0
  0
LINE
  5
370
330
1F
100
AcDbEntity
  8
0
 62
     7
370
    35
100
AcDbLine
 10
662.880798
 20
406.043762
 30
0.0
 11
663.300781
 21
406.043762
 31
0.0
  0
LINE
  5
371
330
1F
100
AcDbEntity
  8
0
 62
     7
370
    35
100
AcDbLine
 10
663.300781
 20
406.043762
 30
0.0
 11
664.460815
 21
406.043762
 31
0.0
  0
LINE
  5
372
330
1F
100
AcDbEntity
  8
0
 62
     7
370
    35
100
AcDbLine
 10
664.880798
 20
406.043762
 30
0.0
 11
664.460815
 21
406.043762
 31
0.0
  0
LINE
  5
373
330
1F
100
AcDbEntity
  8
0
 62
     7
370
    35
100
AcDbLine
 10
664.460815
 20
416.543762
 30
0.0
 11
664.460815
 21
406.043762
 31
0.0
  0
LINE
  5
374
330
1F
100
AcDbEntity
  8
0
 62
     7
370
    35
100
AcDbLine
 10
664.880798
 20
416.543762
 30
0.0
 11
664.460815
 21
416.543762
 31
0.0
  0
LINE
  5
375
330
1F
100
AcDbEntity
  8
0
 62
     7
370
    35
100
AcDbLine
 10
664.460815
 20
416.543762
 30
0.0
 11
663.300781
 21
416.543762
 31
0.0
  0
LINE
  5
376
330
1F
100
AcDbEntity
  8
0
 62
     7
370
    35
100
AcDbLine
 10
668.880798
 20
272.543762
 30
0.0
 11
668.460815
 21
272.543762
 31
0.0
  0
LINE
  5
377
330
1F
100
AcDbEntity
  8
0
 62
     7
370
    35
100
AcDbLine
 10
667.300781
 20
272.543762
 30
0.0
 11
668.460815
 21
272.543762
 31
0.0
  0
LINE
  5
378
330
1F
100
AcDbEntity
  8
0
 62
     7
370
    35
100
AcDbLine
 10
666.880798
 20
272.543762
 30
0.0
 11
667.300781
 21
272.543762
 31
0.0
  0
LINE
  5
379
330
1F
100
AcDbEntity
  8
0
 62
     7
370
    35
100
AcDbLine
 10
668.460815
 20
399.043762
 30
0.0
 11
668.460815
 21
272.543762
 31
0.0
  0
LINE
  5
37A
330
1F
100
AcDbEntity
  8
0
 62
     7
370
    35
100
AcDbLine
 10
668.880798
 20
399.043762
 30
0.0
 11
668.460815
 21
399.043762
 31
0.0
  0
LINE
  5
37B
330
1F
100
AcDbEntity
  8
0
 62
     7
370
    35
100
AcDbLine
 10
666.880798
 20
399.043762
 30
0.0
 11
667.300781
 21
399.043762
 31
0.0
  0
LINE
  5
37C
330
1F
100
AcDbEntity
  8
0
 62
     7
370
    35
100
AcDbLine
 10
668.460815
 20
399.043762
 30
0.0
 11
667.300781
 21
399.043762
 31
0.0
  0
LINE
  5
37D
330
1F
100
AcDbEntity
  8
0
 62
     7
370
    35
100
AcDbLine
 10
667.300781
 20
399.043762
 30
0.0
 11
667.300781
 21
272.543762
 31
0.0
  0
LINE
  5
37E
330
1F
100
AcDbEntity
  8
0
 62
     7
370
    35
100
AcDbLine
 10
666.880798
 20
416.543762
 30
0.0
 11
667.300781
 21
416.543762
 31
0.0
  0
LINE
  5
37F
330
1F
100
AcDbEntity
  8
0
 62
     7
370
    35
100
AcDbLine
 10
667.300781
 20
416.543762
 30
0.0
 11
667.300781
 21
406.043762
 31
0.0
  0
LINE
  5
380
330
1F
100
AcDbEntity
  8
0
 62
     7
370
    35
100
AcDbLine
 10
666.880798
 20
406.043762
 30
0.0
 11
667.300781
 21
406.043762
 31
0.0
  0
LINE
  5
381
330
1F
100
AcDbEntity
  8
0
 62
     7
370
    35
100
AcDbLine
 10
667.300781
 20
406.043762
 30
0.0
 11
668.460815
 21
406.043762
 31
0.0
  0
LINE
  5
382
330
1F
100
AcDbEntity
  8
0
 62
     7
370
    35
100
AcDbLine
 10
668.880798
 20
406.043762
 30
0.0
 11
668.460815
 21
406.043762
 31
0.0
  0
LINE
  5
383
330
1F
100
AcDbEntity
  8
0
 62
     7
370
    35
100
AcDbLine
 10
668.460815
 20
416.543762
 30
0.0
 11
668.460815
 21
406.043762
 31
0.0
  0
LINE
  5
384
330
1F
100
AcDbEntity
  8
0
 62
     7
370
    35
100
AcDbLine
 10
668.880798
 20
416.543762
 30
0.0
 11
668.460815
 21
416.543762
 31
0.0
  0
LINE
  5
385
330
1F
100
AcDbEntity
  8
0
 62
     7
370
    35
100
AcDbLine
 10
668.460815
 20
416.543762
 30
0.0
 11
667.300781
 21
416.543762
 31
0.0
  0
LINE
  5
386
330
1F
100
AcDbEntity
  8
0
 62
     7
370
    35
100
AcDbLine
 10
672.880798
 20
272.543762
 30
0.0
 11
672.460815
 21
272.543762
 31
0.0
  0
LINE
  5
387
330
1F
100
AcDbEntity
  8
0
 62
     7
370
    35
100
AcDbLine
 10
671.300781
 20
272.543762
 30
0.0
 11
672.460815
 21
272.543762
 31
0.0
  0
LINE
  5
388
330
1F
100
AcDbEntity
  8
0
 62
     7
370
    35
100
AcDbLine
 10
670.880798
 20
272.543762
 30
0.0
 11
671.300781
 21
272.543762
 31
0.0
  0
LINE
  5
389
330
1F
100
AcDbEntity
  8
0
 62
     7
370
    35
100
AcDbLine
 10
672.460815
 20
399.043762
 30
0.0
 11
672.460815
 21
272.543762
 31
0.0
  0
LINE
  5
38A
330
1F
100
AcDbEntity
  8
0
 62
     7
370
    35
100
AcDbLine
 10
672.880798
 20
399.043762
 30
0.0
 11
672.460815
 21
399.043762
 31
0.0
  0
LINE
  5
38B
330
1F
100
AcDbEntity
  8
0
 62
     7
370
    35
100
AcDbLine
 10
670.880798
 20
399.043762
 30
0.0
 11
671.300781
 21
399.043762
 31
0.0
  0
LINE
  5
38C
330
1F
100
AcDbEntity
  8
0
 62
     7
370
    35
100
AcDbLine
 10
672.460815
 20
399.043762
 30
0.0
 11
671.300781
 21
399.043762
 31
0.0
  0
LINE
  5
38D
330
1F
100
AcDbEntity
  8
0
 62
     7
370
    35
100
AcDbLine
 10
671.300781
 20
399.043762
 30
0.0
 11
671.300781
 21
272.543762
 31
0.0
  0
LINE
  5
38E
330
1F
100
AcDbEntity
  8
0
 62
     7
370
    35
100
AcDbLine
 10
670.880798
 20
416.543762
 30
0.0
 11
671.300781
 21
416.543762
 31
0.0
  0
LINE
  5
38F
330
1F
100
AcDbEntity
  8
0
 62
     7
370
    35
100
AcDbLine
 10
671.300781
 20
416.543762
 30
0.0
 11
671.300781
 21
406.043762
 31
0.0
  0
LINE
  5
390
330
1F
100
AcDbEntity
  8
0
 62
     7
370
    35
100
AcDbLine
 10
670.880798
 20
406.043762
 30
0.0
 11
671.300781
 21
406.043762
 31
0.0
  0
LINE
  5
391
330
1F
100
AcDbEntity
  8
0
 62
     7
370
    35
100
AcDbLine
 10
671.300781
 20
406.043762
 30
0.0
 11
672.460815
 21
406.043762
 31
0.0
  0
LINE
  5
392
330
1F
100
AcDbEntity
  8
0
 62
     7
370
    35
100
AcDbLine
 10
672.880798
 20
406.043762
 30
0.0
 11
672.460815
 21
406.043762
 31
0.0
  0
LINE
  5
393
330
1F
100
AcDbEntity
  8
0
 62
     7
370
    35
100
AcDbLine
 10
672.460815
 20
416.543762
 30
0.0
 11
672.460815
 21
406.043762
 31
0.0
  0
LINE
  5
394
330
1F
100
AcDbEntity
  8
0
 62
     7
370
    35
100
AcDbLine
 10
672.880798
 20
416.543762
 30
0.0
 11
672.460815
 21
416.543762
 31
0.0
  0
LINE
  5
395
330
1F
100
AcDbEntity
  8
0
 62
     7
370
    35
100
AcDbLine
 10
672.460815
 20
416.543762
 30
0.0
 11
671.300781
 21
416.543762
 31
0.0
  0
LINE
  5
396
330
1F
100
AcDbEntity
  8
0
 62
     7
370
    35
100
AcDbLine
 10
676.880798
 20
272.543762
 30
0.0
 11
676.460815
 21
272.543762
 31
0.0
  0
LINE
  5
397
330
1F
100
AcDbEntity
  8
0
 62
     7
370
    35
100
AcDbLine
 10
675.300781
 20
272.543762
 30
0.0
 11
676.460815
 21
272.543762
 31
0.0
  0
LINE
  5
398
330
1F
100
AcDbEntity
  8
0
 62
     7
370
    35
100
AcDbLine
 10
674.880798
 20
272.543762
 30
0.0
 11
675.300781
 21
272.543762
 31
0.0
  0
LINE
  5
399
330
1F
100
AcDbEntity
  8
0
 62
     7
370
    35
100
AcDbLine
 10
676.460815
 20
399.043762
 30
0.0
 11
676.460815
 21
272.543762
 31
0.0
  0
LINE
  5
39A
330
1F
100
AcDbEntity
  8
0
 62
     7
370
    35
100
AcDbLine
 10
676.880798
 20
399.043762
 30
0.0
 11
676.460815
 21
399.043762
 31
0.0
  0
LINE
  5
39B
330
1F
100
AcDbEntity
  8
0
 62
     7
370
    35
100
AcDbLine
 10
674.880798
 20
399.043762
 30
0.0
 11
675.300781
 21
399.043762
 31
0.0
  0
LINE
  5
39C
330
1F
100
AcDbEntity
  8
0
 62
     7
370
    35
100
AcDbLine
 10
676.460815
 20
399.043762
 30
0.0
 11
675.300781
 21
399.043762
 31
0.0
  0
LINE
  5
39D
330
1F
100
AcDbEntity
  8
0
 62
     7
370
    35
100
AcDbLine
 10
675.300781
 20
399.043762
 30
0.0
 11
675.300781
 21
272.543762
 31
0.0
  0
LINE
  5
39E
330
1F
100
AcDbEntity
  8
0
 62
     7
370
    35
100
AcDbLine
 10
674.880798
 20
416.543762
 30
0.0
 11
675.300781
 21
416.543762
 31
0.0
  0
LINE
  5
39F
330
1F
100
AcDbEntity
  8
0
 62
     7
370
    35
100
AcDbLine
 10
675.300781
 20
416.543762
 30
0.0
 11
675.300781
 21
406.043762
 31
0.0
  0
LINE
  5
3A0
330
1F
100
AcDbEntity
  8
0
 62
     7
370
    35
100
AcDbLine
 10
674.880798
 20
406.043762
 30
0.0
 11
675.300781
 21
406.043762
 31
0.0
  0
LINE
  5
3A1
330
1F
100
AcDbEntity
  8
0
 62
     7
370
    35
100
AcDbLine
 10
675.300781
 20
406.043762
 30
0.0
 11
676.460815
 21
406.043762
 31
0.0
  0
LINE
  5
3A2
330
1F
100
AcDbEntity
  8
0
 62
     7
370
    35
100
AcDbLine
 10
676.880798
 20
406.043762
 30
0.0
 11
676.460815
 21
406.043762
 31
0.0
  0
LINE
  5
3A3
330
1F
100
AcDbEntity
  8
0
 62
     7
370
    35
100
AcDbLine
 10
676.460815
 20
416.543762
 30
0.0
 11
676.460815
 21
406.043762
 31
0.0
  0
LINE
  5
3A4
330
1F
100
AcDbEntity
  8
0
 62
     7
370
    35
100
AcDbLine
 10
676.880798
 20
416.543762
 30
0.0
 11
676.460815
 21
416.543762
 31
0.0
  0
LINE
  5
3A5
330
1F
100
AcDbEntity
  8
0
 62
     7
370
    35
100
AcDbLine
 10
676.460815
 20
416.543762
 30
0.0
 11
675.300781
 21
416.543762
 31
0.0
  0
LINE
  5
3A6
330
1F
100
AcDbEntity
  8
0
 62
     7
370
    35
100
AcDbLine
 10
680.880798
 20
272.543762
 30
0.0
 11
680.460815
 21
272.543762
 31
0.0
  0
LINE
  5
3A7
330
1F
100
AcDbEntity
  8
0
 62
     7
370
    35
100
AcDbLine
 10
679.300781
 20
272.543762
 30
0.0
 11
680.460815
 21
272.543762
 31
0.0
  0
LINE
  5
3A8
330
1F
100
AcDbEntity
  8
0
 62
     7
370
    35
100
AcDbLine
 10
678.880798
 20
272.543762
 30
0.0
 11
679.300781
 21
272.543762
 31
0.0
  0
LINE
  5
3A9
330
1F
100
AcDbEntity
  8
0
 62
     7
370
    35
100
AcDbLine
 10
680.460815
 20
399.043762
 30
0.0
 11
680.460815
 21
272.543762
 31
0.0
  0
LINE
  5
3AA
330
1F
100
AcDbEntity
  8
0
 62
     7
370
    35
100
AcDbLine
 10
680.880798
 20
399.043762
 30
0.0
 11
680.460815
 21
399.043762
 31
0.0
  0
LINE
  5
3AB
330
1F
100
AcDbEntity
  8
0
 62
     7
370
    35
100
AcDbLine
 10
678.880798
 20
399.043762
 30
0.0
 11
679.300781
 21
399.043762
 31
0.0
  0
LINE
  5
3AC
330
1F
100
AcDbEntity
  8
0
 62
     7
370
    35
100
AcDbLine
 10
680.460815
 20
399.043762
 30
0.0
 11
679.300781
 21
399.043762
 31
0.0
  0
LINE
  5
3AD
330
1F
100
AcDbEntity
  8
0
 62
     7
370
    35
100
AcDbLine
 10
679.300781
 20
399.043762
 30
0.0
 11
679.300781
 21
272.543762
 31
0.0
  0
LINE
  5
3AE
330
1F
100
AcDbEntity
  8
0
 62
     7
370
    35
100
AcDbLine
 10
678.880798
 20
416.543762
 30
0.0
 11
679.300781
 21
416.543762
 31
0.0
  0
LINE
  5
3AF
330
1F
100
AcDbEntity
  8
0
 62
     7
370
    35
100
AcDbLine
 10
679.300781
 20
416.543762
 30
0.0
 11
679.300781
 21
406.043762
 31
0.0
  0
LINE
  5
3B0
330
1F
100
AcDbEntity
  8
0
 62
     7
370
    35
100
AcDbLine
 10
678.880798
 20
406.043762
 30
0.0
 11
679.300781
 21
406.043762
 31
0.0
  0
LINE
  5
3B1
330
1F
100
AcDbEntity
  8
0
 62
     7
370
    35
100
AcDbLine
 10
679.300781
 20
406.043762
 30
0.0
 11
680.460815
 21
406.043762
 31
0.0
  0
LINE
  5
3B2
330
1F
100
AcDbEntity
  8
0
 62
     7
370
    35
100
AcDbLine
 10
680.880798
 20
406.043762
 30
0.0
 11
680.460815
 21
406.043762
 31
0.0
  0
LINE
  5
3B3
330
1F
100
AcDbEntity
  8
0
 62
     7
370
    35
100
AcDbLine
 10
680.460815
 20
416.543762
 30
0.0
 11
680.460815
 21
406.043762
 31
0.0
  0
LINE
  5
3B4
330
1F
100
AcDbEntity
  8
0
 62
     7
370
    35
100
AcDbLine
 10
680.880798
 20
416.543762
 30
0.0
 11
680.460815
 21
416.543762
 31
0.0
  0
LINE
  5
3B5
330
1F
100
AcDbEntity
  8
0
 62
     7
370
    35
100
AcDbLine
 10
680.460815
 20
416.543762
 30
0.0
 11
679.300781
 21
416.543762
 31
0.0
  0
LINE
  5
3B6
330
1F
100
AcDbEntity
  8
0
 62
     7
370
    35
100
AcDbLine
 10
684.880798
 20
272.543762
 30
0.0
 11
684.460815
 21
272.543762
 31
0.0
  0
LINE
  5
3B7
330
1F
100
AcDbEntity
  8
0
 62
     7
370
    35
100
AcDbLine
 10
683.300781
 20
272.543762
 30
0.0
 11
684.460815
 21
272.543762
 31
0.0
  0
LINE
  5
3B8
330
1F
100
AcDbEntity
  8
0
 62
     7
370
    35
100
AcDbLine
 10
682.880798
 20
272.543762
 30
0.0
 11
683.300781
 21
272.543762
 31
0.0
  0
LINE
  5
3B9
330
1F
100
AcDbEntity
  8
0
 62
     7
370
    35
100
AcDbLine
 10
684.460815
 20
399.043762
 30
0.0
 11
684.460815
 21
272.543762
 31
0.0
  0
LINE
  5
3BA
330
1F
100
AcDbEntity
  8
0
 62
     7
370
    35
100
AcDbLine
 10
684.880798
 20
399.043762
 30
0.0
 11
684.460815
 21
399.043762
 31
0.0
  0
LINE
  5
3BB
330
1F
100
AcDbEntity
  8
0
 62
     7
370
    35
100
AcDbLine
 10
682.880798
 20
399.043762
 30
0.0
 11
683.300781
 21
399.043762
 31
0.0
  0
LINE
  5
3BC
330
1F
100
AcDbEntity
  8
0
 62
     7
370
    35
100
AcDbLine
 10
684.460815
 20
399.043762
 30
0.0
 11
683.300781
 21
399.043762
 31
0.0
  0
LINE
  5
3BD
330
1F
100
AcDbEntity
  8
0
 62
     7
370
    35
100
AcDbLine
 10
683.300781
 20
399.043762
 30
0.0
 11
683.300781
 21
272.543762
 31
0.0
  0
LINE
  5
3BE
330
1F
100
AcDbEntity
  8
0
 62
     7
370
    35
100
AcDbLine
 10
682.880798
 20
416.543762
 30
0.0
 11
683.300781
 21
416.543762
 31
0.0
  0
LINE
  5
3BF
330
1F
100
AcDbEntity
  8
0
 62
     7
370
    35
100
AcDbLine
 10
683.300781
 20
416.543762
 30
0.0
 11
683.300781
 21
406.043762
 31
0.0
  0
LINE
  5
3C0
330
1F
100
AcDbEntity
  8
0
 62
     7
370
    35
100
AcDbLine
 10
682.880798
 20
406.043762
 30
0.0
 11
683.300781
 21
406.043762
 31
0.0
  0
LINE
  5
3C1
330
1F
100
AcDbEntity
  8
0
 62
     7
370
    35
100
AcDbLine
 10
683.300781
 20
406.043762
 30
0.0
 11
684.460815
 21
406.043762
 31
0.0
  0
LINE
  5
3C2
330
1F
100
AcDbEntity
  8
0
 62
     7
370
    35
100
AcDbLine
 10
684.880798
 20
406.043762
 30
0.0
 11
684.460815
 21
406.043762
 31
0.0
  0
LINE
  5
3C3
330
1F
100
AcDbEntity
  8
0
 62
     7
370
    35
100
AcDbLine
 10
684.460815
 20
416.543762
 30
0.0
 11
684.460815
 21
406.043762
 31
0.0
  0
LINE
  5
3C4
330
1F
100
AcDbEntity
  8
0
 62
     7
370
    35
100
AcDbLine
 10
684.880798
 20
416.543762
 30
0.0
 11
684.460815
 21
416.543762
 31
0.0
  0
LINE
  5
3C5
330
1F
100
AcDbEntity
  8
0
 62
     7
370
    35
100
AcDbLine
 10
684.460815
 20
416.543762
 30
0.0
 11
683.300781
 21
416.543762
 31
0.0
  0
LINE
  5
3C6
330
1F
100
AcDbEntity
  8
0
 62
     7
370
    35
100
AcDbLine
 10
688.880798
 20
272.543762
 30
0.0
 11
688.460815
 21
272.543762
 31
0.0
  0
LINE
  5
3C7
330
1F
100
AcDbEntity
  8
0
 62
     7
370
    35
100
AcDbLine
 10
687.300781
 20
272.543762
 30
0.0
 11
688.460815
 21
272.543762
 31
0.0
  0
LINE
  5
3C8
330
1F
100
AcDbEntity
  8
0
 62
     7
370
    35
100
AcDbLine
 10
686.880798
 20
272.543762
 30
0.0
 11
687.300781
 21
272.543762
 31
0.0
  0
LINE
  5
3C9
330
1F
100
AcDbEntity
  8
0
 62
     7
370
    35
100
AcDbLine
 10
688.460815
 20
399.043762
 30
0.0
 11
688.460815
 21
272.543762
 31
0.0
  0
LINE
  5
3CA
330
1F
100
AcDbEntity
  8
0
 62
     7
370
    35
100
AcDbLine
 10
688.880798
 20
399.043762
 30
0.0
 11
688.460815
 21
399.043762
 31
0.0
  0
LINE
  5
3CB
330
1F
100
AcDbEntity
  8
0
 62
     7
370
    35
100
AcDbLine
 10
686.880798
 20
399.043762
 30
0.0
 11
687.300781
 21
399.043762
 31
0.0
  0
LINE
  5
3CC
330
1F
100
AcDbEntity
  8
0
 62
     7
370
    35
100
AcDbLine
 10
688.460815
 20
399.043762
 30
0.0
 11
687.300781
 21
399.043762
 31
0.0
  0
LINE
  5
3CD
330
1F
100
AcDbEntity
  8
0
 62
     7
370
    35
100
AcDbLine
 10
687.300781
 20
399.043762
 30
0.0
 11
687.300781
 21
272.543762
 31
0.0
  0
LINE
  5
3CE
330
1F
100
AcDbEntity
  8
0
 62
     7
370
    35
100
AcDbLine
 10
686.880798
 20
416.543762
 30
0.0
 11
687.300781
 21
416.543762
 31
0.0
  0
LINE
  5
3CF
330
1F
100
AcDbEntity
  8
0
 62
     7
370
    35
100
AcDbLine
 10
687.300781
 20
416.543762
 30
0.0
 11
687.300781
 21
406.043762
 31
0.0
  0
LINE
  5
3D0
330
1F
100
AcDbEntity
  8
0
 62
     7
370
    35
100
AcDbLine
 10
686.880798
 20
406.043762
 30
0.0
 11
687.300781
 21
406.043762
 31
0.0
  0
LINE
  5
3D1
330
1F
100
AcDbEntity
  8
0
 62
     7
370
    35
100
AcDbLine
 10
687.300781
 20
406.043762
 30
0.0
 11
688.460815
 21
406.043762
 31
0.0
  0
LINE
  5
3D2
330
1F
100
AcDbEntity
  8
0
 62
     7
370
    35
100
AcDbLine
 10
688.880798
 20
406.043762
 30
0.0
 11
688.460815
 21
406.043762
 31
0.0
  0
LINE
  5
3D3
330
1F
100
AcDbEntity
  8
0
 62
     7
370
    35
100
AcDbLine
 10
688.460815
 20
416.543762
 30
0.0
 11
688.460815
 21
406.043762
 31
0.0
  0
LINE
  5
3D4
330
1F
100
AcDbEntity
  8
0
 62
     7
370
    35
100
AcDbLine
 10
688.880798
 20
416.543762
 30
0.0
 11
688.460815
 21
416.543762
 31
0.0
  0
LINE
  5
3D5
330
1F
100
AcDbEntity
  8
0
 62
     7
370
    35
100
AcDbLine
 10
688.460815
 20
416.543762
 30
0.0
 11
687.300781
 21
416.543762
 31
0.0
  0
LINE
  5
3D6
330
1F
100
AcDbEntity
  8
0
 62
     7
370
    35
100
AcDbLine
 10
692.880798
 20
272.543762
 30
0.0
 11
692.460815
 21
272.543762
 31
0.0
  0
LINE
  5
3D7
330
1F
100
AcDbEntity
  8
0
 62
     7
370
    35
100
AcDbLine
 10
691.300781
 20
272.543762
 30
0.0
 11
692.460815
 21
272.543762
 31
0.0
  0
LINE
  5
3D8
330
1F
100
AcDbEntity
  8
0
 62
     7
370
    35
100
AcDbLine
 10
690.880798
 20
272.543762
 30
0.0
 11
691.300781
 21
272.543762
 31
0.0
  0
LINE
  5
3D9
330
1F
100
AcDbEntity
  8
0
 62
     7
370
    35
100
AcDbLine
 10
692.460815
 20
399.043762
 30
0.0
 11
692.460815
 21
272.543762
 31
0.0
  0
LINE
  5
3DA
330
1F
100
AcDbEntity
  8
0
 62
     7
370
    35
100
AcDbLine
 10
692.880798
 20
399.043762
 30
0.0
 11
692.460815
 21
399.043762
 31
0.0
  0
LINE
  5
3DB
330
1F
100
AcDbEntity
  8
0
 62
     7
370
    35
100
AcDbLine
 10
690.880798
 20
399.043762
 30
0.0
 11
691.300781
 21
399.043762
 31
0.0
  0
LINE
  5
3DC
330
1F
100
AcDbEntity
  8
0
 62
     7
370
    35
100
AcDbLine
 10
692.460815
 20
399.043762
 30
0.0
 11
691.300781
 21
399.043762
 31
0.0
  0
LINE
  5
3DD
330
1F
100
AcDbEntity
  8
0
 62
     7
370
    35
100
AcDbLine
 10
691.300781
 20
399.043762
 30
0.0
 11
691.300781
 21
272.543762
 31
0.0
  0
LINE
  5
3DE
330
1F
100
AcDbEntity
  8
0
 62
     7
370
    35
100
AcDbLine
 10
690.880798
 20
416.543762
 30
0.0
 11
691.300781
 21
416.543762
 31
0.0
  0
LINE
  5
3DF
330
1F
100
AcDbEntity
  8
0
 62
     7
370
    35
100
AcDbLine
 10
691.300781
 20
416.543762
 30
0.0
 11
691.300781
 21
406.043762
 31
0.0
  0
LINE
  5
3E0
330
1F
100
AcDbEntity
  8
0
 62
     7
370
    35
100
AcDbLine
 10
690.880798
 20
406.043762
 30
0.0
 11
691.300781
 21
406.043762
 31
0.0
  0
LINE
  5
3E1
330
1F
100
AcDbEntity
  8
0
 62
     7
370
    35
100
AcDbLine
 10
691.300781
 20
406.043762
 30
0.0
 11
692.460815
 21
406.043762
 31
0.0
  0
LINE
  5
3E2
330
1F
100
AcDbEntity
  8
0
 62
     7
370
    35
100
AcDbLine
 10
692.880798
 20
406.043762
 30
0.0
 11
692.460815
 21
406.043762
 31
0.0
  0
LINE
  5
3E3
330
1F
100
AcDbEntity
  8
0
 62
     7
370
    35
100
AcDbLine
 10
692.460815
 20
416.543762
 30
0.0
 11
692.460815
 21
406.043762
 31
0.0
  0
LINE
  5
3E4
330
1F
100
AcDbEntity
  8
0
 62
     7
370
    35
100
AcDbLine
 10
692.880798
 20
416.543762
 30
0.0
 11
692.460815
 21
416.543762
 31
0.0
  0
LINE
  5
3E5
330
1F
100
AcDbEntity
  8
0
 62
     7
370
    35
100
AcDbLine
 10
692.460815
 20
416.543762
 30
0.0
 11
691.300781
 21
416.543762
 31
0.0
  0
LINE
  5
3E6
330
1F
100
AcDbEntity
  8
0
 62
     7
370
    35
100
AcDbLine
 10
696.880798
 20
272.543762
 30
0.0
 11
696.460815
 21
272.543762
 31
0.0
  0
LINE
  5
3E7
330
1F
100
AcDbEntity
  8
0
 62
     7
370
    35
100
AcDbLine
 10
695.300781
 20
272.543762
 30
0.0
 11
696.460815
 21
272.543762
 31
0.0
  0
LINE
  5
3E8
330
1F
100
AcDbEntity
  8
0
 62
     7
370
    35
100
AcDbLine
 10
694.880798
 20
272.543762
 30
0.0
 11
695.300781
 21
272.543762
 31
0.0
  0
LINE
  5
3E9
330
1F
100
AcDbEntity
  8
0
 62
     7
370
    35
100
AcDbLine
 10
696.460815
 20
399.043762
 30
0.0
 11
696.460815
 21
272.543762
 31
0.0
  0
LINE
  5
3EA
330
1F
100
AcDbEntity
  8
0
 62
     7
370
    35
100
AcDbLine
 10
696.880798
 20
399.043762
 30
0.0
 11
696.460815
 21
399.043762
 31
0.0
  0
LINE
  5
3EB
330
1F
100
AcDbEntity
  8
0
 62
     7
370
    35
100
AcDbLine
 10
694.880798
 20
399.043762
 30
0.0
 11
695.300781
 21
399.043762
 31
0.0
  0
LINE
  5
3EC
330
1F
100
AcDbEntity
  8
0
 62
     7
370
    35
100
AcDbLine
 10
696.460815
 20
399.043762
 30
0.0
 11
695.300781
 21
399.043762
 31
0.0
  0
LINE
  5
3ED
330
1F
100
AcDbEntity
  8
0
 62
     7
370
    35
100
AcDbLine
 10
695.300781
 20
399.043762
 30
0.0
 11
695.300781
 21
272.543762
 31
0.0
  0
LINE
  5
3EE
330
1F
100
AcDbEntity
  8
0
 62
     7
370
    35
100
AcDbLine
 10
694.880798
 20
416.543762
 30
0.0
 11
695.300781
 21
416.543762
 31
0.0
  0
LINE
  5
3EF
330
1F
100
AcDbEntity
  8
0
 62
     7
370
    35
100
AcDbLine
 10
695.300781
 20
416.543762
 30
0.0
 11
695.300781
 21
406.043762
 31
0.0
  0
LINE
  5
3F0
330
1F
100
AcDbEntity
  8
0
 62
     7
370
    35
100
AcDbLine
 10
694.880798
 20
406.043762
 30
0.0
 11
695.300781
 21
406.043762
 31
0.0
  0
LINE
  5
3F1
330
1F
100
AcDbEntity
  8
0
 62
     7
370
    35
100
AcDbLine
 10
695.300781
 20
406.043762
 30
0.0
 11
696.460815
 21
406.043762
 31
0.0
  0
LINE
  5
3F2
330
1F
100
AcDbEntity
  8
0
 62
     7
370
    35
100
AcDbLine
 10
696.880798
 20
406.043762
 30
0.0
 11
696.460815
 21
406.043762
 31
0.0
  0
LINE
  5
3F3
330
1F
100
AcDbEntity
  8
0
 62
     7
370
    35
100
AcDbLine
 10
696.460815
 20
416.543762
 30
0.0
 11
696.460815
 21
406.043762
 31
0.0
  0
LINE
  5
3F4
330
1F
100
AcDbEntity
  8
0
 62
     7
370
    35
100
AcDbLine
 10
696.880798
 20
416.543762
 30
0.0
 11
696.460815
 21
416.543762
 31
0.0
  0
LINE
  5
3F5
330
1F
100
AcDbEntity
  8
0
 62
     7
370
    35
100
AcDbLine
 10
696.460815
 20
416.543762
 30
0.0
 11
695.300781
 21
416.543762
 31
0.0
  0
LINE
  5
3F6
330
1F
100
AcDbEntity
  8
0
 62
     7
370
    35
100
AcDbLine
 10
700.880798
 20
272.543762
 30
0.0
 11
700.460815
 21
272.543762
 31
0.0
  0
LINE
  5
3F7
330
1F
100
AcDbEntity
  8
0
 62
     7
370
    35
100
AcDbLine
 10
699.300781
 20
272.543762
 30
0.0
 11
700.460815
 21
272.543762
 31
0.0
  0
LINE
  5
3F8
330
1F
100
AcDbEntity
  8
0
 62
     7
370
    35
100
AcDbLine
 10
698.880798
 20
272.543762
 30
0.0
 11
699.300781
 21
272.543762
 31
0.0
  0
LINE
  5
3F9
330
1F
100
AcDbEntity
  8
0
 62
     7
370
    35
100
AcDbLine
 10
700.460815
 20
399.043762
 30
0.0
 11
700.460815
 21
272.543762
 31
0.0
  0
LINE
  5
3FA
330
1F
100
AcDbEntity
  8
0
 62
     7
370
    35
100
AcDbLine
 10
700.880798
 20
399.043762
 30
0.0
 11
700.460815
 21
399.043762
 31
0.0
  0
LINE
  5
3FB
330
1F
100
AcDbEntity
  8
0
 62
     7
370
    35
100
AcDbLine
 10
698.880798
 20
399.043762
 30
0.0
 11
699.300781
 21
399.043762
 31
0.0
  0
LINE
  5
3FC
330
1F
100
AcDbEntity
  8
0
 62
     7
370
    35
100
AcDbLine
 10
700.460815
 20
399.043762
 30
0.0
 11
699.300781
 21
399.043762
 31
0.0
  0
LINE
  5
3FD
330
1F
100
AcDbEntity
  8
0
 62
     7
370
    35
100
AcDbLine
 10
699.300781
 20
399.043762
 30
0.0
 11
699.300781
 21
272.543762
 31
0.0
  0
LINE
  5
3FE
330
1F
100
AcDbEntity
  8
0
 62
     7
370
    35
100
AcDbLine
 10
698.880798
 20
416.543762
 30
0.0
 11
699.300781
 21
416.543762
 31
0.0
  0
LINE
  5
3FF
330
1F
100
AcDbEntity
  8
0
 62
     7
370
    35
100
AcDbLine
 10
699.300781
 20
416.543762
 30
0.0
 11
699.300781
 21
406.043762
 31
0.0
  0
LINE
  5
400
330
1F
100
AcDbEntity
  8
0
 62
     7
370
    35
100
AcDbLine
 10
698.880798
 20
406.043762
 30
0.0
 11
699.300781
 21
406.043762
 31
0.0
  0
LINE
  5
401
330
1F
100
AcDbEntity
  8
0
 62
     7
370
    35
100
AcDbLine
 10
699.300781
 20
406.043762
 30
0.0
 11
700.460815
 21
406.043762
 31
0.0
  0
LINE
  5
402
330
1F
100
AcDbEntity
  8
0
 62
     7
370
    35
100
AcDbLine
 10
700.880798
 20
406.043762
 30
0.0
 11
700.460815
 21
406.043762
 31
0.0
  0
LINE
  5
403
330
1F
100
AcDbEntity
  8
0
 62
     7
370
    35
100
AcDbLine
 10
700.460815
 20
416.543762
 30
0.0
 11
700.460815
 21
406.043762
 31
0.0
  0
LINE
  5
404
330
1F
100
AcDbEntity
  8
0
 62
     7
370
    35
100
AcDbLine
 10
700.880798
 20
416.543762
 30
0.0
 11
700.460815
 21
416.543762
 31
0.0
  0
LINE
  5
405
330
1F
100
AcDbEntity
  8
0
 62
     7
370
    35
100
AcDbLine
 10
700.460815
 20
416.543762
 30
0.0
 11
699.300781
 21
416.543762
 31
0.0
  0
LINE
  5
406
330
1F
100
AcDbEntity
  8
0
 62
     7
370
    35
100
AcDbLine
 10
704.880798
 20
272.543762
 30
0.0
 11
704.460815
 21
272.543762
 31
0.0
  0
LINE
  5
407
330
1F
100
AcDbEntity
  8
0
 62
     7
370
    35
100
AcDbLine
 10
703.300781
 20
272.543762
 30
0.0
 11
704.460815
 21
272.543762
 31
0.0
  0
LINE
  5
408
330
1F
100
AcDbEntity
  8
0
 62
     7
370
    35
100
AcDbLine
 10
702.880798
 20
272.543762
 30
0.0
 11
703.300781
 21
272.543762
 31
0.0
  0
LINE
  5
409
330
1F
100
AcDbEntity
  8
0
 62
     7
370
    35
100
AcDbLine
 10
704.460815
 20
399.043762
 30
0.0
 11
704.460815
 21
272.543762
 31
0.0
  0
LINE
  5
40A
330
1F
100
AcDbEntity
  8
0
 62
     7
370
    35
100
AcDbLine
 10
704.880798
 20
399.043762
 30
0.0
 11
704.460815
 21
399.043762
 31
0.0
  0
LINE
  5
40B
330
1F
100
AcDbEntity
  8
0
 62
     7
370
    35
100
AcDbLine
 10
702.880798
 20
399.043762
 30
0.0
 11
703.300781
 21
399.043762
 31
0.0
  0
LINE
  5
40C
330
1F
100
AcDbEntity
  8
0
 62
     7
370
    35
100
AcDbLine
 10
704.460815
 20
399.043762
 30
0.0
 11
703.300781
 21
399.043762
 31
0.0
  0
LINE
  5
40D
330
1F
100
AcDbEntity
  8
0
 62
     7
370
    35
100
AcDbLine
 10
703.300781
 20
399.043762
 30
0.0
 11
703.300781
 21
272.543762
 31
0.0
  0
LINE
  5
40E
330
1F
100
AcDbEntity
  8
0
 62
     7
370
    35
100
AcDbLine
 10
702.880798
 20
416.543762
 30
0.0
 11
703.300781
 21
416.543762
 31
0.0
  0
LINE
  5
40F
330
1F
100
AcDbEntity
  8
0
 62
     7
370
    35
100
AcDbLine
 10
703.300781
 20
416.543762
 30
0.0
 11
703.300781
 21
406.043762
 31
0.0
  0
LINE
  5
410
330
1F
100
AcDbEntity
  8
0
 62
     7
370
    35
100
AcDbLine
 10
702.880798
 20
406.043762
 30
0.0
 11
703.300781
 21
406.043762
 31
0.0
  0
LINE
  5
411
330
1F
100
AcDbEntity
  8
0
 62
     7
370
    35
100
AcDbLine
 10
703.300781
 20
406.043762
 30
0.0
 11
704.460815
 21
406.043762
 31
0.0
  0
LINE
  5
412
330
1F
100
AcDbEntity
  8
0
 62
     7
370
    35
100
AcDbLine
 10
704.880798
 20
406.043762
 30
0.0
 11
704.460815
 21
406.043762
 31
0.0
  0
LINE
  5
413
330
1F
100
AcDbEntity
  8
0
 62
     7
370
    35
100
AcDbLine
 10
704.460815
 20
416.543762
 30
0.0
 11
704.460815
 21
406.043762
 31
0.0
  0
LINE
  5
414
330
1F
100
AcDbEntity
  8
0
 62
     7
370
    35
100
AcDbLine
 10
704.880798
 20
416.543762
 30
0.0
 11
704.460815
 21
416.543762
 31
0.0
  0
LINE
  5
415
330
1F
100
AcDbEntity
  8
0
 62
     7
370
    35
100
AcDbLine
 10
704.460815
 20
416.543762
 30
0.0
 11
703.300781
 21
416.543762
 31
0.0
  0
LINE
  5
416
330
1F
100
AcDbEntity
  8
0
 62
     7
370
    35
100
AcDbLine
 10
708.880798
 20
416.543762
 30
0.0
 11
708.460815
 21
416.543762
 31
0.0
  0
LINE
  5
417
330
1F
100
AcDbEntity
  8
0
 62
     7
370
    35
100
AcDbLine
 10
706.880798
 20
416.543762
 30
0.0
 11
707.300781
 21
416.543762
 31
0.0
  0
LINE
  5
418
330
1F
100
AcDbEntity
  8
0
 62
     7
370
    35
100
AcDbLine
 10
707.300781
 20
416.543762
 30
0.0
 11
708.460815
 21
416.543762
 31
0.0
  0
LINE
  5
419
330
1F
100
AcDbEntity
  8
0
 62
     7
370
    35
100
AcDbLine
 10
707.300781
 20
416.543762
 30
0.0
 11
707.300781
 21
406.043762
 31
0.0
  0
LINE
  5
41A
330
1F
100
AcDbEntity
  8
0
 62
     7
370
    35
100
AcDbLine
 10
706.880798
 20
406.043762
 30
0.0
 11
707.300781
 21
406.043762
 31
0.0
  0
LINE
  5
41B
330
1F
100
AcDbEntity
  8
0
 62
     7
370
    35
100
AcDbLine
 10
708.460815
 20
406.043762
 30
0.0
 11
707.300781
 21
406.043762
 31
0.0
  0
LINE
  5
41C
330
1F
100
AcDbEntity
  8
0
 62
     7
370
    35
100
AcDbLine
 10
708.880798
 20
406.043762
 30
0.0
 11
708.460815
 21
406.043762
 31
0.0
  0
LINE
  5
41D
330
1F
100
AcDbEntity
  8
0
 62
     7
370
    35
100
AcDbLine
 10
708.460815
 20
416.543762
 30
0.0
 11
708.460815
 21
406.043762
 31
0.0
  0
LINE
  5
41E
330
1F
100
AcDbEntity
  8
0
 62
     7
370
    35
100
AcDbLine
 10
708.880798
 20
399.043762
 30
0.0
 11
708.460815
 21
399.043762
 31
0.0
  0
LINE
  5
41F
330
1F
100
AcDbEntity
  8
0
 62
     7
370
    35
100
AcDbLine
 10
706.880798
 20
399.043762
 30
0.0
 11
707.300781
 21
399.043762
 31
0.0
  0
LINE
  5
420
330
1F
100
AcDbEntity
  8
0
 62
     7
370
    35
100
AcDbLine
 10
707.300781
 20
399.043762
 30
0.0
 11
708.460815
 21
399.043762
 31
0.0
  0
LINE
  5
421
330
1F
100
AcDbEntity
  8
0
 62
     7
370
    35
100
AcDbLine
 10
707.300781
 20
399.043762
 30
0.0
 11
707.300781
 21
337.043762
 31
0.0
  0
LINE
  5
422
330
1F
100
AcDbEntity
  8
0
 62
     7
370
    35
100
AcDbLine
 10
706.880798
 20
337.043762
 30
0.0
 11
707.300781
 21
337.043762
 31
0.0
  0
LINE
  5
423
330
1F
100
AcDbEntity
  8
0
 62
     7
370
    35
100
AcDbLine
 10
708.880798
 20
337.043762
 30
0.0
 11
708.460815
 21
337.043762
 31
0.0
  0
LINE
  5
424
330
1F
100
AcDbEntity
  8
0
 62
     7
370
    35
100
AcDbLine
 10
708.460815
 20
337.043762
 30
0.0
 11
707.300781
 21
337.043762
 31
0.0
  0
LINE
  5
425
330
1F
100
AcDbEntity
  8
0
 62
     7
370
    35
100
AcDbLine
 10
708.460815
 20
399.043762
 30
0.0
 11
708.460815
 21
337.043762
 31
0.0
  0
LINE
  5
426
330
1F
100
AcDbEntity
  8
0
 62
     7
370
    35
100
AcDbLine
 10
712.880798
 20
416.543762
 30
0.0
 11
712.460815
 21
416.543762
 31
0.0
  0
LINE
  5
427
330
1F
100
AcDbEntity
  8
0
 62
     7
370
    35
100
AcDbLine
 10
710.880798
 20
416.543762
 30
0.0
 11
711.300781
 21
416.543762
 31
0.0
  0
LINE
  5
428
330
1F
100
AcDbEntity
  8
0
 62
     7
370
    35
100
AcDbLine
 10
711.300781
 20
416.543762
 30
0.0
 11
712.460815
 21
416.543762
 31
0.0
  0
LINE
  5
429
330
1F
100
AcDbEntity
  8
0
 62
     7
370
    35
100
AcDbLine
 10
711.300781
 20
416.543762
 30
0.0
 11
711.300781
 21
406.043762
 31
0.0
  0
LINE
  5
42A
330
1F
100
AcDbEntity
  8
0
 62
     7
370
    35
100
AcDbLine
 10
710.880798
 20
406.043762
 30
0.0
 11
711.300781
 21
406.043762
 31
0.0
  0
LINE
  5
42B
330
1F
100
AcDbEntity
  8
0
 62
     7
370
    35
100
AcDbLine
 10
712.460815
 20
406.043762
 30
0.0
 11
711.300781
 21
406.043762
 31
0.0
  0
LINE
  5
42C
330
1F
100
AcDbEntity
  8
0
 62
     7
370
    35
100
AcDbLine
 10
712.880798
 20
406.043762
 30
0.0
 11
712.460815
 21
406.043762
 31
0.0
  0
LINE
  5
42D
330
1F
100
AcDbEntity
  8
0
 62
     7
370
    35
100
AcDbLine
 10
712.460815
 20
416.543762
 30
0.0
 11
712.460815
 21
406.043762
 31
0.0
  0
LINE
  5
42E
330
1F
100
AcDbEntity
  8
0
 62
     7
370
    35
100
AcDbLine
 10
712.880798
 20
399.043762
 30
0.0
 11
712.460815
 21
399.043762
 31
0.0
  0
LINE
  5
42F
330
1F
100
AcDbEntity
  8
0
 62
     7
370
    35
100
AcDbLine
 10
710.880798
 20
399.043762
 30
0.0
 11
711.300781
 21
399.043762
 31
0.0
  0
LINE
  5
430
330
1F
100
AcDbEntity
  8
0
 62
     7
370
    35
100
AcDbLine
 10
711.300781
 20
399.043762
 30
0.0
 11
712.460815
 21
399.043762
 31
0.0
  0
LINE
  5
431
330
1F
100
AcDbEntity
  8
0
 62
     7
370
    35
100
AcDbLine
 10
711.300781
 20
399.043762
 30
0.0
 11
711.300781
 21
337.043762
 31
0.0
  0
LINE
  5
432
330
1F
100
AcDbEntity
  8
0
 62
     7
370
    35
100
AcDbLine
 10
710.880798
 20
337.043762
 30
0.0
 11
711.300781
 21
337.043762
 31
0.0
  0
LINE
  5
433
330
1F
100
AcDbEntity
  8
0
 62
     7
370
    35
100
AcDbLine
 10
712.880798
 20
337.043762
 30
0.0
 11
712.460815
 21
337.043762
 31
0.0
  0
LINE
  5
434
330
1F
100
AcDbEntity
  8
0
 62
     7
370
    35
100
AcDbLine
 10
712.460815
 20
337.043762
 30
0.0
 11
711.300781
 21
337.043762
 31
0.0
  0
LINE
  5
435
330
1F
100
AcDbEntity
  8
0
 62
     7
370
    35
100
AcDbLine
 10
712.460815
 20
399.043762
 30
0.0
 11
712.460815
 21
337.043762
 31
0.0
  0
LINE
  5
436
330
1F
100
AcDbEntity
  8
0
 62
     7
370
    35
100
AcDbLine
 10
716.880798
 20
416.543762
 30
0.0
 11
716.460815
 21
416.543762
 31
0.0
  0
LINE
  5
437
330
1F
100
AcDbEntity
  8
0
 62
     7
370
    35
100
AcDbLine
 10
714.880798
 20
416.543762
 30
0.0
 11
715.300781
 21
416.543762
 31
0.0
  0
LINE
  5
438
330
1F
100
AcDbEntity
  8
0
 62
     7
370
    35
100
AcDbLine
 10
715.300781
 20
416.543762
 30
0.0
 11
716.460815
 21
416.543762
 31
0.0
  0
LINE
  5
439
330
1F
100
AcDbEntity
  8
0
 62
     7
370
    35
100
AcDbLine
 10
715.300781
 20
416.543762
 30
0.0
 11
715.300781
 21
406.043762
 31
0.0
  0
LINE
  5
43A
330
1F
100
AcDbEntity
  8
0
 62
     7
370
    35
100
AcDbLine
 10
714.880798
 20
406.043762
 30
0.0
 11
715.300781
 21
406.043762
 31
0.0
  0
LINE
  5
43B
330
1F
100
AcDbEntity
  8
0
 62
     7
370
    35
100
AcDbLine
 10
716.460815
 20
406.043762
 30
0.0
 11
715.300781
 21
406.043762
 31
0.0
  0
LINE
  5
43C
330
1F
100
AcDbEntity
  8
0
 62
     7
370
    35
100
AcDbLine
 10
716.880798
 20
406.043762
 30
0.0
 11
716.460815
 21
406.043762
 31
0.0
  0
LINE
  5
43D
330
1F
100
AcDbEntity
  8
0
 62
     7
370
    35
100
AcDbLine
 10
716.460815
 20
416.543762
 30
0.0
 11
716.460815
 21
406.043762
 31
0.0
  0
LINE
  5
43E
330
1F
100
AcDbEntity
  8
0
 62
     7
370
    35
100
AcDbLine
 10
716.880798
 20
399.043762
 30
0.0
 11
716.460815
 21
399.043762
 31
0.0
  0
LINE
  5
43F
330
1F
100
AcDbEntity
  8
0
 62
     7
370
    35
100
AcDbLine
 10
714.880798
 20
399.043762
 30
0.0
 11
715.300781
 21
399.043762
 31
0.0
  0
LINE
  5
440
330
1F
100
AcDbEntity
  8
0
 62
     7
370
    35
100
AcDbLine
 10
715.300781
 20
399.043762
 30
0.0
 11
716.460815
 21
399.043762
 31
0.0
  0
LINE
  5
441
330
1F
100
AcDbEntity
  8
0
 62
     7
370
    35
100
AcDbLine
 10
715.300781
 20
399.043762
 30
0.0
 11
715.300781
 21
337.043762
 31
0.0
  0
LINE
  5
442
330
1F
100
AcDbEntity
  8
0
 62
     7
370
    35
100
AcDbLine
 10
714.880798
 20
337.043762
 30
0.0
 11
715.300781
 21
337.043762
 31
0.0
  0
LINE
  5
443
330
1F
100
AcDbEntity
  8
0
 62
     7
370
    35
100
AcDbLine
 10
716.880798
 20
337.043762
 30
0.0
 11
716.460815
 21
337.043762
 31
0.0
  0
LINE
  5
444
330
1F
100
AcDbEntity
  8
0
 62
     7
370
    35
100
AcDbLine
 10
716.460815
 20
337.043762
 30
0.0
 11
715.300781
 21
337.043762
 31
0.0
  0
LINE
  5
445
330
1F
100
AcDbEntity
  8
0
 62
     7
370
    35
100
AcDbLine
 10
716.460815
 20
399.043762
 30
0.0
 11
716.460815
 21
337.043762
 31
0.0
  0
LINE
  5
446
330
1F
100
AcDbEntity
  8
0
 62
     7
370
    35
100
AcDbLine
 10
720.880798
 20
416.543762
 30
0.0
 11
720.460815
 21
416.543762
 31
0.0
  0
LINE
  5
447
330
1F
100
AcDbEntity
  8
0
 62
     7
370
    35
100
AcDbLine
 10
718.880798
 20
416.543762
 30
0.0
 11
719.300781
 21
416.543762
 31
0.0
  0
LINE
  5
448
330
1F
100
AcDbEntity
  8
0
 62
     7
370
    35
100
AcDbLine
 10
719.300781
 20
416.543762
 30
0.0
 11
720.460815
 21
416.543762
 31
0.0
  0
LINE
  5
449
330
1F
100
AcDbEntity
  8
0
 62
     7
370
    35
100
AcDbLine
 10
719.300781
 20
416.543762
 30
0.0
 11
719.300781
 21
406.043762
 31
0.0
  0
LINE
  5
44A
330
1F
100
AcDbEntity
  8
0
 62
     7
370
    35
100
AcDbLine
 10
718.880798
 20
406.043762
 30
0.0
 11
719.300781
 21
406.043762
 31
0.0
  0
LINE
  5
44B
330
1F
100
AcDbEntity
  8
0
 62
     7
370
    35
100
AcDbLine
 10
720.460815
 20
406.043762
 30
0.0
 11
719.300781
 21
406.043762
 31
0.0
  0
LINE
  5
44C
330
1F
100
AcDbEntity
  8
0
 62
     7
370
    35
100
AcDbLine
 10
720.880798
 20
406.043762
 30
0.0
 11
720.460815
 21
406.043762
 31
0.0
  0
LINE
  5
44D
330
1F
100
AcDbEntity
  8
0
 62
     7
370
    35
100
AcDbLine
 10
720.460815
 20
416.543762
 30
0.0
 11
720.460815
 21
406.043762
 31
0.0
  0
CIRCLE
  5
44E
330
1F
100
AcDbEntity
  8
0
 62
     7
370
    35
100
AcDbCircle
 10
721.880798
 20
379.543762
 30
0.0
 40
2.5
  0
LINE
  5
44F
330
1F
100
AcDbEntity
  8
0
 62
     7
370
    35
100
AcDbLine
 10
720.460815
 20
399.043762
 30
0.0
 11
720.460815
 21
381.601379
 31
0.0
  0
LINE
  5
450
330
1F
100
AcDbEntity
  8
0
 62
     7
370
    35
100
AcDbLine
 10
720.880798
 20
399.043762
 30
0.0
 11
720.460815
 21
399.043762
 31
0.0
  0
LINE
  5
451
330
1F
100
AcDbEntity
  8
0
 62
     7
370
    35
100
AcDbLine
 10
718.880798
 20
399.043762
 30
0.0
 11
719.300781
 21
399.043762
 31
0.0
  0
LINE
  5
452
330
1F
100
AcDbEntity
  8
0
 62
     7
370
    35
100
AcDbLine
 10
719.300781
 20
399.043762
 30
0.0
 11
720.460815
 21
399.043762
 31
0.0
  0
LINE
  5
453
330
1F
100
AcDbEntity
  8
0
 62
     7
370
    35
100
AcDbLine
 10
719.300781
 20
399.043762
 30
0.0
 11
719.300781
 21
337.043762
 31
0.0
  0
LINE
  5
454
330
1F
100
AcDbEntity
  8
0
 62
     7
370
    35
100
AcDbLine
 10
718.880798
 20
337.043762
 30
0.0
 11
719.300781
 21
337.043762
 31
0.0
  0
LINE
  5
455
330
1F
100
AcDbEntity
  8
0
 62
     7
370
    35
100
AcDbLine
 10
720.880798
 20
337.043762
 30
0.0
 11
720.460815
 21
337.043762
 31
0.0
  0
LINE
  5
456
330
1F
100
AcDbEntity
  8
0
 62
     7
370
    35
100
AcDbLine
 10
720.460815
 20
337.043762
 30
0.0
 11
719.300781
 21
337.043762
 31
0.0
  0
LINE
  5
457
330
1F
100
AcDbEntity
  8
0
 62
     7
370
    35
100
AcDbLine
 10
720.460815
 20
377.486145
 30
0.0
 11
720.460815
 21
337.043762
 31
0.0
  0
LINE
  5
458
330
1F
100
AcDbEntity
  8
0
 62
     7
370
    35
100
AcDbLine
 10
723.300781
 20
377.486145
 30
0.0
 11
723.300781
 21
337.043762
 31
0.0
  0
LINE
  5
459
330
1F
100
AcDbEntity
  8
0
 62
     7
370
    35
100
AcDbLine
 10
722.880798
 20
337.043762
 30
0.0
 11
723.300781
 21
337.043762
 31
0.0
  0
LINE
  5
45A
330
1F
100
AcDbEntity
  8
0
 62
     7
370
    35
100
AcDbLine
 10
724.880798
 20
337.043762
 30
0.0
 11
724.460815
 21
337.043762
 31
0.0
  0
LINE
  5
45B
330
1F
100
AcDbEntity
  8
0
 62
     7
370
    35
100
AcDbLine
 10
724.460815
 20
337.043762
 30
0.0
 11
723.300781
 21
337.043762
 31
0.0
  0
LINE
  5
45C
330
1F
100
AcDbEntity
  8
0
 62
     7
370
    35
100
AcDbLine
 10
724.460815
 20
399.043762
 30
0.0
 11
724.460815
 21
337.043762
 31
0.0
  0
LINE
  5
45D
330
1F
100
AcDbEntity
  8
0
 62
     7
370
    35
100
AcDbLine
 10
724.880798
 20
399.043762
 30
0.0
 11
724.460815
 21
399.043762
 31
0.0
  0
LINE
  5
45E
330
1F
100
AcDbEntity
  8
0
 62
     7
370
    35
100
AcDbLine
 10
722.880798
 20
399.043762
 30
0.0
 11
723.300781
 21
399.043762
 31
0.0
  0
LINE
  5
45F
330
1F
100
AcDbEntity
  8
0
 62
     7
370
    35
100
AcDbLine
 10
723.300781
 20
399.043762
 30
0.0
 11
724.460815
 21
399.043762
 31
0.0
  0
LINE
  5
460
330
1F
100
AcDbEntity
  8
0
 62
     7
370
    35
100
AcDbLine
 10
723.300781
 20
399.043762
 30
0.0
 11
723.300781
 21
381.601379
 31
0.0
  0
LINE
  5
461
330
1F
100
AcDbEntity
  8
0
 62
     7
370
    35
100
AcDbLine
 10
724.880798
 20
416.543762
 30
0.0
 11
724.460815
 21
416.543762
 31
0.0
  0
LINE
  5
462
330
1F
100
AcDbEntity
  8
0
 62
     7
370
    35
100
AcDbLine
 10
722.880798
 20
416.543762
 30
0.0
 11
723.300781
 21
416.543762
 31
0.0
  0
LINE
  5
463
330
1F
100
AcDbEntity
  8
0
 62
     7
370
    35
100
AcDbLine
 10
723.300781
 20
416.543762
 30
0.0
 11
724.460815
 21
416.543762
 31
0.0
  0
LINE
  5
464
330
1F
100
AcDbEntity
  8
0
 62
     7
370
    35
100
AcDbLine
 10
723.300781
 20
416.543762
 30
0.0
 11
723.300781
 21
406.043762
 31
0.0
  0
LINE
  5
465
330
1F
100
AcDbEntity
  8
0
 62
     7
370
    35
100
AcDbLine
 10
722.880798
 20
406.043762
 30
0.0
 11
723.300781
 21
406.043762
 31
0.0
  0
LINE
  5
466
330
1F
100
AcDbEntity
  8
0
 62
     7
370
    35
100
AcDbLine
 10
724.460815
 20
406.043762
 30
0.0
 11
723.300781
 21
406.043762
 31
0.0
  0
LINE
  5
467
330
1F
100
AcDbEntity
  8
0
 62
     7
370
    35
100
AcDbLine
 10
724.880798
 20
406.043762
 30
0.0
 11
724.460815
 21
406.043762
 31
0.0
  0
LINE
  5
468
330
1F
100
AcDbEntity
  8
0
 62
     7
370
    35
100
AcDbLine
 10
724.460815
 20
416.543762
 30
0.0
 11
724.460815
 21
406.043762
 31
0.0
  0
LINE
  5
469
330
1F
100
AcDbEntity
  8
0
 62
     7
370
    35
100
AcDbLine
 10
722.080811
 20
323.043762
 30
0.0
 11
722.080811
 21
324.293762
 31
0.0
  0
LINE
  5
46A
330
1F
100
AcDbEntity
  8
0
 62
     7
370
    35
100
AcDbLine
 10
722.080811
 20
321.793762
 30
0.0
 11
722.080811
 21
323.043762
 31
0.0
  0
CIRCLE
  5
46B
330
1F
100
AcDbEntity
  8
0
 62
     7
370
    35
100
AcDbCircle
 10
654.880798
 20
275.543762
 30
0.0
 40
1.2
  0
CIRCLE
  5
46C
330
1F
100
AcDbEntity
  8
0
 62
     7
370
    35
100
AcDbCircle
 10
654.880798
 20
413.543762
 30
0.0
 40
1.2
  0
CIRCLE
  5
46D
330
1F
100
AcDbEntity
  8
0
 62
     7
370
    35
100
AcDbCircle
 10
721.880798
 20
379.543762
 30
0.0
 40
1.2
  0
LINE
  5
46E
330
1F
100
AcDbEntity
  8
0
 62
     7
370
    35
100
AcDbLine
 10
721.780762
 20
323.043762
 30
0.0
 11
721.780762
 21
323.993744
 31
0.0
  0
LINE
  5
46F
330
1F
100
AcDbEntity
  8
0
 62
     7
370
    35
100
AcDbLine
 10
721.780762
 20
323.043762
 30
0.0
 11
721.780762
 21
322.09375
 31
0.0
  0
CIRCLE
  5
470
330
1F
100
AcDbEntity
  8
0
 62
     7
370
    35
100
AcDbCircle
 10
654.880798
 20
275.543762
 30
0.0
 40
0.9000000000000414
  0
CIRCLE
  5
471
330
1F
100
AcDbEntity
  8
0
 62
     7
370
    35
100
AcDbCircle
 10
654.880798
 20
413.543762
 30
0.0
 40
0.9000000000000905
  0
CIRCLE
  5
472
330
1F
100
AcDbEntity
  8
0
 62
     7
370
    35
100
AcDbCircle
 10
721.880798
 20
379.543762
 30
0.0
 40
0.9000000000000531
  0
LINE
  5
473
330
1F
100
AcDbEntity
  8
0
 62
     7
370
    35
100
AcDbLine
 10
725.880798
 20
321.043762
 30
0.0
 11
724.280762
 21
321.043762
 31
0.0
  0
LINE
  5
474
330
1F
100
AcDbEntity
  8
0
 62
     7
370
    35
100
AcDbLine
 10
725.880798
 20
325.043762
 30
0.0
 11
724.280762
 21
325.043762
 31
0.0
  0
LINE
  5
475
330
1F
100
AcDbEntity
  8
0
 62
     7
370
    35
100
AcDbLine
 10
722.680786
 20
324.293762
 30
0.0
 11
722.080811
 21
324.293762
 31
0.0
  0
LINE
  5
476
330
1F
100
AcDbEntity
  8
0
 62
     7
370
    35
100
AcDbLine
 10
722.680786
 20
321.793762
 30
0.0
 11
722.080811
 21
321.793762
 31
0.0
  0
LINE
  5
477
330
1F
100
AcDbEntity
  8
0
 62
     7
370
    35
100
AcDbLine
 10
722.680786
 20
324.293762
 30
0.0
 11
722.080811
 21
324.293762
 31
0.0
  0
LINE
  5
478
330
1F
100
AcDbEntity
  8
0
 62
     7
370
    35
100
AcDbLine
 10
721.780762
 20
323.993744
 30
0.0
 11
722.080811
 21
324.293762
 31
0.0
  0
LINE
  5
479
330
1F
100
AcDbEntity
  8
0
 62
     7
370
    35
100
AcDbLine
 10
722.080811
 20
321.793762
 30
0.0
 11
721.780762
 21
322.09375
 31
0.0
  0
LINE
  5
47A
330
1F
100
AcDbEntity
  8
0
 62
     7
370
    35
100
AcDbLine
 10
721.780762
 20
323.993744
 30
0.0
 11
722.080811
 21
324.293762
 31
0.0
  0
LINE
  5
47B
330
1F
100
AcDbEntity
  8
0
 62
     7
370
    35
100
AcDbLine
 10
729.380798
 20
328.643768
 30
0.0
 11
730.380798
 21
328.643768
 31
0.0
  0
LINE
  5
47C
330
1F
100
AcDbEntity
  8
0
 62
     7
370
    35
100
AcDbLine
 10
729.380798
 20
328.643768
 30
0.0
 11
729.380798
 21
326.643768
 31
0.0
  0
LINE
  5
47D
330
1F
100
AcDbEntity
  8
0
 62
     7
370
    35
100
AcDbLine
 10
732.380798
 20
325.643768
 30
0.0
 11
732.380798
 21
304.643768
 31
0.0
  0
LINE
  5
47E
330
1F
100
AcDbEntity
  8
0
 62
     7
370
    35
100
AcDbLine
 10
730.380798
 20
328.643768
 30
0.0
 11
731.714111
 21
326.643768
 31
0.0
  0
LINE
  5
47F
330
1F
100
AcDbEntity
  8
0
 62
     7
370
    35
100
AcDbLine
 10
728.380798
 20
326.643768
 30
0.0
 11
730.180786
 21
326.643768
 31
0.0
  0
LINE
  5
480
330
1F
100
AcDbEntity
  8
0
 62
     7
370
    35
100
AcDbLine
 10
728.380798
 20
304.643768
 30
0.0
 11
728.380798
 21
299.643768
 31
0.0
  0
LINE
  5
481
330
1F
100
AcDbEntity
  8
0
 62
     7
370
    35
100
AcDbLine
 10
728.380798
 20
299.643768
 30
0.0
 11
732.380798
 21
299.643768
 31
0.0
  0
LINE
  5
482
330
1F
100
AcDbEntity
  8
0
 62
     7
370
    35
100
AcDbLine
 10
732.380798
 20
304.643768
 30
0.0
 11
732.380798
 21
299.643768
 31
0.0
  0
LINE
  5
483
330
1F
100
AcDbEntity
  8
0
 62
     7
370
    35
100
AcDbLine
 10
729.380798
 20
263.543762
 30
0.0
 11
729.380798
 21
265.543762
 31
0.0
  0
LINE
  5
484
330
1F
100
AcDbEntity
  8
0
 62
     7
370
    35
100
AcDbLine
 10
729.380798
 20
263.543762
 30
0.0
 11
732.380798
 21
263.543762
 31
0.0
  0
LINE
  5
485
330
1F
100
AcDbEntity
  8
0
 62
     7
370
    35
100
AcDbLine
 10
732.380798
 20
263.543762
 30
0.0
 11
732.380798
 21
265.543762
 31
0.0
  0
LINE
  5
486
330
1F
100
AcDbEntity
  8
0
 62
     7
370
    35
100
AcDbLine
 10
729.380798
 20
265.543762
 30
0.0
 11
732.380798
 21
265.543762
 31
0.0
  0
LINE
  5
487
330
1F
100
AcDbEntity
  8
0
 62
     7
370
    35
100
AcDbLine
 10
732.380798
 20
298.643768
 30
0.0
 11
732.380798
 21
299.643768
 31
0.0
  0
LINE
  5
488
330
1F
100
AcDbEntity
  8
0
 62
     7
370
    35
100
AcDbLine
 10
732.380798
 20
265.543762
 30
0.0
 11
732.380798
 21
298.643768
 31
0.0
  0
LINE
  5
489
330
1F
100
AcDbEntity
  8
0
 62
     7
370
    35
100
AcDbLine
 10
729.380798
 20
299.643768
 30
0.0
 11
729.380798
 21
298.643768
 31
0.0
  0
LINE
  5
48A
330
1F
100
AcDbEntity
  8
0
 62
     7
370
    35
100
AcDbLine
 10
729.380798
 20
265.543762
 30
0.0
 11
729.380798
 21
298.643768
 31
0.0
  0
LINE
  5
48B
330
1F
100
AcDbEntity
  8
0
 62
     7
370
    35
100
AcDbLine
 10
647.880798
 20
400.043762
 30
0.0
 11
647.880798
 21
400.107178
 31
0.0
  0
LINE
  5
48C
330
1F
100
AcDbEntity
  8
0
 62
     7
370
    35
100
AcDbLine
 10
647.880798
 20
400.107178
 30
0.0
 11
647.880798
 21
405.043762
 31
0.0
  0
LINE
  5
48D
330
1F
100
AcDbEntity
  8
0
 62
     7
370
    35
100
AcDbLine
 10
655.680786
 20
404.043762
 30
0.0
 11
656.380798
 21
404.043762
 31
0.0
  0
LINE
  5
48E
330
1F
100
AcDbEntity
  8
0
 62
     7
370
    35
100
AcDbLine
 10
655.680786
 20
401.043762
 30
0.0
 11
656.380798
 21
401.043762
 31
0.0
  0
LINE
  5
48F
330
1F
100
AcDbEntity
  8
0
 62
     7
370
    35
100
AcDbLine
 10
648.380798
 20
399.543762
 30
0.0
 11
649.880798
 21
399.543762
 31
0.0
  0
LINE
  5
490
330
1F
100
AcDbEntity
  8
0
 62
     7
370
    35
100
AcDbLine
 10
648.380798
 20
405.543762
 30
0.0
 11
649.880798
 21
405.543762
 31
0.0
  0
ARC
  5
491
330
1F
100
AcDbEntity
  8
0
 62
     7
370
    35
100
AcDbCircle
 10
648.380798
 20
400.043762
 30
0.0
 40
0.5000000024282737
100
AcDbArc
 50
179.999995
 51
269.999997
  0
ARC
  5
492
330
1F
100
AcDbEntity
  8
0
 62
     7
370
    35
100
AcDbCircle
 10
648.380798
 20
405.043762
 30
0.0
 40
0.5000000024324863
100
AcDbArc
 50
90.000003
 51
180.000005
  0
LINE
  5
493
330
1F
100
AcDbEntity
  8
0
 62
     7
370
    35
100
AcDbLine
 10
655.680786
 20
405.243774
 30
0.0
 11
653.880798
 21
405.243774
 31
0.0
  0
LINE
  5
494
330
1F
100
AcDbEntity
  8
0
 62
     7
370
    35
100
AcDbLine
 10
655.680786
 20
399.84375
 30
0.0
 11
653.880798
 21
399.84375
 31
0.0
  0
LINE
  5
495
330
1F
100
AcDbEntity
  8
0
 62
     7
370
    35
100
AcDbLine
 10
655.680786
 20
399.84375
 30
0.0
 11
655.680786
 21
402.543762
 31
0.0
  0
LINE
  5
496
330
1F
100
AcDbEntity
  8
0
 62
     7
370
    35
100
AcDbLine
 10
655.680786
 20
402.543762
 30
0.0
 11
653.880798
 21
402.543762
 31
0.0
  0
LINE
  5
497
330
1F
100
AcDbEntity
  8
0
 62
     7
370
    35
100
AcDbLine
 10
655.680786
 20
405.243774
 30
0.0
 11
655.680786
 21
402.543762
 31
0.0
  0
ENDSEC
  0
SECTION
  2
OBJECTS
  0
DICTIONARY
  5
C
330
0
100
AcDbDictionary
281
     1
  3
ACAD_GROUP
350
D
  3
ACAD_LAYOUT
350
1A
  3
ACAD_MLINESTYLE
350
17
  3
ACAD_PLOTSETTINGS
350
19
  3
ACAD_PLOTSTYLENAME
350
E
  3
ACAD_SCALELIST
350
47
  0
DICTIONARY
  5
D
102
{ACAD_REACTORS
330
C
102
}
330
C
100
AcDbDictionary
281
     1
  0
DICTIONARY
  5
1A
102
{ACAD_REACTORS
330
C
102
}
330
C
100
AcDbDictionary
281
     1
  3
Layout1
350
1E
  3
Layout2
350
26
  3
Model
350
22
  0
DICTIONARY
  5
17
102
{ACAD_REACTORS
330
C
102
}
330
C
100
AcDbDictionary
281
     1
  3
Standard
350
18
  0
DICTIONARY
  5
19
102
{ACAD_REACTORS
330
C
102
}
330
C
100
AcDbDictionary
281
     1
  0
ACDBDICTIONARYWDFLT
  5
E
102
{ACAD_REACTORS
330
C
102
}
330
C
100
AcDbDictionary
281
     1
  3
Normal
350
F
100
AcDbDictionaryWithDefault
340
F
  0
DICTIONARY
  5
47
102
{ACAD_REACTORS
330
C
102
}
330
C
100
AcDbDictionary
281
     1
  3
A0
350
48
  3
A1
350
49
  3
A2
350
4A
  3
A3
350
4B
  3
A4
350
4C
  3
A5
350
4D
  3
A6
350
4E
  3
A7
350
4F
  3
A8
350
50
  3
A9
350
51
  3
B0
350
52
  3
B1
350
53
  3
B2
350
54
  3
B3
350
55
  3
B4
350
56
  3
B5
350
57
  3
B6
350
58
  3
B7
350
59
  3
B8
350
5A
  3
B9
350
5B
  3
C0
350
5C
  3
C1
350
5D
  3
C2
350
5E
  3
C3
350
5F
  3
C4
350
60
  3
C5
350
61
  3
C6
350
62
  3
C7
350
63
  3
C8
350
64
  3
C9
350
65
  3
D0
350
66
  3
D1
350
67
  3
D2
350
68
  0
LAYOUT
  5
1E
102
{ACAD_REACTORS
330
1A
102
}
330
1A
100
AcDbPlotSettings
  1

  2
none_device
  4

  6

 40
0.0
 41
0.0
 42
0.0
 43
0.0
 44
0.0
 45
0.0
 46
0.0
 47
0.0
 48
0.0
 49
0.0
140
0.0
141
0.0
142
1.0
143
1.0
 70
  4784
 72
     0
 73
     0
 74
     5
  7

 75
    16
147
1.0
148
0.0
149
0.0
100
AcDbLayout
  1
Layout1
 70
     1
 71
     1
 10
0.0
 20
0.0
 11
420.0
 21
297.0
 12
0.0
 22
0.0
 32
0.0
 14
0.0
 24
0.0
 34
0.0
 15
732.380798
 25
624.801575
 35
2.0
146
0.0
 13
0.0
 23
0.0
 33
0.0
 16
1.0
 26
0.0
 36
0.0
 17
0.0
 27
1.0
 37
0.0
 76
     0
330
1B
  0
LAYOUT
  5
26
102
{ACAD_REACTORS
330
1A
102
}
330
1A
100
AcDbPlotSettings
  1

  2
none_device
  4

  6

 40
0.0
 41
0.0
 42
0.0
 43
0.0
 44
0.0
 45
0.0
 46
0.0
 47
0.0
 48
0.0
 49
0.0
140
0.0
141
0.0
142
1.0
143
1.0
 70
  4784
 72
     0
 73
     0
 74
     5
  7

 75
    16
147
1.0
148
0.0
149
0.0
100
AcDbLayout
  1
Layout2
 70
     1
 71
     2
 10
0.0
 20
0.0
 11
0.0
 21
0.0
 12
0.0
 22
0.0
 32
0.0
 14
0.0
 24
0.0
 34
0.0
 15
0.0
 25
0.0
 35
0.0
146
0.0
 13
0.0
 23
0.0
 33
0.0
 16
1.0
 26
0.0
 36
0.0
 17
0.0
 27
1.0
 37
0.0
 76
     0
330
23
  0
LAYOUT
  5
22
102
{ACAD_REACTORS
330
1A
102
}
330
1A
100
AcDbPlotSettings
  1

  2
none_device
  4
Letter_(8.50_x_11.00_Inches)
  6

 40
6.35
 41
6.35
 42
6.350005
 43
6.350005
 44
215.9
 45
279.4
 46
0.0
 47
0.0
 48
0.0
 49
0.0
140
0.0
141
0.0
142
1.0
143
1.0
 70
  5808
 72
     0
 73
     0
 74
     0
  7

 75
     0
147
1.0
148
0.0
149
0.0
100
AcDbLayout
  1
Model
 70
     1
 71
     0
 10
0.0
 20
0.0
 11
420.0
 21
297.0
 12
0.0
 22
0.0
 32
0.0
 14
0.0
 24
0.0
 34
0.0
 15
732.380798
 25
624.801575
 35
2.0
146
0.0
 13
0.0
 23
0.0
 33
0.0
 16
1.0
 26
0.0
 36
0.0
 17
0.0
 27
1.0
 37
0.0
 76
     0
330
1F
331
29
  0
MLINESTYLE
  5
18
102
{ACAD_REACTORS
330
17
102
}
330
17
100
AcDbMlineStyle
  2
Standard
 70
     0
  3

 62
   256
 51
90.0
 52
90.0
 71
     2
 49
0.5
 62
   256
  6
BYLAYER
 49
-0.5
 62
   256
  6
BYLAYER
  0
ACDBPLACEHOLDER
  5
F
102
{ACAD_REACTORS
330
E
102
}
330
E
  0
SCALE
  5
48
102
{ACAD_REACTORS
330
47
102
}
330
47
100
AcDbScale
 70
     0
300
1:1
140
1.0
141
1.0
290
     1
  0
SCALE
  5
49
102
{ACAD_REACTORS
330
47
102
}
330
47
100
AcDbScale
 70
     0
300
1:2
140
1.0
141
2.0
290
     0
  0
SCALE
  5
4A
102
{ACAD_REACTORS
330
47
102
}
330
47
100
AcDbScale
 70
     0
300
1:4
140
1.0
141
4.0
290
     0
  0
SCALE
  5
4B
102
{ACAD_REACTORS
330
47
102
}
330
47
100
AcDbScale
 70
     0
300
1:5
140
1.0
141
5.0
290
     0
  0
SCALE
  5
4C
102
{ACAD_REACTORS
330
47
102
}
330
47
100
AcDbScale
 70
     0
300
1:8
140
1.0
141
8.0
290
     0
  0
SCALE
  5
4D
102
{ACAD_REACTORS
330
47
102
}
330
47
100
AcDbScale
 70
     0
300
1:10
140
1.0
141
10.0
290
     0
  0
SCALE
  5
4E
102
{ACAD_REACTORS
330
47
102
}
330
47
100
AcDbScale
 70
     0
300
1:16
140
1.0
141
16.0
290
     0
  0
SCALE
  5
4F
102
{ACAD_REACTORS
330
47
102
}
330
47
100
AcDbScale
 70
     0
300
1:20
140
1.0
141
20.0
290
     0
  0
SCALE
  5
50
102
{ACAD_REACTORS
330
47
102
}
330
47
100
AcDbScale
 70
     0
300
1:30
140
1.0
141
30.0
290
     0
  0
SCALE
  5
51
102
{ACAD_REACTORS
330
47
102
}
330
47
100
AcDbScale
 70
     0
300
1:40
140
1.0
141
40.0
290
     0
  0
SCALE
  5
52
102
{ACAD_REACTORS
330
47
102
}
330
47
100
AcDbScale
 70
     0
300
1:50
140
1.0
141
50.0
290
     0
  0
SCALE
  5
53
102
{ACAD_REACTORS
330
47
102
}
330
47
100
AcDbScale
 70
     0
300
1:100
140
1.0
141
100.0
290
     0
  0
SCALE
  5
54
102
{ACAD_REACTORS
330
47
102
}
330
47
100
AcDbScale
 70
     0
300
2:1
140
2.0
141
1.0
290
     0
  0
SCALE
  5
55
102
{ACAD_REACTORS
330
47
102
}
330
47
100
AcDbScale
 70
     0
300
4:1
140
4.0
141
1.0
290
     0
  0
SCALE
  5
56
102
{ACAD_REACTORS
330
47
102
}
330
47
100
AcDbScale
 70
     0
300
8:1
140
8.0
141
1.0
290
     0
  0
SCALE
  5
57
102
{ACAD_REACTORS
330
47
102
}
330
47
100
AcDbScale
 70
     0
300
10:1
140
10.0
141
1.0
290
     0
  0
SCALE
  5
58
102
{ACAD_REACTORS
330
47
102
}
330
47
100
AcDbScale
 70
     0
300
100:1
140
100.0
141
1.0
290
     0
  0
SCALE
  5
59
102
{ACAD_REACTORS
330
47
102
}
330
47
100
AcDbScale
 70
     0
300
1/128" = 1'-0"
140
0.007812
141
12.0
290
     0
  0
SCALE
  5
5A
102
{ACAD_REACTORS
330
47
102
}
330
47
100
AcDbScale
 70
     0
300
1/64" = 1'-0"
140
0.015625
141
12.0
290
     0
  0
SCALE
  5
5B
102
{ACAD_REACTORS
330
47
102
}
330
47
100
AcDbScale
 70
     0
300
1/32" = 1'-0"
140
0.03125
141
12.0
290
     0
  0
SCALE
  5
5C
102
{ACAD_REACTORS
330
47
102
}
330
47
100
AcDbScale
 70
     0
300
1/16" = 1'-0"
140
0.0625
141
12.0
290
     0
  0
SCALE
  5
5D
102
{ACAD_REACTORS
330
47
102
}
330
47
100
AcDbScale
 70
     0
300
3/32" = 1'-0"
140
0.09375
141
12.0
290
     0
  0
SCALE
  5
5E
102
{ACAD_REACTORS
330
47
102
}
330
47
100
AcDbScale
 70
     0
300
1/8" = 1'-0"
140
0.125
141
12.0
290
     0
  0
SCALE
  5
5F
102
{ACAD_REACTORS
330
47
102
}
330
47
100
AcDbScale
 70
     0
300
3/16" = 1'-0"
140
0.1875
141
12.0
290
     0
  0
SCALE
  5
60
102
{ACAD_REACTORS
330
47
102
}
330
47
100
AcDbScale
 70
     0
300
1/4" = 1'-0"
140
0.25
141
12.0
290
     0
  0
SCALE
  5
61
102
{ACAD_REACTORS
330
47
102
}
330
47
100
AcDbScale
 70
     0
300
3/8" = 1'-0"
140
0.375
141
12.0
290
     0
  0
SCALE
  5
62
102
{ACAD_REACTORS
330
47
102
}
330
47
100
AcDbScale
 70
     0
300
1/2" = 1'-0"
140
0.5
141
12.0
290
     0
  0
SCALE
  5
63
102
{ACAD_REACTORS
330
47
102
}
330
47
100
AcDbScale
 70
     0
300
3/4" = 1'-0"
140
0.75
141
12.0
290
     0
  0
SCALE
  5
64
102
{ACAD_REACTORS
330
47
102
}
330
47
100
AcDbScale
 70
     0
300
1" = 1'-0"
140
1.0
141
12.0
290
     0
  0
SCALE
  5
65
102
{ACAD_REACTORS
330
47
102
}
330
47
100
AcDbScale
 70
     0
300
1-1/2" = 1'-0"
140
1.5
141
12.0
290
     0
  0
SCALE
  5
66
102
{ACAD_REACTORS
330
47
102
}
330
47
100
AcDbScale
 70
     0
300
3" = 1'-0"
140
3.0
141
12.0
290
     0
  0
SCALE
  5
67
102
{ACAD_REACTORS
330
47
102
}
330
47
100
AcDbScale
 70
     0
300
6" = 1'-0"
140
6.0
141
12.0
290
     0
  0
SCALE
  5
68
102
{ACAD_REACTORS
330
47
102
}
330
47
100
AcDbScale
 70
     0
300
1'-0" = 1'-0"
140
12.0
141
12.0
290
     0
  0
ENDSEC
  0
EOF
