  0
SECTION
  2
HEADER
  9
$ACADVER
  1
AC1015
  9
$ACADMAINTVER
 70
    10
  9
$DWGCODEPAGE
  3
ANSI_932
  9
$INSBASE
 10
0.0
 20
0.0
 30
0.0
  9
$EXTMIN
 10
44.472031391256
 20
114.0808980892509
 30
0.0
  9
$EXTMAX
 10
681.4694320397225
 20
403.3209381737557
 30
0.0
  9
$LIMMIN
 10
0.0
 20
0.0
  9
$LIMMAX
 10
420.0
 20
297.0
  9
$ORTHOMODE
 70
     1
  9
$REGENMODE
 70
     1
  9
$FILLMODE
 70
     1
  9
$QTEXTMODE
 70
     0
  9
$MIRRTEXT
 70
     1
  9
$LTSCALE
 40
1.0
  9
$ATTMODE
 70
     1
  9
$TEXTSIZE
 40
0.0
  9
$TRACEWID
 40
1.0
  9
$TEXTSTYLE
  7
STANDARD
  9
$CLAYER
  8
0
  9
$CELTYPE
  6
BYLAYER
  9
$CECOLOR
 62
   256
  9
$CELTSCALE
 40
1.0
  9
$DISPSILH
 70
     0
  9
$DIMSCALE
 40
1.0
  9
$DIMASZ
 40
2.5
  9
$DIMEXO
 40
0.625
  9
$DIMDLI
 40
3.75
  9
$DIMRND
 40
0.0
  9
$DIMDLE
 40
0.0
  9
$DIMEXE
 40
1.25
  9
$DIMTP
 40
0.0
  9
$DIMTM
 40
0.0
  9
$DIMTXT
 40
2.5
  9
$DIMCEN
 40
2.5
  9
$DIMTSZ
 40
0.0
  9
$DIMTOL
 70
     0
  9
$DIMLIM
 70
     0
  9
$DIMTIH
 70
     0
  9
$DIMTOH
 70
     0
  9
$DIMSE1
 70
     0
  9
$DIMSE2
 70
     0
  9
$DIMTAD
 70
     1
  9
$DIMZIN
 70
     8
  9
$DIMBLK
  1

  9
$DIMASO
 70
     1
  9
$DIMSHO
 70
     1
  9
$DIMPOST
  1

  9
$DIMAPOST
  1

  9
$DIMALT
 70
     0
  9
$DIMALTD
 70
     3
  9
$DIMALTF
 40
0.03937
  9
$DIMLFAC
 40
1.0
  9
$DIMTOFL
 70
     1
  9
$DIMTVP
 40
0.0
  9
$DIMTIX
 70
     0
  9
$DIMSOXD
 70
     0
  9
$DIMSAH
 70
     0
  9
$DIMBLK1
  1

  9
$DIMBLK2
  1

  9
$DIMSTYLE
  2
STANDARD
  9
$DIMCLRD
 70
     0
  9
$DIMCLRE
 70
     0
  9
$DIMCLRT
 70
     0
  9
$DIMTFAC
 40
1.0
  9
$DIMGAP
 40
0.625
  9
$DIMJUST
 70
     0
  9
$DIMSD1
 70
     0
  9
$DIMSD2
 70
     0
  9
$DIMTOLJ
 70
     0
  9
$DIMTZIN
 70
     8
  9
$DIMALTZ
 70
     0
  9
$DIMALTTZ
 70
     0
  9
$DIMUPT
 70
     0
  9
$DIMDEC
 70
     2
  9
$DIMTDEC
 70
     2
  9
$DIMALTU
 70
     2
  9
$DIMALTTD
 70
     3
  9
$DIMTXSTY
  7
STANDARD
  9
$DIMAUNIT
 70
     0
  9
$DIMADEC
 70
     0
  9
$DIMALTRND
 40
0.0
  9
$DIMAZIN
 70
     0
  9
$DIMDSEP
 70
    46
  9
$DIMATFIT
 70
     3
  9
$DIMFRAC
 70
     0
  9
$DIMLDRBLK
  1

  9
$DIMLUNIT
 70
     2
  9
$DIMLWD
 70
    -2
  9
$DIMLWE
 70
    -2
  9
$DIMTMOVE
 70
     0
  9
$LUNITS
 70
     2
  9
$LUPREC
 70
     4
  9
$SKETCHINC
 40
1.0
  9
$FILLETRAD
 40
2.5
  9
$AUNITS
 70
     0
  9
$AUPREC
 70
     0
  9
$MENU
  1
.
  9
$ELEVATION
 40
0.0
  9
$PELEVATION
 40
0.0
  9
$THICKNESS
 40
0.0
  9
$LIMCHECK
 70
     0
  9
$CHAMFERA
 40
2.5
  9
$CHAMFERB
 40
2.5
  9
$CHAMFERC
 40
0.0
  9
$CHAMFERD
 40
0.0
  9
$SKPOLY
 70
     0
  9
$TDCREATE
 40
2312275.082421388
  9
$TDUCREATE
 40
2312274.707421388
  9
$TDUPDATE
 40
2456493.758883275
  9
$TDUUPDATE
 40
2456493.383883275
  9
$TDINDWG
 40
0.4445434954
  9
$TDUSRTIMER
 40
0.4445418750
  9
$USRTIMER
 70
     1
  9
$ANGBASE
 50
0.0
  9
$ANGDIR
 70
     0
  9
$PDMODE
 70
     0
  9
$PDSIZE
 40
0.0
  9
$PLINEWID
 40
0.0
  9
$SPLFRAME
 70
     0
  9
$SPLINETYPE
 70
     6
  9
$SPLINESEGS
 70
     8
  9
$HANDSEED
  5
54D1
  9
$SURFTAB1
 70
     6
  9
$SURFTAB2
 70
     6
  9
$SURFTYPE
 70
     6
  9
$SURFU
 70
     6
  9
$SURFV
 70
     6
  9
$UCSBASE
  2

  9
$UCSNAME
  2

  9
$UCSORG
 10
0.0
 20
0.0
 30
0.0
  9
$UCSXDIR
 10
1.0
 20
0.0
 30
0.0
  9
$UCSYDIR
 10
0.0
 20
1.0
 30
0.0
  9
$UCSORTHOREF
  2

  9
$UCSORTHOVIEW
 70
     0
  9
$UCSORGTOP
 10
0.0
 20
0.0
 30
0.0
  9
$UCSORGBOTTOM
 10
0.0
 20
0.0
 30
0.0
  9
$UCSORGLEFT
 10
0.0
 20
0.0
 30
0.0
  9
$UCSORGRIGHT
 10
0.0
 20
0.0
 30
0.0
  9
$UCSORGFRONT
 10
0.0
 20
0.0
 30
0.0
  9
$UCSORGBACK
 10
0.0
 20
0.0
 30
0.0
  9
$PUCSBASE
  2

  9
$PUCSNAME
  2

  9
$PUCSORG
 10
0.0
 20
0.0
 30
0.0
  9
$PUCSXDIR
 10
1.0
 20
0.0
 30
0.0
  9
$PUCSYDIR
 10
0.0
 20
1.0
 30
0.0
  9
$PUCSORTHOREF
  2

  9
$PUCSORTHOVIEW
 70
     0
  9
$PUCSORGTOP
 10
0.0
 20
0.0
 30
0.0
  9
$PUCSORGBOTTOM
 10
0.0
 20
0.0
 30
0.0
  9
$PUCSORGLEFT
 10
0.0
 20
0.0
 30
0.0
  9
$PUCSORGRIGHT
 10
0.0
 20
0.0
 30
0.0
  9
$PUCSORGFRONT
 10
0.0
 20
0.0
 30
0.0
  9
$PUCSORGBACK
 10
0.0
 20
0.0
 30
0.0
  9
$USERI1
 70
     0
  9
$USERI2
 70
     0
  9
$USERI3
 70
     0
  9
$USERI4
 70
     0
  9
$USERI5
 70
     0
  9
$USERR1
 40
0.0
  9
$USERR2
 40
0.0
  9
$USERR3
 40
0.0
  9
$USERR4
 40
0.0
  9
$USERR5
 40
0.0
  9
$WORLDVIEW
 70
     1
  9
$SHADEDGE
 70
     3
  9
$SHADEDIF
 70
    70
  9
$TILEMODE
 70
     1
  9
$MAXACTVP
 70
    48
  9
$PINSBASE
 10
0.0
 20
0.0
 30
0.0
  9
$PLIMCHECK
 70
     0
  9
$PEXTMIN
 10
0.0
 20
0.0
 30
0.0
  9
$PEXTMAX
 10
0.0
 20
0.0
 30
0.0
  9
$PLIMMIN
 10
0.0
 20
0.0
  9
$PLIMMAX
 10
0.0
 20
0.0
  9
$UNITMODE
 70
     0
  9
$VISRETAIN
 70
     0
  9
$PLINEGEN
 70
     0
  9
$PSLTSCALE
 70
     1
  9
$TREEDEPTH
 70
  3020
  9
$CMLSTYLE
  2
STANDARD
  9
$CMLJUST
 70
     0
  9
$CMLSCALE
 40
20.0
  9
$PROXYGRAPHICS
 70
     1
  9
$MEASUREMENT
 70
     1
  9
$CELWEIGHT
370
    -1
  9
$ENDCAPS
280
     0
  9
$JOINSTYLE
280
     0
  9
$LWDISPLAY
290
     0
  9
$INSUNITS
 70
     0
  9
$HYPERLINKBASE
  1

  9
$STYLESHEET
  1

  9
$XEDIT
290
     1
  9
$CEPSNTYPE
380
     0
  9
$PSTYLEMODE
290
     1
  9
$FINGERPRINTGUID
  2
{19092E7D-0C0E-4B7B-B081-9B8BAA15BEE1}
  9
$VERSIONGUID
  2
{E66D4264-26FA-4212-83A2-0B1F25467364}
  9
$EXTNAMES
290
     1
  9
$PSVPSCALE
 40
0.0
  9
$OLESTARTUP
290
     0
  0
ENDSEC
  0
SECTION
  2
CLASSES
  0
CLASS
  1
LWPOLYLINE
  2
AcDbPolyline
  3
AutoCAD 2000
 90
    32768
280
     0
281
     1
  0
CLASS
  1
IMAGE
  2
AcDbRasterImage
  3
ISM
 90
    32895
280
     0
281
     1
  0
CLASS
  1
OLE2FRAME
  2
AcDbOle2Frame
  3
AutoCAD 2000
 90
    32768
280
     0
281
     1
  0
CLASS
  1
HATCH
  2
AcDbHatch
  3
AutoCAD 2000
 90
    32768
280
     0
281
     1
  0
CLASS
  1
DICTIONARYVAR
  2
AcDbDictionaryVar
  3
AutoCAD 2000
 90
    32768
280
     0
281
     0
  0
CLASS
  1
RASTERVARIABLES
  2
AcDbRasterVariables
  3
ISM
 90
    32768
280
     0
281
     0
  0
CLASS
  1
IMAGEDEF
  2
AcDbRasterImageDef
  3
ISM
 90
    32768
280
     0
281
     0
  0
CLASS
  1
IMAGEDEF_REACTOR
  2
AcDbRasterImageDefReactor
  3
ISM
 90
    32769
280
     0
281
     0
  0
CLASS
  1
IDBUFFER
  2
AcDbIdBuffer
  3
AutoCAD 2000
 90
    32768
280
     0
281
     0
  0
CLASS
  1
SPATIAL_FILTER
  2
AcDbSpatialFilter
  3
AutoCAD 2000
 90
    32768
280
     0
281
     0
  0
CLASS
  1
XRECORD
  2
AcDbXrecord
  3
AutoCAD 2000
 90
    32768
280
     0
281
     0
  0
CLASS
  1
SORTENTSTABLE
  2
AcDbSortentsTable
  3
AutoCAD 2000
 90
    32768
280
     0
281
     0
  0
CLASS
  1
LAYER_INDEX
  2
AcDbLayerIndex
  3
AutoCAD 2000
 90
    32768
280
     0
281
     0
  0
CLASS
  1
SPATIAL_INDEX
  2
AcDbSpatialIndex
  3
AutoCAD 2000
 90
    32768
280
     0
281
     0
  0
CLASS
  1
OBJECT_PTR
  2
CAseDLPNTableRecord
  3
"ASE-LPNTableRecord"
 90
    32769
280
     0
281
     0
  0
CLASS
  1
LAYOUT
  2
AcDbLayout
  3
AutoCAD 2000
 90
        0
280
     0
281
     0
  0
CLASS
  1
PLOTSETTINGS
  2
AcDbPlotSettings
  3
AutoCAD 2000
 90
    32768
280
     0
281
     0
  0
CLASS
  1
ACDBDICTIONARYWDFLT
  2
AcDbDictionaryWithDefault
  3
AutoCAD 2000
 90
        0
280
     0
281
     0
  0
CLASS
  1
ACDBPLACEHOLDER
  2
AcDbPlaceHolder
  3
AutoCAD 2000
 90
        0
280
     0
281
     0
  0
CLASS
  1
VBA_PROJECT
  2
AcDbVbaProject
  3
"acadvba"
 90
    32768
280
     0
281
     0
  0
CLASS
  1
WIPEOUT
  2
AcDbWipeout
  3
WipeOut|AutoCAD Express Tool|expresstools@autodesk.com
 90
    32895
280
     0
281
     1
  0
CLASS
  1
WIPEOUTVARIABLES
  2
AcDbWipeoutVariables
  3
WipeOut|AutoCAD Express Tool|expresstools@autodesk.com
 90
    32768
280
     0
281
     0
  0
CLASS
  1
RTEXT
  2
RText
  3
RText|AutoCAD Express Tool|expresstools@autodesk.com
 90
    32768
280
     0
281
     1
  0
CLASS
  1
ARCALIGNEDTEXT
  2
AcDbArcAlignedText
  3
ATEXT|AutoCAD Express Tool|expresstools@autodesk.com
 90
    32768
280
     0
281
     1
  0
ENDSEC
  0
SECTION
  2
TABLES
  0
TABLE
  2
VPORT
  5
7
330
0
100
AcDbSymbolTable
 70
     2
  0
VPORT
  5
54D0
330
7
100
AcDbSymbolTableRecord
100
AcDbViewportTableRecord
  2
*Active
 70
     0
 10
0.0
 20
0.0
 11
1.0
 21
1.0
 12
367.2418458688033
 22
260.6262268966756
 13
0.0
 23
0.0
 14
1.0
 24
1.0
 15
0.0
 25
0.0
 16
0.0
 26
0.0
 36
1.0
 17
0.0
 27
0.0
 37
0.0
 40
412.9670413853609
 41
1.788867562380038
 42
50.0
 43
0.0
 44
0.0
 50
0.0
 51
0.0
 71
     0
 72
   100
 73
     1
 74
     1
 75
     0
 76
     0
 77
     0
 78
     0
281
     0
 65
     1
110
0.0
120
0.0
130
0.0
111
1.0
121
0.0
131
0.0
112
0.0
122
1.0
132
0.0
 79
     0
146
0.0
  0
ENDTAB
  0
TABLE
  2
LTYPE
  5
4
330
0
100
AcDbSymbolTable
 70
     2
  0
LTYPE
  5
11
330
4
100
AcDbSymbolTableRecord
100
AcDbLinetypeTableRecord
  2
BYBLOCK
 70
     0
  3

 72
    65
 73
     0
 40
0.0
  0
LTYPE
  5
12
330
4
100
AcDbSymbolTableRecord
100
AcDbLinetypeTableRecord
  2
BYLAYER
 70
     0
  3

 72
    65
 73
     0
 40
0.0
  0
LTYPE
  5
13
330
4
100
AcDbSymbolTableRecord
100
AcDbLinetypeTableRecord
  2
CONTINUOUS
 70
     0
  3
Solid line
 72
    65
 73
     0
 40
0.0
  0
LTYPE
  5
5481
330
4
100
AcDbSymbolTableRecord
100
AcDbLinetypeTableRecord
  2
DASHED
 70
     0
  3
Dashed __ __ __ __ __ __ __ __ __ __ __ __ __ _
 72
    65
 73
     2
 40
19.04999999999996
 49
12.7
 74
     0
 49
-6.349999999999997
 74
     0
  0
ENDTAB
  0
TABLE
  2
LAYER
  5
2
330
0
100
AcDbSymbolTable
 70
     1
  0
LAYER
  5
14
330
2
100
AcDbSymbolTableRecord
100
AcDbLayerTableRecord
  2
0
 70
     0
 62
     7
  6
CONTINUOUS
370
    -3
390
5466
  0
ENDTAB
  0
TABLE
  2
STYLE
  5
3
330
0
100
AcDbSymbolTable
 70
     2
  0
STYLE
  5
17
330
3
100
AcDbSymbolTableRecord
100
AcDbTextStyleTableRecord
  2
STANDARD
 70
     0
 40
0.0
 41
1.0
 50
0.0
 71
     0
 42
0.0
  3
txt
  4

  0
STYLE
  5
5480
330
3
100
AcDbSymbolTableRecord
100
AcDbTextStyleTableRecord
  2

 70
     1
 40
0.0
 41
1.0
 50
0.0
 71
     0
 42
0.2
  3
ltypeshp.shx
  4

  0
ENDTAB
  0
TABLE
  2
VIEW
  5
5
330
0
100
AcDbSymbolTable
 70
     0
  0
ENDTAB
  0
TABLE
  2
UCS
  5
6
330
0
100
AcDbSymbolTable
 70
     0
  0
ENDTAB
  0
TABLE
  2
APPID
  5
8
330
0
100
AcDbSymbolTable
 70
     1
  0
APPID
  5
16
330
8
100
AcDbSymbolTableRecord
100
AcDbRegAppTableRecord
  2
ACAD
 70
     0
  0
ENDTAB
  0
TABLE
  2
DIMSTYLE
  5
9
330
0
100
AcDbSymbolTable
 70
     1
100
AcDbDimStyleTable
 71
     1
340
18
  0
DIMSTYLE
105
18
330
9
100
AcDbSymbolTableRecord
100
AcDbDimStyleTableRecord
  2
STANDARD
 70
     0
340
17
  0
ENDTAB
  0
TABLE
  2
BLOCK_RECORD
  5
1
330
0
100
AcDbSymbolTable
 70
     0
  0
BLOCK_RECORD
  5
A
330
1
100
AcDbSymbolTableRecord
100
AcDbBlockTableRecord
  2
*MODEL_SPACE
340
5469
  0
BLOCK_RECORD
  5
B
330
1
100
AcDbSymbolTableRecord
100
AcDbBlockTableRecord
  2
*PAPER_SPACE
340
546A
  0
ENDTAB
  0
ENDSEC
  0
SECTION
  2
BLOCKS
  0
BLOCK
  5
D
330
A
100
AcDbEntity
  8
0
100
AcDbBlockBegin
  2
*MODEL_SPACE
 70
     0
 10
0.0
 20
0.0
 30
0.0
  3
*MODEL_SPACE
  1

  0
ENDBLK
  5
E
330
A
100
AcDbEntity
  8
0
100
AcDbBlockEnd
  0
BLOCK
  5
F
330
B
100
AcDbEntity
 67
     1
  8
0
100
AcDbBlockBegin
  2
*PAPER_SPACE
 70
     0
 10
0.0
 20
0.0
 30
0.0
  3
*PAPER_SPACE
  1

  0
ENDBLK
  5
10
330
B
100
AcDbEntity
 67
     1
  8
0
100
AcDbBlockEnd
  0
ENDSEC
  0
SECTION
  2
ENTITIES
  0
LINE
  5
4C79
330
A
100
AcDbEntity
  8
0
  6
Continuous
 62
     7
 48
0.0875
100
AcDbLine
 10
620.945099
 20
132.980926
 30
0.0
 11
620.945099
 21
125.9809259999999
 31
0.0
  0
LINE
  5
4C7A
330
A
100
AcDbEntity
  8
0
  6
Continuous
 62
     7
100
AcDbLine
 10
462.5451349999996
 20
116.700928
 30
0.0
 11
462.5451349999996
 21
400.7009279999998
 31
0.0
  0
ARC
  5
4C7B
330
A
100
AcDbEntity
  8
0
  6
Continuous
 62
     7
100
AcDbCircle
 10
463.5451349999995
 20
115.700928
 30
0.0
 40
1.0
100
AcDbArc
 50
270.000001
 51
0.00001
  0
LINE
  5
4C7C
330
A
100
AcDbEntity
  8
0
  6
Continuous
 62
     7
 48
0.1375
100
AcDbLine
 10
463.5451349999995
 20
114.700928
 30
0.0
 11
452.5451349999998
 21
114.700928
 31
0.0
  0
LINE
  5
4C7E
330
A
100
AcDbEntity
  8
0
  6
Continuous
 62
     7
 48
0.125
100
AcDbLine
 10
462.5451349999996
 20
116.700928
 30
0.0
 11
451.045867
 21
116.700928
 31
0.0
  0
LINE
  5
4C7F
330
A
100
AcDbEntity
  8
0
  6
Continuous
 62
     7
 48
0.125
100
AcDbLine
 10
462.5451349999996
 20
400.7009279999998
 30
0.0
 11
452.5451349999998
 21
400.7009279999998
 31
0.0
  0
LINE
  5
4C81
330
A
100
AcDbEntity
  8
0
  6
Continuous
 62
     7
 48
0.1375
100
AcDbLine
 10
463.5451349999995
 20
402.7009279999998
 30
0.0
 11
452.5451349999998
 21
402.7009279999998
 31
0.0
  0
ARC
  5
4C82
330
A
100
AcDbEntity
  8
0
  6
Continuous
 62
     7
100
AcDbCircle
 10
463.5451349999995
 20
401.7009279999999
 30
0.0
 40
1.0
100
AcDbArc
 50
0.0
 51
90.00000300000001
  0
LINE
  5
4C83
330
A
100
AcDbEntity
  8
0
  6
Continuous
 62
     7
100
AcDbLine
 10
464.5451349999998
 20
115.700928
 30
0.0
 11
464.5451349999998
 21
401.7009279999999
 31
0.0
  0
LINE
  5
4C84
330
A
100
AcDbEntity
  8
0
  6
Continuous
 62
     7
 48
0.006243
100
AcDbLine
 10
451.5451349999998
 20
400.7009279999998
 30
0.0
 11
451.0456849999997
 21
400.7009279999998
 31
0.0
  0
LINE
  5
4C85
330
A
100
AcDbEntity
  8
0
  6
Continuous
 62
     7
 48
0.0125
100
AcDbLine
 10
452.5451349999998
 20
400.7009279999998
 30
0.0
 11
451.5451349999998
 21
400.7009279999998
 31
0.0
  0
LINE
  5
4C88
330
A
100
AcDbEntity
  8
0
  6
Continuous
 62
     7
 48
0.015628
100
AcDbLine
 10
444.7953789999998
 20
402.7009279999998
 30
0.0
 11
443.5451349999998
 21
402.7009279999998
 31
0.0
  0
LINE
  5
4C89
330
A
100
AcDbEntity
  8
0
  6
Continuous
 62
     7
 48
0.084372
100
AcDbLine
 10
451.5451349999998
 20
402.7009279999998
 30
0.0
 11
444.7953789999998
 21
402.7009279999998
 31
0.0
  0
LINE
  5
4C8A
330
A
100
AcDbEntity
  8
0
  6
Continuous
 62
     7
 48
0.0125
100
AcDbLine
 10
452.5451349999998
 20
402.7009279999998
 30
0.0
 11
451.5451349999998
 21
402.7009279999998
 31
0.0
  0
LINE
  5
4C8D
330
A
100
AcDbEntity
  8
0
  6
Continuous
 62
     7
 48
0.0125
100
AcDbLine
 10
452.5451349999998
 20
114.700928
 30
0.0
 11
451.5451349999998
 21
114.700928
 31
0.0
  0
LINE
  5
4C90
330
A
100
AcDbEntity
  8
0
  6
Continuous
 62
     7
 48
0.084372
100
AcDbLine
 10
451.5451349999998
 20
114.700928
 30
0.0
 11
444.7953789999998
 21
114.700928
 31
0.0
  0
LINE
  5
4C91
330
A
100
AcDbEntity
  8
0
  6
Continuous
 62
     7
 48
0.015628
100
AcDbLine
 10
444.7953789999998
 20
114.700928
 30
0.0
 11
443.5451349999998
 21
114.700928
 31
0.0
  0
LINE
  5
4C94
330
A
100
AcDbEntity
  8
0
  6
Continuous
 62
     7
 48
0.008201
100
AcDbLine
 10
443.5451349999998
 20
114.700928
 30
0.0
 11
443.5451349999998
 21
115.356994
 31
0.0
  0
LINE
  5
4C95
330
A
100
AcDbEntity
  8
0
  6
Continuous
 62
     7
 48
0.008202
100
AcDbLine
 10
443.5451349999998
 20
402.044738
 30
0.0
 11
443.5451349999998
 21
402.7009279999998
 31
0.0
  0
LINE
  5
4C96
330
A
100
AcDbEntity
  8
0
  6
Continuous
 62
     7
100
AcDbLine
 10
466.5451349999996
 20
119.900924
 30
0.0
 11
619.945099
 21
119.900924
 31
0.0
  0
LINE
  5
4CA0
330
A
100
AcDbEntity
  8
0
  6
Continuous
 62
     7
100
AcDbLine
 10
466.5451349999996
 20
397.500916
 30
0.0
 11
619.945099
 21
397.500916
 31
0.0
  0
LINE
  5
4CAB
330
A
100
AcDbEntity
  8
0
  6
Continuous
 62
     7
 48
0.0125
100
AcDbLine
 10
619.945099
 20
119.900924
 30
0.0
 11
620.945099
 21
119.900924
 31
0.0
  0
LINE
  5
4CAC
330
A
100
AcDbEntity
  8
0
  6
Continuous
 62
     7
 48
0.00625
100
AcDbLine
 10
620.945099
 20
120.4009239999999
 30
0.0
 11
620.945099
 21
119.900924
 31
0.0
  0
LINE
  5
4CAF
330
A
100
AcDbEntity
  8
0
  6
Continuous
 62
     7
100
AcDbLine
 10
620.945099
 20
397.000916
 30
0.0
 11
620.945099
 21
120.4009239999999
 31
0.0
  0
LINE
  5
4CB0
330
A
100
AcDbEntity
  8
0
  6
Continuous
 62
     7
 48
0.00625
100
AcDbLine
 10
620.945099
 20
397.500916
 30
0.0
 11
620.945099
 21
397.000916
 31
0.0
  0
LINE
  5
4CB1
330
A
100
AcDbEntity
  8
0
  6
Continuous
 62
     7
 48
0.0125
100
AcDbLine
 10
619.945099
 20
397.500916
 30
0.0
 11
620.945099
 21
397.500916
 31
0.0
  0
LINE
  5
4CB2
330
A
100
AcDbEntity
  8
0
  6
Continuous
 62
     7
 48
0.01875
100
AcDbLine
 10
614.4450989999998
 20
397.500916
 30
0.0
 11
612.945099
 21
397.500916
 31
0.0
  0
LINE
  5
4CB3
330
A
100
AcDbEntity
  8
0
  6
Continuous
 62
     7
 48
0.025
100
AcDbLine
 10
464.5451349999998
 20
402.7009279999998
 30
0.0
 11
466.5451349999996
 21
402.7009279999998
 31
0.0
  0
LINE
  5
4CB4
330
A
100
AcDbEntity
  8
0
  6
Continuous
 62
     7
 48
0.025
100
AcDbLine
 10
464.5451349999998
 20
114.700928
 30
0.0
 11
466.5451349999996
 21
114.700928
 31
0.0
  0
LINE
  5
4CB5
330
A
100
AcDbEntity
  8
0
  6
Continuous
 62
     7
100
AcDbLine
 10
464.5451349999998
 20
402.7009279999998
 30
0.0
 11
464.5451349999998
 21
114.700928
 31
0.0
  0
LINE
  5
4CB6
330
A
100
AcDbEntity
  8
0
  6
Continuous
 62
     7
100
AcDbLine
 10
466.5451349999996
 20
178.1009219999998
 30
0.0
 11
466.5451349999996
 21
114.700928
 31
0.0
  0
LINE
  5
4CB7
330
A
100
AcDbEntity
  8
0
  6
Continuous
 62
     7
100
AcDbLine
 10
466.5451349999996
 20
402.7009279999998
 30
0.0
 11
466.5451349999996
 21
242.1009219999997
 31
0.0
  0
LINE
  5
4CBA
330
A
100
AcDbEntity
  8
0
  6
Continuous
 62
     7
 48
0.05625
100
AcDbLine
 10
455.5458669999999
 20
399.2009279999998
 30
0.0
 11
451.045867
 21
399.2009279999998
 31
0.0
  0
LINE
  5
4CBB
330
A
100
AcDbEntity
  8
0
  6
Continuous
 62
     7
 48
0.06875
100
AcDbLine
 10
461.0458669999998
 20
399.2009279999998
 30
0.0
 11
455.5458669999999
 21
399.2009279999998
 31
0.0
  0
LINE
  5
4CBE
330
A
100
AcDbEntity
  8
0
  6
Continuous
 62
     7
 48
0.044084
100
AcDbLine
 10
442.7717589999998
 20
401.9770499999998
 30
0.0
 11
446.285033
 21
402.2844239999998
 31
0.0
  0
LINE
  5
4CD0
330
A
100
AcDbEntity
  8
0
  6
Continuous
 62
     7
100
AcDbLine
 10
452.5458669999999
 20
213.8951719999997
 30
0.0
 11
452.5458669999999
 21
303.5066839999998
 31
0.0
  0
ARC
  5
4CD1
330
A
100
AcDbEntity
  8
0
  6
Continuous
 62
     7
100
AcDbCircle
 10
454.545899
 20
303.5066519999998
 30
0.0
 40
2.000016
100
AcDbArc
 50
99.46269
 51
179.999691
  0
LINE
  5
4CD2
330
A
100
AcDbEntity
  8
0
  6
Continuous
 62
     7
 48
0.076035
100
AcDbLine
 10
455.5458669999999
 20
305.7009279999998
 30
0.0
 11
461.5458669999998
 21
306.7009279999997
 31
0.0
  0
LINE
  5
4CD3
330
A
100
AcDbEntity
  8
0
  6
Continuous
 62
     7
 48
0.016839
100
AcDbLine
 10
454.2170709999998
 20
305.479462
 30
0.0
 11
455.5458669999999
 21
305.7009279999998
 31
0.0
  0
LINE
  5
4CDF
330
A
100
AcDbEntity
  8
0
  6
Continuous
 62
     7
 48
0.054018
100
AcDbLine
 10
451.045867
 20
114.700928
 30
0.0
 11
446.740845
 21
115.0775759999997
 31
0.0
  0
LINE
  5
4CE0
330
A
100
AcDbEntity
  8
0
  6
Continuous
 62
     7
 48
0.037357
100
AcDbLine
 10
451.045867
 20
114.700928
 30
0.0
 11
451.045867
 21
118.200928
 31
0.0
  0
LINE
  5
4CE2
330
A
100
AcDbEntity
  8
0
  6
Continuous
 62
     7
 48
0.008839
100
AcDbLine
 10
461.5458669999998
 20
118.700928
 30
0.0
 11
461.0458669999998
 21
118.200928
 31
0.0
  0
LINE
  5
4CE3
330
A
100
AcDbEntity
  8
0
  6
Continuous
 62
     7
100
AcDbLine
 10
461.5458669999998
 20
210.7009279999999
 30
0.0
 11
461.5458669999998
 21
118.700928
 31
0.0
  0
LINE
  5
4CE4
330
A
100
AcDbEntity
  8
0
  6
Continuous
 62
     7
 48
0.076035
100
AcDbLine
 10
455.5458669999999
 20
211.7009279999999
 30
0.0
 11
461.5458669999998
 21
210.7009279999999
 31
0.0
  0
LINE
  5
4CE5
330
A
100
AcDbEntity
  8
0
  6
Continuous
 62
     7
100
AcDbLine
 10
455.5458669999999
 20
118.200928
 30
0.0
 11
455.5458669999999
 21
211.7009279999999
 31
0.0
  0
LINE
  5
4CE6
330
A
100
AcDbEntity
  8
0
  6
Continuous
 62
     7
 48
0.06875
100
AcDbLine
 10
455.5458669999999
 20
118.200928
 30
0.0
 11
461.0458669999998
 21
118.200928
 31
0.0
  0
LINE
  5
4CE7
330
A
100
AcDbEntity
  8
0
  6
Continuous
 62
     7
 48
0.016839
100
AcDbLine
 10
455.5458669999999
 20
211.7009279999999
 30
0.0
 11
454.2170709999998
 21
211.9223939999999
 31
0.0
  0
ARC
  5
4CE8
330
A
100
AcDbEntity
  8
0
  6
Continuous
 62
     7
100
AcDbCircle
 10
454.545899
 20
213.8952019999996
 30
0.0
 40
2.000016
100
AcDbArc
 50
180.0003369999999
 51
260.53733
  0
LINE
  5
4CEA
330
A
100
AcDbEntity
  8
0
  6
Continuous
 62
     7
 48
0.005697
100
AcDbLine
 10
446.287017
 20
115.117278
 30
0.0
 11
446.7410269999998
 21
115.0775599999999
 31
0.0
  0
LINE
  5
4CEC
330
A
100
AcDbEntity
  8
0
  6
Continuous
 62
     7
100
AcDbLine
 10
461.5458669999998
 20
306.7009279999997
 30
0.0
 11
461.5458669999998
 21
398.7009279999998
 31
0.0
  0
LINE
  5
4CED
330
A
100
AcDbEntity
  8
0
  6
Continuous
 62
     7
100
AcDbLine
 10
461.5458669999998
 20
306.7009279999997
 30
0.0
 11
461.5458669999998
 21
210.7009279999999
 31
0.0
  0
LINE
  5
4CEE
330
A
100
AcDbEntity
  8
0
  6
Continuous
 62
     7
 48
0.054018
100
AcDbLine
 10
446.740845
 20
402.32428
 30
0.0
 11
451.045867
 21
402.7009279999998
 31
0.0
  0
LINE
  5
4CFB
330
A
100
AcDbEntity
  8
0
  6
Continuous
 62
     7
 48
0.037357
100
AcDbLine
 10
451.045867
 20
399.7123419999998
 30
0.0
 11
451.045867
 21
402.7009279999998
 31
0.0
  0
LINE
  5
4CFC
330
A
100
AcDbEntity
  8
0
  6
Continuous
 62
     7
 48
0.044082
100
AcDbLine
 10
442.7718809999998
 20
115.4248199999996
 30
0.0
 11
446.285033
 21
115.117446
 31
0.0
  0
LINE
  5
4D00
330
A
100
AcDbEntity
  8
0
  6
Continuous
 62
     7
100
AcDbLine
 10
442.8390189999998
 20
387.8488274317306
 30
0.0
 11
442.8390189999998
 21
129.5530288974084
 31
0.0
  0
LINE
  5
4D01
330
A
100
AcDbEntity
  8
0
  6
Continuous
 62
     7
 48
0.05625
100
AcDbLine
 10
451.045867
 20
118.200928
 30
0.0
 11
455.5458669999999
 21
118.200928
 31
0.0
  0
LINE
  5
4D06
330
A
100
AcDbEntity
  8
0
  6
Continuous
 62
     7
 48
0.005719
100
AcDbLine
 10
446.285033
 20
402.2844239999998
 30
0.0
 11
446.740845
 21
402.32428
 31
0.0
  0
LINE
  5
4D07
330
A
100
AcDbEntity
  8
0
  6
Continuous
 62
     7
 48
0.008839
100
AcDbLine
 10
461.5458669999998
 20
398.7009279999998
 30
0.0
 11
461.0458669999998
 21
399.2009279999998
 31
0.0
  0
LINE
  5
4D08
330
A
100
AcDbEntity
  8
0
  6
Continuous
 62
     7
100
AcDbLine
 10
455.5458669999999
 20
305.7009279999998
 30
0.0
 11
455.5458669999999
 21
399.2009279999998
 31
0.0
  0
LINE
  5
4D09
330
A
100
AcDbEntity
  8
0
  6
Continuous
 62
     7
 48
0.006393
100
AcDbLine
 10
451.045867
 20
399.2009279999998
 30
0.0
 11
451.045867
 21
399.7123419999998
 31
0.0
  0
ARC
  5
4D0A
330
A
100
AcDbEntity
  8
0
  6
Continuous
 62
     7
100
AcDbCircle
 10
443.0331729999998
 20
398.9885259999998
 30
0.0
 40
2.999941999999998
100
AcDbArc
 50
94.99685300000001
 51
180.0007699999999
  0
LINE
  5
4D0B
330
A
100
AcDbEntity
  8
0
  6
Continuous
 62
     7
 48
0.053222
100
AcDbLine
 10
442.8701469999999
 20
129.5878599999996
 30
0.0
 11
440.0329289999998
 21
126.4131159999999
 31
0.0
  0
LINE
  5
4D0C
330
A
100
AcDbEntity
  8
0
  6
Continuous
 62
     7
 48
0.053223
100
AcDbLine
 10
442.8701469999999
 20
387.813996
 30
0.0
 11
440.0329289999998
 21
390.98877
 31
0.0
  0
ARC
  5
4D0D
330
A
100
AcDbEntity
  8
0
  6
Continuous
 62
     7
100
AcDbCircle
 10
443.0331729999998
 20
118.4133599999997
 30
0.0
 40
2.999941999999998
100
AcDbArc
 50
179.9992259999999
 51
265.003116
  0
LINE
  5
4D0E
330
A
100
AcDbEntity
  8
0
  6
Continuous
 62
     7
 48
0.1
100
AcDbLine
 10
440.0332029999995
 20
398.988464
 30
0.0
 11
440.0332029999995
 21
390.9884339999998
 31
0.0
  0
LINE
  5
4D0F
330
A
100
AcDbEntity
  8
0
  6
Continuous
 62
     7
 48
0.1
100
AcDbLine
 10
440.0332029999995
 20
126.413422
 30
0.0
 11
440.0332029999995
 21
118.4133899999999
 31
0.0
  0
LINE
  5
4D14
330
A
100
AcDbEntity
  8
0
  6
Continuous
 62
     7
 48
0.007158
100
AcDbLine
 10
445.945129
 20
402.7009279999998
 30
0.0
 11
446.5177609999998
 21
402.7009279999998
 31
0.0
  0
LINE
  5
4D15
330
A
100
AcDbEntity
  8
0
  6
Continuous
 62
     7
 48
0.020342
100
AcDbLine
 10
446.5177609999998
 20
402.7009279999998
 30
0.0
 11
448.145141
 21
402.7009279999998
 31
0.0
  0
LINE
  5
4D18
330
A
100
AcDbEntity
  8
0
  6
Continuous
 62
     7
 48
0.00625
100
AcDbLine
 10
641.2751149999998
 20
320.4009399999999
 30
0.0
 11
641.2751149999998
 21
320.9009399999998
 31
0.0
  0
LINE
  5
4D19
330
A
100
AcDbEntity
  8
0
  6
Continuous
 62
     7
100
AcDbLine
 10
641.2751149999998
 20
320.4009399999999
 30
0.0
 11
641.2751149999998
 21
252.90094
 31
0.0
  0
LINE
  5
4D1A
330
A
100
AcDbEntity
  8
0
  6
Continuous
 62
     7
 48
0.00625
100
AcDbLine
 10
641.2751149999998
 20
252.40094
 30
0.0
 11
641.2751149999998
 21
252.90094
 31
0.0
  0
ARC
  5
4D1B
330
A
100
AcDbEntity
  8
0
  6
Continuous
 62
     7
100
AcDbCircle
 10
640.7751149999994
 20
320.9009399999998
 30
0.0
 40
0.5
100
AcDbArc
 50
0.0
 51
90.00000300000001
  0
ARC
  5
4D21
330
A
100
AcDbEntity
  8
0
  6
Continuous
 62
     7
100
AcDbCircle
 10
640.7751149999994
 20
252.40094
 30
0.0
 40
0.5
100
AcDbArc
 50
270.000001
 51
0.00001
  0
LINE
  5
4D22
330
A
100
AcDbEntity
  8
0
  6
Continuous
 62
     7
 48
0.016028
100
AcDbLine
 10
646.0751029999998
 20
255.1009219999996
 30
0.0
 11
646.0751029999998
 21
256.3831479999998
 31
0.0
  0
LINE
  5
4D23
330
A
100
AcDbEntity
  8
0
  6
Continuous
 62
     7
 48
0.06
100
AcDbLine
 10
641.2751149999998
 20
260.90094
 30
0.0
 11
646.0751029999998
 21
260.90094
 31
0.0
  0
ARC
  5
4D24
330
A
100
AcDbEntity
  8
0
  6
Continuous
 62
     7
100
AcDbCircle
 10
651.3751529999997
 20
311.9009399999999
 30
0.0
 40
9.0
100
AcDbArc
 50
180.000005
 51
233.921793
  0
LINE
  5
4D25
330
A
100
AcDbEntity
  8
0
  6
Continuous
 62
     7
 48
0.00625
100
AcDbLine
 10
642.3751529999996
 20
311.9009399999999
 30
0.0
 11
642.3751529999996
 21
312.4009399999998
 31
0.0
  0
LINE
  5
4D26
330
A
100
AcDbEntity
  8
0
  6
Continuous
 62
     7
 48
0.01375
100
AcDbLine
 10
641.2751149999998
 20
312.4009399999998
 30
0.0
 11
642.3751529999996
 21
312.4009399999998
 31
0.0
  0
LINE
  5
4D27
330
A
100
AcDbEntity
  8
0
  6
Continuous
 62
     7
 48
0.01375
100
AcDbLine
 10
643.4751269999998
 20
312.4009399999998
 30
0.0
 11
642.3751529999996
 21
312.4009399999998
 31
0.0
  0
LINE
  5
4D2A
330
A
100
AcDbEntity
  8
0
  6
Continuous
 62
     7
 48
0.247875
100
AcDbLine
 10
620.945099
 20
321.4009399999998
 30
0.0
 11
640.7751149999994
 21
321.4009399999998
 31
0.0
  0
LINE
  5
4D2D
330
A
100
AcDbEntity
  8
0
  6
Continuous
 62
     7
 48
0.247875
100
AcDbLine
 10
620.945099
 20
251.9009399999999
 30
0.0
 11
640.7751149999994
 21
251.9009399999999
 31
0.0
  0
ARC
  5
4D2E
330
A
100
AcDbEntity
  8
0
  6
Continuous
 62
     7
100
AcDbCircle
 10
643.4751269999998
 20
314.4009399999998
 30
0.0
 40
2.0
100
AcDbArc
 50
270.000001
 51
0.00001
  0
LINE
  5
4D2F
330
A
100
AcDbEntity
  8
0
  6
Continuous
 62
     7
 48
0.0125
100
AcDbLine
 10
645.4751269999998
 20
315.4009399999998
 30
0.0
 11
645.4751269999998
 21
314.4009399999998
 31
0.0
  0
ARC
  5
4D30
330
A
100
AcDbEntity
  8
0
  6
Continuous
 62
     7
100
AcDbCircle
 10
645.9751269999998
 20
315.4009399999998
 30
0.0
 40
0.5
100
AcDbArc
 50
90.00000300000001
 51
180.000005
  0
LINE
  5
4D31
330
A
100
AcDbEntity
  8
0
  6
Continuous
 62
     7
 48
0.06375
100
AcDbLine
 10
651.0751029999997
 20
315.9009399999998
 30
0.0
 11
645.9751269999998
 21
315.9009399999998
 31
0.0
  0
ARC
  5
4D32
330
A
100
AcDbEntity
  8
0
  6
Continuous
 62
     7
100
AcDbCircle
 10
651.0751029999997
 20
313.9009399999999
 30
0.0
 40
2.0
100
AcDbArc
 50
0.0
 51
90.00000300000001
  0
LINE
  5
4D33
330
A
100
AcDbEntity
  8
0
  6
Continuous
 62
     7
 48
0.00375
100
AcDbLine
 10
653.075103
 20
313.6009219999998
 30
0.0
 11
653.075103
 21
313.9009399999999
 31
0.0
  0
ARC
  5
4D34
330
A
100
AcDbEntity
  8
0
  6
Continuous
 62
     7
100
AcDbCircle
 10
651.3751529999997
 20
311.9009399999999
 30
0.0
 40
1.5
100
AcDbArc
 50
35.411114
 51
0.00001
  0
LINE
  5
4D36
330
A
100
AcDbEntity
  8
0
  6
Continuous
 62
     7
 48
0.00737
100
AcDbLine
 10
646.6645809999997
 20
255.489044
 30
0.0
 11
646.0751029999998
 21
255.4787279999999
 31
0.0
  0
LINE
  5
4D37
330
A
100
AcDbEntity
  8
0
  6
Continuous
 62
     7
 48
0.06
100
AcDbLine
 10
641.2751149999998
 20
255.1009219999996
 30
0.0
 11
646.0751029999998
 21
255.1009219999996
 31
0.0
  0
ARC
  5
4D38
330
A
100
AcDbEntity
  8
0
  6
Continuous
 62
     7
100
AcDbCircle
 10
651.3751529999997
 20
311.9009399999999
 30
0.0
 40
1.5
100
AcDbArc
 50
144.5940659999999
 51
180.000005
  0
LINE
  5
4D39
330
A
100
AcDbEntity
  8
0
  6
Continuous
 62
     7
 48
0.04375
100
AcDbLine
 10
649.8751529999997
 20
311.9009399999999
 30
0.0
 11
649.8751529999997
 21
308.4009399999998
 31
0.0
  0
ARC
  5
4D3A
330
A
100
AcDbEntity
  8
0
  6
Continuous
 62
     7
100
AcDbCircle
 10
651.3751529999997
 20
308.4009399999998
 30
0.0
 40
1.5
100
AcDbArc
 50
180.000005
 51
0.00001
  0
LINE
  5
4D3B
330
A
100
AcDbEntity
  8
0
  6
Continuous
 62
     7
 48
0.04375
100
AcDbLine
 10
652.8751529999997
 20
308.4009399999998
 30
0.0
 11
652.8751529999997
 21
311.9009399999999
 31
0.0
  0
ARC
  5
4D3C
330
A
100
AcDbEntity
  8
0
  6
Continuous
 62
     7
100
AcDbCircle
 10
651.3751529999997
 20
311.9009399999999
 30
0.0
 40
1.5
100
AcDbArc
 50
0.0
 51
35.405931
  0
ARC
  5
4D3D
330
A
100
AcDbEntity
  8
0
  6
Continuous
 62
     7
100
AcDbCircle
 10
652.8422549999994
 20
312.9437859999999
 30
0.0
 40
0.3
100
AcDbArc
 50
135.0
 51
215.405931
  0
ARC
  5
4D3E
330
A
100
AcDbEntity
  8
0
  6
Continuous
 62
     7
100
AcDbCircle
 10
649.9079889999998
 20
312.9437859999999
 30
0.0
 40
0.3
100
AcDbArc
 50
324.5940569999999
 51
45.0
  0
LINE
  5
4D3F
330
A
100
AcDbEntity
  8
0
  6
Continuous
 62
     7
 48
0.039687
100
AcDbLine
 10
650.1201469999998
 20
313.1559139999998
 30
0.0
 11
647.8751529999997
 21
315.4009399999998
 31
0.0
  0
LINE
  5
4D40
330
A
100
AcDbEntity
  8
0
  6
Continuous
 62
     7
 48
0.003751
100
AcDbLine
 10
647.8751529999997
 20
315.4009399999998
 30
0.0
 11
647.575103
 21
315.4009399999998
 31
0.0
  0
ARC
  5
4D41
330
A
100
AcDbEntity
  8
0
  6
Continuous
 62
     7
100
AcDbCircle
 10
647.575103
 20
313.9009399999999
 30
0.0
 40
1.5
100
AcDbArc
 50
90.00000300000001
 51
180.000005
  0
LINE
  5
4D42
330
A
100
AcDbEntity
  8
0
  6
Continuous
 62
     7
100
AcDbLine
 10
646.0751029999998
 20
256.4009399999999
 30
0.0
 11
646.0751029999998
 21
313.9009399999999
 31
0.0
  0
ARC
  5
4D43
330
A
100
AcDbEntity
  8
0
  6
Continuous
 62
     7
100
AcDbCircle
 10
647.075103
 20
256.4009399999999
 30
0.0
 40
1.0
100
AcDbArc
 50
180.000005
 51
270.000001
  0
LINE
  5
4D44
330
A
100
AcDbEntity
  8
0
  6
Continuous
 62
     7
 48
0.17125
100
AcDbLine
 10
647.075103
 20
255.4009399999999
 30
0.0
 11
660.775115
 21
255.4009399999999
 31
0.0
  0
LINE
  5
4D45
330
A
100
AcDbEntity
  8
0
  6
Continuous
 62
     7
 48
0.030848
100
AcDbLine
 10
654.3751529999997
 20
314.9009399999998
 30
0.0
 11
652.6301569999998
 21
313.1559139999998
 31
0.0
  0
LINE
  5
4D4A
330
A
100
AcDbEntity
  8
0
  6
Continuous
 62
     7
 48
0.01227
100
AcDbLine
 10
654.8751529999996
 20
315.4009399999998
 30
0.0
 11
655.8567189999997
 21
315.4009399999998
 31
0.0
  0
LINE
  5
4D4B
330
A
100
AcDbEntity
  8
0
  6
Continuous
 62
     7
 48
0.008839
100
AcDbLine
 10
654.8751529999996
 20
315.4009399999998
 30
0.0
 11
654.3751529999997
 21
314.9009399999998
 31
0.0
  0
LINE
  5
4D4C
330
A
100
AcDbEntity
  8
0
  6
Continuous
 62
     7
 48
0.00625
100
AcDbLine
 10
660.775115
 20
255.4009399999999
 30
0.0
 11
661.275115
 21
255.4009399999999
 31
0.0
  0
ARC
  5
4D4D
330
A
100
AcDbEntity
  8
0
  6
Continuous
 62
     7
100
AcDbCircle
 10
655.8567189999997
 20
312.4009399999998
 30
0.0
 40
3.0
100
AcDbArc
 50
11.578421
 51
90.00000300000001
  0
LINE
  5
4D50
330
A
100
AcDbEntity
  8
0
  6
Continuous
 62
     7
 48
0.154419
100
AcDbLine
 10
658.7956849999998
 20
313.0030519999998
 30
0.0
 11
661.275115
 21
300.90094
 31
0.0
  0
LINE
  5
4D52
330
A
100
AcDbEntity
  8
0
  6
Continuous
 62
     7
100
AcDbLine
 10
661.275115
 20
255.4009399999999
 30
0.0
 11
661.275115
 21
300.90094
 31
0.0
  0
LINE
  5
4D55
330
A
100
AcDbEntity
  8
0
  6
Continuous
 62
     7
 48
0.00625
100
AcDbLine
 10
641.2751149999998
 20
230.4009399999999
 30
0.0
 11
641.2751149999998
 21
230.9009399999999
 31
0.0
  0
LINE
  5
4D56
330
A
100
AcDbEntity
  8
0
  6
Continuous
 62
     7
100
AcDbLine
 10
641.2751149999998
 20
230.4009399999999
 30
0.0
 11
641.2751149999998
 21
162.9009399999999
 31
0.0
  0
LINE
  5
4D57
330
A
100
AcDbEntity
  8
0
  6
Continuous
 62
     7
 48
0.00625
100
AcDbLine
 10
641.2751149999998
 20
162.40094
 30
0.0
 11
641.2751149999998
 21
162.9009399999999
 31
0.0
  0
ARC
  5
4D58
330
A
100
AcDbEntity
  8
0
  6
Continuous
 62
     7
100
AcDbCircle
 10
640.7751149999994
 20
230.9009399999999
 30
0.0
 40
0.5
100
AcDbArc
 50
0.0
 51
90.00000300000001
  0
ARC
  5
4D5E
330
A
100
AcDbEntity
  8
0
  6
Continuous
 62
     7
100
AcDbCircle
 10
640.7751149999994
 20
162.40094
 30
0.0
 40
0.5
100
AcDbArc
 50
270.000001
 51
0.00001
  0
LINE
  5
4D5F
330
A
100
AcDbEntity
  8
0
  6
Continuous
 62
     7
 48
0.016028
100
AcDbLine
 10
646.0751029999998
 20
165.1009219999996
 30
0.0
 11
646.0751029999998
 21
166.3831479999998
 31
0.0
  0
LINE
  5
4D60
330
A
100
AcDbEntity
  8
0
  6
Continuous
 62
     7
 48
0.06
100
AcDbLine
 10
641.2751149999998
 20
170.90094
 30
0.0
 11
646.0751029999998
 21
170.90094
 31
0.0
  0
ARC
  5
4D61
330
A
100
AcDbEntity
  8
0
  6
Continuous
 62
     7
100
AcDbCircle
 10
651.3751529999997
 20
221.90094
 30
0.0
 40
9.0
100
AcDbArc
 50
180.000005
 51
233.921793
  0
LINE
  5
4D62
330
A
100
AcDbEntity
  8
0
  6
Continuous
 62
     7
 48
0.00625
100
AcDbLine
 10
642.3751529999996
 20
221.90094
 30
0.0
 11
642.3751529999996
 21
222.4009399999999
 31
0.0
  0
LINE
  5
4D63
330
A
100
AcDbEntity
  8
0
  6
Continuous
 62
     7
 48
0.01375
100
AcDbLine
 10
641.2751149999998
 20
222.4009399999999
 30
0.0
 11
642.3751529999996
 21
222.4009399999999
 31
0.0
  0
LINE
  5
4D64
330
A
100
AcDbEntity
  8
0
  6
Continuous
 62
     7
 48
0.01375
100
AcDbLine
 10
643.4751269999998
 20
222.4009399999999
 30
0.0
 11
642.3751529999996
 21
222.4009399999999
 31
0.0
  0
LINE
  5
4D67
330
A
100
AcDbEntity
  8
0
  6
Continuous
 62
     7
 48
0.247875
100
AcDbLine
 10
620.945099
 20
231.4009399999999
 30
0.0
 11
640.7751149999994
 21
231.4009399999999
 31
0.0
  0
LINE
  5
4D6A
330
A
100
AcDbEntity
  8
0
  6
Continuous
 62
     7
 48
0.247875
100
AcDbLine
 10
620.945099
 20
161.9009399999999
 30
0.0
 11
640.7751149999994
 21
161.9009399999999
 31
0.0
  0
ARC
  5
4D6B
330
A
100
AcDbEntity
  8
0
  6
Continuous
 62
     7
100
AcDbCircle
 10
643.4751269999998
 20
224.4009399999999
 30
0.0
 40
2.0
100
AcDbArc
 50
270.000001
 51
0.00001
  0
LINE
  5
4D6C
330
A
100
AcDbEntity
  8
0
  6
Continuous
 62
     7
 48
0.0125
100
AcDbLine
 10
645.4751269999998
 20
225.40094
 30
0.0
 11
645.4751269999998
 21
224.4009399999999
 31
0.0
  0
ARC
  5
4D6D
330
A
100
AcDbEntity
  8
0
  6
Continuous
 62
     7
100
AcDbCircle
 10
645.9751269999998
 20
225.40094
 30
0.0
 40
0.5
100
AcDbArc
 50
90.00000300000001
 51
180.000005
  0
LINE
  5
4D6E
330
A
100
AcDbEntity
  8
0
  6
Continuous
 62
     7
 48
0.06375
100
AcDbLine
 10
651.0751029999997
 20
225.90094
 30
0.0
 11
645.9751269999998
 21
225.90094
 31
0.0
  0
ARC
  5
4D6F
330
A
100
AcDbEntity
  8
0
  6
Continuous
 62
     7
100
AcDbCircle
 10
651.0751029999997
 20
223.90094
 30
0.0
 40
2.0
100
AcDbArc
 50
0.0
 51
90.00000300000001
  0
LINE
  5
4D70
330
A
100
AcDbEntity
  8
0
  6
Continuous
 62
     7
 48
0.00375
100
AcDbLine
 10
653.075103
 20
223.600922
 30
0.0
 11
653.075103
 21
223.90094
 31
0.0
  0
ARC
  5
4D71
330
A
100
AcDbEntity
  8
0
  6
Continuous
 62
     7
100
AcDbCircle
 10
651.3751529999997
 20
221.90094
 30
0.0
 40
1.5
100
AcDbArc
 50
35.411114
 51
0.00001
  0
LINE
  5
4D73
330
A
100
AcDbEntity
  8
0
  6
Continuous
 62
     7
 48
0.00737
100
AcDbLine
 10
646.6645809999997
 20
165.4890139999998
 30
0.0
 11
646.0751029999998
 21
165.4787599999996
 31
0.0
  0
LINE
  5
4D74
330
A
100
AcDbEntity
  8
0
  6
Continuous
 62
     7
 48
0.06
100
AcDbLine
 10
641.2751149999998
 20
165.1009219999996
 30
0.0
 11
646.0751029999998
 21
165.1009219999996
 31
0.0
  0
ARC
  5
4D75
330
A
100
AcDbEntity
  8
0
  6
Continuous
 62
     7
100
AcDbCircle
 10
651.3751529999997
 20
221.90094
 30
0.0
 40
1.5
100
AcDbArc
 50
144.5940659999999
 51
180.000005
  0
LINE
  5
4D76
330
A
100
AcDbEntity
  8
0
  6
Continuous
 62
     7
 48
0.04375
100
AcDbLine
 10
649.8751529999997
 20
221.90094
 30
0.0
 11
649.8751529999997
 21
218.4009399999999
 31
0.0
  0
ARC
  5
4D77
330
A
100
AcDbEntity
  8
0
  6
Continuous
 62
     7
100
AcDbCircle
 10
651.3751529999997
 20
218.4009399999999
 30
0.0
 40
1.5
100
AcDbArc
 50
180.000005
 51
0.00001
  0
LINE
  5
4D78
330
A
100
AcDbEntity
  8
0
  6
Continuous
 62
     7
 48
0.04375
100
AcDbLine
 10
652.8751529999997
 20
218.4009399999999
 30
0.0
 11
652.8751529999997
 21
221.90094
 31
0.0
  0
ARC
  5
4D79
330
A
100
AcDbEntity
  8
0
  6
Continuous
 62
     7
100
AcDbCircle
 10
651.3751529999997
 20
221.90094
 30
0.0
 40
1.5
100
AcDbArc
 50
0.0
 51
35.405931
  0
ARC
  5
4D7A
330
A
100
AcDbEntity
  8
0
  6
Continuous
 62
     7
100
AcDbCircle
 10
652.8422549999994
 20
222.9437859999999
 30
0.0
 40
0.3
100
AcDbArc
 50
135.0
 51
215.405931
  0
ARC
  5
4D7B
330
A
100
AcDbEntity
  8
0
  6
Continuous
 62
     7
100
AcDbCircle
 10
649.9079889999998
 20
222.9437859999999
 30
0.0
 40
0.3
100
AcDbArc
 50
324.5940569999999
 51
45.0
  0
LINE
  5
4D7C
330
A
100
AcDbEntity
  8
0
  6
Continuous
 62
     7
 48
0.039687
100
AcDbLine
 10
650.1201469999998
 20
223.1559139999995
 30
0.0
 11
647.8751529999997
 21
225.40094
 31
0.0
  0
LINE
  5
4D7D
330
A
100
AcDbEntity
  8
0
  6
Continuous
 62
     7
 48
0.003751
100
AcDbLine
 10
647.8751529999997
 20
225.40094
 30
0.0
 11
647.575103
 21
225.40094
 31
0.0
  0
ARC
  5
4D7E
330
A
100
AcDbEntity
  8
0
  6
Continuous
 62
     7
100
AcDbCircle
 10
647.575103
 20
223.90094
 30
0.0
 40
1.5
100
AcDbArc
 50
90.00000300000001
 51
180.000005
  0
LINE
  5
4D7F
330
A
100
AcDbEntity
  8
0
  6
Continuous
 62
     7
100
AcDbLine
 10
646.0751029999998
 20
166.4009399999999
 30
0.0
 11
646.0751029999998
 21
223.90094
 31
0.0
  0
ARC
  5
4D80
330
A
100
AcDbEntity
  8
0
  6
Continuous
 62
     7
100
AcDbCircle
 10
647.075103
 20
166.4009399999999
 30
0.0
 40
1.0
100
AcDbArc
 50
180.000005
 51
270.000001
  0
LINE
  5
4D81
330
A
100
AcDbEntity
  8
0
  6
Continuous
 62
     7
 48
0.17125
100
AcDbLine
 10
647.075103
 20
165.4009399999999
 30
0.0
 11
660.775115
 21
165.4009399999999
 31
0.0
  0
LINE
  5
4D82
330
A
100
AcDbEntity
  8
0
  6
Continuous
 62
     7
 48
0.030848
100
AcDbLine
 10
654.3751529999997
 20
224.9009399999999
 30
0.0
 11
652.6301569999998
 21
223.1559139999995
 31
0.0
  0
LINE
  5
4D87
330
A
100
AcDbEntity
  8
0
  6
Continuous
 62
     7
 48
0.01227
100
AcDbLine
 10
654.8751529999996
 20
225.40094
 30
0.0
 11
655.8567189999997
 21
225.40094
 31
0.0
  0
LINE
  5
4D88
330
A
100
AcDbEntity
  8
0
  6
Continuous
 62
     7
 48
0.008839
100
AcDbLine
 10
654.8751529999996
 20
225.40094
 30
0.0
 11
654.3751529999997
 21
224.9009399999999
 31
0.0
  0
LINE
  5
4D89
330
A
100
AcDbEntity
  8
0
  6
Continuous
 62
     7
 48
0.00625
100
AcDbLine
 10
660.775115
 20
165.4009399999999
 30
0.0
 11
661.275115
 21
165.4009399999999
 31
0.0
  0
ARC
  5
4D8A
330
A
100
AcDbEntity
  8
0
  6
Continuous
 62
     7
100
AcDbCircle
 10
655.8567189999997
 20
222.4009399999999
 30
0.0
 40
3.0
100
AcDbArc
 50
11.578421
 51
90.00000300000001
  0
LINE
  5
4D8D
330
A
100
AcDbEntity
  8
0
  6
Continuous
 62
     7
 48
0.154419
100
AcDbLine
 10
658.7956849999998
 20
223.003052
 30
0.0
 11
661.275115
 21
210.90094
 31
0.0
  0
LINE
  5
4D8F
330
A
100
AcDbEntity
  8
0
  6
Continuous
 62
     7
100
AcDbLine
 10
661.275115
 20
165.4009399999999
 30
0.0
 11
661.275115
 21
210.90094
 31
0.0
  0
LINE
  5
4D90
330
A
100
AcDbEntity
  8
0
  6
Continuous
 62
     7
 48
0.003749
100
AcDbLine
 10
662.945099
 20
299.3509219999996
 30
0.0
 11
662.645171
 21
299.3509219999996
 31
0.0
  0
LINE
  5
4D91
330
A
100
AcDbEntity
  8
0
  6
Continuous
 62
     7
 48
0.003749
100
AcDbLine
 10
662.645171
 20
286.9509279999998
 30
0.0
 11
662.945099
 21
286.9509279999998
 31
0.0
  0
LINE
  5
4D92
330
A
100
AcDbEntity
  8
0
  6
Continuous
 62
     7
 48
0.000625
100
AcDbLine
 10
662.945099
 20
286.9009399999999
 30
0.0
 11
662.945099
 21
286.9509279999998
 31
0.0
  0
LINE
  5
4D93
330
A
100
AcDbEntity
  8
0
  6
Continuous
 62
     7
 48
0.1125
100
AcDbLine
 10
662.945099
 20
274.9009399999999
 30
0.0
 11
662.945099
 21
283.90094
 31
0.0
  0
LINE
  5
4D94
330
A
100
AcDbEntity
  8
0
  6
Continuous
 62
     7
 48
0.047303
100
AcDbLine
 10
662.945099
 20
268.1167299999998
 30
0.0
 11
662.945099
 21
271.90094
 31
0.0
  0
LINE
  5
4D95
330
A
100
AcDbEntity
  8
0
  6
Continuous
 62
     7
 48
0.077697
100
AcDbLine
 10
662.945099
 20
261.9009399999999
 30
0.0
 11
662.945099
 21
268.1167299999998
 31
0.0
  0
LINE
  5
4D96
330
A
100
AcDbEntity
  8
0
  6
Continuous
 62
     7
 48
0.022303
100
AcDbLine
 10
662.945099
 20
261.9009399999999
 30
0.0
 11
662.945099
 21
260.1167299999996
 31
0.0
  0
ARC
  5
4D9C
330
A
100
AcDbEntity
  8
0
  6
Continuous
 62
     7
100
AcDbCircle
 10
661.945099
 20
260.1167299999996
 30
0.0
 40
1.0
100
AcDbArc
 50
270.999995
 51
0.00001
  0
LINE
  5
4DA2
330
A
100
AcDbEntity
  8
0
  6
Continuous
 62
     7
 48
0.008595
100
AcDbLine
 10
661.9625550000002
 20
259.1168819999999
 30
0.0
 11
661.2750550000002
 21
259.1048879999998
 31
0.0
  0
LINE
  5
4DA7
330
A
100
AcDbEntity
  8
0
  6
Continuous
 62
     7
 48
0.262759
100
AcDbLine
 10
640.945037
 20
350.0513599999998
 30
0.0
 11
661.9625550000002
 21
349.6845099999998
 31
0.0
  0
LINE
  5
4DAA
330
A
100
AcDbEntity
  8
0
  6
Continuous
 62
     7
 48
0.176249
100
AcDbLine
 10
620.945099
 20
335.5008239999996
 30
0.0
 11
620.945099
 21
321.4008779999998
 31
0.0
  0
LINE
  5
4DAB
330
A
100
AcDbEntity
  8
0
  6
Continuous
 62
     7
 48
0.053547
100
AcDbLine
 10
662.945099
 20
344.4009399999998
 30
0.0
 11
662.945099
 21
348.684662
 31
0.0
  0
LINE
  5
4DAC
330
A
100
AcDbEntity
  8
0
  6
Continuous
 62
     7
 48
0.1125
100
AcDbLine
 10
662.945099
 20
332.4009399999998
 30
0.0
 11
662.945099
 21
341.4009399999998
 31
0.0
  0
LINE
  5
4DAD
330
A
100
AcDbEntity
  8
0
  6
Continuous
 62
     7
 48
0.1875
100
AcDbLine
 10
662.945099
 20
314.4009399999998
 30
0.0
 11
662.945099
 21
329.4009399999998
 31
0.0
  0
LINE
  5
4DAE
330
A
100
AcDbEntity
  8
0
  6
Continuous
 62
     7
 48
0.1125
100
AcDbLine
 10
662.945099
 20
302.40094
 30
0.0
 11
662.945099
 21
311.4009399999998
 31
0.0
  0
LINE
  5
4DAF
330
A
100
AcDbEntity
  8
0
  6
Continuous
 62
     7
 48
0.000625
100
AcDbLine
 10
662.945099
 20
299.3509219999996
 30
0.0
 11
662.945099
 21
299.4009399999999
 31
0.0
  0
LINE
  5
4DB0
330
A
100
AcDbEntity
  8
0
  6
Continuous
 62
     7
 48
0.155
100
AcDbLine
 10
662.645171
 20
286.9509279999998
 30
0.0
 11
662.645171
 21
299.3509219999996
 31
0.0
  0
ARC
  5
4DB1
330
A
100
AcDbEntity
  8
0
  6
Continuous
 62
     7
100
AcDbCircle
 10
661.945099
 20
348.684662
 30
0.0
 40
1.0
100
AcDbArc
 50
0.0
 51
89.00000099999996
  0
LINE
  5
4DB2
330
A
100
AcDbEntity
  8
0
  6
Continuous
 62
     7
 48
0.000624
100
AcDbLine
 10
662.6950989999998
 20
287.1509399999998
 30
0.0
 11
662.645171
 21
287.1509399999998
 31
0.0
  0
LINE
  5
4DB3
330
A
100
AcDbEntity
  8
0
  6
Continuous
 62
     7
 48
0.15
100
AcDbLine
 10
662.6950989999998
 20
287.1509399999998
 30
0.0
 11
662.6950989999998
 21
299.1509399999998
 31
0.0
  0
LINE
  5
4DB4
330
A
100
AcDbEntity
  8
0
  6
Continuous
 62
     7
 48
0.000624
100
AcDbLine
 10
662.6950989999998
 20
299.1509399999998
 30
0.0
 11
662.645171
 21
299.1509399999998
 31
0.0
  0
LINE
  5
4DB5
330
A
100
AcDbEntity
  8
0
  6
Continuous
 62
     7
 48
0.15
100
AcDbLine
 10
662.645171
 20
287.1509399999998
 30
0.0
 11
662.645171
 21
299.1509399999998
 31
0.0
  0
LINE
  5
4DB6
330
A
100
AcDbEntity
  8
0
  6
Continuous
 62
     7
 48
0.0375
100
AcDbLine
 10
665.945099
 20
329.4009399999998
 30
0.0
 11
662.945099
 21
329.4009399999998
 31
0.0
  0
LINE
  5
4DB7
330
A
100
AcDbEntity
  8
0
  6
Continuous
 62
     7
 48
0.1425
100
AcDbLine
 10
677.3451229999997
 20
329.4009399999998
 30
0.0
 11
665.945099
 21
329.4009399999998
 31
0.0
  0
LINE
  5
4DB8
330
A
100
AcDbEntity
  8
0
  6
Continuous
 62
     7
 48
0.022535
100
AcDbLine
 10
678.3451229999997
 20
330.9009399999998
 30
0.0
 11
677.3451229999997
 21
329.4009399999998
 31
0.0
  0
LINE
  5
4DB9
330
A
100
AcDbEntity
  8
0
  6
Continuous
 62
     7
 48
0.031569
100
AcDbLine
 10
680.633697
 20
329.832946
 30
0.0
 11
678.3451229999997
 21
330.9009399999998
 31
0.0
  0
ARC
  5
4DBA
330
A
100
AcDbEntity
  8
0
  6
Continuous
 62
     7
100
AcDbCircle
 10
680.8451229999997
 20
330.2860099999997
 30
0.0
 40
0.5
100
AcDbArc
 50
244.983095
 51
0.00001
  0
LINE
  5
4DBB
330
A
100
AcDbEntity
  8
0
  6
Continuous
 62
     7
 48
0.165373
100
AcDbLine
 10
681.3451229999997
 20
343.5158379999998
 30
0.0
 11
681.3451229999997
 21
330.2860099999997
 31
0.0
  0
ARC
  5
4DBC
330
A
100
AcDbEntity
  8
0
  6
Continuous
 62
     7
100
AcDbCircle
 10
680.8451229999997
 20
343.5158379999998
 30
0.0
 40
0.5
100
AcDbArc
 50
0.0
 51
115.016888
  0
LINE
  5
4DBD
330
A
100
AcDbEntity
  8
0
  6
Continuous
 62
     7
 48
0.031569
100
AcDbLine
 10
678.3451229999997
 20
342.9009399999998
 30
0.0
 11
680.633697
 21
343.9689319999998
 31
0.0
  0
LINE
  5
4DBE
330
A
100
AcDbEntity
  8
0
  6
Continuous
 62
     7
 48
0.022535
100
AcDbLine
 10
677.3451229999997
 20
344.4009399999998
 30
0.0
 11
678.3451229999997
 21
342.9009399999998
 31
0.0
  0
LINE
  5
4DBF
330
A
100
AcDbEntity
  8
0
  6
Continuous
 62
     7
 48
0.1425
100
AcDbLine
 10
665.945099
 20
344.4009399999998
 30
0.0
 11
677.3451229999997
 21
344.4009399999998
 31
0.0
  0
LINE
  5
4DC0
330
A
100
AcDbEntity
  8
0
  6
Continuous
 62
     7
 48
0.0375
100
AcDbLine
 10
662.945099
 20
344.4009399999998
 30
0.0
 11
665.945099
 21
344.4009399999998
 31
0.0
  0
LINE
  5
4DC1
330
A
100
AcDbEntity
  8
0
  6
Continuous
 62
     7
 48
0.036443
100
AcDbLine
 10
667.445099
 20
331.9009399999998
 30
0.0
 11
665.945099
 21
329.4009399999998
 31
0.0
  0
LINE
  5
4DC2
330
A
100
AcDbEntity
  8
0
  6
Continuous
 62
     7
 48
0.0375
100
AcDbLine
 10
662.945099
 20
341.4009399999998
 30
0.0
 11
662.945099
 21
344.4009399999998
 31
0.0
  0
LINE
  5
4DC3
330
A
100
AcDbEntity
  8
0
  6
Continuous
 62
     7
 48
0.003751
100
AcDbLine
 10
663.2451469999997
 20
341.4009399999998
 30
0.0
 11
662.945099
 21
341.4009399999998
 31
0.0
  0
LINE
  5
4DC4
330
A
100
AcDbEntity
  8
0
  6
Continuous
 62
     7
 48
0.1125
100
AcDbLine
 10
663.2451469999997
 20
332.4009399999998
 30
0.0
 11
663.2451469999997
 21
341.4009399999998
 31
0.0
  0
LINE
  5
4DC5
330
A
100
AcDbEntity
  8
0
  6
Continuous
 62
     7
 48
0.003751
100
AcDbLine
 10
662.945099
 20
332.4009399999998
 30
0.0
 11
663.2451469999997
 21
332.4009399999998
 31
0.0
  0
LINE
  5
4DC6
330
A
100
AcDbEntity
  8
0
  6
Continuous
 62
     7
 48
0.0375
100
AcDbLine
 10
662.945099
 20
329.4009399999998
 30
0.0
 11
662.945099
 21
332.4009399999998
 31
0.0
  0
LINE
  5
4DC7
330
A
100
AcDbEntity
  8
0
  6
Continuous
 62
     7
 48
0.0625
100
AcDbLine
 10
672.445099
 20
331.9009399999998
 30
0.0
 11
667.445099
 21
331.9009399999998
 31
0.0
  0
LINE
  5
4DC8
330
A
100
AcDbEntity
  8
0
  6
Continuous
 62
     7
 48
0.125
100
AcDbLine
 10
672.445099
 20
341.9009399999998
 30
0.0
 11
672.445099
 21
331.9009399999998
 31
0.0
  0
LINE
  5
4DC9
330
A
100
AcDbEntity
  8
0
  6
Continuous
 62
     7
 48
0.0625
100
AcDbLine
 10
667.445099
 20
341.9009399999998
 30
0.0
 11
672.445099
 21
341.9009399999998
 31
0.0
  0
LINE
  5
4DCA
330
A
100
AcDbEntity
  8
0
  6
Continuous
 62
     7
 48
0.036443
100
AcDbLine
 10
665.945099
 20
344.4009399999998
 30
0.0
 11
667.445099
 21
341.9009399999998
 31
0.0
  0
LINE
  5
4DCB
330
A
100
AcDbEntity
  8
0
  6
Continuous
 62
     7
 48
0.003751
100
AcDbLine
 10
662.945099
 20
337.3009339999998
 30
0.0
 11
663.2451469999997
 21
337.3009339999998
 31
0.0
  0
LINE
  5
4DCC
330
A
100
AcDbEntity
  8
0
  6
Continuous
 62
     7
 48
0.003751
100
AcDbLine
 10
662.945099
 20
336.500916
 30
0.0
 11
663.2451469999997
 21
336.500916
 31
0.0
  0
LINE
  5
4DCD
330
A
100
AcDbEntity
  8
0
  6
Continuous
 62
     7
 48
0.0375
100
AcDbLine
 10
665.945099
 20
299.4009399999999
 30
0.0
 11
662.945099
 21
299.4009399999999
 31
0.0
  0
LINE
  5
4DCE
330
A
100
AcDbEntity
  8
0
  6
Continuous
 62
     7
 48
0.1425
100
AcDbLine
 10
677.3451229999997
 20
299.4009399999999
 30
0.0
 11
665.945099
 21
299.4009399999999
 31
0.0
  0
LINE
  5
4DCF
330
A
100
AcDbEntity
  8
0
  6
Continuous
 62
     7
 48
0.022535
100
AcDbLine
 10
678.3451229999997
 20
300.90094
 30
0.0
 11
677.3451229999997
 21
299.4009399999999
 31
0.0
  0
LINE
  5
4DD0
330
A
100
AcDbEntity
  8
0
  6
Continuous
 62
     7
 48
0.031569
100
AcDbLine
 10
680.633697
 20
299.8329459999999
 30
0.0
 11
678.3451229999997
 21
300.90094
 31
0.0
  0
ARC
  5
4DD1
330
A
100
AcDbEntity
  8
0
  6
Continuous
 62
     7
100
AcDbCircle
 10
680.8451229999997
 20
300.28601
 30
0.0
 40
0.5
100
AcDbArc
 50
244.983095
 51
0.00001
  0
LINE
  5
4DD2
330
A
100
AcDbEntity
  8
0
  6
Continuous
 62
     7
 48
0.165373
100
AcDbLine
 10
681.3451229999997
 20
313.5158379999998
 30
0.0
 11
681.3451229999997
 21
300.28601
 31
0.0
  0
ARC
  5
4DD3
330
A
100
AcDbEntity
  8
0
  6
Continuous
 62
     7
100
AcDbCircle
 10
680.8451229999997
 20
313.5158379999998
 30
0.0
 40
0.5
100
AcDbArc
 50
0.0
 51
115.016888
  0
LINE
  5
4DD4
330
A
100
AcDbEntity
  8
0
  6
Continuous
 62
     7
 48
0.031569
100
AcDbLine
 10
678.3451229999997
 20
312.9009399999998
 30
0.0
 11
680.633697
 21
313.968932
 31
0.0
  0
LINE
  5
4DD5
330
A
100
AcDbEntity
  8
0
  6
Continuous
 62
     7
 48
0.022535
100
AcDbLine
 10
677.3451229999997
 20
314.4009399999998
 30
0.0
 11
678.3451229999997
 21
312.9009399999998
 31
0.0
  0
LINE
  5
4DD6
330
A
100
AcDbEntity
  8
0
  6
Continuous
 62
     7
 48
0.1425
100
AcDbLine
 10
665.945099
 20
314.4009399999998
 30
0.0
 11
677.3451229999997
 21
314.4009399999998
 31
0.0
  0
LINE
  5
4DD7
330
A
100
AcDbEntity
  8
0
  6
Continuous
 62
     7
 48
0.0375
100
AcDbLine
 10
662.945099
 20
314.4009399999998
 30
0.0
 11
665.945099
 21
314.4009399999998
 31
0.0
  0
LINE
  5
4DD8
330
A
100
AcDbEntity
  8
0
  6
Continuous
 62
     7
 48
0.036443
100
AcDbLine
 10
667.445099
 20
301.9009399999998
 30
0.0
 11
665.945099
 21
299.4009399999999
 31
0.0
  0
LINE
  5
4DD9
330
A
100
AcDbEntity
  8
0
  6
Continuous
 62
     7
 48
0.0375
100
AcDbLine
 10
662.945099
 20
311.4009399999998
 30
0.0
 11
662.945099
 21
314.4009399999998
 31
0.0
  0
LINE
  5
4DDA
330
A
100
AcDbEntity
  8
0
  6
Continuous
 62
     7
 48
0.003751
100
AcDbLine
 10
663.2451469999997
 20
311.4009399999998
 30
0.0
 11
662.945099
 21
311.4009399999998
 31
0.0
  0
LINE
  5
4DDB
330
A
100
AcDbEntity
  8
0
  6
Continuous
 62
     7
 48
0.1125
100
AcDbLine
 10
663.2451469999997
 20
302.40094
 30
0.0
 11
663.2451469999997
 21
311.4009399999998
 31
0.0
  0
LINE
  5
4DDC
330
A
100
AcDbEntity
  8
0
  6
Continuous
 62
     7
 48
0.003751
100
AcDbLine
 10
662.945099
 20
302.40094
 30
0.0
 11
663.2451469999997
 21
302.40094
 31
0.0
  0
LINE
  5
4DDD
330
A
100
AcDbEntity
  8
0
  6
Continuous
 62
     7
 48
0.0375
100
AcDbLine
 10
662.945099
 20
299.4009399999999
 30
0.0
 11
662.945099
 21
302.40094
 31
0.0
  0
LINE
  5
4DDE
330
A
100
AcDbEntity
  8
0
  6
Continuous
 62
     7
 48
0.0625
100
AcDbLine
 10
672.445099
 20
301.9009399999998
 30
0.0
 11
667.445099
 21
301.9009399999998
 31
0.0
  0
LINE
  5
4DDF
330
A
100
AcDbEntity
  8
0
  6
Continuous
 62
     7
 48
0.125
100
AcDbLine
 10
672.445099
 20
311.9009399999999
 30
0.0
 11
672.445099
 21
301.9009399999998
 31
0.0
  0
LINE
  5
4DE0
330
A
100
AcDbEntity
  8
0
  6
Continuous
 62
     7
 48
0.0625
100
AcDbLine
 10
667.445099
 20
311.9009399999999
 30
0.0
 11
672.445099
 21
311.9009399999999
 31
0.0
  0
LINE
  5
4DE1
330
A
100
AcDbEntity
  8
0
  6
Continuous
 62
     7
 48
0.036443
100
AcDbLine
 10
665.945099
 20
314.4009399999998
 30
0.0
 11
667.445099
 21
311.9009399999999
 31
0.0
  0
LINE
  5
4DE2
330
A
100
AcDbEntity
  8
0
  6
Continuous
 62
     7
 48
0.003751
100
AcDbLine
 10
662.945099
 20
307.300934
 30
0.0
 11
663.2451469999997
 21
307.300934
 31
0.0
  0
LINE
  5
4DE3
330
A
100
AcDbEntity
  8
0
  6
Continuous
 62
     7
 48
0.003751
100
AcDbLine
 10
662.945099
 20
306.500916
 30
0.0
 11
663.2451469999997
 21
306.500916
 31
0.0
  0
LINE
  5
4DE4
330
A
100
AcDbEntity
  8
0
  6
Continuous
 62
     7
 48
0.0375
100
AcDbLine
 10
665.945099
 20
271.90094
 30
0.0
 11
662.945099
 21
271.90094
 31
0.0
  0
LINE
  5
4DE5
330
A
100
AcDbEntity
  8
0
  6
Continuous
 62
     7
 48
0.1425
100
AcDbLine
 10
677.3451229999997
 20
271.90094
 30
0.0
 11
665.945099
 21
271.90094
 31
0.0
  0
LINE
  5
4DE6
330
A
100
AcDbEntity
  8
0
  6
Continuous
 62
     7
 48
0.022535
100
AcDbLine
 10
678.3451229999997
 20
273.40094
 30
0.0
 11
677.3451229999997
 21
271.90094
 31
0.0
  0
LINE
  5
4DE7
330
A
100
AcDbEntity
  8
0
  6
Continuous
 62
     7
 48
0.031569
100
AcDbLine
 10
680.633697
 20
272.3329459999999
 30
0.0
 11
678.3451229999997
 21
273.40094
 31
0.0
  0
ARC
  5
4DE8
330
A
100
AcDbEntity
  8
0
  6
Continuous
 62
     7
100
AcDbCircle
 10
680.8451229999997
 20
272.78601
 30
0.0
 40
0.5
100
AcDbArc
 50
244.983095
 51
0.00001
  0
LINE
  5
4DE9
330
A
100
AcDbEntity
  8
0
  6
Continuous
 62
     7
 48
0.165373
100
AcDbLine
 10
681.3451229999997
 20
286.0158379999998
 30
0.0
 11
681.3451229999997
 21
272.78601
 31
0.0
  0
ARC
  5
4DEA
330
A
100
AcDbEntity
  8
0
  6
Continuous
 62
     7
100
AcDbCircle
 10
680.8451229999997
 20
286.0158379999998
 30
0.0
 40
0.5
100
AcDbArc
 50
0.0
 51
115.016888
  0
LINE
  5
4DEB
330
A
100
AcDbEntity
  8
0
  6
Continuous
 62
     7
 48
0.031569
100
AcDbLine
 10
678.3451229999997
 20
285.4009399999998
 30
0.0
 11
680.633697
 21
286.468932
 31
0.0
  0
LINE
  5
4DEC
330
A
100
AcDbEntity
  8
0
  6
Continuous
 62
     7
 48
0.022535
100
AcDbLine
 10
677.3451229999997
 20
286.9009399999999
 30
0.0
 11
678.3451229999997
 21
285.4009399999998
 31
0.0
  0
LINE
  5
4DED
330
A
100
AcDbEntity
  8
0
  6
Continuous
 62
     7
 48
0.1425
100
AcDbLine
 10
665.945099
 20
286.9009399999999
 30
0.0
 11
677.3451229999997
 21
286.9009399999999
 31
0.0
  0
LINE
  5
4DEE
330
A
100
AcDbEntity
  8
0
  6
Continuous
 62
     7
 48
0.0375
100
AcDbLine
 10
662.945099
 20
286.9009399999999
 30
0.0
 11
665.945099
 21
286.9009399999999
 31
0.0
  0
LINE
  5
4DEF
330
A
100
AcDbEntity
  8
0
  6
Continuous
 62
     7
 48
0.036443
100
AcDbLine
 10
667.445099
 20
274.4009399999999
 30
0.0
 11
665.945099
 21
271.90094
 31
0.0
  0
LINE
  5
4DF0
330
A
100
AcDbEntity
  8
0
  6
Continuous
 62
     7
 48
0.0375
100
AcDbLine
 10
662.945099
 20
283.90094
 30
0.0
 11
662.945099
 21
286.9009399999999
 31
0.0
  0
LINE
  5
4DF1
330
A
100
AcDbEntity
  8
0
  6
Continuous
 62
     7
 48
0.003751
100
AcDbLine
 10
663.2451469999997
 20
283.90094
 30
0.0
 11
662.945099
 21
283.90094
 31
0.0
  0
LINE
  5
4DF2
330
A
100
AcDbEntity
  8
0
  6
Continuous
 62
     7
 48
0.1125
100
AcDbLine
 10
663.2451469999997
 20
274.9009399999999
 30
0.0
 11
663.2451469999997
 21
283.90094
 31
0.0
  0
LINE
  5
4DF3
330
A
100
AcDbEntity
  8
0
  6
Continuous
 62
     7
 48
0.003751
100
AcDbLine
 10
662.945099
 20
274.9009399999999
 30
0.0
 11
663.2451469999997
 21
274.9009399999999
 31
0.0
  0
LINE
  5
4DF4
330
A
100
AcDbEntity
  8
0
  6
Continuous
 62
     7
 48
0.0375
100
AcDbLine
 10
662.945099
 20
271.90094
 30
0.0
 11
662.945099
 21
274.9009399999999
 31
0.0
  0
LINE
  5
4DF5
330
A
100
AcDbEntity
  8
0
  6
Continuous
 62
     7
 48
0.0625
100
AcDbLine
 10
672.445099
 20
274.4009399999999
 30
0.0
 11
667.445099
 21
274.4009399999999
 31
0.0
  0
LINE
  5
4DF6
330
A
100
AcDbEntity
  8
0
  6
Continuous
 62
     7
 48
0.125
100
AcDbLine
 10
672.445099
 20
284.40094
 30
0.0
 11
672.445099
 21
274.4009399999999
 31
0.0
  0
LINE
  5
4DF7
330
A
100
AcDbEntity
  8
0
  6
Continuous
 62
     7
 48
0.0625
100
AcDbLine
 10
667.445099
 20
284.40094
 30
0.0
 11
672.445099
 21
284.40094
 31
0.0
  0
LINE
  5
4DF8
330
A
100
AcDbEntity
  8
0
  6
Continuous
 62
     7
 48
0.036443
100
AcDbLine
 10
665.945099
 20
286.9009399999999
 30
0.0
 11
667.445099
 21
284.40094
 31
0.0
  0
LINE
  5
4DF9
330
A
100
AcDbEntity
  8
0
  6
Continuous
 62
     7
 48
0.003751
100
AcDbLine
 10
662.945099
 20
279.8009339999999
 30
0.0
 11
663.2451469999997
 21
279.8009339999999
 31
0.0
  0
LINE
  5
4DFA
330
A
100
AcDbEntity
  8
0
  6
Continuous
 62
     7
 48
0.003751
100
AcDbLine
 10
662.945099
 20
279.0009159999998
 30
0.0
 11
663.2451469999997
 21
279.0009159999998
 31
0.0
  0
LINE
  5
4DFB
330
A
100
AcDbEntity
  8
0
  6
Continuous
 62
     7
 48
0.003749
100
AcDbLine
 10
662.945099
 20
201.3509219999999
 30
0.0
 11
662.645171
 21
201.3509219999999
 31
0.0
  0
LINE
  5
4DFC
330
A
100
AcDbEntity
  8
0
  6
Continuous
 62
     7
 48
0.003749
100
AcDbLine
 10
662.645171
 20
188.950928
 30
0.0
 11
662.945099
 21
188.950928
 31
0.0
  0
LINE
  5
4DFD
330
A
100
AcDbEntity
  8
0
  6
Continuous
 62
     7
 48
0.000625
100
AcDbLine
 10
662.945099
 20
188.9009399999999
 30
0.0
 11
662.945099
 21
188.950928
 31
0.0
  0
LINE
  5
4DFE
330
A
100
AcDbEntity
  8
0
  6
Continuous
 62
     7
 48
0.1125
100
AcDbLine
 10
662.945099
 20
176.9009399999999
 30
0.0
 11
662.945099
 21
185.9009399999999
 31
0.0
  0
LINE
  5
4DFF
330
A
100
AcDbEntity
  8
0
  6
Continuous
 62
     7
 48
0.047303
100
AcDbLine
 10
662.945099
 20
170.1167299999999
 30
0.0
 11
662.945099
 21
173.90094
 31
0.0
  0
LINE
  5
4E00
330
A
100
AcDbEntity
  8
0
  6
Continuous
 62
     7
 48
0.077697
100
AcDbLine
 10
662.945099
 20
163.9009399999999
 30
0.0
 11
662.945099
 21
170.1167299999999
 31
0.0
  0
LINE
  5
4E01
330
A
100
AcDbEntity
  8
0
  6
Continuous
 62
     7
 48
0.022303
100
AcDbLine
 10
662.945099
 20
163.9009399999999
 30
0.0
 11
662.945099
 21
162.1167299999999
 31
0.0
  0
LINE
  5
4E02
330
A
100
AcDbEntity
  8
0
  6
Continuous
 62
     7
 48
0.065199
100
AcDbLine
 10
661.9625550000002
 20
163.9009399999999
 30
0.0
 11
661.9625550000002
 21
169.116882
 31
0.0
  0
LINE
  5
4E03
330
A
100
AcDbEntity
  8
0
  6
Continuous
 62
     7
 48
0.012282
100
AcDbLine
 10
662.945099
 20
163.9009399999999
 30
0.0
 11
661.9625550000002
 21
163.9009399999999
 31
0.0
  0
ARC
  5
4E06
330
A
100
AcDbEntity
  8
0
  6
Continuous
 62
     7
100
AcDbCircle
 10
661.945099
 20
162.1167299999999
 30
0.0
 40
1.0
100
AcDbArc
 50
270.999995
 51
0.00001
  0
LINE
  5
4E07
330
A
100
AcDbEntity
  8
0
  6
Continuous
 62
     7
 48
0.012282
100
AcDbLine
 10
662.945099
 20
170.1167299999999
 30
0.0
 11
661.9625550000002
 21
170.1167299999999
 31
0.0
  0
ELLIPSE
  5
4E08
330
A
100
AcDbEntity
  8
0
  6
Continuous
 62
     7
100
AcDbEllipse
 10
661.945099
 20
170.1167299999999
 30
0.0
 11
-0.0174560546875
 21
0.999847412109375
 31
0.0
210
0.0
220
0.0
230
1.0
 40
0.01745
 41
3.141592741012571
 42
4.712084293365478
  0
LINE
  5
4E09
330
A
100
AcDbEntity
  8
0
  6
Continuous
 62
     7
 48
0.008595
100
AcDbLine
 10
661.9625550000002
 20
169.116882
 30
0.0
 11
661.2750550000002
 21
169.1048879999998
 31
0.0
  0
LINE
  5
4E0A
330
A
100
AcDbEntity
  8
0
  6
Continuous
 62
     7
 48
0.258594
100
AcDbLine
 10
661.9625550000002
 20
163.9009399999999
 30
0.0
 11
641.2750550000001
 21
163.9009399999999
 31
0.0
  0
LINE
  5
4E0C
330
A
100
AcDbEntity
  8
0
  6
Continuous
 62
     7
 48
0.4815420000000001
100
AcDbLine
 10
661.9625550000002
 20
161.116882
 30
0.0
 11
623.4450989999998
 21
160.4445799999998
 31
0.0
  0
LINE
  5
4E0D
330
A
100
AcDbEntity
  8
0
  6
Continuous
 62
     7
 48
0.031255
100
AcDbLine
 10
623.4450989999998
 20
160.4445799999998
 30
0.0
 11
620.945099
 21
160.4009399999999
 31
0.0
  0
LINE
  5
4E0E
330
A
100
AcDbEntity
  8
0
  6
Continuous
 62
     7
 48
0.008595
100
AcDbLine
 10
661.9625550000002
 20
170.1167299999999
 30
0.0
 11
661.2750550000002
 21
170.104736
 31
0.0
  0
ARC
  5
4E10
330
A
100
AcDbEntity
  8
0
  6
Continuous
 62
     7
100
AcDbCircle
 10
661.945099
 20
250.6846619999997
 30
0.0
 40
1.0
100
AcDbArc
 50
0.0
 51
89.00000099999996
  0
LINE
  5
4E13
330
A
100
AcDbEntity
  8
0
  6
Continuous
 62
     7
 48
0.260453
100
AcDbLine
 10
641.1294849999998
 20
252.0481559999998
 30
0.0
 11
661.9625550000002
 21
251.6845099999998
 31
0.0
  0
LINE
  5
4E17
330
A
100
AcDbEntity
  8
0
  6
Continuous
 62
     7
 48
0.005705
100
AcDbLine
 10
623.4450989999998
 20
161.4443959999999
 30
0.0
 11
623.4450989999998
 21
161.9008179999999
 31
0.0
  0
LINE
  5
4E18
330
A
100
AcDbEntity
  8
0
  6
Continuous
 62
     7
 48
0.031255
100
AcDbLine
 10
623.4450989999998
 20
161.4443959999999
 30
0.0
 11
620.945099
 21
161.4007559999998
 31
0.0
  0
LINE
  5
4E19
330
A
100
AcDbEntity
  8
0
  6
Continuous
 62
     7
 48
0.006252
100
AcDbLine
 10
620.945099
 20
161.900877999999
 30
0.0
 11
620.945099
 21
161.4007559999998
 31
0.0
  0
LINE
  5
4E1A
330
A
100
AcDbEntity
  8
0
  6
Continuous
 62
     7
 48
0.25625
100
AcDbLine
 10
620.945099
 20
251.9008779999999
 30
0.0
 11
620.945099
 21
231.4008779999999
 31
0.0
  0
LINE
  5
4E1B
330
A
100
AcDbEntity
  8
0
  6
Continuous
 62
     7
 48
0.012498
100
AcDbLine
 10
623.4450989999998
 20
160.4445799999998
 30
0.0
 11
623.4450989999998
 21
161.4443959999999
 31
0.0
  0
LINE
  5
4E1C
330
A
100
AcDbEntity
  8
0
  6
Continuous
 62
     7
 48
0.012498
100
AcDbLine
 10
620.945099
 20
160.4009399999999
 30
0.0
 11
620.945099
 21
161.4007559999998
 31
0.0
  0
LINE
  5
4E1D
330
A
100
AcDbEntity
  8
0
  6
Continuous
 62
     7
 48
0.053547
100
AcDbLine
 10
662.945099
 20
246.40094
 30
0.0
 11
662.945099
 21
250.6846619999997
 31
0.0
  0
LINE
  5
4E1E
330
A
100
AcDbEntity
  8
0
  6
Continuous
 62
     7
 48
0.1125
100
AcDbLine
 10
662.945099
 20
234.40094
 30
0.0
 11
662.945099
 21
243.4009399999999
 31
0.0
  0
LINE
  5
4E1F
330
A
100
AcDbEntity
  8
0
  6
Continuous
 62
     7
 48
0.1875
100
AcDbLine
 10
662.945099
 20
216.4009399999999
 30
0.0
 11
662.945099
 21
231.4009399999999
 31
0.0
  0
LINE
  5
4E20
330
A
100
AcDbEntity
  8
0
  6
Continuous
 62
     7
 48
0.1125
100
AcDbLine
 10
662.945099
 20
204.4009399999999
 30
0.0
 11
662.945099
 21
213.40094
 31
0.0
  0
LINE
  5
4E21
330
A
100
AcDbEntity
  8
0
  6
Continuous
 62
     7
 48
0.000625
100
AcDbLine
 10
662.945099
 20
201.3509219999999
 30
0.0
 11
662.945099
 21
201.4009399999999
 31
0.0
  0
LINE
  5
4E22
330
A
100
AcDbEntity
  8
0
  6
Continuous
 62
     7
 48
0.155
100
AcDbLine
 10
662.645171
 20
188.950928
 30
0.0
 11
662.645171
 21
201.3509219999999
 31
0.0
  0
ARC
  5
4E23
330
A
100
AcDbEntity
  8
0
  6
Continuous
 62
     7
100
AcDbCircle
 10
661.945099
 20
170.1167299999999
 30
0.0
 40
1.0
100
AcDbArc
 50
270.999999
 51
0.0
  0
LINE
  5
4E24
330
A
100
AcDbEntity
  8
0
  6
Continuous
 62
     7
 48
0.000624
100
AcDbLine
 10
662.6950989999998
 20
189.1509399999999
 30
0.0
 11
662.645171
 21
189.1509399999999
 31
0.0
  0
LINE
  5
4E25
330
A
100
AcDbEntity
  8
0
  6
Continuous
 62
     7
 48
0.15
100
AcDbLine
 10
662.6950989999998
 20
189.1509399999999
 30
0.0
 11
662.6950989999998
 21
201.15094
 31
0.0
  0
LINE
  5
4E26
330
A
100
AcDbEntity
  8
0
  6
Continuous
 62
     7
 48
0.000624
100
AcDbLine
 10
662.6950989999998
 20
201.15094
 30
0.0
 11
662.645171
 21
201.15094
 31
0.0
  0
LINE
  5
4E27
330
A
100
AcDbEntity
  8
0
  6
Continuous
 62
     7
 48
0.15
100
AcDbLine
 10
662.645171
 20
189.1509399999999
 30
0.0
 11
662.645171
 21
201.15094
 31
0.0
  0
LINE
  5
4E28
330
A
100
AcDbEntity
  8
0
  6
Continuous
 62
     7
 48
0.0375
100
AcDbLine
 10
665.945099
 20
231.4009399999999
 30
0.0
 11
662.945099
 21
231.4009399999999
 31
0.0
  0
LINE
  5
4E29
330
A
100
AcDbEntity
  8
0
  6
Continuous
 62
     7
 48
0.1425
100
AcDbLine
 10
677.3451229999997
 20
231.4009399999999
 30
0.0
 11
665.945099
 21
231.4009399999999
 31
0.0
  0
LINE
  5
4E2A
330
A
100
AcDbEntity
  8
0
  6
Continuous
 62
     7
 48
0.022535
100
AcDbLine
 10
678.3451229999997
 20
232.9009399999999
 30
0.0
 11
677.3451229999997
 21
231.4009399999999
 31
0.0
  0
LINE
  5
4E2B
330
A
100
AcDbEntity
  8
0
  6
Continuous
 62
     7
 48
0.031569
100
AcDbLine
 10
680.633697
 20
231.832946
 30
0.0
 11
678.3451229999997
 21
232.9009399999999
 31
0.0
  0
ARC
  5
4E2C
330
A
100
AcDbEntity
  8
0
  6
Continuous
 62
     7
100
AcDbCircle
 10
680.8451229999997
 20
232.28601
 30
0.0
 40
0.5
100
AcDbArc
 50
244.983095
 51
0.00001
  0
LINE
  5
4E2D
330
A
100
AcDbEntity
  8
0
  6
Continuous
 62
     7
 48
0.165373
100
AcDbLine
 10
681.3451229999997
 20
245.5158379999998
 30
0.0
 11
681.3451229999997
 21
232.28601
 31
0.0
  0
ARC
  5
4E2E
330
A
100
AcDbEntity
  8
0
  6
Continuous
 62
     7
100
AcDbCircle
 10
680.8451229999997
 20
245.5158379999998
 30
0.0
 40
0.5
100
AcDbArc
 50
0.0
 51
115.016888
  0
LINE
  5
4E2F
330
A
100
AcDbEntity
  8
0
  6
Continuous
 62
     7
 48
0.031569
100
AcDbLine
 10
678.3451229999997
 20
244.90094
 30
0.0
 11
680.633697
 21
245.9689319999998
 31
0.0
  0
LINE
  5
4E30
330
A
100
AcDbEntity
  8
0
  6
Continuous
 62
     7
 48
0.022535
100
AcDbLine
 10
677.3451229999997
 20
246.40094
 30
0.0
 11
678.3451229999997
 21
244.90094
 31
0.0
  0
LINE
  5
4E31
330
A
100
AcDbEntity
  8
0
  6
Continuous
 62
     7
 48
0.1425
100
AcDbLine
 10
665.945099
 20
246.40094
 30
0.0
 11
677.3451229999997
 21
246.40094
 31
0.0
  0
LINE
  5
4E32
330
A
100
AcDbEntity
  8
0
  6
Continuous
 62
     7
 48
0.0375
100
AcDbLine
 10
662.945099
 20
246.40094
 30
0.0
 11
665.945099
 21
246.40094
 31
0.0
  0
LINE
  5
4E33
330
A
100
AcDbEntity
  8
0
  6
Continuous
 62
     7
 48
0.036443
100
AcDbLine
 10
667.445099
 20
233.90094
 30
0.0
 11
665.945099
 21
231.4009399999999
 31
0.0
  0
LINE
  5
4E34
330
A
100
AcDbEntity
  8
0
  6
Continuous
 62
     7
 48
0.0375
100
AcDbLine
 10
662.945099
 20
243.4009399999999
 30
0.0
 11
662.945099
 21
246.40094
 31
0.0
  0
LINE
  5
4E35
330
A
100
AcDbEntity
  8
0
  6
Continuous
 62
     7
 48
0.003751
100
AcDbLine
 10
663.2451469999997
 20
243.4009399999999
 30
0.0
 11
662.945099
 21
243.4009399999999
 31
0.0
  0
LINE
  5
4E36
330
A
100
AcDbEntity
  8
0
  6
Continuous
 62
     7
 48
0.1125
100
AcDbLine
 10
663.2451469999997
 20
234.40094
 30
0.0
 11
663.2451469999997
 21
243.4009399999999
 31
0.0
  0
LINE
  5
4E37
330
A
100
AcDbEntity
  8
0
  6
Continuous
 62
     7
 48
0.003751
100
AcDbLine
 10
662.945099
 20
234.40094
 30
0.0
 11
663.2451469999997
 21
234.40094
 31
0.0
  0
LINE
  5
4E38
330
A
100
AcDbEntity
  8
0
  6
Continuous
 62
     7
 48
0.0375
100
AcDbLine
 10
662.945099
 20
231.4009399999999
 30
0.0
 11
662.945099
 21
234.40094
 31
0.0
  0
LINE
  5
4E39
330
A
100
AcDbEntity
  8
0
  6
Continuous
 62
     7
 48
0.0625
100
AcDbLine
 10
672.445099
 20
233.90094
 30
0.0
 11
667.445099
 21
233.90094
 31
0.0
  0
LINE
  5
4E3A
330
A
100
AcDbEntity
  8
0
  6
Continuous
 62
     7
 48
0.125
100
AcDbLine
 10
672.445099
 20
243.9009399999999
 30
0.0
 11
672.445099
 21
233.90094
 31
0.0
  0
LINE
  5
4E3B
330
A
100
AcDbEntity
  8
0
  6
Continuous
 62
     7
 48
0.0625
100
AcDbLine
 10
667.445099
 20
243.9009399999999
 30
0.0
 11
672.445099
 21
243.9009399999999
 31
0.0
  0
LINE
  5
4E3C
330
A
100
AcDbEntity
  8
0
  6
Continuous
 62
     7
 48
0.036443
100
AcDbLine
 10
665.945099
 20
246.40094
 30
0.0
 11
667.445099
 21
243.9009399999999
 31
0.0
  0
LINE
  5
4E3D
330
A
100
AcDbEntity
  8
0
  6
Continuous
 62
     7
 48
0.003751
100
AcDbLine
 10
662.945099
 20
239.3009339999999
 30
0.0
 11
663.2451469999997
 21
239.3009339999999
 31
0.0
  0
LINE
  5
4E3E
330
A
100
AcDbEntity
  8
0
  6
Continuous
 62
     7
 48
0.003751
100
AcDbLine
 10
662.945099
 20
238.5009159999998
 30
0.0
 11
663.2451469999997
 21
238.5009159999998
 31
0.0
  0
LINE
  5
4E3F
330
A
100
AcDbEntity
  8
0
  6
Continuous
 62
     7
 48
0.0375
100
AcDbLine
 10
665.945099
 20
201.4009399999999
 30
0.0
 11
662.945099
 21
201.4009399999999
 31
0.0
  0
LINE
  5
4E40
330
A
100
AcDbEntity
  8
0
  6
Continuous
 62
     7
 48
0.1425
100
AcDbLine
 10
677.3451229999997
 20
201.4009399999999
 30
0.0
 11
665.945099
 21
201.4009399999999
 31
0.0
  0
LINE
  5
4E41
330
A
100
AcDbEntity
  8
0
  6
Continuous
 62
     7
 48
0.022535
100
AcDbLine
 10
678.3451229999997
 20
202.90094
 30
0.0
 11
677.3451229999997
 21
201.4009399999999
 31
0.0
  0
LINE
  5
4E42
330
A
100
AcDbEntity
  8
0
  6
Continuous
 62
     7
 48
0.031569
100
AcDbLine
 10
680.633697
 20
201.8329459999999
 30
0.0
 11
678.3451229999997
 21
202.90094
 31
0.0
  0
ARC
  5
4E43
330
A
100
AcDbEntity
  8
0
  6
Continuous
 62
     7
100
AcDbCircle
 10
680.8451229999997
 20
202.2860099999999
 30
0.0
 40
0.5
100
AcDbArc
 50
244.983095
 51
0.00001
  0
LINE
  5
4E44
330
A
100
AcDbEntity
  8
0
  6
Continuous
 62
     7
 48
0.165373
100
AcDbLine
 10
681.3451229999997
 20
215.515838
 30
0.0
 11
681.3451229999997
 21
202.2860099999999
 31
0.0
  0
ARC
  5
4E45
330
A
100
AcDbEntity
  8
0
  6
Continuous
 62
     7
100
AcDbCircle
 10
680.8451229999997
 20
215.515838
 30
0.0
 40
0.5
100
AcDbArc
 50
0.0
 51
115.016888
  0
LINE
  5
4E46
330
A
100
AcDbEntity
  8
0
  6
Continuous
 62
     7
 48
0.031569
100
AcDbLine
 10
678.3451229999997
 20
214.90094
 30
0.0
 11
680.633697
 21
215.968932
 31
0.0
  0
LINE
  5
4E47
330
A
100
AcDbEntity
  8
0
  6
Continuous
 62
     7
 48
0.022535
100
AcDbLine
 10
677.3451229999997
 20
216.4009399999999
 30
0.0
 11
678.3451229999997
 21
214.90094
 31
0.0
  0
LINE
  5
4E48
330
A
100
AcDbEntity
  8
0
  6
Continuous
 62
     7
 48
0.1425
100
AcDbLine
 10
665.945099
 20
216.4009399999999
 30
0.0
 11
677.3451229999997
 21
216.4009399999999
 31
0.0
  0
LINE
  5
4E49
330
A
100
AcDbEntity
  8
0
  6
Continuous
 62
     7
 48
0.0375
100
AcDbLine
 10
662.945099
 20
216.4009399999999
 30
0.0
 11
665.945099
 21
216.4009399999999
 31
0.0
  0
LINE
  5
4E4A
330
A
100
AcDbEntity
  8
0
  6
Continuous
 62
     7
 48
0.036443
100
AcDbLine
 10
667.445099
 20
203.9009399999999
 30
0.0
 11
665.945099
 21
201.4009399999999
 31
0.0
  0
LINE
  5
4E4B
330
A
100
AcDbEntity
  8
0
  6
Continuous
 62
     7
 48
0.0375
100
AcDbLine
 10
662.945099
 20
213.40094
 30
0.0
 11
662.945099
 21
216.4009399999999
 31
0.0
  0
LINE
  5
4E4C
330
A
100
AcDbEntity
  8
0
  6
Continuous
 62
     7
 48
0.003751
100
AcDbLine
 10
663.2451469999997
 20
213.40094
 30
0.0
 11
662.945099
 21
213.40094
 31
0.0
  0
LINE
  5
4E4D
330
A
100
AcDbEntity
  8
0
  6
Continuous
 62
     7
 48
0.1125
100
AcDbLine
 10
663.2451469999997
 20
204.4009399999999
 30
0.0
 11
663.2451469999997
 21
213.40094
 31
0.0
  0
LINE
  5
4E4E
330
A
100
AcDbEntity
  8
0
  6
Continuous
 62
     7
 48
0.003751
100
AcDbLine
 10
662.945099
 20
204.4009399999999
 30
0.0
 11
663.2451469999997
 21
204.4009399999999
 31
0.0
  0
LINE
  5
4E4F
330
A
100
AcDbEntity
  8
0
  6
Continuous
 62
     7
 48
0.0375
100
AcDbLine
 10
662.945099
 20
201.4009399999999
 30
0.0
 11
662.945099
 21
204.4009399999999
 31
0.0
  0
LINE
  5
4E50
330
A
100
AcDbEntity
  8
0
  6
Continuous
 62
     7
 48
0.0625
100
AcDbLine
 10
672.445099
 20
203.9009399999999
 30
0.0
 11
667.445099
 21
203.9009399999999
 31
0.0
  0
LINE
  5
4E51
330
A
100
AcDbEntity
  8
0
  6
Continuous
 62
     7
 48
0.125
100
AcDbLine
 10
672.445099
 20
213.9009399999999
 30
0.0
 11
672.445099
 21
203.9009399999999
 31
0.0
  0
LINE
  5
4E52
330
A
100
AcDbEntity
  8
0
  6
Continuous
 62
     7
 48
0.0625
100
AcDbLine
 10
667.445099
 20
213.9009399999999
 30
0.0
 11
672.445099
 21
213.9009399999999
 31
0.0
  0
LINE
  5
4E53
330
A
100
AcDbEntity
  8
0
  6
Continuous
 62
     7
 48
0.036443
100
AcDbLine
 10
665.945099
 20
216.4009399999999
 30
0.0
 11
667.445099
 21
213.9009399999999
 31
0.0
  0
LINE
  5
4E54
330
A
100
AcDbEntity
  8
0
  6
Continuous
 62
     7
 48
0.003751
100
AcDbLine
 10
662.945099
 20
209.300934
 30
0.0
 11
663.2451469999997
 21
209.300934
 31
0.0
  0
LINE
  5
4E55
330
A
100
AcDbEntity
  8
0
  6
Continuous
 62
     7
 48
0.003751
100
AcDbLine
 10
662.945099
 20
208.5009159999999
 30
0.0
 11
663.2451469999997
 21
208.5009159999999
 31
0.0
  0
LINE
  5
4E56
330
A
100
AcDbEntity
  8
0
  6
Continuous
 62
     7
 48
0.0375
100
AcDbLine
 10
665.945099
 20
173.90094
 30
0.0
 11
662.945099
 21
173.90094
 31
0.0
  0
LINE
  5
4E57
330
A
100
AcDbEntity
  8
0
  6
Continuous
 62
     7
 48
0.1425
100
AcDbLine
 10
677.3451229999997
 20
173.90094
 30
0.0
 11
665.945099
 21
173.90094
 31
0.0
  0
LINE
  5
4E58
330
A
100
AcDbEntity
  8
0
  6
Continuous
 62
     7
 48
0.022535
100
AcDbLine
 10
678.3451229999997
 20
175.4009399999999
 30
0.0
 11
677.3451229999997
 21
173.90094
 31
0.0
  0
LINE
  5
4E59
330
A
100
AcDbEntity
  8
0
  6
Continuous
 62
     7
 48
0.031569
100
AcDbLine
 10
680.633697
 20
174.3329459999999
 30
0.0
 11
678.3451229999997
 21
175.4009399999999
 31
0.0
  0
ARC
  5
4E5A
330
A
100
AcDbEntity
  8
0
  6
Continuous
 62
     7
100
AcDbCircle
 10
680.8451229999997
 20
174.78601
 30
0.0
 40
0.5
100
AcDbArc
 50
244.983095
 51
0.00001
  0
LINE
  5
4E5B
330
A
100
AcDbEntity
  8
0
  6
Continuous
 62
     7
 48
0.165373
100
AcDbLine
 10
681.3451229999997
 20
188.0158379999998
 30
0.0
 11
681.3451229999997
 21
174.78601
 31
0.0
  0
ARC
  5
4E5C
330
A
100
AcDbEntity
  8
0
  6
Continuous
 62
     7
100
AcDbCircle
 10
680.8451229999997
 20
188.0158379999998
 30
0.0
 40
0.5
100
AcDbArc
 50
0.0
 51
115.016888
  0
LINE
  5
4E5D
330
A
100
AcDbEntity
  8
0
  6
Continuous
 62
     7
 48
0.031569
100
AcDbLine
 10
678.3451229999997
 20
187.40094
 30
0.0
 11
680.633697
 21
188.4689319999999
 31
0.0
  0
LINE
  5
4E5E
330
A
100
AcDbEntity
  8
0
  6
Continuous
 62
     7
 48
0.022535
100
AcDbLine
 10
677.3451229999997
 20
188.9009399999999
 30
0.0
 11
678.3451229999997
 21
187.40094
 31
0.0
  0
LINE
  5
4E5F
330
A
100
AcDbEntity
  8
0
  6
Continuous
 62
     7
 48
0.1425
100
AcDbLine
 10
665.945099
 20
188.9009399999999
 30
0.0
 11
677.3451229999997
 21
188.9009399999999
 31
0.0
  0
LINE
  5
4E60
330
A
100
AcDbEntity
  8
0
  6
Continuous
 62
     7
 48
0.0375
100
AcDbLine
 10
662.945099
 20
188.9009399999999
 30
0.0
 11
665.945099
 21
188.9009399999999
 31
0.0
  0
LINE
  5
4E61
330
A
100
AcDbEntity
  8
0
  6
Continuous
 62
     7
 48
0.036443
100
AcDbLine
 10
667.445099
 20
176.4009399999999
 30
0.0
 11
665.945099
 21
173.90094
 31
0.0
  0
LINE
  5
4E62
330
A
100
AcDbEntity
  8
0
  6
Continuous
 62
     7
 48
0.0375
100
AcDbLine
 10
662.945099
 20
185.9009399999999
 30
0.0
 11
662.945099
 21
188.9009399999999
 31
0.0
  0
LINE
  5
4E63
330
A
100
AcDbEntity
  8
0
  6
Continuous
 62
     7
 48
0.003751
100
AcDbLine
 10
663.2451469999997
 20
185.9009399999999
 30
0.0
 11
662.945099
 21
185.9009399999999
 31
0.0
  0
LINE
  5
4E64
330
A
100
AcDbEntity
  8
0
  6
Continuous
 62
     7
 48
0.1125
100
AcDbLine
 10
663.2451469999997
 20
176.9009399999999
 30
0.0
 11
663.2451469999997
 21
185.9009399999999
 31
0.0
  0
LINE
  5
4E65
330
A
100
AcDbEntity
  8
0
  6
Continuous
 62
     7
 48
0.003751
100
AcDbLine
 10
662.945099
 20
176.9009399999999
 30
0.0
 11
663.2451469999997
 21
176.9009399999999
 31
0.0
  0
LINE
  5
4E66
330
A
100
AcDbEntity
  8
0
  6
Continuous
 62
     7
 48
0.0375
100
AcDbLine
 10
662.945099
 20
173.90094
 30
0.0
 11
662.945099
 21
176.9009399999999
 31
0.0
  0
LINE
  5
4E67
330
A
100
AcDbEntity
  8
0
  6
Continuous
 62
     7
 48
0.0625
100
AcDbLine
 10
672.445099
 20
176.4009399999999
 30
0.0
 11
667.445099
 21
176.4009399999999
 31
0.0
  0
LINE
  5
4E68
330
A
100
AcDbEntity
  8
0
  6
Continuous
 62
     7
 48
0.125
100
AcDbLine
 10
672.445099
 20
186.40094
 30
0.0
 11
672.445099
 21
176.4009399999999
 31
0.0
  0
LINE
  5
4E69
330
A
100
AcDbEntity
  8
0
  6
Continuous
 62
     7
 48
0.0625
100
AcDbLine
 10
667.445099
 20
186.40094
 30
0.0
 11
672.445099
 21
186.40094
 31
0.0
  0
LINE
  5
4E6A
330
A
100
AcDbEntity
  8
0
  6
Continuous
 62
     7
 48
0.036443
100
AcDbLine
 10
665.945099
 20
188.9009399999999
 30
0.0
 11
667.445099
 21
186.40094
 31
0.0
  0
LINE
  5
4E6B
330
A
100
AcDbEntity
  8
0
  6
Continuous
 62
     7
 48
0.003751
100
AcDbLine
 10
662.945099
 20
181.800934
 30
0.0
 11
663.2451469999997
 21
181.800934
 31
0.0
  0
LINE
  5
4E6C
330
A
100
AcDbEntity
  8
0
  6
Continuous
 62
     7
 48
0.003751
100
AcDbLine
 10
662.945099
 20
181.0009159999999
 30
0.0
 11
663.2451469999997
 21
181.0009159999999
 31
0.0
  0
LINE
  5
4E6E
330
A
100
AcDbEntity
  8
0
  6
Continuous
 62
     7
 48
0.1875
100
AcDbLine
 10
680.945099
 20
387.000916
 30
0.0
 11
665.945099
 21
387.000916
 31
0.0
  0
LINE
  5
4E6F
330
A
100
AcDbEntity
  8
0
  6
Continuous
 62
     7
 48
0.015
100
AcDbLine
 10
680.945099
 20
385.8009339999998
 30
0.0
 11
680.945099
 21
387.000916
 31
0.0
  0
LINE
  5
4E70
330
A
100
AcDbEntity
  8
0
  6
Continuous
 62
     7
 48
0.0875
100
AcDbLine
 10
680.945099
 20
385.8009339999998
 30
0.0
 11
673.9450989999998
 21
385.8009339999998
 31
0.0
  0
LINE
  5
4E71
330
A
100
AcDbEntity
  8
0
  6
Continuous
 62
     7
 48
0.11375
100
AcDbLine
 10
673.9450989999998
 20
385.8009339999998
 30
0.0
 11
673.9450989999998
 21
376.7009279999998
 31
0.0
  0
LINE
  5
4E72
330
A
100
AcDbEntity
  8
0
  6
Continuous
 62
     7
 48
0.1
100
AcDbLine
 10
673.9450989999998
 20
376.7009279999998
 30
0.0
 11
665.945099
 21
376.7009279999998
 31
0.0
  0
LINE
  5
4E73
330
A
100
AcDbEntity
  8
0
  6
Continuous
 62
     7
 48
0.115
100
AcDbLine
 10
665.945099
 20
376.7009279999998
 30
0.0
 11
665.945099
 21
367.500916
 31
0.0
  0
LINE
  5
4E74
330
A
100
AcDbEntity
  8
0
  6
Continuous
 62
     7
 48
0.075
100
AcDbLine
 10
671.945099
 20
367.500916
 30
0.0
 11
665.945099
 21
367.500916
 31
0.0
  0
LINE
  5
4E75
330
A
100
AcDbEntity
  8
0
  6
Continuous
 62
     7
 48
0.115
100
AcDbLine
 10
671.945099
 20
367.500916
 30
0.0
 11
671.945099
 21
376.7009279999998
 31
0.0
  0
LINE
  5
4E76
330
A
100
AcDbEntity
  8
0
  6
Continuous
 62
     7
 48
0.0875
100
AcDbLine
 10
680.945099
 20
376.7009279999998
 30
0.0
 11
673.9450989999998
 21
376.7009279999998
 31
0.0
  0
LINE
  5
4E77
330
A
100
AcDbEntity
  8
0
  6
Continuous
 62
     7
 48
0.11375
100
AcDbLine
 10
680.945099
 20
376.7009279999998
 30
0.0
 11
680.945099
 21
385.8009339999998
 31
0.0
  0
LINE
  5
4E78
330
A
100
AcDbEntity
  8
0
  6
Continuous
 62
     7
 48
0.3375
100
AcDbLine
 10
665.945099
 20
363.500916
 30
0.0
 11
665.945099
 21
390.500916
 31
0.0
  0
LINE
  5
4E79
330
A
100
AcDbEntity
  8
0
  6
Continuous
 62
     7
 48
0.03125
100
AcDbLine
 10
665.945099
 20
361.000916
 30
0.0
 11
665.945099
 21
363.500916
 31
0.0
  0
LINE
  5
4E7A
330
A
100
AcDbEntity
  8
0
  6
Continuous
 62
     7
 48
0.019822
100
AcDbLine
 10
665.945099
 20
361.000916
 30
0.0
 11
665.945099
 21
359.4151299999998
 31
0.0
  0
ARC
  5
4E7B
330
A
100
AcDbEntity
  8
0
  6
Continuous
 62
     7
100
AcDbCircle
 10
664.9450989999998
 20
390.500916
 30
0.0
 40
1.0
100
AcDbArc
 50
0.0
 51
90.00000300000001
  0
ARC
  5
4E7F
330
A
100
AcDbEntity
  8
0
  6
Continuous
 62
     7
100
AcDbCircle
 10
664.9450989999998
 20
363.500916
 30
0.0
 40
1.0
100
AcDbArc
 50
270.000001
 51
0.00001
  0
LINE
  5
4E80
330
A
100
AcDbEntity
  8
0
  6
Continuous
 62
     7
 48
0.01875
100
AcDbLine
 10
664.9450989999998
 20
361.000916
 30
0.0
 11
664.9450989999998
 21
362.500916
 31
0.0
  0
LINE
  5
4E81
330
A
100
AcDbEntity
  8
0
  6
Continuous
 62
     7
 48
0.0125
100
AcDbLine
 10
665.945099
 20
361.000916
 30
0.0
 11
664.9450989999998
 21
361.000916
 31
0.0
  0
ARC
  5
4E84
330
A
100
AcDbEntity
  8
0
  6
Continuous
 62
     7
100
AcDbCircle
 10
664.9450989999998
 20
359.4151299999998
 30
0.0
 40
1.0
100
AcDbArc
 50
314.9999899999999
 51
0.00001
  0
LINE
  5
4E85
330
A
100
AcDbEntity
  8
0
  6
Continuous
 62
     7
100
AcDbLine
 10
620.945099
 20
391.500916
 30
0.0
 11
664.9450989999998
 21
391.500916
 31
0.0
  0
LINE
  5
4E87
330
A
100
AcDbEntity
  8
0
  6
Continuous
 62
     7
 48
0.0625
100
AcDbLine
 10
629.945099
 20
362.500916
 30
0.0
 11
629.945099
 21
359.500916
 31
0.0
  0
LINE
  5
4E8A
330
A
100
AcDbEntity
  8
0
  6
Continuous
 62
     7
100
AcDbLine
 10
620.945099
 20
390.500916
 30
0.0
 11
620.945099
 21
336.500916
 31
0.0
  0
LINE
  5
4E8B
330
A
100
AcDbEntity
  8
0
  6
Continuous
 62
     7
 48
0.03125
100
AcDbLine
 10
620.945099
 20
336.500916
 30
0.0
 11
623.4450989999998
 21
336.500916
 31
0.0
  0
LINE
  5
4E8C
330
A
100
AcDbEntity
  8
0
  6
Continuous
 62
     7
 48
0.10625
100
AcDbLine
 10
623.4450989999998
 20
344.000916
 30
0.0
 11
623.4450989999998
 21
336.500916
 31
0.0
  0
LINE
  5
4E8F
330
A
100
AcDbEntity
  8
0
  6
Continuous
 62
     7
 48
0.4375
100
AcDbLine
 10
664.9450989999998
 20
362.500916
 30
0.0
 11
629.945099
 21
362.500916
 31
0.0
  0
LINE
  5
4E90
330
A
100
AcDbEntity
  8
0
  6
Continuous
 62
     7
 48
0.01875
100
AcDbLine
 10
639.9450989999998
 20
359.500916
 30
0.0
 11
639.9450989999998
 21
361.000916
 31
0.0
  0
LINE
  5
4E91
330
A
100
AcDbEntity
  8
0
  6
Continuous
 62
     7
 48
0.3125
100
AcDbLine
 10
664.9450989999998
 20
361.000916
 30
0.0
 11
639.9450989999998
 21
361.000916
 31
0.0
  0
LWPOLYLINE
  5
4E92
330
A
100
AcDbEntity
  8
0
  6
Continuous
 62
     7
100
AcDbPolyline
 90
        6
 70
     0
 43
0.0
 10
640.945099
 20
359.0009160000001
 10
640.9166569999997
 20
359.3065479999994
 10
640.8408509999998
 20
359.595642
 10
640.7225649999998
 20
359.8826299999998
 10
640.4223929999998
 20
360.3858339999998
 10
639.9450989999998
 20
361.000916
  0
LINE
  5
4E9C
330
A
100
AcDbEntity
  8
0
  6
Continuous
 62
     7
 48
0.042678
100
AcDbLine
 10
665.652251
 20
358.7080379999998
 30
0.0
 11
663.238007
 21
356.2938219999998
 31
0.0
  0
LINE
  5
4E9D
330
A
100
AcDbEntity
  8
0
  6
Continuous
 62
     7
 48
0.0125
100
AcDbLine
 10
620.945099
 20
390.500916
 30
0.0
 11
620.945099
 21
391.500916
 31
0.0
  0
LINE
  5
4E9F
330
A
100
AcDbEntity
  8
0
  6
Continuous
 62
     7
 48
0.125
100
AcDbLine
 10
639.9450989999998
 20
359.500916
 30
0.0
 11
629.945099
 21
359.500916
 31
0.0
  0
LINE
  5
4EA1
330
A
100
AcDbEntity
  8
0
  6
Continuous
 62
     7
 48
0.0125
100
AcDbLine
 10
623.4450989999998
 20
335.500916
 30
0.0
 11
623.4450989999998
 21
336.500916
 31
0.0
  0
LINE
  5
4EA2
330
A
100
AcDbEntity
  8
0
  6
Continuous
 62
     7
 48
0.0125
100
AcDbLine
 10
620.945099
 20
335.500916
 30
0.0
 11
620.945099
 21
336.500916
 31
0.0
  0
LINE
  5
4EA3
330
A
100
AcDbEntity
  8
0
  6
Continuous
 62
     7
 48
0.03125
100
AcDbLine
 10
620.945099
 20
335.500916
 30
0.0
 11
623.4450989999998
 21
335.500916
 31
0.0
  0
LINE
  5
4EA4
330
A
100
AcDbEntity
  8
0
  6
Continuous
 62
     7
 48
0.20625
100
AcDbLine
 10
639.9450989999998
 20
335.500916
 30
0.0
 11
623.4450989999998
 21
335.500916
 31
0.0
  0
LINE
  5
4EA8
330
A
100
AcDbEntity
  8
0
  6
Continuous
 62
     7
 48
0.18125
100
AcDbLine
 10
639.9450989999998
 20
339.500916
 30
0.0
 11
625.445099
 21
339.500916
 31
0.0
  0
LINE
  5
4EA9
330
A
100
AcDbEntity
  8
0
  6
Continuous
 62
     7
 48
0.05625
100
AcDbLine
 10
639.9450989999998
 20
339.500916
 30
0.0
 11
639.9450989999998
 21
344.000916
 31
0.0
  0
LINE
  5
4EAA
330
A
100
AcDbEntity
  8
0
  6
Continuous
 62
     7
 48
0.20625
100
AcDbLine
 10
639.9450989999998
 20
344.000916
 30
0.0
 11
623.4450989999998
 21
344.000916
 31
0.0
  0
LINE
  5
4EAB
330
A
100
AcDbEntity
  8
0
  6
Continuous
 62
     7
 48
0.269823
100
AcDbLine
 10
662.5309149999996
 20
356.000916
 30
0.0
 11
640.945099
 21
356.000916
 31
0.0
  0
ARC
  5
4EAC
330
A
100
AcDbEntity
  8
0
  6
Continuous
 62
     7
100
AcDbCircle
 10
662.5309149999996
 20
357.0009160000001
 30
0.0
 40
1.0
100
AcDbArc
 50
270.000001
 51
314.9999899999999
  0
ARC
  5
4EAF
330
A
100
AcDbEntity
  8
0
  6
Continuous
 62
     7
100
AcDbCircle
 10
639.9450989999998
 20
358.500916
 30
0.0
 40
1.0
100
AcDbArc
 50
0.0
 51
90.00000300000001
  0
ARC
  5
4EB2
330
A
100
AcDbEntity
  8
0
  6
Continuous
 62
     7
100
AcDbCircle
 10
639.9450989999998
 20
345.000916
 30
0.0
 40
1.0
100
AcDbArc
 50
270.000001
 51
0.00001
  0
LINE
  5
4EB3
330
A
100
AcDbEntity
  8
0
  6
Continuous
 62
     7
 48
0.0125
100
AcDbLine
 10
640.945099
 20
339.500916
 30
0.0
 11
639.9450989999998
 21
339.500916
 31
0.0
  0
LINE
  5
4EB4
330
A
100
AcDbEntity
  8
0
  6
Continuous
 62
     7
 48
0.06875
100
AcDbLine
 10
640.945099
 20
339.500916
 30
0.0
 11
640.945099
 21
345.000916
 31
0.0
  0
LINE
  5
4EB6
330
A
100
AcDbEntity
  8
0
  6
Continuous
 62
     7
 48
0.0375
100
AcDbLine
 10
640.945099
 20
339.500916
 30
0.0
 11
640.945099
 21
336.500916
 31
0.0
  0
ARC
  5
4EB7
330
A
100
AcDbEntity
  8
0
  6
Continuous
 62
     7
100
AcDbCircle
 10
639.9450989999998
 20
336.500916
 30
0.0
 40
1.0
100
AcDbArc
 50
270.000001
 51
0.00001
  0
LINE
  5
4EB9
330
A
100
AcDbEntity
  8
0
  6
Continuous
 62
     7
 48
0.00625
100
AcDbLine
 10
640.945099
 20
358.500916
 30
0.0
 11
640.945099
 21
359.0009160000001
 31
0.0
  0
LINE
  5
4EBA
330
A
100
AcDbEntity
  8
0
  6
Continuous
 62
     7
 48
0.16875
100
AcDbLine
 10
640.945099
 20
345.000916
 30
0.0
 11
640.945099
 21
358.500916
 31
0.0
  0
LINE
  5
4EBD
330
A
100
AcDbEntity
  8
0
  6
Continuous
 62
     7
 48
0.0025
100
AcDbLine
 10
639.9450989999998
 20
391.8009339999998
 30
0.0
 11
639.9450989999998
 21
391.6009219999998
 31
0.0
  0
LINE
  5
4EBE
330
A
100
AcDbEntity
  8
0
  6
Continuous
 62
     7
 48
0.00125
100
AcDbLine
 10
639.9450989999998
 20
391.500916
 30
0.0
 11
639.9450989999998
 21
391.6009219999998
 31
0.0
  0
LINE
  5
4EC1
330
A
100
AcDbEntity
  8
0
  6
Continuous
 62
     7
 48
0.1
100
AcDbLine
 10
639.9450989999998
 20
391.8009339999998
 30
0.0
 11
631.9450989999998
 21
391.8009339999998
 31
0.0
  0
LINE
  5
4EC6
330
A
100
AcDbEntity
  8
0
  6
Continuous
 62
     7
 48
0.0875
100
AcDbLine
 10
631.9450989999998
 20
391.500916
 30
0.0
 11
624.945099
 21
391.500916
 31
0.0
  0
LINE
  5
4EC7
330
A
100
AcDbEntity
  8
0
  6
Continuous
 62
     7
 48
0.0125
100
AcDbLine
 10
624.945099
 20
391.500916
 30
0.0
 11
623.9450989999998
 21
391.500916
 31
0.0
  0
LINE
  5
4EC9
330
A
100
AcDbEntity
  8
0
  6
Continuous
 62
     7
 48
0.0025
100
AcDbLine
 10
623.9450989999998
 20
391.7009279999998
 30
0.0
 11
623.9450989999998
 21
391.500916
 31
0.0
  0
LINE
  5
4ECA
330
A
100
AcDbEntity
  8
0
  6
Continuous
 62
     7
 48
0.1
100
AcDbLine
 10
631.9450989999998
 20
391.8009339999998
 30
0.0
 11
623.9450989999998
 21
391.8009339999998
 31
0.0
  0
LINE
  5
4ECB
330
A
100
AcDbEntity
  8
0
  6
Continuous
 62
     7
 48
0.00125
100
AcDbLine
 10
623.9450989999998
 20
391.8009339999998
 30
0.0
 11
623.9450989999998
 21
391.7009279999998
 31
0.0
  0
LINE
  5
4ECC
330
A
100
AcDbEntity
  8
0
  6
Continuous
 62
     7
 48
0.004055
100
AcDbLine
 10
623.4450989999998
 20
337.1753239999998
 30
0.0
 11
623.4450989999998
 21
336.8509219999996
 31
0.0
  0
LINE
  5
4ECD
330
A
100
AcDbEntity
  8
0
  6
Continuous
 62
     7
 48
0.062195
100
AcDbLine
 10
623.4450989999998
 20
342.1509399999998
 30
0.0
 11
623.4450989999998
 21
337.1753239999998
 31
0.0
  0
LINE
  5
4ED0
330
A
100
AcDbEntity
  8
0
  6
Continuous
 62
     7
 48
0.00329
100
AcDbLine
 10
625.445099
 20
337.6141359999998
 30
0.0
 11
625.445099
 21
337.3509219999998
 31
0.0
  0
LINE
  5
4ED1
330
A
100
AcDbEntity
  8
0
  6
Continuous
 62
     7
 48
0.05046
100
AcDbLine
 10
625.445099
 20
341.6509399999998
 30
0.0
 11
625.445099
 21
337.6141359999998
 31
0.0
  0
LINE
  5
4ED2
330
A
100
AcDbEntity
  8
0
  6
Continuous
 62
     7
 48
0.01875
100
AcDbLine
 10
624.945099
 20
336.8509219999996
 30
0.0
 11
623.4450989999998
 21
336.8509219999996
 31
0.0
  0
LINE
  5
4ED3
330
A
100
AcDbEntity
  8
0
  6
Continuous
 62
     7
 48
0.01875
100
AcDbLine
 10
624.945099
 20
342.1509399999998
 30
0.0
 11
623.4450989999998
 21
342.1509399999998
 31
0.0
  0
ARC
  5
4ED4
330
A
100
AcDbEntity
  8
0
  6
Continuous
 62
     7
100
AcDbCircle
 10
624.945099
 20
337.3509219999998
 30
0.0
 40
0.5
100
AcDbArc
 50
269.9999969999999
 51
0.0
  0
ARC
  5
4ED5
330
A
100
AcDbEntity
  8
0
  6
Continuous
 62
     7
100
AcDbCircle
 10
624.945099
 20
341.6509399999998
 30
0.0
 40
0.5
100
AcDbArc
 50
0.0
 51
90.00000300000001
  0
LINE
  5
4ED6
330
A
100
AcDbEntity
  8
0
  6
Continuous
 62
     7
 48
0.004055
100
AcDbLine
 10
623.4450989999998
 20
161.5753179999998
 30
0.0
 11
623.4450989999998
 21
161.2509159999998
 31
0.0
  0
LINE
  5
4ED7
330
A
100
AcDbEntity
  8
0
  6
Continuous
 62
     7
 48
0.00407
100
AcDbLine
 10
623.4450989999998
 20
161.9009399999999
 30
0.0
 11
623.4450989999998
 21
161.5753179999998
 31
0.0
  0
LINE
  5
4ED8
330
A
100
AcDbEntity
  8
0
  6
Continuous
 62
     7
 48
0.004055
100
AcDbLine
 10
624.945099
 20
161.5753179999998
 30
0.0
 11
624.945099
 21
161.2509159999998
 31
0.0
  0
LINE
  5
4ED9
330
A
100
AcDbEntity
  8
0
  6
Continuous
 62
     7
 48
0.00407
100
AcDbLine
 10
624.945099
 20
161.9009399999999
 30
0.0
 11
624.945099
 21
161.5753179999998
 31
0.0
  0
LINE
  5
4EDA
330
A
100
AcDbEntity
  8
0
  6
Continuous
 62
     7
 48
0.001877
100
AcDbLine
 10
625.445099
 20
161.9010619999998
 30
0.0
 11
625.445099
 21
161.7509159999998
 31
0.0
  0
LINE
  5
4EDB
330
A
100
AcDbEntity
  8
0
  6
Continuous
 62
     7
 48
0.01875
100
AcDbLine
 10
624.945099
 20
161.2509159999998
 30
0.0
 11
623.4450989999998
 21
161.2509159999998
 31
0.0
  0
ARC
  5
4EDC
330
A
100
AcDbEntity
  8
0
  6
Continuous
 62
     7
100
AcDbCircle
 10
624.945099
 20
161.7509159999998
 30
0.0
 40
0.5
100
AcDbArc
 50
269.9999969999999
 51
0.0
  0
ARC
  5
4EDD
330
A
100
AcDbEntity
  8
0
  6
DASHED
 62
     4
100
AcDbCircle
 10
519.5451349999996
 20
180.1009219999998
 30
0.0
 40
2.0
100
AcDbArc
 50
270.000001
 51
0.00001
  0
LINE
  5
4EDE
330
A
100
AcDbEntity
  8
0
  6
DASHED
 62
     4
100
AcDbLine
 10
468.5451349999998
 20
178.1009219999998
 30
0.0
 11
519.5451349999996
 21
178.1009219999998
 31
0.0
  0
LINE
  5
4EDF
330
A
100
AcDbEntity
  8
0
  6
DASHED
 62
     4
100
AcDbLine
 10
521.5451349999998
 20
180.1009219999998
 30
0.0
 11
521.5451349999998
 21
240.1009219999997
 31
0.0
  0
ARC
  5
4EE0
330
A
100
AcDbEntity
  8
0
  6
DASHED
 62
     4
100
AcDbCircle
 10
519.5451349999996
 20
240.1009219999997
 30
0.0
 40
2.0
100
AcDbArc
 50
0.0
 51
90.00000300000001
  0
LINE
  5
4EE1
330
A
100
AcDbEntity
  8
0
  6
DASHED
 62
     4
100
AcDbLine
 10
519.5451349999996
 20
242.1009219999997
 30
0.0
 11
468.5451349999998
 21
242.1009219999997
 31
0.0
  0
LINE
  5
4EE2
330
A
100
AcDbEntity
  8
0
  6
DASHED
 62
     4
 48
0.1375
100
AcDbLine
 10
495.5451349999997
 20
181.100922
 30
0.0
 11
484.5451349999996
 21
181.100922
 31
0.0
  0
ARC
  5
4EE3
330
A
100
AcDbEntity
  8
0
  6
DASHED
 62
     4
100
AcDbCircle
 10
484.5451349999996
 20
187.1009219999999
 30
0.0
 40
6.0
100
AcDbArc
 50
4.411725999999998
 51
270.000001
  0
ARC
  5
4EE4
330
A
100
AcDbEntity
  8
0
  6
DASHED
 62
     4
100
AcDbCircle
 10
491.025849
 20
187.600922
 30
0.0
 40
0.5
100
AcDbArc
 50
184.41172
 51
270.000001
  0
LINE
  5
4EE5
330
A
100
AcDbEntity
  8
0
  6
DASHED
 62
     4
 48
0.036095
100
AcDbLine
 10
491.025849
 20
187.1009219999999
 30
0.0
 11
493.9134829999998
 21
187.1009219999999
 31
0.0
  0
ARC
  5
4EE6
330
A
100
AcDbEntity
  8
0
  6
DASHED
 62
     4
100
AcDbCircle
 10
493.9134829999998
 20
187.600922
 30
0.0
 40
0.5
100
AcDbArc
 50
270.000001
 51
340.632408
  0
LINE
  5
4EE7
330
A
100
AcDbEntity
  8
0
  6
DASHED
 62
     4
 48
0.290236
100
AcDbLine
 10
503.3922429999998
 20
213.058258
 30
0.0
 11
511.0922549999998
 21
234.9631659999998
 31
0.0
  0
LINE
  5
4EE8
330
A
100
AcDbEntity
  8
0
  6
DASHED
 62
     4
 48
0.243514
100
AcDbLine
 10
494.3852229999998
 20
187.4351199999999
 30
0.0
 11
500.8456729999998
 21
205.8138419999998
 31
0.0
  0
ARC
  5
4EE9
330
A
100
AcDbEntity
  8
0
  6
DASHED
 62
     4
100
AcDbCircle
 10
513.5451349999998
 20
234.1009219999997
 30
0.0
 40
2.6
100
AcDbArc
 50
340.632408
 51
160.632371
  0
LINE
  5
4EEA
330
A
100
AcDbEntity
  8
0
  6
DASHED
 62
     4
 48
0.282764
100
AcDbLine
 10
505.8771669999996
 20
204.4470219999998
 30
0.0
 11
498.3753969999998
 21
183.1060479999995
 31
0.0
  0
LINE
  5
4EEB
330
A
100
AcDbEntity
  8
0
  6
DASHED
 62
     4
 48
0.287776
100
AcDbLine
 10
515.9980169999998
 20
233.2387079999997
 30
0.0
 11
508.3632509999998
 21
211.5194699999998
 31
0.0
  0
ARC
  5
4EEC
330
A
100
AcDbEntity
  8
0
  6
DASHED
 62
     4
100
AcDbCircle
 10
495.5451349999997
 20
184.1009219999998
 30
0.0
 40
3.0
100
AcDbArc
 50
270.000001
 51
340.632408
  0
LINE
  5
4EED
330
A
100
AcDbEntity
  8
0
  6
DASHED
 62
     4
 48
0.025
100
AcDbLine
 10
466.5451349999996
 20
242.1009219999997
 30
0.0
 11
466.5451349999996
 21
240.1009219999997
 31
0.0
  0
LINE
  5
4EEE
330
A
100
AcDbEntity
  8
0
  6
DASHED
 62
     4
 48
0.025
100
AcDbLine
 10
466.5451349999996
 20
240.1009219999997
 30
0.0
 11
468.5451349999998
 21
240.1009219999997
 31
0.0
  0
LINE
  5
4EEF
330
A
100
AcDbEntity
  8
0
  6
DASHED
 62
     4
 48
0.025
100
AcDbLine
 10
468.5451349999998
 20
240.1009219999997
 30
0.0
 11
468.5451349999998
 21
242.1009219999997
 31
0.0
  0
LINE
  5
4EF0
330
A
100
AcDbEntity
  8
0
  6
DASHED
 62
     4
 48
0.025
100
AcDbLine
 10
466.5451349999996
 20
242.1009219999997
 30
0.0
 11
468.5451349999998
 21
242.1009219999997
 31
0.0
  0
LINE
  5
4EF1
330
A
100
AcDbEntity
  8
0
  6
DASHED
 62
     4
100
AcDbLine
 10
468.5451349999998
 20
180.1009219999998
 30
0.0
 11
468.5451349999998
 21
240.1009219999997
 31
0.0
  0
LINE
  5
4EF2
330
A
100
AcDbEntity
  8
0
  6
DASHED
 62
     4
 48
0.025
100
AcDbLine
 10
468.5451349999998
 20
178.1009219999998
 30
0.0
 11
468.5451349999998
 21
180.1009219999998
 31
0.0
  0
LINE
  5
4EF3
330
A
100
AcDbEntity
  8
0
  6
DASHED
 62
     4
100
AcDbLine
 10
466.5451349999996
 20
240.1009219999997
 30
0.0
 11
466.5451349999996
 21
180.1009219999998
 31
0.0
  0
LINE
  5
4EF4
330
A
100
AcDbEntity
  8
0
  6
DASHED
 62
     4
 48
0.025
100
AcDbLine
 10
466.5451349999996
 20
180.1009219999998
 30
0.0
 11
468.5451349999998
 21
180.1009219999998
 31
0.0
  0
LINE
  5
4EF5
330
A
100
AcDbEntity
  8
0
  6
DASHED
 62
     4
 48
0.025
100
AcDbLine
 10
466.5451349999996
 20
180.1009219999998
 30
0.0
 11
466.5451349999996
 21
178.1009219999998
 31
0.0
  0
LINE
  5
4EF6
330
A
100
AcDbEntity
  8
0
  6
DASHED
 62
     4
 48
0.025
100
AcDbLine
 10
466.5451349999996
 20
178.1009219999998
 30
0.0
 11
468.5451349999998
 21
178.1009219999998
 31
0.0
  0
LINE
  5
4EF7
330
A
100
AcDbEntity
  8
0
  6
DASHED
 62
     4
 48
0.048353
100
AcDbLine
 10
501.1951589999998
 20
206.7668139999999
 30
0.0
 11
504.5451349999996
 21
204.8326719999995
 31
0.0
  0
LINE
  5
4EF8
330
A
100
AcDbEntity
  8
0
  6
DASHED
 62
     4
 48
0.014434
100
AcDbLine
 10
500.1951589999998
 20
206.1894519999998
 30
0.0
 11
501.1951589999998
 21
206.7668139999999
 31
0.0
  0
LINE
  5
4EF9
330
A
100
AcDbEntity
  8
0
  6
DASHED
 62
     4
 48
0.062787
100
AcDbLine
 10
500.1951589999998
 20
206.1894519999998
 30
0.0
 11
504.5451349999996
 21
203.6779779999998
 31
0.0
  0
LINE
  5
4EFA
330
A
100
AcDbEntity
  8
0
  6
DASHED
 62
     4
 48
0.014434
100
AcDbLine
 10
504.5451349999996
 20
203.6779779999998
 30
0.0
 11
504.5451349999996
 21
204.8326719999995
 31
0.0
  0
LINE
  5
4EFB
330
A
100
AcDbEntity
  8
0
  6
DASHED
 62
     4
 48
0.048353
100
AcDbLine
 10
501.1951589999998
 20
210.63504
 30
0.0
 11
501.1951589999998
 21
206.7668139999999
 31
0.0
  0
LINE
  5
4EFC
330
A
100
AcDbEntity
  8
0
  6
DASHED
 62
     4
 48
0.014434
100
AcDbLine
 10
500.1951589999998
 20
211.2124019999998
 30
0.0
 11
501.1951589999998
 21
210.63504
 31
0.0
  0
LINE
  5
4EFD
330
A
100
AcDbEntity
  8
0
  6
DASHED
 62
     4
 48
0.062787
100
AcDbLine
 10
500.1951589999998
 20
211.2124019999998
 30
0.0
 11
500.1951589999998
 21
206.1894519999998
 31
0.0
  0
LINE
  5
4EFE
330
A
100
AcDbEntity
  8
0
  6
DASHED
 62
     4
 48
0.048353
100
AcDbLine
 10
504.5451349999996
 20
212.5691839999998
 30
0.0
 11
501.1951589999998
 21
210.63504
 31
0.0
  0
LINE
  5
4EFF
330
A
100
AcDbEntity
  8
0
  6
DASHED
 62
     4
 48
0.014434
100
AcDbLine
 10
504.5451349999996
 20
213.7238759999998
 30
0.0
 11
504.5451349999996
 21
212.5691839999998
 31
0.0
  0
LINE
  5
4F00
330
A
100
AcDbEntity
  8
0
  6
DASHED
 62
     4
 48
0.062787
100
AcDbLine
 10
504.5451349999996
 20
213.7238759999998
 30
0.0
 11
500.1951589999998
 21
211.2124019999998
 31
0.0
  0
LINE
  5
4F01
330
A
100
AcDbEntity
  8
0
  6
DASHED
 62
     4
 48
0.048353
100
AcDbLine
 10
507.895111
 20
210.63504
 30
0.0
 11
504.5451349999996
 21
212.5691839999998
 31
0.0
  0
LINE
  5
4F02
330
A
100
AcDbEntity
  8
0
  6
DASHED
 62
     4
 48
0.014434
100
AcDbLine
 10
508.8951109999999
 20
211.2124019999998
 30
0.0
 11
507.895111
 21
210.63504
 31
0.0
  0
LINE
  5
4F03
330
A
100
AcDbEntity
  8
0
  6
DASHED
 62
     4
 48
0.062787
100
AcDbLine
 10
508.8951109999999
 20
211.2124019999998
 30
0.0
 11
504.5451349999996
 21
213.7238759999998
 31
0.0
  0
LINE
  5
4F04
330
A
100
AcDbEntity
  8
0
  6
DASHED
 62
     4
 48
0.048353
100
AcDbLine
 10
507.895111
 20
206.7668139999999
 30
0.0
 11
507.895111
 21
210.63504
 31
0.0
  0
LINE
  5
4F05
330
A
100
AcDbEntity
  8
0
  6
DASHED
 62
     4
 48
0.014434
100
AcDbLine
 10
508.8951109999999
 20
206.1894519999998
 30
0.0
 11
507.895111
 21
206.7668139999999
 31
0.0
  0
LINE
  5
4F06
330
A
100
AcDbEntity
  8
0
  6
DASHED
 62
     4
 48
0.062787
100
AcDbLine
 10
508.8951109999999
 20
206.1894519999998
 30
0.0
 11
508.8951109999999
 21
211.2124019999998
 31
0.0
  0
LINE
  5
4F07
330
A
100
AcDbEntity
  8
0
  6
DASHED
 62
     4
 48
0.048353
100
AcDbLine
 10
504.5451349999996
 20
204.8326719999995
 30
0.0
 11
507.895111
 21
206.7668139999999
 31
0.0
  0
LINE
  5
4F08
330
A
100
AcDbEntity
  8
0
  6
DASHED
 62
     4
 48
0.062787
100
AcDbLine
 10
504.5451349999996
 20
203.6779779999998
 30
0.0
 11
508.8951109999999
 21
206.1894519999998
 31
0.0
  0
LINE
  5
4F09
330
A
100
AcDbEntity
  8
0
  6
DASHED
 62
     4
 48
0.01375
100
AcDbLine
 10
505.145111
 20
210.1009219999999
 30
0.0
 11
505.145111
 21
211.2009279999999
 31
0.0
  0
ARC
  5
4F0A
330
A
100
AcDbEntity
  8
0
  6
DASHED
 62
     4
100
AcDbCircle
 10
505.9451589999998
 20
210.1009219999999
 30
0.0
 40
0.8
100
AcDbArc
 50
180.000005
 51
270.000001
  0
LINE
  5
4F0B
330
A
100
AcDbEntity
  8
0
  6
DASHED
 62
     4
 48
0.01375
100
AcDbLine
 10
505.9451589999998
 20
209.300934
 30
0.0
 11
507.0451349999993
 21
209.300934
 31
0.0
  0
LINE
  5
4F0C
330
A
100
AcDbEntity
  8
0
  6
DASHED
 62
     4
 48
0.015
100
AcDbLine
 10
507.0451349999993
 20
208.1009219999998
 30
0.0
 11
507.0451349999993
 21
209.300934
 31
0.0
  0
LINE
  5
4F0D
330
A
100
AcDbEntity
  8
0
  6
DASHED
 62
     4
 48
0.01375
100
AcDbLine
 10
507.0451349999993
 20
208.1009219999998
 30
0.0
 11
505.9451589999998
 21
208.1009219999998
 31
0.0
  0
ARC
  5
4F0E
330
A
100
AcDbEntity
  8
0
  6
DASHED
 62
     4
100
AcDbCircle
 10
505.9451589999998
 20
207.300934
 30
0.0
 40
0.8
100
AcDbArc
 50
90.00000300000001
 51
180.000005
  0
LINE
  5
4F0F
330
A
100
AcDbEntity
  8
0
  6
DASHED
 62
     4
 48
0.01375
100
AcDbLine
 10
505.145111
 20
206.200928
 30
0.0
 11
505.145111
 21
207.300934
 31
0.0
  0
LINE
  5
4F10
330
A
100
AcDbEntity
  8
0
  6
DASHED
 62
     4
 48
0.014999
100
AcDbLine
 10
505.145111
 20
206.200928
 30
0.0
 11
503.9451589999996
 21
206.200928
 31
0.0
  0
LINE
  5
4F11
330
A
100
AcDbEntity
  8
0
  6
DASHED
 62
     4
 48
0.01375
100
AcDbLine
 10
503.9451589999996
 20
207.300934
 30
0.0
 11
503.9451589999996
 21
206.200928
 31
0.0
  0
ARC
  5
4F12
330
A
100
AcDbEntity
  8
0
  6
DASHED
 62
     4
100
AcDbCircle
 10
503.1451109999999
 20
207.300934
 30
0.0
 40
0.8
100
AcDbArc
 50
0.0
 51
90.00000300000001
  0
LINE
  5
4F13
330
A
100
AcDbEntity
  8
0
  6
DASHED
 62
     4
 48
0.01375
100
AcDbLine
 10
503.1451109999999
 20
208.1009219999998
 30
0.0
 11
502.0451349999998
 21
208.1009219999998
 31
0.0
  0
LINE
  5
4F14
330
A
100
AcDbEntity
  8
0
  6
DASHED
 62
     4
 48
0.015
100
AcDbLine
 10
502.0451349999998
 20
209.300934
 30
0.0
 11
502.0451349999998
 21
208.1009219999998
 31
0.0
  0
LINE
  5
4F15
330
A
100
AcDbEntity
  8
0
  6
DASHED
 62
     4
 48
0.01375
100
AcDbLine
 10
502.0451349999998
 20
209.300934
 30
0.0
 11
503.1451109999999
 21
209.300934
 31
0.0
  0
ARC
  5
4F16
330
A
100
AcDbEntity
  8
0
  6
DASHED
 62
     4
100
AcDbCircle
 10
503.1451109999999
 20
210.1009219999999
 30
0.0
 40
0.8
100
AcDbArc
 50
270.000001
 51
0.00001
  0
LINE
  5
4F17
330
A
100
AcDbEntity
  8
0
  6
DASHED
 62
     4
 48
0.01375
100
AcDbLine
 10
503.9451589999996
 20
211.2009279999999
 30
0.0
 11
503.9451589999996
 21
210.1009219999999
 31
0.0
  0
LINE
  5
4F18
330
A
100
AcDbEntity
  8
0
  6
DASHED
 62
     4
 48
0.014999
100
AcDbLine
 10
503.9451589999996
 20
211.2009279999999
 30
0.0
 11
505.145111
 21
211.2009279999999
 31
0.0
  0
LINE
  5
5363
330
A
100
AcDbEntity
  8
0
  6
Continuous
 62
     7
 48
0.01875
100
AcDbLine
 10
337.6862489999997
 20
116.700928
 30
0.0
 11
337.6862489999997
 21
118.200928
 31
0.0
  0
LINE
  5
5364
330
A
100
AcDbEntity
  8
0
  6
Continuous
 62
     7
100
AcDbLine
 10
337.6862489999997
 20
211.7108159999999
 30
0.0
 11
337.6862489999997
 21
305.6910399999998
 31
0.0
  0
LINE
  5
5365
330
A
100
AcDbEntity
  8
0
  6
Continuous
 62
     7
 48
0.01875
100
AcDbLine
 10
337.6862489999997
 20
399.2009279999998
 30
0.0
 11
337.6862489999997
 21
400.7009279999998
 31
0.0
  0
LINE
  5
5366
330
A
100
AcDbEntity
  8
0
  6
Continuous
 62
     7
 48
0.025
100
AcDbLine
 10
337.6862489999997
 20
116.700928
 30
0.0
 11
337.6862489999997
 21
114.700928
 31
0.0
  0
LINE
  5
5367
330
A
100
AcDbEntity
  8
0
  6
Continuous
 62
     7
 48
0.025
100
AcDbLine
 10
337.6862489999997
 20
400.7009279999998
 30
0.0
 11
337.6862489999997
 21
402.7009279999998
 31
0.0
  0
LINE
  5
5368
330
A
100
AcDbEntity
  8
0
  6
Continuous
 62
     7
 48
0.077264
100
AcDbLine
 10
55.867401
 20
400.7009279999998
 30
0.0
 11
49.686249
 21
400.7009279999998
 31
0.0
  0
LINE
  5
5369
330
A
100
AcDbEntity
  8
0
  6
Continuous
 62
     7
 48
0.01655
100
AcDbLine
 10
57.191437
 20
400.7009279999998
 30
0.0
 11
55.867401
 21
400.7009279999998
 31
0.0
  0
LINE
  5
536D
330
A
100
AcDbEntity
  8
0
  6
Continuous
 62
     7
100
AcDbLine
 10
336.6862489999998
 20
402.7009279999998
 30
0.0
 11
61.53112700000001
 21
402.7009279999998
 31
0.0
  0
LINE
  5
536E
330
A
100
AcDbEntity
  8
0
  6
Continuous
 62
     7
 48
0.0125
100
AcDbLine
 10
337.6862489999997
 20
402.7009279999998
 30
0.0
 11
336.6862489999998
 21
402.7009279999998
 31
0.0
  0
LINE
  5
5372
330
A
100
AcDbEntity
  8
0
  6
Continuous
 62
     7
 48
0.025
100
AcDbLine
 10
49.686249
 20
400.7009279999998
 30
0.0
 11
49.686249
 21
402.7009279999998
 31
0.0
  0
LINE
  5
5378
330
A
100
AcDbEntity
  8
0
  6
Continuous
 62
     7
 48
0.01655
100
AcDbLine
 10
57.191437
 20
116.700928
 30
0.0
 11
55.867401
 21
116.700928
 31
0.0
  0
LINE
  5
537A
330
A
100
AcDbEntity
  8
0
  6
Continuous
 62
     7
 48
0.025
100
AcDbLine
 10
49.686249
 20
116.700928
 30
0.0
 11
49.686249
 21
114.700928
 31
0.0
  0
LINE
  5
537B
330
A
100
AcDbEntity
  8
0
  6
Continuous
 62
     7
 48
0.077264
100
AcDbLine
 10
55.867401
 20
116.700928
 30
0.0
 11
49.686249
 21
116.700928
 31
0.0
  0
LINE
  5
5380
330
A
100
AcDbEntity
  8
0
  6
Continuous
 62
     7
 48
0.015
100
AcDbLine
 10
49.686249
 20
400.7009279999998
 30
0.0
 11
49.686249
 21
399.500916
 31
0.0
  0
LINE
  5
5384
330
A
100
AcDbEntity
  8
0
  6
Continuous
 62
     7
 48
0.0025
100
AcDbLine
 10
54.686249
 20
400.7009279999998
 30
0.0
 11
54.686249
 21
400.5009160000001
 31
0.0
  0
LINE
  5
5385
330
A
100
AcDbEntity
  8
0
  6
Continuous
 62
     7
 48
0.00375
100
AcDbLine
 10
49.686249
 20
399.2009279999998
 30
0.0
 11
49.686249
 21
399.500916
 31
0.0
  0
LINE
  5
5386
330
A
100
AcDbEntity
  8
0
  6
Continuous
 62
     7
 48
0.01875
100
AcDbLine
 10
49.686249
 20
116.7009119999999
 30
0.0
 11
49.686249
 21
118.2009119999998
 31
0.0
  0
LINE
  5
5387
330
A
100
AcDbEntity
  8
0
  6
Continuous
 62
     7
 48
0.04375
100
AcDbLine
 10
337.6862489999997
 20
118.200928
 30
0.0
 11
337.6862489999997
 21
114.700928
 31
0.0
  0
LINE
  5
5388
330
A
100
AcDbEntity
  8
0
  6
Continuous
 62
     7
100
AcDbLine
 10
337.6862489999997
 20
305.7009279999998
 30
0.0
 11
337.6862489999997
 21
211.7108159999999
 31
0.0
  0
LINE
  5
5389
330
A
100
AcDbEntity
  8
0
  6
Continuous
 62
     7
 48
0.04375
100
AcDbLine
 10
337.6862489999997
 20
402.7009279999998
 30
0.0
 11
337.6862489999997
 21
399.2009279999998
 31
0.0
  0
LINE
  5
538A
330
A
100
AcDbEntity
  8
0
  6
Continuous
 62
     7
 48
0.022628
100
AcDbLine
 10
57.191437
 20
399.2009279999998
 30
0.0
 11
55.38117900000001
 21
399.2009279999998
 31
0.0
  0
LINE
  5
538B
330
A
100
AcDbEntity
  8
0
  6
Continuous
 62
     7
 48
0.004921
100
AcDbLine
 10
337.6914369999998
 20
399.2009279999998
 30
0.0
 11
337.297759
 21
399.2009279999998
 31
0.0
  0
LINE
  5
538C
330
A
100
AcDbEntity
  8
0
  6
Continuous
 62
     7
 48
0.041623
100
AcDbLine
 10
49.686249
 20
399.2009279999998
 30
0.0
 11
53.016067
 21
399.2009279999998
 31
0.0
  0
LINE
  5
538D
330
A
100
AcDbEntity
  8
0
  6
Continuous
 62
     7
 48
0.029564
100
AcDbLine
 10
53.016067
 20
399.2009279999998
 30
0.0
 11
55.381195
 21
399.2009279999998
 31
0.0
  0
LINE
  5
538E
330
A
100
AcDbEntity
  8
0
  6
Continuous
 62
     7
 48
0.036294
100
AcDbLine
 10
57.191437
 20
399.27777
 30
0.0
 11
57.191437
 21
402.181274
 31
0.0
  0
LINE
  5
538F
330
A
100
AcDbEntity
  8
0
  6
Continuous
 62
     7
 48
0.000961
100
AcDbLine
 10
57.191437
 20
399.2009279999998
 30
0.0
 11
57.191437
 21
399.2778319999998
 31
0.0
  0
LINE
  5
539A
330
A
100
AcDbEntity
  8
0
  6
Continuous
 62
     7
 48
0.036294
100
AcDbLine
 10
57.191437
 20
118.1240679999997
 30
0.0
 11
57.191437
 21
115.2205499999995
 31
0.0
  0
LINE
  5
539B
330
A
100
AcDbEntity
  8
0
  6
Continuous
 62
     7
 48
0.000961
100
AcDbLine
 10
57.191437
 20
118.200928
 30
0.0
 11
57.191437
 21
118.1240679999997
 31
0.0
  0
LWPOLYLINE
  5
539C
330
A
100
AcDbEntity
  8
0
  6
Continuous
 62
     7
100
AcDbPolyline
 90
        7
 70
     0
 43
0.0
 10
77.19144499999998
 20
133.7009279999996
 10
77.064087
 20
133.637528
 10
76.87594499999997
 20
133.499268
 10
76.19465700000002
 20
132.9325559999996
 10
75.52220099999998
 20
132.339584
 10
72.960701
 20
129.9914099999998
 10
68.908401
 20
126.1717519999992
  0
ARC
  5
53A5
330
A
100
AcDbEntity
  8
0
  6
Continuous
 62
     7
100
AcDbCircle
 10
77.19163500000002
 20
135.2011099999992
 30
0.0
 40
1.500252
100
AcDbArc
 50
180.007303
 51
269.992703
  0
LINE
  5
53A6
330
A
100
AcDbEntity
  8
0
  6
Continuous
 62
     7
 48
0.134617
100
AcDbLine
 10
67.99487300000001
 20
127.6681979999992
 30
0.0
 11
75.69144499999999
 21
135.200928
 31
0.0
  0
LWPOLYLINE
  5
53A7
330
A
100
AcDbEntity
  8
0
  6
Continuous
 62
     7
100
AcDbPolyline
 90
        5
 70
     0
 43
0.0
 10
68.908401
 20
126.1717679999997
 10
68.52865500000001
 20
126.4323279999999
 10
68.23976100000002
 20
126.79126
 10
68.057579
 20
127.2133019999996
 10
67.99487300000001
 20
127.6681979999992
  0
LWPOLYLINE
  5
53AE
330
A
100
AcDbEntity
  8
0
  6
Continuous
 62
     7
100
AcDbPolyline
 90
        6
 70
     0
 43
0.0
 10
67.99487300000001
 20
389.7336419999998
 10
68.03531699999999
 20
390.1005559999998
 10
68.15465500000001
 20
390.4502559999998
 10
68.345313
 20
390.766358
 10
68.59918100000001
 20
391.0316759999998
 10
68.90840900000004
 20
391.2301019999998
  0
LINE
  5
53B6
330
A
100
AcDbEntity
  8
0
  6
Continuous
 62
     7
 48
0.134617
100
AcDbLine
 10
75.69144499999999
 20
382.2009279999998
 30
0.0
 11
67.99487300000001
 21
389.7336419999998
 31
0.0
  0
ARC
  5
53B7
330
A
100
AcDbEntity
  8
0
  6
Continuous
 62
     7
100
AcDbCircle
 10
77.19163500000002
 20
382.2007439999998
 30
0.0
 40
1.500252
100
AcDbArc
 50
90.00729699999999
 51
179.992697
  0
LWPOLYLINE
  5
53B8
330
A
100
AcDbEntity
  8
0
  6
Continuous
 62
     7
100
AcDbPolyline
 90
        7
 70
     0
 43
0.0
 10
68.908401
 20
391.2301019999998
 10
72.68554700000001
 20
387.6666559999998
 10
74.59913700000001
 20
385.89862
 10
76.26776100000005
 20
384.406554
 10
76.852753
 20
383.9203179999998
 10
77.06269900000002
 20
383.765442
 10
77.19144499999998
 20
383.7009279999998
  0
ARC
  5
53C1
330
A
100
AcDbEntity
  8
0
  6
Continuous
 62
     7
100
AcDbCircle
 10
310.1912529999999
 20
382.2007439999998
 30
0.0
 40
1.500252
100
AcDbArc
 50
0.0073
 51
89.992701
  0
LINE
  5
53C2
330
A
100
AcDbEntity
  8
0
  6
Continuous
 62
     7
 48
0.134087
100
AcDbLine
 10
319.3258349999998
 20
389.7363879999998
 30
0.0
 11
311.6914369999998
 21
382.2009279999998
 31
0.0
  0
LWPOLYLINE
  5
53C3
330
A
100
AcDbEntity
  8
0
  6
Continuous
 62
     7
100
AcDbPolyline
 90
        5
 70
     0
 43
0.0
 10
318.4151909999998
 20
391.2328179999998
 10
318.793701
 20
390.9716799999998
 10
319.081573
 20
390.6128539999998
 10
319.263245
 20
390.1911
 10
319.3258349999998
 20
389.7363879999998
  0
LWPOLYLINE
  5
53CA
330
A
100
AcDbEntity
  8
0
  6
Continuous
 62
     7
100
AcDbPolyline
 90
        7
 70
     0
 43
0.0
 10
310.191437
 20
383.7009279999998
 10
310.3180849999998
 20
383.7639459999998
 10
310.505157
 20
383.902008
 10
311.1808769999999
 20
384.4675299999998
 10
311.847137
 20
385.059142
 10
314.390625
 20
387.4086299999996
 10
318.4151909999998
 20
391.2328179999998
  0
LWPOLYLINE
  5
53D3
330
A
100
AcDbEntity
  8
0
  6
Continuous
 62
     7
100
AcDbPolyline
 90
        6
 70
     0
 43
0.0
 10
319.3258349999998
 20
127.6654659999997
 10
319.285583
 20
127.2992699999999
 10
319.166747
 20
126.9499359999997
 10
318.9768069999999
 20
126.6339099999997
 10
318.723663
 20
126.3681939999999
 10
318.4151909999998
 20
126.1690519999997
  0
LINE
  5
53DB
330
A
100
AcDbEntity
  8
0
  6
Continuous
 62
     7
 48
0.134087
100
AcDbLine
 10
311.6914369999998
 20
135.200928
 30
0.0
 11
319.3258349999998
 21
127.6654659999997
 31
0.0
  0
ARC
  5
53DC
330
A
100
AcDbEntity
  8
0
  6
Continuous
 62
     7
100
AcDbCircle
 10
310.1912529999999
 20
135.2011099999992
 30
0.0
 40
1.500252
100
AcDbArc
 50
270.007299
 51
359.9927
  0
LWPOLYLINE
  5
53DD
330
A
100
AcDbEntity
  8
0
  6
Continuous
 62
     7
100
AcDbPolyline
 90
        7
 70
     0
 43
0.0
 10
318.4151909999998
 20
126.169036
 10
314.4616689999998
 20
129.9259039999992
 10
311.927277
 20
132.2702019999997
 10
310.7529589999998
 20
133.2996979999997
 10
310.346649
 20
133.617736
 10
310.2190549999999
 20
133.69252
 10
310.191437
 20
133.7009279999996
  0
LINE
  5
53E8
330
A
100
AcDbEntity
  8
0
  6
Continuous
 62
     7
100
AcDbLine
 10
337.4289849999998
 20
213.8951719999997
 30
0.0
 11
337.4289849999998
 21
303.5066839999998
 31
0.0
  0
LWPOLYLINE
  5
53E9
330
A
100
AcDbEntity
  8
0
  6
Continuous
 62
     7
100
AcDbPolyline
 90
        5
 70
     0
 43
0.0
 10
337.428985
 20
303.5066839999998
 10
337.451995
 20
304.4979559999998
 10
337.5149829999998
 20
305.2289419999997
 10
337.554291
 20
305.4243779999998
 10
337.5751949999998
 20
305.479462
  0
LINE
  5
53F0
330
A
100
AcDbEntity
  8
0
  6
Continuous
 62
     7
 48
0.003126
100
AcDbLine
 10
337.5751949999998
 20
305.479462
 30
0.0
 11
337.6914369999998
 21
305.7009279999998
 31
0.0
  0
ARC
  5
53F4
330
A
100
AcDbEntity
  8
0
  6
Continuous
 62
     7
100
AcDbCircle
 10
334.3141169999999
 20
117.6845539999999
 30
0.0
 40
2.983314
100
AcDbArc
 50
269.9047639999999
 51
0.095237
  0
LINE
  5
53F5
330
A
100
AcDbEntity
  8
0
  6
Continuous
 62
     7
 48
0.006393
100
AcDbLine
 10
337.297759
 20
117.6895139999996
 30
0.0
 11
337.297759
 21
118.200928
 31
0.0
  0
LINE
  5
53F7
330
A
100
AcDbEntity
  8
0
  6
Continuous
 62
     7
100
AcDbLine
 10
337.6914369999998
 20
118.200928
 30
0.0
 11
337.6914369999998
 21
211.7009279999999
 31
0.0
  0
LINE
  5
53F8
330
A
100
AcDbEntity
  8
0
  6
DASHED
 62
     4
 48
0.003126
100
AcDbLine
 10
337.6914369999998
 20
211.7009279999999
 30
0.0
 11
337.5751949999998
 21
211.9223939999999
 31
0.0
  0
LWPOLYLINE
  5
53F9
330
A
100
AcDbEntity
  8
0
  6
DASHED
 62
     4
100
AcDbPolyline
 90
        5
 70
     0
 43
0.0
 10
337.5751949999998
 20
211.9223939999999
 10
337.545929
 20
212.0084219999994
 10
337.493347
 20
212.34549
 10
337.440673
 20
213.176208
 10
337.428985
 20
213.8951719999997
  0
LINE
  5
5400
330
A
100
AcDbEntity
  8
0
  6
Continuous
 62
     7
100
AcDbLine
 10
75.69144499999999
 20
135.200928
 30
0.0
 11
75.69144499999999
 21
382.2009279999998
 31
0.0
  0
LINE
  5
5401
330
A
100
AcDbEntity
  8
0
  6
Continuous
 62
     7
100
AcDbLine
 10
310.1914369999998
 20
383.7009279999998
 30
0.0
 11
77.19144499999998
 21
383.7009279999998
 31
0.0
  0
LINE
  5
5402
330
A
100
AcDbEntity
  8
0
  6
Continuous
 62
     7
100
AcDbLine
 10
311.6914369999998
 20
382.2009279999998
 30
0.0
 11
311.6914369999998
 21
135.200928
 31
0.0
  0
LINE
  5
5403
330
A
100
AcDbEntity
  8
0
  6
Continuous
 62
     7
100
AcDbLine
 10
77.19144499999998
 20
133.7009279999996
 30
0.0
 11
310.1914369999998
 21
133.7009279999996
 31
0.0
  0
ARC
  5
5428
330
A
100
AcDbEntity
  8
0
  6
Continuous
 62
     7
100
AcDbCircle
 10
334.3141169999999
 20
399.717284
 30
0.0
 40
2.983311999999998
100
AcDbArc
 50
359.9047389999998
 51
90.095263
  0
LINE
  5
542A
330
A
100
AcDbEntity
  8
0
  6
Continuous
 62
     7
100
AcDbLine
 10
49.686249
 20
114.700928
 30
0.0
 11
337.6862489999997
 21
114.700928
 31
0.0
  0
ARC
  5
542B
330
A
100
AcDbEntity
  8
0
  6
Continuous
 62
     7
100
AcDbCircle
 10
193.311630999999
 20
-31891.38256799997
 30
0.0
 40
32017.796876
100
AcDbArc
 50
89.776129
 51
90.222619
  0
LINE
  5
542C
330
A
100
AcDbEntity
  8
0
  6
Continuous
 62
     7
100
AcDbLine
 10
319.3258349999998
 20
127.6654659999997
 30
0.0
 11
319.3258349999998
 21
389.7363879999998
 31
0.0
  0
ARC
  5
542D
330
A
100
AcDbEntity
  8
0
  6
Continuous
 62
     7
100
AcDbCircle
 10
193.312591
 20
32414.398682
 30
0.0
 40
32023.408204
100
AcDbArc
 50
269.777415
 51
270.2238299999998
  0
LINE
  5
542E
330
A
100
AcDbEntity
  8
0
  6
Continuous
 62
     7
100
AcDbLine
 10
67.99487300000001
 20
389.7336419999998
 30
0.0
 11
67.99487300000001
 21
127.6681979999992
 31
0.0
  0
LINE
  5
542F
330
A
100
AcDbEntity
  8
0
  6
Continuous
 62
     7
 48
0.022628
100
AcDbLine
 10
57.191437
 20
118.200928
 30
0.0
 11
55.38117900000001
 21
118.200928
 31
0.0
  0
LINE
  5
5430
330
A
100
AcDbEntity
  8
0
  6
Continuous
 62
     7
 48
0.004921
100
AcDbLine
 10
337.297759
 20
118.200928
 30
0.0
 11
337.6914369999998
 21
118.200928
 31
0.0
  0
LINE
  5
5431
330
A
100
AcDbEntity
  8
0
  6
Continuous
 62
     7
 48
0.041623
100
AcDbLine
 10
53.016067
 20
118.200928
 30
0.0
 11
49.686249
 21
118.200928
 31
0.0
  0
LINE
  5
5432
330
A
100
AcDbEntity
  8
0
  6
Continuous
 62
     7
 48
0.029564
100
AcDbLine
 10
55.381195
 20
118.200928
 30
0.0
 11
53.016067
 21
118.200928
 31
0.0
  0
LINE
  5
543C
330
A
100
AcDbEntity
  8
0
  6
Continuous
 62
     7
100
AcDbLine
 10
334.3091729999998
 20
402.7009279999998
 30
0.0
 11
49.686249
 21
402.7009279999998
 31
0.0
  0
LINE
  5
5445
330
A
100
AcDbEntity
  8
0
  6
Continuous
 62
     7
100
AcDbLine
 10
337.6914369999998
 20
305.7009279999998
 30
0.0
 11
337.6914369999998
 21
399.2009279999998
 31
0.0
  0
LINE
  5
5446
330
A
100
AcDbEntity
  8
0
  6
Continuous
 62
     7
 48
0.006393
100
AcDbLine
 10
337.297759
 20
399.2009279999998
 30
0.0
 11
337.297759
 21
399.7123419999998
 31
0.0
  0
LINE
  5
5447
330
A
100
AcDbEntity
  8
0
  6
Continuous
 62
     7
100
AcDbLine
 10
49.686157
 20
399.2009279999998
 30
0.0
 11
49.686157
 21
118.200928
 31
0.0
  0
LINE
  5
5448
330
A
100
AcDbEntity
  8
0
  6
Continuous
 62
     7
 48
0.055478
100
AcDbLine
 10
51.747971
 20
116.700928
 30
0.0
 11
56.186249
 21
116.700928
 31
0.0
  0
LINE
  5
5449
330
A
100
AcDbEntity
  8
0
  6
Continuous
 62
     7
 48
0.019522
100
AcDbLine
 10
50.18624899999998
 20
116.700928
 30
0.0
 11
51.747971
 21
116.700928
 31
0.0
  0
LINE
  5
544A
330
A
100
AcDbEntity
  8
0
  6
Continuous
 62
     7
 48
0.019522
100
AcDbLine
 10
50.18624899999998
 20
118.200928
 30
0.0
 11
51.747971
 21
118.200928
 31
0.0
  0
LINE
  5
544B
330
A
100
AcDbEntity
  8
0
  6
Continuous
 62
     7
 48
0.01875
100
AcDbLine
 10
56.186249
 20
118.200928
 30
0.0
 11
56.186249
 21
116.700928
 31
0.0
  0
LINE
  5
544C
330
A
100
AcDbEntity
  8
0
  6
Continuous
 62
     7
 48
0.01875
100
AcDbLine
 10
50.18624899999998
 20
118.200928
 30
0.0
 11
50.18624899999998
 21
116.700928
 31
0.0
  0
LINE
  5
544D
330
A
100
AcDbEntity
  8
0
  6
Continuous
 62
     7
 48
0.012565
100
AcDbLine
 10
57.191437
 20
399.2009279999998
 30
0.0
 11
56.186249
 21
399.2009279999998
 31
0.0
  0
LINE
  5
544E
330
A
100
AcDbEntity
  8
0
  6
Continuous
 62
     7
 48
0.01875
100
AcDbLine
 10
56.186249
 20
399.2009279999998
 30
0.0
 11
54.686249
 21
399.2009279999998
 31
0.0
  0
LINE
  5
5451
330
A
100
AcDbEntity
  8
0
  6
Continuous
 62
     7
 48
0.01625
100
AcDbLine
 10
54.686249
 20
399.2009279999998
 30
0.0
 11
54.686249
 21
400.5009160000001
 31
0.0
  0
LINE
  5
5454
330
A
100
AcDbEntity
  8
0
  6
Continuous
 62
     7
 48
0.01875
100
AcDbLine
 10
51.68624899999998
 20
400.7009279999998
 30
0.0
 11
51.68624899999998
 21
399.2009279999998
 31
0.0
  0
LINE
  5
5455
330
A
100
AcDbEntity
  8
0
  6
Continuous
 62
     7
 48
0.01875
100
AcDbLine
 10
54.686249
 20
400.7009279999998
 30
0.0
 11
54.686249
 21
399.2009279999998
 31
0.0
  0
ARC
  5
5456
330
A
100
AcDbEntity
  8
0
  6
DASHED
 62
     4
100
AcDbCircle
 10
340.4862369999996
 20
240.1009219999997
 30
0.0
 40
2.0
100
AcDbArc
 50
0.0
 51
90.00000300000001
  0
LINE
  5
5457
330
A
100
AcDbEntity
  8
0
  6
DASHED
 62
     4
100
AcDbLine
 10
342.4862369999996
 20
240.1009219999997
 30
0.0
 11
342.4862369999996
 21
180.1009219999998
 31
0.0
  0
ARC
  5
5458
330
A
100
AcDbEntity
  8
0
  6
DASHED
 62
     4
100
AcDbCircle
 10
340.4862369999996
 20
180.1009219999998
 30
0.0
 40
2.0
100
AcDbArc
 50
270.000001
 51
0.00001
  0
LINE
  5
5459
330
A
100
AcDbEntity
  8
0
  6
DASHED
 62
     4
 48
0.035
100
AcDbLine
 10
337.6862489999997
 20
242.1009219999997
 30
0.0
 11
340.4862369999996
 21
242.1009219999997
 31
0.0
  0
LINE
  5
545A
330
A
100
AcDbEntity
  8
0
  6
DASHED
 62
     4
 48
0.034935
100
AcDbLine
 10
337.6914369999998
 20
178.1009219999998
 30
0.0
 11
340.4862369999996
 21
178.1009219999998
 31
0.0
  0
LINE
  5
545B
330
A
100
AcDbEntity
  8
0
  6
DASHED
 62
     4
 48
0.034999
100
AcDbLine
 10
49.68614099999999
 20
242.1009219999997
 30
0.0
 11
46.88624499999995
 21
242.1009219999997
 31
0.0
  0
ARC
  5
545C
330
A
100
AcDbEntity
  8
0
  6
DASHED
 62
     4
100
AcDbCircle
 10
46.88624499999995
 20
240.1009219999997
 30
0.0
 40
2.0
100
AcDbArc
 50
90.00000300000001
 51
180.000005
  0
LINE
  5
545D
330
A
100
AcDbEntity
  8
0
  6
DASHED
 62
     4
 48
0.034999
100
AcDbLine
 10
49.68614099999999
 20
178.1009219999998
 30
0.0
 11
46.88624499999995
 21
178.1009219999998
 31
0.0
  0
LINE
  5
545E
330
A
100
AcDbEntity
  8
0
  6
DASHED
 62
     4
100
AcDbLine
 10
44.88624499999999
 20
240.1009219999997
 30
0.0
 11
44.88624499999999
 21
180.1009219999998
 31
0.0
  0
ARC
  5
545F
330
A
100
AcDbEntity
  8
0
  6
DASHED
 62
     4
100
AcDbCircle
 10
46.88624499999995
 20
180.1009219999998
 30
0.0
 40
2.0
100
AcDbArc
 50
180.000005
 51
270.000001
  0
LINE
  5
5483
330
A
100
AcDbEntity
  8
0
  6
Continuous
 62
     7
100
AcDbLine
 10
57.191437
 20
400.7009279999998
 30
0.0
 11
57.191437
 21
402.7009279999998
 31
0.0
  0
LINE
  5
5484
330
A
100
AcDbEntity
  8
0
  6
Continuous
 62
     7
100
AcDbLine
 10
57.191437
 20
116.700928
 30
0.0
 11
57.19143700000003
 21
114.700928
 31
0.0
  0
VIEWPORT
  5
5460
330
B
100
AcDbEntity
 67
     1
  8
0
 62
     0
100
AcDbViewport
 10
0.0
 20
0.0
 30
0.0
 40
0.0
 41
0.0
 68
     1
 69
     1
 12
0.0
 22
0.0
 13
0.0
 23
0.0
 14
10.0
 24
10.0
 15
10.0
 25
10.0
 16
0.0
 26
0.0
 36
1.0
 17
0.0
 27
0.0
 37
0.0
 42
50.0
 43
0.0
 44
0.0
 45
0.0
 50
0.0
 51
0.0
 72
   100
 90
    32800
  1

281
     0
 71
     1
 74
     0
110
0.0
120
0.0
130
0.0
111
1.0
121
0.0
131
0.0
112
0.0
122
1.0
132
0.0
 79
     0
146
0.0
  0
VIEWPORT
  5
547D
330
B
100
AcDbEntity
 67
     1
  8
0
100
AcDbViewport
 10
0.0
 20
0.0
 30
0.0
 40
0.0
 41
0.0
 68
     2
 69
     2
 12
189.8750958594089
 22
261.0440802651708
 13
0.0
 23
0.0
 14
1.0
 24
1.0
 15
0.0
 25
0.0
 16
0.0
 26
0.0
 36
1.0
 17
0.0
 27
0.0
 37
0.0
 42
50.0
 43
0.0
 44
0.0
 45
37.12320785408936
 50
0.0
 51
0.0
 72
   100
 90
    32800
  1

281
     0
 71
     1
 74
     0
110
0.0
120
0.0
130
0.0
111
1.0
121
0.0
131
0.0
112
0.0
122
1.0
132
0.0
 79
     0
146
0.0
  0
ENDSEC
  0
SECTION
  2
OBJECTS
  0
DICTIONARY
  5
19
330
0
100
AcDbDictionary
281
     1
  3
ACAD_GROUP
350
1A
  3
ACAD_LAYOUT
350
5467
  3
ACAD_MLINESTYLE
350
1B
  3
ACAD_PLOTSETTINGS
350
5468
  3
ACAD_PLOTSTYLENAME
350
5465
  0
DICTIONARY
  5
1A
102
{ACAD_REACTORS
330
19
102
}
330
19
100
AcDbDictionary
281
     1
  0
DICTIONARY
  5
5467
102
{ACAD_REACTORS
330
19
102
}
330
19
100
AcDbDictionary
281
     1
  3
Model
350
5469
  3
ﾚｲｱｳﾄ1
350
546A
  0
DICTIONARY
  5
1B
102
{ACAD_REACTORS
330
19
102
}
330
19
100
AcDbDictionary
281
     1
  3
STANDARD
350
1C
  0
DICTIONARY
  5
5468
102
{ACAD_REACTORS
330
19
102
}
330
19
100
AcDbDictionary
281
     1
  0
ACDBDICTIONARYWDFLT
  5
5465
102
{ACAD_REACTORS
330
19
102
}
330
19
100
AcDbDictionary
281
     1
  3
Normal
350
5466
100
AcDbDictionaryWithDefault
340
5466
  0
LAYOUT
  5
5469
102
{ACAD_REACTORS
330
5467
102
}
330
5467
100
AcDbPlotSettings
  1

  2
Canon iR-ADV C5030/5035 LIPSLX
  4

  6

 40
0.0
 41
0.0
 42
0.0
 43
0.0
 44
0.0
 45
0.0
 46
0.0
 47
0.0
 48
0.0
 49
0.0
140
0.0
141
0.0
142
1.0
143
1.0
 70
  1712
 72
     0
 73
     0
 74
     0
  7

 75
     0
147
1.0
148
0.0
149
0.0
100
AcDbLayout
  1
Model
 70
     1
 71
     0
 10
0.0
 20
0.0
 11
12.0
 21
9.0
 12
0.0
 22
0.0
 32
0.0
 14
0.0
 24
0.0
 34
0.0
 15
0.0
 25
0.0
 35
0.0
146
0.0
 13
0.0
 23
0.0
 33
0.0
 16
1.0
 26
0.0
 36
0.0
 17
0.0
 27
1.0
 37
0.0
 76
     0
330
A
  0
LAYOUT
  5
546A
102
{ACAD_REACTORS
330
5467
102
}
330
5467
100
AcDbPlotSettings
  1

  2
Canon iR-ADV C5030/5035 LIPSLX
  4

  6

 40
0.0
 41
0.0
 42
0.0
 43
0.0
 44
0.0
 45
0.0
 46
0.0
 47
0.0
 48
0.0
 49
0.0
140
0.0
141
0.0
142
1.0
143
1.0
 70
   688
 72
     0
 73
     1
 74
     5
  7

 75
    16
147
1.0
148
0.0
149
0.0
100
AcDbLayout
  1
ﾚｲｱｳﾄ1
 70
     1
 71
     1
 10
0.0
 20
0.0
 11
0.0
 21
0.0
 12
0.0
 22
0.0
 32
0.0
 14
0.0
 24
0.0
 34
0.0
 15
0.0
 25
0.0
 35
0.0
146
0.0
 13
0.0
 23
0.0
 33
0.0
 16
1.0
 26
0.0
 36
0.0
 17
0.0
 27
1.0
 37
0.0
 76
     0
330
B
331
5460
  0
MLINESTYLE
  5
1C
102
{ACAD_REACTORS
330
1B
102
}
330
1B
100
AcDbMlineStyle
  2
STANDARD
 70
     0
  3

 62
     0
 51
90.0
 52
90.0
 71
     2
 49
0.5
 62
   256
  6
BYLAYER
 49
-0.5
 62
   256
  6
BYLAYER
  0
ACDBPLACEHOLDER
  5
5466
102
{ACAD_REACTORS
330
5465
102
}
330
5465
  0
ENDSEC
  0
EOF
