  0
SECTION
  2
HEADER
  9
$ACADVER
  1
AC1015
  9
$ACADMAINTVER
 70
    10
  9
$DWGCODEPAGE
  3
ANSI_932
  9
$INSBASE
 10
0.0
 20
0.0
 30
0.0
  9
$EXTMIN
 10
75.06450699999998
 20
107.4359476466459
 30
0.0
  9
$EXTMAX
 10
520.7624194154136
 20
252.0559764699363
 30
0.0
  9
$LIMMIN
 10
0.0
 20
0.0
  9
$LIMMAX
 10
420.0
 20
297.0
  9
$ORTHOMODE
 70
     0
  9
$REGENMODE
 70
     1
  9
$FILLMODE
 70
     1
  9
$QTEXTMODE
 70
     0
  9
$MIRRTEXT
 70
     1
  9
$LTSCALE
 40
1.0
  9
$ATTMODE
 70
     1
  9
$TEXTSIZE
 40
0.0
  9
$TRACEWID
 40
1.0
  9
$TEXTSTYLE
  7
STANDARD
  9
$CLAYER
  8
0
  9
$CELTYPE
  6
BYLAYER
  9
$CECOLOR
 62
     7
  9
$CELTSCALE
 40
1.0
  9
$DISPSILH
 70
     0
  9
$DIMSCALE
 40
1.0
  9
$DIMASZ
 40
2.5
  9
$DIMEXO
 40
0.625
  9
$DIMDLI
 40
3.75
  9
$DIMRND
 40
0.0
  9
$DIMDLE
 40
0.0
  9
$DIMEXE
 40
1.25
  9
$DIMTP
 40
0.0
  9
$DIMTM
 40
0.0
  9
$DIMTXT
 40
2.5
  9
$DIMCEN
 40
2.5
  9
$DIMTSZ
 40
0.0
  9
$DIMTOL
 70
     0
  9
$DIMLIM
 70
     0
  9
$DIMTIH
 70
     0
  9
$DIMTOH
 70
     0
  9
$DIMSE1
 70
     0
  9
$DIMSE2
 70
     0
  9
$DIMTAD
 70
     1
  9
$DIMZIN
 70
     8
  9
$DIMBLK
  1

  9
$DIMASO
 70
     1
  9
$DIMSHO
 70
     1
  9
$DIMPOST
  1

  9
$DIMAPOST
  1

  9
$DIMALT
 70
     0
  9
$DIMALTD
 70
     3
  9
$DIMALTF
 40
0.03937
  9
$DIMLFAC
 40
1.0
  9
$DIMTOFL
 70
     1
  9
$DIMTVP
 40
0.0
  9
$DIMTIX
 70
     0
  9
$DIMSOXD
 70
     0
  9
$DIMSAH
 70
     0
  9
$DIMBLK1
  1

  9
$DIMBLK2
  1

  9
$DIMSTYLE
  2
STANDARD
  9
$DIMCLRD
 70
     0
  9
$DIMCLRE
 70
     0
  9
$DIMCLRT
 70
     0
  9
$DIMTFAC
 40
1.0
  9
$DIMGAP
 40
0.625
  9
$DIMJUST
 70
     0
  9
$DIMSD1
 70
     0
  9
$DIMSD2
 70
     0
  9
$DIMTOLJ
 70
     0
  9
$DIMTZIN
 70
     8
  9
$DIMALTZ
 70
     0
  9
$DIMALTTZ
 70
     0
  9
$DIMUPT
 70
     0
  9
$DIMDEC
 70
     2
  9
$DIMTDEC
 70
     2
  9
$DIMALTU
 70
     2
  9
$DIMALTTD
 70
     3
  9
$DIMTXSTY
  7
STANDARD
  9
$DIMAUNIT
 70
     0
  9
$DIMADEC
 70
     0
  9
$DIMALTRND
 40
0.0
  9
$DIMAZIN
 70
     0
  9
$DIMDSEP
 70
    46
  9
$DIMATFIT
 70
     3
  9
$DIMFRAC
 70
     0
  9
$DIMLDRBLK
  1

  9
$DIMLUNIT
 70
     2
  9
$DIMLWD
 70
    -2
  9
$DIMLWE
 70
    -2
  9
$DIMTMOVE
 70
     0
  9
$LUNITS
 70
     2
  9
$LUPREC
 70
     4
  9
$SKETCHINC
 40
1.0
  9
$FILLETRAD
 40
2.5
  9
$AUNITS
 70
     0
  9
$AUPREC
 70
     0
  9
$MENU
  1
.
  9
$ELEVATION
 40
0.0
  9
$PELEVATION
 40
0.0
  9
$THICKNESS
 40
0.0
  9
$LIMCHECK
 70
     0
  9
$CHAMFERA
 40
2.5
  9
$CHAMFERB
 40
2.5
  9
$CHAMFERC
 40
0.0
  9
$CHAMFERD
 40
0.0
  9
$SKPOLY
 70
     0
  9
$TDCREATE
 40
2312275.082421840
  9
$TDUCREATE
 40
2312274.707421840
  9
$TDUPDATE
 40
2456493.709253865
  9
$TDUUPDATE
 40
2456493.334253865
  9
$TDINDWG
 40
0.0689568171
  9
$TDUSRTIMER
 40
0.0689526736
  9
$USRTIMER
 70
     1
  9
$ANGBASE
 50
0.0
  9
$ANGDIR
 70
     0
  9
$PDMODE
 70
     0
  9
$PDSIZE
 40
0.0
  9
$PLINEWID
 40
0.0
  9
$SPLFRAME
 70
     0
  9
$SPLINETYPE
 70
     6
  9
$SPLINESEGS
 70
     8
  9
$HANDSEED
  5
38DB
  9
$SURFTAB1
 70
     6
  9
$SURFTAB2
 70
     6
  9
$SURFTYPE
 70
     6
  9
$SURFU
 70
     6
  9
$SURFV
 70
     6
  9
$UCSBASE
  2

  9
$UCSNAME
  2

  9
$UCSORG
 10
0.0
 20
0.0
 30
0.0
  9
$UCSXDIR
 10
1.0
 20
0.0
 30
0.0
  9
$UCSYDIR
 10
0.0
 20
1.0
 30
0.0
  9
$UCSORTHOREF
  2

  9
$UCSORTHOVIEW
 70
     0
  9
$UCSORGTOP
 10
0.0
 20
0.0
 30
0.0
  9
$UCSORGBOTTOM
 10
0.0
 20
0.0
 30
0.0
  9
$UCSORGLEFT
 10
0.0
 20
0.0
 30
0.0
  9
$UCSORGRIGHT
 10
0.0
 20
0.0
 30
0.0
  9
$UCSORGFRONT
 10
0.0
 20
0.0
 30
0.0
  9
$UCSORGBACK
 10
0.0
 20
0.0
 30
0.0
  9
$PUCSBASE
  2

  9
$PUCSNAME
  2

  9
$PUCSORG
 10
0.0
 20
0.0
 30
0.0
  9
$PUCSXDIR
 10
1.0
 20
0.0
 30
0.0
  9
$PUCSYDIR
 10
0.0
 20
1.0
 30
0.0
  9
$PUCSORTHOREF
  2

  9
$PUCSORTHOVIEW
 70
     0
  9
$PUCSORGTOP
 10
0.0
 20
0.0
 30
0.0
  9
$PUCSORGBOTTOM
 10
0.0
 20
0.0
 30
0.0
  9
$PUCSORGLEFT
 10
0.0
 20
0.0
 30
0.0
  9
$PUCSORGRIGHT
 10
0.0
 20
0.0
 30
0.0
  9
$PUCSORGFRONT
 10
0.0
 20
0.0
 30
0.0
  9
$PUCSORGBACK
 10
0.0
 20
0.0
 30
0.0
  9
$USERI1
 70
     0
  9
$USERI2
 70
     0
  9
$USERI3
 70
     0
  9
$USERI4
 70
     0
  9
$USERI5
 70
     0
  9
$USERR1
 40
0.0
  9
$USERR2
 40
0.0
  9
$USERR3
 40
0.0
  9
$USERR4
 40
0.0
  9
$USERR5
 40
0.0
  9
$WORLDVIEW
 70
     1
  9
$SHADEDGE
 70
     3
  9
$SHADEDIF
 70
    70
  9
$TILEMODE
 70
     1
  9
$MAXACTVP
 70
    48
  9
$PINSBASE
 10
0.0
 20
0.0
 30
0.0
  9
$PLIMCHECK
 70
     0
  9
$PEXTMIN
 10
0.0
 20
0.0
 30
0.0
  9
$PEXTMAX
 10
401.4999999999998
 20
275.0
 30
2.0
  9
$PLIMMIN
 10
0.0
 20
0.0
  9
$PLIMMAX
 10
420.0
 20
297.0
  9
$UNITMODE
 70
     0
  9
$VISRETAIN
 70
     0
  9
$PLINEGEN
 70
     0
  9
$PSLTSCALE
 70
     1
  9
$TREEDEPTH
 70
  3020
  9
$CMLSTYLE
  2
STANDARD
  9
$CMLJUST
 70
     0
  9
$CMLSCALE
 40
20.0
  9
$PROXYGRAPHICS
 70
     1
  9
$MEASUREMENT
 70
     1
  9
$CELWEIGHT
370
    -1
  9
$ENDCAPS
280
     0
  9
$JOINSTYLE
280
     0
  9
$LWDISPLAY
290
     0
  9
$INSUNITS
 70
     0
  9
$HYPERLINKBASE
  1

  9
$STYLESHEET
  1

  9
$XEDIT
290
     1
  9
$CEPSNTYPE
380
     0
  9
$PSTYLEMODE
290
     1
  9
$FINGERPRINTGUID
  2
{5D315A7D-C13D-445D-B6E7-0616E44C9EA3}
  9
$VERSIONGUID
  2
{EA4EFE0A-E6AC-4781-8655-F731B488B636}
  9
$EXTNAMES
290
     1
  9
$PSVPSCALE
 40
0.0
  9
$OLESTARTUP
290
     0
  0
ENDSEC
  0
SECTION
  2
CLASSES
  0
CLASS
  1
LWPOLYLINE
  2
AcDbPolyline
  3
AutoCAD 2000
 90
    32768
280
     0
281
     1
  0
CLASS
  1
IMAGE
  2
AcDbRasterImage
  3
ISM
 90
    32895
280
     0
281
     1
  0
CLASS
  1
OLE2FRAME
  2
AcDbOle2Frame
  3
AutoCAD 2000
 90
    32768
280
     0
281
     1
  0
CLASS
  1
HATCH
  2
AcDbHatch
  3
AutoCAD 2000
 90
    32768
280
     0
281
     1
  0
CLASS
  1
DICTIONARYVAR
  2
AcDbDictionaryVar
  3
AutoCAD 2000
 90
    32768
280
     0
281
     0
  0
CLASS
  1
RASTERVARIABLES
  2
AcDbRasterVariables
  3
ISM
 90
    32768
280
     0
281
     0
  0
CLASS
  1
IMAGEDEF
  2
AcDbRasterImageDef
  3
ISM
 90
    32768
280
     0
281
     0
  0
CLASS
  1
IMAGEDEF_REACTOR
  2
AcDbRasterImageDefReactor
  3
ISM
 90
    32769
280
     0
281
     0
  0
CLASS
  1
IDBUFFER
  2
AcDbIdBuffer
  3
AutoCAD 2000
 90
    32768
280
     0
281
     0
  0
CLASS
  1
SPATIAL_FILTER
  2
AcDbSpatialFilter
  3
AutoCAD 2000
 90
    32768
280
     0
281
     0
  0
CLASS
  1
XRECORD
  2
AcDbXrecord
  3
AutoCAD 2000
 90
    32768
280
     0
281
     0
  0
CLASS
  1
SORTENTSTABLE
  2
AcDbSortentsTable
  3
AutoCAD 2000
 90
    32768
280
     0
281
     0
  0
CLASS
  1
LAYER_INDEX
  2
AcDbLayerIndex
  3
AutoCAD 2000
 90
    32768
280
     0
281
     0
  0
CLASS
  1
SPATIAL_INDEX
  2
AcDbSpatialIndex
  3
AutoCAD 2000
 90
    32768
280
     0
281
     0
  0
CLASS
  1
OBJECT_PTR
  2
CAseDLPNTableRecord
  3
"ASE-LPNTableRecord"
 90
    32769
280
     0
281
     0
  0
CLASS
  1
LAYOUT
  2
AcDbLayout
  3
AutoCAD 2000
 90
        0
280
     0
281
     0
  0
CLASS
  1
PLOTSETTINGS
  2
AcDbPlotSettings
  3
AutoCAD 2000
 90
    32768
280
     0
281
     0
  0
CLASS
  1
ACDBDICTIONARYWDFLT
  2
AcDbDictionaryWithDefault
  3
AutoCAD 2000
 90
        0
280
     0
281
     0
  0
CLASS
  1
ACDBPLACEHOLDER
  2
AcDbPlaceHolder
  3
AutoCAD 2000
 90
        0
280
     0
281
     0
  0
CLASS
  1
VBA_PROJECT
  2
AcDbVbaProject
  3
"acadvba"
 90
    32768
280
     0
281
     0
  0
CLASS
  1
WIPEOUT
  2
AcDbWipeout
  3
WipeOut|AutoCAD Express Tool|expresstools@autodesk.com
 90
    32895
280
     0
281
     1
  0
CLASS
  1
WIPEOUTVARIABLES
  2
AcDbWipeoutVariables
  3
WipeOut|AutoCAD Express Tool|expresstools@autodesk.com
 90
    32768
280
     0
281
     0
  0
CLASS
  1
RTEXT
  2
RText
  3
RText|AutoCAD Express Tool|expresstools@autodesk.com
 90
    32768
280
     0
281
     1
  0
CLASS
  1
ARCALIGNEDTEXT
  2
AcDbArcAlignedText
  3
ATEXT|AutoCAD Express Tool|expresstools@autodesk.com
 90
    32768
280
     0
281
     1
  0
ENDSEC
  0
SECTION
  2
TABLES
  0
TABLE
  2
VPORT
  5
7
330
0
100
AcDbSymbolTable
 70
     2
  0
VPORT
  5
38DA
330
7
100
AcDbSymbolTableRecord
100
AcDbViewportTableRecord
  2
*Active
 70
     0
 10
0.0
 20
0.0
 11
1.0
 21
1.0
 12
299.7628984398325
 22
188.9016413078819
 13
0.0
 23
0.0
 14
1.0
 24
1.0
 15
0.0
 25
0.0
 16
0.0
 26
0.0
 36
1.0
 17
0.0
 27
0.0
 37
0.0
 40
271.6037152015189
 41
1.91858037578288
 42
50.0
 43
0.0
 44
0.0
 50
0.0
 51
0.0
 71
     0
 72
   100
 73
     1
 74
     1
 75
     0
 76
     0
 77
     0
 78
     0
281
     0
 65
     1
110
0.0
120
0.0
130
0.0
111
1.0
121
0.0
131
0.0
112
0.0
122
1.0
132
0.0
 79
     0
146
0.0
  0
ENDTAB
  0
TABLE
  2
LTYPE
  5
4
330
0
100
AcDbSymbolTable
 70
     1
  0
LTYPE
  5
11
330
4
100
AcDbSymbolTableRecord
100
AcDbLinetypeTableRecord
  2
BYBLOCK
 70
     0
  3

 72
    65
 73
     0
 40
0.0
  0
LTYPE
  5
12
330
4
100
AcDbSymbolTableRecord
100
AcDbLinetypeTableRecord
  2
BYLAYER
 70
     0
  3

 72
    65
 73
     0
 40
0.0
  0
LTYPE
  5
13
330
4
100
AcDbSymbolTableRecord
100
AcDbLinetypeTableRecord
  2
CONTINUOUS
 70
     0
  3
Solid line
 72
    65
 73
     0
 40
0.0
  0
ENDTAB
  0
TABLE
  2
LAYER
  5
2
330
0
100
AcDbSymbolTable
 70
     1
  0
LAYER
  5
14
330
2
100
AcDbSymbolTableRecord
100
AcDbLayerTableRecord
  2
0
 70
     0
 62
     7
  6
CONTINUOUS
370
    -3
390
387E
  0
ENDTAB
  0
TABLE
  2
STYLE
  5
3
330
0
100
AcDbSymbolTable
 70
     1
  0
STYLE
  5
17
330
3
100
AcDbSymbolTableRecord
100
AcDbTextStyleTableRecord
  2
STANDARD
 70
     0
 40
0.0
 41
1.0
 50
0.0
 71
     0
 42
0.0
  3
txt
  4

  0
ENDTAB
  0
TABLE
  2
VIEW
  5
5
330
0
100
AcDbSymbolTable
 70
     0
  0
ENDTAB
  0
TABLE
  2
UCS
  5
6
330
0
100
AcDbSymbolTable
 70
     0
  0
ENDTAB
  0
TABLE
  2
APPID
  5
8
330
0
100
AcDbSymbolTable
 70
     1
  0
APPID
  5
16
330
8
100
AcDbSymbolTableRecord
100
AcDbRegAppTableRecord
  2
ACAD
 70
     0
  0
ENDTAB
  0
TABLE
  2
DIMSTYLE
  5
9
330
0
100
AcDbSymbolTable
 70
     1
100
AcDbDimStyleTable
 71
     1
340
18
  0
DIMSTYLE
105
18
330
9
100
AcDbSymbolTableRecord
100
AcDbDimStyleTableRecord
  2
STANDARD
 70
     0
340
17
  0
ENDTAB
  0
TABLE
  2
BLOCK_RECORD
  5
1
330
0
100
AcDbSymbolTable
 70
     0
  0
BLOCK_RECORD
  5
A
330
1
100
AcDbSymbolTableRecord
100
AcDbBlockTableRecord
  2
*MODEL_SPACE
340
3881
  0
BLOCK_RECORD
  5
B
330
1
100
AcDbSymbolTableRecord
100
AcDbBlockTableRecord
  2
*PAPER_SPACE
340
3882
  0
ENDTAB
  0
ENDSEC
  0
SECTION
  2
BLOCKS
  0
BLOCK
  5
D
330
A
100
AcDbEntity
  8
0
100
AcDbBlockBegin
  2
*MODEL_SPACE
 70
     0
 10
0.0
 20
0.0
 30
0.0
  3
*MODEL_SPACE
  1

  0
ENDBLK
  5
E
330
A
100
AcDbEntity
  8
0
100
AcDbBlockEnd
  0
BLOCK
  5
F
330
B
100
AcDbEntity
 67
     1
  8
0
100
AcDbBlockBegin
  2
*PAPER_SPACE
 70
     0
 10
0.0
 20
0.0
 30
0.0
  3
*PAPER_SPACE
  1

  0
ENDBLK
  5
10
330
B
100
AcDbEntity
 67
     1
  8
0
100
AcDbBlockEnd
  0
ENDSEC
  0
SECTION
  2
ENTITIES
  0
LINE
  5
2D1F
330
A
100
AcDbEntity
  8
0
  6
Continuous
 62
     7
 48
0.013749
100
AcDbLine
 10
500.4993625
 20
124.74596
 30
0.0
 11
501.3242979999997
 21
124.74596
 31
0.0
  0
LINE
  5
31D8
330
A
100
AcDbEntity
  8
0
  6
Continuous
 62
     7
 48
0.183334
100
AcDbLine
 10
303.3380994999999
 20
251.745956
 30
0.0
 11
292.338085
 21
251.745956
 31
0.0
  0
LINE
  5
31D9
330
A
100
AcDbEntity
  8
0
  6
Continuous
 62
     7
 48
0.041667
100
AcDbLine
 10
282.8380929999996
 20
251.745956
 30
0.0
 11
280.3380849999999
 21
251.745956
 31
0.0
  0
LINE
  5
31DA
330
A
100
AcDbEntity
  8
0
  6
Continuous
 62
     7
 48
0.158333
100
AcDbLine
 10
282.8380929999996
 20
251.745956
 30
0.0
 11
292.338085
 21
251.745956
 31
0.0
  0
LINE
  5
31DC
330
A
100
AcDbEntity
  8
0
  6
Continuous
 62
     7
 48
0.00095
100
AcDbLine
 10
282.8380929999996
 20
250.9459684999999
 30
0.0
 11
282.8951065
 21
250.9459684999999
 31
0.0
  0
LINE
  5
31DE
330
A
100
AcDbEntity
  8
0
  6
Continuous
 62
     7
 48
0.041667
100
AcDbLine
 10
282.8380929999996
 20
250.9459684999999
 30
0.0
 11
280.3380849999999
 21
250.9459684999999
 31
0.0
  0
LINE
  5
31DF
330
A
100
AcDbEntity
  8
0
  6
Continuous
 62
     7
100
AcDbLine
 10
306.4380984999999
 20
248.245964
 30
0.0
 11
460.2381325
 21
248.245964
 31
0.0
  0
LINE
  5
31E1
330
A
100
AcDbEntity
  8
0
  6
Continuous
 62
     7
100
AcDbLine
 10
306.4380984999999
 20
111.2459599999997
 30
0.0
 11
460.2381325
 21
111.2459599999997
 31
0.0
  0
LINE
  5
31E8
330
A
100
AcDbEntity
  8
0
  6
Continuous
 62
     7
100
AcDbLine
 10
296.0380974999998
 20
108.5459674999996
 30
0.0
 11
296.0380974999998
 21
250.9459684999999
 31
0.0
  0
LINE
  5
31EA
330
A
100
AcDbEntity
  8
0
  6
Continuous
 62
     7
 48
0.013333
100
AcDbLine
 10
280.3380849999999
 20
250.9459684999999
 30
0.0
 11
280.3380849999999
 21
251.745956
 31
0.0
  0
LINE
  5
31EB
330
A
100
AcDbEntity
  8
0
  6
Continuous
 62
     7
 48
0.061667
100
AcDbLine
 10
292.0380895
 20
108.5459674999996
 30
0.0
 11
296.0380974999998
 21
108.5459674999996
 31
0.0
  0
LINE
  5
31ED
330
A
100
AcDbEntity
  8
0
  6
Continuous
 62
     7
 48
0.000912
100
AcDbLine
 10
282.8380929999996
 20
108.5459674999996
 30
0.0
 11
282.8928174999997
 21
108.5459674999996
 31
0.0
  0
LINE
  5
31EE
330
A
100
AcDbEntity
  8
0
  6
Continuous
 62
     7
 48
0.041667
100
AcDbLine
 10
280.3380849999999
 20
108.5459674999996
 30
0.0
 11
282.8380929999996
 21
108.5459674999996
 31
0.0
  0
LINE
  5
31F0
330
A
100
AcDbEntity
  8
0
  6
Continuous
 62
     7
 48
0.108333
100
AcDbLine
 10
285.8380929999997
 20
107.745956
 30
0.0
 11
292.338085
 21
107.745956
 31
0.0
  0
LINE
  5
31F2
330
A
100
AcDbEntity
  8
0
  6
Continuous
 62
     7
 48
0.041667
100
AcDbLine
 10
280.3380849999999
 20
107.745956
 30
0.0
 11
282.8380929999996
 21
107.745956
 31
0.0
  0
LINE
  5
31F3
330
A
100
AcDbEntity
  8
0
  6
Continuous
 62
     7
 48
0.05
100
AcDbLine
 10
282.8380929999996
 20
107.745956
 30
0.0
 11
285.8380929999997
 21
107.745956
 31
0.0
  0
LINE
  5
31F4
330
A
100
AcDbEntity
  8
0
  6
Continuous
 62
     7
 48
0.013334
100
AcDbLine
 10
280.3380849999999
 20
108.5459674999996
 30
0.0
 11
280.3380849999999
 21
107.745956
 31
0.0
  0
LINE
  5
31F5
330
A
100
AcDbEntity
  8
0
  6
Continuous
 62
     7
 48
0.198668
100
AcDbLine
 10
460.2380409999994
 20
243.1459729999999
 30
0.0
 11
472.158115
 21
243.1459729999999
 31
0.0
  0
LINE
  5
31F6
330
A
100
AcDbEntity
  8
0
  6
Continuous
 62
     7
 48
0.011181
100
AcDbLine
 10
472.158115
 20
243.1459729999999
 30
0.0
 11
472.458133
 21
242.5459145
 31
0.0
  0
LINE
  5
31FE
330
A
100
AcDbEntity
  8
0
  6
Continuous
 62
     7
100
AcDbLine
 10
460.2381325
 20
111.2459599999997
 30
0.0
 11
460.2381325
 21
248.245964
 31
0.0
  0
LINE
  5
3202
330
A
100
AcDbEntity
  8
0
  6
Continuous
 62
     7
 48
0.225
100
AcDbLine
 10
292.338085
 20
107.745956
 30
0.0
 11
305.8380849999998
 21
107.745956
 31
0.0
  0
LINE
  5
3208
330
A
100
AcDbEntity
  8
0
  6
Continuous
 62
     7
 48
0.061667
100
AcDbLine
 10
296.0380974999998
 20
250.9459684999999
 30
0.0
 11
292.0380895
 21
250.9459684999999
 31
0.0
  0
LINE
  5
320F
330
A
100
AcDbEntity
  8
0
  6
Continuous
 62
     7
100
AcDbLine
 10
306.4380984999999
 20
251.4459604999999
 30
0.0
 11
306.4380984999999
 21
108.0459634999999
 31
0.0
  0
LINE
  5
3216
330
A
100
AcDbEntity
  8
0
  6
Continuous
 62
     7
 48
0.011181
100
AcDbLine
 10
306.4380984999999
 20
108.0459634999999
 30
0.0
 11
305.8380849999998
 21
107.745956
 31
0.0
  0
LINE
  5
3217
330
A
100
AcDbEntity
  8
0
  6
Continuous
 62
     7
 48
0.011181
100
AcDbLine
 10
306.4380984999999
 20
251.4459604999999
 30
0.0
 11
305.8380849999998
 21
251.745956
 31
0.0
  0
LINE
  5
321B
330
A
100
AcDbEntity
  8
0
  6
Continuous
 62
     7
 48
0.225
100
AcDbLine
 10
292.338085
 20
251.745956
 30
0.0
 11
305.8380849999998
 21
251.745956
 31
0.0
  0
LINE
  5
3244
330
A
100
AcDbEntity
  8
0
  6
Continuous
 62
     7
 48
0.041728
100
AcDbLine
 10
292.0380895
 20
109.2459679999994
 30
0.0
 11
294.8380929999998
 21
109.3981399999996
 31
0.0
  0
LINE
  5
3246
330
A
100
AcDbEntity
  8
0
  6
Continuous
 62
     7
 48
0.000095
100
AcDbLine
 10
292.0380895
 20
109.2402574999999
 30
0.0
 11
292.0380895
 21
109.2459679999994
 31
0.0
  0
LINE
  5
3247
330
A
100
AcDbEntity
  8
0
  6
Continuous
 62
     7
 48
0.024905
100
AcDbLine
 10
292.0380895
 20
107.745956
 30
0.0
 11
292.0380895
 21
109.2402574999999
 31
0.0
  0
LINE
  5
3253
330
A
100
AcDbEntity
  8
0
  6
Continuous
 62
     7
 48
0.157564
100
AcDbLine
 10
292.0380895
 20
107.745956
 30
0.0
 11
282.6201969999999
 21
108.5699194999997
 31
0.0
  0
LINE
  5
3254
330
A
100
AcDbEntity
  8
0
  6
Continuous
 62
     7
 48
0.015252
100
AcDbLine
 10
281.7085839999998
 20
108.6496849999999
 30
0.0
 11
282.6201969999999
 21
108.5699194999997
 31
0.0
  0
LINE
  5
325C
330
A
100
AcDbEntity
  8
0
  6
Continuous
 62
     7
 48
0.000052
100
AcDbLine
 10
280.0503339999999
 20
247.3193584999998
 30
0.0
 11
280.0500834999999
 21
247.3224724999999
 31
0.0
  0
LINE
  5
325D
330
A
100
AcDbEntity
  8
0
  6
Continuous
 62
     7
 48
0.023762
100
AcDbLine
 10
278.6297559999999
 20
247.1984629999999
 30
0.0
 11
280.0500834999999
 21
247.3226555
 31
0.0
  0
LINE
  5
325E
330
A
100
AcDbEntity
  8
0
  6
Continuous
 62
     7
 48
0.000609
100
AcDbLine
 10
280.053859
 20
245.8590244999999
 30
0.0
 11
280.0538829999999
 21
245.8224724999998
 31
0.0
  0
LINE
  5
325F
330
A
100
AcDbEntity
  8
0
  6
Continuous
 62
     7
100
AcDbLine
 10
280.0539054999999
 20
245.8228609999999
 30
0.0
 11
280.0539054999999
 21
113.669087
 31
0.0
  0
LINE
  5
3260
330
A
100
AcDbEntity
  8
0
  6
Continuous
 62
     7
 48
0.000605
100
AcDbLine
 10
280.0538829999999
 20
113.6694529999999
 30
0.0
 11
280.053859
 21
113.6331634999999
 31
0.0
  0
LINE
  5
3261
330
A
100
AcDbEntity
  8
0
  6
Continuous
 62
     7
 48
0.023764
100
AcDbLine
 10
278.629711
 20
112.2934385
 30
0.0
 11
280.050106
 21
112.1692234999996
 31
0.0
  0
LINE
  5
3262
330
A
100
AcDbEntity
  8
0
  6
Continuous
 62
     7
 48
0.000051
100
AcDbLine
 10
280.0500834999999
 20
112.169465
 30
0.0
 11
280.0503339999999
 21
112.172486
 31
0.0
  0
LWPOLYLINE
  5
3263
330
A
100
AcDbEntity
  8
0
  6
Continuous
 62
     7
100
AcDbPolyline
 90
        3
 70
     0
 43
0.0
 10
280.050358
 20
112.1718109999999
 10
280.0811425
 20
112.9578364999997
 10
280.0875279999999
 20
113.6440235
  0
LINE
  5
3268
330
A
100
AcDbEntity
  8
0
  6
Continuous
 62
     7
100
AcDbLine
 10
280.0875279999999
 20
113.6439664999997
 30
0.0
 11
280.0875055
 21
245.8480384999999
 31
0.0
  0
LWPOLYLINE
  5
3269
330
A
100
AcDbEntity
  8
0
  6
Continuous
 62
     7
100
AcDbPolyline
 90
        3
 70
     0
 43
0.0
 10
280.050358
 20
247.3200679999998
 10
280.0775035
 20
246.6985399999998
 10
280.0875055
 20
245.847923
  0
LINE
  5
326E
330
A
100
AcDbEntity
  8
0
  6
Continuous
 62
     7
 48
0.001344
100
AcDbLine
 10
280.0539054999999
 20
113.6690644999996
 30
0.0
 11
280.0875745
 21
113.7423289999994
 31
0.0
  0
LINE
  5
326F
330
A
100
AcDbEntity
  8
0
  6
Continuous
 62
     7
 48
0.001331
100
AcDbLine
 10
280.0872309999999
 20
245.750306
 30
0.0
 11
280.0539054999999
 21
245.8228609999999
 31
0.0
  0
ARC
  5
3270
330
A
100
AcDbEntity
  8
0
  6
Continuous
 62
     7
100
AcDbCircle
 10
291.8380929999996
 20
200.2579114999999
 30
0.0
 40
1.999996499999999
100
AcDbArc
 50
106.699158
 51
179.99995
  0
LINE
  5
3271
330
A
100
AcDbEntity
  8
0
  6
Continuous
 62
     7
100
AcDbLine
 10
289.8380995
 20
163.2340324999999
 30
0.0
 11
289.8380995
 21
200.2579114999999
 31
0.0
  0
ARC
  5
3272
330
A
100
AcDbEntity
  8
0
  6
Continuous
 62
     7
100
AcDbCircle
 10
291.8380929999996
 20
163.2340324999999
 30
0.0
 40
1.999999499999999
100
AcDbArc
 50
179.999923
 51
253.3006529999999
  0
LINE
  5
3273
330
A
100
AcDbEntity
  8
0
  6
Continuous
 62
     7
 48
0.0187
100
AcDbLine
 10
292.338085
 20
160.995956
 30
0.0
 11
291.2633935
 21
161.3183824999999
 31
0.0
  0
LINE
  5
3274
330
A
100
AcDbEntity
  8
0
  6
Continuous
 62
     7
 48
0.043501
100
AcDbLine
 10
294.8380929999998
 20
160.2459559999998
 30
0.0
 11
292.338085
 21
160.995956
 31
0.0
  0
LINE
  5
3275
330
A
100
AcDbEntity
  8
0
  6
Continuous
 62
     7
 48
0.02
100
AcDbLine
 10
296.0380974999998
 20
160.2459559999998
 30
0.0
 11
294.8380929999998
 21
160.2459559999998
 31
0.0
  0
LINE
  5
3276
330
A
100
AcDbEntity
  8
0
  6
Continuous
 62
     7
 48
0.02
100
AcDbLine
 10
296.0380974999998
 20
203.2459639999999
 30
0.0
 11
294.8380929999998
 21
203.2459639999999
 31
0.0
  0
LINE
  5
3277
330
A
100
AcDbEntity
  8
0
  6
Continuous
 62
     7
 48
0.043501
100
AcDbLine
 10
294.8380929999998
 20
203.2459639999999
 30
0.0
 11
292.338085
 21
202.495964
 31
0.0
  0
LINE
  5
3278
330
A
100
AcDbEntity
  8
0
  6
Continuous
 62
     7
 48
0.0187
100
AcDbLine
 10
291.2633935
 20
202.1735614999998
 30
0.0
 11
292.338085
 21
202.495964
 31
0.0
  0
LINE
  5
327A
330
A
100
AcDbEntity
  8
0
  6
Continuous
 62
     7
100
AcDbLine
 10
294.8380929999998
 20
203.2459639999999
 30
0.0
 11
294.8380929999998
 21
250.0937959999999
 31
0.0
  0
LINE
  5
327B
330
A
100
AcDbEntity
  8
0
  6
Continuous
 62
     7
 48
0.041728
100
AcDbLine
 10
294.8380929999998
 20
250.0937959999999
 30
0.0
 11
292.0380895
 21
250.2516785
 31
0.0
  0
LINE
  5
327C
330
A
100
AcDbEntity
  8
0
  6
Continuous
 62
     7
 48
0.02003
100
AcDbLine
 10
296.0380974999998
 20
250.028564
 30
0.0
 11
294.8380929999998
 21
250.0937959999999
 31
0.0
  0
LINE
  5
327E
330
A
100
AcDbEntity
  8
0
  6
Continuous
 62
     7
 48
0.024905
100
AcDbLine
 10
292.0380895
 20
250.2516785
 30
0.0
 11
292.0380895
 21
251.745956
 31
0.0
  0
LINE
  5
327F
330
A
100
AcDbEntity
  8
0
  6
Continuous
 62
     7
 48
0.000095
100
AcDbLine
 10
292.0380895
 20
250.245956
 30
0.0
 11
292.0380895
 21
250.2516785
 31
0.0
  0
LINE
  5
3280
330
A
100
AcDbEntity
  8
0
  6
Continuous
 62
     7
 48
0.157564
100
AcDbLine
 10
282.6201969999999
 20
250.9220044999998
 30
0.0
 11
292.0380895
 21
251.745956
 31
0.0
  0
LINE
  5
328D
330
A
100
AcDbEntity
  8
0
  6
Continuous
 62
     7
 48
0.015252
100
AcDbLine
 10
281.7085839999998
 20
250.842239
 30
0.0
 11
282.6201969999999
 21
250.9220044999998
 31
0.0
  0
LINE
  5
328E
330
A
100
AcDbEntity
  8
0
  6
Continuous
 62
     7
 48
0.028602
100
AcDbLine
 10
279.998974
 20
250.6926874999999
 30
0.0
 11
281.7085839999998
 21
250.842239
 31
0.0
  0
LINE
  5
328F
330
A
100
AcDbEntity
  8
0
  6
Continuous
 62
     7
100
AcDbLine
 10
294.8380929999998
 20
109.3981399999996
 30
0.0
 11
294.8380929999998
 21
160.2459559999998
 31
0.0
  0
LINE
  5
3291
330
A
100
AcDbEntity
  8
0
  6
Continuous
 62
     7
 48
0.028602
100
AcDbLine
 10
281.7085839999998
 20
108.6496849999999
 30
0.0
 11
279.998974
 21
108.7992485
 31
0.0
  0
LINE
  5
3292
330
A
100
AcDbEntity
  8
0
  6
Continuous
 62
     7
 48
0.033332
100
AcDbLine
 10
278.629711
 20
110.2935379999999
 30
0.0
 11
278.629711
 21
112.2934385
 31
0.0
  0
LINE
  5
3293
330
A
100
AcDbEntity
  8
0
  6
Continuous
 62
     7
 48
0.033332
100
AcDbLine
 10
278.6297559999999
 20
247.1984629999999
 30
0.0
 11
278.6297559999999
 21
249.1983874999998
 31
0.0
  0
LINE
  5
3294
330
A
100
AcDbEntity
  8
0
  6
Continuous
 62
     7
 48
0.033348
100
AcDbLine
 10
278.6299854999999
 20
112.2934385
 30
0.0
 11
280.0876194999998
 21
113.6641204999999
 31
0.0
  0
LINE
  5
3295
330
A
100
AcDbEntity
  8
0
  6
Continuous
 62
     7
 48
0.033343
100
AcDbLine
 10
280.0874589999995
 20
245.8279414999999
 30
0.0
 11
278.6300319999999
 21
247.1984404999999
 31
0.0
  0
ARC
  5
3296
330
A
100
AcDbEntity
  8
0
  6
Continuous
 62
     7
100
AcDbCircle
 10
280.1306259999999
 20
249.197564
 30
0.0
 40
1.500935999999995
100
AcDbArc
 50
95.027158
 51
179.968996
  0
ARC
  5
3297
330
A
100
AcDbEntity
  8
0
  6
Continuous
 62
     7
100
AcDbCircle
 10
280.1306034999999
 20
110.2943614999998
 30
0.0
 40
1.500935999999995
100
AcDbArc
 50
180.0310179999999
 51
264.97112
  0
LINE
  5
329A
330
A
100
AcDbEntity
  8
0
  6
Continuous
 62
     7
 48
0.008333
100
AcDbLine
 10
480.5681034999997
 20
181.7459719999995
 30
0.0
 11
480.5681034999997
 21
182.2459639999999
 31
0.0
  0
LINE
  5
329B
330
A
100
AcDbEntity
  8
0
  6
Continuous
 62
     7
100
AcDbLine
 10
480.5681034999997
 20
181.7459719999995
 30
0.0
 11
480.5681034999997
 21
114.2459599999996
 31
0.0
  0
LINE
  5
329C
330
A
100
AcDbEntity
  8
0
  6
Continuous
 62
     7
 48
0.008333
100
AcDbLine
 10
480.5681034999997
 20
113.7459679999994
 30
0.0
 11
480.5681034999997
 21
114.2459599999996
 31
0.0
  0
ARC
  5
329D
330
A
100
AcDbEntity
  8
0
  6
Continuous
 62
     7
100
AcDbCircle
 10
480.0680889999998
 20
182.2459639999999
 30
0.0
 40
0.4999995000000001
100
AcDbArc
 50
0.0
 51
90.00000300000001
  0
ARC
  5
32A3
330
A
100
AcDbEntity
  8
0
  6
Continuous
 62
     7
100
AcDbCircle
 10
480.0680889999998
 20
113.7459679999994
 30
0.0
 40
0.4999995000000001
100
AcDbArc
 50
270.000001
 51
0.00001
  0
LINE
  5
32A4
330
A
100
AcDbEntity
  8
0
  6
Continuous
 62
     7
 48
0.021371
100
AcDbLine
 10
485.3680765
 20
116.4459605
 30
0.0
 11
485.3680765
 21
117.7282264999994
 31
0.0
  0
LINE
  5
32A5
330
A
100
AcDbEntity
  8
0
  6
Continuous
 62
     7
 48
0.08
100
AcDbLine
 10
480.5681034999997
 20
122.2459639999996
 30
0.0
 11
485.3680765
 21
122.2459639999996
 31
0.0
  0
ARC
  5
32A6
330
A
100
AcDbEntity
  8
0
  6
Continuous
 62
     7
100
AcDbCircle
 10
490.6681089999998
 20
173.2459639999999
 30
0.0
 40
9.0
100
AcDbArc
 50
180.000005
 51
233.921793
  0
LINE
  5
32A7
330
A
100
AcDbEntity
  8
0
  6
Continuous
 62
     7
 48
0.008333
100
AcDbLine
 10
481.6681089999995
 20
173.2459639999999
 30
0.0
 11
481.6681089999995
 21
173.7459559999993
 31
0.0
  0
LINE
  5
32A8
330
A
100
AcDbEntity
  8
0
  6
Continuous
 62
     7
 48
0.018333
100
AcDbLine
 10
480.5681034999997
 20
173.7459559999993
 30
0.0
 11
481.6681089999995
 21
173.7459559999993
 31
0.0
  0
LINE
  5
32A9
330
A
100
AcDbEntity
  8
0
  6
Continuous
 62
     7
 48
0.018333
100
AcDbLine
 10
482.768116
 20
173.7459559999993
 30
0.0
 11
481.6681089999995
 21
173.7459559999993
 31
0.0
  0
LINE
  5
32AC
330
A
100
AcDbEntity
  8
0
  6
Continuous
 62
     7
 48
0.330499
100
AcDbLine
 10
460.2381325
 20
182.745956
 30
0.0
 11
480.0680889999998
 21
182.745956
 31
0.0
  0
LINE
  5
32AF
330
A
100
AcDbEntity
  8
0
  6
Continuous
 62
     7
 48
0.330499
100
AcDbLine
 10
460.2381325
 20
113.2459639999999
 30
0.0
 11
480.0680889999998
 21
113.2459639999999
 31
0.0
  0
ARC
  5
32B0
330
A
100
AcDbEntity
  8
0
  6
Continuous
 62
     7
100
AcDbCircle
 10
482.768116
 20
175.7459719999995
 30
0.0
 40
1.999999499999999
100
AcDbArc
 50
270.000001
 51
0.00001
  0
LINE
  5
32B1
330
A
100
AcDbEntity
  8
0
  6
Continuous
 62
     7
 48
0.016666
100
AcDbLine
 10
484.7681305
 20
176.7459559999999
 30
0.0
 11
484.7681305
 21
175.7459719999995
 31
0.0
  0
ARC
  5
32B2
330
A
100
AcDbEntity
  8
0
  6
Continuous
 62
     7
100
AcDbCircle
 10
485.2680999999996
 20
176.7459559999999
 30
0.0
 40
0.4999995000000001
100
AcDbArc
 50
90.00000300000001
 51
180.000005
  0
LINE
  5
32B3
330
A
100
AcDbEntity
  8
0
  6
Continuous
 62
     7
 48
0.085
100
AcDbLine
 10
490.368091
 20
177.2459719999995
 30
0.0
 11
485.2680999999996
 21
177.2459719999995
 31
0.0
  0
ARC
  5
32B4
330
A
100
AcDbEntity
  8
0
  6
Continuous
 62
     7
100
AcDbCircle
 10
490.368091
 20
175.245956
 30
0.0
 40
1.999999499999999
100
AcDbArc
 50
0.0
 51
90.00000300000001
  0
LINE
  5
32B5
330
A
100
AcDbEntity
  8
0
  6
Continuous
 62
     7
 48
0.005
100
AcDbLine
 10
492.3681069999998
 20
174.9459605
 30
0.0
 11
492.3681069999998
 21
175.245956
 31
0.0
  0
ARC
  5
32B6
330
A
100
AcDbEntity
  8
0
  6
Continuous
 62
     7
100
AcDbCircle
 10
490.6681089999998
 20
173.2459639999999
 30
0.0
 40
1.5
100
AcDbArc
 50
35.41110900000001
 51
0.00001
  0
LINE
  5
32B8
330
A
100
AcDbEntity
  8
0
  6
Continuous
 62
     7
 48
0.009826
100
AcDbLine
 10
485.9575389999998
 20
116.8340644999996
 30
0.0
 11
485.3680765
 21
116.8237759999998
 31
0.0
  0
LINE
  5
32B9
330
A
100
AcDbEntity
  8
0
  6
Continuous
 62
     7
 48
0.08
100
AcDbLine
 10
480.5681034999997
 20
116.4459605
 30
0.0
 11
485.3680765
 21
116.4459605
 31
0.0
  0
ARC
  5
32BA
330
A
100
AcDbEntity
  8
0
  6
Continuous
 62
     7
100
AcDbCircle
 10
490.6681089999998
 20
173.2459639999999
 30
0.0
 40
1.5
100
AcDbArc
 50
144.5940669999995
 51
180.000005
  0
LINE
  5
32BB
330
A
100
AcDbEntity
  8
0
  6
Continuous
 62
     7
 48
0.058333
100
AcDbLine
 10
489.1681089999998
 20
173.2459639999999
 30
0.0
 11
489.1681089999998
 21
169.7459719999995
 31
0.0
  0
ARC
  5
32BC
330
A
100
AcDbEntity
  8
0
  6
Continuous
 62
     7
100
AcDbCircle
 10
490.6681089999998
 20
169.7459719999995
 30
0.0
 40
1.5
100
AcDbArc
 50
180.000005
 51
0.00001
  0
LINE
  5
32BD
330
A
100
AcDbEntity
  8
0
  6
Continuous
 62
     7
 48
0.058333
100
AcDbLine
 10
492.1681089999998
 20
169.7459719999995
 30
0.0
 11
492.1681089999998
 21
173.2459639999999
 31
0.0
  0
ARC
  5
32BE
330
A
100
AcDbEntity
  8
0
  6
Continuous
 62
     7
100
AcDbCircle
 10
490.6681089999998
 20
173.2459639999999
 30
0.0
 40
1.5
100
AcDbArc
 50
0.0
 51
35.405929
  0
ARC
  5
32BF
330
A
100
AcDbEntity
  8
0
  6
Continuous
 62
     7
100
AcDbCircle
 10
492.1352425000002
 20
174.2888179999997
 30
0.0
 40
0.3
100
AcDbArc
 50
135.0
 51
215.405929
  0
ARC
  5
32C0
330
A
100
AcDbEntity
  8
0
  6
Continuous
 62
     7
100
AcDbCircle
 10
489.2009769999996
 20
174.2888179999997
 30
0.0
 40
0.3
100
AcDbArc
 50
324.5940569999999
 51
45.0
  0
LINE
  5
32C1
330
A
100
AcDbEntity
  8
0
  6
Continuous
 62
     7
 48
0.052915
100
AcDbLine
 10
489.4131054999999
 20
174.5009465
 30
0.0
 11
487.1680944999996
 21
176.7459559999999
 31
0.0
  0
LINE
  5
32C2
330
A
100
AcDbEntity
  8
0
  6
Continuous
 62
     7
 48
0.005
100
AcDbLine
 10
487.1680944999996
 20
176.7459559999999
 30
0.0
 11
486.8680764999998
 21
176.7459559999999
 31
0.0
  0
ARC
  5
32C3
330
A
100
AcDbEntity
  8
0
  6
Continuous
 62
     7
100
AcDbCircle
 10
486.8680764999998
 20
175.245956
 30
0.0
 40
1.5
100
AcDbArc
 50
90.00000300000001
 51
180.000005
  0
LINE
  5
32C4
330
A
100
AcDbEntity
  8
0
  6
Continuous
 62
     7
100
AcDbLine
 10
485.3680765
 20
117.7459639999999
 30
0.0
 11
485.3680765
 21
175.245956
 31
0.0
  0
ARC
  5
32C5
330
A
100
AcDbEntity
  8
0
  6
Continuous
 62
     7
100
AcDbCircle
 10
486.368107
 20
117.7459639999999
 30
0.0
 40
1.000000499999996
100
AcDbArc
 50
180.000005
 51
270.000001
  0
LINE
  5
32C6
330
A
100
AcDbEntity
  8
0
  6
Continuous
 62
     7
 48
0.228333
100
AcDbLine
 10
486.368107
 20
116.7459679999994
 30
0.0
 11
500.5681194999998
 21
116.7459679999994
 31
0.0
  0
LINE
  5
32C7
330
A
100
AcDbEntity
  8
0
  6
Continuous
 62
     7
 48
0.041131
100
AcDbLine
 10
493.6681089999998
 20
176.2459639999999
 30
0.0
 11
491.9230689999998
 21
174.5009465
 31
0.0
  0
LINE
  5
32CC
330
A
100
AcDbEntity
  8
0
  6
Continuous
 62
     7
 48
0.01636
100
AcDbLine
 10
494.168125
 20
176.7459559999999
 30
0.0
 11
495.149707
 21
176.7459559999999
 31
0.0
  0
LINE
  5
32CD
330
A
100
AcDbEntity
  8
0
  6
Continuous
 62
     7
 48
0.011785
100
AcDbLine
 10
494.168125
 20
176.7459559999999
 30
0.0
 11
493.6681089999998
 21
176.2459639999999
 31
0.0
  0
ARC
  5
32CF
330
A
100
AcDbEntity
  8
0
  6
Continuous
 62
     7
100
AcDbCircle
 10
495.149707
 20
173.7459559999993
 30
0.0
 40
3.0
100
AcDbArc
 50
11.57842199999999
 51
90.00000300000001
  0
LINE
  5
32D2
330
A
100
AcDbEntity
  8
0
  6
Continuous
 62
     7
 48
0.205892
100
AcDbLine
 10
498.088642
 20
174.3480995
 30
0.0
 11
500.5681194999998
 21
162.2459719999999
 31
0.0
  0
LINE
  5
32D4
330
A
100
AcDbEntity
  8
0
  6
Continuous
 62
     7
100
AcDbLine
 10
500.5681194999998
 20
116.7459679999994
 30
0.0
 11
500.5681194999998
 21
162.2459719999999
 31
0.0
  0
LINE
  5
32D5
330
A
100
AcDbEntity
  8
0
  6
Continuous
 62
     7
 48
0.005
100
AcDbLine
 10
502.2381325
 20
162.1959604999998
 30
0.0
 11
501.9381144999998
 21
162.1959604999998
 31
0.0
  0
LINE
  5
32D6
330
A
100
AcDbEntity
  8
0
  6
Continuous
 62
     7
 48
0.005
100
AcDbLine
 10
501.9381144999998
 20
149.7959674999998
 30
0.0
 11
502.2381325
 21
149.7959674999998
 31
0.0
  0
LINE
  5
32D7
330
A
100
AcDbEntity
  8
0
  6
Continuous
 62
     7
 48
0.000834
100
AcDbLine
 10
502.2381325
 20
149.745956
 30
0.0
 11
502.2381325
 21
149.7959674999998
 31
0.0
  0
LINE
  5
32D8
330
A
100
AcDbEntity
  8
0
  6
Continuous
 62
     7
 48
0.15
100
AcDbLine
 10
502.2381325
 20
137.7459679999996
 30
0.0
 11
502.2381325
 21
146.7459559999998
 31
0.0
  0
LINE
  5
32D9
330
A
100
AcDbEntity
  8
0
  6
Continuous
 62
     7
 48
0.06307
100
AcDbLine
 10
502.2381325
 20
130.9617725
 30
0.0
 11
502.2381325
 21
134.7459679999996
 31
0.0
  0
LINE
  5
32DA
330
A
100
AcDbEntity
  8
0
  6
Continuous
 62
     7
 48
0.103597
100
AcDbLine
 10
502.2381325
 20
124.74596
 30
0.0
 11
502.2381325
 21
130.9617725
 31
0.0
  0
LINE
  5
32DB
330
A
100
AcDbEntity
  8
0
  6
Continuous
 62
     7
 48
0.029737
100
AcDbLine
 10
502.2381325
 20
124.74596
 30
0.0
 11
502.2381325
 21
122.96177
 31
0.0
  0
ARC
  5
32DC
330
A
100
AcDbEntity
  8
0
  6
Continuous
 62
     7
100
AcDbCircle
 10
501.2381020000001
 20
130.9617725
 30
0.0
 40
1.000000499999996
100
AcDbArc
 50
270.999995
 51
0.00001
  0
LINE
  5
32DE
330
A
100
AcDbEntity
  8
0
  6
Continuous
 62
     7
 48
0.016376
100
AcDbLine
 10
502.2381325
 20
124.74596
 30
0.0
 11
501.2555889999998
 21
124.74596
 31
0.0
  0
ARC
  5
32E1
330
A
100
AcDbEntity
  8
0
  6
Continuous
 62
     7
100
AcDbCircle
 10
501.2381020000001
 20
122.96177
 30
0.0
 40
1.000000499999996
100
AcDbArc
 50
270.999995
 51
0.00001
  0
LINE
  5
32E4
330
A
100
AcDbEntity
  8
0
  6
Continuous
 62
     7
 48
0.01146
100
AcDbLine
 10
501.2555889999998
 20
129.961925
 30
0.0
 11
500.5681194999998
 21
129.9499324999999
 31
0.0
  0
LINE
  5
32E5
330
A
100
AcDbEntity
  8
0
  6
Continuous
 62
     7
 48
0.011458
100
AcDbLine
 10
501.2555889999998
 20
124.74596
 30
0.0
 11
500.5681194999998
 21
124.74596
 31
0.0
  0
LINE
  5
32E7
330
A
100
AcDbEntity
  8
0
  6
Continuous
 62
     7
 48
0.01146
100
AcDbLine
 10
501.2555889999998
 20
121.9619224999997
 30
0.0
 11
500.5681194999998
 21
121.9499284999997
 31
0.0
  0
LINE
  5
32EC
330
A
100
AcDbEntity
  8
0
  6
Continuous
 62
     7
 48
0.15
100
AcDbLine
 10
502.2381325
 20
195.2459719999998
 30
0.0
 11
502.2381325
 21
204.245972
 31
0.0
  0
LINE
  5
32ED
330
A
100
AcDbEntity
  8
0
  6
Continuous
 62
     7
 48
0.25
100
AcDbLine
 10
502.2381325
 20
177.2459719999995
 30
0.0
 11
502.2381325
 21
192.2459719999998
 31
0.0
  0
LINE
  5
32EE
330
A
100
AcDbEntity
  8
0
  6
Continuous
 62
     7
 48
0.15
100
AcDbLine
 10
502.2381325
 20
165.2459719999995
 30
0.0
 11
502.2381325
 21
174.2459719999998
 31
0.0
  0
LINE
  5
32EF
330
A
100
AcDbEntity
  8
0
  6
Continuous
 62
     7
 48
0.000834
100
AcDbLine
 10
502.2381325
 20
162.1959604999998
 30
0.0
 11
502.2381325
 21
162.2459719999999
 31
0.0
  0
LINE
  5
32F0
330
A
100
AcDbEntity
  8
0
  6
Continuous
 62
     7
 48
0.206667
100
AcDbLine
 10
501.9381144999998
 20
149.7959674999998
 30
0.0
 11
501.9381144999998
 21
162.1959604999998
 31
0.0
  0
LINE
  5
32F1
330
A
100
AcDbEntity
  8
0
  6
Continuous
 62
     7
 48
0.000833
100
AcDbLine
 10
501.9881019999998
 20
149.9959639999999
 30
0.0
 11
501.9381144999998
 21
149.9959639999999
 31
0.0
  0
LINE
  5
32F2
330
A
100
AcDbEntity
  8
0
  6
Continuous
 62
     7
 48
0.2
100
AcDbLine
 10
501.9881019999998
 20
149.9959639999999
 30
0.0
 11
501.9881019999998
 21
161.9959639999999
 31
0.0
  0
LINE
  5
32F3
330
A
100
AcDbEntity
  8
0
  6
Continuous
 62
     7
 48
0.000833
100
AcDbLine
 10
501.9881019999998
 20
161.9959639999999
 30
0.0
 11
501.9381144999998
 21
161.9959639999999
 31
0.0
  0
LINE
  5
32F4
330
A
100
AcDbEntity
  8
0
  6
Continuous
 62
     7
 48
0.2
100
AcDbLine
 10
501.9381144999998
 20
149.9959639999999
 30
0.0
 11
501.9381144999998
 21
161.9959639999999
 31
0.0
  0
LINE
  5
32F5
330
A
100
AcDbEntity
  8
0
  6
Continuous
 62
     7
 48
0.05
100
AcDbLine
 10
505.2381324999998
 20
192.2459719999998
 30
0.0
 11
502.2381325
 21
192.2459719999998
 31
0.0
  0
LINE
  5
32F6
330
A
100
AcDbEntity
  8
0
  6
Continuous
 62
     7
 48
0.189999
100
AcDbLine
 10
516.638095
 20
192.2459719999998
 30
0.0
 11
505.2381324999998
 21
192.2459719999998
 31
0.0
  0
LINE
  5
32F7
330
A
100
AcDbEntity
  8
0
  6
Continuous
 62
     7
 48
0.030047
100
AcDbLine
 10
517.6381254999996
 20
193.7459719999998
 30
0.0
 11
516.638095
 21
192.2459719999998
 31
0.0
  0
LINE
  5
32F8
330
A
100
AcDbEntity
  8
0
  6
Continuous
 62
     7
 48
0.042091
100
AcDbLine
 10
519.9266694999996
 20
192.6779629999998
 30
0.0
 11
517.6381254999996
 21
193.7459719999998
 31
0.0
  0
ARC
  5
32F9
330
A
100
AcDbEntity
  8
0
  6
Continuous
 62
     7
100
AcDbCircle
 10
520.1381109999998
 20
193.1310574999999
 30
0.0
 40
0.4999995000000001
100
AcDbArc
 50
244.983095
 51
0.00001
  0
LINE
  5
32FA
330
A
100
AcDbEntity
  8
0
  6
Continuous
 62
     7
 48
0.220497
100
AcDbLine
 10
520.6381254999996
 20
206.3608625
 30
0.0
 11
520.6381254999996
 21
193.1310574999999
 31
0.0
  0
ARC
  5
32FB
330
A
100
AcDbEntity
  8
0
  6
Continuous
 62
     7
100
AcDbCircle
 10
520.1381109999998
 20
206.3608625
 30
0.0
 40
0.4999995000000001
100
AcDbArc
 50
0.0
 51
115.0168869999999
  0
LINE
  5
32FC
330
A
100
AcDbEntity
  8
0
  6
Continuous
 62
     7
 48
0.042091
100
AcDbLine
 10
517.6381254999996
 20
205.7459719999999
 30
0.0
 11
519.9266694999996
 21
206.8139569999998
 31
0.0
  0
LINE
  5
32FD
330
A
100
AcDbEntity
  8
0
  6
Continuous
 62
     7
 48
0.030047
100
AcDbLine
 10
516.638095
 20
207.2459719999999
 30
0.0
 11
517.6381254999996
 21
205.7459719999999
 31
0.0
  0
LINE
  5
32FE
330
A
100
AcDbEntity
  8
0
  6
Continuous
 62
     7
 48
0.189999
100
AcDbLine
 10
505.2381324999998
 20
207.2459719999999
 30
0.0
 11
516.638095
 21
207.2459719999999
 31
0.0
  0
LINE
  5
32FF
330
A
100
AcDbEntity
  8
0
  6
Continuous
 62
     7
 48
0.041667
100
AcDbLine
 10
502.7381019999999
 20
207.2459719999999
 30
0.0
 11
505.2381324999998
 21
207.2459719999999
 31
0.0
  0
LINE
  5
3300
330
A
100
AcDbEntity
  8
0
  6
Continuous
 62
     7
 48
0.048591
100
AcDbLine
 10
506.7381325
 20
194.745956
 30
0.0
 11
505.2381324999998
 21
192.2459719999998
 31
0.0
  0
LINE
  5
3301
330
A
100
AcDbEntity
  8
0
  6
Continuous
 62
     7
 48
0.043163
100
AcDbLine
 10
502.2381325
 20
204.245972
 30
0.0
 11
502.2381325
 21
206.8357699999999
 31
0.0
  0
LINE
  5
3302
330
A
100
AcDbEntity
  8
0
  6
Continuous
 62
     7
 48
0.005
100
AcDbLine
 10
502.5381054999995
 20
204.245972
 30
0.0
 11
502.2381325
 21
204.245972
 31
0.0
  0
LINE
  5
3303
330
A
100
AcDbEntity
  8
0
  6
Continuous
 62
     7
 48
0.15
100
AcDbLine
 10
502.5381054999995
 20
195.2459719999998
 30
0.0
 11
502.5381054999995
 21
204.245972
 31
0.0
  0
LINE
  5
3304
330
A
100
AcDbEntity
  8
0
  6
Continuous
 62
     7
 48
0.005
100
AcDbLine
 10
502.2381325
 20
195.2459719999998
 30
0.0
 11
502.5381054999995
 21
195.2459719999998
 31
0.0
  0
LINE
  5
3305
330
A
100
AcDbEntity
  8
0
  6
Continuous
 62
     7
 48
0.05
100
AcDbLine
 10
502.2381325
 20
192.2459719999998
 30
0.0
 11
502.2381325
 21
195.2459719999998
 31
0.0
  0
LINE
  5
3306
330
A
100
AcDbEntity
  8
0
  6
Continuous
 62
     7
 48
0.083333
100
AcDbLine
 10
511.7381019999998
 20
194.745956
 30
0.0
 11
506.7381325
 21
194.745956
 31
0.0
  0
LINE
  5
3307
330
A
100
AcDbEntity
  8
0
  6
Continuous
 62
     7
 48
0.166667
100
AcDbLine
 10
511.7381019999998
 20
204.745964
 30
0.0
 11
511.7381019999998
 21
194.745956
 31
0.0
  0
LINE
  5
3308
330
A
100
AcDbEntity
  8
0
  6
Continuous
 62
     7
 48
0.083333
100
AcDbLine
 10
506.7381325
 20
204.745964
 30
0.0
 11
511.7381019999998
 21
204.745964
 31
0.0
  0
LINE
  5
3309
330
A
100
AcDbEntity
  8
0
  6
Continuous
 62
     7
 48
0.048591
100
AcDbLine
 10
505.2381324999998
 20
207.2459719999999
 30
0.0
 11
506.7381325
 21
204.745964
 31
0.0
  0
LINE
  5
330A
330
A
100
AcDbEntity
  8
0
  6
Continuous
 62
     7
 48
0.005
100
AcDbLine
 10
502.2381325
 20
200.1459664999998
 30
0.0
 11
502.5381054999995
 21
200.1459664999998
 31
0.0
  0
LINE
  5
330B
330
A
100
AcDbEntity
  8
0
  6
Continuous
 62
     7
 48
0.005
100
AcDbLine
 10
502.2381325
 20
199.345955
 30
0.0
 11
502.5381054999995
 21
199.345955
 31
0.0
  0
LINE
  5
330C
330
A
100
AcDbEntity
  8
0
  6
Continuous
 62
     7
 48
0.05
100
AcDbLine
 10
505.2381324999998
 20
162.2459719999999
 30
0.0
 11
502.2381325
 21
162.2459719999999
 31
0.0
  0
LINE
  5
330D
330
A
100
AcDbEntity
  8
0
  6
Continuous
 62
     7
 48
0.189999
100
AcDbLine
 10
516.638095
 20
162.2459719999999
 30
0.0
 11
505.2381324999998
 21
162.2459719999999
 31
0.0
  0
LINE
  5
330E
330
A
100
AcDbEntity
  8
0
  6
Continuous
 62
     7
 48
0.030047
100
AcDbLine
 10
517.6381254999996
 20
163.7459719999998
 30
0.0
 11
516.638095
 21
162.2459719999999
 31
0.0
  0
LINE
  5
330F
330
A
100
AcDbEntity
  8
0
  6
Continuous
 62
     7
 48
0.042091
100
AcDbLine
 10
519.9266694999996
 20
162.6779629999998
 30
0.0
 11
517.6381254999996
 21
163.7459719999998
 31
0.0
  0
ARC
  5
3310
330
A
100
AcDbEntity
  8
0
  6
Continuous
 62
     7
100
AcDbCircle
 10
520.1381109999998
 20
163.1310575
 30
0.0
 40
0.4999995000000001
100
AcDbArc
 50
244.983095
 51
0.00001
  0
LINE
  5
3311
330
A
100
AcDbEntity
  8
0
  6
Continuous
 62
     7
 48
0.220497
100
AcDbLine
 10
520.6381254999996
 20
176.3608624999999
 30
0.0
 11
520.6381254999996
 21
163.1310575
 31
0.0
  0
ARC
  5
3312
330
A
100
AcDbEntity
  8
0
  6
Continuous
 62
     7
100
AcDbCircle
 10
520.1381109999998
 20
176.3608624999999
 30
0.0
 40
0.4999995000000001
100
AcDbArc
 50
0.0
 51
115.0168869999999
  0
LINE
  5
3313
330
A
100
AcDbEntity
  8
0
  6
Continuous
 62
     7
 48
0.042091
100
AcDbLine
 10
517.6381254999996
 20
175.7459719999995
 30
0.0
 11
519.9266694999996
 21
176.813957
 31
0.0
  0
LINE
  5
3314
330
A
100
AcDbEntity
  8
0
  6
Continuous
 62
     7
 48
0.030047
100
AcDbLine
 10
516.638095
 20
177.2459719999995
 30
0.0
 11
517.6381254999996
 21
175.7459719999995
 31
0.0
  0
LINE
  5
3315
330
A
100
AcDbEntity
  8
0
  6
Continuous
 62
     7
 48
0.189999
100
AcDbLine
 10
505.2381324999998
 20
177.2459719999995
 30
0.0
 11
516.638095
 21
177.2459719999995
 31
0.0
  0
LINE
  5
3316
330
A
100
AcDbEntity
  8
0
  6
Continuous
 62
     7
 48
0.05
100
AcDbLine
 10
502.2381325
 20
177.2459719999995
 30
0.0
 11
505.2381324999998
 21
177.2459719999995
 31
0.0
  0
LINE
  5
3317
330
A
100
AcDbEntity
  8
0
  6
Continuous
 62
     7
 48
0.048591
100
AcDbLine
 10
506.7381325
 20
164.745956
 30
0.0
 11
505.2381324999998
 21
162.2459719999999
 31
0.0
  0
LINE
  5
3318
330
A
100
AcDbEntity
  8
0
  6
Continuous
 62
     7
 48
0.05
100
AcDbLine
 10
502.2381325
 20
174.2459719999998
 30
0.0
 11
502.2381325
 21
177.2459719999995
 31
0.0
  0
LINE
  5
3319
330
A
100
AcDbEntity
  8
0
  6
Continuous
 62
     7
 48
0.005
100
AcDbLine
 10
502.5381054999995
 20
174.2459719999998
 30
0.0
 11
502.2381325
 21
174.2459719999998
 31
0.0
  0
LINE
  5
331A
330
A
100
AcDbEntity
  8
0
  6
Continuous
 62
     7
 48
0.15
100
AcDbLine
 10
502.5381054999995
 20
165.2459719999995
 30
0.0
 11
502.5381054999995
 21
174.2459719999998
 31
0.0
  0
LINE
  5
331B
330
A
100
AcDbEntity
  8
0
  6
Continuous
 62
     7
 48
0.005
100
AcDbLine
 10
502.2381325
 20
165.2459719999995
 30
0.0
 11
502.5381054999995
 21
165.2459719999995
 31
0.0
  0
LINE
  5
331C
330
A
100
AcDbEntity
  8
0
  6
Continuous
 62
     7
 48
0.05
100
AcDbLine
 10
502.2381325
 20
162.2459719999999
 30
0.0
 11
502.2381325
 21
165.2459719999995
 31
0.0
  0
LINE
  5
331D
330
A
100
AcDbEntity
  8
0
  6
Continuous
 62
     7
 48
0.083333
100
AcDbLine
 10
511.7381019999998
 20
164.745956
 30
0.0
 11
506.7381325
 21
164.745956
 31
0.0
  0
LINE
  5
331E
330
A
100
AcDbEntity
  8
0
  6
Continuous
 62
     7
 48
0.166667
100
AcDbLine
 10
511.7381019999998
 20
174.7459639999999
 30
0.0
 11
511.7381019999998
 21
164.745956
 31
0.0
  0
LINE
  5
331F
330
A
100
AcDbEntity
  8
0
  6
Continuous
 62
     7
 48
0.083333
100
AcDbLine
 10
506.7381325
 20
174.7459639999999
 30
0.0
 11
511.7381019999998
 21
174.7459639999999
 31
0.0
  0
LINE
  5
3320
330
A
100
AcDbEntity
  8
0
  6
Continuous
 62
     7
 48
0.048591
100
AcDbLine
 10
505.2381324999998
 20
177.2459719999995
 30
0.0
 11
506.7381325
 21
174.7459639999999
 31
0.0
  0
LINE
  5
3321
330
A
100
AcDbEntity
  8
0
  6
Continuous
 62
     7
 48
0.005
100
AcDbLine
 10
502.2381325
 20
170.1459664999997
 30
0.0
 11
502.5381054999995
 21
170.1459664999997
 31
0.0
  0
LINE
  5
3322
330
A
100
AcDbEntity
  8
0
  6
Continuous
 62
     7
 48
0.005
100
AcDbLine
 10
502.2381325
 20
169.345955
 30
0.0
 11
502.5381054999995
 21
169.345955
 31
0.0
  0
LINE
  5
3323
330
A
100
AcDbEntity
  8
0
  6
Continuous
 62
     7
 48
0.05
100
AcDbLine
 10
505.2381324999998
 20
134.7459679999996
 30
0.0
 11
502.2381325
 21
134.7459679999996
 31
0.0
  0
LINE
  5
3324
330
A
100
AcDbEntity
  8
0
  6
Continuous
 62
     7
 48
0.189999
100
AcDbLine
 10
516.638095
 20
134.7459679999996
 30
0.0
 11
505.2381324999998
 21
134.7459679999996
 31
0.0
  0
LINE
  5
3325
330
A
100
AcDbEntity
  8
0
  6
Continuous
 62
     7
 48
0.030047
100
AcDbLine
 10
517.6381254999996
 20
136.2459679999996
 30
0.0
 11
516.638095
 21
134.7459679999996
 31
0.0
  0
LINE
  5
3326
330
A
100
AcDbEntity
  8
0
  6
Continuous
 62
     7
 48
0.042091
100
AcDbLine
 10
519.9266694999996
 20
135.1779709999997
 30
0.0
 11
517.6381254999996
 21
136.2459679999996
 31
0.0
  0
ARC
  5
3327
330
A
100
AcDbEntity
  8
0
  6
Continuous
 62
     7
100
AcDbCircle
 10
520.1381109999998
 20
135.6310655
 30
0.0
 40
0.4999995000000001
100
AcDbArc
 50
244.983095
 51
0.00001
  0
LINE
  5
3328
330
A
100
AcDbEntity
  8
0
  6
Continuous
 62
     7
 48
0.220497
100
AcDbLine
 10
520.6381254999996
 20
148.8608705
 30
0.0
 11
520.6381254999996
 21
135.6310655
 31
0.0
  0
ARC
  5
3329
330
A
100
AcDbEntity
  8
0
  6
Continuous
 62
     7
100
AcDbCircle
 10
520.1381109999998
 20
148.8608705
 30
0.0
 40
0.4999995000000001
100
AcDbArc
 50
0.0
 51
115.0168869999999
  0
LINE
  5
332A
330
A
100
AcDbEntity
  8
0
  6
Continuous
 62
     7
 48
0.042091
100
AcDbLine
 10
517.6381254999996
 20
148.245956
 30
0.0
 11
519.9266694999996
 21
149.3139649999999
 31
0.0
  0
LINE
  5
332B
330
A
100
AcDbEntity
  8
0
  6
Continuous
 62
     7
 48
0.030047
100
AcDbLine
 10
516.638095
 20
149.745956
 30
0.0
 11
517.6381254999996
 21
148.245956
 31
0.0
  0
LINE
  5
332C
330
A
100
AcDbEntity
  8
0
  6
Continuous
 62
     7
 48
0.189999
100
AcDbLine
 10
505.2381324999998
 20
149.745956
 30
0.0
 11
516.638095
 21
149.745956
 31
0.0
  0
LINE
  5
332D
330
A
100
AcDbEntity
  8
0
  6
Continuous
 62
     7
 48
0.05
100
AcDbLine
 10
502.2381325
 20
149.745956
 30
0.0
 11
505.2381324999998
 21
149.745956
 31
0.0
  0
LINE
  5
332E
330
A
100
AcDbEntity
  8
0
  6
Continuous
 62
     7
 48
0.048591
100
AcDbLine
 10
506.7381325
 20
137.2459639999997
 30
0.0
 11
505.2381324999998
 21
134.7459679999996
 31
0.0
  0
LINE
  5
332F
330
A
100
AcDbEntity
  8
0
  6
Continuous
 62
     7
 48
0.05
100
AcDbLine
 10
502.2381325
 20
146.7459559999998
 30
0.0
 11
502.2381325
 21
149.745956
 31
0.0
  0
LINE
  5
3330
330
A
100
AcDbEntity
  8
0
  6
Continuous
 62
     7
 48
0.005
100
AcDbLine
 10
502.5381054999995
 20
146.7459559999998
 30
0.0
 11
502.2381325
 21
146.7459559999998
 31
0.0
  0
LINE
  5
3331
330
A
100
AcDbEntity
  8
0
  6
Continuous
 62
     7
 48
0.15
100
AcDbLine
 10
502.5381054999995
 20
137.7459679999996
 30
0.0
 11
502.5381054999995
 21
146.7459559999998
 31
0.0
  0
LINE
  5
3332
330
A
100
AcDbEntity
  8
0
  6
Continuous
 62
     7
 48
0.005
100
AcDbLine
 10
502.2381325
 20
137.7459679999996
 30
0.0
 11
502.5381054999995
 21
137.7459679999996
 31
0.0
  0
LINE
  5
3333
330
A
100
AcDbEntity
  8
0
  6
Continuous
 62
     7
 48
0.05
100
AcDbLine
 10
502.2381325
 20
134.7459679999996
 30
0.0
 11
502.2381325
 21
137.7459679999996
 31
0.0
  0
LINE
  5
3334
330
A
100
AcDbEntity
  8
0
  6
Continuous
 62
     7
 48
0.083333
100
AcDbLine
 10
511.7381019999998
 20
137.2459639999997
 30
0.0
 11
506.7381325
 21
137.2459639999997
 31
0.0
  0
LINE
  5
3335
330
A
100
AcDbEntity
  8
0
  6
Continuous
 62
     7
 48
0.166667
100
AcDbLine
 10
511.7381019999998
 20
147.2459719999998
 30
0.0
 11
511.7381019999998
 21
137.2459639999997
 31
0.0
  0
LINE
  5
3336
330
A
100
AcDbEntity
  8
0
  6
Continuous
 62
     7
 48
0.083333
100
AcDbLine
 10
506.7381325
 20
147.2459719999998
 30
0.0
 11
511.7381019999998
 21
147.2459719999998
 31
0.0
  0
LINE
  5
3337
330
A
100
AcDbEntity
  8
0
  6
Continuous
 62
     7
 48
0.048591
100
AcDbLine
 10
505.2381324999998
 20
149.745956
 30
0.0
 11
506.7381325
 21
147.2459719999998
 31
0.0
  0
LINE
  5
3338
330
A
100
AcDbEntity
  8
0
  6
Continuous
 62
     7
 48
0.005
100
AcDbLine
 10
502.2381325
 20
142.6459729999999
 30
0.0
 11
502.5381054999995
 21
142.6459729999999
 31
0.0
  0
LINE
  5
3339
330
A
100
AcDbEntity
  8
0
  6
Continuous
 62
     7
 48
0.005
100
AcDbLine
 10
502.2381325
 20
141.8459629999994
 30
0.0
 11
502.5381054999995
 21
141.8459629999994
 31
0.0
  0
LINE
  5
333B
330
A
100
AcDbEntity
  8
0
  6
Continuous
 62
     7
 48
0.250001
100
AcDbLine
 10
520.2381325
 20
237.745964
 30
0.0
 11
505.238086
 21
237.745964
 31
0.0
  0
LINE
  5
333D
330
A
100
AcDbEntity
  8
0
  6
Continuous
 62
     7
 48
0.116667
100
AcDbLine
 10
520.2381325
 20
236.5459595
 30
0.0
 11
513.2381019999995
 21
236.5459595
 31
0.0
  0
LINE
  5
333E
330
A
100
AcDbEntity
  8
0
  6
Continuous
 62
     7
 48
0.151667
100
AcDbLine
 10
513.2381019999995
 20
236.5459595
 30
0.0
 11
513.2381019999995
 21
227.4459605
 31
0.0
  0
LINE
  5
333F
330
A
100
AcDbEntity
  8
0
  6
Continuous
 62
     7
 48
0.133333
100
AcDbLine
 10
513.2381019999995
 20
227.4459605
 30
0.0
 11
505.2381324999998
 21
227.4459605
 31
0.0
  0
LINE
  5
3340
330
A
100
AcDbEntity
  8
0
  6
Continuous
 62
     7
 48
0.153333
100
AcDbLine
 10
505.2381324999998
 20
227.4459605
 30
0.0
 11
505.2381324999998
 21
218.245964
 31
0.0
  0
LINE
  5
3341
330
A
100
AcDbEntity
  8
0
  6
Continuous
 62
     7
 48
0.1
100
AcDbLine
 10
511.2381325
 20
218.245964
 30
0.0
 11
505.2381324999998
 21
218.245964
 31
0.0
  0
LINE
  5
3342
330
A
100
AcDbEntity
  8
0
  6
Continuous
 62
     7
 48
0.153333
100
AcDbLine
 10
511.2381325
 20
218.245964
 30
0.0
 11
511.2381325
 21
227.4459605
 31
0.0
  0
LINE
  5
3343
330
A
100
AcDbEntity
  8
0
  6
Continuous
 62
     7
 48
0.116667
100
AcDbLine
 10
520.2381325
 20
227.4459605
 30
0.0
 11
513.2381019999995
 21
227.4459605
 31
0.0
  0
LINE
  5
3344
330
A
100
AcDbEntity
  8
0
  6
Continuous
 62
     7
 48
0.151667
100
AcDbLine
 10
520.2381325
 20
227.4459605
 30
0.0
 11
520.2381325
 21
237.745964
 31
0.0
  0
LINE
  5
3345
330
A
100
AcDbEntity
  8
0
  6
Continuous
 62
     7
 48
0.45
100
AcDbLine
 10
505.2381324999998
 20
214.245956
 30
0.0
 11
505.2381324999998
 21
241.245956
 31
0.0
  0
LINE
  5
3346
330
A
100
AcDbEntity
  8
0
  6
Continuous
 62
     7
 48
0.041666
100
AcDbLine
 10
505.2381324999998
 20
211.7459719999998
 30
0.0
 11
505.2381324999998
 21
214.245956
 31
0.0
  0
LINE
  5
3347
330
A
100
AcDbEntity
  8
0
  6
Continuous
 62
     7
 48
0.02643
100
AcDbLine
 10
505.2381324999998
 20
211.7459719999998
 30
0.0
 11
505.2381324999998
 21
210.160187
 31
0.0
  0
ARC
  5
3348
330
A
100
AcDbEntity
  8
0
  6
Continuous
 62
     7
100
AcDbCircle
 10
504.2381019999998
 20
241.245956
 30
0.0
 40
1.000000499999996
100
AcDbArc
 50
0.0
 51
90.00000300000001
  0
ARC
  5
334C
330
A
100
AcDbEntity
  8
0
  6
Continuous
 62
     7
100
AcDbCircle
 10
504.2381019999998
 20
214.245956
 30
0.0
 40
1.000000499999996
100
AcDbArc
 50
270.000001
 51
0.00001
  0
ARC
  5
3351
330
A
100
AcDbEntity
  8
0
  6
Continuous
 62
     7
100
AcDbCircle
 10
504.2381019999998
 20
210.160187
 30
0.0
 40
1.000000499999996
100
AcDbArc
 50
314.999989
 51
0.00001
  0
LINE
  5
3352
330
A
100
AcDbEntity
  8
0
  6
Continuous
 62
     7
100
AcDbLine
 10
460.2381325
 20
242.245964
 30
0.0
 11
504.2381019999998
 21
242.245964
 31
0.0
  0
LINE
  5
3353
330
A
100
AcDbEntity
  8
0
  6
Continuous
 62
     7
 48
0.166666
100
AcDbLine
 10
480.2381020000001
 20
209.2459639999999
 30
0.0
 11
469.2381325
 21
209.2459639999999
 31
0.0
  0
LINE
  5
3354
330
A
100
AcDbEntity
  8
0
  6
Continuous
 62
     7
 48
0.083333
100
AcDbLine
 10
469.2381325
 20
213.2459719999999
 30
0.0
 11
469.2381325
 21
209.2459639999999
 31
0.0
  0
LINE
  5
3357
330
A
100
AcDbEntity
  8
0
  6
Continuous
 62
     7
100
AcDbLine
 10
460.2381325
 20
241.245956
 30
0.0
 11
460.2381325
 21
187.245956
 31
0.0
  0
LINE
  5
3358
330
A
100
AcDbEntity
  8
0
  6
Continuous
 62
     7
 48
0.041666
100
AcDbLine
 10
460.2381325
 20
187.245956
 30
0.0
 11
462.7381164999997
 21
187.245956
 31
0.0
  0
LINE
  5
335C
330
A
100
AcDbEntity
  8
0
  6
Continuous
 62
     7
100
AcDbLine
 10
504.2381019999998
 20
213.2459719999999
 30
0.0
 11
469.2381325
 21
213.2459719999999
 31
0.0
  0
LINE
  5
3369
330
A
100
AcDbEntity
  8
0
  6
Continuous
 62
     7
 48
0.056904
100
AcDbLine
 10
504.9452094999998
 20
209.4530794999999
 30
0.0
 11
502.5310089999996
 21
207.0388565
 31
0.0
  0
LINE
  5
3370
330
A
100
AcDbEntity
  8
0
  6
Continuous
 62
     7
 48
0.041666
100
AcDbLine
 10
460.2381325
 20
186.2459719999995
 30
0.0
 11
462.7381164999997
 21
186.2459719999995
 31
0.0
  0
LINE
  5
3371
330
A
100
AcDbEntity
  8
0
  6
Continuous
 62
     7
 48
0.275
100
AcDbLine
 10
479.2381165
 20
186.2459719999995
 30
0.0
 11
462.7381164999997
 21
186.2459719999995
 31
0.0
  0
LINE
  5
3377
330
A
100
AcDbEntity
  8
0
  6
Continuous
 62
     7
 48
0.275
100
AcDbLine
 10
479.2381165
 20
194.745956
 30
0.0
 11
462.7381164999997
 21
194.745956
 31
0.0
  0
LINE
  5
3378
330
A
100
AcDbEntity
  8
0
  6
Continuous
 62
     7
 48
0.359763
100
AcDbLine
 10
501.8239014999998
 20
206.745956
 30
0.0
 11
480.2381020000001
 21
206.745956
 31
0.0
  0
ARC
  5
3379
330
A
100
AcDbEntity
  8
0
  6
Continuous
 62
     7
100
AcDbCircle
 10
501.8239014999998
 20
207.7459639999999
 30
0.0
 40
1.000000499999996
100
AcDbArc
 50
270.000001
 51
314.999989
  0
ARC
  5
337F
330
A
100
AcDbEntity
  8
0
  6
Continuous
 62
     7
100
AcDbCircle
 10
479.2381165
 20
195.7459639999999
 30
0.0
 40
1.000000499999996
100
AcDbArc
 50
270.000001
 51
0.00001
  0
LINE
  5
3381
330
A
100
AcDbEntity
  8
0
  6
Continuous
 62
     7
 48
0.091667
100
AcDbLine
 10
480.2381020000001
 20
190.245956
 30
0.0
 11
480.2381020000001
 21
195.7459639999999
 31
0.0
  0
LINE
  5
3383
330
A
100
AcDbEntity
  8
0
  6
Continuous
 62
     7
 48
0.05
100
AcDbLine
 10
480.2381020000001
 20
190.245956
 30
0.0
 11
480.2381020000001
 21
187.245956
 31
0.0
  0
ARC
  5
3384
330
A
100
AcDbEntity
  8
0
  6
Continuous
 62
     7
100
AcDbCircle
 10
479.2381165
 20
187.245956
 30
0.0
 40
1.000000499999996
100
AcDbArc
 50
270.000001
 51
327.986995
  0
LINE
  5
3387
330
A
100
AcDbEntity
  8
0
  6
Continuous
 62
     7
 48
0.225
100
AcDbLine
 10
480.2381020000001
 20
195.7459639999999
 30
0.0
 11
480.2381020000001
 21
209.2459639999999
 31
0.0
  0
ARC
  5
338A
330
A
100
AcDbEntity
  8
0
  6
Continuous
 62
     7
100
AcDbCircle
 10
479.2381165
 20
187.245956
 30
0.0
 40
1.000000499999996
100
AcDbArc
 50
327.986995
 51
0.0
  0
LINE
  5
338C
330
A
100
AcDbEntity
  8
0
  6
Continuous
 62
     7
 48
0.001667
100
AcDbLine
 10
479.2381165
 20
242.245964
 30
0.0
 11
479.2381165
 21
242.5459594999999
 31
0.0
  0
LINE
  5
338F
330
A
100
AcDbEntity
  8
0
  6
Continuous
 62
     7
 48
0.133334
100
AcDbLine
 10
479.2381165
 20
242.5459594999999
 30
0.0
 11
471.2381020000001
 21
242.5459594999999
 31
0.0
  0
LINE
  5
3394
330
A
100
AcDbEntity
  8
0
  6
Continuous
 62
     7
 48
0.116666
100
AcDbLine
 10
471.2381020000001
 20
242.245964
 30
0.0
 11
464.2381164999997
 21
242.245964
 31
0.0
  0
LINE
  5
3395
330
A
100
AcDbEntity
  8
0
  6
Continuous
 62
     7
 48
0.016666
100
AcDbLine
 10
464.2381164999997
 20
242.245964
 30
0.0
 11
463.2381324999998
 21
242.245964
 31
0.0
  0
LINE
  5
3397
330
A
100
AcDbEntity
  8
0
  6
Continuous
 62
     7
 48
0.003333
100
AcDbLine
 10
463.2381324999998
 20
242.5459594999999
 30
0.0
 11
463.2381324999998
 21
242.245964
 31
0.0
  0
LINE
  5
3398
330
A
100
AcDbEntity
  8
0
  6
Continuous
 62
     7
 48
0.133333
100
AcDbLine
 10
471.2381020000001
 20
242.5459594999999
 30
0.0
 11
463.2381324999998
 21
242.5459594999999
 31
0.0
  0
LINE
  5
33F6
330
A
100
AcDbEntity
  8
0
  6
Continuous
 62
     7
 48
0.082927
100
AcDbLine
 10
462.7381164999997
 20
194.745956
 30
0.0
 11
462.7381164999995
 21
186.2459719999995
 31
0.0
  0
LINE
  5
33F9
330
A
100
AcDbEntity
  8
0
  6
Continuous
 62
     7
 48
0.004387
100
AcDbLine
 10
464.7381325
 20
188.359169
 30
0.0
 11
464.7381325
 21
188.095955
 31
0.0
  0
LINE
  5
33FA
330
A
100
AcDbEntity
  8
0
  6
Continuous
 62
     7
 48
0.06728
100
AcDbLine
 10
464.7381325
 20
192.3959584999998
 30
0.0
 11
464.7381325
 21
188.359169
 31
0.0
  0
LINE
  5
33FB
330
A
100
AcDbEntity
  8
0
  6
Continuous
 62
     7
 48
0.025
100
AcDbLine
 10
464.2381164999997
 20
187.5959629999998
 30
0.0
 11
462.7381164999997
 21
187.5959629999998
 31
0.0
  0
LINE
  5
33FC
330
A
100
AcDbEntity
  8
0
  6
Continuous
 62
     7
 48
0.025
100
AcDbLine
 10
464.2381164999997
 20
192.895973
 30
0.0
 11
462.7381164999997
 21
192.895973
 31
0.0
  0
ARC
  5
33FD
330
A
100
AcDbEntity
  8
0
  6
Continuous
 62
     7
100
AcDbCircle
 10
464.2381164999997
 20
188.095955
 30
0.0
 40
0.4999995000000001
100
AcDbArc
 50
269.9999969999999
 51
0.0
  0
ARC
  5
33FE
330
A
100
AcDbEntity
  8
0
  6
Continuous
 62
     7
100
AcDbCircle
 10
464.2381164999997
 20
192.3959584999998
 30
0.0
 40
0.4999995000000001
100
AcDbArc
 50
0.0
 51
90.00000300000001
  0
LINE
  5
33FF
330
A
100
AcDbEntity
  8
0
  6
Continuous
 62
     7
 48
0.070409
100
AcDbLine
 10
285.0880929999996
 20
251.7959674999998
 30
0.0
 11
280.8635289999999
 21
251.7959674999998
 31
0.0
  0
LINE
  5
3400
330
A
100
AcDbEntity
  8
0
  6
Continuous
 62
     7
 48
0.004591
100
AcDbLine
 10
280.8635289999999
 20
251.7959674999998
 30
0.0
 11
280.588093
 21
251.7959674999998
 31
0.0
  0
LINE
  5
3401
330
A
100
AcDbEntity
  8
0
  6
Continuous
 62
     7
 48
0.001179
100
AcDbLine
 10
285.0380814999997
 20
251.745956
 30
0.0
 11
285.0880929999996
 21
251.7959674999998
 31
0.0
  0
LINE
  5
3402
330
A
100
AcDbEntity
  8
0
  6
Continuous
 62
     7
 48
0.002761
100
AcDbLine
 10
281.555233
 20
250.8288274999999
 30
0.0
 11
281.4380904999998
 21
250.9459684999999
 31
0.0
  0
LINE
  5
3403
330
A
100
AcDbEntity
  8
0
  6
Continuous
 62
     7
 48
0.001179
100
AcDbLine
 10
280.6381029999998
 20
251.7459334999998
 30
0.0
 11
280.588093
 21
251.7959674999998
 31
0.0
  0
LINE
  5
3404
330
A
100
AcDbEntity
  8
0
  6
Continuous
 62
     7
 48
0.070409
100
AcDbLine
 10
280.588093
 20
107.695958
 30
0.0
 11
284.8126554999998
 21
107.695958
 31
0.0
  0
LINE
  5
3405
330
A
100
AcDbEntity
  8
0
  6
Continuous
 62
     7
 48
0.004591
100
AcDbLine
 10
284.8126554999998
 20
107.695958
 30
0.0
 11
285.0880929999996
 21
107.695958
 31
0.0
  0
LINE
  5
3406
330
A
100
AcDbEntity
  8
0
  6
Continuous
 62
     7
 48
0.002761
100
AcDbLine
 10
281.555233
 20
108.663098
 30
0.0
 11
281.4380904999998
 21
108.5459674999996
 31
0.0
  0
LINE
  5
3407
330
A
100
AcDbEntity
  8
0
  6
Continuous
 62
     7
 48
0.001178
100
AcDbLine
 10
280.6380804999999
 20
107.745956
 30
0.0
 11
280.588093
 21
107.695958
 31
0.0
  0
LINE
  5
3408
330
A
100
AcDbEntity
  8
0
  6
Continuous
 62
     7
 48
0.001178
100
AcDbLine
 10
285.0381055
 20
107.745956
 30
0.0
 11
285.0880929999996
 21
107.695958
 31
0.0
  0
LINE
  5
3723
330
A
100
AcDbEntity
  8
0
  6
Continuous
 62
     7
 48
0.083333
100
AcDbLine
 10
80.06449900000001
 20
251.745956
 30
0.0
 11
75.06450699999998
 21
251.745956
 31
0.0
  0
LINE
  5
3724
330
A
100
AcDbEntity
  8
0
  6
Continuous
 62
     7
 48
0.141667
100
AcDbLine
 10
80.06449900000001
 20
251.745956
 30
0.0
 11
88.69880200000002
 21
251.745956
 31
0.0
  0
LINE
  5
3727
330
A
100
AcDbEntity
  8
0
  6
Continuous
 62
     7
 48
0.013333
100
AcDbLine
 10
75.06450699999998
 20
251.745956
 30
0.0
 11
75.06450699999998
 21
250.9459684999999
 31
0.0
  0
LINE
  5
3728
330
A
100
AcDbEntity
  8
0
  6
Continuous
 62
     7
 48
0.083333
100
AcDbLine
 10
80.46755950000004
 20
250.9410935
 30
0.0
 11
75.06450699999998
 21
250.9459684999999
 31
0.0
  0
LINE
  5
3729
330
A
100
AcDbEntity
  8
0
  6
Continuous
 62
     7
100
AcDbLine
 10
219.0645174999999
 20
160.9965064999998
 30
0.0
 11
219.0645174999999
 21
202.495964
 31
0.0
  0
LINE
  5
372A
330
A
100
AcDbEntity
  8
0
  6
Continuous
 62
     7
 48
0.000327
100
AcDbLine
 10
118.9644999999996
 20
107.7655939999999
 30
0.0
 11
118.9644999999996
 21
107.745956
 31
0.0
  0
LINE
  5
372B
330
A
100
AcDbEntity
  8
0
  6
Continuous
 62
     7
100
AcDbLine
 10
118.9644999999996
 20
107.745956
 30
0.0
 11
214.764514
 21
107.745956
 31
0.0
  0
LINE
  5
372D
330
A
100
AcDbEntity
  8
0
  6
Continuous
 62
     7
 48
0.083333
100
AcDbLine
 10
75.06450699999998
 20
108.5459674999996
 30
0.0
 11
80.48852499999991
 21
108.5459674999996
 31
0.0
  0
LINE
  5
372F
330
A
100
AcDbEntity
  8
0
  6
Continuous
 62
     7
 48
0.108333
100
AcDbLine
 10
112.464508
 20
107.745956
 30
0.0
 11
118.9644999999996
 21
107.745956
 31
0.0
  0
LINE
  5
3730
330
A
100
AcDbEntity
  8
0
  6
Continuous
 62
     7
 48
0.013334
100
AcDbLine
 10
75.06450699999998
 20
108.5459674999996
 30
0.0
 11
75.06450699999998
 21
107.745956
 31
0.0
  0
LINE
  5
3732
330
A
100
AcDbEntity
  8
0
  6
Continuous
 62
     7
 48
0.083333
100
AcDbLine
 10
75.06450699999998
 20
107.745956
 30
0.0
 11
80.06449900000001
 21
107.745956
 31
0.0
  0
LINE
  5
3734
330
A
100
AcDbEntity
  8
0
  6
Continuous
 62
     7
 48
0.05
100
AcDbLine
 10
80.06449900000001
 20
107.745956
 30
0.0
 11
83.06450949999996
 21
107.745956
 31
0.0
  0
LINE
  5
3735
330
A
100
AcDbEntity
  8
0
  6
Continuous
 62
     7
 48
0.4900000000000003
100
AcDbLine
 10
83.06450949999996
 20
107.745956
 30
0.0
 11
112.464508
 21
107.745956
 31
0.0
  0
LINE
  5
3736
330
A
100
AcDbEntity
  8
0
  6
Continuous
 62
     7
 48
0.001667
100
AcDbLine
 10
75.06450699999998
 20
250.9459684999999
 30
0.0
 11
75.16450449999998
 21
250.9459684999999
 31
0.0
  0
LINE
  5
3737
330
A
100
AcDbEntity
  8
0
  6
Continuous
 62
     7
100
AcDbLine
 10
75.06450699999998
 20
250.9459684999999
 30
0.0
 11
75.06450699999998
 21
108.5459674999996
 31
0.0
  0
LINE
  5
373A
330
A
100
AcDbEntity
  8
0
  6
Continuous
 62
     7
 48
0.016667
100
AcDbLine
 10
76.1645125
 20
250.9459684999999
 30
0.0
 11
75.16450449999998
 21
250.9459684999999
 31
0.0
  0
LINE
  5
373C
330
A
100
AcDbEntity
  8
0
  6
Continuous
 62
     7
 48
0.061666
100
AcDbLine
 10
218.4645039999995
 20
107.745956
 30
0.0
 11
214.764514
 21
107.745956
 31
0.0
  0
LINE
  5
373D
330
A
100
AcDbEntity
  8
0
  6
Continuous
 62
     7
100
AcDbLine
 10
79.76450350000002
 20
107.745956
 30
0.0
 11
214.764514
 21
107.745956
 31
0.0
  0
LINE
  5
373E
330
A
100
AcDbEntity
  8
0
  6
Continuous
 62
     7
 48
0.011937
100
AcDbLine
 10
219.0645174999999
 20
108.5459674999996
 30
0.0
 11
219.0645174999999
 21
109.2621724999995
 31
0.0
  0
LINE
  5
373F
330
A
100
AcDbEntity
  8
0
  6
Continuous
 62
     7
100
AcDbLine
 10
219.0645174999999
 20
202.4954599999996
 30
0.0
 11
219.0645174999999
 21
160.9964824999998
 31
0.0
  0
LINE
  5
3740
330
A
100
AcDbEntity
  8
0
  6
Continuous
 62
     7
 48
0.011937
100
AcDbLine
 10
219.0645174999999
 20
250.2297514999998
 30
0.0
 11
219.0645174999999
 21
250.9459684999999
 31
0.0
  0
LINE
  5
3741
330
A
100
AcDbEntity
  8
0
  6
Continuous
 62
     7
 48
0.003333
100
AcDbLine
 10
219.0645174999999
 20
250.9459684999999
 30
0.0
 11
219.0645174999999
 21
251.1459664999998
 31
0.0
  0
LINE
  5
3742
330
A
100
AcDbEntity
  8
0
  6
Continuous
 62
     7
 48
0.003333
100
AcDbLine
 10
219.0645174999999
 20
108.345959
 30
0.0
 11
219.0645174999999
 21
108.5459674999996
 31
0.0
  0
LINE
  5
3743
330
A
100
AcDbEntity
  8
0
  6
Continuous
 62
     7
 48
0.015329
100
AcDbLine
 10
217.544743
 20
251.745956
 30
0.0
 11
218.4645039999995
 21
251.745956
 31
0.0
  0
ARC
  5
3744
330
A
100
AcDbEntity
  8
0
  6
Continuous
 62
     7
100
AcDbCircle
 10
218.4645039999995
 20
251.1459664999998
 30
0.0
 40
0.6000000000000001
100
AcDbArc
 50
0.0
 51
90.00000300000001
  0
ARC
  5
3746
330
A
100
AcDbEntity
  8
0
  6
Continuous
 62
     7
100
AcDbCircle
 10
218.4645039999995
 20
108.345959
 30
0.0
 40
0.6000000000000001
100
AcDbArc
 50
270.000001
 51
0.00001
  0
LINE
  5
3748
330
A
100
AcDbEntity
  8
0
  6
Continuous
 62
     7
 48
0.002228
100
AcDbLine
 10
80.48852499999998
 20
108.7959635
 30
0.0
 11
80.48852499999998
 21
108.6622729999999
 31
0.0
  0
LINE
  5
3749
330
A
100
AcDbEntity
  8
0
  6
Continuous
 62
     7
 48
0.001856
100
AcDbLine
 10
80.48852499999998
 20
108.6622729999999
 30
0.0
 11
80.48852499999991
 21
107.745956
 31
0.0
  0
LINE
  5
374A
330
A
100
AcDbEntity
  8
0
  6
Continuous
 62
     7
 48
0.070164
100
AcDbLine
 10
76.27881549999997
 20
108.7959635
 30
0.0
 11
80.488663
 21
108.7959635
 31
0.0
  0
LINE
  5
374B
330
A
100
AcDbEntity
  8
0
  6
Continuous
 62
     7
 48
0.020236
100
AcDbLine
 10
75.06466599999997
 20
108.7959635
 30
0.0
 11
76.27881549999997
 21
108.7959635
 31
0.0
  0
LINE
  5
374D
330
A
100
AcDbEntity
  8
0
  6
Continuous
 62
     7
 48
0.000515
100
AcDbLine
 10
219.0384249999997
 20
109.2459679999994
 30
0.0
 11
219.0646779999998
 21
109.2622639999996
 31
0.0
  0
LINE
  5
374F
330
A
100
AcDbEntity
  8
0
  6
Continuous
 62
     7
 48
0.000095
100
AcDbLine
 10
219.0384249999997
 20
109.2402574999999
 30
0.0
 11
219.0384249999997
 21
109.2459679999994
 31
0.0
  0
ARC
  5
3750
330
A
100
AcDbEntity
  8
0
  6
Continuous
 62
     7
100
AcDbCircle
 10
217.5466194999999
 20
109.237751
 30
0.0
 40
1.4916285
100
AcDbArc
 50
269.9040129999999
 51
0.096005
  0
LINE
  5
3751
330
A
100
AcDbEntity
  8
0
  6
Continuous
 62
     7
 48
0.057991
100
AcDbLine
 10
217.5441249999999
 20
107.745956
 30
0.0
 11
214.064662
 21
107.745956
 31
0.0
  0
LINE
  5
376F
330
A
100
AcDbEntity
  8
0
  6
Continuous
 62
     7
 48
0.000105
100
AcDbLine
 10
209.6965674999998
 20
247.3193584999998
 30
0.0
 11
209.6910969999998
 21
247.3224724999999
 31
0.0
  0
ARC
  5
3770
330
A
100
AcDbEntity
  8
0
  6
Continuous
 62
     7
100
AcDbCircle
 10
146.6373324999999
 20
16251.57379999998
 30
0.0
 40
16004.3745
100
AcDbArc
 50
269.777149
 51
270.225735
  0
LINE
  5
3771
330
A
100
AcDbEntity
  8
0
  6
Continuous
 62
     7
 48
0.000115
100
AcDbLine
 10
84.38777950000002
 20
247.3194499999998
 30
0.0
 11
84.38160999999999
 21
247.3163149999999
 31
0.0
  0
LWPOLYLINE
  5
3772
330
A
100
AcDbEntity
  8
0
  6
Continuous
 62
     7
100
AcDbPolyline
 90
        6
 70
     0
 43
0.0
 10
84.38160999999999
 20
247.3163149999999
 10
84.15807249999998
 20
247.1738359999998
 10
83.84546650000002
 20
246.8501974999999
 10
83.65921450000001
 20
246.5235829999999
 10
83.53290550000004
 20
246.0880204999999
 10
83.51260299999998
 20
245.8224724999999
  0
LINE
  5
377A
330
A
100
AcDbEntity
  8
0
  6
Continuous
 62
     7
100
AcDbLine
 10
83.51210049999997
 20
245.8228609999999
 30
0.0
 11
83.51210049999997
 21
113.669087
 31
0.0
  0
LWPOLYLINE
  5
377B
330
A
100
AcDbEntity
  8
0
  6
Continuous
 62
     7
100
AcDbPolyline
 90
        7
 70
     0
 43
0.0
 10
83.51260299999998
 20
113.6694529999999
 10
83.54876649999999
 20
113.316323
 10
83.65900749999999
 20
112.9688224999999
 10
83.7904435
 20
112.7222944999999
 10
83.95793949999996
 20
112.5032194999997
 10
84.15633400000002
 20
112.3194274999999
 10
84.38156499999996
 20
112.1756434999999
  0
LINE
  5
3784
330
A
100
AcDbEntity
  8
0
  6
Continuous
 62
     7
 48
0.000116
100
AcDbLine
 10
84.38156499999996
 20
112.1756434999999
 30
0.0
 11
84.38777950000002
 21
112.1724739999997
 31
0.0
  0
ARC
  5
3785
330
A
100
AcDbEntity
  8
0
  6
Continuous
 62
     7
100
AcDbCircle
 10
146.6362914999999
 20
-15891.98039949998
 30
0.0
 40
16004.27489099998
100
AcDbArc
 50
89.77425799999997
 51
90.22285100000001
  0
LINE
  5
3786
330
A
100
AcDbEntity
  8
0
  6
Continuous
 62
     7
 48
0.000102
100
AcDbLine
 10
209.6910969999998
 20
112.169465
 30
0.0
 11
209.6964294999999
 21
112.172486
 31
0.0
  0
LWPOLYLINE
  5
3787
330
A
100
AcDbEntity
  8
0
  6
Continuous
 62
     7
100
AcDbPolyline
 90
        6
 70
     0
 43
0.0
 10
209.6968195
 20
112.1718109999999
 10
209.9121744999998
 20
112.3219909999997
 10
210.1012075
 20
112.5091024999999
 10
210.3035154999999
 20
112.8056645
 10
210.4411194999999
 20
113.1361234999997
 10
210.5163984999999
 20
113.6440235
  0
LINE
  5
378F
330
A
100
AcDbEntity
  8
0
  6
Continuous
 62
     7
100
AcDbLine
 10
210.5163984999999
 20
113.6439664999997
 30
0.0
 11
210.5164225
 21
245.8480384999999
 31
0.0
  0
LWPOLYLINE
  5
3790
330
A
100
AcDbEntity
  8
0
  6
Continuous
 62
     7
100
AcDbPolyline
 90
        7
 70
     0
 43
0.0
 10
209.6969799999995
 20
247.3200679999998
 10
209.910412
 20
247.1714329999999
 10
210.0985299999998
 20
246.9859924999997
 10
210.3012279999999
 20
246.6905525
 10
210.440044
 20
246.359474
 10
210.4972194999997
 20
246.1039729999999
 10
210.5164225
 20
245.847923
  0
LINE
  5
3799
330
A
100
AcDbEntity
  8
0
  6
Continuous
 62
     7
 48
0.072044
100
AcDbLine
 10
207.0646554999999
 20
116.2459534999999
 30
0.0
 11
210.5164674999999
 21
113.6439664999997
 31
0.0
  0
LINE
  5
379A
330
A
100
AcDbEntity
  8
0
  6
Continuous
 62
     7
 48
0.072044
100
AcDbLine
 10
210.5164674999999
 20
245.8480834999999
 30
0.0
 11
207.0646554999999
 21
243.2460859999999
 31
0.0
  0
LINE
  5
379B
330
A
100
AcDbEntity
  8
0
  6
Continuous
 62
     7
100
AcDbLine
 10
207.0646554999999
 20
243.2460859999999
 30
0.0
 11
207.0646554999999
 21
116.2459534999999
 31
0.0
  0
ARC
  5
379C
330
A
100
AcDbEntity
  8
0
  6
Continuous
 62
     7
100
AcDbCircle
 10
205.5644725
 20
243.2457664999999
 30
0.0
 40
1.500259499999995
100
AcDbArc
 50
0.007793
 51
89.99233199999997
  0
LINE
  5
379D
330
A
100
AcDbEntity
  8
0
  6
Continuous
 62
     7
100
AcDbLine
 10
205.5646555
 20
244.7459719999999
 30
0.0
 11
88.564666
 21
244.7459719999999
 31
0.0
  0
ARC
  5
379E
330
A
100
AcDbEntity
  8
0
  6
Continuous
 62
     7
100
AcDbCircle
 10
88.56486100000003
 20
243.2457664999999
 30
0.0
 40
1.500257999999994
100
AcDbArc
 50
90.00759100000005
 51
179.99226
  0
LINE
  5
379F
330
A
100
AcDbEntity
  8
0
  6
Continuous
 62
     7
100
AcDbLine
 10
87.064666
 20
116.2459639999999
 30
0.0
 11
87.064666
 21
243.2459719999999
 31
0.0
  0
ARC
  5
37A0
330
A
100
AcDbEntity
  8
0
  6
Continuous
 62
     7
100
AcDbCircle
 10
88.56486100000003
 20
116.246170999999
 30
0.0
 40
1.500257999999994
100
AcDbArc
 50
180.007754
 51
269.992395
  0
LINE
  5
37A1
330
A
100
AcDbEntity
  8
0
  6
Continuous
 62
     7
100
AcDbLine
 10
88.564666
 20
114.7459639999999
 30
0.0
 11
205.5646555
 21
114.7459639999999
 31
0.0
  0
ARC
  5
37A2
330
A
100
AcDbEntity
  8
0
  6
Continuous
 62
     7
100
AcDbCircle
 10
205.5644725
 20
116.246170999999
 30
0.0
 40
1.500259499999995
100
AcDbArc
 50
270.0076539999999
 51
359.992221
  0
LWPOLYLINE
  5
37A3
330
A
100
AcDbEntity
  8
0
  6
Continuous
 62
     7
100
AcDbPolyline
 90
        7
 70
     0
 43
0.0
 10
205.5646555
 20
114.7459639999999
 10
205.6947969999995
 20
114.7131424999999
 10
205.8186445
 20
114.6596644999999
 10
206.169475
 20
114.4767305
 10
207.0571705
 20
113.9381479999999
 10
208.218952
 20
113.1776885
 10
209.6910969999998
 20
112.169465
  0
LWPOLYLINE
  5
37AC
330
A
100
AcDbEntity
  8
0
  6
Continuous
 62
     7
100
AcDbPolyline
 90
        7
 70
     0
 43
0.0
 10
88.56466599999995
 20
114.7459639999999
 10
88.43157099999997
 20
114.7098124999996
 10
88.305676
 20
114.6536795
 10
87.94575850000002
 20
114.4642099999995
 10
87.04322050000003
 20
113.9210284999995
 10
86.00843349999996
 20
113.2568014999999
 10
84.38779
 20
112.172486
  0
LINE
  5
37B5
330
A
100
AcDbEntity
  8
0
  6
Continuous
 62
     7
 48
0.073146
100
AcDbLine
 10
83.5120765
 20
113.6690644999996
 30
0.0
 11
87.064666
 21
116.2459639999999
 31
0.0
  0
LINE
  5
37B6
330
A
100
AcDbEntity
  8
0
  6
Continuous
 62
     7
 48
0.073146
100
AcDbLine
 10
87.064666
 20
243.2459719999999
 30
0.0
 11
83.5120765
 21
245.8228609999999
 31
0.0
  0
LWPOLYLINE
  5
37B7
330
A
100
AcDbEntity
  8
0
  6
Continuous
 62
     7
100
AcDbPolyline
 90
        7
 70
     0
 43
0.0
 10
84.38779
 20
247.3194274999999
 10
86.26663600000004
 20
246.0666199999999
 10
87.22788249999998
 20
245.4561229999999
 10
88.08538749999996
 20
244.9510264999998
 10
88.39208950000005
 20
244.7985454999998
 10
88.476616
 20
244.7657705
 10
88.5642655
 20
244.7459719999999
  0
LWPOLYLINE
  5
37C0
330
A
100
AcDbEntity
  8
0
  6
Continuous
 62
     7
100
AcDbPolyline
 90
        6
 70
     0
 43
0.0
 10
205.5646555
 20
244.7459719999999
 10
205.715053
 20
244.7862784999999
 10
205.9549674999999
 20
244.899872
 10
206.6751669999999
 20
245.3149955
 10
207.9716679999999
 20
246.1488574999998
 10
209.6911884999999
 20
247.32254
  0
LWPOLYLINE
  5
37C9
330
A
100
AcDbEntity
  8
0
  6
Continuous
 62
     7
100
AcDbPolyline
 90
        4
 70
     0
 43
0.0
 10
218.8459359999995
 20
200.2579114999999
 10
218.8689609999999
 20
201.2491759999999
 10
218.9319729999997
 20
201.9801559999999
 10
218.9706535
 20
202.1735614999998
  0
LINE
  5
37CF
330
A
100
AcDbEntity
  8
0
  6
Continuous
 62
     7
100
AcDbLine
 10
218.8459359999995
 20
163.2340324999999
 30
0.0
 11
218.8459359999995
 21
200.2579114999999
 31
0.0
  0
LWPOLYLINE
  5
37D0
330
A
100
AcDbEntity
  8
0
  6
Continuous
 62
     7
100
AcDbPolyline
 90
        3
 70
     0
 43
0.0
 10
218.9706535
 20
161.3183824999999
 10
218.8941145
 20
161.8557964999999
 10
218.8459359999995
 20
163.2340324999999
  0
LINE
  5
37D5
330
A
100
AcDbEntity
  8
0
  6
Continuous
 62
     7
 48
0.005598
100
AcDbLine
 10
219.0646779999998
 20
160.995956
 30
0.0
 11
218.9706535
 21
161.3183824999999
 31
0.0
  0
LINE
  5
37D6
330
A
100
AcDbEntity
  8
0
  6
Continuous
 62
     7
 48
0.005597
100
AcDbLine
 10
218.9706535
 20
202.1735614999998
 30
0.0
 11
219.0646779999998
 21
202.495964
 31
0.0
  0
LINE
  5
37D7
330
A
100
AcDbEntity
  8
0
  6
Continuous
 62
     7
100
AcDbLine
 10
219.0646779999998
 20
202.495964
 30
0.0
 11
219.0646779999998
 21
250.2296599999997
 31
0.0
  0
LINE
  5
37D8
330
A
100
AcDbEntity
  8
0
  6
Continuous
 62
     7
 48
0.000515
100
AcDbLine
 10
219.0646779999998
 20
250.2296599999997
 30
0.0
 11
219.0384249999997
 21
250.245956
 31
0.0
  0
LINE
  5
37D9
330
A
100
AcDbEntity
  8
0
  6
Continuous
 62
     7
 48
0.020236
100
AcDbLine
 10
76.27881549999997
 20
250.6959604999998
 30
0.0
 11
75.06466599999997
 21
250.6959604999998
 31
0.0
  0
LINE
  5
37DB
330
A
100
AcDbEntity
  8
0
  6
Continuous
 62
     7
 48
0.069814
100
AcDbLine
 10
80.46766300000001
 20
250.6959604999998
 30
0.0
 11
76.27881549999997
 21
250.6959604999998
 31
0.0
  0
ARC
  5
37DE
330
A
100
AcDbEntity
  8
0
  6
Continuous
 62
     7
100
AcDbCircle
 10
217.5466194999999
 20
250.254173
 30
0.0
 40
1.4916285
100
AcDbArc
 50
359.904015
 51
90.09600799999999
  0
LINE
  5
37DF
330
A
100
AcDbEntity
  8
0
  6
Continuous
 62
     7
 48
0.000095
100
AcDbLine
 10
219.0384249999997
 20
250.245956
 30
0.0
 11
219.0384249999997
 21
250.2516785
 31
0.0
  0
LINE
  5
37E0
330
A
100
AcDbEntity
  8
0
  6
Continuous
 62
     7
100
AcDbLine
 10
217.5441249999999
 20
251.745956
 30
0.0
 11
88.69880200000002
 21
251.745956
 31
0.0
  0
LINE
  5
37F4
330
A
100
AcDbEntity
  8
0
  6
Continuous
 62
     7
 48
0.001856
100
AcDbLine
 10
80.46755950000004
 20
250.8297424999998
 30
0.0
 11
80.46755950000004
 21
251.745956
 31
0.0
  0
LINE
  5
37F5
330
A
100
AcDbEntity
  8
0
  6
Continuous
 62
     7
 48
0.00223
100
AcDbLine
 10
80.46755950000004
 20
250.6959604999998
 30
0.0
 11
80.46755950000004
 21
250.8297424999998
 31
0.0
  0
LINE
  5
37F8
330
A
100
AcDbEntity
  8
0
  6
Continuous
 62
     7
100
AcDbLine
 10
219.0646779999998
 20
109.2622639999996
 30
0.0
 11
219.0646779999998
 21
160.995956
 31
0.0
  0
LINE
  5
3808
330
A
100
AcDbEntity
  8
0
  6
Continuous
 62
     7
100
AcDbLine
 10
119.1889299999997
 20
107.745956
 30
0.0
 11
167.0646699999998
 21
107.745956
 31
0.0
  0
LINE
  5
3810
330
A
100
AcDbEntity
  8
0
  6
Continuous
 62
     7
 48
0.0075
100
AcDbLine
 10
75.06466599999997
 20
250.245956
 30
0.0
 11
75.06466599999997
 21
250.6959604999998
 31
0.0
  0
LINE
  5
3811
330
A
100
AcDbEntity
  8
0
  6
Continuous
 62
     7
100
AcDbLine
 10
75.06467800000002
 20
109.2459679999994
 30
0.0
 11
75.06467800000002
 21
250.245956
 31
0.0
  0
LINE
  5
386A
330
A
100
AcDbEntity
  8
0
  6
Continuous
 62
     7
 48
0.019522
100
AcDbLine
 10
79.81450300000003
 20
251.7959674999998
 30
0.0
 11
78.64321150000002
 21
251.7959674999998
 31
0.0
  0
LINE
  5
386B
330
A
100
AcDbEntity
  8
0
  6
Continuous
 62
     7
 48
0.055478
100
AcDbLine
 10
78.64321150000002
 20
251.7959674999998
 30
0.0
 11
75.31450300000002
 21
251.7959674999998
 31
0.0
  0
LINE
  5
386C
330
A
100
AcDbEntity
  8
0
  6
Continuous
 62
     7
 48
0.005893
100
AcDbLine
 10
78.71450800000005
 20
250.6959604999998
 30
0.0
 11
78.96450400000003
 21
250.9459684999999
 31
0.0
  0
LINE
  5
386D
330
A
100
AcDbEntity
  8
0
  6
Continuous
 62
     7
 48
0.001179
100
AcDbLine
 10
79.76450350000002
 20
251.745956
 30
0.0
 11
79.81450300000003
 21
251.7959674999998
 31
0.0
  0
LINE
  5
386E
330
A
100
AcDbEntity
  8
0
  6
Continuous
 62
     7
 48
0.005893
100
AcDbLine
 10
76.41449650000001
 20
250.6959604999998
 30
0.0
 11
76.16450050000001
 21
250.9459684999999
 31
0.0
  0
LINE
  5
386F
330
A
100
AcDbEntity
  8
0
  6
Continuous
 62
     7
 48
0.001179
100
AcDbLine
 10
75.36452499999993
 20
251.7459334999998
 30
0.0
 11
75.31450300000002
 21
251.7959674999998
 31
0.0
  0
LINE
  5
3870
330
A
100
AcDbEntity
  8
0
  6
Continuous
 62
     7
 48
0.028356
100
AcDbLine
 10
77.01315999999998
 20
108.7959635
 30
0.0
 11
78.71450800000005
 21
108.7959635
 31
0.0
  0
LINE
  5
3871
330
A
100
AcDbEntity
  8
0
  6
Continuous
 62
     7
 48
0.055478
100
AcDbLine
 10
76.48579449999997
 20
107.695958
 30
0.0
 11
79.81450300000003
 21
107.695958
 31
0.0
  0
LINE
  5
3872
330
A
100
AcDbEntity
  8
0
  6
Continuous
 62
     7
 48
0.009978
100
AcDbLine
 10
76.41449650000001
 20
108.7959635
 30
0.0
 11
77.01315999999998
 21
108.7959635
 31
0.0
  0
LINE
  5
3873
330
A
100
AcDbEntity
  8
0
  6
Continuous
 62
     7
 48
0.019522
100
AcDbLine
 10
75.31450300000002
 20
107.695958
 30
0.0
 11
76.48579449999997
 21
107.695958
 31
0.0
  0
LINE
  5
3874
330
A
100
AcDbEntity
  8
0
  6
Continuous
 62
     7
 48
0.005892
100
AcDbLine
 10
78.71450800000005
 20
108.7959635
 30
0.0
 11
78.96450400000003
 21
108.5459674999996
 31
0.0
  0
LINE
  5
3875
330
A
100
AcDbEntity
  8
0
  6
Continuous
 62
     7
 48
0.001179
100
AcDbLine
 10
79.76448099999998
 20
107.7459799999999
 30
0.0
 11
79.81450300000003
 21
107.695958
 31
0.0
  0
LINE
  5
3876
330
A
100
AcDbEntity
  8
0
  6
Continuous
 62
     7
 48
0.005892
100
AcDbLine
 10
76.41449650000001
 20
108.7959635
 30
0.0
 11
76.16450050000001
 21
108.5459674999996
 31
0.0
  0
LINE
  5
3877
330
A
100
AcDbEntity
  8
0
  6
Continuous
 62
     7
 48
0.001178
100
AcDbLine
 10
75.36450100000002
 20
107.745956
 30
0.0
 11
75.31450300000002
 21
107.695958
 31
0.0
  0
VIEWPORT
  5
3878
330
B
100
AcDbEntity
 67
     1
  8
0
  6
Continuous
 62
     7
100
AcDbViewport
 10
0.0
 20
0.0
 30
0.0
 40
1000.0
 41
1000.0
 68
     1
 69
     1
 12
0.0
 22
0.0
 13
0.0
 23
0.0
 14
1.0
 24
1.0
 15
1.0
 25
1.0
 16
0.0
 26
0.0
 36
1.0
 17
0.0
 27
0.0
 37
0.0
 42
50.0
 43
0.0
 44
0.0
 45
1000.0
 50
0.0
 51
0.0
 72
   100
 90
    32800
  1

281
     0
 71
     1
 74
     0
110
0.0
120
0.0
130
0.0
111
1.0
121
0.0
131
0.0
112
0.0
122
1.0
132
0.0
 79
     0
146
0.0
  0
ENDSEC
  0
SECTION
  2
OBJECTS
  0
DICTIONARY
  5
19
330
0
100
AcDbDictionary
281
     1
  3
ACAD_GROUP
350
1A
  3
ACAD_LAYOUT
350
387F
  3
ACAD_MLINESTYLE
350
1B
  3
ACAD_PLOTSETTINGS
350
3880
  3
ACAD_PLOTSTYLENAME
350
387D
  0
DICTIONARY
  5
1A
102
{ACAD_REACTORS
330
19
102
}
330
19
100
AcDbDictionary
281
     1
  0
DICTIONARY
  5
387F
102
{ACAD_REACTORS
330
19
102
}
330
19
100
AcDbDictionary
281
     1
  3
Model
350
3881
  3
ﾚｲｱｳﾄ1
350
3882
  0
DICTIONARY
  5
1B
102
{ACAD_REACTORS
330
19
102
}
330
19
100
AcDbDictionary
281
     1
  3
STANDARD
350
1C
  0
DICTIONARY
  5
3880
102
{ACAD_REACTORS
330
19
102
}
330
19
100
AcDbDictionary
281
     1
  0
ACDBDICTIONARYWDFLT
  5
387D
102
{ACAD_REACTORS
330
19
102
}
330
19
100
AcDbDictionary
281
     1
  3
Normal
350
387E
100
AcDbDictionaryWithDefault
340
387E
  0
LAYOUT
  5
3881
102
{ACAD_REACTORS
330
387F
102
}
330
387F
100
AcDbPlotSettings
  1

  2
Canon iR-ADV C5030/5035 LIPSLX
  4

  6

 40
0.0
 41
0.0
 42
0.0
 43
0.0
 44
0.0
 45
0.0
 46
0.0
 47
0.0
 48
0.0
 49
0.0
140
0.0
141
0.0
142
1.0
143
1.0
 70
  1712
 72
     0
 73
     0
 74
     0
  7

 75
     0
147
1.0
148
0.0
149
0.0
100
AcDbLayout
  1
Model
 70
     1
 71
     0
 10
0.0
 20
0.0
 11
12.0
 21
9.0
 12
0.0
 22
0.0
 32
0.0
 14
0.0
 24
0.0
 34
0.0
 15
0.0
 25
0.0
 35
0.0
146
0.0
 13
0.0
 23
0.0
 33
0.0
 16
1.0
 26
0.0
 36
0.0
 17
0.0
 27
1.0
 37
0.0
 76
     0
330
A
  0
LAYOUT
  5
3882
102
{ACAD_REACTORS
330
387F
102
}
330
387F
100
AcDbPlotSettings
  1

  2
Canon iR-ADV C5030/5035 LIPSLX
  4

  6

 40
0.0
 41
0.0
 42
0.0
 43
0.0
 44
0.0
 45
0.0
 46
0.0
 47
0.0
 48
0.0
 49
0.0
140
0.0
141
0.0
142
1.0
143
1.0
 70
   688
 72
     0
 73
     0
 74
     5
  7

 75
    16
147
1.0
148
0.0
149
0.0
100
AcDbLayout
  1
ﾚｲｱｳﾄ1
 70
     1
 71
     1
 10
0.0
 20
0.0
 11
420.0
 21
297.0
 12
0.0
 22
0.0
 32
0.0
 14
0.0
 24
0.0
 34
0.0
 15
401.4999999999998
 25
275.0
 35
2.0
146
0.0
 13
0.0
 23
0.0
 33
0.0
 16
1.0
 26
0.0
 36
0.0
 17
0.0
 27
1.0
 37
0.0
 76
     0
330
B
331
3878
  0
MLINESTYLE
  5
1C
102
{ACAD_REACTORS
330
1B
102
}
330
1B
100
AcDbMlineStyle
  2
STANDARD
 70
     0
  3

 62
     0
 51
90.0
 52
90.0
 71
     2
 49
0.5
 62
   256
  6
BYLAYER
 49
-0.5
 62
   256
  6
BYLAYER
  0
ACDBPLACEHOLDER
  5
387E
102
{ACAD_REACTORS
330
387D
102
}
330
387D
  0
ENDSEC
  0
EOF
