  0
SECTION
  2
HEADER
  9
$ACADVER
  1
AC1015
  9
$ACADMAINTVER
 70
    10
  9
$DWGCODEPAGE
  3
ANSI_932
  9
$INSBASE
 10
0.0
 20
0.0
 30
0.0
  9
$EXTMIN
 10
27.71010858688407
 20
144.5649285982731
 30
0.0
  9
$EXTMAX
 10
399.3752265210118
 20
241.8075693990957
 30
0.0
  9
$LIMMIN
 10
0.0
 20
0.0
  9
$LIMMAX
 10
420.0
 20
297.0
  9
$ORTHOMODE
 70
     1
  9
$REGENMODE
 70
     1
  9
$FILLMODE
 70
     1
  9
$QTEXTMODE
 70
     0
  9
$MIRRTEXT
 70
     1
  9
$LTSCALE
 40
1.0
  9
$ATTMODE
 70
     1
  9
$TEXTSIZE
 40
0.0
  9
$TRACEWID
 40
1.0
  9
$TEXTSTYLE
  7
STANDARD
  9
$CLAYER
  8
0
  9
$CELTYPE
  6
BYLAYER
  9
$CECOLOR
 62
   256
  9
$CELTSCALE
 40
1.0
  9
$DISPSILH
 70
     0
  9
$DIMSCALE
 40
1.0
  9
$DIMASZ
 40
2.5
  9
$DIMEXO
 40
0.625
  9
$DIMDLI
 40
3.75
  9
$DIMRND
 40
0.0
  9
$DIMDLE
 40
0.0
  9
$DIMEXE
 40
1.25
  9
$DIMTP
 40
0.0
  9
$DIMTM
 40
0.0
  9
$DIMTXT
 40
2.5
  9
$DIMCEN
 40
2.5
  9
$DIMTSZ
 40
0.0
  9
$DIMTOL
 70
     0
  9
$DIMLIM
 70
     0
  9
$DIMTIH
 70
     0
  9
$DIMTOH
 70
     0
  9
$DIMSE1
 70
     0
  9
$DIMSE2
 70
     0
  9
$DIMTAD
 70
     1
  9
$DIMZIN
 70
     8
  9
$DIMBLK
  1

  9
$DIMASO
 70
     1
  9
$DIMSHO
 70
     1
  9
$DIMPOST
  1

  9
$DIMAPOST
  1

  9
$DIMALT
 70
     0
  9
$DIMALTD
 70
     3
  9
$DIMALTF
 40
0.03937
  9
$DIMLFAC
 40
1.0
  9
$DIMTOFL
 70
     1
  9
$DIMTVP
 40
0.0
  9
$DIMTIX
 70
     0
  9
$DIMSOXD
 70
     0
  9
$DIMSAH
 70
     0
  9
$DIMBLK1
  1

  9
$DIMBLK2
  1

  9
$DIMSTYLE
  2
STANDARD
  9
$DIMCLRD
 70
     0
  9
$DIMCLRE
 70
     0
  9
$DIMCLRT
 70
     0
  9
$DIMTFAC
 40
1.0
  9
$DIMGAP
 40
0.625
  9
$DIMJUST
 70
     0
  9
$DIMSD1
 70
     0
  9
$DIMSD2
 70
     0
  9
$DIMTOLJ
 70
     0
  9
$DIMTZIN
 70
     8
  9
$DIMALTZ
 70
     0
  9
$DIMALTTZ
 70
     0
  9
$DIMUPT
 70
     0
  9
$DIMDEC
 70
     2
  9
$DIMTDEC
 70
     2
  9
$DIMALTU
 70
     2
  9
$DIMALTTD
 70
     3
  9
$DIMTXSTY
  7
STANDARD
  9
$DIMAUNIT
 70
     0
  9
$DIMADEC
 70
     0
  9
$DIMALTRND
 40
0.0
  9
$DIMAZIN
 70
     0
  9
$DIMDSEP
 70
    46
  9
$DIMATFIT
 70
     3
  9
$DIMFRAC
 70
     0
  9
$DIMLDRBLK
  1

  9
$DIMLUNIT
 70
     2
  9
$DIMLWD
 70
    -2
  9
$DIMLWE
 70
    -2
  9
$DIMTMOVE
 70
     0
  9
$LUNITS
 70
     2
  9
$LUPREC
 70
     4
  9
$SKETCHINC
 40
1.0
  9
$FILLETRAD
 40
2.5
  9
$AUNITS
 70
     0
  9
$AUPREC
 70
     0
  9
$MENU
  1
.
  9
$ELEVATION
 40
0.0
  9
$PELEVATION
 40
0.0
  9
$THICKNESS
 40
0.0
  9
$LIMCHECK
 70
     0
  9
$CHAMFERA
 40
2.5
  9
$CHAMFERB
 40
2.5
  9
$CHAMFERC
 40
0.0
  9
$CHAMFERD
 40
0.0
  9
$SKPOLY
 70
     0
  9
$TDCREATE
 40
2312275.082421388
  9
$TDUCREATE
 40
2312274.707421388
  9
$TDUPDATE
 40
2456486.450438483
  9
$TDUUPDATE
 40
2456486.075438483
  9
$TDINDWG
 40
0.0394688426
  9
$TDUSRTIMER
 40
0.0394673727
  9
$USRTIMER
 70
     1
  9
$ANGBASE
 50
0.0
  9
$ANGDIR
 70
     0
  9
$PDMODE
 70
     0
  9
$PDSIZE
 40
0.0
  9
$PLINEWID
 40
0.0
  9
$SPLFRAME
 70
     0
  9
$SPLINETYPE
 70
     6
  9
$SPLINESEGS
 70
     8
  9
$HANDSEED
  5
691D
  9
$SURFTAB1
 70
     6
  9
$SURFTAB2
 70
     6
  9
$SURFTYPE
 70
     6
  9
$SURFU
 70
     6
  9
$SURFV
 70
     6
  9
$UCSBASE
  2

  9
$UCSNAME
  2

  9
$UCSORG
 10
0.0
 20
0.0
 30
0.0
  9
$UCSXDIR
 10
1.0
 20
0.0
 30
0.0
  9
$UCSYDIR
 10
0.0
 20
1.0
 30
0.0
  9
$UCSORTHOREF
  2

  9
$UCSORTHOVIEW
 70
     0
  9
$UCSORGTOP
 10
0.0
 20
0.0
 30
0.0
  9
$UCSORGBOTTOM
 10
0.0
 20
0.0
 30
0.0
  9
$UCSORGLEFT
 10
0.0
 20
0.0
 30
0.0
  9
$UCSORGRIGHT
 10
0.0
 20
0.0
 30
0.0
  9
$UCSORGFRONT
 10
0.0
 20
0.0
 30
0.0
  9
$UCSORGBACK
 10
0.0
 20
0.0
 30
0.0
  9
$PUCSBASE
  2

  9
$PUCSNAME
  2

  9
$PUCSORG
 10
0.0
 20
0.0
 30
0.0
  9
$PUCSXDIR
 10
1.0
 20
0.0
 30
0.0
  9
$PUCSYDIR
 10
0.0
 20
1.0
 30
0.0
  9
$PUCSORTHOREF
  2

  9
$PUCSORTHOVIEW
 70
     0
  9
$PUCSORGTOP
 10
0.0
 20
0.0
 30
0.0
  9
$PUCSORGBOTTOM
 10
0.0
 20
0.0
 30
0.0
  9
$PUCSORGLEFT
 10
0.0
 20
0.0
 30
0.0
  9
$PUCSORGRIGHT
 10
0.0
 20
0.0
 30
0.0
  9
$PUCSORGFRONT
 10
0.0
 20
0.0
 30
0.0
  9
$PUCSORGBACK
 10
0.0
 20
0.0
 30
0.0
  9
$USERI1
 70
     0
  9
$USERI2
 70
     0
  9
$USERI3
 70
     0
  9
$USERI4
 70
     0
  9
$USERI5
 70
     0
  9
$USERR1
 40
0.0
  9
$USERR2
 40
0.0
  9
$USERR3
 40
0.0
  9
$USERR4
 40
0.0
  9
$USERR5
 40
0.0
  9
$WORLDVIEW
 70
     1
  9
$SHADEDGE
 70
     3
  9
$SHADEDIF
 70
    70
  9
$TILEMODE
 70
     1
  9
$MAXACTVP
 70
    48
  9
$PINSBASE
 10
0.0
 20
0.0
 30
0.0
  9
$PLIMCHECK
 70
     0
  9
$PEXTMIN
 10
0.0
 20
0.0
 30
0.0
  9
$PEXTMAX
 10
401.4999999999998
 20
275.0
 30
2.0
  9
$PLIMMIN
 10
0.0
 20
0.0
  9
$PLIMMAX
 10
420.0
 20
297.0
  9
$UNITMODE
 70
     0
  9
$VISRETAIN
 70
     0
  9
$PLINEGEN
 70
     0
  9
$PSLTSCALE
 70
     1
  9
$TREEDEPTH
 70
  3020
  9
$CMLSTYLE
  2
STANDARD
  9
$CMLJUST
 70
     0
  9
$CMLSCALE
 40
20.0
  9
$PROXYGRAPHICS
 70
     1
  9
$MEASUREMENT
 70
     1
  9
$CELWEIGHT
370
    -1
  9
$ENDCAPS
280
     0
  9
$JOINSTYLE
280
     0
  9
$LWDISPLAY
290
     0
  9
$INSUNITS
 70
     0
  9
$HYPERLINKBASE
  1

  9
$STYLESHEET
  1

  9
$XEDIT
290
     1
  9
$CEPSNTYPE
380
     0
  9
$PSTYLEMODE
290
     1
  9
$FINGERPRINTGUID
  2
{58B92E56-1294-4A18-9A06-92D887A99721}
  9
$VERSIONGUID
  2
{2AE4542B-1CC6-4FFC-9420-6B75E58D3C85}
  9
$EXTNAMES
290
     1
  9
$PSVPSCALE
 40
0.0
  9
$OLESTARTUP
290
     0
  0
ENDSEC
  0
SECTION
  2
CLASSES
  0
CLASS
  1
LWPOLYLINE
  2
AcDbPolyline
  3
AutoCAD 2000
 90
    32768
280
     0
281
     1
  0
CLASS
  1
IMAGE
  2
AcDbRasterImage
  3
ISM
 90
    32895
280
     0
281
     1
  0
CLASS
  1
OLE2FRAME
  2
AcDbOle2Frame
  3
AutoCAD 2000
 90
    32768
280
     0
281
     1
  0
CLASS
  1
HATCH
  2
AcDbHatch
  3
AutoCAD 2000
 90
    32768
280
     0
281
     1
  0
CLASS
  1
DICTIONARYVAR
  2
AcDbDictionaryVar
  3
AutoCAD 2000
 90
    32768
280
     0
281
     0
  0
CLASS
  1
RASTERVARIABLES
  2
AcDbRasterVariables
  3
ISM
 90
    32768
280
     0
281
     0
  0
CLASS
  1
IMAGEDEF
  2
AcDbRasterImageDef
  3
ISM
 90
    32768
280
     0
281
     0
  0
CLASS
  1
IMAGEDEF_REACTOR
  2
AcDbRasterImageDefReactor
  3
ISM
 90
    32769
280
     0
281
     0
  0
CLASS
  1
IDBUFFER
  2
AcDbIdBuffer
  3
AutoCAD 2000
 90
    32768
280
     0
281
     0
  0
CLASS
  1
SPATIAL_FILTER
  2
AcDbSpatialFilter
  3
AutoCAD 2000
 90
    32768
280
     0
281
     0
  0
CLASS
  1
XRECORD
  2
AcDbXrecord
  3
AutoCAD 2000
 90
    32768
280
     0
281
     0
  0
CLASS
  1
SORTENTSTABLE
  2
AcDbSortentsTable
  3
AutoCAD 2000
 90
    32768
280
     0
281
     0
  0
CLASS
  1
LAYER_INDEX
  2
AcDbLayerIndex
  3
AutoCAD 2000
 90
    32768
280
     0
281
     0
  0
CLASS
  1
SPATIAL_INDEX
  2
AcDbSpatialIndex
  3
AutoCAD 2000
 90
    32768
280
     0
281
     0
  0
CLASS
  1
OBJECT_PTR
  2
CAseDLPNTableRecord
  3
"ASE-LPNTableRecord"
 90
    32769
280
     0
281
     0
  0
CLASS
  1
LAYOUT
  2
AcDbLayout
  3
AutoCAD 2000
 90
        0
280
     0
281
     0
  0
CLASS
  1
PLOTSETTINGS
  2
AcDbPlotSettings
  3
AutoCAD 2000
 90
    32768
280
     0
281
     0
  0
CLASS
  1
ACDBDICTIONARYWDFLT
  2
AcDbDictionaryWithDefault
  3
AutoCAD 2000
 90
        0
280
     0
281
     0
  0
CLASS
  1
ACDBPLACEHOLDER
  2
AcDbPlaceHolder
  3
AutoCAD 2000
 90
        0
280
     0
281
     0
  0
CLASS
  1
VBA_PROJECT
  2
AcDbVbaProject
  3
"acadvba"
 90
    32768
280
     0
281
     0
  0
CLASS
  1
WIPEOUT
  2
AcDbWipeout
  3
WipeOut|AutoCAD Express Tool|expresstools@autodesk.com
 90
    32895
280
     0
281
     1
  0
CLASS
  1
WIPEOUTVARIABLES
  2
AcDbWipeoutVariables
  3
WipeOut|AutoCAD Express Tool|expresstools@autodesk.com
 90
    32768
280
     0
281
     0
  0
CLASS
  1
RTEXT
  2
RText
  3
RText|AutoCAD Express Tool|expresstools@autodesk.com
 90
    32768
280
     0
281
     1
  0
CLASS
  1
ARCALIGNEDTEXT
  2
AcDbArcAlignedText
  3
ATEXT|AutoCAD Express Tool|expresstools@autodesk.com
 90
    32768
280
     0
281
     1
  0
ENDSEC
  0
SECTION
  2
TABLES
  0
TABLE
  2
VPORT
  5
7
330
0
100
AcDbSymbolTable
 70
     2
  0
VPORT
  5
691C
330
7
100
AcDbSymbolTableRecord
100
AcDbViewportTableRecord
  2
*Active
 70
     0
 10
0.0
 20
0.0
 11
1.0
 21
1.0
 12
229.6668746064753
 22
180.4407128510055
 13
0.0
 23
0.0
 14
1.0
 24
1.0
 15
0.0
 25
0.0
 16
0.0
 26
0.0
 36
1.0
 17
0.0
 27
0.0
 37
0.0
 40
255.819703527722
 41
1.781954887218045
 42
50.0
 43
0.0
 44
0.0
 50
0.0
 51
0.0
 71
     0
 72
   100
 73
     1
 74
     1
 75
     0
 76
     0
 77
     0
 78
     0
281
     0
 65
     1
110
0.0
120
0.0
130
0.0
111
1.0
121
0.0
131
0.0
112
0.0
122
1.0
132
0.0
 79
     0
146
0.0
  0
ENDTAB
  0
TABLE
  2
LTYPE
  5
4
330
0
100
AcDbSymbolTable
 70
     3
  0
LTYPE
  5
11
330
4
100
AcDbSymbolTableRecord
100
AcDbLinetypeTableRecord
  2
BYBLOCK
 70
     0
  3

 72
    65
 73
     0
 40
0.0
  0
LTYPE
  5
12
330
4
100
AcDbSymbolTableRecord
100
AcDbLinetypeTableRecord
  2
BYLAYER
 70
     0
  3

 72
    65
 73
     0
 40
0.0
  0
LTYPE
  5
13
330
4
100
AcDbSymbolTableRecord
100
AcDbLinetypeTableRecord
  2
CONTINUOUS
 70
     0
  3
Solid line
 72
    65
 73
     0
 40
0.0
  0
LTYPE
  5
1D
330
4
100
AcDbSymbolTableRecord
100
AcDbLinetypeTableRecord
  2
DASHED
 70
     0
  3
__ __ __ __ __ __ __ __ __ __ __ __ __ __ __ __
 72
    65
 73
     2
 40
15.0
 49
12.0
 74
     0
 49
-3.0
 74
     0
  0
ENDTAB
  0
TABLE
  2
LAYER
  5
2
330
0
100
AcDbSymbolTable
 70
     1
  0
LAYER
  5
14
330
2
100
AcDbSymbolTableRecord
100
AcDbLayerTableRecord
  2
0
 70
     0
 62
     7
  6
CONTINUOUS
370
    -3
390
68DD
  0
ENDTAB
  0
TABLE
  2
STYLE
  5
3
330
0
100
AcDbSymbolTable
 70
     1
  0
STYLE
  5
17
330
3
100
AcDbSymbolTableRecord
100
AcDbTextStyleTableRecord
  2
STANDARD
 70
     0
 40
0.0
 41
1.0
 50
0.0
 71
     0
 42
0.0
  3
txt
  4

  0
ENDTAB
  0
TABLE
  2
VIEW
  5
5
330
0
100
AcDbSymbolTable
 70
     0
  0
ENDTAB
  0
TABLE
  2
UCS
  5
6
330
0
100
AcDbSymbolTable
 70
     0
  0
ENDTAB
  0
TABLE
  2
APPID
  5
8
330
0
100
AcDbSymbolTable
 70
     1
  0
APPID
  5
16
330
8
100
AcDbSymbolTableRecord
100
AcDbRegAppTableRecord
  2
ACAD
 70
     0
  0
ENDTAB
  0
TABLE
  2
DIMSTYLE
  5
9
330
0
100
AcDbSymbolTable
 70
     1
100
AcDbDimStyleTable
 71
     1
340
18
  0
DIMSTYLE
105
18
330
9
100
AcDbSymbolTableRecord
100
AcDbDimStyleTableRecord
  2
STANDARD
 70
     0
340
17
  0
ENDTAB
  0
TABLE
  2
BLOCK_RECORD
  5
1
330
0
100
AcDbSymbolTable
 70
     0
  0
BLOCK_RECORD
  5
A
330
1
100
AcDbSymbolTableRecord
100
AcDbBlockTableRecord
  2
*MODEL_SPACE
340
68E0
  0
BLOCK_RECORD
  5
B
330
1
100
AcDbSymbolTableRecord
100
AcDbBlockTableRecord
  2
*PAPER_SPACE
340
68E1
  0
ENDTAB
  0
ENDSEC
  0
SECTION
  2
BLOCKS
  0
BLOCK
  5
D
330
A
100
AcDbEntity
  8
0
100
AcDbBlockBegin
  2
*MODEL_SPACE
 70
     0
 10
0.0
 20
0.0
 30
0.0
  3
*MODEL_SPACE
  1

  0
ENDBLK
  5
E
330
A
100
AcDbEntity
  8
0
100
AcDbBlockEnd
  0
BLOCK
  5
F
330
B
100
AcDbEntity
 67
     1
  8
0
100
AcDbBlockBegin
  2
*PAPER_SPACE
 70
     0
 10
0.0
 20
0.0
 30
0.0
  3
*PAPER_SPACE
  1

  0
ENDBLK
  5
10
330
B
100
AcDbEntity
 67
     1
  8
0
100
AcDbBlockEnd
  0
ENDSEC
  0
SECTION
  2
ENTITIES
  0
LINE
  5
315E
330
A
100
AcDbEntity
  8
0
  6
Continuous
 62
     7
100
AcDbLine
 10
121.331429
 20
241.186249
 30
0.0
 11
31.33142899999999
 21
241.186249
 31
0.0
  0
LINE
  5
315F
330
A
100
AcDbEntity
  8
0
  6
Continuous
 62
     7
100
AcDbLine
 10
28.33142899999998
 20
148.186249
 30
0.0
 11
28.33142899999998
 21
238.186249
 31
0.0
  0
LINE
  5
3167
330
A
100
AcDbEntity
  8
0
  6
Continuous
 62
     7
 48
0.2
100
AcDbLine
 10
44.631432
 20
167.8862459999999
 30
0.0
 11
36.631428
 21
167.8862459999999
 31
0.0
  0
ARC
  5
3168
330
A
100
AcDbEntity
  8
0
  6
Continuous
 62
     7
100
AcDbCircle
 10
36.631428
 20
166.8862459999999
 30
0.0
 40
1.0
100
AcDbArc
 50
90.00000300000001
 51
180.000005
  0
LINE
  5
3169
330
A
100
AcDbEntity
  8
0
  6
Continuous
 62
     7
 48
0.175
100
AcDbLine
 10
35.631428
 20
159.886246
 30
0.0
 11
35.631428
 21
166.8862459999999
 31
0.0
  0
ARC
  5
316A
330
A
100
AcDbEntity
  8
0
  6
Continuous
 62
     7
100
AcDbCircle
 10
44.631432
 20
166.8862459999999
 30
0.0
 40
1.0
100
AcDbArc
 50
0.0
 51
90.00000300000001
  0
LINE
  5
316B
330
A
100
AcDbEntity
  8
0
  6
Continuous
 62
     7
 48
0.205
100
AcDbLine
 10
44.73142999999999
 20
158.7862399999998
 30
0.0
 11
36.53142899999997
 21
158.7862399999998
 31
0.0
  0
LINE
  5
316C
330
A
100
AcDbEntity
  8
0
  6
Continuous
 62
     7
 48
0.18
100
AcDbLine
 10
35.53142899999999
 20
159.7862399999999
 30
0.0
 11
35.53142899999999
 21
166.986237
 31
0.0
  0
LINE
  5
316D
330
A
100
AcDbEntity
  8
0
  6
Continuous
 62
     7
 48
0.205
100
AcDbLine
 10
36.53142899999997
 20
167.986237
 30
0.0
 11
44.73142999999999
 21
167.986237
 31
0.0
  0
LINE
  5
316E
330
A
100
AcDbEntity
  8
0
  6
Continuous
 62
     7
 48
0.18
100
AcDbLine
 10
45.73142999999999
 20
166.986237
 30
0.0
 11
45.73142999999999
 21
159.7862399999999
 31
0.0
  0
ARC
  5
316F
330
A
100
AcDbEntity
  8
0
  6
Continuous
 62
     7
100
AcDbCircle
 10
108.0314329999999
 20
159.886246
 30
0.0
 40
1.0
100
AcDbArc
 50
180.000005
 51
270.000001
  0
ARC
  5
3170
330
A
100
AcDbEntity
  8
0
  6
Continuous
 62
     7
100
AcDbCircle
 10
116.031433
 20
166.8862459999999
 30
0.0
 40
1.0
100
AcDbArc
 50
0.0
 51
90.00000300000001
  0
LINE
  5
3171
330
A
100
AcDbEntity
  8
0
  6
Continuous
 62
     7
 48
0.2
100
AcDbLine
 10
116.031433
 20
167.8862459999999
 30
0.0
 11
108.0314329999999
 21
167.8862459999999
 31
0.0
  0
ARC
  5
3172
330
A
100
AcDbEntity
  8
0
  6
Continuous
 62
     7
100
AcDbCircle
 10
108.0314329999999
 20
166.8862459999999
 30
0.0
 40
1.0
100
AcDbArc
 50
90.00000300000001
 51
180.000005
  0
LINE
  5
3173
330
A
100
AcDbEntity
  8
0
  6
Continuous
 62
     7
 48
0.175
100
AcDbLine
 10
107.031433
 20
159.886246
 30
0.0
 11
107.031433
 21
166.8862459999999
 31
0.0
  0
ARC
  5
3174
330
A
100
AcDbEntity
  8
0
  6
Continuous
 62
     7
100
AcDbCircle
 10
104.1314319999999
 20
166.8862459999999
 30
0.0
 40
1.0
100
AcDbArc
 50
0.0
 51
90.00000300000001
  0
LINE
  5
3175
330
A
100
AcDbEntity
  8
0
  6
Continuous
 62
     7
 48
0.2
100
AcDbLine
 10
104.1314319999999
 20
167.8862459999999
 30
0.0
 11
96.13143200000001
 21
167.8862459999999
 31
0.0
  0
ARC
  5
3176
330
A
100
AcDbEntity
  8
0
  6
Continuous
 62
     7
100
AcDbCircle
 10
96.13143200000001
 20
166.8862459999999
 30
0.0
 40
1.0
100
AcDbArc
 50
90.00000300000001
 51
180.000005
  0
LINE
  5
3177
330
A
100
AcDbEntity
  8
0
  6
Continuous
 62
     7
 48
0.175
100
AcDbLine
 10
95.131432
 20
159.886246
 30
0.0
 11
95.131432
 21
166.8862459999999
 31
0.0
  0
ARC
  5
3178
330
A
100
AcDbEntity
  8
0
  6
Continuous
 62
     7
100
AcDbCircle
 10
84.23143000000001
 20
159.886246
 30
0.0
 40
1.0
100
AcDbArc
 50
180.000005
 51
270.000001
  0
ARC
  5
3179
330
A
100
AcDbEntity
  8
0
  6
Continuous
 62
     7
100
AcDbCircle
 10
92.23143
 20
166.8862459999999
 30
0.0
 40
1.0
100
AcDbArc
 50
0.0
 51
90.00000300000001
  0
LINE
  5
317A
330
A
100
AcDbEntity
  8
0
  6
Continuous
 62
     7
 48
0.2
100
AcDbLine
 10
92.23143
 20
167.8862459999999
 30
0.0
 11
84.23143000000001
 21
167.8862459999999
 31
0.0
  0
ARC
  5
317B
330
A
100
AcDbEntity
  8
0
  6
Continuous
 62
     7
100
AcDbCircle
 10
84.23143000000001
 20
166.8862459999999
 30
0.0
 40
1.0
100
AcDbArc
 50
90.00000300000001
 51
180.000005
  0
LINE
  5
317C
330
A
100
AcDbEntity
  8
0
  6
Continuous
 62
     7
 48
0.175
100
AcDbLine
 10
83.23142999999998
 20
159.886246
 30
0.0
 11
83.23142999999998
 21
166.8862459999999
 31
0.0
  0
ARC
  5
317D
330
A
100
AcDbEntity
  8
0
  6
Continuous
 62
     7
100
AcDbCircle
 10
80.33142899999999
 20
166.8862459999999
 30
0.0
 40
1.0
100
AcDbArc
 50
0.0
 51
90.00000300000001
  0
LINE
  5
317E
330
A
100
AcDbEntity
  8
0
  6
Continuous
 62
     7
 48
0.2
100
AcDbLine
 10
80.33142899999999
 20
167.8862459999999
 30
0.0
 11
72.331429
 21
167.8862459999999
 31
0.0
  0
ARC
  5
317F
330
A
100
AcDbEntity
  8
0
  6
Continuous
 62
     7
100
AcDbCircle
 10
72.331429
 20
166.8862459999999
 30
0.0
 40
1.0
100
AcDbArc
 50
90.00000300000001
 51
180.000005
  0
LINE
  5
3180
330
A
100
AcDbEntity
  8
0
  6
Continuous
 62
     7
 48
0.175
100
AcDbLine
 10
71.331429
 20
159.886246
 30
0.0
 11
71.331429
 21
166.8862459999999
 31
0.0
  0
ARC
  5
3181
330
A
100
AcDbEntity
  8
0
  6
Continuous
 62
     7
100
AcDbCircle
 10
68.431427
 20
166.8862459999999
 30
0.0
 40
1.0
100
AcDbArc
 50
0.0
 51
90.00000300000001
  0
LINE
  5
3182
330
A
100
AcDbEntity
  8
0
  6
Continuous
 62
     7
 48
0.2
100
AcDbLine
 10
68.431427
 20
167.8862459999999
 30
0.0
 11
60.431427
 21
167.8862459999999
 31
0.0
  0
ARC
  5
3183
330
A
100
AcDbEntity
  8
0
  6
Continuous
 62
     7
100
AcDbCircle
 10
60.431427
 20
166.8862459999999
 30
0.0
 40
1.0
100
AcDbArc
 50
90.00000300000001
 51
180.000005
  0
LINE
  5
3184
330
A
100
AcDbEntity
  8
0
  6
Continuous
 62
     7
 48
0.175
100
AcDbLine
 10
59.431427
 20
159.886246
 30
0.0
 11
59.431427
 21
166.8862459999999
 31
0.0
  0
ARC
  5
3185
330
A
100
AcDbEntity
  8
0
  6
Continuous
 62
     7
100
AcDbCircle
 10
48.53142899999999
 20
159.886246
 30
0.0
 40
1.0
100
AcDbArc
 50
180.000005
 51
270.000001
  0
ARC
  5
3186
330
A
100
AcDbEntity
  8
0
  6
Continuous
 62
     7
100
AcDbCircle
 10
56.531429
 20
166.8862459999999
 30
0.0
 40
1.0
100
AcDbArc
 50
0.0
 51
90.00000300000001
  0
LINE
  5
3187
330
A
100
AcDbEntity
  8
0
  6
Continuous
 62
     7
 48
0.2
100
AcDbLine
 10
56.531429
 20
167.8862459999999
 30
0.0
 11
48.53142899999999
 21
167.8862459999999
 31
0.0
  0
ARC
  5
3188
330
A
100
AcDbEntity
  8
0
  6
Continuous
 62
     7
100
AcDbCircle
 10
48.53142899999999
 20
166.8862459999999
 30
0.0
 40
1.0
100
AcDbArc
 50
90.00000300000001
 51
180.000005
  0
LINE
  5
3189
330
A
100
AcDbEntity
  8
0
  6
Continuous
 62
     7
 48
0.175
100
AcDbLine
 10
47.53142899999999
 20
159.886246
 30
0.0
 11
47.53142899999999
 21
166.8862459999999
 31
0.0
  0
ARC
  5
318A
330
A
100
AcDbEntity
  8
0
  6
Continuous
 62
     7
100
AcDbCircle
 10
44.7313
 20
159.786377
 30
0.0
 40
1.000035
100
AcDbArc
 50
270.007422
 51
359.9925949999998
  0
ARC
  5
318B
330
A
100
AcDbEntity
  8
0
  6
Continuous
 62
     7
100
AcDbCircle
 10
118.3314289999999
 20
154.686249
 30
0.0
 40
2.0
100
AcDbArc
 50
0.0
 51
90.00000300000001
  0
LINE
  5
318D
330
A
100
AcDbEntity
  8
0
  6
Continuous
 62
     7
 48
0.1625
100
AcDbLine
 10
32.331429
 20
154.686249
 30
0.0
 11
32.331429
 21
145.186249
 31
0.0
  0
ARC
  5
318E
330
A
100
AcDbEntity
  8
0
  6
Continuous
 62
     7
100
AcDbCircle
 10
34.33142899999999
 20
154.686249
 30
0.0
 40
2.0
100
AcDbArc
 50
90.00000300000001
 51
180.000005
  0
LINE
  5
318F
330
A
100
AcDbEntity
  8
0
  6
Continuous
 62
     7
100
AcDbLine
 10
118.3314289999999
 20
156.686249
 30
0.0
 11
34.33142899999999
 21
156.686249
 31
0.0
  0
LWPOLYLINE
  5
3190
330
A
100
AcDbEntity
  8
0
  6
Continuous
 62
     7
100
AcDbPolyline
 90
       10
 70
     0
 43
0.0
 10
120.331429
 20
162.464279
 10
120.320099
 20
160.864059
 10
120.2807919999999
 20
159.9048919999999
 10
120.2290499999999
 20
159.372055
 10
120.172806
 20
159.055634
 10
120.1446229999999
 20
158.9530939999999
 10
120.105469
 20
158.8553469999999
 10
120.076691
 20
158.811676
 10
120.048416
 20
158.789856
 10
120.031433
 20
158.7862399999998
  0
LINE
  5
319C
330
A
100
AcDbEntity
  8
0
  6
Continuous
 62
     7
 48
0.0975
100
AcDbLine
 10
116.131424
 20
158.7862399999998
 30
0.0
 11
120.031433
 21
158.7862399999998
 31
0.0
  0
LINE
  5
319D
330
A
100
AcDbEntity
  8
0
  6
Continuous
 62
     7
 48
0.205
100
AcDbLine
 10
116.131424
 20
158.7862399999998
 30
0.0
 11
107.931427
 21
158.7862399999998
 31
0.0
  0
LINE
  5
319E
330
A
100
AcDbEntity
  8
0
  6
Continuous
 62
     7
 48
0.0925
100
AcDbLine
 10
104.23143
 20
158.7862399999998
 30
0.0
 11
107.931427
 21
158.7862399999998
 31
0.0
  0
LINE
  5
319F
330
A
100
AcDbEntity
  8
0
  6
Continuous
 62
     7
 48
0.205
100
AcDbLine
 10
104.23143
 20
158.7862399999998
 30
0.0
 11
96.03143300000001
 21
158.7862399999998
 31
0.0
  0
LINE
  5
31A0
330
A
100
AcDbEntity
  8
0
  6
Continuous
 62
     7
 48
0.0925
100
AcDbLine
 10
92.331429
 20
158.7862399999998
 30
0.0
 11
96.03143300000001
 21
158.7862399999998
 31
0.0
  0
LINE
  5
31A1
330
A
100
AcDbEntity
  8
0
  6
Continuous
 62
     7
 48
0.205
100
AcDbLine
 10
92.331429
 20
158.7862399999998
 30
0.0
 11
84.13143199999998
 21
158.7862399999998
 31
0.0
  0
LINE
  5
31A2
330
A
100
AcDbEntity
  8
0
  6
Continuous
 62
     7
 48
0.0925
100
AcDbLine
 10
80.431427
 20
158.7862399999998
 30
0.0
 11
84.13143199999998
 21
158.7862399999998
 31
0.0
  0
LINE
  5
31A3
330
A
100
AcDbEntity
  8
0
  6
Continuous
 62
     7
 48
0.205
100
AcDbLine
 10
80.431427
 20
158.7862399999998
 30
0.0
 11
72.23143
 21
158.7862399999998
 31
0.0
  0
LINE
  5
31A4
330
A
100
AcDbEntity
  8
0
  6
Continuous
 62
     7
 48
0.0925
100
AcDbLine
 10
68.53143299999999
 20
158.7862399999998
 30
0.0
 11
72.23143
 21
158.7862399999998
 31
0.0
  0
LINE
  5
31A5
330
A
100
AcDbEntity
  8
0
  6
Continuous
 62
     7
 48
0.205
100
AcDbLine
 10
68.53143299999999
 20
158.7862399999998
 30
0.0
 11
60.33142900000001
 21
158.7862399999998
 31
0.0
  0
LINE
  5
31A6
330
A
100
AcDbEntity
  8
0
  6
Continuous
 62
     7
 48
0.0925
100
AcDbLine
 10
56.631432
 20
158.7862399999998
 30
0.0
 11
60.33142900000001
 21
158.7862399999998
 31
0.0
  0
LINE
  5
31A7
330
A
100
AcDbEntity
  8
0
  6
Continuous
 62
     7
 48
0.205
100
AcDbLine
 10
56.631432
 20
158.7862399999998
 30
0.0
 11
48.431427
 21
158.7862399999998
 31
0.0
  0
LINE
  5
31A8
330
A
100
AcDbEntity
  8
0
  6
Continuous
 62
     7
 48
0.0925
100
AcDbLine
 10
44.73142999999999
 20
158.7862399999998
 30
0.0
 11
48.431427
 21
158.7862399999998
 31
0.0
  0
LINE
  5
31A9
330
A
100
AcDbEntity
  8
0
  6
Continuous
 62
     7
 48
0.0975
100
AcDbLine
 10
32.631428
 20
158.7862399999998
 30
0.0
 11
36.53142899999997
 21
158.7862399999998
 31
0.0
  0
LWPOLYLINE
  5
31AA
330
A
100
AcDbEntity
  8
0
  6
Continuous
 62
     7
100
AcDbPolyline
 90
       10
 70
     0
 43
0.0
 10
32.331429
 20
162.464279
 10
32.342762
 20
160.864059
 10
32.38207199999999
 20
159.9048919999999
 10
32.43380399999999
 20
159.372055
 10
32.490059
 20
159.055634
 10
32.518238
 20
158.9530939999999
 10
32.557392
 20
158.8553469999999
 10
32.586174
 20
158.811676
 10
32.614445
 20
158.789856
 10
32.631428
 20
158.7862399999998
  0
LWPOLYLINE
  5
31B6
330
A
100
AcDbEntity
  8
0
  6
Continuous
 62
     7
100
AcDbPolyline
 90
       10
 70
     0
 43
0.0
 10
32.331429
 20
164.308197
 10
32.342762
 20
165.9084169999998
 10
32.38207199999999
 20
166.867584
 10
32.43380399999999
 20
167.400436
 10
32.490059
 20
167.716858
 10
32.518238
 20
167.819382
 10
32.557392
 20
167.91713
 10
32.586174
 20
167.9607999999998
 10
32.614445
 20
167.9826199999999
 10
32.631428
 20
167.986237
  0
LINE
  5
31C2
330
A
100
AcDbEntity
  8
0
  6
Continuous
 62
     7
 48
0.0975
100
AcDbLine
 10
32.631428
 20
167.986237
 30
0.0
 11
36.53142899999997
 21
167.986237
 31
0.0
  0
LINE
  5
31C3
330
A
100
AcDbEntity
  8
0
  6
Continuous
 62
     7
 48
0.0925
100
AcDbLine
 10
44.73142999999999
 20
167.986237
 30
0.0
 11
48.431427
 21
167.986237
 31
0.0
  0
LINE
  5
31C4
330
A
100
AcDbEntity
  8
0
  6
Continuous
 62
     7
 48
0.205
100
AcDbLine
 10
48.431427
 20
167.986237
 30
0.0
 11
56.631432
 21
167.986237
 31
0.0
  0
LINE
  5
31C5
330
A
100
AcDbEntity
  8
0
  6
Continuous
 62
     7
 48
0.0925
100
AcDbLine
 10
56.631432
 20
167.986237
 30
0.0
 11
60.33142900000001
 21
167.986237
 31
0.0
  0
LINE
  5
31C6
330
A
100
AcDbEntity
  8
0
  6
Continuous
 62
     7
 48
0.205
100
AcDbLine
 10
60.33142900000001
 20
167.986237
 30
0.0
 11
68.53143299999999
 21
167.986237
 31
0.0
  0
LINE
  5
31C7
330
A
100
AcDbEntity
  8
0
  6
Continuous
 62
     7
 48
0.0925
100
AcDbLine
 10
68.53143299999999
 20
167.986237
 30
0.0
 11
72.23143
 21
167.986237
 31
0.0
  0
LINE
  5
31C8
330
A
100
AcDbEntity
  8
0
  6
Continuous
 62
     7
 48
0.205
100
AcDbLine
 10
72.23143
 20
167.986237
 30
0.0
 11
80.431427
 21
167.986237
 31
0.0
  0
LINE
  5
31C9
330
A
100
AcDbEntity
  8
0
  6
Continuous
 62
     7
 48
0.0925
100
AcDbLine
 10
80.431427
 20
167.986237
 30
0.0
 11
84.13143199999998
 21
167.986237
 31
0.0
  0
LINE
  5
31CA
330
A
100
AcDbEntity
  8
0
  6
Continuous
 62
     7
 48
0.205
100
AcDbLine
 10
84.13143199999998
 20
167.986237
 30
0.0
 11
92.331429
 21
167.986237
 31
0.0
  0
LINE
  5
31CB
330
A
100
AcDbEntity
  8
0
  6
Continuous
 62
     7
 48
0.0925
100
AcDbLine
 10
92.331429
 20
167.986237
 30
0.0
 11
96.03143300000001
 21
167.986237
 31
0.0
  0
LINE
  5
31CC
330
A
100
AcDbEntity
  8
0
  6
Continuous
 62
     7
 48
0.205
100
AcDbLine
 10
96.03143300000001
 20
167.986237
 30
0.0
 11
104.23143
 21
167.986237
 31
0.0
  0
LINE
  5
31CD
330
A
100
AcDbEntity
  8
0
  6
Continuous
 62
     7
 48
0.0925
100
AcDbLine
 10
104.23143
 20
167.986237
 30
0.0
 11
107.931427
 21
167.986237
 31
0.0
  0
LINE
  5
31CE
330
A
100
AcDbEntity
  8
0
  6
Continuous
 62
     7
 48
0.205
100
AcDbLine
 10
107.931427
 20
167.986237
 30
0.0
 11
116.131424
 21
167.986237
 31
0.0
  0
LINE
  5
31CF
330
A
100
AcDbEntity
  8
0
  6
Continuous
 62
     7
 48
0.0975
100
AcDbLine
 10
116.131424
 20
167.986237
 30
0.0
 11
120.031433
 21
167.986237
 31
0.0
  0
LWPOLYLINE
  5
31D0
330
A
100
AcDbEntity
  8
0
  6
Continuous
 62
     7
100
AcDbPolyline
 90
       10
 70
     0
 43
0.0
 10
120.331429
 20
164.308197
 10
120.320099
 20
165.9084169999998
 10
120.2807919999999
 20
166.867584
 10
120.2290499999999
 20
167.4004209999999
 10
120.172806
 20
167.716858
 10
120.1446229999999
 20
167.819382
 10
120.105469
 20
167.91713
 10
120.076691
 20
167.9607999999998
 10
120.048416
 20
167.9826199999999
 10
120.031433
 20
167.986237
  0
ARC
  5
31DC
330
A
100
AcDbEntity
  8
0
  6
Continuous
 62
     7
100
AcDbCircle
 10
34.33142899999999
 20
171.386246
 30
0.0
 40
2.0
100
AcDbArc
 50
180.000005
 51
270.000001
  0
LINE
  5
31DD
330
A
100
AcDbEntity
  8
0
  6
Continuous
 62
     7
100
AcDbLine
 10
32.331429
 20
235.186249
 30
0.0
 11
32.331429
 21
171.386246
 31
0.0
  0
ARC
  5
31DE
330
A
100
AcDbEntity
  8
0
  6
Continuous
 62
     7
100
AcDbCircle
 10
34.33142899999999
 20
235.186249
 30
0.0
 40
2.0
100
AcDbArc
 50
90.00000300000001
 51
180.000005
  0
LINE
  5
31DF
330
A
100
AcDbEntity
  8
0
  6
Continuous
 62
     7
100
AcDbLine
 10
34.33142899999999
 20
237.186249
 30
0.0
 11
118.3314289999999
 21
237.186249
 31
0.0
  0
ARC
  5
31E0
330
A
100
AcDbEntity
  8
0
  6
Continuous
 62
     7
100
AcDbCircle
 10
118.3314289999999
 20
235.186249
 30
0.0
 40
2.0
100
AcDbArc
 50
0.0
 51
90.00000300000001
  0
LINE
  5
31E1
330
A
100
AcDbEntity
  8
0
  6
Continuous
 62
     7
100
AcDbLine
 10
120.331429
 20
171.386246
 30
0.0
 11
120.331429
 21
235.186249
 31
0.0
  0
ARC
  5
31E2
330
A
100
AcDbEntity
  8
0
  6
Continuous
 62
     7
100
AcDbCircle
 10
118.3314289999999
 20
171.386246
 30
0.0
 40
2.0
100
AcDbArc
 50
270.000001
 51
0.00001
  0
LINE
  5
31E3
330
A
100
AcDbEntity
  8
0
  6
Continuous
 62
     7
100
AcDbLine
 10
118.3314289999999
 20
169.386246
 30
0.0
 11
34.33142899999999
 21
169.386246
 31
0.0
  0
ARC
  5
31E4
330
A
100
AcDbEntity
  8
0
  6
Continuous
 62
     7
100
AcDbCircle
 10
36.531559
 20
159.786377
 30
0.0
 40
1.000035
100
AcDbArc
 50
180.0073989999999
 51
269.9925799999999
  0
ARC
  5
31E5
330
A
100
AcDbEntity
  8
0
  6
Continuous
 62
     7
100
AcDbCircle
 10
36.531559
 20
166.9861149999999
 30
0.0
 40
1.000035
100
AcDbArc
 50
90.00742
 51
179.992601
  0
ARC
  5
31E6
330
A
100
AcDbEntity
  8
0
  6
Continuous
 62
     7
100
AcDbCircle
 10
44.7313
 20
166.9861149999999
 30
0.0
 40
1.000035
100
AcDbArc
 50
0.007405
 51
89.992578
  0
ARC
  5
31E7
330
A
100
AcDbEntity
  8
0
  6
Continuous
 62
     7
100
AcDbCircle
 10
48.431557
 20
166.9861149999999
 30
0.0
 40
1.000035
100
AcDbArc
 50
90.00742
 51
179.992601
  0
LINE
  5
31E8
330
A
100
AcDbEntity
  8
0
  6
Continuous
 62
     7
 48
0.18
100
AcDbLine
 10
47.43142699999999
 20
159.7862399999999
 30
0.0
 11
47.43142699999999
 21
166.986237
 31
0.0
  0
ARC
  5
31E9
330
A
100
AcDbEntity
  8
0
  6
Continuous
 62
     7
100
AcDbCircle
 10
48.431557
 20
159.786377
 30
0.0
 40
1.000035
100
AcDbArc
 50
180.0073989999999
 51
269.9925799999999
  0
LINE
  5
31EA
330
A
100
AcDbEntity
  8
0
  6
Continuous
 62
     7
 48
0.075
100
AcDbLine
 10
120.3314289999999
 20
154.686249
 30
0.0
 11
120.331429
 21
145.186249
 31
0.0
  0
LINE
  5
31EC
330
A
100
AcDbEntity
  8
0
  6
Continuous
 62
     7
100
AcDbLine
 10
124.331429
 20
238.186249
 30
0.0
 11
124.331429
 21
148.186249
 31
0.0
  0
LINE
  5
31ED
330
A
100
AcDbEntity
  8
0
  6
Continuous
 62
     7
100
AcDbLine
 10
121.331429
 20
241.186249
 30
0.0
 11
31.33142899999999
 21
241.186249
 31
0.0
  0
LINE
  5
31EE
330
A
100
AcDbEntity
  8
0
  6
Continuous
 62
     7
100
AcDbLine
 10
28.33142899999998
 20
148.186249
 30
0.0
 11
28.33142899999998
 21
238.186249
 31
0.0
  0
LINE
  5
31F1
330
A
100
AcDbEntity
  8
0
  6
Continuous
 62
     7
 48
0.046098
100
AcDbLine
 10
120.331429
 20
164.308197
 30
0.0
 11
120.331429
 21
162.464279
 31
0.0
  0
ARC
  5
31F2
330
A
100
AcDbEntity
  8
0
  6
Continuous
 62
     7
100
AcDbCircle
 10
116.131302
 20
159.786377
 30
0.0
 40
1.000035
100
AcDbArc
 50
270.007422
 51
359.9925949999998
  0
LINE
  5
31F3
330
A
100
AcDbEntity
  8
0
  6
Continuous
 62
     7
 48
0.18
100
AcDbLine
 10
117.131424
 20
166.986237
 30
0.0
 11
117.131424
 21
159.7862399999999
 31
0.0
  0
ARC
  5
31F4
330
A
100
AcDbEntity
  8
0
  6
Continuous
 62
     7
100
AcDbCircle
 10
116.131302
 20
166.9861149999999
 30
0.0
 40
1.000035
100
AcDbArc
 50
0.007405
 51
89.992578
  0
ARC
  5
31F5
330
A
100
AcDbEntity
  8
0
  6
Continuous
 62
     7
100
AcDbCircle
 10
107.931557
 20
166.9861149999999
 30
0.0
 40
1.000035
100
AcDbArc
 50
90.00742
 51
179.992601
  0
LINE
  5
31F6
330
A
100
AcDbEntity
  8
0
  6
Continuous
 62
     7
 48
0.18
100
AcDbLine
 10
106.931427
 20
159.7862399999999
 30
0.0
 11
106.931427
 21
166.986237
 31
0.0
  0
ARC
  5
31F7
330
A
100
AcDbEntity
  8
0
  6
Continuous
 62
     7
100
AcDbCircle
 10
107.931557
 20
159.786377
 30
0.0
 40
1.000035
100
AcDbArc
 50
180.0073989999999
 51
269.9925799999999
  0
ARC
  5
31F8
330
A
100
AcDbEntity
  8
0
  6
Continuous
 62
     7
100
AcDbCircle
 10
104.2313
 20
159.786377
 30
0.0
 40
1.000035
100
AcDbArc
 50
270.007422
 51
359.9925949999998
  0
LINE
  5
31F9
330
A
100
AcDbEntity
  8
0
  6
Continuous
 62
     7
 48
0.18
100
AcDbLine
 10
105.23143
 20
166.986237
 30
0.0
 11
105.23143
 21
159.7862399999999
 31
0.0
  0
ARC
  5
31FA
330
A
100
AcDbEntity
  8
0
  6
Continuous
 62
     7
100
AcDbCircle
 10
104.2313
 20
166.9861149999999
 30
0.0
 40
1.000035
100
AcDbArc
 50
0.007405
 51
89.992578
  0
ARC
  5
31FB
330
A
100
AcDbEntity
  8
0
  6
Continuous
 62
     7
100
AcDbCircle
 10
92.33129899999999
 20
159.786377
 30
0.0
 40
1.000035
100
AcDbArc
 50
270.007422
 51
359.9925949999998
  0
LINE
  5
31FC
330
A
100
AcDbEntity
  8
0
  6
Continuous
 62
     7
 48
0.18
100
AcDbLine
 10
93.331429
 20
166.986237
 30
0.0
 11
93.331429
 21
159.7862399999999
 31
0.0
  0
ARC
  5
31FD
330
A
100
AcDbEntity
  8
0
  6
Continuous
 62
     7
100
AcDbCircle
 10
92.33129899999999
 20
166.9861149999999
 30
0.0
 40
1.000035
100
AcDbArc
 50
0.007405
 51
89.992578
  0
ARC
  5
31FE
330
A
100
AcDbEntity
  8
0
  6
Continuous
 62
     7
100
AcDbCircle
 10
96.03155499999999
 20
166.9861149999999
 30
0.0
 40
1.000035
100
AcDbArc
 50
90.00742
 51
179.992601
  0
LINE
  5
31FF
330
A
100
AcDbEntity
  8
0
  6
Continuous
 62
     7
 48
0.18
100
AcDbLine
 10
95.03143300000001
 20
159.7862399999999
 30
0.0
 11
95.03143300000001
 21
166.986237
 31
0.0
  0
ARC
  5
3200
330
A
100
AcDbEntity
  8
0
  6
Continuous
 62
     7
100
AcDbCircle
 10
96.03155499999999
 20
159.786377
 30
0.0
 40
1.000035
100
AcDbArc
 50
180.0073989999999
 51
269.9925799999999
  0
ARC
  5
3201
330
A
100
AcDbEntity
  8
0
  6
Continuous
 62
     7
100
AcDbCircle
 10
84.131561
 20
166.9861149999999
 30
0.0
 40
1.000035
100
AcDbArc
 50
90.00742
 51
179.992601
  0
LINE
  5
3202
330
A
100
AcDbEntity
  8
0
  6
Continuous
 62
     7
 48
0.18
100
AcDbLine
 10
83.13143199999997
 20
159.7862399999999
 30
0.0
 11
83.13143199999997
 21
166.986237
 31
0.0
  0
ARC
  5
3203
330
A
100
AcDbEntity
  8
0
  6
Continuous
 62
     7
100
AcDbCircle
 10
84.131561
 20
159.786377
 30
0.0
 40
1.000035
100
AcDbArc
 50
180.0073989999999
 51
269.9925799999999
  0
ARC
  5
3204
330
A
100
AcDbEntity
  8
0
  6
Continuous
 62
     7
100
AcDbCircle
 10
80.43129699999999
 20
159.786377
 30
0.0
 40
1.000035
100
AcDbArc
 50
270.007422
 51
359.9925949999998
  0
LINE
  5
3205
330
A
100
AcDbEntity
  8
0
  6
Continuous
 62
     7
 48
0.18
100
AcDbLine
 10
81.431427
 20
166.986237
 30
0.0
 11
81.431427
 21
159.7862399999999
 31
0.0
  0
ARC
  5
3206
330
A
100
AcDbEntity
  8
0
  6
Continuous
 62
     7
100
AcDbCircle
 10
80.43129699999999
 20
166.9861149999999
 30
0.0
 40
1.000035
100
AcDbArc
 50
0.007405
 51
89.992578
  0
ARC
  5
3207
330
A
100
AcDbEntity
  8
0
  6
Continuous
 62
     7
100
AcDbCircle
 10
72.23156
 20
166.9861149999999
 30
0.0
 40
1.000035
100
AcDbArc
 50
90.00742
 51
179.992601
  0
LINE
  5
3208
330
A
100
AcDbEntity
  8
0
  6
Continuous
 62
     7
 48
0.18
100
AcDbLine
 10
71.23143
 20
159.7862399999999
 30
0.0
 11
71.23143
 21
166.986237
 31
0.0
  0
ARC
  5
3209
330
A
100
AcDbEntity
  8
0
  6
Continuous
 62
     7
100
AcDbCircle
 10
72.23156
 20
159.786377
 30
0.0
 40
1.000035
100
AcDbArc
 50
180.0073989999999
 51
269.9925799999999
  0
ARC
  5
320A
330
A
100
AcDbEntity
  8
0
  6
Continuous
 62
     7
100
AcDbCircle
 10
68.53129599999999
 20
159.786377
 30
0.0
 40
1.000035
100
AcDbArc
 50
270.007422
 51
359.9925949999998
  0
LINE
  5
320B
330
A
100
AcDbEntity
  8
0
  6
Continuous
 62
     7
 48
0.18
100
AcDbLine
 10
69.53143299999999
 20
166.986237
 30
0.0
 11
69.53143299999999
 21
159.7862399999999
 31
0.0
  0
ARC
  5
320C
330
A
100
AcDbEntity
  8
0
  6
Continuous
 62
     7
100
AcDbCircle
 10
68.53129599999999
 20
166.9861149999999
 30
0.0
 40
1.000035
100
AcDbArc
 50
0.007405
 51
89.992578
  0
ARC
  5
320D
330
A
100
AcDbEntity
  8
0
  6
Continuous
 62
     7
100
AcDbCircle
 10
56.63130200000001
 20
159.786377
 30
0.0
 40
1.000035
100
AcDbArc
 50
270.007422
 51
359.9925949999998
  0
LINE
  5
320E
330
A
100
AcDbEntity
  8
0
  6
Continuous
 62
     7
 48
0.18
100
AcDbLine
 10
57.631432
 20
166.986237
 30
0.0
 11
57.631432
 21
159.7862399999999
 31
0.0
  0
ARC
  5
320F
330
A
100
AcDbEntity
  8
0
  6
Continuous
 62
     7
100
AcDbCircle
 10
56.63130200000001
 20
166.9861149999999
 30
0.0
 40
1.000035
100
AcDbArc
 50
0.007405
 51
89.992578
  0
ARC
  5
3210
330
A
100
AcDbEntity
  8
0
  6
Continuous
 62
     7
100
AcDbCircle
 10
60.33155799999999
 20
166.9861149999999
 30
0.0
 40
1.000035
100
AcDbArc
 50
90.00742
 51
179.992601
  0
LINE
  5
3211
330
A
100
AcDbEntity
  8
0
  6
Continuous
 62
     7
 48
0.18
100
AcDbLine
 10
59.331429
 20
159.7862399999999
 30
0.0
 11
59.331429
 21
166.986237
 31
0.0
  0
ARC
  5
3212
330
A
100
AcDbEntity
  8
0
  6
Continuous
 62
     7
100
AcDbCircle
 10
60.33155799999999
 20
159.786377
 30
0.0
 40
1.000035
100
AcDbArc
 50
180.0073989999999
 51
269.9925799999999
  0
LINE
  5
3213
330
A
100
AcDbEntity
  8
0
  6
Continuous
 62
     7
 48
0.046098
100
AcDbLine
 10
32.331429
 20
162.464279
 30
0.0
 11
32.331429
 21
164.308197
 31
0.0
  0
LINE
  5
3214
330
A
100
AcDbEntity
  8
0
  6
Continuous
 62
     7
100
AcDbLine
 10
31.33142905235986
 20
145.186249
 30
0.0
 11
121.3314290523598
 21
145.186249
 31
0.0
  0
ARC
  5
3215
330
A
100
AcDbEntity
  8
0
  6
Continuous
 62
     7
100
AcDbCircle
 10
121.331429
 20
148.186249
 30
0.0
 40
3.0
100
AcDbArc
 50
270.000001
 51
0.00001
  0
ARC
  5
3216
330
A
100
AcDbEntity
  8
0
  6
Continuous
 62
     7
100
AcDbCircle
 10
121.331429
 20
238.186249
 30
0.0
 40
3.0
100
AcDbArc
 50
0.0
 51
90.00000300000001
  0
ARC
  5
3217
330
A
100
AcDbEntity
  8
0
  6
Continuous
 62
     7
100
AcDbCircle
 10
31.33142899999999
 20
238.186249
 30
0.0
 40
3.0
100
AcDbArc
 50
90.00000300000001
 51
180.000005
  0
ARC
  5
3218
330
A
100
AcDbEntity
  8
0
  6
Continuous
 62
     7
100
AcDbCircle
 10
31.33142899999999
 20
148.186249
 30
0.0
 40
3.0
100
AcDbArc
 50
180.000005
 51
270.000001
  0
LINE
  5
321F
330
A
100
AcDbEntity
  8
0
  6
Continuous
 62
     7
100
AcDbLine
 10
114.031433
 20
173.386246
 30
0.0
 11
50.131432
 21
173.386246
 31
0.0
  0
LINE
  5
3220
330
A
100
AcDbEntity
  8
0
  6
Continuous
 62
     7
 48
0.4075
100
AcDbLine
 10
114.031433
 20
189.686234
 30
0.0
 11
114.031433
 21
173.386246
 31
0.0
  0
LINE
  5
3221
330
A
100
AcDbEntity
  8
0
  6
Continuous
 62
     7
 48
0.4075
100
AcDbLine
 10
50.131432
 20
173.386246
 30
0.0
 11
50.131432
 21
189.686234
 31
0.0
  0
LINE
  5
3222
330
A
100
AcDbEntity
  8
0
  6
Continuous
 62
     7
100
AcDbLine
 10
50.131432
 20
189.686234
 30
0.0
 11
114.031433
 21
189.686234
 31
0.0
  0
LINE
  5
3223
330
A
100
AcDbEntity
  8
0
  6
Continuous
 62
     7
 48
0.031558
100
AcDbLine
 10
59.317558
 20
206.639053
 30
0.0
 11
58.386879
 21
205.7862399999999
 31
0.0
  0
ARC
  5
3224
330
A
100
AcDbEntity
  8
0
  6
Continuous
 62
     7
100
AcDbCircle
 10
59.08391999999999
 20
206.084259
 30
0.0
 40
0.6019860000000003
100
AcDbArc
 50
67.162459
 51
89.96185600000002
  0
LINE
  5
3225
330
A
100
AcDbEntity
  8
0
  6
Continuous
 62
     7
 48
0.042501
100
AcDbLine
 10
58.386879
 20
205.7862399999999
 30
0.0
 11
56.686844
 21
205.7862399999999
 31
0.0
  0
LINE
  5
3226
330
A
100
AcDbEntity
  8
0
  6
Continuous
 62
     7
 48
0.075286
100
AcDbLine
 10
56.07286099999999
 20
206.686234
 30
0.0
 11
59.08432
 21
206.686234
 31
0.0
  0
ARC
  5
3227
330
A
100
AcDbEntity
  8
0
  6
Continuous
 62
     7
100
AcDbCircle
 10
56.073044
 20
206.085083
 30
0.0
 40
0.601153
100
AcDbArc
 50
90.017262
 51
107.8584199999999
  0
LINE
  5
3228
330
A
100
AcDbEntity
  8
0
  6
Continuous
 62
     7
 48
0.029535
100
AcDbLine
 10
56.686844
 20
205.7862399999999
 30
0.0
 11
55.88868699999999
 21
206.6572719999999
 31
0.0
  0
LINE
  5
3229
330
A
100
AcDbEntity
  8
0
  6
Continuous
 62
     7
 48
0.030174
100
AcDbLine
 10
67.21101400000001
 20
224.170822
 30
0.0
 11
68.100891
 21
224.986237
 31
0.0
  0
LINE
  5
322A
330
A
100
AcDbEntity
  8
0
  6
Continuous
 62
     7
 48
0.026604
100
AcDbLine
 10
67.929947
 20
223.386246
 30
0.0
 11
67.21101400000001
 21
224.170822
 31
0.0
  0
LINE
  5
322B
330
A
100
AcDbEntity
  8
0
  6
Continuous
 62
     7
 48
0.117787
100
AcDbLine
 10
68.100891
 20
224.986237
 30
0.0
 11
72.812386
 21
224.986237
 31
0.0
  0
LINE
  5
322C
330
A
100
AcDbEntity
  8
0
  6
Continuous
 62
     7
 48
0.117787
100
AcDbLine
 10
72.641441
 20
223.386246
 30
0.0
 11
67.929947
 21
223.386246
 31
0.0
  0
LINE
  5
322D
330
A
100
AcDbEntity
  8
0
  6
Continuous
 62
     7
 48
0.030174
100
AcDbLine
 10
73.531319
 20
224.2016599999999
 30
0.0
 11
72.641441
 21
223.386246
 31
0.0
  0
LINE
  5
322E
330
A
100
AcDbEntity
  8
0
  6
Continuous
 62
     7
 48
0.026604
100
AcDbLine
 10
72.812386
 20
224.986237
 30
0.0
 11
73.531319
 21
224.2016599999999
 31
0.0
  0
LINE
  5
322F
330
A
100
AcDbEntity
  8
0
  6
Continuous
 62
     7
 48
0.036227
100
AcDbLine
 10
58.59838100000001
 20
203.97403
 30
0.0
 11
58.724678
 21
205.417603
 31
0.0
  0
LINE
  5
3230
330
A
100
AcDbEntity
  8
0
  6
Continuous
 62
     7
 48
0.014736
100
AcDbLine
 10
58.99659699999999
 20
203.539459
 30
0.0
 11
58.59838100000001
 21
203.97403
 31
0.0
  0
LINE
  5
3231
330
A
100
AcDbEntity
  8
0
  6
Continuous
 62
     7
 48
0.031558
100
AcDbLine
 10
58.724678
 20
205.417603
 30
0.0
 11
59.655357
 21
206.270416
 31
0.0
  0
LINE
  5
3232
330
A
100
AcDbEntity
  8
0
  6
Continuous
 62
     7
 48
0.017223
100
AcDbLine
 10
59.50451700000001
 20
204.0048829999999
 30
0.0
 11
58.99659699999999
 21
203.539459
 31
0.0
  0
LINE
  5
3233
330
A
100
AcDbEntity
  8
0
  6
Continuous
 62
     7
 48
0.05092
100
AcDbLine
 10
59.682037
 20
206.0339509999999
 30
0.0
 11
59.50451700000001
 21
204.0048829999999
 31
0.0
  0
ARC
  5
3234
330
A
100
AcDbEntity
  8
0
  6
Continuous
 62
     7
100
AcDbCircle
 10
59.082314
 20
206.0860139999999
 30
0.0
 40
0.6019860000000003
100
AcDbArc
 50
355.0381409999998
 51
17.837541
  0
LINE
  5
3235
330
A
100
AcDbEntity
  8
0
  6
Continuous
 62
     7
 48
0.110259
100
AcDbLine
 10
99.18103000000002
 20
225.3240359999999
 30
0.0
 11
99.565414
 21
229.717606
 31
0.0
  0
LINE
  5
3236
330
A
100
AcDbEntity
  8
0
  6
Continuous
 62
     7
 48
0.026604
100
AcDbLine
 10
99.89996300000001
 20
224.539459
 30
0.0
 11
99.18103000000002
 21
225.3240359999999
 31
0.0
  0
LINE
  5
3237
330
A
100
AcDbEntity
  8
0
  6
Continuous
 62
     7
 48
0.050964
100
AcDbLine
 10
99.565414
 20
229.717606
 30
0.0
 11
101.068405
 21
231.094849
 31
0.0
  0
LINE
  5
3238
330
A
100
AcDbEntity
  8
0
  6
Continuous
 62
     7
 48
0.030174
100
AcDbLine
 10
100.789841
 20
225.354874
 30
0.0
 11
99.89996300000001
 21
224.539459
 31
0.0
  0
LINE
  5
3239
330
A
100
AcDbEntity
  8
0
  6
Continuous
 62
     7
 48
0.12615
100
AcDbLine
 10
101.2296219999999
 20
230.3816529999999
 30
0.0
 11
100.789841
 21
225.354874
 31
0.0
  0
ARC
  5
323A
330
A
100
AcDbEntity
  8
0
  6
Continuous
 62
     7
100
AcDbCircle
 10
100.0246579999999
 20
230.484085
 30
0.0
 40
1.209362999999997
100
AcDbArc
 50
355.1409779999998
 51
30.334319
  0
LINE
  5
323B
330
A
100
AcDbEntity
  8
0
  6
Continuous
 62
     7
 48
0.031569
100
AcDbLine
 10
48.63291199999999
 20
199.733124
 30
0.0
 11
49.563927
 21
200.586243
 31
0.0
  0
ARC
  5
323C
330
A
100
AcDbEntity
  8
0
  6
Continuous
 62
     7
100
AcDbCircle
 10
48.86582199999999
 20
200.288208
 30
0.0
 40
0.601973
100
AcDbArc
 50
247.237184
 51
269.962233
  0
LINE
  5
323D
330
A
100
AcDbEntity
  8
0
  6
Continuous
 62
     7
 48
0.042474
100
AcDbLine
 10
49.563927
 20
200.586243
 30
0.0
 11
51.262901
 21
200.586243
 31
0.0
  0
LINE
  5
323E
330
A
100
AcDbEntity
  8
0
  6
Continuous
 62
     7
 48
0.075286
100
AcDbLine
 10
51.876884
 20
199.686234
 30
0.0
 11
48.865425
 21
199.686234
 31
0.0
  0
ARC
  5
323F
330
A
100
AcDbEntity
  8
0
  6
Continuous
 62
     7
100
AcDbCircle
 10
51.876705
 20
200.2873839999999
 30
0.0
 40
0.601153
100
AcDbArc
 50
270.017264
 51
287.858415
  0
LINE
  5
3240
330
A
100
AcDbEntity
  8
0
  6
Continuous
 62
     7
 48
0.029535
100
AcDbLine
 10
51.262901
 20
200.586243
 30
0.0
 11
52.061058
 21
199.71521
 31
0.0
  0
LINE
  5
3241
330
A
100
AcDbEntity
  8
0
  6
Continuous
 62
     7
 48
0.110259
100
AcDbLine
 10
67.56130999999999
 20
223.0484469999999
 30
0.0
 11
67.17692599999999
 21
218.6548769999999
 31
0.0
  0
LINE
  5
3242
330
A
100
AcDbEntity
  8
0
  6
Continuous
 62
     7
 48
0.026604
100
AcDbLine
 10
66.842377
 20
223.8330229999998
 30
0.0
 11
67.56130999999999
 21
223.0484469999999
 31
0.0
  0
LINE
  5
3243
330
A
100
AcDbEntity
  8
0
  6
Continuous
 62
     7
 48
0.050964
100
AcDbLine
 10
67.17692599999999
 20
218.6548769999999
 30
0.0
 11
65.673935
 21
217.2776339999999
 31
0.0
  0
LINE
  5
3244
330
A
100
AcDbEntity
  8
0
  6
Continuous
 62
     7
 48
0.030174
100
AcDbLine
 10
65.952499
 20
223.017609
 30
0.0
 11
66.842377
 21
223.8330229999998
 31
0.0
  0
LINE
  5
3245
330
A
100
AcDbEntity
  8
0
  6
Continuous
 62
     7
 48
0.12615
100
AcDbLine
 10
65.51271800000001
 20
217.9908289999999
 30
0.0
 11
65.952499
 21
223.017609
 31
0.0
  0
ARC
  5
3246
330
A
100
AcDbEntity
  8
0
  6
Continuous
 62
     7
100
AcDbCircle
 10
66.717674
 20
217.888397
 30
0.0
 40
1.209362999999997
100
AcDbArc
 50
175.140981
 51
210.334324
  0
LINE
  5
3247
330
A
100
AcDbEntity
  8
0
  6
Continuous
 62
     7
 48
0.036227
100
AcDbLine
 10
49.35136400000001
 20
202.3984379999999
 30
0.0
 11
49.225071
 21
200.95488
 31
0.0
  0
LINE
  5
3248
330
A
100
AcDbEntity
  8
0
  6
Continuous
 62
     7
 48
0.014736
100
AcDbLine
 10
48.953148
 20
202.8330229999999
 30
0.0
 11
49.35136400000001
 21
202.3984379999999
 31
0.0
  0
LINE
  5
3249
330
A
100
AcDbEntity
  8
0
  6
Continuous
 62
     7
 48
0.031558
100
AcDbLine
 10
49.225071
 20
200.95488
 30
0.0
 11
48.29439199999999
 21
200.102066
 31
0.0
  0
LINE
  5
324A
330
A
100
AcDbEntity
  8
0
  6
Continuous
 62
     7
 48
0.017223
100
AcDbLine
 10
48.445229
 20
202.367599
 30
0.0
 11
48.953148
 21
202.8330229999999
 31
0.0
  0
LINE
  5
324B
330
A
100
AcDbEntity
  8
0
  6
Continuous
 62
     7
 48
0.05092
100
AcDbLine
 10
48.267708
 20
200.338531
 30
0.0
 11
48.445229
 21
202.367599
 31
0.0
  0
ARC
  5
324C
330
A
100
AcDbEntity
  8
0
  6
Continuous
 62
     7
100
AcDbCircle
 10
48.867435
 20
200.286469
 30
0.0
 40
0.6019860000000003
100
AcDbArc
 50
175.0381459999999
 51
197.837536
  0
LINE
  5
324D
330
A
100
AcDbEntity
  8
0
  6
Continuous
 62
     7
 48
0.014736
100
AcDbLine
 10
49.720005
 20
202.736237
 30
0.0
 11
49.321785
 21
203.170822
 31
0.0
  0
LINE
  5
324E
330
A
100
AcDbEntity
  8
0
  6
Continuous
 62
     7
 48
0.042501
100
AcDbLine
 10
51.42004
 20
202.736237
 30
0.0
 11
49.720005
 21
202.736237
 31
0.0
  0
LINE
  5
324F
330
A
100
AcDbEntity
  8
0
  6
Continuous
 62
     7
 48
0.017223
100
AcDbLine
 10
49.321785
 20
203.170822
 30
0.0
 11
49.829704
 21
203.6362459999998
 31
0.0
  0
LINE
  5
3250
330
A
100
AcDbEntity
  8
0
  6
Continuous
 62
     7
 48
0.017223
100
AcDbLine
 10
51.927959
 20
203.2016599999999
 30
0.0
 11
51.42004
 21
202.736237
 31
0.0
  0
LINE
  5
3251
330
A
100
AcDbEntity
  8
0
  6
Continuous
 62
     7
 48
0.014736
100
AcDbLine
 10
51.529739
 20
203.6362459999998
 30
0.0
 11
51.927959
 21
203.2016599999999
 31
0.0
  0
LINE
  5
3252
330
A
100
AcDbEntity
  8
0
  6
Continuous
 62
     7
 48
0.042501
100
AcDbLine
 10
49.829704
 20
203.6362459999998
 30
0.0
 11
51.529739
 21
203.6362459999998
 31
0.0
  0
ARC
  5
3253
330
A
100
AcDbEntity
  8
0
  6
Continuous
 62
     7
100
AcDbCircle
 10
72.929939
 20
217.8931729999999
 30
0.0
 40
1.206971999999999
100
AcDbArc
 50
270.089733
 51
300.38557
  0
LINE
  5
3254
330
A
100
AcDbEntity
  8
0
  6
Continuous
 62
     7
 48
0.048632
100
AcDbLine
 10
72.226212
 20
218.2862399999999
 30
0.0
 11
73.540436
 21
216.85202
 31
0.0
  0
LINE
  5
3255
330
A
100
AcDbEntity
  8
0
  6
Continuous
 62
     7
 48
0.155592
100
AcDbLine
 10
72.931831
 20
216.6862339999999
 30
0.0
 11
66.708145
 21
216.6862339999999
 31
0.0
  0
LINE
  5
3256
330
A
100
AcDbEntity
  8
0
  6
Continuous
 62
     7
 48
0.117787
100
AcDbLine
 10
67.514717
 20
218.2862399999999
 30
0.0
 11
72.226212
 21
218.2862399999999
 31
0.0
  0
LINE
  5
3257
330
A
100
AcDbEntity
  8
0
  6
Continuous
 62
     7
 48
0.050964
100
AcDbLine
 10
66.01172599999999
 20
216.908997
 30
0.0
 11
67.514717
 21
218.2862399999999
 31
0.0
  0
ARC
  5
3258
330
A
100
AcDbEntity
  8
0
  6
Continuous
 62
     7
100
AcDbCircle
 10
66.71112099999999
 20
217.895538
 30
0.0
 40
1.209362999999997
100
AcDbArc
 50
234.665673
 51
269.859022
  0
ARC
  5
3259
330
A
100
AcDbEntity
  8
0
  6
Continuous
 62
     7
100
AcDbCircle
 10
51.875755
 20
200.2865139999999
 30
0.0
 40
0.601153
100
AcDbArc
 50
337.1415819999997
 51
354.982737
  0
LINE
  5
325A
330
A
100
AcDbEntity
  8
0
  6
Continuous
 62
     7
 48
0.054319
100
AcDbLine
 10
52.66397099999998
 20
202.3984379999999
 30
0.0
 11
52.474602
 21
200.2339479999998
 31
0.0
  0
LINE
  5
325B
330
A
100
AcDbEntity
  8
0
  6
Continuous
 62
     7
 48
0.029536
100
AcDbLine
 10
52.429695
 20
200.0529939999999
 30
0.0
 11
51.63153799999999
 21
200.9240419999999
 31
0.0
  0
LINE
  5
325C
330
A
100
AcDbEntity
  8
0
  6
Continuous
 62
     7
 48
0.014736
100
AcDbLine
 10
52.265755
 20
202.8330229999999
 30
0.0
 11
52.66397099999998
 21
202.3984379999999
 31
0.0
  0
LINE
  5
325D
330
A
100
AcDbEntity
  8
0
  6
Continuous
 62
     7
 48
0.017223
100
AcDbLine
 10
51.757835
 20
202.367599
 30
0.0
 11
52.265755
 21
202.8330229999999
 31
0.0
  0
LINE
  5
325E
330
A
100
AcDbEntity
  8
0
  6
Continuous
 62
     7
 48
0.036227
100
AcDbLine
 10
51.63153799999999
 20
200.9240419999999
 30
0.0
 11
51.757835
 21
202.367599
 31
0.0
  0
LINE
  5
325F
330
A
100
AcDbEntity
  8
0
  6
Continuous
 62
     7
 48
0.026604
100
AcDbLine
 10
99.86911800000001
 20
223.8330229999998
 30
0.0
 11
100.588051
 21
223.0484469999999
 31
0.0
  0
LINE
  5
3260
330
A
100
AcDbEntity
  8
0
  6
Continuous
 62
     7
 48
0.030174
100
AcDbLine
 10
98.97924000000001
 20
223.017609
 30
0.0
 11
99.86911800000001
 21
223.8330229999998
 31
0.0
  0
LINE
  5
3261
330
A
100
AcDbEntity
  8
0
  6
Continuous
 62
     7
 48
0.132173
100
AcDbLine
 10
100.588051
 20
223.0484469999999
 30
0.0
 11
100.127266
 21
217.781647
 31
0.0
  0
LINE
  5
3262
330
A
100
AcDbEntity
  8
0
  6
Continuous
 62
     7
 48
0.110259
100
AcDbLine
 10
98.59484899999999
 20
218.624039
 30
0.0
 11
98.97924000000001
 21
223.017609
 31
0.0
  0
LINE
  5
3263
330
A
100
AcDbEntity
  8
0
  6
Continuous
 62
     7
 48
0.048632
100
AcDbLine
 10
99.90907300000001
 20
217.1898189999999
 30
0.0
 11
98.59484899999999
 21
218.624039
 31
0.0
  0
ARC
  5
3264
330
A
100
AcDbEntity
  8
0
  6
Continuous
 62
     7
100
AcDbCircle
 10
98.925079
 20
217.888733
 30
0.0
 40
1.206971999999999
100
AcDbArc
 50
324.6144339999998
 51
354.910266
  0
LINE
  5
3265
330
A
100
AcDbEntity
  8
0
  6
Continuous
 62
     7
 48
0.036227
100
AcDbLine
 10
51.89837999999999
 20
203.97403
 30
0.0
 11
52.024673
 21
205.417603
 31
0.0
  0
LINE
  5
3266
330
A
100
AcDbEntity
  8
0
  6
Continuous
 62
     7
 48
0.014736
100
AcDbLine
 10
52.29659999999999
 20
203.539459
 30
0.0
 11
51.89837999999999
 21
203.97403
 31
0.0
  0
LINE
  5
3267
330
A
100
AcDbEntity
  8
0
  6
Continuous
 62
     7
 48
0.031558
100
AcDbLine
 10
52.024673
 20
205.417603
 30
0.0
 11
52.955353
 21
206.270416
 31
0.0
  0
LINE
  5
3268
330
A
100
AcDbEntity
  8
0
  6
Continuous
 62
     7
 48
0.017223
100
AcDbLine
 10
52.80452
 20
204.0048829999999
 30
0.0
 11
52.29659999999999
 21
203.539459
 31
0.0
  0
LINE
  5
3269
330
A
100
AcDbEntity
  8
0
  6
Continuous
 62
     7
 48
0.05092
100
AcDbLine
 10
52.982037
 20
206.0339509999999
 30
0.0
 11
52.80452
 21
204.0048829999999
 31
0.0
  0
ARC
  5
326A
330
A
100
AcDbEntity
  8
0
  6
Continuous
 62
     7
100
AcDbCircle
 10
52.382313
 20
206.0860139999999
 30
0.0
 40
0.6019860000000003
100
AcDbArc
 50
355.0381409999998
 51
17.837541
  0
LINE
  5
326B
330
A
100
AcDbEntity
  8
0
  6
Continuous
 62
     7
 48
0.026604
100
AcDbLine
 10
73.869118
 20
223.8330229999998
 30
0.0
 11
74.58805100000002
 21
223.0484469999999
 31
0.0
  0
LINE
  5
326C
330
A
100
AcDbEntity
  8
0
  6
Continuous
 62
     7
 48
0.030174
100
AcDbLine
 10
72.97924
 20
223.017609
 30
0.0
 11
73.869118
 21
223.8330229999998
 31
0.0
  0
LINE
  5
326D
330
A
100
AcDbEntity
  8
0
  6
Continuous
 62
     7
 48
0.132173
100
AcDbLine
 10
74.58805100000002
 20
223.0484469999999
 30
0.0
 11
74.127266
 21
217.781647
 31
0.0
  0
LINE
  5
326E
330
A
100
AcDbEntity
  8
0
  6
Continuous
 62
     7
 48
0.110259
100
AcDbLine
 10
72.594849
 20
218.624039
 30
0.0
 11
72.97924
 21
223.017609
 31
0.0
  0
LINE
  5
326F
330
A
100
AcDbEntity
  8
0
  6
Continuous
 62
     7
 48
0.048632
100
AcDbLine
 10
73.90907299999998
 20
217.1898189999999
 30
0.0
 11
72.594849
 21
218.624039
 31
0.0
  0
ARC
  5
3270
330
A
100
AcDbEntity
  8
0
  6
Continuous
 62
     7
100
AcDbCircle
 10
72.925087
 20
217.888733
 30
0.0
 40
1.206971999999999
100
AcDbArc
 50
324.6144339999998
 51
354.910266
  0
LINE
  5
3271
330
A
100
AcDbEntity
  8
0
  6
Continuous
 62
     7
 48
0.031558
100
AcDbLine
 10
52.617561
 20
206.639053
 30
0.0
 11
51.686882
 21
205.7862399999999
 31
0.0
  0
ARC
  5
3272
330
A
100
AcDbEntity
  8
0
  6
Continuous
 62
     7
100
AcDbCircle
 10
52.38391899999999
 20
206.084259
 30
0.0
 40
0.6019860000000003
100
AcDbArc
 50
67.162459
 51
89.96185600000002
  0
LINE
  5
3273
330
A
100
AcDbEntity
  8
0
  6
Continuous
 62
     7
 48
0.042501
100
AcDbLine
 10
51.686882
 20
205.7862399999999
 30
0.0
 11
49.986847
 21
205.7862399999999
 31
0.0
  0
LINE
  5
3274
330
A
100
AcDbEntity
  8
0
  6
Continuous
 62
     7
 48
0.075286
100
AcDbLine
 10
49.372864
 20
206.686234
 30
0.0
 11
52.38432299999999
 21
206.686234
 31
0.0
  0
ARC
  5
3275
330
A
100
AcDbEntity
  8
0
  6
Continuous
 62
     7
100
AcDbCircle
 10
49.373043
 20
206.085083
 30
0.0
 40
0.601153
100
AcDbArc
 50
90.017262
 51
107.8584199999999
  0
LINE
  5
3276
330
A
100
AcDbEntity
  8
0
  6
Continuous
 62
     7
 48
0.029535
100
AcDbLine
 10
49.986847
 20
205.7862399999999
 30
0.0
 11
49.18869
 21
206.6572719999999
 31
0.0
  0
LINE
  5
3277
330
A
100
AcDbEntity
  8
0
  6
Continuous
 62
     7
 48
0.026604
100
AcDbLine
 10
112.869118
 20
223.8330229999998
 30
0.0
 11
113.588051
 21
223.0484469999999
 31
0.0
  0
LINE
  5
3278
330
A
100
AcDbEntity
  8
0
  6
Continuous
 62
     7
 48
0.030174
100
AcDbLine
 10
111.9792399999999
 20
223.017609
 30
0.0
 11
112.869118
 21
223.8330229999998
 31
0.0
  0
LINE
  5
3279
330
A
100
AcDbEntity
  8
0
  6
Continuous
 62
     7
 48
0.132173
100
AcDbLine
 10
113.588051
 20
223.0484469999999
 30
0.0
 11
113.127266
 21
217.781647
 31
0.0
  0
LINE
  5
327A
330
A
100
AcDbEntity
  8
0
  6
Continuous
 62
     7
 48
0.110259
100
AcDbLine
 10
111.594849
 20
218.624039
 30
0.0
 11
111.9792399999999
 21
223.017609
 31
0.0
  0
LINE
  5
327B
330
A
100
AcDbEntity
  8
0
  6
Continuous
 62
     7
 48
0.048632
100
AcDbLine
 10
112.9090729999999
 20
217.1898189999999
 30
0.0
 11
111.594849
 21
218.624039
 31
0.0
  0
ARC
  5
327C
330
A
100
AcDbEntity
  8
0
  6
Continuous
 62
     7
100
AcDbCircle
 10
111.9250789999999
 20
217.888733
 30
0.0
 40
1.206971999999999
100
AcDbArc
 50
324.6144339999998
 51
354.910266
  0
ARC
  5
327D
330
A
100
AcDbEntity
  8
0
  6
Continuous
 62
     7
100
AcDbCircle
 10
49.373993
 20
206.085953
 30
0.0
 40
0.601153
100
AcDbArc
 50
157.1415879999999
 51
174.9827389999999
  0
LINE
  5
327E
330
A
100
AcDbEntity
  8
0
  6
Continuous
 62
     7
 48
0.054319
100
AcDbLine
 10
48.585777
 20
203.97403
 30
0.0
 11
48.775146
 21
206.138535
 31
0.0
  0
LINE
  5
327F
330
A
100
AcDbEntity
  8
0
  6
Continuous
 62
     7
 48
0.029535
100
AcDbLine
 10
48.820053
 20
206.3194729999999
 30
0.0
 11
49.61821
 21
205.448441
 31
0.0
  0
LINE
  5
3280
330
A
100
AcDbEntity
  8
0
  6
Continuous
 62
     7
 48
0.014736
100
AcDbLine
 10
48.983994
 20
203.539459
 30
0.0
 11
48.585777
 21
203.97403
 31
0.0
  0
LINE
  5
3281
330
A
100
AcDbEntity
  8
0
  6
Continuous
 62
     7
 48
0.017223
100
AcDbLine
 10
49.491913
 20
204.0048829999999
 30
0.0
 11
48.983994
 21
203.539459
 31
0.0
  0
LINE
  5
3282
330
A
100
AcDbEntity
  8
0
  6
Continuous
 62
     7
 48
0.036227
100
AcDbLine
 10
49.61821
 20
205.448441
 30
0.0
 11
49.491913
 21
204.0048829999999
 31
0.0
  0
CIRCLE
  5
3283
330
A
100
AcDbEntity
  8
0
  6
Continuous
 62
     7
100
AcDbCircle
 10
75.931427
 20
217.486237
 30
0.0
 40
0.8
  0
LINE
  5
3284
330
A
100
AcDbEntity
  8
0
  6
Continuous
 62
     7
 48
0.031569
100
AcDbLine
 10
48.63291199999999
 20
207.7331239999999
 30
0.0
 11
49.563927
 21
208.586243
 31
0.0
  0
ARC
  5
3285
330
A
100
AcDbEntity
  8
0
  6
Continuous
 62
     7
100
AcDbCircle
 10
48.86582199999999
 20
208.288208
 30
0.0
 40
0.601973
100
AcDbArc
 50
247.237184
 51
269.962233
  0
LINE
  5
3286
330
A
100
AcDbEntity
  8
0
  6
Continuous
 62
     7
 48
0.042474
100
AcDbLine
 10
49.563927
 20
208.586243
 30
0.0
 11
51.262901
 21
208.586243
 31
0.0
  0
LINE
  5
3287
330
A
100
AcDbEntity
  8
0
  6
Continuous
 62
     7
 48
0.075286
100
AcDbLine
 10
51.876884
 20
207.686234
 30
0.0
 11
48.865425
 21
207.686234
 31
0.0
  0
ARC
  5
3288
330
A
100
AcDbEntity
  8
0
  6
Continuous
 62
     7
100
AcDbCircle
 10
51.876705
 20
208.2873839999999
 30
0.0
 40
0.601153
100
AcDbArc
 50
270.017264
 51
287.858415
  0
LINE
  5
3289
330
A
100
AcDbEntity
  8
0
  6
Continuous
 62
     7
 48
0.029535
100
AcDbLine
 10
51.262901
 20
208.586243
 30
0.0
 11
52.061058
 21
207.71521
 31
0.0
  0
ARC
  5
328A
330
A
100
AcDbEntity
  8
0
  6
Continuous
 62
     7
100
AcDbCircle
 10
98.929939
 20
217.8931729999999
 30
0.0
 40
1.206971999999999
100
AcDbArc
 50
270.089733
 51
300.38557
  0
LINE
  5
328B
330
A
100
AcDbEntity
  8
0
  6
Continuous
 62
     7
 48
0.048632
100
AcDbLine
 10
98.226212
 20
218.2862399999999
 30
0.0
 11
99.540436
 21
216.85202
 31
0.0
  0
LINE
  5
328C
330
A
100
AcDbEntity
  8
0
  6
Continuous
 62
     7
 48
0.155592
100
AcDbLine
 10
98.93183100000001
 20
216.6862339999999
 30
0.0
 11
92.708145
 21
216.6862339999999
 31
0.0
  0
LINE
  5
328D
330
A
100
AcDbEntity
  8
0
  6
Continuous
 62
     7
 48
0.117787
100
AcDbLine
 10
93.51471700000001
 20
218.2862399999999
 30
0.0
 11
98.226212
 21
218.2862399999999
 31
0.0
  0
LINE
  5
328E
330
A
100
AcDbEntity
  8
0
  6
Continuous
 62
     7
 48
0.050964
100
AcDbLine
 10
92.01172599999999
 20
216.908997
 30
0.0
 11
93.51471700000001
 21
218.2862399999999
 31
0.0
  0
ARC
  5
328F
330
A
100
AcDbEntity
  8
0
  6
Continuous
 62
     7
100
AcDbCircle
 10
92.71112100000001
 20
217.895538
 30
0.0
 40
1.209362999999997
100
AcDbArc
 50
234.665673
 51
269.859022
  0
ARC
  5
3290
330
A
100
AcDbEntity
  8
0
  6
Continuous
 62
     7
100
AcDbCircle
 10
51.875755
 20
208.286514
 30
0.0
 40
0.601153
100
AcDbArc
 50
337.1415819999997
 51
354.982737
  0
LINE
  5
3291
330
A
100
AcDbEntity
  8
0
  6
Continuous
 62
     7
 48
0.054319
100
AcDbLine
 10
52.66397099999998
 20
210.3984379999999
 30
0.0
 11
52.474602
 21
208.2339479999999
 31
0.0
  0
LINE
  5
3292
330
A
100
AcDbEntity
  8
0
  6
Continuous
 62
     7
 48
0.029536
100
AcDbLine
 10
52.429695
 20
208.0529939999999
 30
0.0
 11
51.63153799999999
 21
208.9240419999999
 31
0.0
  0
LINE
  5
3293
330
A
100
AcDbEntity
  8
0
  6
Continuous
 62
     7
 48
0.014736
100
AcDbLine
 10
52.265755
 20
210.8330229999999
 30
0.0
 11
52.66397099999998
 21
210.3984379999999
 31
0.0
  0
LINE
  5
3294
330
A
100
AcDbEntity
  8
0
  6
Continuous
 62
     7
 48
0.017223
100
AcDbLine
 10
51.757835
 20
210.367599
 30
0.0
 11
52.265755
 21
210.8330229999999
 31
0.0
  0
LINE
  5
3295
330
A
100
AcDbEntity
  8
0
  6
Continuous
 62
     7
 48
0.036227
100
AcDbLine
 10
51.63153799999999
 20
208.9240419999999
 30
0.0
 11
51.757835
 21
210.367599
 31
0.0
  0
LINE
  5
3296
330
A
100
AcDbEntity
  8
0
  6
Continuous
 62
     7
 48
0.026604
100
AcDbLine
 10
79.873222
 20
224.539459
 30
0.0
 11
79.15428900000001
 21
225.3240359999999
 31
0.0
  0
LINE
  5
3297
330
A
100
AcDbEntity
  8
0
  6
Continuous
 62
     7
 48
0.030174
100
AcDbLine
 10
80.76309999999997
 20
225.354874
 30
0.0
 11
79.873222
 21
224.539459
 31
0.0
  0
LINE
  5
3298
330
A
100
AcDbEntity
  8
0
  6
Continuous
 62
     7
 48
0.132173
100
AcDbLine
 10
79.15428900000001
 20
225.3240359999999
 30
0.0
 11
79.61507399999998
 21
230.59082
 31
0.0
  0
LINE
  5
3299
330
A
100
AcDbEntity
  8
0
  6
Continuous
 62
     7
 48
0.110259
100
AcDbLine
 10
81.14748399999998
 20
229.748444
 30
0.0
 11
80.76309999999997
 21
225.354874
 31
0.0
  0
LINE
  5
329A
330
A
100
AcDbEntity
  8
0
  6
Continuous
 62
     7
 48
0.048632
100
AcDbLine
 10
79.833267
 20
231.182663
 30
0.0
 11
81.14748399999998
 21
229.748444
 31
0.0
  0
ARC
  5
329B
330
A
100
AcDbEntity
  8
0
  6
Continuous
 62
     7
100
AcDbCircle
 10
80.817253
 20
230.483749
 30
0.0
 40
1.206971999999999
100
AcDbArc
 50
144.614434
 51
174.910271
  0
ARC
  5
329C
330
A
100
AcDbEntity
  8
0
  6
Continuous
 62
     7
100
AcDbCircle
 10
112.613884
 20
201.691101
 30
0.0
 40
1.004878
100
AcDbArc
 50
270.0691529999999
 51
297.9533399999999
  0
LINE
  5
329D
330
A
100
AcDbEntity
  8
0
  6
Continuous
 62
     7
 48
0.036715
100
AcDbLine
 10
112.092743
 20
201.886246
 30
0.0
 11
113.0849149999999
 21
200.803482
 31
0.0
  0
LINE
  5
329E
330
A
100
AcDbEntity
  8
0
  6
Continuous
 62
     7
 48
0.122968
100
AcDbLine
 10
112.6150969999999
 20
200.686234
 30
0.0
 11
107.696381
 21
200.686234
 31
0.0
  0
LINE
  5
329F
330
A
100
AcDbEntity
  8
0
  6
Continuous
 62
     7
 48
0.095201
100
AcDbLine
 10
108.2846909999999
 20
201.886246
 30
0.0
 11
112.092743
 21
201.886246
 31
0.0
  0
LINE
  5
32A0
330
A
100
AcDbEntity
  8
0
  6
Continuous
 62
     7
 48
0.038428
100
AcDbLine
 10
107.1514129999999
 20
200.847778
 30
0.0
 11
108.2846909999999
 21
201.886246
 31
0.0
  0
ARC
  5
32A1
330
A
100
AcDbEntity
  8
0
  6
Continuous
 62
     7
100
AcDbCircle
 10
107.69838
 20
201.6929929999998
 30
0.0
 40
1.006791999999999
100
AcDbArc
 50
237.091455
 51
269.8860559999999
  0
LINE
  5
32A2
330
A
100
AcDbEntity
  8
0
  6
Continuous
 62
     7
 48
0.036227
100
AcDbLine
 10
49.35136400000001
 20
210.3984379999999
 30
0.0
 11
49.225071
 21
208.95488
 31
0.0
  0
LINE
  5
32A3
330
A
100
AcDbEntity
  8
0
  6
Continuous
 62
     7
 48
0.014736
100
AcDbLine
 10
48.953148
 20
210.8330229999999
 30
0.0
 11
49.35136400000001
 21
210.3984379999999
 31
0.0
  0
LINE
  5
32A4
330
A
100
AcDbEntity
  8
0
  6
Continuous
 62
     7
 48
0.031558
100
AcDbLine
 10
49.225071
 20
208.95488
 30
0.0
 11
48.29439199999999
 21
208.1020659999999
 31
0.0
  0
LINE
  5
32A5
330
A
100
AcDbEntity
  8
0
  6
Continuous
 62
     7
 48
0.017223
100
AcDbLine
 10
48.445229
 20
210.367599
 30
0.0
 11
48.953148
 21
210.8330229999999
 31
0.0
  0
LINE
  5
32A6
330
A
100
AcDbEntity
  8
0
  6
Continuous
 62
     7
 48
0.05092
100
AcDbLine
 10
48.267708
 20
208.338531
 30
0.0
 11
48.445229
 21
210.367599
 31
0.0
  0
ARC
  5
32A7
330
A
100
AcDbEntity
  8
0
  6
Continuous
 62
     7
100
AcDbCircle
 10
48.867435
 20
208.286469
 30
0.0
 40
0.6019860000000003
100
AcDbArc
 50
175.0381459999999
 51
197.837536
  0
LINE
  5
32A8
330
A
100
AcDbEntity
  8
0
  6
Continuous
 62
     7
 48
0.019822
100
AcDbLine
 10
113.4386439999999
 20
206.333023
 30
0.0
 11
113.9743189999999
 21
205.748444
 31
0.0
  0
LINE
  5
32A9
330
A
100
AcDbEntity
  8
0
  6
Continuous
 62
     7
 48
0.022773
100
AcDbLine
 10
112.767029
 20
205.717606
 30
0.0
 11
113.4386439999999
 21
206.333023
 31
0.0
  0
LINE
  5
32AA
330
A
100
AcDbEntity
  8
0
  6
Continuous
 62
     7
 48
0.10413
100
AcDbLine
 10
113.9743189999999
 20
205.748444
 30
0.0
 11
113.611298
 21
201.5990909999999
 31
0.0
  0
LINE
  5
32AB
330
A
100
AcDbEntity
  8
0
  6
Continuous
 62
     7
 48
0.087673
100
AcDbLine
 10
112.46138
 20
202.2240299999999
 30
0.0
 11
112.767029
 21
205.717606
 31
0.0
  0
LINE
  5
32AC
330
A
100
AcDbEntity
  8
0
  6
Continuous
 62
     7
 48
0.036715
100
AcDbLine
 10
113.453552
 20
201.1412659999999
 30
0.0
 11
112.46138
 21
202.2240299999999
 31
0.0
  0
ARC
  5
32AD
330
A
100
AcDbEntity
  8
0
  6
Continuous
 62
     7
100
AcDbCircle
 10
112.610306
 20
201.687897
 30
0.0
 40
1.004931
100
AcDbArc
 50
327.047401
 51
354.9301129999998
  0
CIRCLE
  5
32AE
330
A
100
AcDbEntity
  8
0
  6
Continuous
 62
     7
100
AcDbCircle
 10
114.931427
 20
201.2862399999999
 30
0.0
 40
0.6
  0
LINE
  5
32AF
330
A
100
AcDbEntity
  8
0
  6
Continuous
 62
     7
 48
0.014736
100
AcDbLine
 10
49.720005
 20
210.736237
 30
0.0
 11
49.321785
 21
211.170822
 31
0.0
  0
LINE
  5
32B0
330
A
100
AcDbEntity
  8
0
  6
Continuous
 62
     7
 48
0.042501
100
AcDbLine
 10
51.42004
 20
210.736237
 30
0.0
 11
49.720005
 21
210.736237
 31
0.0
  0
LINE
  5
32B1
330
A
100
AcDbEntity
  8
0
  6
Continuous
 62
     7
 48
0.017223
100
AcDbLine
 10
49.321785
 20
211.170822
 30
0.0
 11
49.829704
 21
211.6362459999999
 31
0.0
  0
LINE
  5
32B2
330
A
100
AcDbEntity
  8
0
  6
Continuous
 62
     7
 48
0.017223
100
AcDbLine
 10
51.927959
 20
211.20166
 30
0.0
 11
51.42004
 21
210.736237
 31
0.0
  0
LINE
  5
32B3
330
A
100
AcDbEntity
  8
0
  6
Continuous
 62
     7
 48
0.014736
100
AcDbLine
 10
51.529739
 20
211.6362459999999
 30
0.0
 11
51.927959
 21
211.20166
 31
0.0
  0
LINE
  5
32B4
330
A
100
AcDbEntity
  8
0
  6
Continuous
 62
     7
 48
0.042501
100
AcDbLine
 10
49.829704
 20
211.6362459999999
 30
0.0
 11
51.529739
 21
211.6362459999999
 31
0.0
  0
LINE
  5
32B5
330
A
100
AcDbEntity
  8
0
  6
Continuous
 62
     7
 48
0.087673
100
AcDbLine
 10
112.933823
 20
207.6240389999999
 30
0.0
 11
113.239471
 21
211.117599
 31
0.0
  0
LINE
  5
32B6
330
A
100
AcDbEntity
  8
0
  6
Continuous
 62
     7
 48
0.019822
100
AcDbLine
 10
113.4694899999999
 20
207.039459
 30
0.0
 11
112.933823
 21
207.6240389999999
 31
0.0
  0
LINE
  5
32B7
330
A
100
AcDbEntity
  8
0
  6
Continuous
 62
     7
 48
0.038428
100
AcDbLine
 10
113.239471
 20
211.117599
 30
0.0
 11
114.372749
 21
212.156052
 31
0.0
  0
LINE
  5
32B8
330
A
100
AcDbEntity
  8
0
  6
Continuous
 62
     7
 48
0.022773
100
AcDbLine
 10
114.141106
 20
207.654877
 30
0.0
 11
113.4694899999999
 21
207.039459
 31
0.0
  0
LINE
  5
32B9
330
A
100
AcDbEntity
  8
0
  6
Continuous
 62
     7
 48
0.098982
100
AcDbLine
 10
114.4861759999999
 20
211.599091
 30
0.0
 11
114.141106
 21
207.654877
 31
0.0
  0
ARC
  5
32BA
330
A
100
AcDbEntity
  8
0
  6
Continuous
 62
     7
100
AcDbCircle
 10
113.483078
 20
211.68483
 30
0.0
 40
1.006791999999999
100
AcDbArc
 50
355.113943
 51
27.908544
  0
LINE
  5
32BB
330
A
100
AcDbEntity
  8
0
  6
Continuous
 62
     7
 48
0.110259
100
AcDbLine
 10
80.56130999999998
 20
223.0484469999999
 30
0.0
 11
80.176926
 21
218.6548769999999
 31
0.0
  0
LINE
  5
32BC
330
A
100
AcDbEntity
  8
0
  6
Continuous
 62
     7
 48
0.026604
100
AcDbLine
 10
79.842377
 20
223.8330229999998
 30
0.0
 11
80.56130999999998
 21
223.0484469999999
 31
0.0
  0
LINE
  5
32BD
330
A
100
AcDbEntity
  8
0
  6
Continuous
 62
     7
 48
0.050964
100
AcDbLine
 10
80.176926
 20
218.6548769999999
 30
0.0
 11
78.673935
 21
217.2776339999999
 31
0.0
  0
LINE
  5
32BE
330
A
100
AcDbEntity
  8
0
  6
Continuous
 62
     7
 48
0.030174
100
AcDbLine
 10
78.952499
 20
223.017609
 30
0.0
 11
79.842377
 21
223.8330229999998
 31
0.0
  0
LINE
  5
32BF
330
A
100
AcDbEntity
  8
0
  6
Continuous
 62
     7
 48
0.12615
100
AcDbLine
 10
78.51271800000002
 20
217.9908289999999
 30
0.0
 11
78.952499
 21
223.017609
 31
0.0
  0
ARC
  5
32C0
330
A
100
AcDbEntity
  8
0
  6
Continuous
 62
     7
100
AcDbCircle
 10
79.717674
 20
217.888397
 30
0.0
 40
1.209362999999997
100
AcDbArc
 50
175.140981
 51
210.334324
  0
LINE
  5
32C1
330
A
100
AcDbEntity
  8
0
  6
Continuous
 62
     7
 48
0.095201
100
AcDbLine
 10
112.9016719999995
 20
211.4862369999999
 30
0.0
 11
109.09362
 21
211.4862369999999
 31
0.0
  0
LINE
  5
32C2
330
A
100
AcDbEntity
  8
0
  6
Continuous
 62
     7
 48
0.038428
100
AcDbLine
 10
114.034958
 20
212.524689
 30
0.0
 11
112.9016719999995
 21
211.4862369999999
 31
0.0
  0
LINE
  5
32C3
330
A
100
AcDbEntity
  8
0
  6
Continuous
 62
     7
 48
0.036715
100
AcDbLine
 10
109.09362
 20
211.4862369999999
 30
0.0
 11
108.101448
 21
212.569
 31
0.0
  0
ARC
  5
32C4
330
A
100
AcDbEntity
  8
0
  6
Continuous
 62
     7
100
AcDbCircle
 10
113.487984
 20
211.679489
 30
0.0
 40
1.006791999999999
100
AcDbArc
 50
57.091453
 51
89.886054
  0
LINE
  5
32C5
330
A
100
AcDbEntity
  8
0
  6
Continuous
 62
     7
 48
0.122968
100
AcDbLine
 10
108.5712659999999
 20
212.6862339999999
 30
0.0
 11
113.4899899999999
 21
212.6862339999999
 31
0.0
  0
ARC
  5
32C6
330
A
100
AcDbEntity
  8
0
  6
Continuous
 62
     7
100
AcDbCircle
 10
108.5724949999999
 20
211.681335
 30
0.0
 40
1.004931
100
AcDbArc
 50
90.06988900000001
 51
117.9525989999999
  0
ARC
  5
32C7
330
A
100
AcDbEntity
  8
0
  6
Continuous
 62
     7
100
AcDbCircle
 10
49.373993
 20
214.0859529999999
 30
0.0
 40
0.601153
100
AcDbArc
 50
157.1415879999999
 51
174.9827389999999
  0
LINE
  5
32C8
330
A
100
AcDbEntity
  8
0
  6
Continuous
 62
     7
 48
0.054319
100
AcDbLine
 10
48.585777
 20
211.9740299999999
 30
0.0
 11
48.775146
 21
214.138535
 31
0.0
  0
LINE
  5
32C9
330
A
100
AcDbEntity
  8
0
  6
Continuous
 62
     7
 48
0.029535
100
AcDbLine
 10
48.820053
 20
214.3194729999999
 30
0.0
 11
49.61821
 21
213.448441
 31
0.0
  0
LINE
  5
32CA
330
A
100
AcDbEntity
  8
0
  6
Continuous
 62
     7
 48
0.014736
100
AcDbLine
 10
48.983994
 20
211.539459
 30
0.0
 11
48.585777
 21
211.9740299999999
 31
0.0
  0
LINE
  5
32CB
330
A
100
AcDbEntity
  8
0
  6
Continuous
 62
     7
 48
0.017223
100
AcDbLine
 10
49.491913
 20
212.0048829999999
 30
0.0
 11
48.983994
 21
211.539459
 31
0.0
  0
LINE
  5
32CC
330
A
100
AcDbEntity
  8
0
  6
Continuous
 62
     7
 48
0.036227
100
AcDbLine
 10
49.61821
 20
213.448441
 30
0.0
 11
49.491913
 21
212.0048829999999
 31
0.0
  0
LINE
  5
32CD
330
A
100
AcDbEntity
  8
0
  6
Continuous
 62
     7
 48
0.019822
100
AcDbLine
 10
107.7477189999999
 20
207.039459
 30
0.0
 11
107.2120509999999
 21
207.6240389999999
 31
0.0
  0
LINE
  5
32CE
330
A
100
AcDbEntity
  8
0
  6
Continuous
 62
     7
 48
0.022773
100
AcDbLine
 10
108.419334
 20
207.654877
 30
0.0
 11
107.7477189999999
 21
207.039459
 31
0.0
  0
LINE
  5
32CF
330
A
100
AcDbEntity
  8
0
  6
Continuous
 62
     7
 48
0.10413
100
AcDbLine
 10
107.2120509999999
 20
207.6240389999999
 30
0.0
 11
107.5750729999999
 21
211.773392
 31
0.0
  0
LINE
  5
32D0
330
A
100
AcDbEntity
  8
0
  6
Continuous
 62
     7
 48
0.087673
100
AcDbLine
 10
108.7249759999999
 20
211.1484379999999
 30
0.0
 11
108.419334
 21
207.654877
 31
0.0
  0
LINE
  5
32D1
330
A
100
AcDbEntity
  8
0
  6
Continuous
 62
     7
 48
0.036715
100
AcDbLine
 10
107.732811
 20
212.2312009999999
 30
0.0
 11
108.7249759999999
 21
211.1484379999999
 31
0.0
  0
ARC
  5
32D2
330
A
100
AcDbEntity
  8
0
  6
Continuous
 62
     7
100
AcDbCircle
 10
108.5760499999999
 20
211.684586
 30
0.0
 40
1.004931
100
AcDbArc
 50
147.047401
 51
174.9301199999999
  0
CIRCLE
  5
32D3
330
A
100
AcDbEntity
  8
0
  6
Continuous
 62
     7
100
AcDbCircle
 10
101.9314269999999
 20
217.486237
 30
0.0
 40
0.8
  0
LINE
  5
32D4
330
A
100
AcDbEntity
  8
0
  6
Continuous
 62
     7
 48
0.022773
100
AcDbLine
 10
108.08551
 20
206.6708219999999
 30
0.0
 11
108.757126
 21
207.2862399999999
 31
0.0
  0
LINE
  5
32D5
330
A
100
AcDbEntity
  8
0
  6
Continuous
 62
     7
 48
0.019822
100
AcDbLine
 10
108.621185
 20
206.0862429999999
 30
0.0
 11
108.08551
 21
206.6708219999999
 31
0.0
  0
LINE
  5
32D6
330
A
100
AcDbEntity
  8
0
  6
Continuous
 62
     7
 48
0.095201
100
AcDbLine
 10
108.757126
 20
207.2862399999999
 30
0.0
 11
112.565186
 21
207.2862399999999
 31
0.0
  0
LINE
  5
32D7
330
A
100
AcDbEntity
  8
0
  6
Continuous
 62
     7
 48
0.095201
100
AcDbLine
 10
112.429237
 20
206.0862429999999
 30
0.0
 11
108.621185
 21
206.0862429999999
 31
0.0
  0
LINE
  5
32D8
330
A
100
AcDbEntity
  8
0
  6
Continuous
 62
     7
 48
0.022773
100
AcDbLine
 10
113.100853
 20
206.70166
 30
0.0
 11
112.429237
 21
206.0862429999999
 31
0.0
  0
LINE
  5
32D9
330
A
100
AcDbEntity
  8
0
  6
Continuous
 62
     7
 48
0.019822
100
AcDbLine
 10
112.565186
 20
207.2862399999999
 30
0.0
 11
113.100853
 21
206.70166
 31
0.0
  0
LINE
  5
32DA
330
A
100
AcDbEntity
  8
0
  6
Continuous
 62
     7
 48
0.031558
100
AcDbLine
 10
52.617561
 20
214.639053
 30
0.0
 11
51.686882
 21
213.7862399999999
 31
0.0
  0
ARC
  5
32DB
330
A
100
AcDbEntity
  8
0
  6
Continuous
 62
     7
100
AcDbCircle
 10
52.38391899999999
 20
214.0842589999999
 30
0.0
 40
0.6019860000000003
100
AcDbArc
 50
67.162459
 51
89.96185600000002
  0
LINE
  5
32DC
330
A
100
AcDbEntity
  8
0
  6
Continuous
 62
     7
 48
0.042501
100
AcDbLine
 10
51.686882
 20
213.7862399999999
 30
0.0
 11
49.986847
 21
213.7862399999999
 31
0.0
  0
LINE
  5
32DD
330
A
100
AcDbEntity
  8
0
  6
Continuous
 62
     7
 48
0.075286
100
AcDbLine
 10
49.372864
 20
214.6862339999999
 30
0.0
 11
52.38432299999999
 21
214.6862339999999
 31
0.0
  0
ARC
  5
32DE
330
A
100
AcDbEntity
  8
0
  6
Continuous
 62
     7
100
AcDbCircle
 10
49.373043
 20
214.085083
 30
0.0
 40
0.601153
100
AcDbArc
 50
90.017262
 51
107.8584199999999
  0
LINE
  5
32DF
330
A
100
AcDbEntity
  8
0
  6
Continuous
 62
     7
 48
0.029535
100
AcDbLine
 10
49.986847
 20
213.7862399999999
 30
0.0
 11
49.18869
 21
214.657272
 31
0.0
  0
LINE
  5
32E0
330
A
100
AcDbEntity
  8
0
  6
Continuous
 62
     7
 48
0.087673
100
AcDbLine
 10
108.2525409999999
 20
205.748444
 30
0.0
 11
107.946899
 21
202.254883
 31
0.0
  0
LINE
  5
32E1
330
A
100
AcDbEntity
  8
0
  6
Continuous
 62
     7
 48
0.019822
100
AcDbLine
 10
107.7168729999999
 20
206.333023
 30
0.0
 11
108.2525409999999
 21
205.748444
 31
0.0
  0
LINE
  5
32E2
330
A
100
AcDbEntity
  8
0
  6
Continuous
 62
     7
 48
0.038428
100
AcDbLine
 10
107.946899
 20
202.254883
 30
0.0
 11
106.8136139999999
 21
201.2164149999999
 31
0.0
  0
LINE
  5
32E3
330
A
100
AcDbEntity
  8
0
  6
Continuous
 62
     7
 48
0.022773
100
AcDbLine
 10
107.0452579999999
 20
205.717606
 30
0.0
 11
107.7168729999999
 21
206.333023
 31
0.0
  0
LINE
  5
32E4
330
A
100
AcDbEntity
  8
0
  6
Continuous
 62
     7
 48
0.098982
100
AcDbLine
 10
106.7001879999996
 20
201.7733919999999
 30
0.0
 11
107.0452579999999
 21
205.717606
 31
0.0
  0
ARC
  5
32E5
330
A
100
AcDbEntity
  8
0
  6
Continuous
 62
     7
100
AcDbCircle
 10
107.703285
 20
201.687653
 30
0.0
 40
1.006791999999999
100
AcDbArc
 50
175.1139479999999
 51
207.9085389999999
  0
LINE
  5
32E6
330
A
100
AcDbEntity
  8
0
  6
Continuous
 62
     7
 48
0.030174
100
AcDbLine
 10
80.211014
 20
224.170822
 30
0.0
 11
81.10089100000001
 21
224.986237
 31
0.0
  0
LINE
  5
32E7
330
A
100
AcDbEntity
  8
0
  6
Continuous
 62
     7
 48
0.026604
100
AcDbLine
 10
80.929947
 20
223.386246
 30
0.0
 11
80.211014
 21
224.170822
 31
0.0
  0
LINE
  5
32E8
330
A
100
AcDbEntity
  8
0
  6
Continuous
 62
     7
 48
0.117787
100
AcDbLine
 10
81.10089100000001
 20
224.986237
 30
0.0
 11
85.812386
 21
224.986237
 31
0.0
  0
LINE
  5
32E9
330
A
100
AcDbEntity
  8
0
  6
Continuous
 62
     7
 48
0.117787
100
AcDbLine
 10
85.641441
 20
223.386246
 30
0.0
 11
80.929947
 21
223.386246
 31
0.0
  0
LINE
  5
32EA
330
A
100
AcDbEntity
  8
0
  6
Continuous
 62
     7
 48
0.030174
100
AcDbLine
 10
86.53131899999998
 20
224.2016599999999
 30
0.0
 11
85.641441
 21
223.386246
 31
0.0
  0
LINE
  5
32EB
330
A
100
AcDbEntity
  8
0
  6
Continuous
 62
     7
 48
0.026604
100
AcDbLine
 10
85.812386
 20
224.986237
 30
0.0
 11
86.53131899999998
 21
224.2016599999999
 31
0.0
  0
CIRCLE
  5
32EC
330
A
100
AcDbEntity
  8
0
  6
Continuous
 62
     7
100
AcDbCircle
 10
104.9314269999999
 20
201.2862399999999
 30
0.0
 40
0.6
  0
LINE
  5
32ED
330
A
100
AcDbEntity
  8
0
  6
Continuous
 62
     7
 48
0.036227
100
AcDbLine
 10
51.89837999999999
 20
211.9740299999999
 30
0.0
 11
52.024673
 21
213.4176029999999
 31
0.0
  0
LINE
  5
32EE
330
A
100
AcDbEntity
  8
0
  6
Continuous
 62
     7
 48
0.014736
100
AcDbLine
 10
52.29659999999999
 20
211.539459
 30
0.0
 11
51.89837999999999
 21
211.9740299999999
 31
0.0
  0
LINE
  5
32EF
330
A
100
AcDbEntity
  8
0
  6
Continuous
 62
     7
 48
0.031558
100
AcDbLine
 10
52.024673
 20
213.4176029999999
 30
0.0
 11
52.955353
 21
214.270416
 31
0.0
  0
LINE
  5
32F0
330
A
100
AcDbEntity
  8
0
  6
Continuous
 62
     7
 48
0.017223
100
AcDbLine
 10
52.80452
 20
212.0048829999999
 30
0.0
 11
52.29659999999999
 21
211.539459
 31
0.0
  0
LINE
  5
32F1
330
A
100
AcDbEntity
  8
0
  6
Continuous
 62
     7
 48
0.05092
100
AcDbLine
 10
52.982037
 20
214.033951
 30
0.0
 11
52.80452
 21
212.0048829999999
 31
0.0
  0
ARC
  5
32F2
330
A
100
AcDbEntity
  8
0
  6
Continuous
 62
     7
100
AcDbCircle
 10
52.382313
 20
214.086014
 30
0.0
 40
0.6019860000000003
100
AcDbArc
 50
355.0381409999998
 51
17.837541
  0
LINE
  5
32F3
330
A
100
AcDbEntity
  8
0
  6
Continuous
 62
     7
 48
0.087673
100
AcDbLine
 10
102.933823
 20
207.6240389999999
 30
0.0
 11
103.2394709999999
 21
211.117599
 31
0.0
  0
LINE
  5
32F4
330
A
100
AcDbEntity
  8
0
  6
Continuous
 62
     7
 48
0.019822
100
AcDbLine
 10
103.46949
 20
207.039459
 30
0.0
 11
102.933823
 21
207.6240389999999
 31
0.0
  0
LINE
  5
32F5
330
A
100
AcDbEntity
  8
0
  6
Continuous
 62
     7
 48
0.038428
100
AcDbLine
 10
103.2394709999999
 20
211.117599
 30
0.0
 11
104.3727489999999
 21
212.156052
 31
0.0
  0
LINE
  5
32F6
330
A
100
AcDbEntity
  8
0
  6
Continuous
 62
     7
 48
0.022773
100
AcDbLine
 10
104.141106
 20
207.654877
 30
0.0
 11
103.46949
 21
207.039459
 31
0.0
  0
LINE
  5
32F7
330
A
100
AcDbEntity
  8
0
  6
Continuous
 62
     7
 48
0.098982
100
AcDbLine
 10
104.486176
 20
211.599091
 30
0.0
 11
104.141106
 21
207.654877
 31
0.0
  0
ARC
  5
32F8
330
A
100
AcDbEntity
  8
0
  6
Continuous
 62
     7
100
AcDbCircle
 10
103.483078
 20
211.68483
 30
0.0
 40
1.006791999999999
100
AcDbArc
 50
355.113943
 51
27.908544
  0
ARC
  5
32F9
330
A
100
AcDbEntity
  8
0
  6
Continuous
 62
     7
100
AcDbCircle
 10
111.929947
 20
217.8931729999999
 30
0.0
 40
1.206971999999999
100
AcDbArc
 50
270.089733
 51
300.38557
  0
LINE
  5
32FA
330
A
100
AcDbEntity
  8
0
  6
Continuous
 62
     7
 48
0.048632
100
AcDbLine
 10
111.226212
 20
218.2862399999999
 30
0.0
 11
112.540436
 21
216.85202
 31
0.0
  0
LINE
  5
32FB
330
A
100
AcDbEntity
  8
0
  6
Continuous
 62
     7
 48
0.155592
100
AcDbLine
 10
111.931831
 20
216.6862339999999
 30
0.0
 11
105.708145
 21
216.6862339999999
 31
0.0
  0
LINE
  5
32FC
330
A
100
AcDbEntity
  8
0
  6
Continuous
 62
     7
 48
0.117787
100
AcDbLine
 10
106.5147169999999
 20
218.2862399999999
 30
0.0
 11
111.226212
 21
218.2862399999999
 31
0.0
  0
LINE
  5
32FD
330
A
100
AcDbEntity
  8
0
  6
Continuous
 62
     7
 48
0.050964
100
AcDbLine
 10
105.0117259999999
 20
216.908997
 30
0.0
 11
106.5147169999999
 21
218.2862399999999
 31
0.0
  0
ARC
  5
32FE
330
A
100
AcDbEntity
  8
0
  6
Continuous
 62
     7
100
AcDbCircle
 10
105.7111209999999
 20
217.895538
 30
0.0
 40
1.209362999999997
100
AcDbArc
 50
234.665673
 51
269.859022
  0
LINE
  5
32FF
330
A
100
AcDbEntity
  8
0
  6
Continuous
 62
     7
 48
0.095201
100
AcDbLine
 10
102.9016719999999
 20
211.4862369999999
 30
0.0
 11
99.09362000000001
 21
211.4862369999999
 31
0.0
  0
LINE
  5
3300
330
A
100
AcDbEntity
  8
0
  6
Continuous
 62
     7
 48
0.038428
100
AcDbLine
 10
104.03495
 20
212.524689
 30
0.0
 11
102.9016719999999
 21
211.4862369999999
 31
0.0
  0
LINE
  5
3301
330
A
100
AcDbEntity
  8
0
  6
Continuous
 62
     7
 48
0.036715
100
AcDbLine
 10
99.09362000000001
 20
211.4862369999999
 30
0.0
 11
98.10144800000001
 21
212.569
 31
0.0
  0
ARC
  5
3302
330
A
100
AcDbEntity
  8
0
  6
Continuous
 62
     7
100
AcDbCircle
 10
103.4879839999996
 20
211.679489
 30
0.0
 40
1.006791999999999
100
AcDbArc
 50
57.091453
 51
89.886054
  0
LINE
  5
3303
330
A
100
AcDbEntity
  8
0
  6
Continuous
 62
     7
 48
0.122968
100
AcDbLine
 10
98.571266
 20
212.6862339999999
 30
0.0
 11
103.489983
 21
212.6862339999999
 31
0.0
  0
ARC
  5
3304
330
A
100
AcDbEntity
  8
0
  6
Continuous
 62
     7
100
AcDbCircle
 10
98.57249500000001
 20
211.681335
 30
0.0
 40
1.004931
100
AcDbArc
 50
90.06988900000001
 51
117.9525989999999
  0
LINE
  5
3305
330
A
100
AcDbEntity
  8
0
  6
Continuous
 62
     7
 48
0.031569
100
AcDbLine
 10
55.332912
 20
207.7331239999999
 30
0.0
 11
56.263924
 21
208.586243
 31
0.0
  0
ARC
  5
3306
330
A
100
AcDbEntity
  8
0
  6
Continuous
 62
     7
100
AcDbCircle
 10
55.56582299999998
 20
208.288208
 30
0.0
 40
0.601973
100
AcDbArc
 50
247.237184
 51
269.962233
  0
LINE
  5
3307
330
A
100
AcDbEntity
  8
0
  6
Continuous
 62
     7
 48
0.042474
100
AcDbLine
 10
56.263924
 20
208.586243
 30
0.0
 11
57.962902
 21
208.586243
 31
0.0
  0
LINE
  5
3308
330
A
100
AcDbEntity
  8
0
  6
Continuous
 62
     7
 48
0.075287
100
AcDbLine
 10
58.576889
 20
207.686234
 30
0.0
 11
55.565426
 21
207.686234
 31
0.0
  0
ARC
  5
3309
330
A
100
AcDbEntity
  8
0
  6
Continuous
 62
     7
100
AcDbCircle
 10
58.57670600000001
 20
208.2873839999999
 30
0.0
 40
0.601153
100
AcDbArc
 50
270.017264
 51
287.858415
  0
LINE
  5
330A
330
A
100
AcDbEntity
  8
0
  6
Continuous
 62
     7
 48
0.029535
100
AcDbLine
 10
57.962902
 20
208.586243
 30
0.0
 11
58.76105899999998
 21
207.71521
 31
0.0
  0
LINE
  5
330B
330
A
100
AcDbEntity
  8
0
  6
Continuous
 62
     7
 48
0.022773
100
AcDbLine
 10
98.08551000000001
 20
206.6708219999999
 30
0.0
 11
98.75712599999999
 21
207.2862399999999
 31
0.0
  0
LINE
  5
330C
330
A
100
AcDbEntity
  8
0
  6
Continuous
 62
     7
 48
0.019822
100
AcDbLine
 10
98.621178
 20
206.0862429999999
 30
0.0
 11
98.08551000000001
 21
206.6708219999999
 31
0.0
  0
LINE
  5
330D
330
A
100
AcDbEntity
  8
0
  6
Continuous
 62
     7
 48
0.095201
100
AcDbLine
 10
98.75712599999999
 20
207.2862399999999
 30
0.0
 11
102.5651859999999
 21
207.2862399999999
 31
0.0
  0
LINE
  5
330E
330
A
100
AcDbEntity
  8
0
  6
Continuous
 62
     7
 48
0.095201
100
AcDbLine
 10
102.4292369999999
 20
206.0862429999999
 30
0.0
 11
98.621178
 21
206.0862429999999
 31
0.0
  0
LINE
  5
330F
330
A
100
AcDbEntity
  8
0
  6
Continuous
 62
     7
 48
0.022773
100
AcDbLine
 10
103.100853
 20
206.70166
 30
0.0
 11
102.4292369999999
 21
206.0862429999999
 31
0.0
  0
LINE
  5
3310
330
A
100
AcDbEntity
  8
0
  6
Continuous
 62
     7
 48
0.019822
100
AcDbLine
 10
102.5651859999999
 20
207.2862399999999
 30
0.0
 11
103.100853
 21
206.70166
 31
0.0
  0
LINE
  5
3311
330
A
100
AcDbEntity
  8
0
  6
Continuous
 62
     7
 48
0.117787
100
AcDbLine
 10
86.22761500000001
 20
230.086243
 30
0.0
 11
81.51612099999999
 21
230.086243
 31
0.0
  0
LINE
  5
3312
330
A
100
AcDbEntity
  8
0
  6
Continuous
 62
     7
 48
0.050964
100
AcDbLine
 10
87.73061400000001
 20
231.46347
 30
0.0
 11
86.22761500000001
 21
230.086243
 31
0.0
  0
LINE
  5
3313
330
A
100
AcDbEntity
  8
0
  6
Continuous
 62
     7
 48
0.048632
100
AcDbLine
 10
81.51612099999999
 20
230.086243
 30
0.0
 11
80.201904
 21
231.520462
 31
0.0
  0
ARC
  5
3314
330
A
100
AcDbEntity
  8
0
  6
Continuous
 62
     7
100
AcDbCircle
 10
87.03124200000003
 20
230.477036
 30
0.0
 40
1.20926
100
AcDbArc
 50
54.66419399999999
 51
89.860503
  0
LINE
  5
3315
330
A
100
AcDbEntity
  8
0
  6
Continuous
 62
     7
 48
0.155592
100
AcDbLine
 10
80.81050899999999
 20
231.686249
 30
0.0
 11
87.034187
 21
231.686249
 31
0.0
  0
ARC
  5
3316
330
A
100
AcDbEntity
  8
0
  6
Continuous
 62
     7
100
AcDbCircle
 10
80.812393
 20
230.4793089999999
 30
0.0
 40
1.206971999999999
100
AcDbArc
 50
90.08973799999999
 51
120.385567
  0
LINE
  5
3317
330
A
100
AcDbEntity
  8
0
  6
Continuous
 62
     7
 48
0.019822
100
AcDbLine
 10
103.438644
 20
206.333023
 30
0.0
 11
103.974319
 21
205.748444
 31
0.0
  0
LINE
  5
3318
330
A
100
AcDbEntity
  8
0
  6
Continuous
 62
     7
 48
0.022773
100
AcDbLine
 10
102.767029
 20
205.717606
 30
0.0
 11
103.438644
 21
206.333023
 31
0.0
  0
LINE
  5
3319
330
A
100
AcDbEntity
  8
0
  6
Continuous
 62
     7
 48
0.10413
100
AcDbLine
 10
103.974319
 20
205.748444
 30
0.0
 11
103.61129
 21
201.5990909999999
 31
0.0
  0
LINE
  5
331A
330
A
100
AcDbEntity
  8
0
  6
Continuous
 62
     7
 48
0.087673
100
AcDbLine
 10
102.4613879999999
 20
202.2240299999999
 30
0.0
 11
102.767029
 21
205.717606
 31
0.0
  0
LINE
  5
331B
330
A
100
AcDbEntity
  8
0
  6
Continuous
 62
     7
 48
0.036715
100
AcDbLine
 10
103.4535519999999
 20
201.1412659999999
 30
0.0
 11
102.4613879999999
 21
202.2240299999999
 31
0.0
  0
ARC
  5
331C
330
A
100
AcDbEntity
  8
0
  6
Continuous
 62
     7
100
AcDbCircle
 10
102.610313
 20
201.687897
 30
0.0
 40
1.004931
100
AcDbArc
 50
327.047401
 51
354.9301129999998
  0
LINE
  5
331D
330
A
100
AcDbEntity
  8
0
  6
Continuous
 62
     7
 48
0.036227
100
AcDbLine
 10
56.05136899999999
 20
210.3984379999999
 30
0.0
 11
55.925072
 21
208.95488
 31
0.0
  0
LINE
  5
331E
330
A
100
AcDbEntity
  8
0
  6
Continuous
 62
     7
 48
0.014736
100
AcDbLine
 10
55.653149
 20
210.8330229999999
 30
0.0
 11
56.05136899999999
 21
210.3984379999999
 31
0.0
  0
LINE
  5
331F
330
A
100
AcDbEntity
  8
0
  6
Continuous
 62
     7
 48
0.031558
100
AcDbLine
 10
55.925072
 20
208.95488
 30
0.0
 11
54.99439200000001
 21
208.1020659999999
 31
0.0
  0
LINE
  5
3320
330
A
100
AcDbEntity
  8
0
  6
Continuous
 62
     7
 48
0.017223
100
AcDbLine
 10
55.145233
 20
210.367599
 30
0.0
 11
55.653149
 21
210.8330229999999
 31
0.0
  0
LINE
  5
3321
330
A
100
AcDbEntity
  8
0
  6
Continuous
 62
     7
 48
0.05092
100
AcDbLine
 10
54.967712
 20
208.338531
 30
0.0
 11
55.145233
 21
210.367599
 31
0.0
  0
ARC
  5
3322
330
A
100
AcDbEntity
  8
0
  6
Continuous
 62
     7
100
AcDbCircle
 10
55.567436
 20
208.286469
 30
0.0
 40
0.6019860000000003
100
AcDbArc
 50
175.0381459999999
 51
197.837536
  0
ARC
  5
3323
330
A
100
AcDbEntity
  8
0
  6
Continuous
 62
     7
100
AcDbCircle
 10
102.613876
 20
201.691147
 30
0.0
 40
1.004931
100
AcDbArc
 50
270.069884
 51
297.952602
  0
LINE
  5
3324
330
A
100
AcDbEntity
  8
0
  6
Continuous
 62
     7
 48
0.036715
100
AcDbLine
 10
102.0927429999999
 20
201.886246
 30
0.0
 11
103.084915
 21
200.803482
 31
0.0
  0
LINE
  5
3325
330
A
100
AcDbEntity
  8
0
  6
Continuous
 62
     7
 48
0.122968
100
AcDbLine
 10
102.6150969999999
 20
200.686234
 30
0.0
 11
97.69638100000001
 21
200.686234
 31
0.0
  0
LINE
  5
3326
330
A
100
AcDbEntity
  8
0
  6
Continuous
 62
     7
 48
0.095201
100
AcDbLine
 10
98.28469099999999
 20
201.886246
 30
0.0
 11
102.0927429999999
 21
201.886246
 31
0.0
  0
LINE
  5
3327
330
A
100
AcDbEntity
  8
0
  6
Continuous
 62
     7
 48
0.038428
100
AcDbLine
 10
97.151413
 20
200.847778
 30
0.0
 11
98.28469099999999
 21
201.886246
 31
0.0
  0
ARC
  5
3328
330
A
100
AcDbEntity
  8
0
  6
Continuous
 62
     7
100
AcDbCircle
 10
97.69838
 20
201.6929929999998
 30
0.0
 40
1.006791999999999
100
AcDbArc
 50
237.091455
 51
269.8860559999999
  0
LINE
  5
3329
330
A
100
AcDbEntity
  8
0
  6
Continuous
 62
     7
 48
0.026604
100
AcDbLine
 10
105.873222
 20
224.539459
 30
0.0
 11
105.1542889999999
 21
225.3240359999999
 31
0.0
  0
LINE
  5
332A
330
A
100
AcDbEntity
  8
0
  6
Continuous
 62
     7
 48
0.030174
100
AcDbLine
 10
106.7630999999999
 20
225.354874
 30
0.0
 11
105.873222
 21
224.539459
 31
0.0
  0
LINE
  5
332B
330
A
100
AcDbEntity
  8
0
  6
Continuous
 62
     7
 48
0.132173
100
AcDbLine
 10
105.1542889999999
 20
225.3240359999999
 30
0.0
 11
105.6150739999999
 21
230.59082
 31
0.0
  0
LINE
  5
332C
330
A
100
AcDbEntity
  8
0
  6
Continuous
 62
     7
 48
0.110259
100
AcDbLine
 10
107.147484
 20
229.748444
 30
0.0
 11
106.7630999999999
 21
225.354874
 31
0.0
  0
LINE
  5
332D
330
A
100
AcDbEntity
  8
0
  6
Continuous
 62
     7
 48
0.048632
100
AcDbLine
 10
105.8332669999999
 20
231.182663
 30
0.0
 11
107.147484
 21
229.748444
 31
0.0
  0
ARC
  5
332E
330
A
100
AcDbEntity
  8
0
  6
Continuous
 62
     7
100
AcDbCircle
 10
106.817253
 20
230.483749
 30
0.0
 40
1.206971999999999
100
AcDbArc
 50
144.614434
 51
174.910271
  0
LINE
  5
332F
330
A
100
AcDbEntity
  8
0
  6
Continuous
 62
     7
 48
0.087673
100
AcDbLine
 10
98.25254100000002
 20
205.748444
 30
0.0
 11
97.946892
 21
202.254883
 31
0.0
  0
LINE
  5
3330
330
A
100
AcDbEntity
  8
0
  6
Continuous
 62
     7
 48
0.019822
100
AcDbLine
 10
97.71687300000001
 20
206.333023
 30
0.0
 11
98.25254100000002
 21
205.748444
 31
0.0
  0
LINE
  5
3331
330
A
100
AcDbEntity
  8
0
  6
Continuous
 62
     7
 48
0.038428
100
AcDbLine
 10
97.946892
 20
202.254883
 30
0.0
 11
96.813614
 21
201.2164149999999
 31
0.0
  0
LINE
  5
3332
330
A
100
AcDbEntity
  8
0
  6
Continuous
 62
     7
 48
0.022773
100
AcDbLine
 10
97.04525799999998
 20
205.717606
 30
0.0
 11
97.71687300000001
 21
206.333023
 31
0.0
  0
LINE
  5
3333
330
A
100
AcDbEntity
  8
0
  6
Continuous
 62
     7
 48
0.098982
100
AcDbLine
 10
96.70018800000001
 20
201.7733919999999
 30
0.0
 11
97.04525799999998
 21
205.717606
 31
0.0
  0
ARC
  5
3334
330
A
100
AcDbEntity
  8
0
  6
Continuous
 62
     7
100
AcDbCircle
 10
97.70328499999999
 20
201.687653
 30
0.0
 40
1.006791999999999
100
AcDbArc
 50
175.1139479999999
 51
207.9085389999999
  0
LINE
  5
3335
330
A
100
AcDbEntity
  8
0
  6
Continuous
 62
     7
 48
0.014736
100
AcDbLine
 10
56.42000600000001
 20
210.736237
 30
0.0
 11
56.02179
 21
211.170822
 31
0.0
  0
LINE
  5
3336
330
A
100
AcDbEntity
  8
0
  6
Continuous
 62
     7
 48
0.042501
100
AcDbLine
 10
58.120041
 20
210.736237
 30
0.0
 11
56.42000600000001
 21
210.736237
 31
0.0
  0
LINE
  5
3337
330
A
100
AcDbEntity
  8
0
  6
Continuous
 62
     7
 48
0.017223
100
AcDbLine
 10
56.02179
 20
211.170822
 30
0.0
 11
56.52970899999999
 21
211.6362459999999
 31
0.0
  0
LINE
  5
3338
330
A
100
AcDbEntity
  8
0
  6
Continuous
 62
     7
 48
0.017223
100
AcDbLine
 10
58.62795999999999
 20
211.20166
 30
0.0
 11
58.120041
 21
210.736237
 31
0.0
  0
LINE
  5
3339
330
A
100
AcDbEntity
  8
0
  6
Continuous
 62
     7
 48
0.014736
100
AcDbLine
 10
58.22974399999999
 20
211.6362459999999
 30
0.0
 11
58.62795999999999
 21
211.20166
 31
0.0
  0
LINE
  5
333A
330
A
100
AcDbEntity
  8
0
  6
Continuous
 62
     7
 48
0.042501
100
AcDbLine
 10
56.52970899999999
 20
211.6362459999999
 30
0.0
 11
58.22974399999999
 21
211.6362459999999
 31
0.0
  0
LINE
  5
333B
330
A
100
AcDbEntity
  8
0
  6
Continuous
 62
     7
 48
0.019822
100
AcDbLine
 10
97.74771900000001
 20
207.039459
 30
0.0
 11
97.212051
 21
207.6240389999999
 31
0.0
  0
LINE
  5
333C
330
A
100
AcDbEntity
  8
0
  6
Continuous
 62
     7
 48
0.022773
100
AcDbLine
 10
98.419334
 20
207.654877
 30
0.0
 11
97.74771900000001
 21
207.039459
 31
0.0
  0
LINE
  5
333D
330
A
100
AcDbEntity
  8
0
  6
Continuous
 62
     7
 48
0.10413
100
AcDbLine
 10
97.212051
 20
207.6240389999999
 30
0.0
 11
97.575073
 21
211.773392
 31
0.0
  0
LINE
  5
333E
330
A
100
AcDbEntity
  8
0
  6
Continuous
 62
     7
 48
0.087673
100
AcDbLine
 10
98.724983
 20
211.1484379999999
 30
0.0
 11
98.419334
 21
207.654877
 31
0.0
  0
LINE
  5
333F
330
A
100
AcDbEntity
  8
0
  6
Continuous
 62
     7
 48
0.036715
100
AcDbLine
 10
97.732811
 20
212.2312009999999
 30
0.0
 11
98.724983
 21
211.1484379999999
 31
0.0
  0
ARC
  5
3340
330
A
100
AcDbEntity
  8
0
  6
Continuous
 62
     7
100
AcDbCircle
 10
98.57604999999999
 20
211.684586
 30
0.0
 40
1.004931
100
AcDbArc
 50
147.047401
 51
174.9301199999999
  0
LINE
  5
3341
330
A
100
AcDbEntity
  8
0
  6
Continuous
 62
     7
 48
0.110259
100
AcDbLine
 10
86.18103000000003
 20
225.3240359999999
 30
0.0
 11
86.565414
 21
229.717606
 31
0.0
  0
LINE
  5
3342
330
A
100
AcDbEntity
  8
0
  6
Continuous
 62
     7
 48
0.026604
100
AcDbLine
 10
86.899963
 20
224.539459
 30
0.0
 11
86.18103000000003
 21
225.3240359999999
 31
0.0
  0
LINE
  5
3343
330
A
100
AcDbEntity
  8
0
  6
Continuous
 62
     7
 48
0.050964
100
AcDbLine
 10
86.565414
 20
229.717606
 30
0.0
 11
88.06840499999998
 21
231.094849
 31
0.0
  0
LINE
  5
3344
330
A
100
AcDbEntity
  8
0
  6
Continuous
 62
     7
 48
0.030174
100
AcDbLine
 10
87.789841
 20
225.354874
 30
0.0
 11
86.899963
 21
224.539459
 31
0.0
  0
LINE
  5
3345
330
A
100
AcDbEntity
  8
0
  6
Continuous
 62
     7
 48
0.12615
100
AcDbLine
 10
88.22962199999997
 20
230.3816529999999
 30
0.0
 11
87.789841
 21
225.354874
 31
0.0
  0
ARC
  5
3346
330
A
100
AcDbEntity
  8
0
  6
Continuous
 62
     7
100
AcDbCircle
 10
87.02466599999999
 20
230.484085
 30
0.0
 40
1.209362999999997
100
AcDbArc
 50
355.1409779999998
 51
30.334319
  0
CIRCLE
  5
3347
330
A
100
AcDbEntity
  8
0
  6
Continuous
 62
     7
100
AcDbCircle
 10
94.93142699999999
 20
201.2862399999999
 30
0.0
 40
0.6
  0
ARC
  5
3348
330
A
100
AcDbEntity
  8
0
  6
Continuous
 62
     7
100
AcDbCircle
 10
58.575752
 20
208.286514
 30
0.0
 40
0.601153
100
AcDbArc
 50
337.1415819999997
 51
354.982737
  0
LINE
  5
3349
330
A
100
AcDbEntity
  8
0
  6
Continuous
 62
     7
 48
0.054319
100
AcDbLine
 10
59.363972
 20
210.3984379999999
 30
0.0
 11
59.17460300000001
 21
208.2339479999999
 31
0.0
  0
LINE
  5
334A
330
A
100
AcDbEntity
  8
0
  6
Continuous
 62
     7
 48
0.029536
100
AcDbLine
 10
59.129696
 20
208.0529939999999
 30
0.0
 11
58.331543
 21
208.9240419999999
 31
0.0
  0
LINE
  5
334B
330
A
100
AcDbEntity
  8
0
  6
Continuous
 62
     7
 48
0.014736
100
AcDbLine
 10
58.965755
 20
210.8330229999999
 30
0.0
 11
59.363972
 21
210.3984379999999
 31
0.0
  0
LINE
  5
334C
330
A
100
AcDbEntity
  8
0
  6
Continuous
 62
     7
 48
0.017223
100
AcDbLine
 10
58.457836
 20
210.367599
 30
0.0
 11
58.965755
 21
210.8330229999999
 31
0.0
  0
LINE
  5
334D
330
A
100
AcDbEntity
  8
0
  6
Continuous
 62
     7
 48
0.036227
100
AcDbLine
 10
58.331543
 20
208.9240419999999
 30
0.0
 11
58.457836
 21
210.367599
 31
0.0
  0
ARC
  5
334E
330
A
100
AcDbEntity
  8
0
  6
Continuous
 62
     7
100
AcDbCircle
 10
92.613876
 20
201.691147
 30
0.0
 40
1.004931
100
AcDbArc
 50
270.069884
 51
297.952602
  0
LINE
  5
334F
330
A
100
AcDbEntity
  8
0
  6
Continuous
 62
     7
 48
0.036715
100
AcDbLine
 10
92.092743
 20
201.886246
 30
0.0
 11
93.084915
 21
200.803482
 31
0.0
  0
LINE
  5
3350
330
A
100
AcDbEntity
  8
0
  6
Continuous
 62
     7
 48
0.122968
100
AcDbLine
 10
92.61509700000001
 20
200.686234
 30
0.0
 11
87.69638099999998
 21
200.686234
 31
0.0
  0
LINE
  5
3351
330
A
100
AcDbEntity
  8
0
  6
Continuous
 62
     7
 48
0.095201
100
AcDbLine
 10
88.28469100000004
 20
201.886246
 30
0.0
 11
92.092743
 21
201.886246
 31
0.0
  0
LINE
  5
3352
330
A
100
AcDbEntity
  8
0
  6
Continuous
 62
     7
 48
0.038428
100
AcDbLine
 10
87.151413
 20
200.847778
 30
0.0
 11
88.28469100000004
 21
201.886246
 31
0.0
  0
ARC
  5
3353
330
A
100
AcDbEntity
  8
0
  6
Continuous
 62
     7
100
AcDbCircle
 10
87.69838
 20
201.6929929999998
 30
0.0
 40
1.006791999999999
100
AcDbArc
 50
237.091455
 51
269.8860559999999
  0
LINE
  5
3354
330
A
100
AcDbEntity
  8
0
  6
Continuous
 62
     7
 48
0.087673
100
AcDbLine
 10
88.252541
 20
205.748444
 30
0.0
 11
87.946892
 21
202.254883
 31
0.0
  0
LINE
  5
3355
330
A
100
AcDbEntity
  8
0
  6
Continuous
 62
     7
 48
0.019822
100
AcDbLine
 10
87.71687299999998
 20
206.333023
 30
0.0
 11
88.252541
 21
205.748444
 31
0.0
  0
LINE
  5
3356
330
A
100
AcDbEntity
  8
0
  6
Continuous
 62
     7
 48
0.038428
100
AcDbLine
 10
87.946892
 20
202.254883
 30
0.0
 11
86.813614
 21
201.2164149999999
 31
0.0
  0
LINE
  5
3357
330
A
100
AcDbEntity
  8
0
  6
Continuous
 62
     7
 48
0.022773
100
AcDbLine
 10
87.04525799999997
 20
205.717606
 30
0.0
 11
87.71687299999998
 21
206.333023
 31
0.0
  0
LINE
  5
3358
330
A
100
AcDbEntity
  8
0
  6
Continuous
 62
     7
 48
0.098982
100
AcDbLine
 10
86.70018799999999
 20
201.7733919999999
 30
0.0
 11
87.04525799999997
 21
205.717606
 31
0.0
  0
ARC
  5
3359
330
A
100
AcDbEntity
  8
0
  6
Continuous
 62
     7
100
AcDbCircle
 10
87.70328499999996
 20
201.687653
 30
0.0
 40
1.006791999999999
100
AcDbArc
 50
175.1139479999999
 51
207.9085389999999
  0
LINE
  5
335A
330
A
100
AcDbEntity
  8
0
  6
Continuous
 62
     7
 48
0.036227
100
AcDbLine
 10
58.59838100000001
 20
211.9740299999999
 30
0.0
 11
58.724678
 21
213.4176029999999
 31
0.0
  0
LINE
  5
335B
330
A
100
AcDbEntity
  8
0
  6
Continuous
 62
     7
 48
0.014736
100
AcDbLine
 10
58.99659699999999
 20
211.539459
 30
0.0
 11
58.59838100000001
 21
211.9740299999999
 31
0.0
  0
LINE
  5
335C
330
A
100
AcDbEntity
  8
0
  6
Continuous
 62
     7
 48
0.031558
100
AcDbLine
 10
58.724678
 20
213.4176029999999
 30
0.0
 11
59.655357
 21
214.270416
 31
0.0
  0
LINE
  5
335D
330
A
100
AcDbEntity
  8
0
  6
Continuous
 62
     7
 48
0.017223
100
AcDbLine
 10
59.50451700000001
 20
212.0048829999999
 30
0.0
 11
58.99659699999999
 21
211.539459
 31
0.0
  0
LINE
  5
335E
330
A
100
AcDbEntity
  8
0
  6
Continuous
 62
     7
 48
0.05092
100
AcDbLine
 10
59.682037
 20
214.033951
 30
0.0
 11
59.50451700000001
 21
212.0048829999999
 31
0.0
  0
ARC
  5
335F
330
A
100
AcDbEntity
  8
0
  6
Continuous
 62
     7
100
AcDbCircle
 10
59.082314
 20
214.086014
 30
0.0
 40
0.6019860000000003
100
AcDbArc
 50
355.0381409999998
 51
17.837541
  0
LINE
  5
3360
330
A
100
AcDbEntity
  8
0
  6
Continuous
 62
     7
 48
0.019822
100
AcDbLine
 10
93.43864399999999
 20
206.333023
 30
0.0
 11
93.97431899999999
 21
205.748444
 31
0.0
  0
LINE
  5
3361
330
A
100
AcDbEntity
  8
0
  6
Continuous
 62
     7
 48
0.022773
100
AcDbLine
 10
92.76702900000001
 20
205.717606
 30
0.0
 11
93.43864399999999
 21
206.333023
 31
0.0
  0
LINE
  5
3362
330
A
100
AcDbEntity
  8
0
  6
Continuous
 62
     7
 48
0.10413
100
AcDbLine
 10
93.97431899999999
 20
205.748444
 30
0.0
 11
93.61129
 21
201.5990909999999
 31
0.0
  0
LINE
  5
3363
330
A
100
AcDbEntity
  8
0
  6
Continuous
 62
     7
 48
0.087673
100
AcDbLine
 10
92.461388
 20
202.2240299999999
 30
0.0
 11
92.76702900000001
 21
205.717606
 31
0.0
  0
LINE
  5
3364
330
A
100
AcDbEntity
  8
0
  6
Continuous
 62
     7
 48
0.036715
100
AcDbLine
 10
93.453552
 20
201.1412659999999
 30
0.0
 11
92.461388
 21
202.2240299999999
 31
0.0
  0
ARC
  5
3365
330
A
100
AcDbEntity
  8
0
  6
Continuous
 62
     7
100
AcDbCircle
 10
92.610313
 20
201.687897
 30
0.0
 40
1.004931
100
AcDbArc
 50
327.047401
 51
354.9301129999998
  0
LINE
  5
3366
330
A
100
AcDbEntity
  8
0
  6
Continuous
 62
     7
 48
0.026604
100
AcDbLine
 10
86.869118
 20
223.8330229999998
 30
0.0
 11
87.58805100000001
 21
223.0484469999999
 31
0.0
  0
LINE
  5
3367
330
A
100
AcDbEntity
  8
0
  6
Continuous
 62
     7
 48
0.030174
100
AcDbLine
 10
85.97924
 20
223.017609
 30
0.0
 11
86.869118
 21
223.8330229999998
 31
0.0
  0
LINE
  5
3368
330
A
100
AcDbEntity
  8
0
  6
Continuous
 62
     7
 48
0.132173
100
AcDbLine
 10
87.58805100000001
 20
223.0484469999999
 30
0.0
 11
87.12726600000001
 21
217.781647
 31
0.0
  0
LINE
  5
3369
330
A
100
AcDbEntity
  8
0
  6
Continuous
 62
     7
 48
0.110259
100
AcDbLine
 10
85.59484899999999
 20
218.624039
 30
0.0
 11
85.97924
 21
223.017609
 31
0.0
  0
LINE
  5
336A
330
A
100
AcDbEntity
  8
0
  6
Continuous
 62
     7
 48
0.048632
100
AcDbLine
 10
86.90907299999997
 20
217.1898189999999
 30
0.0
 11
85.59484899999999
 21
218.624039
 31
0.0
  0
ARC
  5
336B
330
A
100
AcDbEntity
  8
0
  6
Continuous
 62
     7
100
AcDbCircle
 10
85.92507899999999
 20
217.888733
 30
0.0
 40
1.206971999999999
100
AcDbArc
 50
324.6144339999998
 51
354.910266
  0
LINE
  5
336C
330
A
100
AcDbEntity
  8
0
  6
Continuous
 62
     7
 48
0.022773
100
AcDbLine
 10
88.08550999999999
 20
206.6708219999999
 30
0.0
 11
88.75712599999998
 21
207.2862399999999
 31
0.0
  0
LINE
  5
336D
330
A
100
AcDbEntity
  8
0
  6
Continuous
 62
     7
 48
0.019822
100
AcDbLine
 10
88.621178
 20
206.0862429999999
 30
0.0
 11
88.08550999999999
 21
206.6708219999999
 31
0.0
  0
LINE
  5
336E
330
A
100
AcDbEntity
  8
0
  6
Continuous
 62
     7
 48
0.095201
100
AcDbLine
 10
88.75712599999998
 20
207.2862399999999
 30
0.0
 11
92.56518599999999
 21
207.2862399999999
 31
0.0
  0
LINE
  5
336F
330
A
100
AcDbEntity
  8
0
  6
Continuous
 62
     7
 48
0.095201
100
AcDbLine
 10
92.429237
 20
206.0862429999999
 30
0.0
 11
88.621178
 21
206.0862429999999
 31
0.0
  0
LINE
  5
3370
330
A
100
AcDbEntity
  8
0
  6
Continuous
 62
     7
 48
0.022773
100
AcDbLine
 10
93.100853
 20
206.70166
 30
0.0
 11
92.429237
 21
206.0862429999999
 31
0.0
  0
LINE
  5
3371
330
A
100
AcDbEntity
  8
0
  6
Continuous
 62
     7
 48
0.019822
100
AcDbLine
 10
92.56518599999999
 20
207.2862399999999
 30
0.0
 11
93.100853
 21
206.70166
 31
0.0
  0
ARC
  5
3372
330
A
100
AcDbEntity
  8
0
  6
Continuous
 62
     7
100
AcDbCircle
 10
56.07399
 20
214.0859529999999
 30
0.0
 40
0.601153
100
AcDbArc
 50
157.1415879999999
 51
174.9827389999999
  0
LINE
  5
3373
330
A
100
AcDbEntity
  8
0
  6
Continuous
 62
     7
 48
0.054319
100
AcDbLine
 10
55.28577399999999
 20
211.9740299999999
 30
0.0
 11
55.475143
 21
214.138535
 31
0.0
  0
LINE
  5
3374
330
A
100
AcDbEntity
  8
0
  6
Continuous
 62
     7
 48
0.029535
100
AcDbLine
 10
55.52005
 20
214.3194729999999
 30
0.0
 11
56.31820699999999
 21
213.448441
 31
0.0
  0
LINE
  5
3375
330
A
100
AcDbEntity
  8
0
  6
Continuous
 62
     7
 48
0.014736
100
AcDbLine
 10
55.68399
 20
211.539459
 30
0.0
 11
55.28577399999999
 21
211.9740299999999
 31
0.0
  0
LINE
  5
3376
330
A
100
AcDbEntity
  8
0
  6
Continuous
 62
     7
 48
0.017223
100
AcDbLine
 10
56.19191
 20
212.0048829999999
 30
0.0
 11
55.68399
 21
211.539459
 31
0.0
  0
LINE
  5
3377
330
A
100
AcDbEntity
  8
0
  6
Continuous
 62
     7
 48
0.036227
100
AcDbLine
 10
56.31820699999999
 20
213.448441
 30
0.0
 11
56.19191
 21
212.0048829999999
 31
0.0
  0
LINE
  5
3378
330
A
100
AcDbEntity
  8
0
  6
Continuous
 62
     7
 48
0.019822
100
AcDbLine
 10
87.74771899999995
 20
207.039459
 30
0.0
 11
87.212051
 21
207.6240389999999
 31
0.0
  0
LINE
  5
3379
330
A
100
AcDbEntity
  8
0
  6
Continuous
 62
     7
 48
0.022773
100
AcDbLine
 10
88.419334
 20
207.654877
 30
0.0
 11
87.74771899999995
 21
207.039459
 31
0.0
  0
LINE
  5
337A
330
A
100
AcDbEntity
  8
0
  6
Continuous
 62
     7
 48
0.10413
100
AcDbLine
 10
87.212051
 20
207.6240389999999
 30
0.0
 11
87.575073
 21
211.773392
 31
0.0
  0
LINE
  5
337B
330
A
100
AcDbEntity
  8
0
  6
Continuous
 62
     7
 48
0.087673
100
AcDbLine
 10
88.724983
 20
211.1484379999999
 30
0.0
 11
88.419334
 21
207.654877
 31
0.0
  0
LINE
  5
337C
330
A
100
AcDbEntity
  8
0
  6
Continuous
 62
     7
 48
0.036715
100
AcDbLine
 10
87.732811
 20
212.2312009999999
 30
0.0
 11
88.724983
 21
211.1484379999999
 31
0.0
  0
ARC
  5
337D
330
A
100
AcDbEntity
  8
0
  6
Continuous
 62
     7
100
AcDbCircle
 10
88.57604999999997
 20
211.684586
 30
0.0
 40
1.004931
100
AcDbArc
 50
147.047401
 51
174.9301199999999
  0
LINE
  5
337E
330
A
100
AcDbEntity
  8
0
  6
Continuous
 62
     7
 48
0.110259
100
AcDbLine
 10
106.5613099999999
 20
223.0484469999999
 30
0.0
 11
106.1769259999999
 21
218.6548769999999
 31
0.0
  0
LINE
  5
337F
330
A
100
AcDbEntity
  8
0
  6
Continuous
 62
     7
 48
0.026604
100
AcDbLine
 10
105.842377
 20
223.8330229999998
 30
0.0
 11
106.5613099999999
 21
223.0484469999999
 31
0.0
  0
LINE
  5
3380
330
A
100
AcDbEntity
  8
0
  6
Continuous
 62
     7
 48
0.050964
100
AcDbLine
 10
106.1769259999999
 20
218.6548769999999
 30
0.0
 11
104.6739349999999
 21
217.2776339999999
 31
0.0
  0
LINE
  5
3381
330
A
100
AcDbEntity
  8
0
  6
Continuous
 62
     7
 48
0.030174
100
AcDbLine
 10
104.952499
 20
223.017609
 30
0.0
 11
105.842377
 21
223.8330229999998
 31
0.0
  0
LINE
  5
3382
330
A
100
AcDbEntity
  8
0
  6
Continuous
 62
     7
 48
0.12615
100
AcDbLine
 10
104.5127109999999
 20
217.9908289999999
 30
0.0
 11
104.952499
 21
223.017609
 31
0.0
  0
ARC
  5
3383
330
A
100
AcDbEntity
  8
0
  6
Continuous
 62
     7
100
AcDbCircle
 10
105.717674
 20
217.888397
 30
0.0
 40
1.209362999999997
100
AcDbArc
 50
175.140981
 51
210.334324
  0
LINE
  5
3384
330
A
100
AcDbEntity
  8
0
  6
Continuous
 62
     7
 48
0.087673
100
AcDbLine
 10
92.93382300000001
 20
207.6240389999999
 30
0.0
 11
93.23947099999999
 21
211.117599
 31
0.0
  0
LINE
  5
3385
330
A
100
AcDbEntity
  8
0
  6
Continuous
 62
     7
 48
0.019822
100
AcDbLine
 10
93.46949
 20
207.039459
 30
0.0
 11
92.93382300000001
 21
207.6240389999999
 31
0.0
  0
LINE
  5
3386
330
A
100
AcDbEntity
  8
0
  6
Continuous
 62
     7
 48
0.038428
100
AcDbLine
 10
93.23947099999999
 20
211.117599
 30
0.0
 11
94.372749
 21
212.156052
 31
0.0
  0
LINE
  5
3387
330
A
100
AcDbEntity
  8
0
  6
Continuous
 62
     7
 48
0.022773
100
AcDbLine
 10
94.141106
 20
207.654877
 30
0.0
 11
93.46949
 21
207.039459
 31
0.0
  0
LINE
  5
3388
330
A
100
AcDbEntity
  8
0
  6
Continuous
 62
     7
 48
0.098982
100
AcDbLine
 10
94.486176
 20
211.599091
 30
0.0
 11
94.141106
 21
207.654877
 31
0.0
  0
ARC
  5
3389
330
A
100
AcDbEntity
  8
0
  6
Continuous
 62
     7
100
AcDbCircle
 10
93.483078
 20
211.68483
 30
0.0
 40
1.006791999999999
100
AcDbArc
 50
355.113943
 51
27.908544
  0
LINE
  5
338A
330
A
100
AcDbEntity
  8
0
  6
Continuous
 62
     7
 48
0.031558
100
AcDbLine
 10
59.317558
 20
214.639053
 30
0.0
 11
58.386879
 21
213.7862399999999
 31
0.0
  0
ARC
  5
338B
330
A
100
AcDbEntity
  8
0
  6
Continuous
 62
     7
100
AcDbCircle
 10
59.08391999999999
 20
214.0842589999999
 30
0.0
 40
0.6019860000000003
100
AcDbArc
 50
67.162459
 51
89.96185600000002
  0
LINE
  5
338C
330
A
100
AcDbEntity
  8
0
  6
Continuous
 62
     7
 48
0.042501
100
AcDbLine
 10
58.386879
 20
213.7862399999999
 30
0.0
 11
56.686844
 21
213.7862399999999
 31
0.0
  0
LINE
  5
338D
330
A
100
AcDbEntity
  8
0
  6
Continuous
 62
     7
 48
0.075286
100
AcDbLine
 10
56.07286099999999
 20
214.6862339999999
 30
0.0
 11
59.08432
 21
214.6862339999999
 31
0.0
  0
ARC
  5
338E
330
A
100
AcDbEntity
  8
0
  6
Continuous
 62
     7
100
AcDbCircle
 10
56.073044
 20
214.085083
 30
0.0
 40
0.601153
100
AcDbArc
 50
90.017262
 51
107.8584199999999
  0
LINE
  5
338F
330
A
100
AcDbEntity
  8
0
  6
Continuous
 62
     7
 48
0.029535
100
AcDbLine
 10
56.686844
 20
213.7862399999999
 30
0.0
 11
55.88868699999999
 21
214.657272
 31
0.0
  0
LINE
  5
3390
330
A
100
AcDbEntity
  8
0
  6
Continuous
 62
     7
 48
0.095201
100
AcDbLine
 10
92.90167199999999
 20
211.4862369999999
 30
0.0
 11
89.09361999999999
 21
211.4862369999999
 31
0.0
  0
LINE
  5
3391
330
A
100
AcDbEntity
  8
0
  6
Continuous
 62
     7
 48
0.038428
100
AcDbLine
 10
94.03494999999999
 20
212.524689
 30
0.0
 11
92.90167199999999
 21
211.4862369999999
 31
0.0
  0
LINE
  5
3392
330
A
100
AcDbEntity
  8
0
  6
Continuous
 62
     7
 48
0.036715
100
AcDbLine
 10
89.09361999999999
 20
211.4862369999999
 30
0.0
 11
88.10144800000001
 21
212.569
 31
0.0
  0
ARC
  5
3393
330
A
100
AcDbEntity
  8
0
  6
Continuous
 62
     7
100
AcDbCircle
 10
93.48798399999999
 20
211.679489
 30
0.0
 40
1.006791999999999
100
AcDbArc
 50
57.091453
 51
89.886054
  0
LINE
  5
3394
330
A
100
AcDbEntity
  8
0
  6
Continuous
 62
     7
 48
0.122968
100
AcDbLine
 10
88.571266
 20
212.6862339999999
 30
0.0
 11
93.48998299999999
 21
212.6862339999999
 31
0.0
  0
ARC
  5
3395
330
A
100
AcDbEntity
  8
0
  6
Continuous
 62
     7
100
AcDbCircle
 10
88.57249499999998
 20
211.681335
 30
0.0
 40
1.004931
100
AcDbArc
 50
90.06988900000001
 51
117.9525989999999
  0
ARC
  5
3396
330
A
100
AcDbEntity
  8
0
  6
Continuous
 62
     7
100
AcDbCircle
 10
85.92993900000001
 20
217.8931729999999
 30
0.0
 40
1.206971999999999
100
AcDbArc
 50
270.089733
 51
300.38557
  0
LINE
  5
3397
330
A
100
AcDbEntity
  8
0
  6
Continuous
 62
     7
 48
0.048632
100
AcDbLine
 10
85.22621200000001
 20
218.2862399999999
 30
0.0
 11
86.54043599999999
 21
216.85202
 31
0.0
  0
LINE
  5
3398
330
A
100
AcDbEntity
  8
0
  6
Continuous
 62
     7
 48
0.155592
100
AcDbLine
 10
85.931831
 20
216.6862339999999
 30
0.0
 11
79.708145
 21
216.6862339999999
 31
0.0
  0
LINE
  5
3399
330
A
100
AcDbEntity
  8
0
  6
Continuous
 62
     7
 48
0.117787
100
AcDbLine
 10
80.514717
 20
218.2862399999999
 30
0.0
 11
85.22621200000001
 21
218.2862399999999
 31
0.0
  0
LINE
  5
339A
330
A
100
AcDbEntity
  8
0
  6
Continuous
 62
     7
 48
0.050964
100
AcDbLine
 10
79.01172599999998
 20
216.908997
 30
0.0
 11
80.514717
 21
218.2862399999999
 31
0.0
  0
ARC
  5
339B
330
A
100
AcDbEntity
  8
0
  6
Continuous
 62
     7
100
AcDbCircle
 10
79.71112099999998
 20
217.895538
 30
0.0
 40
1.209362999999997
100
AcDbArc
 50
234.665673
 51
269.859022
  0
LINE
  5
339C
330
A
100
AcDbEntity
  8
0
  6
Continuous
 62
     7
 48
0.087673
100
AcDbLine
 10
82.93382300000002
 20
207.6240389999999
 30
0.0
 11
83.23947099999998
 21
211.117599
 31
0.0
  0
LINE
  5
339D
330
A
100
AcDbEntity
  8
0
  6
Continuous
 62
     7
 48
0.019822
100
AcDbLine
 10
83.46949
 20
207.039459
 30
0.0
 11
82.93382300000002
 21
207.6240389999999
 31
0.0
  0
LINE
  5
339E
330
A
100
AcDbEntity
  8
0
  6
Continuous
 62
     7
 48
0.038428
100
AcDbLine
 10
83.23947099999998
 20
211.117599
 30
0.0
 11
84.372749
 21
212.156052
 31
0.0
  0
LINE
  5
339F
330
A
100
AcDbEntity
  8
0
  6
Continuous
 62
     7
 48
0.022773
100
AcDbLine
 10
84.141106
 20
207.654877
 30
0.0
 11
83.46949
 21
207.039459
 31
0.0
  0
LINE
  5
33A0
330
A
100
AcDbEntity
  8
0
  6
Continuous
 62
     7
 48
0.098982
100
AcDbLine
 10
84.486176
 20
211.599091
 30
0.0
 11
84.141106
 21
207.654877
 31
0.0
  0
ARC
  5
33A1
330
A
100
AcDbEntity
  8
0
  6
Continuous
 62
     7
100
AcDbCircle
 10
83.483078
 20
211.68483
 30
0.0
 40
1.006791999999999
100
AcDbArc
 50
355.113943
 51
27.908544
  0
ARC
  5
33A2
330
A
100
AcDbEntity
  8
0
  6
Continuous
 62
     7
100
AcDbCircle
 10
59.929939
 20
217.8931729999999
 30
0.0
 40
1.206971999999999
100
AcDbArc
 50
270.089733
 51
300.38557
  0
LINE
  5
33A3
330
A
100
AcDbEntity
  8
0
  6
Continuous
 62
     7
 48
0.048632
100
AcDbLine
 10
59.226212
 20
218.2862399999999
 30
0.0
 11
60.54043199999998
 21
216.85202
 31
0.0
  0
LINE
  5
33A4
330
A
100
AcDbEntity
  8
0
  6
Continuous
 62
     7
 48
0.155592
100
AcDbLine
 10
59.931831
 20
216.6862339999999
 30
0.0
 11
53.708149
 21
216.6862339999999
 31
0.0
  0
LINE
  5
33A5
330
A
100
AcDbEntity
  8
0
  6
Continuous
 62
     7
 48
0.117787
100
AcDbLine
 10
54.514717
 20
218.2862399999999
 30
0.0
 11
59.226212
 21
218.2862399999999
 31
0.0
  0
LINE
  5
33A6
330
A
100
AcDbEntity
  8
0
  6
Continuous
 62
     7
 48
0.050964
100
AcDbLine
 10
53.01172600000001
 20
216.908997
 30
0.0
 11
54.514717
 21
218.2862399999999
 31
0.0
  0
ARC
  5
33A7
330
A
100
AcDbEntity
  8
0
  6
Continuous
 62
     7
100
AcDbCircle
 10
53.711124
 20
217.895538
 30
0.0
 40
1.209362999999997
100
AcDbArc
 50
234.665673
 51
269.859022
  0
LINE
  5
33A8
330
A
100
AcDbEntity
  8
0
  6
Continuous
 62
     7
 48
0.095201
100
AcDbLine
 10
82.90167199999997
 20
211.4862369999999
 30
0.0
 11
79.09362
 21
211.4862369999999
 31
0.0
  0
LINE
  5
33A9
330
A
100
AcDbEntity
  8
0
  6
Continuous
 62
     7
 48
0.038428
100
AcDbLine
 10
84.03494999999997
 20
212.524689
 30
0.0
 11
82.90167199999997
 21
211.4862369999999
 31
0.0
  0
LINE
  5
33AA
330
A
100
AcDbEntity
  8
0
  6
Continuous
 62
     7
 48
0.036715
100
AcDbLine
 10
79.09362
 20
211.4862369999999
 30
0.0
 11
78.101448
 21
212.569
 31
0.0
  0
ARC
  5
33AB
330
A
100
AcDbEntity
  8
0
  6
Continuous
 62
     7
100
AcDbCircle
 10
83.48798399999997
 20
211.679489
 30
0.0
 40
1.006791999999999
100
AcDbArc
 50
57.091453
 51
89.886054
  0
LINE
  5
33AC
330
A
100
AcDbEntity
  8
0
  6
Continuous
 62
     7
 48
0.122968
100
AcDbLine
 10
78.571266
 20
212.6862339999999
 30
0.0
 11
83.48998299999998
 21
212.6862339999999
 31
0.0
  0
ARC
  5
33AD
330
A
100
AcDbEntity
  8
0
  6
Continuous
 62
     7
100
AcDbCircle
 10
78.57249499999998
 20
211.681335
 30
0.0
 40
1.004931
100
AcDbArc
 50
90.06988900000001
 51
117.9525989999999
  0
CIRCLE
  5
33AE
330
A
100
AcDbEntity
  8
0
  6
Continuous
 62
     7
100
AcDbCircle
 10
114.931427
 20
217.486237
 30
0.0
 40
0.8
  0
LINE
  5
33AF
330
A
100
AcDbEntity
  8
0
  6
Continuous
 62
     7
 48
0.019822
100
AcDbLine
 10
77.74771899999997
 20
207.039459
 30
0.0
 11
77.212051
 21
207.6240389999999
 31
0.0
  0
LINE
  5
33B0
330
A
100
AcDbEntity
  8
0
  6
Continuous
 62
     7
 48
0.022773
100
AcDbLine
 10
78.41933399999998
 20
207.654877
 30
0.0
 11
77.74771899999997
 21
207.039459
 31
0.0
  0
LINE
  5
33B1
330
A
100
AcDbEntity
  8
0
  6
Continuous
 62
     7
 48
0.10413
100
AcDbLine
 10
77.212051
 20
207.6240389999999
 30
0.0
 11
77.575073
 21
211.773392
 31
0.0
  0
LINE
  5
33B2
330
A
100
AcDbEntity
  8
0
  6
Continuous
 62
     7
 48
0.087673
100
AcDbLine
 10
78.724983
 20
211.1484379999999
 30
0.0
 11
78.41933399999998
 21
207.654877
 31
0.0
  0
LINE
  5
33B3
330
A
100
AcDbEntity
  8
0
  6
Continuous
 62
     7
 48
0.036715
100
AcDbLine
 10
77.732811
 20
212.2312009999999
 30
0.0
 11
78.724983
 21
211.1484379999999
 31
0.0
  0
ARC
  5
33B4
330
A
100
AcDbEntity
  8
0
  6
Continuous
 62
     7
100
AcDbCircle
 10
78.57605699999997
 20
211.684586
 30
0.0
 40
1.004931
100
AcDbArc
 50
147.047401
 51
174.9301199999999
  0
LINE
  5
33B5
330
A
100
AcDbEntity
  8
0
  6
Continuous
 62
     7
 48
0.110259
100
AcDbLine
 10
54.56131
 20
223.0484469999999
 30
0.0
 11
54.176926
 21
218.6548769999999
 31
0.0
  0
LINE
  5
33B6
330
A
100
AcDbEntity
  8
0
  6
Continuous
 62
     7
 48
0.026604
100
AcDbLine
 10
53.84237699999999
 20
223.8330229999998
 30
0.0
 11
54.56131
 21
223.0484469999999
 31
0.0
  0
LINE
  5
33B7
330
A
100
AcDbEntity
  8
0
  6
Continuous
 62
     7
 48
0.050964
100
AcDbLine
 10
54.176926
 20
218.6548769999999
 30
0.0
 11
52.673931
 21
217.2776339999999
 31
0.0
  0
LINE
  5
33B8
330
A
100
AcDbEntity
  8
0
  6
Continuous
 62
     7
 48
0.030174
100
AcDbLine
 10
52.95249899999999
 20
223.017609
 30
0.0
 11
53.84237699999999
 21
223.8330229999998
 31
0.0
  0
LINE
  5
33B9
330
A
100
AcDbEntity
  8
0
  6
Continuous
 62
     7
 48
0.12615
100
AcDbLine
 10
52.512714
 20
217.9908289999999
 30
0.0
 11
52.95249899999999
 21
223.017609
 31
0.0
  0
ARC
  5
33BA
330
A
100
AcDbEntity
  8
0
  6
Continuous
 62
     7
100
AcDbCircle
 10
53.717674
 20
217.888397
 30
0.0
 40
1.209362999999997
100
AcDbArc
 50
175.140981
 51
210.334324
  0
LINE
  5
33BB
330
A
100
AcDbEntity
  8
0
  6
Continuous
 62
     7
 48
0.022773
100
AcDbLine
 10
78.08551
 20
206.6708219999999
 30
0.0
 11
78.75712599999999
 21
207.2862399999999
 31
0.0
  0
LINE
  5
33BC
330
A
100
AcDbEntity
  8
0
  6
Continuous
 62
     7
 48
0.019822
100
AcDbLine
 10
78.621178
 20
206.0862429999999
 30
0.0
 11
78.08551
 21
206.6708219999999
 31
0.0
  0
LINE
  5
33BD
330
A
100
AcDbEntity
  8
0
  6
Continuous
 62
     7
 48
0.095201
100
AcDbLine
 10
78.75712599999999
 20
207.2862399999999
 30
0.0
 11
82.56518599999997
 21
207.2862399999999
 31
0.0
  0
LINE
  5
33BE
330
A
100
AcDbEntity
  8
0
  6
Continuous
 62
     7
 48
0.095201
100
AcDbLine
 10
82.429237
 20
206.0862429999999
 30
0.0
 11
78.621178
 21
206.0862429999999
 31
0.0
  0
LINE
  5
33BF
330
A
100
AcDbEntity
  8
0
  6
Continuous
 62
     7
 48
0.022773
100
AcDbLine
 10
83.100853
 20
206.70166
 30
0.0
 11
82.429237
 21
206.0862429999999
 31
0.0
  0
LINE
  5
33C0
330
A
100
AcDbEntity
  8
0
  6
Continuous
 62
     7
 48
0.019822
100
AcDbLine
 10
82.56518599999997
 20
207.2862399999999
 30
0.0
 11
83.100853
 21
206.70166
 31
0.0
  0
CIRCLE
  5
33C1
330
A
100
AcDbEntity
  8
0
  6
Continuous
 62
     7
100
AcDbCircle
 10
88.931427
 20
217.486237
 30
0.0
 40
0.8
  0
LINE
  5
33C2
330
A
100
AcDbEntity
  8
0
  6
Continuous
 62
     7
 48
0.019822
100
AcDbLine
 10
83.43864399999999
 20
206.333023
 30
0.0
 11
83.97431199999997
 21
205.748444
 31
0.0
  0
LINE
  5
33C3
330
A
100
AcDbEntity
  8
0
  6
Continuous
 62
     7
 48
0.022773
100
AcDbLine
 10
82.76702900000001
 20
205.717606
 30
0.0
 11
83.43864399999999
 21
206.333023
 31
0.0
  0
LINE
  5
33C4
330
A
100
AcDbEntity
  8
0
  6
Continuous
 62
     7
 48
0.10413
100
AcDbLine
 10
83.97431199999997
 20
205.748444
 30
0.0
 11
83.61129
 21
201.5990909999999
 31
0.0
  0
LINE
  5
33C5
330
A
100
AcDbEntity
  8
0
  6
Continuous
 62
     7
 48
0.087673
100
AcDbLine
 10
82.461388
 20
202.2240299999999
 30
0.0
 11
82.76702900000001
 21
205.717606
 31
0.0
  0
LINE
  5
33C6
330
A
100
AcDbEntity
  8
0
  6
Continuous
 62
     7
 48
0.036715
100
AcDbLine
 10
83.453552
 20
201.1412659999999
 30
0.0
 11
82.461388
 21
202.2240299999999
 31
0.0
  0
ARC
  5
33C7
330
A
100
AcDbEntity
  8
0
  6
Continuous
 62
     7
100
AcDbCircle
 10
82.610313
 20
201.687897
 30
0.0
 40
1.004931
100
AcDbArc
 50
327.047401
 51
354.9301129999998
  0
LINE
  5
33C8
330
A
100
AcDbEntity
  8
0
  6
Continuous
 62
     7
 48
0.026604
100
AcDbLine
 10
60.86911800000001
 20
223.8330229999998
 30
0.0
 11
61.588051
 21
223.0484469999999
 31
0.0
  0
LINE
  5
33C9
330
A
100
AcDbEntity
  8
0
  6
Continuous
 62
     7
 48
0.030174
100
AcDbLine
 10
59.97924000000001
 20
223.017609
 30
0.0
 11
60.86911800000001
 21
223.8330229999998
 31
0.0
  0
LINE
  5
33CA
330
A
100
AcDbEntity
  8
0
  6
Continuous
 62
     7
 48
0.132173
100
AcDbLine
 10
61.588051
 20
223.0484469999999
 30
0.0
 11
61.12726600000002
 21
217.781647
 31
0.0
  0
LINE
  5
33CB
330
A
100
AcDbEntity
  8
0
  6
Continuous
 62
     7
 48
0.110259
100
AcDbLine
 10
59.594852
 20
218.624039
 30
0.0
 11
59.97924000000001
 21
223.017609
 31
0.0
  0
LINE
  5
33CC
330
A
100
AcDbEntity
  8
0
  6
Continuous
 62
     7
 48
0.048632
100
AcDbLine
 10
60.909073
 20
217.1898189999999
 30
0.0
 11
59.594852
 21
218.624039
 31
0.0
  0
ARC
  5
33CD
330
A
100
AcDbEntity
  8
0
  6
Continuous
 62
     7
100
AcDbCircle
 10
59.92508299999999
 20
217.888733
 30
0.0
 40
1.206971999999999
100
AcDbArc
 50
324.6144339999998
 51
354.910266
  0
CIRCLE
  5
33CE
330
A
100
AcDbEntity
  8
0
  6
Continuous
 62
     7
100
AcDbCircle
 10
84.93142699999998
 20
201.2862399999999
 30
0.0
 40
0.6
  0
LINE
  5
33CF
330
A
100
AcDbEntity
  8
0
  6
Continuous
 62
     7
 48
0.030174
100
AcDbLine
 10
106.2110139999999
 20
224.170822
 30
0.0
 11
107.1008909999999
 21
224.986237
 31
0.0
  0
LINE
  5
33D0
330
A
100
AcDbEntity
  8
0
  6
Continuous
 62
     7
 48
0.026604
100
AcDbLine
 10
106.929947
 20
223.386246
 30
0.0
 11
106.2110139999999
 21
224.170822
 31
0.0
  0
LINE
  5
33D1
330
A
100
AcDbEntity
  8
0
  6
Continuous
 62
     7
 48
0.117788
100
AcDbLine
 10
107.1008909999999
 20
224.986237
 30
0.0
 11
111.812393
 21
224.986237
 31
0.0
  0
LINE
  5
33D2
330
A
100
AcDbEntity
  8
0
  6
Continuous
 62
     7
 48
0.117788
100
AcDbLine
 10
111.6414489999999
 20
223.386246
 30
0.0
 11
106.929947
 21
223.386246
 31
0.0
  0
LINE
  5
33D3
330
A
100
AcDbEntity
  8
0
  6
Continuous
 62
     7
 48
0.030174
100
AcDbLine
 10
112.531326
 20
224.2016599999999
 30
0.0
 11
111.6414489999999
 21
223.386246
 31
0.0
  0
LINE
  5
33D4
330
A
100
AcDbEntity
  8
0
  6
Continuous
 62
     7
 48
0.026604
100
AcDbLine
 10
111.812393
 20
224.986237
 30
0.0
 11
112.531326
 21
224.2016599999999
 31
0.0
  0
ARC
  5
33D5
330
A
100
AcDbEntity
  8
0
  6
Continuous
 62
     7
100
AcDbCircle
 10
82.61386899999996
 20
201.691147
 30
0.0
 40
1.004931
100
AcDbArc
 50
270.069884
 51
297.952602
  0
LINE
  5
33D6
330
A
100
AcDbEntity
  8
0
  6
Continuous
 62
     7
 48
0.036715
100
AcDbLine
 10
82.092743
 20
201.886246
 30
0.0
 11
83.084915
 21
200.803482
 31
0.0
  0
LINE
  5
33D7
330
A
100
AcDbEntity
  8
0
  6
Continuous
 62
     7
 48
0.122968
100
AcDbLine
 10
82.61509699999997
 20
200.686234
 30
0.0
 11
77.696381
 21
200.686234
 31
0.0
  0
LINE
  5
33D8
330
A
100
AcDbEntity
  8
0
  6
Continuous
 62
     7
 48
0.095201
100
AcDbLine
 10
78.28469100000003
 20
201.886246
 30
0.0
 11
82.092743
 21
201.886246
 31
0.0
  0
LINE
  5
33D9
330
A
100
AcDbEntity
  8
0
  6
Continuous
 62
     7
 48
0.038428
100
AcDbLine
 10
77.151413
 20
200.847778
 30
0.0
 11
78.28469100000003
 21
201.886246
 31
0.0
  0
ARC
  5
33DA
330
A
100
AcDbEntity
  8
0
  6
Continuous
 62
     7
100
AcDbCircle
 10
77.69838
 20
201.6929929999998
 30
0.0
 40
1.006791999999999
100
AcDbArc
 50
237.091455
 51
269.8860559999999
  0
CIRCLE
  5
33DB
330
A
100
AcDbEntity
  8
0
  6
Continuous
 62
     7
100
AcDbCircle
 10
62.931427
 20
217.486237
 30
0.0
 40
0.8
  0
LINE
  5
33DC
330
A
100
AcDbEntity
  8
0
  6
Continuous
 62
     7
 48
0.087673
100
AcDbLine
 10
78.25254100000002
 20
205.748444
 30
0.0
 11
77.946892
 21
202.254883
 31
0.0
  0
LINE
  5
33DD
330
A
100
AcDbEntity
  8
0
  6
Continuous
 62
     7
 48
0.019822
100
AcDbLine
 10
77.71687299999998
 20
206.333023
 30
0.0
 11
78.25254100000002
 21
205.748444
 31
0.0
  0
LINE
  5
33DE
330
A
100
AcDbEntity
  8
0
  6
Continuous
 62
     7
 48
0.038428
100
AcDbLine
 10
77.946892
 20
202.254883
 30
0.0
 11
76.813614
 21
201.2164149999999
 31
0.0
  0
LINE
  5
33DF
330
A
100
AcDbEntity
  8
0
  6
Continuous
 62
     7
 48
0.022773
100
AcDbLine
 10
77.04525799999998
 20
205.717606
 30
0.0
 11
77.71687299999998
 21
206.333023
 31
0.0
  0
LINE
  5
33E0
330
A
100
AcDbEntity
  8
0
  6
Continuous
 62
     7
 48
0.098982
100
AcDbLine
 10
76.700188
 20
201.7733919999999
 30
0.0
 11
77.04525799999998
 21
205.717606
 31
0.0
  0
ARC
  5
33E1
330
A
100
AcDbEntity
  8
0
  6
Continuous
 62
     7
100
AcDbCircle
 10
77.70328499999997
 20
201.687653
 30
0.0
 40
1.006791999999999
100
AcDbArc
 50
175.1139479999999
 51
207.9085389999999
  0
LINE
  5
33E2
330
A
100
AcDbEntity
  8
0
  6
Continuous
 62
     7
 48
0.026604
100
AcDbLine
 10
92.873222
 20
224.539459
 30
0.0
 11
92.154289
 21
225.3240359999999
 31
0.0
  0
LINE
  5
33E3
330
A
100
AcDbEntity
  8
0
  6
Continuous
 62
     7
 48
0.030174
100
AcDbLine
 10
93.7631
 20
225.354874
 30
0.0
 11
92.873222
 21
224.539459
 31
0.0
  0
LINE
  5
33E4
330
A
100
AcDbEntity
  8
0
  6
Continuous
 62
     7
 48
0.132173
100
AcDbLine
 10
92.154289
 20
225.3240359999999
 30
0.0
 11
92.61507400000001
 21
230.59082
 31
0.0
  0
LINE
  5
33E5
330
A
100
AcDbEntity
  8
0
  6
Continuous
 62
     7
 48
0.110259
100
AcDbLine
 10
94.14748399999998
 20
229.748444
 30
0.0
 11
93.7631
 21
225.354874
 31
0.0
  0
LINE
  5
33E6
330
A
100
AcDbEntity
  8
0
  6
Continuous
 62
     7
 48
0.048632
100
AcDbLine
 10
92.83326700000001
 20
231.182663
 30
0.0
 11
94.14748399999998
 21
229.748444
 31
0.0
  0
ARC
  5
33E7
330
A
100
AcDbEntity
  8
0
  6
Continuous
 62
     7
100
AcDbCircle
 10
93.81725299999999
 20
230.483749
 30
0.0
 40
1.206971999999999
100
AcDbArc
 50
144.614434
 51
174.910271
  0
CIRCLE
  5
33E8
330
A
100
AcDbEntity
  8
0
  6
Continuous
 62
     7
100
AcDbCircle
 10
74.93142699999999
 20
201.2862399999999
 30
0.0
 40
0.6
  0
LINE
  5
33E9
330
A
100
AcDbEntity
  8
0
  6
Continuous
 62
     7
 48
0.030174
100
AcDbLine
 10
54.211014
 20
224.170822
 30
0.0
 11
55.100891
 21
224.986237
 31
0.0
  0
LINE
  5
33EA
330
A
100
AcDbEntity
  8
0
  6
Continuous
 62
     7
 48
0.026604
100
AcDbLine
 10
54.929951
 20
223.386246
 30
0.0
 11
54.211014
 21
224.170822
 31
0.0
  0
LINE
  5
33EB
330
A
100
AcDbEntity
  8
0
  6
Continuous
 62
     7
 48
0.117787
100
AcDbLine
 10
55.100891
 20
224.986237
 30
0.0
 11
59.812386
 21
224.986237
 31
0.0
  0
LINE
  5
33EC
330
A
100
AcDbEntity
  8
0
  6
Continuous
 62
     7
 48
0.117787
100
AcDbLine
 10
59.64144499999999
 20
223.386246
 30
0.0
 11
54.929951
 21
223.386246
 31
0.0
  0
LINE
  5
33ED
330
A
100
AcDbEntity
  8
0
  6
Continuous
 62
     7
 48
0.030174
100
AcDbLine
 10
60.531322
 20
224.2016599999999
 30
0.0
 11
59.64144499999999
 21
223.386246
 31
0.0
  0
LINE
  5
33EE
330
A
100
AcDbEntity
  8
0
  6
Continuous
 62
     7
 48
0.026604
100
AcDbLine
 10
59.812386
 20
224.986237
 30
0.0
 11
60.531322
 21
224.2016599999999
 31
0.0
  0
ARC
  5
33EF
330
A
100
AcDbEntity
  8
0
  6
Continuous
 62
     7
100
AcDbCircle
 10
72.61386899999997
 20
201.691147
 30
0.0
 40
1.004931
100
AcDbArc
 50
270.069884
 51
297.952602
  0
LINE
  5
33F0
330
A
100
AcDbEntity
  8
0
  6
Continuous
 62
     7
 48
0.036715
100
AcDbLine
 10
72.092743
 20
201.886246
 30
0.0
 11
73.08491500000002
 21
200.803482
 31
0.0
  0
LINE
  5
33F1
330
A
100
AcDbEntity
  8
0
  6
Continuous
 62
     7
 48
0.122968
100
AcDbLine
 10
72.61509699999997
 20
200.686234
 30
0.0
 11
67.696381
 21
200.686234
 31
0.0
  0
LINE
  5
33F2
330
A
100
AcDbEntity
  8
0
  6
Continuous
 62
     7
 48
0.095201
100
AcDbLine
 10
68.28469100000001
 20
201.886246
 30
0.0
 11
72.092743
 21
201.886246
 31
0.0
  0
LINE
  5
33F3
330
A
100
AcDbEntity
  8
0
  6
Continuous
 62
     7
 48
0.038428
100
AcDbLine
 10
67.151413
 20
200.847778
 30
0.0
 11
68.28469100000001
 21
201.886246
 31
0.0
  0
ARC
  5
33F4
330
A
100
AcDbEntity
  8
0
  6
Continuous
 62
     7
100
AcDbCircle
 10
67.69838
 20
201.6929929999998
 30
0.0
 40
1.006791999999999
100
AcDbArc
 50
237.091455
 51
269.8860559999999
  0
LINE
  5
33F5
330
A
100
AcDbEntity
  8
0
  6
Continuous
 62
     7
 48
0.087673
100
AcDbLine
 10
68.25254100000001
 20
205.748444
 30
0.0
 11
67.946892
 21
202.254883
 31
0.0
  0
LINE
  5
33F6
330
A
100
AcDbEntity
  8
0
  6
Continuous
 62
     7
 48
0.019822
100
AcDbLine
 10
67.71687299999999
 20
206.333023
 30
0.0
 11
68.25254100000001
 21
205.748444
 31
0.0
  0
LINE
  5
33F7
330
A
100
AcDbEntity
  8
0
  6
Continuous
 62
     7
 48
0.038428
100
AcDbLine
 10
67.946892
 20
202.254883
 30
0.0
 11
66.813614
 21
201.2164149999999
 31
0.0
  0
LINE
  5
33F8
330
A
100
AcDbEntity
  8
0
  6
Continuous
 62
     7
 48
0.022773
100
AcDbLine
 10
67.04525799999998
 20
205.717606
 30
0.0
 11
67.71687299999999
 21
206.333023
 31
0.0
  0
LINE
  5
33F9
330
A
100
AcDbEntity
  8
0
  6
Continuous
 62
     7
 48
0.098982
100
AcDbLine
 10
66.700188
 20
201.7733919999999
 30
0.0
 11
67.04525799999998
 21
205.717606
 31
0.0
  0
ARC
  5
33FA
330
A
100
AcDbEntity
  8
0
  6
Continuous
 62
     7
100
AcDbCircle
 10
67.70328499999999
 20
201.687653
 30
0.0
 40
1.006791999999999
100
AcDbArc
 50
175.1139479999999
 51
207.9085389999999
  0
LINE
  5
33FB
330
A
100
AcDbEntity
  8
0
  6
Continuous
 62
     7
 48
0.026604
100
AcDbLine
 10
53.87322199999999
 20
224.539459
 30
0.0
 11
53.154289
 21
225.3240359999999
 31
0.0
  0
LINE
  5
33FC
330
A
100
AcDbEntity
  8
0
  6
Continuous
 62
     7
 48
0.030174
100
AcDbLine
 10
54.7631
 20
225.354874
 30
0.0
 11
53.87322199999999
 21
224.539459
 31
0.0
  0
LINE
  5
33FD
330
A
100
AcDbEntity
  8
0
  6
Continuous
 62
     7
 48
0.132173
100
AcDbLine
 10
53.154289
 20
225.3240359999999
 30
0.0
 11
53.615074
 21
230.59082
 31
0.0
  0
LINE
  5
33FE
330
A
100
AcDbEntity
  8
0
  6
Continuous
 62
     7
 48
0.110259
100
AcDbLine
 10
55.147484
 20
229.748444
 30
0.0
 11
54.7631
 21
225.354874
 31
0.0
  0
LINE
  5
33FF
330
A
100
AcDbEntity
  8
0
  6
Continuous
 62
     7
 48
0.048632
100
AcDbLine
 10
53.83326700000001
 20
231.182663
 30
0.0
 11
55.147484
 21
229.748444
 31
0.0
  0
ARC
  5
3400
330
A
100
AcDbEntity
  8
0
  6
Continuous
 62
     7
100
AcDbCircle
 10
54.817253
 20
230.483749
 30
0.0
 40
1.206971999999999
100
AcDbArc
 50
144.614434
 51
174.910271
  0
LINE
  5
3401
330
A
100
AcDbEntity
  8
0
  6
Continuous
 62
     7
 48
0.019822
100
AcDbLine
 10
73.438644
 20
206.333023
 30
0.0
 11
73.97431199999998
 21
205.748444
 31
0.0
  0
LINE
  5
3402
330
A
100
AcDbEntity
  8
0
  6
Continuous
 62
     7
 48
0.022773
100
AcDbLine
 10
72.767029
 20
205.717606
 30
0.0
 11
73.438644
 21
206.333023
 31
0.0
  0
LINE
  5
3403
330
A
100
AcDbEntity
  8
0
  6
Continuous
 62
     7
 48
0.10413
100
AcDbLine
 10
73.97431199999998
 20
205.748444
 30
0.0
 11
73.61129
 21
201.5990909999999
 31
0.0
  0
LINE
  5
3404
330
A
100
AcDbEntity
  8
0
  6
Continuous
 62
     7
 48
0.087673
100
AcDbLine
 10
72.461388
 20
202.2240299999999
 30
0.0
 11
72.767029
 21
205.717606
 31
0.0
  0
LINE
  5
3405
330
A
100
AcDbEntity
  8
0
  6
Continuous
 62
     7
 48
0.036715
100
AcDbLine
 10
73.453552
 20
201.1412659999999
 30
0.0
 11
72.461388
 21
202.2240299999999
 31
0.0
  0
ARC
  5
3406
330
A
100
AcDbEntity
  8
0
  6
Continuous
 62
     7
100
AcDbCircle
 10
72.610313
 20
201.687897
 30
0.0
 40
1.004931
100
AcDbArc
 50
327.047401
 51
354.9301129999998
  0
LINE
  5
3407
330
A
100
AcDbEntity
  8
0
  6
Continuous
 62
     7
 48
0.110259
100
AcDbLine
 10
93.56131000000001
 20
223.0484469999999
 30
0.0
 11
93.17692599999999
 21
218.6548769999999
 31
0.0
  0
LINE
  5
3408
330
A
100
AcDbEntity
  8
0
  6
Continuous
 62
     7
 48
0.026604
100
AcDbLine
 10
92.842377
 20
223.8330229999998
 30
0.0
 11
93.56131000000001
 21
223.0484469999999
 31
0.0
  0
LINE
  5
3409
330
A
100
AcDbEntity
  8
0
  6
Continuous
 62
     7
 48
0.050964
100
AcDbLine
 10
93.17692599999999
 20
218.6548769999999
 30
0.0
 11
91.67393500000001
 21
217.2776339999999
 31
0.0
  0
LINE
  5
340A
330
A
100
AcDbEntity
  8
0
  6
Continuous
 62
     7
 48
0.030174
100
AcDbLine
 10
91.952499
 20
223.017609
 30
0.0
 11
92.842377
 21
223.8330229999998
 31
0.0
  0
LINE
  5
340B
330
A
100
AcDbEntity
  8
0
  6
Continuous
 62
     7
 48
0.12615
100
AcDbLine
 10
91.51271800000001
 20
217.9908289999999
 30
0.0
 11
91.952499
 21
223.017609
 31
0.0
  0
ARC
  5
340C
330
A
100
AcDbEntity
  8
0
  6
Continuous
 62
     7
100
AcDbCircle
 10
92.71767399999999
 20
217.888397
 30
0.0
 40
1.209362999999997
100
AcDbArc
 50
175.140981
 51
210.334324
  0
LINE
  5
340D
330
A
100
AcDbEntity
  8
0
  6
Continuous
 62
     7
 48
0.022773
100
AcDbLine
 10
68.08551
 20
206.6708219999999
 30
0.0
 11
68.75712599999999
 21
207.2862399999999
 31
0.0
  0
LINE
  5
340E
330
A
100
AcDbEntity
  8
0
  6
Continuous
 62
     7
 48
0.019822
100
AcDbLine
 10
68.621178
 20
206.0862429999999
 30
0.0
 11
68.08551
 21
206.6708219999999
 31
0.0
  0
LINE
  5
340F
330
A
100
AcDbEntity
  8
0
  6
Continuous
 62
     7
 48
0.095201
100
AcDbLine
 10
68.75712599999999
 20
207.2862399999999
 30
0.0
 11
72.56518599999998
 21
207.2862399999999
 31
0.0
  0
LINE
  5
3410
330
A
100
AcDbEntity
  8
0
  6
Continuous
 62
     7
 48
0.095201
100
AcDbLine
 10
72.429237
 20
206.0862429999999
 30
0.0
 11
68.621178
 21
206.0862429999999
 31
0.0
  0
LINE
  5
3411
330
A
100
AcDbEntity
  8
0
  6
Continuous
 62
     7
 48
0.022773
100
AcDbLine
 10
73.100853
 20
206.70166
 30
0.0
 11
72.429237
 21
206.0862429999999
 31
0.0
  0
LINE
  5
3412
330
A
100
AcDbEntity
  8
0
  6
Continuous
 62
     7
 48
0.019822
100
AcDbLine
 10
72.56518599999998
 20
207.2862399999999
 30
0.0
 11
73.100853
 21
206.70166
 31
0.0
  0
LINE
  5
3413
330
A
100
AcDbEntity
  8
0
  6
Continuous
 62
     7
 48
0.117787
100
AcDbLine
 10
60.22761899999999
 20
230.086243
 30
0.0
 11
55.516125
 21
230.086243
 31
0.0
  0
LINE
  5
3414
330
A
100
AcDbEntity
  8
0
  6
Continuous
 62
     7
 48
0.050964
100
AcDbLine
 10
61.73061
 20
231.46347
 30
0.0
 11
60.22761899999999
 21
230.086243
 31
0.0
  0
LINE
  5
3415
330
A
100
AcDbEntity
  8
0
  6
Continuous
 62
     7
 48
0.048632
100
AcDbLine
 10
55.516125
 20
230.086243
 30
0.0
 11
54.201904
 21
231.520462
 31
0.0
  0
ARC
  5
3416
330
A
100
AcDbEntity
  8
0
  6
Continuous
 62
     7
100
AcDbCircle
 10
61.031246
 20
230.477036
 30
0.0
 40
1.20926
100
AcDbArc
 50
54.66419399999999
 51
89.860503
  0
LINE
  5
3417
330
A
100
AcDbEntity
  8
0
  6
Continuous
 62
     7
 48
0.155592
100
AcDbLine
 10
54.81050899999999
 20
231.686249
 30
0.0
 11
61.034187
 21
231.686249
 31
0.0
  0
ARC
  5
3418
330
A
100
AcDbEntity
  8
0
  6
Continuous
 62
     7
100
AcDbCircle
 10
54.81239699999999
 20
230.4793089999999
 30
0.0
 40
1.206971999999999
100
AcDbArc
 50
90.08973799999999
 51
120.385567
  0
LINE
  5
3419
330
A
100
AcDbEntity
  8
0
  6
Continuous
 62
     7
 48
0.019822
100
AcDbLine
 10
67.74771899999999
 20
207.039459
 30
0.0
 11
67.212051
 21
207.6240389999999
 31
0.0
  0
LINE
  5
341A
330
A
100
AcDbEntity
  8
0
  6
Continuous
 62
     7
 48
0.022773
100
AcDbLine
 10
68.41933399999999
 20
207.654877
 30
0.0
 11
67.74771899999999
 21
207.039459
 31
0.0
  0
LINE
  5
341B
330
A
100
AcDbEntity
  8
0
  6
Continuous
 62
     7
 48
0.10413
100
AcDbLine
 10
67.212051
 20
207.6240389999999
 30
0.0
 11
67.575073
 21
211.773392
 31
0.0
  0
LINE
  5
341C
330
A
100
AcDbEntity
  8
0
  6
Continuous
 62
     7
 48
0.087673
100
AcDbLine
 10
68.724983
 20
211.1484379999999
 30
0.0
 11
68.41933399999999
 21
207.654877
 31
0.0
  0
LINE
  5
341D
330
A
100
AcDbEntity
  8
0
  6
Continuous
 62
     7
 48
0.036715
100
AcDbLine
 10
67.732811
 20
212.2312009999999
 30
0.0
 11
68.724983
 21
211.1484379999999
 31
0.0
  0
ARC
  5
341E
330
A
100
AcDbEntity
  8
0
  6
Continuous
 62
     7
100
AcDbCircle
 10
68.57605699999999
 20
211.684586
 30
0.0
 40
1.004931
100
AcDbArc
 50
147.047401
 51
174.9301199999999
  0
LINE
  5
341F
330
A
100
AcDbEntity
  8
0
  6
Continuous
 62
     7
 48
0.117787
100
AcDbLine
 10
112.2276149999999
 20
230.086243
 30
0.0
 11
107.516129
 21
230.086243
 31
0.0
  0
LINE
  5
3420
330
A
100
AcDbEntity
  8
0
  6
Continuous
 62
     7
 48
0.050964
100
AcDbLine
 10
113.730606
 20
231.46347
 30
0.0
 11
112.2276149999999
 21
230.086243
 31
0.0
  0
LINE
  5
3421
330
A
100
AcDbEntity
  8
0
  6
Continuous
 62
     7
 48
0.048632
100
AcDbLine
 10
107.516129
 20
230.086243
 30
0.0
 11
106.201904
 21
231.520462
 31
0.0
  0
ARC
  5
3422
330
A
100
AcDbEntity
  8
0
  6
Continuous
 62
     7
100
AcDbCircle
 10
113.031212
 20
230.476929
 30
0.0
 40
1.209362999999997
100
AcDbArc
 50
54.66567799999999
 51
89.859021
  0
LINE
  5
3423
330
A
100
AcDbEntity
  8
0
  6
Continuous
 62
     7
 48
0.155592
100
AcDbLine
 10
106.810509
 20
231.686249
 30
0.0
 11
113.034187
 21
231.686249
 31
0.0
  0
ARC
  5
3424
330
A
100
AcDbEntity
  8
0
  6
Continuous
 62
     7
100
AcDbCircle
 10
106.812393
 20
230.4793089999999
 30
0.0
 40
1.206971999999999
100
AcDbArc
 50
90.08973799999999
 51
120.385567
  0
LINE
  5
3425
330
A
100
AcDbEntity
  8
0
  6
Continuous
 62
     7
 48
0.087673
100
AcDbLine
 10
72.93382300000001
 20
207.6240389999999
 30
0.0
 11
73.23947099999998
 21
211.117599
 31
0.0
  0
LINE
  5
3426
330
A
100
AcDbEntity
  8
0
  6
Continuous
 62
     7
 48
0.019822
100
AcDbLine
 10
73.46949000000002
 20
207.039459
 30
0.0
 11
72.93382300000001
 21
207.6240389999999
 31
0.0
  0
LINE
  5
3427
330
A
100
AcDbEntity
  8
0
  6
Continuous
 62
     7
 48
0.038428
100
AcDbLine
 10
73.23947099999998
 20
211.117599
 30
0.0
 11
74.372749
 21
212.156052
 31
0.0
  0
LINE
  5
3428
330
A
100
AcDbEntity
  8
0
  6
Continuous
 62
     7
 48
0.022773
100
AcDbLine
 10
74.141106
 20
207.654877
 30
0.0
 11
73.46949000000002
 21
207.039459
 31
0.0
  0
LINE
  5
3429
330
A
100
AcDbEntity
  8
0
  6
Continuous
 62
     7
 48
0.098982
100
AcDbLine
 10
74.486176
 20
211.599091
 30
0.0
 11
74.141106
 21
207.654877
 31
0.0
  0
ARC
  5
342A
330
A
100
AcDbEntity
  8
0
  6
Continuous
 62
     7
100
AcDbCircle
 10
73.483078
 20
211.68483
 30
0.0
 40
1.006791999999999
100
AcDbArc
 50
355.113943
 51
27.908544
  0
LINE
  5
342B
330
A
100
AcDbEntity
  8
0
  6
Continuous
 62
     7
 48
0.110259
100
AcDbLine
 10
60.181026
 20
225.3240359999999
 30
0.0
 11
60.565414
 21
229.717606
 31
0.0
  0
LINE
  5
342C
330
A
100
AcDbEntity
  8
0
  6
Continuous
 62
     7
 48
0.026604
100
AcDbLine
 10
60.89996
 20
224.539459
 30
0.0
 11
60.181026
 21
225.3240359999999
 31
0.0
  0
LINE
  5
342D
330
A
100
AcDbEntity
  8
0
  6
Continuous
 62
     7
 48
0.050964
100
AcDbLine
 10
60.565414
 20
229.717606
 30
0.0
 11
62.06840500000001
 21
231.094849
 31
0.0
  0
LINE
  5
342E
330
A
100
AcDbEntity
  8
0
  6
Continuous
 62
     7
 48
0.030174
100
AcDbLine
 10
61.78983699999999
 20
225.354874
 30
0.0
 11
60.89996
 21
224.539459
 31
0.0
  0
LINE
  5
342F
330
A
100
AcDbEntity
  8
0
  6
Continuous
 62
     7
 48
0.12615
100
AcDbLine
 10
62.229622
 20
230.3816529999999
 30
0.0
 11
61.78983699999999
 21
225.354874
 31
0.0
  0
ARC
  5
3430
330
A
100
AcDbEntity
  8
0
  6
Continuous
 62
     7
100
AcDbCircle
 10
61.024662
 20
230.484085
 30
0.0
 40
1.209362999999997
100
AcDbArc
 50
355.1409779999998
 51
30.334319
  0
LINE
  5
3431
330
A
100
AcDbEntity
  8
0
  6
Continuous
 62
     7
 48
0.095201
100
AcDbLine
 10
72.90167199999998
 20
211.4862369999999
 30
0.0
 11
69.09362
 21
211.4862369999999
 31
0.0
  0
LINE
  5
3432
330
A
100
AcDbEntity
  8
0
  6
Continuous
 62
     7
 48
0.038428
100
AcDbLine
 10
74.03494999999998
 20
212.524689
 30
0.0
 11
72.90167199999998
 21
211.4862369999999
 31
0.0
  0
LINE
  5
3433
330
A
100
AcDbEntity
  8
0
  6
Continuous
 62
     7
 48
0.036715
100
AcDbLine
 10
69.09362
 20
211.4862369999999
 30
0.0
 11
68.101448
 21
212.569
 31
0.0
  0
ARC
  5
3434
330
A
100
AcDbEntity
  8
0
  6
Continuous
 62
     7
100
AcDbCircle
 10
73.48798399999998
 20
211.679489
 30
0.0
 40
1.006791999999999
100
AcDbArc
 50
57.091453
 51
89.886054
  0
LINE
  5
3435
330
A
100
AcDbEntity
  8
0
  6
Continuous
 62
     7
 48
0.122968
100
AcDbLine
 10
68.571266
 20
212.6862339999999
 30
0.0
 11
73.48998299999998
 21
212.6862339999999
 31
0.0
  0
ARC
  5
3436
330
A
100
AcDbEntity
  8
0
  6
Continuous
 62
     7
100
AcDbCircle
 10
68.57249499999999
 20
211.681335
 30
0.0
 40
1.004931
100
AcDbArc
 50
90.06988900000001
 51
117.9525989999999
  0
LINE
  5
3437
330
A
100
AcDbEntity
  8
0
  6
Continuous
 62
     7
 48
0.030174
100
AcDbLine
 10
93.21101400000001
 20
224.170822
 30
0.0
 11
94.100891
 21
224.986237
 31
0.0
  0
LINE
  5
3438
330
A
100
AcDbEntity
  8
0
  6
Continuous
 62
     7
 48
0.026604
100
AcDbLine
 10
93.929947
 20
223.386246
 30
0.0
 11
93.21101400000001
 21
224.170822
 31
0.0
  0
LINE
  5
3439
330
A
100
AcDbEntity
  8
0
  6
Continuous
 62
     7
 48
0.117787
100
AcDbLine
 10
94.100891
 20
224.986237
 30
0.0
 11
98.81238600000001
 21
224.986237
 31
0.0
  0
LINE
  5
343A
330
A
100
AcDbEntity
  8
0
  6
Continuous
 62
     7
 48
0.117788
100
AcDbLine
 10
98.64144899999999
 20
223.386246
 30
0.0
 11
93.929947
 21
223.386246
 31
0.0
  0
LINE
  5
343B
330
A
100
AcDbEntity
  8
0
  6
Continuous
 62
     7
 48
0.030174
100
AcDbLine
 10
99.531319
 20
224.2016599999999
 30
0.0
 11
98.64144899999999
 21
223.386246
 31
0.0
  0
LINE
  5
343C
330
A
100
AcDbEntity
  8
0
  6
Continuous
 62
     7
 48
0.026604
100
AcDbLine
 10
98.81238600000001
 20
224.986237
 30
0.0
 11
99.531319
 21
224.2016599999999
 31
0.0
  0
LINE
  5
343D
330
A
100
AcDbEntity
  8
0
  6
Continuous
 62
     7
 48
0.026604
100
AcDbLine
 10
66.873222
 20
224.539459
 30
0.0
 11
66.15428900000001
 21
225.3240359999999
 31
0.0
  0
LINE
  5
343E
330
A
100
AcDbEntity
  8
0
  6
Continuous
 62
     7
 48
0.030174
100
AcDbLine
 10
67.76309999999999
 20
225.354874
 30
0.0
 11
66.873222
 21
224.539459
 31
0.0
  0
LINE
  5
343F
330
A
100
AcDbEntity
  8
0
  6
Continuous
 62
     7
 48
0.132173
100
AcDbLine
 10
66.15428900000001
 20
225.3240359999999
 30
0.0
 11
66.61507399999999
 21
230.59082
 31
0.0
  0
LINE
  5
3440
330
A
100
AcDbEntity
  8
0
  6
Continuous
 62
     7
 48
0.110259
100
AcDbLine
 10
68.14748399999999
 20
229.748444
 30
0.0
 11
67.76309999999999
 21
225.354874
 31
0.0
  0
LINE
  5
3441
330
A
100
AcDbEntity
  8
0
  6
Continuous
 62
     7
 48
0.048632
100
AcDbLine
 10
66.83326700000001
 20
231.182663
 30
0.0
 11
68.14748399999999
 21
229.748444
 31
0.0
  0
ARC
  5
3442
330
A
100
AcDbEntity
  8
0
  6
Continuous
 62
     7
100
AcDbCircle
 10
67.81725300000001
 20
230.483749
 30
0.0
 40
1.206971999999999
100
AcDbArc
 50
144.614434
 51
174.910271
  0
LINE
  5
3443
330
A
100
AcDbEntity
  8
0
  6
Continuous
 62
     7
 48
0.031569
100
AcDbLine
 10
55.332912
 20
199.733124
 30
0.0
 11
56.263924
 21
200.586243
 31
0.0
  0
ARC
  5
3444
330
A
100
AcDbEntity
  8
0
  6
Continuous
 62
     7
100
AcDbCircle
 10
55.56582299999998
 20
200.288208
 30
0.0
 40
0.601973
100
AcDbArc
 50
247.237184
 51
269.962233
  0
LINE
  5
3445
330
A
100
AcDbEntity
  8
0
  6
Continuous
 62
     7
 48
0.042474
100
AcDbLine
 10
56.263924
 20
200.586243
 30
0.0
 11
57.962902
 21
200.586243
 31
0.0
  0
LINE
  5
3446
330
A
100
AcDbEntity
  8
0
  6
Continuous
 62
     7
 48
0.075287
100
AcDbLine
 10
58.576889
 20
199.686234
 30
0.0
 11
55.565426
 21
199.686234
 31
0.0
  0
ARC
  5
3447
330
A
100
AcDbEntity
  8
0
  6
Continuous
 62
     7
100
AcDbCircle
 10
58.57670600000001
 20
200.2873839999999
 30
0.0
 40
0.601153
100
AcDbArc
 50
270.017264
 51
287.858415
  0
LINE
  5
3448
330
A
100
AcDbEntity
  8
0
  6
Continuous
 62
     7
 48
0.029535
100
AcDbLine
 10
57.962902
 20
200.586243
 30
0.0
 11
58.76105899999998
 21
199.71521
 31
0.0
  0
LINE
  5
3449
330
A
100
AcDbEntity
  8
0
  6
Continuous
 62
     7
 48
0.036227
100
AcDbLine
 10
56.05136899999999
 20
202.3984379999999
 30
0.0
 11
55.925072
 21
200.95488
 31
0.0
  0
LINE
  5
344A
330
A
100
AcDbEntity
  8
0
  6
Continuous
 62
     7
 48
0.014736
100
AcDbLine
 10
55.653149
 20
202.8330229999999
 30
0.0
 11
56.05136899999999
 21
202.3984379999999
 31
0.0
  0
LINE
  5
344B
330
A
100
AcDbEntity
  8
0
  6
Continuous
 62
     7
 48
0.031558
100
AcDbLine
 10
55.925072
 20
200.95488
 30
0.0
 11
54.99439200000001
 21
200.102066
 31
0.0
  0
LINE
  5
344C
330
A
100
AcDbEntity
  8
0
  6
Continuous
 62
     7
 48
0.017223
100
AcDbLine
 10
55.145233
 20
202.367599
 30
0.0
 11
55.653149
 21
202.8330229999999
 31
0.0
  0
LINE
  5
344D
330
A
100
AcDbEntity
  8
0
  6
Continuous
 62
     7
 48
0.05092
100
AcDbLine
 10
54.967712
 20
200.338531
 30
0.0
 11
55.145233
 21
202.367599
 31
0.0
  0
ARC
  5
344E
330
A
100
AcDbEntity
  8
0
  6
Continuous
 62
     7
100
AcDbCircle
 10
55.567436
 20
200.286469
 30
0.0
 40
0.6019860000000003
100
AcDbArc
 50
175.0381459999999
 51
197.837536
  0
LINE
  5
344F
330
A
100
AcDbEntity
  8
0
  6
Continuous
 62
     7
 48
0.117787
100
AcDbLine
 10
73.227615
 20
230.086243
 30
0.0
 11
68.516121
 21
230.086243
 31
0.0
  0
LINE
  5
3450
330
A
100
AcDbEntity
  8
0
  6
Continuous
 62
     7
 48
0.050964
100
AcDbLine
 10
74.730614
 20
231.46347
 30
0.0
 11
73.227615
 21
230.086243
 31
0.0
  0
LINE
  5
3451
330
A
100
AcDbEntity
  8
0
  6
Continuous
 62
     7
 48
0.048632
100
AcDbLine
 10
68.516121
 20
230.086243
 30
0.0
 11
67.20190399999999
 21
231.520462
 31
0.0
  0
ARC
  5
3452
330
A
100
AcDbEntity
  8
0
  6
Continuous
 62
     7
100
AcDbCircle
 10
74.031242
 20
230.477036
 30
0.0
 40
1.20926
100
AcDbArc
 50
54.66419399999999
 51
89.860503
  0
LINE
  5
3453
330
A
100
AcDbEntity
  8
0
  6
Continuous
 62
     7
 48
0.155592
100
AcDbLine
 10
67.810509
 20
231.686249
 30
0.0
 11
74.034187
 21
231.686249
 31
0.0
  0
ARC
  5
3454
330
A
100
AcDbEntity
  8
0
  6
Continuous
 62
     7
100
AcDbCircle
 10
67.812393
 20
230.4793089999999
 30
0.0
 40
1.206971999999999
100
AcDbArc
 50
90.08973799999999
 51
120.385567
  0
ARC
  5
3455
330
A
100
AcDbEntity
  8
0
  6
Continuous
 62
     7
100
AcDbCircle
 10
58.575752
 20
200.2865139999999
 30
0.0
 40
0.601153
100
AcDbArc
 50
337.1415819999997
 51
354.982737
  0
LINE
  5
3456
330
A
100
AcDbEntity
  8
0
  6
Continuous
 62
     7
 48
0.054319
100
AcDbLine
 10
59.363972
 20
202.3984379999999
 30
0.0
 11
59.17460300000001
 21
200.2339479999998
 31
0.0
  0
LINE
  5
3457
330
A
100
AcDbEntity
  8
0
  6
Continuous
 62
     7
 48
0.029536
100
AcDbLine
 10
59.129696
 20
200.0529939999999
 30
0.0
 11
58.331543
 21
200.9240419999999
 31
0.0
  0
LINE
  5
3458
330
A
100
AcDbEntity
  8
0
  6
Continuous
 62
     7
 48
0.014736
100
AcDbLine
 10
58.965755
 20
202.8330229999999
 30
0.0
 11
59.363972
 21
202.3984379999999
 31
0.0
  0
LINE
  5
3459
330
A
100
AcDbEntity
  8
0
  6
Continuous
 62
     7
 48
0.017223
100
AcDbLine
 10
58.457836
 20
202.367599
 30
0.0
 11
58.965755
 21
202.8330229999999
 31
0.0
  0
LINE
  5
345A
330
A
100
AcDbEntity
  8
0
  6
Continuous
 62
     7
 48
0.036227
100
AcDbLine
 10
58.331543
 20
200.9240419999999
 30
0.0
 11
58.457836
 21
202.367599
 31
0.0
  0
LINE
  5
345B
330
A
100
AcDbEntity
  8
0
  6
Continuous
 62
     7
 48
0.117787
100
AcDbLine
 10
99.227615
 20
230.086243
 30
0.0
 11
94.516129
 21
230.086243
 31
0.0
  0
LINE
  5
345C
330
A
100
AcDbEntity
  8
0
  6
Continuous
 62
     7
 48
0.050964
100
AcDbLine
 10
100.730614
 20
231.46347
 30
0.0
 11
99.227615
 21
230.086243
 31
0.0
  0
LINE
  5
345D
330
A
100
AcDbEntity
  8
0
  6
Continuous
 62
     7
 48
0.048632
100
AcDbLine
 10
94.516129
 20
230.086243
 30
0.0
 11
93.20190399999999
 21
231.520462
 31
0.0
  0
ARC
  5
345E
330
A
100
AcDbEntity
  8
0
  6
Continuous
 62
     7
100
AcDbCircle
 10
100.031212
 20
230.476929
 30
0.0
 40
1.209362999999997
100
AcDbArc
 50
54.66567799999999
 51
89.859021
  0
LINE
  5
345F
330
A
100
AcDbEntity
  8
0
  6
Continuous
 62
     7
 48
0.155592
100
AcDbLine
 10
93.81050899999999
 20
231.686249
 30
0.0
 11
100.0341869999999
 21
231.686249
 31
0.0
  0
ARC
  5
3460
330
A
100
AcDbEntity
  8
0
  6
Continuous
 62
     7
100
AcDbCircle
 10
93.812393
 20
230.4793089999999
 30
0.0
 40
1.206971999999999
100
AcDbArc
 50
90.08973799999999
 51
120.385567
  0
LINE
  5
3461
330
A
100
AcDbEntity
  8
0
  6
Continuous
 62
     7
 48
0.014736
100
AcDbLine
 10
56.42000600000001
 20
202.736237
 30
0.0
 11
56.02179
 21
203.170822
 31
0.0
  0
LINE
  5
3462
330
A
100
AcDbEntity
  8
0
  6
Continuous
 62
     7
 48
0.042501
100
AcDbLine
 10
58.120041
 20
202.736237
 30
0.0
 11
56.42000600000001
 21
202.736237
 31
0.0
  0
LINE
  5
3463
330
A
100
AcDbEntity
  8
0
  6
Continuous
 62
     7
 48
0.017223
100
AcDbLine
 10
56.02179
 20
203.170822
 30
0.0
 11
56.52970899999999
 21
203.6362459999998
 31
0.0
  0
LINE
  5
3464
330
A
100
AcDbEntity
  8
0
  6
Continuous
 62
     7
 48
0.017223
100
AcDbLine
 10
58.62795999999999
 20
203.2016599999999
 30
0.0
 11
58.120041
 21
202.736237
 31
0.0
  0
LINE
  5
3465
330
A
100
AcDbEntity
  8
0
  6
Continuous
 62
     7
 48
0.014736
100
AcDbLine
 10
58.22974399999999
 20
203.6362459999998
 30
0.0
 11
58.62795999999999
 21
203.2016599999999
 31
0.0
  0
LINE
  5
3466
330
A
100
AcDbEntity
  8
0
  6
Continuous
 62
     7
 48
0.042501
100
AcDbLine
 10
56.52970899999999
 20
203.6362459999998
 30
0.0
 11
58.22974399999999
 21
203.6362459999998
 31
0.0
  0
LINE
  5
3467
330
A
100
AcDbEntity
  8
0
  6
Continuous
 62
     7
 48
0.110259
100
AcDbLine
 10
73.18103
 20
225.3240359999999
 30
0.0
 11
73.56541400000002
 21
229.717606
 31
0.0
  0
LINE
  5
3468
330
A
100
AcDbEntity
  8
0
  6
Continuous
 62
     7
 48
0.026604
100
AcDbLine
 10
73.89996299999999
 20
224.539459
 30
0.0
 11
73.18103
 21
225.3240359999999
 31
0.0
  0
LINE
  5
3469
330
A
100
AcDbEntity
  8
0
  6
Continuous
 62
     7
 48
0.050964
100
AcDbLine
 10
73.56541400000002
 20
229.717606
 30
0.0
 11
75.068405
 21
231.094849
 31
0.0
  0
LINE
  5
346A
330
A
100
AcDbEntity
  8
0
  6
Continuous
 62
     7
 48
0.030174
100
AcDbLine
 10
74.789833
 20
225.354874
 30
0.0
 11
73.89996299999999
 21
224.539459
 31
0.0
  0
LINE
  5
346B
330
A
100
AcDbEntity
  8
0
  6
Continuous
 62
     7
 48
0.12615
100
AcDbLine
 10
75.22962199999998
 20
230.3816529999999
 30
0.0
 11
74.789833
 21
225.354874
 31
0.0
  0
ARC
  5
346C
330
A
100
AcDbEntity
  8
0
  6
Continuous
 62
     7
100
AcDbCircle
 10
74.024666
 20
230.484085
 30
0.0
 40
1.209362999999997
100
AcDbArc
 50
355.1409779999998
 51
30.334319
  0
ARC
  5
346D
330
A
100
AcDbEntity
  8
0
  6
Continuous
 62
     7
100
AcDbCircle
 10
56.07399
 20
206.085953
 30
0.0
 40
0.601153
100
AcDbArc
 50
157.1415879999999
 51
174.9827389999999
  0
LINE
  5
346E
330
A
100
AcDbEntity
  8
0
  6
Continuous
 62
     7
 48
0.054319
100
AcDbLine
 10
55.28577399999999
 20
203.97403
 30
0.0
 11
55.475143
 21
206.138535
 31
0.0
  0
LINE
  5
346F
330
A
100
AcDbEntity
  8
0
  6
Continuous
 62
     7
 48
0.029535
100
AcDbLine
 10
55.52005
 20
206.3194729999999
 30
0.0
 11
56.31820699999999
 21
205.448441
 31
0.0
  0
LINE
  5
3470
330
A
100
AcDbEntity
  8
0
  6
Continuous
 62
     7
 48
0.014736
100
AcDbLine
 10
55.68399
 20
203.539459
 30
0.0
 11
55.28577399999999
 21
203.97403
 31
0.0
  0
LINE
  5
3471
330
A
100
AcDbEntity
  8
0
  6
Continuous
 62
     7
 48
0.017223
100
AcDbLine
 10
56.19191
 20
204.0048829999999
 30
0.0
 11
55.68399
 21
203.539459
 31
0.0
  0
LINE
  5
3472
330
A
100
AcDbEntity
  8
0
  6
Continuous
 62
     7
 48
0.036227
100
AcDbLine
 10
56.31820699999999
 20
205.448441
 30
0.0
 11
56.19191
 21
204.0048829999999
 31
0.0
  0
LINE
  5
3473
330
A
100
AcDbEntity
  8
0
  6
Continuous
 62
     7
 48
0.110259
100
AcDbLine
 10
112.18103
 20
225.3240359999999
 30
0.0
 11
112.5654139999999
 21
229.717606
 31
0.0
  0
LINE
  5
3474
330
A
100
AcDbEntity
  8
0
  6
Continuous
 62
     7
 48
0.026604
100
AcDbLine
 10
112.8999629999997
 20
224.539459
 30
0.0
 11
112.18103
 21
225.3240359999999
 31
0.0
  0
LINE
  5
3475
330
A
100
AcDbEntity
  8
0
  6
Continuous
 62
     7
 48
0.050964
100
AcDbLine
 10
112.5654139999999
 20
229.717606
 30
0.0
 11
114.0684049999999
 21
231.094849
 31
0.0
  0
LINE
  5
3476
330
A
100
AcDbEntity
  8
0
  6
Continuous
 62
     7
 48
0.030174
100
AcDbLine
 10
113.789841
 20
225.354874
 30
0.0
 11
112.8999629999997
 21
224.539459
 31
0.0
  0
LINE
  5
3477
330
A
100
AcDbEntity
  8
0
  6
Continuous
 62
     7
 48
0.12615
100
AcDbLine
 10
114.2296219999999
 20
230.3816529999999
 30
0.0
 11
113.789841
 21
225.354874
 31
0.0
  0
ARC
  5
3478
330
A
100
AcDbEntity
  8
0
  6
Continuous
 62
     7
100
AcDbCircle
 10
113.024658
 20
230.484085
 30
0.0
 40
1.209362999999997
100
AcDbArc
 50
355.1409779999998
 51
30.334319
  0
ARC
  5
3479
330
A
100
AcDbEntity
  8
0
  6
Continuous
 62
     7
100
AcDbCircle
 10
118.3314289999999
 20
235.186249
 30
0.0
 40
2.0
100
AcDbArc
 50
0.0
 51
90.00000300000001
  0
LINE
  5
347A
330
A
100
AcDbEntity
  8
0
  6
Continuous
 62
     7
100
AcDbLine
 10
120.331429
 20
235.186249
 30
0.0
 11
120.331429
 21
171.386246
 31
0.0
  0
ARC
  5
347B
330
A
100
AcDbEntity
  8
0
  6
Continuous
 62
     7
100
AcDbCircle
 10
118.3314289999999
 20
171.386246
 30
0.0
 40
2.0
100
AcDbArc
 50
270.000001
 51
0.00001
  0
ARC
  5
347C
330
A
100
AcDbEntity
  8
0
  6
Continuous
 62
     7
100
AcDbCircle
 10
34.33142899999999
 20
235.186249
 30
0.0
 40
2.0
100
AcDbArc
 50
90.00000300000001
 51
180.000005
  0
LINE
  5
347D
330
A
100
AcDbEntity
  8
0
  6
Continuous
 62
     7
100
AcDbLine
 10
34.33142899999999
 20
169.386246
 30
0.0
 11
118.3314289999999
 21
169.386246
 31
0.0
  0
ARC
  5
347E
330
A
100
AcDbEntity
  8
0
  6
Continuous
 62
     7
100
AcDbCircle
 10
34.33142899999999
 20
171.386246
 30
0.0
 40
2.0
100
AcDbArc
 50
180.000005
 51
270.000001
  0
LINE
  5
347F
330
A
100
AcDbEntity
  8
0
  6
Continuous
 62
     7
 48
0.03
100
AcDbLine
 10
80.181427
 20
164.5362399999999
 30
0.0
 11
80.181427
 21
165.736237
 31
0.0
  0
ARC
  5
3480
330
A
100
AcDbEntity
  8
0
  6
Continuous
 62
     7
100
AcDbCircle
 10
79.181427
 20
164.5362399999999
 30
0.0
 40
1.0
100
AcDbArc
 50
269.9999969999999
 51
360.0
  0
LINE
  5
3481
330
A
100
AcDbEntity
  8
0
  6
Continuous
 62
     7
 48
0.1425
100
AcDbLine
 10
73.48143
 20
163.5362399999999
 30
0.0
 11
79.181427
 21
163.5362399999999
 31
0.0
  0
ARC
  5
3482
330
A
100
AcDbEntity
  8
0
  6
Continuous
 62
     7
100
AcDbCircle
 10
73.48143
 20
164.5362399999999
 30
0.0
 40
1.0
100
AcDbArc
 50
179.9999949999999
 51
269.9999969999999
  0
LINE
  5
3483
330
A
100
AcDbEntity
  8
0
  6
Continuous
 62
     7
 48
0.03
100
AcDbLine
 10
72.48143
 20
165.736237
 30
0.0
 11
72.48143
 21
164.5362399999999
 31
0.0
  0
ARC
  5
3484
330
A
100
AcDbEntity
  8
0
  6
Continuous
 62
     7
100
AcDbCircle
 10
73.48143
 20
165.736237
 30
0.0
 40
1.0
100
AcDbArc
 50
90.00000300000001
 51
180.000005
  0
LINE
  5
3485
330
A
100
AcDbEntity
  8
0
  6
Continuous
 62
     7
 48
0.1425
100
AcDbLine
 10
79.181427
 20
166.736237
 30
0.0
 11
73.48143
 21
166.736237
 31
0.0
  0
ARC
  5
3486
330
A
100
AcDbEntity
  8
0
  6
Continuous
 62
     7
100
AcDbCircle
 10
79.181427
 20
165.736237
 30
0.0
 40
1.0
100
AcDbArc
 50
0.0
 51
90.00000300000001
  0
ARC
  5
348E
330
A
100
AcDbEntity
  8
0
  6
Continuous
 62
     7
100
AcDbCircle
 10
80.33142899999999
 20
166.8862459999999
 30
0.0
 40
1.0
100
AcDbArc
 50
360.0
 51
90.00000300000001
  0
LINE
  5
348F
330
A
100
AcDbEntity
  8
0
  6
Continuous
 62
     7
 48
0.2
100
AcDbLine
 10
72.331429
 20
167.8862459999999
 30
0.0
 11
80.33142899999999
 21
167.8862459999999
 31
0.0
  0
ARC
  5
3490
330
A
100
AcDbEntity
  8
0
  6
Continuous
 62
     7
100
AcDbCircle
 10
72.331429
 20
166.8862459999999
 30
0.0
 40
1.0
100
AcDbArc
 50
90.00000300000001
 51
180.000005
  0
LINE
  5
3491
330
A
100
AcDbEntity
  8
0
  6
Continuous
 62
     7
 48
0.175
100
AcDbLine
 10
71.331429
 20
159.886246
 30
0.0
 11
71.331429
 21
166.8862459999999
 31
0.0
  0
ARC
  5
3492
330
A
100
AcDbEntity
  8
0
  6
Continuous
 62
     7
100
AcDbCircle
 10
72.331429
 20
159.886246
 30
0.0
 40
1.0
100
AcDbArc
 50
180.000005
 51
270.000001
  0
LINE
  5
3493
330
A
100
AcDbEntity
  8
0
  6
Continuous
 62
     7
 48
0.2
100
AcDbLine
 10
80.33142899999999
 20
158.886246
 30
0.0
 11
72.331429
 21
158.886246
 31
0.0
  0
ARC
  5
3494
330
A
100
AcDbEntity
  8
0
  6
Continuous
 62
     7
100
AcDbCircle
 10
80.33142899999999
 20
159.886246
 30
0.0
 40
1.0
100
AcDbArc
 50
269.9999969999999
 51
360.0
  0
LINE
  5
3495
330
A
100
AcDbEntity
  8
0
  6
Continuous
 62
     7
 48
0.175
100
AcDbLine
 10
81.33142900000001
 20
159.886246
 30
0.0
 11
81.33142900000001
 21
166.8862459999999
 31
0.0
  0
LINE
  5
3496
330
A
100
AcDbEntity
  8
0
  6
Continuous
 62
     7
 48
0.03
100
AcDbLine
 10
92.081429
 20
164.5362399999999
 30
0.0
 11
92.081429
 21
165.736237
 31
0.0
  0
ARC
  5
3497
330
A
100
AcDbEntity
  8
0
  6
Continuous
 62
     7
100
AcDbCircle
 10
91.081429
 20
164.5362399999999
 30
0.0
 40
1.0
100
AcDbArc
 50
269.9999969999999
 51
360.0
  0
LINE
  5
3498
330
A
100
AcDbEntity
  8
0
  6
Continuous
 62
     7
 48
0.1425
100
AcDbLine
 10
85.38143199999998
 20
163.5362399999999
 30
0.0
 11
91.081429
 21
163.5362399999999
 31
0.0
  0
ARC
  5
3499
330
A
100
AcDbEntity
  8
0
  6
Continuous
 62
     7
100
AcDbCircle
 10
85.38143199999998
 20
164.5362399999999
 30
0.0
 40
1.0
100
AcDbArc
 50
180.000005
 51
270.000001
  0
LINE
  5
349A
330
A
100
AcDbEntity
  8
0
  6
Continuous
 62
     7
 48
0.03
100
AcDbLine
 10
84.38143199999997
 20
165.736237
 30
0.0
 11
84.38143199999997
 21
164.5362399999999
 31
0.0
  0
ARC
  5
349B
330
A
100
AcDbEntity
  8
0
  6
Continuous
 62
     7
100
AcDbCircle
 10
85.38143199999998
 20
165.736237
 30
0.0
 40
1.0
100
AcDbArc
 50
90.00000300000001
 51
180.000005
  0
LINE
  5
349C
330
A
100
AcDbEntity
  8
0
  6
Continuous
 62
     7
 48
0.1425
100
AcDbLine
 10
91.081429
 20
166.736237
 30
0.0
 11
85.38143199999998
 21
166.736237
 31
0.0
  0
ARC
  5
349D
330
A
100
AcDbEntity
  8
0
  6
Continuous
 62
     7
100
AcDbCircle
 10
91.081429
 20
165.736237
 30
0.0
 40
1.0
100
AcDbArc
 50
0.0
 51
90.00000300000001
  0
ARC
  5
34A5
330
A
100
AcDbEntity
  8
0
  6
Continuous
 62
     7
100
AcDbCircle
 10
92.23143
 20
166.8862459999999
 30
0.0
 40
1.0
100
AcDbArc
 50
0.0
 51
90.00000300000001
  0
LINE
  5
34A6
330
A
100
AcDbEntity
  8
0
  6
Continuous
 62
     7
 48
0.2
100
AcDbLine
 10
84.23143000000001
 20
167.8862459999999
 30
0.0
 11
92.23143
 21
167.8862459999999
 31
0.0
  0
ARC
  5
34A7
330
A
100
AcDbEntity
  8
0
  6
Continuous
 62
     7
100
AcDbCircle
 10
84.23143000000001
 20
166.8862459999999
 30
0.0
 40
1.0
100
AcDbArc
 50
90.00000300000001
 51
180.000005
  0
LINE
  5
34A8
330
A
100
AcDbEntity
  8
0
  6
Continuous
 62
     7
 48
0.175
100
AcDbLine
 10
83.23142999999998
 20
159.886246
 30
0.0
 11
83.23142999999998
 21
166.8862459999999
 31
0.0
  0
ARC
  5
34A9
330
A
100
AcDbEntity
  8
0
  6
Continuous
 62
     7
100
AcDbCircle
 10
84.23143000000001
 20
159.886246
 30
0.0
 40
1.0
100
AcDbArc
 50
179.9999949999999
 51
269.9999969999999
  0
LINE
  5
34AA
330
A
100
AcDbEntity
  8
0
  6
Continuous
 62
     7
 48
0.2
100
AcDbLine
 10
92.23143
 20
158.886246
 30
0.0
 11
84.23143000000001
 21
158.886246
 31
0.0
  0
ARC
  5
34AB
330
A
100
AcDbEntity
  8
0
  6
Continuous
 62
     7
100
AcDbCircle
 10
92.23143
 20
159.886246
 30
0.0
 40
1.0
100
AcDbArc
 50
269.9999969999999
 51
360.0
  0
LINE
  5
34AC
330
A
100
AcDbEntity
  8
0
  6
Continuous
 62
     7
 48
0.175
100
AcDbLine
 10
93.23142999999999
 20
159.886246
 30
0.0
 11
93.23142999999999
 21
166.8862459999999
 31
0.0
  0
LINE
  5
34AD
330
A
100
AcDbEntity
  8
0
  6
Continuous
 62
     7
 48
0.03
100
AcDbLine
 10
103.9814299999999
 20
164.5362399999999
 30
0.0
 11
103.9814299999999
 21
165.736237
 31
0.0
  0
ARC
  5
34AE
330
A
100
AcDbEntity
  8
0
  6
Continuous
 62
     7
100
AcDbCircle
 10
102.9814299999999
 20
164.5362399999999
 30
0.0
 40
1.0
100
AcDbArc
 50
269.9999969999999
 51
360.0
  0
LINE
  5
34AF
330
A
100
AcDbEntity
  8
0
  6
Continuous
 62
     7
 48
0.1425
100
AcDbLine
 10
97.28143300000001
 20
163.5362399999999
 30
0.0
 11
102.9814299999999
 21
163.5362399999999
 31
0.0
  0
ARC
  5
34B0
330
A
100
AcDbEntity
  8
0
  6
Continuous
 62
     7
100
AcDbCircle
 10
97.28143300000001
 20
164.5362399999999
 30
0.0
 40
1.0
100
AcDbArc
 50
180.000005
 51
270.000001
  0
LINE
  5
34B1
330
A
100
AcDbEntity
  8
0
  6
Continuous
 62
     7
 48
0.03
100
AcDbLine
 10
96.28143300000001
 20
165.736237
 30
0.0
 11
96.28143300000001
 21
164.5362399999999
 31
0.0
  0
ARC
  5
34B2
330
A
100
AcDbEntity
  8
0
  6
Continuous
 62
     7
100
AcDbCircle
 10
97.28143300000001
 20
165.736237
 30
0.0
 40
1.0
100
AcDbArc
 50
90.00000300000001
 51
180.000005
  0
LINE
  5
34B3
330
A
100
AcDbEntity
  8
0
  6
Continuous
 62
     7
 48
0.1425
100
AcDbLine
 10
102.9814299999999
 20
166.736237
 30
0.0
 11
97.28143300000001
 21
166.736237
 31
0.0
  0
ARC
  5
34B4
330
A
100
AcDbEntity
  8
0
  6
Continuous
 62
     7
100
AcDbCircle
 10
102.9814299999999
 20
165.736237
 30
0.0
 40
1.0
100
AcDbArc
 50
360.0
 51
90.00000300000001
  0
ARC
  5
34BC
330
A
100
AcDbEntity
  8
0
  6
Continuous
 62
     7
100
AcDbCircle
 10
104.1314319999999
 20
166.8862459999999
 30
0.0
 40
1.0
100
AcDbArc
 50
0.0
 51
90.00000300000001
  0
LINE
  5
34BD
330
A
100
AcDbEntity
  8
0
  6
Continuous
 62
     7
 48
0.2
100
AcDbLine
 10
96.13143200000001
 20
167.8862459999999
 30
0.0
 11
104.1314319999999
 21
167.8862459999999
 31
0.0
  0
ARC
  5
34BE
330
A
100
AcDbEntity
  8
0
  6
Continuous
 62
     7
100
AcDbCircle
 10
96.13143200000001
 20
166.8862459999999
 30
0.0
 40
1.0
100
AcDbArc
 50
90.00000300000001
 51
180.000005
  0
LINE
  5
34BF
330
A
100
AcDbEntity
  8
0
  6
Continuous
 62
     7
 48
0.175
100
AcDbLine
 10
95.131432
 20
159.886246
 30
0.0
 11
95.131432
 21
166.8862459999999
 31
0.0
  0
ARC
  5
34C0
330
A
100
AcDbEntity
  8
0
  6
Continuous
 62
     7
100
AcDbCircle
 10
96.13143200000001
 20
159.886246
 30
0.0
 40
1.0
100
AcDbArc
 50
179.9999949999999
 51
269.9999969999999
  0
LINE
  5
34C1
330
A
100
AcDbEntity
  8
0
  6
Continuous
 62
     7
 48
0.2
100
AcDbLine
 10
104.1314319999999
 20
158.886246
 30
0.0
 11
96.13143200000001
 21
158.886246
 31
0.0
  0
ARC
  5
34C2
330
A
100
AcDbEntity
  8
0
  6
Continuous
 62
     7
100
AcDbCircle
 10
104.1314319999999
 20
159.886246
 30
0.0
 40
1.0
100
AcDbArc
 50
269.9999969999999
 51
360.0
  0
LINE
  5
34C3
330
A
100
AcDbEntity
  8
0
  6
Continuous
 62
     7
 48
0.175
100
AcDbLine
 10
105.131432
 20
159.886246
 30
0.0
 11
105.131432
 21
166.8862459999999
 31
0.0
  0
LINE
  5
34C4
330
A
100
AcDbEntity
  8
0
  6
Continuous
 62
     7
 48
0.2
100
AcDbLine
 10
48.53142899999999
 20
167.8862459999999
 30
0.0
 11
56.531429
 21
167.8862459999999
 31
0.0
  0
LINE
  5
34C5
330
A
100
AcDbEntity
  8
0
  6
Continuous
 62
     7
 48
0.2
100
AcDbLine
 10
56.531429
 20
158.886246
 30
0.0
 11
48.53142899999999
 21
158.886246
 31
0.0
  0
ARC
  5
34C6
330
A
100
AcDbEntity
  8
0
  6
Continuous
 62
     7
100
AcDbCircle
 10
48.53142899999999
 20
166.8862459999999
 30
0.0
 40
1.0
100
AcDbArc
 50
90.00000300000001
 51
180.000005
  0
ARC
  5
34C7
330
A
100
AcDbEntity
  8
0
  6
Continuous
 62
     7
100
AcDbCircle
 10
56.531429
 20
166.8862459999999
 30
0.0
 40
1.0
100
AcDbArc
 50
360.0
 51
90.00000300000001
  0
ARC
  5
34C8
330
A
100
AcDbEntity
  8
0
  6
Continuous
 62
     7
100
AcDbCircle
 10
56.531429
 20
159.886246
 30
0.0
 40
1.0
100
AcDbArc
 50
269.9999969999999
 51
360.0
  0
ARC
  5
34C9
330
A
100
AcDbEntity
  8
0
  6
Continuous
 62
     7
100
AcDbCircle
 10
48.53142899999999
 20
159.886246
 30
0.0
 40
1.0
100
AcDbArc
 50
180.000005
 51
270.000001
  0
LINE
  5
34CA
330
A
100
AcDbEntity
  8
0
  6
Continuous
 62
     7
 48
0.175
100
AcDbLine
 10
47.53142899999999
 20
159.886246
 30
0.0
 11
47.53142899999999
 21
166.8862459999999
 31
0.0
  0
LINE
  5
34CB
330
A
100
AcDbEntity
  8
0
  6
Continuous
 62
     7
 48
0.175
100
AcDbLine
 10
57.531429
 20
159.886246
 30
0.0
 11
57.531429
 21
166.8862459999999
 31
0.0
  0
ARC
  5
34CC
330
A
100
AcDbEntity
  8
0
  6
Continuous
 62
     7
100
AcDbCircle
 10
55.381432
 20
165.736237
 30
0.0
 40
1.0
100
AcDbArc
 50
360.0
 51
90.00000300000001
  0
LINE
  5
34CD
330
A
100
AcDbEntity
  8
0
  6
Continuous
 62
     7
 48
0.03
100
AcDbLine
 10
56.381432
 20
164.5362399999999
 30
0.0
 11
56.381432
 21
165.736237
 31
0.0
  0
ARC
  5
34CE
330
A
100
AcDbEntity
  8
0
  6
Continuous
 62
     7
100
AcDbCircle
 10
55.381432
 20
164.5362399999999
 30
0.0
 40
1.0
100
AcDbArc
 50
269.9999969999999
 51
360.0
  0
LINE
  5
34CF
330
A
100
AcDbEntity
  8
0
  6
Continuous
 62
     7
 48
0.1425
100
AcDbLine
 10
49.681427
 20
163.5362399999999
 30
0.0
 11
55.381432
 21
163.5362399999999
 31
0.0
  0
ARC
  5
34D0
330
A
100
AcDbEntity
  8
0
  6
Continuous
 62
     7
100
AcDbCircle
 10
49.681427
 20
164.5362399999999
 30
0.0
 40
1.0
100
AcDbArc
 50
179.9999949999999
 51
269.9999969999999
  0
LINE
  5
34D1
330
A
100
AcDbEntity
  8
0
  6
Continuous
 62
     7
 48
0.03
100
AcDbLine
 10
48.68142699999999
 20
165.736237
 30
0.0
 11
48.68142699999999
 21
164.5362399999999
 31
0.0
  0
ARC
  5
34D2
330
A
100
AcDbEntity
  8
0
  6
Continuous
 62
     7
100
AcDbCircle
 10
49.681427
 20
165.736237
 30
0.0
 40
1.0
100
AcDbArc
 50
90.00000300000001
 51
180.000005
  0
LINE
  5
34D3
330
A
100
AcDbEntity
  8
0
  6
Continuous
 62
     7
 48
0.1425
100
AcDbLine
 10
55.381432
 20
166.736237
 30
0.0
 11
49.681427
 21
166.736237
 31
0.0
  0
LINE
  5
34D4
330
A
100
AcDbEntity
  8
0
  6
Continuous
 62
     7
 48
0.2
100
AcDbLine
 10
60.431427
 20
167.8862459999999
 30
0.0
 11
68.431427
 21
167.8862459999999
 31
0.0
  0
LINE
  5
34D5
330
A
100
AcDbEntity
  8
0
  6
Continuous
 62
     7
 48
0.2
100
AcDbLine
 10
68.431427
 20
158.886246
 30
0.0
 11
60.431427
 21
158.886246
 31
0.0
  0
ARC
  5
34D6
330
A
100
AcDbEntity
  8
0
  6
Continuous
 62
     7
100
AcDbCircle
 10
60.431427
 20
166.8862459999999
 30
0.0
 40
1.0
100
AcDbArc
 50
90.00000300000001
 51
180.000005
  0
ARC
  5
34D7
330
A
100
AcDbEntity
  8
0
  6
Continuous
 62
     7
100
AcDbCircle
 10
68.431427
 20
166.8862459999999
 30
0.0
 40
1.0
100
AcDbArc
 50
0.0
 51
90.00000300000001
  0
ARC
  5
34D8
330
A
100
AcDbEntity
  8
0
  6
Continuous
 62
     7
100
AcDbCircle
 10
68.431427
 20
159.886246
 30
0.0
 40
1.0
100
AcDbArc
 50
269.9999969999999
 51
0.0
  0
ARC
  5
34D9
330
A
100
AcDbEntity
  8
0
  6
Continuous
 62
     7
100
AcDbCircle
 10
60.431427
 20
159.886246
 30
0.0
 40
1.0
100
AcDbArc
 50
180.000005
 51
270.000001
  0
LINE
  5
34DA
330
A
100
AcDbEntity
  8
0
  6
Continuous
 62
     7
 48
0.175
100
AcDbLine
 10
59.431427
 20
159.886246
 30
0.0
 11
59.431427
 21
166.8862459999999
 31
0.0
  0
LINE
  5
34DB
330
A
100
AcDbEntity
  8
0
  6
Continuous
 62
     7
 48
0.175
100
AcDbLine
 10
69.431427
 20
159.886246
 30
0.0
 11
69.431427
 21
166.8862459999999
 31
0.0
  0
ARC
  5
34DC
330
A
100
AcDbEntity
  8
0
  6
Continuous
 62
     7
100
AcDbCircle
 10
67.28143299999999
 20
165.736237
 30
0.0
 40
1.0
100
AcDbArc
 50
0.0
 51
90.00000300000001
  0
LINE
  5
34DD
330
A
100
AcDbEntity
  8
0
  6
Continuous
 62
     7
 48
0.03
100
AcDbLine
 10
68.28143299999999
 20
164.5362399999999
 30
0.0
 11
68.28143299999999
 21
165.736237
 31
0.0
  0
ARC
  5
34DE
330
A
100
AcDbEntity
  8
0
  6
Continuous
 62
     7
100
AcDbCircle
 10
67.28143299999999
 20
164.5362399999999
 30
0.0
 40
1.0
100
AcDbArc
 50
269.9999969999999
 51
360.0
  0
LINE
  5
34DF
330
A
100
AcDbEntity
  8
0
  6
Continuous
 62
     7
 48
0.1425
100
AcDbLine
 10
61.58142900000001
 20
163.5362399999999
 30
0.0
 11
67.28143299999999
 21
163.5362399999999
 31
0.0
  0
ARC
  5
34E0
330
A
100
AcDbEntity
  8
0
  6
Continuous
 62
     7
100
AcDbCircle
 10
61.58142900000001
 20
164.5362399999999
 30
0.0
 40
1.0
100
AcDbArc
 50
180.000005
 51
270.000001
  0
LINE
  5
34E1
330
A
100
AcDbEntity
  8
0
  6
Continuous
 62
     7
 48
0.03
100
AcDbLine
 10
60.581429
 20
165.736237
 30
0.0
 11
60.581429
 21
164.5362399999999
 31
0.0
  0
ARC
  5
34E2
330
A
100
AcDbEntity
  8
0
  6
Continuous
 62
     7
100
AcDbCircle
 10
61.58142900000001
 20
165.736237
 30
0.0
 40
1.0
100
AcDbArc
 50
90.00000300000001
 51
180.000005
  0
LINE
  5
34E3
330
A
100
AcDbEntity
  8
0
  6
Continuous
 62
     7
 48
0.1425
100
AcDbLine
 10
67.28143299999999
 20
166.736237
 30
0.0
 11
61.58142900000001
 21
166.736237
 31
0.0
  0
LINE
  5
34E4
330
A
100
AcDbEntity
  8
0
  6
Continuous
 62
     7
 48
0.2
100
AcDbLine
 10
108.0314329999999
 20
167.8862459999999
 30
0.0
 11
116.031433
 21
167.8862459999999
 31
0.0
  0
LINE
  5
34E5
330
A
100
AcDbEntity
  8
0
  6
Continuous
 62
     7
 48
0.2
100
AcDbLine
 10
116.031433
 20
158.886246
 30
0.0
 11
108.0314329999999
 21
158.886246
 31
0.0
  0
ARC
  5
34E6
330
A
100
AcDbEntity
  8
0
  6
Continuous
 62
     7
100
AcDbCircle
 10
108.0314329999999
 20
166.8862459999999
 30
0.0
 40
1.0
100
AcDbArc
 50
90.00000300000001
 51
180.000005
  0
ARC
  5
34E7
330
A
100
AcDbEntity
  8
0
  6
Continuous
 62
     7
100
AcDbCircle
 10
116.031433
 20
166.8862459999999
 30
0.0
 40
1.0
100
AcDbArc
 50
0.0
 51
90.00000300000001
  0
ARC
  5
34E8
330
A
100
AcDbEntity
  8
0
  6
Continuous
 62
     7
100
AcDbCircle
 10
116.031433
 20
159.886246
 30
0.0
 40
1.0
100
AcDbArc
 50
269.9999969999999
 51
360.0
  0
ARC
  5
34E9
330
A
100
AcDbEntity
  8
0
  6
Continuous
 62
     7
100
AcDbCircle
 10
108.0314329999999
 20
159.886246
 30
0.0
 40
1.0
100
AcDbArc
 50
180.000005
 51
270.000001
  0
LINE
  5
34EA
330
A
100
AcDbEntity
  8
0
  6
Continuous
 62
     7
 48
0.175
100
AcDbLine
 10
107.031433
 20
159.886246
 30
0.0
 11
107.031433
 21
166.8862459999999
 31
0.0
  0
LINE
  5
34EB
330
A
100
AcDbEntity
  8
0
  6
Continuous
 62
     7
 48
0.175
100
AcDbLine
 10
117.031433
 20
159.886246
 30
0.0
 11
117.031433
 21
166.8862459999999
 31
0.0
  0
ARC
  5
34EC
330
A
100
AcDbEntity
  8
0
  6
Continuous
 62
     7
100
AcDbCircle
 10
114.8814239999999
 20
165.736237
 30
0.0
 40
1.0
100
AcDbArc
 50
0.0
 51
90.00000300000001
  0
LINE
  5
34ED
330
A
100
AcDbEntity
  8
0
  6
Continuous
 62
     7
 48
0.03
100
AcDbLine
 10
115.8814239999999
 20
164.5362399999999
 30
0.0
 11
115.8814239999999
 21
165.736237
 31
0.0
  0
ARC
  5
34EE
330
A
100
AcDbEntity
  8
0
  6
Continuous
 62
     7
100
AcDbCircle
 10
114.8814239999999
 20
164.5362399999999
 30
0.0
 40
1.0
100
AcDbArc
 50
269.9999969999999
 51
360.0
  0
LINE
  5
34EF
330
A
100
AcDbEntity
  8
0
  6
Continuous
 62
     7
 48
0.1425
100
AcDbLine
 10
109.1814269999999
 20
163.5362399999999
 30
0.0
 11
114.8814239999999
 21
163.5362399999999
 31
0.0
  0
ARC
  5
34F0
330
A
100
AcDbEntity
  8
0
  6
Continuous
 62
     7
100
AcDbCircle
 10
109.1814269999999
 20
164.5362399999999
 30
0.0
 40
1.0
100
AcDbArc
 50
180.000005
 51
270.000001
  0
LINE
  5
34F1
330
A
100
AcDbEntity
  8
0
  6
Continuous
 62
     7
 48
0.03
100
AcDbLine
 10
108.1814269999999
 20
165.736237
 30
0.0
 11
108.1814269999999
 21
164.5362399999999
 31
0.0
  0
ARC
  5
34F2
330
A
100
AcDbEntity
  8
0
  6
Continuous
 62
     7
100
AcDbCircle
 10
109.1814269999999
 20
165.736237
 30
0.0
 40
1.0
100
AcDbArc
 50
90.00000300000001
 51
180.000005
  0
LINE
  5
34F3
330
A
100
AcDbEntity
  8
0
  6
Continuous
 62
     7
 48
0.1425
100
AcDbLine
 10
114.8814239999999
 20
166.736237
 30
0.0
 11
109.1814269999999
 21
166.736237
 31
0.0
  0
LINE
  5
34F4
330
A
100
AcDbEntity
  8
0
  6
Continuous
 62
     7
 48
0.03
100
AcDbLine
 10
44.48142999999999
 20
164.5362399999999
 30
0.0
 11
44.48142999999999
 21
165.736237
 31
0.0
  0
ARC
  5
34F5
330
A
100
AcDbEntity
  8
0
  6
Continuous
 62
     7
100
AcDbCircle
 10
43.48142999999999
 20
164.5362399999999
 30
0.0
 40
1.0
100
AcDbArc
 50
269.9999969999999
 51
0.0
  0
LINE
  5
34F6
330
A
100
AcDbEntity
  8
0
  6
Continuous
 62
     7
 48
0.1425
100
AcDbLine
 10
37.78142899999997
 20
163.5362399999999
 30
0.0
 11
43.48142999999999
 21
163.5362399999999
 31
0.0
  0
ARC
  5
34F7
330
A
100
AcDbEntity
  8
0
  6
Continuous
 62
     7
100
AcDbCircle
 10
37.78142899999997
 20
164.5362399999999
 30
0.0
 40
1.0
100
AcDbArc
 50
180.000005
 51
270.000001
  0
LINE
  5
34F8
330
A
100
AcDbEntity
  8
0
  6
Continuous
 62
     7
 48
0.03
100
AcDbLine
 10
36.78142899999999
 20
165.736237
 30
0.0
 11
36.78142899999999
 21
164.5362399999999
 31
0.0
  0
ARC
  5
34F9
330
A
100
AcDbEntity
  8
0
  6
Continuous
 62
     7
100
AcDbCircle
 10
37.78142899999997
 20
165.736237
 30
0.0
 40
1.0
100
AcDbArc
 50
90.00000300000001
 51
180.000005
  0
LINE
  5
34FA
330
A
100
AcDbEntity
  8
0
  6
Continuous
 62
     7
 48
0.1425
100
AcDbLine
 10
43.48142999999999
 20
166.736237
 30
0.0
 11
37.78142899999997
 21
166.736237
 31
0.0
  0
ARC
  5
34FB
330
A
100
AcDbEntity
  8
0
  6
Continuous
 62
     7
100
AcDbCircle
 10
43.48142999999999
 20
165.736237
 30
0.0
 40
1.0
100
AcDbArc
 50
0.0
 51
90.00000300000001
  0
ARC
  5
3503
330
A
100
AcDbEntity
  8
0
  6
Continuous
 62
     7
100
AcDbCircle
 10
44.631432
 20
166.8862459999999
 30
0.0
 40
1.0
100
AcDbArc
 50
0.0
 51
90.00000300000001
  0
LINE
  5
3504
330
A
100
AcDbEntity
  8
0
  6
Continuous
 62
     7
 48
0.2
100
AcDbLine
 10
36.631428
 20
167.8862459999999
 30
0.0
 11
44.631432
 21
167.8862459999999
 31
0.0
  0
ARC
  5
3505
330
A
100
AcDbEntity
  8
0
  6
Continuous
 62
     7
100
AcDbCircle
 10
36.631428
 20
166.8862459999999
 30
0.0
 40
1.0
100
AcDbArc
 50
90.00000300000001
 51
180.000005
  0
LINE
  5
3506
330
A
100
AcDbEntity
  8
0
  6
Continuous
 62
     7
 48
0.175
100
AcDbLine
 10
35.631428
 20
159.886246
 30
0.0
 11
35.631428
 21
166.8862459999999
 31
0.0
  0
ARC
  5
3507
330
A
100
AcDbEntity
  8
0
  6
Continuous
 62
     7
100
AcDbCircle
 10
36.631428
 20
159.886246
 30
0.0
 40
1.0
100
AcDbArc
 50
179.9999949999999
 51
269.9999969999999
  0
LINE
  5
3508
330
A
100
AcDbEntity
  8
0
  6
Continuous
 62
     7
 48
0.2
100
AcDbLine
 10
44.631432
 20
158.886246
 30
0.0
 11
36.631428
 21
158.886246
 31
0.0
  0
ARC
  5
3509
330
A
100
AcDbEntity
  8
0
  6
Continuous
 62
     7
100
AcDbCircle
 10
44.631432
 20
159.886246
 30
0.0
 40
1.0
100
AcDbArc
 50
269.9999969999999
 51
360.0
  0
LINE
  5
350A
330
A
100
AcDbEntity
  8
0
  6
Continuous
 62
     7
 48
0.175
100
AcDbLine
 10
45.631432
 20
159.886246
 30
0.0
 11
45.631432
 21
166.8862459999999
 31
0.0
  0
LINE
  5
350B
330
A
100
AcDbEntity
  8
0
  6
Continuous
 62
     7
 48
0.0125
100
AcDbLine
 10
120.331429
 20
145.7862399999999
 30
0.0
 11
119.831429
 21
145.7862399999999
 31
0.0
  0
LINE
  5
350D
330
A
100
AcDbEntity
  8
0
  6
Continuous
 62
     7
 48
0.0125
100
AcDbLine
 10
119.831429
 20
145.3578189999998
 30
0.0
 11
120.331429
 21
145.3578189999998
 31
0.0
  0
LINE
  5
350F
330
A
100
AcDbEntity
  8
0
  6
Continuous
 62
     7
 48
0.0125
100
AcDbLine
 10
32.331429
 20
145.7862399999999
 30
0.0
 11
32.831429
 21
145.7862399999999
 31
0.0
  0
LINE
  5
3510
330
A
100
AcDbEntity
  8
0
  6
Continuous
 62
     7
 48
0.0125
100
AcDbLine
 10
32.331429
 20
145.3578189999998
 30
0.0
 11
32.831429
 21
145.3578189999998
 31
0.0
  0
LINE
  5
3511
330
A
100
AcDbEntity
  8
0
  6
Continuous
 62
     7
 48
0.017678
100
AcDbLine
 10
81.33142900000001
 20
156.686249
 30
0.0
 11
80.831429
 21
156.186249
 31
0.0
  0
LINE
  5
3514
330
A
100
AcDbEntity
  8
0
  6
Continuous
 62
     7
 48
0.033294
100
AcDbLine
 10
119.831429
 20
149.186249
 30
0.0
 11
119.831429
 21
145.3578189999998
 31
0.0
  0
LINE
  5
3515
330
A
100
AcDbEntity
  8
0
  6
Continuous
 62
     7
100
AcDbLine
 10
32.831429
 20
149.186249
 30
0.0
 11
119.831429
 21
149.186249
 31
0.0
  0
LINE
  5
3516
330
A
100
AcDbEntity
  8
0
  6
Continuous
 62
     7
 48
0.025
100
AcDbLine
 10
32.831429
 20
145.3578189999998
 30
0.0
 11
32.831429
 21
149.186249
 31
0.0
  0
LINE
  5
3519
330
A
100
AcDbEntity
  8
0
  6
Continuous
 62
     7
 48
0.017678
100
AcDbLine
 10
71.331429
 20
156.686249
 30
0.0
 11
71.83142899999999
 21
156.186249
 31
0.0
  0
LINE
  5
351A
330
A
100
AcDbEntity
  8
0
  6
Continuous
 62
     7
100
AcDbLine
 10
34.33142899999999
 20
156.186249
 30
0.0
 11
118.3314289999999
 21
156.186249
 31
0.0
  0
ARC
  5
351B
330
A
100
AcDbEntity
  8
0
  6
Continuous
 62
     7
100
AcDbCircle
 10
34.33142899999999
 20
154.686249
 30
0.0
 40
1.5
100
AcDbArc
 50
90.00000300000001
 51
180.000005
  0
LINE
  5
351C
330
A
100
AcDbEntity
  8
0
  6
Continuous
 62
     7
 48
0.125
100
AcDbLine
 10
32.831429
 20
149.686249
 30
0.0
 11
32.831429
 21
154.686249
 31
0.0
  0
LINE
  5
351D
330
A
100
AcDbEntity
  8
0
  6
Continuous
 62
     7
100
AcDbLine
 10
32.831429
 20
149.686249
 30
0.0
 11
119.831429
 21
149.686249
 31
0.0
  0
LINE
  5
351E
330
A
100
AcDbEntity
  8
0
  6
Continuous
 62
     7
 48
0.125
100
AcDbLine
 10
119.831429
 20
149.686249
 30
0.0
 11
119.831429
 21
154.686249
 31
0.0
  0
ARC
  5
351F
330
A
100
AcDbEntity
  8
0
  6
Continuous
 62
     7
100
AcDbCircle
 10
118.3314289999999
 20
154.686249
 30
0.0
 40
1.5
100
AcDbArc
 50
0.0
 51
90.00000300000001
  0
ARC
  5
3520
330
A
100
AcDbEntity
  8
0
  6
Continuous
 62
     7
100
AcDbCircle
 10
118.3314289999999
 20
154.686249
 30
0.0
 40
2.0
100
AcDbArc
 50
0.0
 51
90.00000300000001
  0
LINE
  5
3522
330
A
100
AcDbEntity
  8
0
  6
Continuous
 62
     7
100
AcDbLine
 10
119.831429
 20
145.3578189999998
 30
0.0
 11
32.831429
 21
145.3578189999998
 31
0.0
  0
LINE
  5
39A0
330
A
100
AcDbEntity
  8
0
  6
DASHED
 62
     4
 48
0.05
100
AcDbLine
 10
260.185242
 20
235.1873779999999
 30
0.0
 11
260.185242
 21
237.1873779999999
 31
0.0
  0
LINE
  5
39A1
330
A
100
AcDbEntity
  8
0
  6
DASHED
 62
     4
100
AcDbLine
 10
280.185242
 20
235.1873779999999
 30
0.0
 11
260.185242
 21
235.1873779999999
 31
0.0
  0
ARC
  5
39A2
330
A
100
AcDbEntity
  8
0
  6
DASHED
 62
     4
100
AcDbCircle
 10
280.185242
 20
232.1873779999999
 30
0.0
 40
3.0
100
AcDbArc
 50
0.00001
 51
89.999996
  0
LINE
  5
39A3
330
A
100
AcDbEntity
  8
0
  6
DASHED
 62
     4
100
AcDbLine
 10
283.185242
 20
154.1873779999999
 30
0.0
 11
283.185242
 21
232.1873779999999
 31
0.0
  0
ARC
  5
39A4
330
A
100
AcDbEntity
  8
0
  6
DASHED
 62
     4
100
AcDbCircle
 10
280.185242
 20
154.1873779999999
 30
0.0
 40
3.0
100
AcDbArc
 50
270.0000549999999
 51
0.00001
  0
LINE
  5
39A5
330
A
100
AcDbEntity
  8
0
  6
DASHED
 62
     4
100
AcDbLine
 10
260.185242
 20
151.1873779999999
 30
0.0
 11
280.185242
 21
151.1873779999999
 31
0.0
  0
LINE
  5
39A6
330
A
100
AcDbEntity
  8
0
  6
DASHED
 62
     4
 48
0.05
100
AcDbLine
 10
260.185242
 20
149.1873779999995
 30
0.0
 11
260.185242
 21
151.1873779999999
 31
0.0
  0
LINE
  5
39A7
330
A
100
AcDbEntity
  8
0
  6
DASHED
 62
     4
100
AcDbLine
 10
286.185242
 20
149.1873779999995
 30
0.0
 11
260.185242
 21
149.1873779999995
 31
0.0
  0
ARC
  5
39A8
330
A
100
AcDbEntity
  8
0
  6
DASHED
 62
     4
100
AcDbCircle
 10
286.185242
 20
150.1873779999999
 30
0.0
 40
1.0
100
AcDbArc
 50
270.000001
 51
0.00001
  0
LINE
  5
39A9
330
A
100
AcDbEntity
  8
0
  6
DASHED
 62
     4
100
AcDbLine
 10
287.185242
 20
236.1873779999999
 30
0.0
 11
287.185242
 21
150.1873779999999
 31
0.0
  0
ARC
  5
39AA
330
A
100
AcDbEntity
  8
0
  6
DASHED
 62
     4
100
AcDbCircle
 10
286.1853029999998
 20
236.1970209999999
 30
0.0
 40
1.0
100
AcDbArc
 50
359.447448
 51
82.03650000000001
  0
LINE
  5
39AB
330
A
100
AcDbEntity
  8
0
  6
DASHED
 62
     4
100
AcDbLine
 10
260.185242
 20
237.1873779999999
 30
0.0
 11
286.3238529999998
 21
237.1873779999999
 31
0.0
  0
LINE
  5
39AF
330
A
100
AcDbEntity
  8
0
  6
Continuous
 62
     7
100
AcDbLine
 10
260.185242
 20
237.700104
 30
0.0
 11
260.185242
 21
197.672379
 31
0.0
  0
LINE
  5
39B0
330
A
100
AcDbEntity
  8
0
  6
Continuous
 62
     7
 48
0.224307
100
AcDbLine
 10
260.185242
 20
197.672379
 30
0.0
 11
260.185242
 21
188.700104
 31
0.0
  0
LINE
  5
39B1
330
A
100
AcDbEntity
  8
0
  6
Continuous
 62
     7
100
AcDbLine
 10
260.185242
 20
188.700104
 30
0.0
 11
260.185242
 21
148.672379
 31
0.0
  0
LINE
  5
39B6
330
A
100
AcDbEntity
  8
0
  6
Continuous
 62
     7
100
AcDbLine
 10
145.1852419999999
 20
241.186249
 30
0.0
 11
145.1852419999999
 21
145.186249
 31
0.0
  0
LINE
  5
39BA
330
A
100
AcDbEntity
  8
0
  6
Continuous
 62
     7
100
AcDbLine
 10
260.185242
 20
237.700104
 30
0.0
 11
147.1852419999999
 21
238.686249
 31
0.0
  0
LINE
  5
39BC
330
A
100
AcDbEntity
  8
0
  6
Continuous
 62
     7
 48
0.056012
100
AcDbLine
 10
214.3612979999999
 20
148.272476
 30
0.0
 11
216.601685
 21
148.2920229999999
 31
0.0
  0
LINE
  5
39BD
330
A
100
AcDbEntity
  8
0
  6
Continuous
 62
     7
100
AcDbLine
 10
260.185242
 20
148.672379
 30
0.0
 11
147.1852419999999
 21
147.686249
 31
0.0
  0
LWPOLYLINE
  5
39BE
330
A
100
AcDbEntity
  8
0
  6
Continuous
 62
     7
100
AcDbPolyline
 90
        7
 70
     0
 43
0.0
 10
215.925644
 20
237.0863949999999
 10
215.9599
 20
237.400314
 10
216.054367
 20
237.672241
 10
216.19136
 20
237.878784
 10
216.3540649999999
 20
238.0131229999999
 10
216.5299379999999
 20
238.075439
 10
216.601685
 20
238.0804439999999
  0
LINE
  5
39C7
330
A
100
AcDbEntity
  8
0
  6
Continuous
 62
     7
 48
0.025001
100
AcDbLine
 10
215.925644
 20
237.0863949999999
 30
0.0
 11
215.925644
 21
236.086349
 31
0.0
  0
LINE
  5
39C8
330
A
100
AcDbEntity
  8
0
  6
Continuous
 62
     7
100
AcDbLine
 10
260.185242
 20
235.700104
 30
0.0
 11
214.3612979999999
 21
236.100006
 31
0.0
  0
LWPOLYLINE
  5
39C9
330
A
100
AcDbEntity
  8
0
  6
Continuous
 62
     7
100
AcDbPolyline
 90
        7
 70
     0
 43
0.0
 10
214.3612979999999
 20
236.100006
 10
214.183044
 20
236.066177
 10
214.0137329999999
 20
235.960785
 10
213.8647
 20
235.7829129999999
 10
213.750977
 20
235.535461
 10
213.6908259999999
 20
235.2341609999999
 10
213.6852419999999
 20
235.1059419999999
  0
LINE
  5
39D2
330
A
100
AcDbEntity
  8
0
  6
Continuous
 62
     7
 48
0.05
100
AcDbLine
 10
213.6852419999999
 20
151.2665409999998
 30
0.0
 11
213.6852419999999
 21
149.2665409999998
 31
0.0
  0
LINE
  5
39D3
330
A
100
AcDbEntity
  8
0
  6
Continuous
 62
     7
 48
0.05
100
AcDbLine
 10
213.6852419999999
 20
237.1059419999999
 30
0.0
 11
213.6852419999999
 21
235.1059419999999
 31
0.0
  0
LINE
  5
39D4
330
A
100
AcDbEntity
  8
0
  6
Continuous
 62
     7
 48
0.200008
100
AcDbLine
 10
260.185242
 20
197.672379
 30
0.0
 11
252.185242
 21
197.602554
 31
0.0
  0
LINE
  5
39D5
330
A
100
AcDbEntity
  8
0
  6
Continuous
 62
     7
 48
0.220816
100
AcDbLine
 10
252.185242
 20
197.602554
 30
0.0
 11
252.185242
 21
188.769913
 31
0.0
  0
LINE
  5
39D6
330
A
100
AcDbEntity
  8
0
  6
Continuous
 62
     7
 48
0.200008
100
AcDbLine
 10
260.185242
 20
188.700104
 30
0.0
 11
252.185242
 21
188.769913
 31
0.0
  0
LWPOLYLINE
  5
39D7
330
A
100
AcDbEntity
  8
0
  6
Continuous
 62
     7
100
AcDbPolyline
 90
        7
 70
     0
 43
0.0
 10
214.3612979999999
 20
150.272476
 10
214.1937259999999
 20
150.3022159999999
 10
214.033508
 20
150.395004
 10
213.8897859999999
 20
150.5516969999999
 10
213.774429
 20
150.770905
 10
213.702423
 20
151.042664
 10
213.6852419999999
 20
151.2665409999998
  0
LINE
  5
39E0
330
A
100
AcDbEntity
  8
0
  6
Continuous
 62
     7
100
AcDbLine
 10
260.185242
 20
150.672379
 30
0.0
 11
214.3612979999999
 21
150.272476
 31
0.0
  0
LINE
  5
39E1
330
A
100
AcDbEntity
  8
0
  6
Continuous
 62
     7
 48
0.025001
100
AcDbLine
 10
215.925644
 20
150.2861329999998
 30
0.0
 11
215.925644
 21
149.286087
 31
0.0
  0
LWPOLYLINE
  5
39E2
330
A
100
AcDbEntity
  8
0
  6
Continuous
 62
     7
100
AcDbPolyline
 90
        7
 70
     0
 43
0.0
 10
215.925644
 20
149.286087
 10
215.9599
 20
148.9721679999999
 10
216.054367
 20
148.700241
 10
216.19136
 20
148.493698
 10
216.3540649999999
 20
148.3593439999999
 10
216.5299379999999
 20
148.297058
 10
216.601685
 20
148.2920229999999
  0
LINE
  5
39EB
330
A
100
AcDbEntity
  8
0
  6
Continuous
 62
     7
 48
0.15
100
AcDbLine
 10
260.185242
 20
151.186249
 30
0.0
 11
267.185242
 21
151.1873779999999
 31
0.0
  0
LINE
  5
39ED
330
A
100
AcDbEntity
  8
0
  6
Continuous
 62
     7
 48
0.15
100
AcDbLine
 10
260.185242
 20
153.1862489999999
 30
0.0
 11
267.185242
 21
153.1862489999999
 31
0.0
  0
LINE
  5
39F1
330
A
100
AcDbEntity
  8
0
  6
Continuous
 62
     7
 48
0.15
100
AcDbLine
 10
260.185242
 20
161.186234
 30
0.0
 11
267.185242
 21
161.186234
 31
0.0
  0
LINE
  5
39F2
330
A
100
AcDbEntity
  8
0
  6
Continuous
 62
     7
 48
0.15
100
AcDbLine
 10
260.185242
 20
162.186234
 30
0.0
 11
267.185242
 21
162.186234
 31
0.0
  0
LINE
  5
39F6
330
A
100
AcDbEntity
  8
0
  6
Continuous
 62
     7
 48
0.15
100
AcDbLine
 10
260.185242
 20
170.186234
 30
0.0
 11
267.185242
 21
170.186234
 31
0.0
  0
LINE
  5
39F7
330
A
100
AcDbEntity
  8
0
  6
Continuous
 62
     7
 48
0.15
100
AcDbLine
 10
260.185242
 20
171.186234
 30
0.0
 11
267.185242
 21
171.186234
 31
0.0
  0
LINE
  5
39FB
330
A
100
AcDbEntity
  8
0
  6
Continuous
 62
     7
 48
0.15
100
AcDbLine
 10
260.185242
 20
179.186234
 30
0.0
 11
267.185242
 21
179.186234
 31
0.0
  0
LINE
  5
39FC
330
A
100
AcDbEntity
  8
0
  6
Continuous
 62
     7
 48
0.15
100
AcDbLine
 10
260.185242
 20
180.186234
 30
0.0
 11
267.185242
 21
180.186234
 31
0.0
  0
LINE
  5
3A00
330
A
100
AcDbEntity
  8
0
  6
Continuous
 62
     7
 48
0.15
100
AcDbLine
 10
260.185242
 20
188.1862339999999
 30
0.0
 11
267.185242
 21
188.1862339999999
 31
0.0
  0
LINE
  5
3A01
330
A
100
AcDbEntity
  8
0
  6
Continuous
 62
     7
 48
0.15
100
AcDbLine
 10
260.185242
 20
189.186234
 30
0.0
 11
267.185242
 21
189.186234
 31
0.0
  0
LINE
  5
3A05
330
A
100
AcDbEntity
  8
0
  6
Continuous
 62
     7
 48
0.15
100
AcDbLine
 10
260.185242
 20
197.186234
 30
0.0
 11
267.185242
 21
197.186234
 31
0.0
  0
LINE
  5
3A06
330
A
100
AcDbEntity
  8
0
  6
Continuous
 62
     7
 48
0.15
100
AcDbLine
 10
260.185242
 20
198.186234
 30
0.0
 11
267.185242
 21
198.186234
 31
0.0
  0
LINE
  5
3A0A
330
A
100
AcDbEntity
  8
0
  6
Continuous
 62
     7
 48
0.15
100
AcDbLine
 10
260.185242
 20
206.186234
 30
0.0
 11
267.185242
 21
206.186234
 31
0.0
  0
LINE
  5
3A0B
330
A
100
AcDbEntity
  8
0
  6
Continuous
 62
     7
 48
0.15
100
AcDbLine
 10
260.185242
 20
216.1862339999999
 30
0.0
 11
267.185242
 21
216.1862339999999
 31
0.0
  0
LINE
  5
3A0F
330
A
100
AcDbEntity
  8
0
  6
Continuous
 62
     7
 48
0.15
100
AcDbLine
 10
260.185242
 20
224.1862339999999
 30
0.0
 11
267.185242
 21
224.1862339999999
 31
0.0
  0
LINE
  5
3A10
330
A
100
AcDbEntity
  8
0
  6
Continuous
 62
     7
 48
0.15
100
AcDbLine
 10
260.185242
 20
225.186249
 30
0.0
 11
267.185242
 21
225.186249
 31
0.0
  0
LINE
  5
3A14
330
A
100
AcDbEntity
  8
0
  6
Continuous
 62
     7
 48
0.15
100
AcDbLine
 10
260.185242
 20
233.186249
 30
0.0
 11
267.185242
 21
233.186249
 31
0.0
  0
LINE
  5
3A15
330
A
100
AcDbEntity
  8
0
  6
Continuous
 62
     7
 48
0.15
100
AcDbLine
 10
260.185242
 20
235.186249
 30
0.0
 11
267.185242
 21
235.186249
 31
0.0
  0
LINE
  5
3A17
330
A
100
AcDbEntity
  8
0
  6
Continuous
 62
     7
 48
0.05
100
AcDbLine
 10
145.1852419999999
 20
145.186249
 30
0.0
 11
147.1852419999999
 21
145.186249
 31
0.0
  0
LINE
  5
3A19
330
A
100
AcDbEntity
  8
0
  6
Continuous
 62
     7
100
AcDbLine
 10
147.1852419999999
 20
241.186249
 30
0.0
 11
147.1852419999999
 21
145.186249
 31
0.0
  0
LINE
  5
3A1B
330
A
100
AcDbEntity
  8
0
  6
Continuous
 62
     7
 48
0.05
100
AcDbLine
 10
145.1852419999999
 20
241.186249
 30
0.0
 11
147.1852419999999
 21
241.186249
 31
0.0
  0
LWPOLYLINE
  5
3A1C
330
A
100
AcDbEntity
  8
0
  6
Continuous
 62
     7
100
AcDbPolyline
 90
        7
 70
     0
 43
0.0
 10
213.6852419999999
 20
237.1059419999999
 10
213.7194819999999
 20
237.419861
 10
213.8139649999998
 20
237.691788
 10
213.950958
 20
237.898331
 10
214.113678
 20
238.0326839999999
 10
214.289536
 20
238.0949859999999
 10
214.3612979999999
 20
238.100006
  0
LWPOLYLINE
  5
3A25
330
A
100
AcDbEntity
  8
0
  6
Continuous
 62
     7
100
AcDbPolyline
 90
        7
 70
     0
 43
0.0
 10
213.6852419999999
 20
149.2665409999998
 10
213.7194819999999
 20
148.952606
 10
213.8139649999998
 20
148.6806949999999
 10
213.950958
 20
148.474152
 10
214.113678
 20
148.339798
 10
214.289536
 20
148.2774959999999
 10
214.3612979999999
 20
148.272476
  0
LINE
  5
3A34
330
A
100
AcDbEntity
  8
0
  6
Continuous
 62
     7
 48
0.05
100
AcDbLine
 10
267.185242
 20
235.186249
 30
0.0
 11
267.185242
 21
151.1873779999999
 31
0.0
  0
LINE
  5
3A5B
330
A
100
AcDbEntity
  8
0
  6
Continuous
 62
     7
100
AcDbLine
 10
140.1852419999999
 20
238.186249
 30
0.0
 11
140.1852419999999
 21
148.186249
 31
0.0
  0
ARC
  5
3A5C
330
A
100
AcDbEntity
  8
0
  6
Continuous
 62
     7
100
AcDbCircle
 10
143.185242
 20
148.186249
 30
0.0
 40
3.0
100
AcDbArc
 50
180.000005
 51
270.000001
  0
ARC
  5
3A5D
330
A
100
AcDbEntity
  8
0
  6
Continuous
 62
     7
100
AcDbCircle
 10
143.185242
 20
238.186249
 30
0.0
 40
3.0
100
AcDbArc
 50
90.00000300000001
 51
180.000005
  0
ARC
  5
3A5E
330
A
100
AcDbEntity
  8
0
  6
Continuous
 62
     7
100
AcDbCircle
 10
173.872635
 20
163.386246
 30
0.0
 40
34.0
100
AcDbArc
 50
172.224367
 51
187.775629
  0
LINE
  5
3A63
330
A
100
AcDbEntity
  8
0
  6
Continuous
 62
     7
 48
0.025
100
AcDbLine
 10
145.1852419999999
 20
188.1862339999999
 30
0.0
 11
144.1852419999999
 21
188.1862339999999
 31
0.0
  0
LINE
  5
3A64
330
A
100
AcDbEntity
  8
0
  6
Continuous
 62
     7
 48
0.25
100
AcDbLine
 10
144.1852419999999
 20
198.186234
 30
0.0
 11
144.1852419999999
 21
188.1862339999999
 31
0.0
  0
LINE
  5
3A65
330
A
100
AcDbEntity
  8
0
  6
Continuous
 62
     7
 48
0.025
100
AcDbLine
 10
145.1852419999999
 20
198.186234
 30
0.0
 11
144.1852419999999
 21
198.186234
 31
0.0
  0
LINE
  5
3A66
330
A
100
AcDbEntity
  8
0
  6
Continuous
 62
     7
 48
0.05
100
AcDbLine
 10
145.1852419999999
 20
241.186249
 30
0.0
 11
143.185242
 21
241.186249
 31
0.0
  0
LINE
  5
3A68
330
A
100
AcDbEntity
  8
0
  6
Continuous
 62
     7
 48
0.25
100
AcDbLine
 10
145.1852419999999
 20
188.1862339999999
 30
0.0
 11
145.1852419999999
 21
198.186234
 31
0.0
  0
LINE
  5
3A8E
330
A
100
AcDbEntity
  8
0
  6
Continuous
 62
     7
 48
0.005296
100
AcDbLine
 10
140.1717379999996
 20
167.8862459999999
 30
0.0
 11
139.959885
 21
167.8862459999999
 31
0.0
  0
LINE
  5
3A8F
330
A
100
AcDbEntity
  8
0
  6
Continuous
 62
     7
 48
0.005296
100
AcDbLine
 10
140.1717379999996
 20
158.886246
 30
0.0
 11
139.959885
 21
158.886246
 31
0.0
  0
ARC
  5
3A90
330
A
100
AcDbEntity
  8
0
  6
Continuous
 62
     7
100
AcDbCircle
 10
139.959885
 20
167.686234
 30
0.0
 40
0.2
100
AcDbArc
 50
90.00000300000001
 51
172.6910879999999
  0
ARC
  5
3A91
330
A
100
AcDbEntity
  8
0
  6
Continuous
 62
     7
100
AcDbCircle
 10
139.959885
 20
159.086243
 30
0.0
 40
0.2
100
AcDbArc
 50
187.3089219999999
 51
270.000001
  0
ARC
  5
3A92
330
A
100
AcDbEntity
  8
0
  6
Continuous
 62
     7
100
AcDbCircle
 10
173.4852449999999
 20
163.386246
 30
0.0
 40
34.0
100
AcDbArc
 50
172.6910879999999
 51
185.943649
  0
ARC
  5
3A93
330
A
100
AcDbEntity
  8
0
  6
Continuous
 62
     7
100
AcDbCircle
 10
173.4852449999999
 20
163.386246
 30
0.0
 40
34.0
100
AcDbArc
 50
185.943653
 51
187.308912
  0
CIRCLE
  5
53B8
330
A
100
AcDbEntity
  8
0
  6
Continuous
 62
     7
100
AcDbCircle
 10
384.353882
 20
229.186249
 30
0.0
 40
3.0
  0
CIRCLE
  5
53B9
330
A
100
AcDbEntity
  8
0
  6
Continuous
 62
     7
100
AcDbCircle
 10
384.353882
 20
220.1862339999999
 30
0.0
 40
3.0
  0
LINE
  5
53BA
330
A
100
AcDbEntity
  8
0
  6
Continuous
 62
     7
 48
0.15
100
AcDbLine
 10
347.753906
 20
199.186234
 30
0.0
 11
347.753906
 21
205.186234
 31
0.0
  0
LINE
  5
53BB
330
A
100
AcDbEntity
  8
0
  6
Continuous
 62
     7
 48
0.05
100
AcDbLine
 10
345.753906
 20
205.186234
 30
0.0
 11
347.753906
 21
205.186234
 31
0.0
  0
LINE
  5
53BC
330
A
100
AcDbEntity
  8
0
  6
Continuous
 62
     7
 48
0.15
100
AcDbLine
 10
345.753906
 20
205.186234
 30
0.0
 11
345.753906
 21
199.186234
 31
0.0
  0
LINE
  5
53BD
330
A
100
AcDbEntity
  8
0
  6
Continuous
 62
     7
 48
0.05
100
AcDbLine
 10
347.753906
 20
199.186234
 30
0.0
 11
345.753906
 21
199.186234
 31
0.0
  0
LINE
  5
53BE
330
A
100
AcDbEntity
  8
0
  6
Continuous
 62
     7
 48
0.05
100
AcDbLine
 10
363.753906
 20
205.186234
 30
0.0
 11
365.753906
 21
205.186234
 31
0.0
  0
LINE
  5
53BF
330
A
100
AcDbEntity
  8
0
  6
Continuous
 62
     7
 48
0.15
100
AcDbLine
 10
363.753906
 20
205.186234
 30
0.0
 11
363.753906
 21
199.186234
 31
0.0
  0
LINE
  5
53C0
330
A
100
AcDbEntity
  8
0
  6
Continuous
 62
     7
 48
0.05
100
AcDbLine
 10
365.753906
 20
199.186234
 30
0.0
 11
363.753906
 21
199.186234
 31
0.0
  0
LINE
  5
53C1
330
A
100
AcDbEntity
  8
0
  6
Continuous
 62
     7
 48
0.15
100
AcDbLine
 10
365.753906
 20
199.186234
 30
0.0
 11
365.753906
 21
205.186234
 31
0.0
  0
LINE
  5
53C9
330
A
100
AcDbEntity
  8
0
  6
Continuous
 62
     7
 48
0.100347
100
AcDbLine
 10
348.253906
 20
152.686249
 30
0.0
 11
348.253906
 21
148.672379
 31
0.0
  0
ARC
  5
53CA
330
A
100
AcDbEntity
  8
0
  6
Continuous
 62
     7
100
AcDbCircle
 10
350.753906
 20
152.686249
 30
0.0
 40
2.5
100
AcDbArc
 50
0.00001
 51
180.0000009999999
  0
LINE
  5
53CB
330
A
100
AcDbEntity
  8
0
  6
Continuous
 62
     7
 48
0.100347
100
AcDbLine
 10
353.253906
 20
148.672379
 30
0.0
 11
353.253906
 21
152.686249
 31
0.0
  0
LINE
  5
53CC
330
A
100
AcDbEntity
  8
0
  6
Continuous
 62
     7
100
AcDbLine
 10
353.253906
 20
148.672379
 30
0.0
 11
390.953918
 21
148.672379
 31
0.0
  0
ARC
  5
53CD
330
A
100
AcDbEntity
  8
0
  6
Continuous
 62
     7
100
AcDbCircle
 10
390.953949
 20
149.672318
 30
0.0
 40
0.999943
100
AcDbArc
 50
269.999
 51
0.00099
  0
LINE
  5
53CE
330
A
100
AcDbEntity
  8
0
  6
Continuous
 62
     7
 48
0.025001
100
AcDbLine
 10
391.953888
 20
149.672333
 30
0.0
 11
391.953888
 21
150.672379
 31
0.0
  0
LINE
  5
53CF
330
A
100
AcDbEntity
  8
0
  6
Continuous
 62
     7
 48
0.057848
100
AcDbLine
 10
394.2677919999998
 20
150.672379
 30
0.0
 11
391.953888
 21
150.672379
 31
0.0
  0
ARC
  5
53D0
330
A
100
AcDbEntity
  8
0
  6
Continuous
 62
     7
100
AcDbCircle
 10
394.267822
 20
151.6723179999999
 30
0.0
 40
0.999943
100
AcDbArc
 50
269.999007
 51
0.000996
  0
LINE
  5
53D1
330
A
100
AcDbEntity
  8
0
  6
Continuous
 62
     7
100
AcDbLine
 10
395.267761
 20
188.700104
 30
0.0
 11
395.267761
 21
151.672333
 31
0.0
  0
LINE
  5
53D2
330
A
100
AcDbEntity
  8
0
  6
Continuous
 62
     7
 48
0.018168
100
AcDbLine
 10
394.753906
 20
188.1862339999999
 30
0.0
 11
395.267761
 21
188.700104
 31
0.0
  0
LINE
  5
53D3
330
A
100
AcDbEntity
  8
0
  6
Continuous
 62
     7
 48
0.25
100
AcDbLine
 10
394.753906
 20
198.186234
 30
0.0
 11
394.753906
 21
188.1862339999999
 31
0.0
  0
LINE
  5
53D4
330
A
100
AcDbEntity
  8
0
  6
Continuous
 62
     7
 48
0.018168
100
AcDbLine
 10
394.753906
 20
198.186234
 30
0.0
 11
395.267761
 21
197.672379
 31
0.0
  0
LINE
  5
53D5
330
A
100
AcDbEntity
  8
0
  6
Continuous
 62
     7
100
AcDbLine
 10
395.267761
 20
234.7001339999999
 30
0.0
 11
395.267761
 21
197.672379
 31
0.0
  0
ARC
  5
53D6
330
A
100
AcDbEntity
  8
0
  6
Continuous
 62
     7
100
AcDbCircle
 10
394.267822
 20
234.700165
 30
0.0
 40
0.999943
100
AcDbArc
 50
359.999004
 51
90.000993
  0
LINE
  5
53D7
330
A
100
AcDbEntity
  8
0
  6
Continuous
 62
     7
 48
0.057848
100
AcDbLine
 10
394.2677919999998
 20
235.700104
 30
0.0
 11
391.953888
 21
235.700104
 31
0.0
  0
LINE
  5
53D8
330
A
100
AcDbEntity
  8
0
  6
Continuous
 62
     7
 48
0.025001
100
AcDbLine
 10
391.953888
 20
236.7001339999999
 30
0.0
 11
391.953888
 21
235.700104
 31
0.0
  0
ARC
  5
53D9
330
A
100
AcDbEntity
  8
0
  6
Continuous
 62
     7
100
AcDbCircle
 10
390.953949
 20
236.700165
 30
0.0
 40
0.999943
100
AcDbArc
 50
359.9990099999998
 51
90.00100000000001
  0
LINE
  5
53DA
330
A
100
AcDbEntity
  8
0
  6
Continuous
 62
     7
100
AcDbLine
 10
310.553864
 20
237.700104
 30
0.0
 11
390.953918
 21
237.700104
 31
0.0
  0
ARC
  5
53DB
330
A
100
AcDbEntity
  8
0
  6
Continuous
 62
     7
100
AcDbCircle
 10
310.5538329999999
 20
236.700165
 30
0.0
 40
0.999943
100
AcDbArc
 50
89.999005
 51
180.000989
  0
LINE
  5
53DC
330
A
100
AcDbEntity
  8
0
  6
Continuous
 62
     7
 48
0.025001
100
AcDbLine
 10
309.553894
 20
236.7001339999999
 30
0.0
 11
309.553894
 21
235.700104
 31
0.0
  0
LINE
  5
53DD
330
A
100
AcDbEntity
  8
0
  6
Continuous
 62
     7
 48
0.057848
100
AcDbLine
 10
307.2399899999997
 20
235.700104
 30
0.0
 11
309.553894
 21
235.700104
 31
0.0
  0
ARC
  5
53DE
330
A
100
AcDbEntity
  8
0
  6
Continuous
 62
     7
100
AcDbCircle
 10
307.2399899999997
 20
234.700165
 30
0.0
 40
0.999943
100
AcDbArc
 50
89.999012
 51
180.001002
  0
LINE
  5
53DF
330
A
100
AcDbEntity
  8
0
  6
Continuous
 62
     7
100
AcDbLine
 10
306.240021
 20
234.7001339999999
 30
0.0
 11
306.240021
 21
197.672379
 31
0.0
  0
LINE
  5
53E0
330
A
100
AcDbEntity
  8
0
  6
Continuous
 62
     7
 48
0.018168
100
AcDbLine
 10
306.753906
 20
198.186234
 30
0.0
 11
306.240021
 21
197.672379
 31
0.0
  0
LINE
  5
53E1
330
A
100
AcDbEntity
  8
0
  6
Continuous
 62
     7
 48
0.25
100
AcDbLine
 10
306.753906
 20
198.186234
 30
0.0
 11
306.753906
 21
188.1862339999999
 31
0.0
  0
LINE
  5
53E2
330
A
100
AcDbEntity
  8
0
  6
Continuous
 62
     7
 48
0.018168
100
AcDbLine
 10
306.753906
 20
188.1862339999999
 30
0.0
 11
306.240021
 21
188.700104
 31
0.0
  0
LINE
  5
53E3
330
A
100
AcDbEntity
  8
0
  6
Continuous
 62
     7
100
AcDbLine
 10
306.240021
 20
188.700104
 30
0.0
 11
306.240021
 21
151.672333
 31
0.0
  0
ARC
  5
53E4
330
A
100
AcDbEntity
  8
0
  6
Continuous
 62
     7
100
AcDbCircle
 10
307.2399899999997
 20
151.6723179999999
 30
0.0
 40
0.999943
100
AcDbArc
 50
179.999008
 51
270.0009839999998
  0
LINE
  5
53E5
330
A
100
AcDbEntity
  8
0
  6
Continuous
 62
     7
 48
0.057848
100
AcDbLine
 10
307.2399899999997
 20
150.672379
 30
0.0
 11
309.553894
 21
150.672379
 31
0.0
  0
LINE
  5
53E6
330
A
100
AcDbEntity
  8
0
  6
Continuous
 62
     7
 48
0.025001
100
AcDbLine
 10
309.553894
 20
149.672333
 30
0.0
 11
309.553894
 21
150.672379
 31
0.0
  0
ARC
  5
53E7
330
A
100
AcDbEntity
  8
0
  6
Continuous
 62
     7
100
AcDbCircle
 10
310.5538329999999
 20
149.672318
 30
0.0
 40
0.999943
100
AcDbArc
 50
179.999008
 51
270.0009839999998
  0
LINE
  5
53E8
330
A
100
AcDbEntity
  8
0
  6
Continuous
 62
     7
100
AcDbLine
 10
310.553864
 20
148.672379
 30
0.0
 11
348.253906
 21
148.672379
 31
0.0
  0
CIRCLE
  5
53E9
330
A
100
AcDbEntity
  8
0
  6
Continuous
 62
     7
100
AcDbCircle
 10
335.753906
 20
163.486237
 30
0.0
 40
3.0
  0
CIRCLE
  5
53EA
330
A
100
AcDbEntity
  8
0
  6
Continuous
 62
     7
100
AcDbCircle
 10
317.1539
 20
202.186234
 30
0.0
 40
3.0
  0
CIRCLE
  5
53EB
330
A
100
AcDbEntity
  8
0
  6
Continuous
 62
     7
100
AcDbCircle
 10
326.753906
 20
163.486237
 30
0.0
 40
3.0
  0
CIRCLE
  5
53EC
330
A
100
AcDbEntity
  8
0
  6
Continuous
 62
     7
100
AcDbCircle
 10
344.753906
 20
163.486237
 30
0.0
 40
3.0
  0
CIRCLE
  5
53ED
330
A
100
AcDbEntity
  8
0
  6
Continuous
 62
     7
100
AcDbCircle
 10
317.1539
 20
220.1862339999999
 30
0.0
 40
3.0
  0
CIRCLE
  5
53EE
330
A
100
AcDbEntity
  8
0
  6
Continuous
 62
     7
100
AcDbCircle
 10
317.1539
 20
229.186249
 30
0.0
 40
3.0
  0
CIRCLE
  5
53EF
330
A
100
AcDbEntity
  8
0
  6
Continuous
 62
     7
100
AcDbCircle
 10
384.353882
 20
211.186234
 30
0.0
 40
3.0
  0
CIRCLE
  5
53F0
330
A
100
AcDbEntity
  8
0
  6
Continuous
 62
     7
100
AcDbCircle
 10
384.353882
 20
202.186234
 30
0.0
 40
3.0
  0
CIRCLE
  5
53F1
330
A
100
AcDbEntity
  8
0
  6
Continuous
 62
     7
100
AcDbCircle
 10
384.353882
 20
193.186234
 30
0.0
 40
3.0
  0
CIRCLE
  5
53F2
330
A
100
AcDbEntity
  8
0
  6
Continuous
 62
     7
100
AcDbCircle
 10
384.353882
 20
184.186234
 30
0.0
 40
3.0
  0
CIRCLE
  5
53F3
330
A
100
AcDbEntity
  8
0
  6
Continuous
 62
     7
100
AcDbCircle
 10
384.353882
 20
175.186234
 30
0.0
 40
3.0
  0
CIRCLE
  5
53F4
330
A
100
AcDbEntity
  8
0
  6
Continuous
 62
     7
100
AcDbCircle
 10
384.353882
 20
166.186234
 30
0.0
 40
3.0
  0
CIRCLE
  5
53F5
330
A
100
AcDbEntity
  8
0
  6
Continuous
 62
     7
100
AcDbCircle
 10
384.353882
 20
157.186249
 30
0.0
 40
3.0
  0
CIRCLE
  5
53F6
330
A
100
AcDbEntity
  8
0
  6
Continuous
 62
     7
100
AcDbCircle
 10
317.1539
 20
193.186234
 30
0.0
 40
3.0
  0
CIRCLE
  5
53F7
330
A
100
AcDbEntity
  8
0
  6
Continuous
 62
     7
100
AcDbCircle
 10
317.1539
 20
184.186234
 30
0.0
 40
3.0
  0
CIRCLE
  5
53F8
330
A
100
AcDbEntity
  8
0
  6
Continuous
 62
     7
100
AcDbCircle
 10
317.1539
 20
175.186234
 30
0.0
 40
3.0
  0
CIRCLE
  5
53F9
330
A
100
AcDbEntity
  8
0
  6
Continuous
 62
     7
100
AcDbCircle
 10
317.1539
 20
166.186234
 30
0.0
 40
3.0
  0
CIRCLE
  5
53FA
330
A
100
AcDbEntity
  8
0
  6
Continuous
 62
     7
100
AcDbCircle
 10
317.1539
 20
157.186249
 30
0.0
 40
3.0
  0
LINE
  5
53FE
330
A
100
AcDbEntity
  8
0
  6
Continuous
 62
     7
 48
0.083337
100
AcDbLine
 10
306.8400879999998
 20
238.100006
 30
0.0
 11
310.173523
 21
238.0804439999999
 31
0.0
  0
LINE
  5
53FF
330
A
100
AcDbEntity
  8
0
  6
Continuous
 62
     7
100
AcDbLine
 10
306.253845
 20
238.686249
 30
0.0
 11
395.2539495477023
 21
238.6862379998476
 31
0.0
  0
LINE
  5
5401
330
A
100
AcDbEntity
  8
0
  6
Continuous
 62
     7
 48
0.083337
100
AcDbLine
 10
394.667694
 20
238.100006
 30
0.0
 11
391.33429
 21
238.0804439999999
 31
0.0
  0
LINE
  5
5402
330
A
100
AcDbEntity
  8
0
  6
Continuous
 62
     7
 48
0.027768
100
AcDbLine
 10
349.039307
 20
147.8869629999999
 30
0.0
 11
348.253906
 21
148.672379
 31
0.0
  0
LINE
  5
5403
330
A
100
AcDbEntity
  8
0
  6
Continuous
 62
     7
 48
0.085729
100
AcDbLine
 10
349.039307
 20
147.8869629999999
 30
0.0
 11
352.468475
 21
147.8869629999999
 31
0.0
  0
LINE
  5
5404
330
A
100
AcDbEntity
  8
0
  6
Continuous
 62
     7
 48
0.027769
100
AcDbLine
 10
352.468475
 20
147.8869629999999
 30
0.0
 11
353.253906
 21
148.672379
 31
0.0
  0
LINE
  5
5405
330
A
100
AcDbEntity
  8
0
  6
Continuous
 62
     7
 48
0.083337
100
AcDbLine
 10
394.667694
 20
148.272476
 30
0.0
 11
391.33429
 21
148.2920229999999
 31
0.0
  0
LINE
  5
5407
330
A
100
AcDbEntity
  8
0
  6
Continuous
 62
     7
100
AcDbLine
 10
395.2539496698684
 20
147.68624500015
 30
0.0
 11
306.253845
 21
147.686249
 31
0.0
  0
LINE
  5
5408
330
A
100
AcDbEntity
  8
0
  6
Continuous
 62
     7
 48
0.083337
100
AcDbLine
 10
306.8400879999998
 20
148.272476
 30
0.0
 11
310.173523
 21
148.2920229999999
 31
0.0
  0
LINE
  5
5409
330
A
100
AcDbEntity
  8
0
  6
Continuous
 62
     7
 48
0.119982
100
AcDbLine
 10
349.039307
 20
147.8869629999999
 30
0.0
 11
349.039307
 21
152.686249
 31
0.0
  0
ARC
  5
540A
330
A
100
AcDbEntity
  8
0
  6
Continuous
 62
     7
100
AcDbCircle
 10
350.753906
 20
152.686249
 30
0.0
 40
1.714579999999999
100
AcDbArc
 50
0.000029
 51
179.999978
  0
LINE
  5
540B
330
A
100
AcDbEntity
  8
0
  6
Continuous
 62
     7
 48
0.119982
100
AcDbLine
 10
352.468475
 20
147.8869629999999
 30
0.0
 11
352.468475
 21
152.686249
 31
0.0
  0
ARC
  5
540C
330
A
100
AcDbEntity
  8
0
  6
Continuous
 62
     7
100
AcDbCircle
 10
391.344788
 20
149.2882389999999
 30
0.0
 40
0.995728
100
AcDbArc
 50
269.395621
 51
359.8766529999998
  0
LINE
  5
540D
330
A
100
AcDbEntity
  8
0
  6
Continuous
 62
     7
 48
0.025001
100
AcDbLine
 10
392.340149
 20
150.2861329999998
 30
0.0
 11
392.340149
 21
149.286087
 31
0.0
  0
LINE
  5
540E
330
A
100
AcDbEntity
  8
0
  6
Continuous
 62
     7
 48
0.05819
100
AcDbLine
 10
392.340149
 20
150.2861329999998
 30
0.0
 11
394.667694
 21
150.272476
 31
0.0
  0
ARC
  5
540F
330
A
100
AcDbEntity
  8
0
  6
Continuous
 62
     7
100
AcDbCircle
 10
394.678223
 20
151.268677
 30
0.0
 40
0.995728
100
AcDbArc
 50
269.395628
 51
359.8766319999998
  0
LINE
  5
5410
330
A
100
AcDbEntity
  8
0
  6
Continuous
 62
     7
 48
0.002468
100
AcDbLine
 10
395.267761
 20
188.700104
 30
0.0
 11
395.337585
 21
188.769913
 31
0.0
  0
LINE
  5
5411
330
A
100
AcDbEntity
  8
0
  6
Continuous
 62
     7
 48
0.220816
100
AcDbLine
 10
395.337585
 20
197.602554
 30
0.0
 11
395.337585
 21
188.769913
 31
0.0
  0
LINE
  5
5412
330
A
100
AcDbEntity
  8
0
  6
Continuous
 62
     7
 48
0.002469
100
AcDbLine
 10
395.267761
 20
197.672379
 30
0.0
 11
395.337585
 21
197.602554
 31
0.0
  0
LINE
  5
5413
330
A
100
AcDbEntity
  8
0
  6
Continuous
 62
     7
 48
0.05
100
AcDbLine
 10
395.6735529999998
 20
235.1059419999999
 30
0.0
 11
395.6735529999998
 21
237.1059419999999
 31
0.0
  0
LINE
  5
5414
330
A
100
AcDbEntity
  8
0
  6
Continuous
 62
     7
100
AcDbLine
 10
396.253906
 20
148.686203
 30
0.0
 11
396.253906
 21
237.686279
 31
0.0
  0
LINE
  5
5415
330
A
100
AcDbEntity
  8
0
  6
Continuous
 62
     7
 48
0.05
100
AcDbLine
 10
395.6735529999998
 20
149.2665409999998
 30
0.0
 11
395.6735529999998
 21
151.2665409999998
 31
0.0
  0
ARC
  5
5416
330
A
100
AcDbEntity
  8
0
  6
Continuous
 62
     7
100
AcDbCircle
 10
394.678223
 20
235.10379
 30
0.0
 40
0.995728
100
AcDbArc
 50
0.123368
 51
90.604372
  0
LINE
  5
5417
330
A
100
AcDbEntity
  8
0
  6
Continuous
 62
     7
 48
0.05819
100
AcDbLine
 10
392.340149
 20
236.086349
 30
0.0
 11
394.667694
 21
236.100006
 31
0.0
  0
LINE
  5
5418
330
A
100
AcDbEntity
  8
0
  6
Continuous
 62
     7
 48
0.025001
100
AcDbLine
 10
392.340149
 20
237.0863949999999
 30
0.0
 11
392.340149
 21
236.086349
 31
0.0
  0
ARC
  5
5419
330
A
100
AcDbEntity
  8
0
  6
Continuous
 62
     7
100
AcDbCircle
 10
391.344788
 20
237.084244
 30
0.0
 40
0.995728
100
AcDbArc
 50
0.123346
 51
90.60437900000001
  0
ARC
  5
541A
330
A
100
AcDbEntity
  8
0
  6
Continuous
 62
     7
100
AcDbCircle
 10
310.1629939999999
 20
237.084244
 30
0.0
 40
0.995728
100
AcDbArc
 50
89.39562
 51
179.876652
  0
LINE
  5
541B
330
A
100
AcDbEntity
  8
0
  6
Continuous
 62
     7
 48
0.025001
100
AcDbLine
 10
309.167664
 20
237.0863949999999
 30
0.0
 11
309.167664
 21
236.086349
 31
0.0
  0
LINE
  5
541C
330
A
100
AcDbEntity
  8
0
  6
Continuous
 62
     7
 48
0.05819
100
AcDbLine
 10
309.167664
 20
236.086349
 30
0.0
 11
306.8400879999998
 21
236.100006
 31
0.0
  0
ARC
  5
541D
330
A
100
AcDbEntity
  8
0
  6
Continuous
 62
     7
100
AcDbCircle
 10
306.8295899999998
 20
235.10379
 30
0.0
 40
0.995728
100
AcDbArc
 50
89.39563299999999
 51
179.8766379999999
  0
LINE
  5
541E
330
A
100
AcDbEntity
  8
0
  6
Continuous
 62
     7
 48
0.05
100
AcDbLine
 10
305.834229
 20
151.2665409999998
 30
0.0
 11
305.834229
 21
149.2665409999998
 31
0.0
  0
LINE
  5
541F
330
A
100
AcDbEntity
  8
0
  6
Continuous
 62
     7
100
AcDbLine
 10
305.253906
 20
237.686279
 30
0.0
 11
305.253906
 21
148.686203
 31
0.0
  0
LINE
  5
5420
330
A
100
AcDbEntity
  8
0
  6
Continuous
 62
     7
 48
0.05
100
AcDbLine
 10
305.834229
 20
237.1059419999999
 30
0.0
 11
305.834229
 21
235.1059419999999
 31
0.0
  0
LINE
  5
5421
330
A
100
AcDbEntity
  8
0
  6
Continuous
 62
     7
 48
0.002468
100
AcDbLine
 10
306.240021
 20
197.672379
 30
0.0
 11
306.170227
 21
197.602554
 31
0.0
  0
LINE
  5
5422
330
A
100
AcDbEntity
  8
0
  6
Continuous
 62
     7
 48
0.220816
100
AcDbLine
 10
306.170227
 20
197.602554
 30
0.0
 11
306.170227
 21
188.769913
 31
0.0
  0
LINE
  5
5423
330
A
100
AcDbEntity
  8
0
  6
Continuous
 62
     7
 48
0.002468
100
AcDbLine
 10
306.240021
 20
188.700104
 30
0.0
 11
306.170227
 21
188.769913
 31
0.0
  0
ARC
  5
5424
330
A
100
AcDbEntity
  8
0
  6
Continuous
 62
     7
100
AcDbCircle
 10
306.8295899999998
 20
151.268677
 30
0.0
 40
0.9957379999999995
100
AcDbArc
 50
180.123335
 51
270.6034579999999
  0
LINE
  5
5425
330
A
100
AcDbEntity
  8
0
  6
Continuous
 62
     7
 48
0.05819
100
AcDbLine
 10
309.167664
 20
150.2861329999998
 30
0.0
 11
306.8400879999998
 21
150.272476
 31
0.0
  0
LINE
  5
5426
330
A
100
AcDbEntity
  8
0
  6
Continuous
 62
     7
 48
0.025001
100
AcDbLine
 10
309.167664
 20
150.2861329999998
 30
0.0
 11
309.167664
 21
149.286087
 31
0.0
  0
ARC
  5
5427
330
A
100
AcDbEntity
  8
0
  6
Continuous
 62
     7
100
AcDbCircle
 10
310.1629939999999
 20
149.2882389999999
 30
0.0
 40
0.995728
100
AcDbArc
 50
180.123348
 51
270.6043799999999
  0
LINE
  5
5435
330
A
100
AcDbEntity
  8
0
  6
Continuous
 62
     7
 48
0.2
100
AcDbLine
 10
342.453888
 20
171.186234
 30
0.0
 11
342.453888
 21
235.186249
 31
0.0
  0
LINE
  5
5438
330
A
100
AcDbEntity
  8
0
  6
Continuous
 62
     7
100
AcDbLine
 10
322.6539
 20
171.186234
 30
0.0
 11
359.953888
 21
171.186234
 31
0.0
  0
LINE
  5
545E
330
A
100
AcDbEntity
  8
0
  6
Continuous
 62
     7
 48
0.3425
100
AcDbLine
 10
349.7539060000001
 20
155.486237
 30
0.0
 11
349.753906
 21
170.186234
 31
0.0
  0
LINE
  5
545F
330
A
100
AcDbEntity
  8
0
  6
Continuous
 62
     7
 48
0.025
100
AcDbLine
 10
349.753906
 20
155.486237
 30
0.0
 11
348.753906
 21
155.486237
 31
0.0
  0
LINE
  5
5461
330
A
100
AcDbEntity
  8
0
  6
Continuous
 62
     7
 48
0.3175
100
AcDbLine
 10
348.753906
 20
155.486237
 30
0.0
 11
348.753906
 21
169.186234
 31
0.0
  0
LINE
  5
5462
330
A
100
AcDbEntity
  8
0
  6
Continuous
 62
     7
 48
0.2
100
AcDbLine
 10
348.753906
 20
169.186234
 30
0.0
 11
340.753906
 21
169.186234
 31
0.0
  0
LINE
  5
5464
330
A
100
AcDbEntity
  8
0
  6
Continuous
 62
     7
 48
0.3175
100
AcDbLine
 10
340.753906
 20
169.186234
 30
0.0
 11
340.753906
 21
155.486237
 31
0.0
  0
LINE
  5
5465
330
A
100
AcDbEntity
  8
0
  6
Continuous
 62
     7
 48
0.025
100
AcDbLine
 10
340.753906
 20
155.486237
 30
0.0
 11
339.753906
 21
155.486237
 31
0.0
  0
LINE
  5
5467
330
A
100
AcDbEntity
  8
0
  6
Continuous
 62
     7
 48
0.3175
100
AcDbLine
 10
339.753906
 20
155.486237
 30
0.0
 11
339.753906
 21
169.186234
 31
0.0
  0
LINE
  5
5468
330
A
100
AcDbEntity
  8
0
  6
Continuous
 62
     7
 48
0.2
100
AcDbLine
 10
339.753906
 20
169.186234
 30
0.0
 11
331.753906
 21
169.186234
 31
0.0
  0
LINE
  5
546A
330
A
100
AcDbEntity
  8
0
  6
Continuous
 62
     7
 48
0.3175
100
AcDbLine
 10
331.753906
 20
169.186234
 30
0.0
 11
331.753906
 21
155.486237
 31
0.0
  0
LINE
  5
546B
330
A
100
AcDbEntity
  8
0
  6
Continuous
 62
     7
 48
0.025
100
AcDbLine
 10
331.753906
 20
155.486237
 30
0.0
 11
330.753906
 21
155.486237
 31
0.0
  0
LINE
  5
546D
330
A
100
AcDbEntity
  8
0
  6
Continuous
 62
     7
 48
0.3175
100
AcDbLine
 10
330.7539059999998
 20
155.486237
 30
0.0
 11
330.753906
 21
169.186234
 31
0.0
  0
LINE
  5
546E
330
A
100
AcDbEntity
  8
0
  6
Continuous
 62
     7
 48
0.2025
100
AcDbLine
 10
330.753906
 20
169.186234
 30
0.0
 11
322.6539
 21
169.186234
 31
0.0
  0
LINE
  5
546F
330
A
100
AcDbEntity
  8
0
  6
Continuous
 62
     7
 48
0.45
100
AcDbLine
 10
322.6539
 20
151.186249
 30
0.0
 11
322.6539
 21
169.186234
 31
0.0
  0
LINE
  5
5470
330
A
100
AcDbEntity
  8
0
  6
Continuous
 62
     7
 48
0.3125
100
AcDbLine
 10
309.1539
 20
151.186249
 30
0.0
 11
322.6539
 21
151.186249
 31
0.0
  0
LINE
  5
5472
330
A
100
AcDbEntity
  8
0
  6
Continuous
 62
     7
 48
0.05
100
AcDbLine
 10
309.1539
 20
153.1862489999999
 30
0.0
 11
309.1539
 21
151.186249
 31
0.0
  0
LINE
  5
5474
330
A
100
AcDbEntity
  8
0
  6
Continuous
 62
     7
 48
0.2875
100
AcDbLine
 10
321.6539
 20
153.1862489999999
 30
0.0
 11
309.1539
 21
153.1862489999999
 31
0.0
  0
LINE
  5
5475
330
A
100
AcDbEntity
  8
0
  6
Continuous
 62
     7
 48
0.2
100
AcDbLine
 10
321.6539
 20
161.186234
 30
0.0
 11
321.6539
 21
153.1862489999999
 31
0.0
  0
LINE
  5
5477
330
A
100
AcDbEntity
  8
0
  6
Continuous
 62
     7
 48
0.2875
100
AcDbLine
 10
321.6539
 20
161.186234
 30
0.0
 11
309.1539
 21
161.186234
 31
0.0
  0
LINE
  5
5478
330
A
100
AcDbEntity
  8
0
  6
Continuous
 62
     7
 48
0.025
100
AcDbLine
 10
309.1539
 20
162.186234
 30
0.0
 11
309.1539
 21
161.186234
 31
0.0
  0
LINE
  5
547A
330
A
100
AcDbEntity
  8
0
  6
Continuous
 62
     7
 48
0.2875
100
AcDbLine
 10
309.1539
 20
162.186234
 30
0.0
 11
321.6539
 21
162.186234
 31
0.0
  0
LINE
  5
547B
330
A
100
AcDbEntity
  8
0
  6
Continuous
 62
     7
 48
0.2
100
AcDbLine
 10
321.6539
 20
170.186234
 30
0.0
 11
321.6539
 21
162.186234
 31
0.0
  0
LINE
  5
547D
330
A
100
AcDbEntity
  8
0
  6
Continuous
 62
     7
 48
0.2875
100
AcDbLine
 10
321.6539
 20
170.186234
 30
0.0
 11
309.1539
 21
170.186234
 31
0.0
  0
LINE
  5
547E
330
A
100
AcDbEntity
  8
0
  6
Continuous
 62
     7
 48
0.025
100
AcDbLine
 10
309.1539
 20
171.186234
 30
0.0
 11
309.1539
 21
170.186234
 31
0.0
  0
LINE
  5
5480
330
A
100
AcDbEntity
  8
0
  6
Continuous
 62
     7
 48
0.2875
100
AcDbLine
 10
309.1539
 20
171.186234
 30
0.0
 11
321.6539
 21
171.186234
 31
0.0
  0
LINE
  5
5481
330
A
100
AcDbEntity
  8
0
  6
Continuous
 62
     7
 48
0.2
100
AcDbLine
 10
321.6539
 20
179.186234
 30
0.0
 11
321.6539
 21
171.186234
 31
0.0
  0
LINE
  5
5483
330
A
100
AcDbEntity
  8
0
  6
Continuous
 62
     7
 48
0.2875
100
AcDbLine
 10
321.6539
 20
179.186234
 30
0.0
 11
309.1539
 21
179.186234
 31
0.0
  0
LINE
  5
5484
330
A
100
AcDbEntity
  8
0
  6
Continuous
 62
     7
 48
0.025
100
AcDbLine
 10
309.1539
 20
180.186234
 30
0.0
 11
309.1539
 21
179.186234
 31
0.0
  0
LINE
  5
5486
330
A
100
AcDbEntity
  8
0
  6
Continuous
 62
     7
 48
0.2875
100
AcDbLine
 10
309.1539
 20
180.186234
 30
0.0
 11
321.6539
 21
180.186234
 31
0.0
  0
LINE
  5
5487
330
A
100
AcDbEntity
  8
0
  6
Continuous
 62
     7
 48
0.2
100
AcDbLine
 10
321.6539
 20
188.1862339999999
 30
0.0
 11
321.6539
 21
180.186234
 31
0.0
  0
LINE
  5
5489
330
A
100
AcDbEntity
  8
0
  6
Continuous
 62
     7
 48
0.2875
100
AcDbLine
 10
321.6539
 20
188.1862339999999
 30
0.0
 11
309.1539
 21
188.1862339999999
 31
0.0
  0
LINE
  5
548A
330
A
100
AcDbEntity
  8
0
  6
Continuous
 62
     7
 48
0.025
100
AcDbLine
 10
309.1539
 20
189.186234
 30
0.0
 11
309.1539
 21
188.1862339999999
 31
0.0
  0
LINE
  5
548C
330
A
100
AcDbEntity
  8
0
  6
Continuous
 62
     7
 48
0.2875
100
AcDbLine
 10
309.1539
 20
189.186234
 30
0.0
 11
321.6539
 21
189.186234
 31
0.0
  0
LINE
  5
548D
330
A
100
AcDbEntity
  8
0
  6
Continuous
 62
     7
 48
0.2
100
AcDbLine
 10
321.6539
 20
197.186234
 30
0.0
 11
321.6539
 21
189.186234
 31
0.0
  0
LINE
  5
548F
330
A
100
AcDbEntity
  8
0
  6
Continuous
 62
     7
 48
0.2875
100
AcDbLine
 10
321.6539
 20
197.186234
 30
0.0
 11
309.1539
 21
197.186234
 31
0.0
  0
LINE
  5
5490
330
A
100
AcDbEntity
  8
0
  6
Continuous
 62
     7
 48
0.025
100
AcDbLine
 10
309.1539
 20
198.186234
 30
0.0
 11
309.1539
 21
197.186234
 31
0.0
  0
LINE
  5
5492
330
A
100
AcDbEntity
  8
0
  6
Continuous
 62
     7
 48
0.2875
100
AcDbLine
 10
309.1539
 20
198.186234
 30
0.0
 11
321.6539
 21
198.186234
 31
0.0
  0
LINE
  5
5493
330
A
100
AcDbEntity
  8
0
  6
Continuous
 62
     7
 48
0.2
100
AcDbLine
 10
321.6539
 20
206.186234
 30
0.0
 11
321.6539
 21
198.186234
 31
0.0
  0
LINE
  5
5495
330
A
100
AcDbEntity
  8
0
  6
Continuous
 62
     7
 48
0.2375
100
AcDbLine
 10
321.6539
 20
206.186234
 30
0.0
 11
311.1539
 21
206.186234
 31
0.0
  0
LINE
  5
5496
330
A
100
AcDbEntity
  8
0
  6
Continuous
 62
     7
 48
0.25
100
AcDbLine
 10
311.1539
 20
216.1862339999999
 30
0.0
 11
311.1539
 21
206.186234
 31
0.0
  0
LINE
  5
5498
330
A
100
AcDbEntity
  8
0
  6
Continuous
 62
     7
 48
0.2375
100
AcDbLine
 10
311.1539
 20
216.1862339999999
 30
0.0
 11
321.6539
 21
216.1862339999999
 31
0.0
  0
LINE
  5
5499
330
A
100
AcDbEntity
  8
0
  6
Continuous
 62
     7
 48
0.2
100
AcDbLine
 10
321.6539
 20
224.1862339999999
 30
0.0
 11
321.6539
 21
216.1862339999999
 31
0.0
  0
LINE
  5
549B
330
A
100
AcDbEntity
  8
0
  6
Continuous
 62
     7
 48
0.2875
100
AcDbLine
 10
321.6539
 20
224.1862339999999
 30
0.0
 11
309.1538999999999
 21
224.1862339999999
 31
0.0
  0
LINE
  5
549C
330
A
100
AcDbEntity
  8
0
  6
Continuous
 62
     7
 48
0.025
100
AcDbLine
 10
309.1539
 20
225.186249
 30
0.0
 11
309.1539
 21
224.1862339999999
 31
0.0
  0
LINE
  5
549E
330
A
100
AcDbEntity
  8
0
  6
Continuous
 62
     7
 48
0.2875
100
AcDbLine
 10
309.1538999999999
 20
225.186249
 30
0.0
 11
321.6539
 21
225.186249
 31
0.0
  0
LINE
  5
549F
330
A
100
AcDbEntity
  8
0
  6
Continuous
 62
     7
 48
0.2
100
AcDbLine
 10
321.6539
 20
233.186249
 30
0.0
 11
321.6539
 21
225.186249
 31
0.0
  0
LINE
  5
54A1
330
A
100
AcDbEntity
  8
0
  6
Continuous
 62
     7
 48
0.2875
100
AcDbLine
 10
321.6539
 20
233.186249
 30
0.0
 11
309.1539
 21
233.186249
 31
0.0
  0
LINE
  5
54A2
330
A
100
AcDbEntity
  8
0
  6
Continuous
 62
     7
 48
0.05
100
AcDbLine
 10
309.1539
 20
235.186249
 30
0.0
 11
309.1539
 21
233.186249
 31
0.0
  0
LINE
  5
54A4
330
A
100
AcDbEntity
  8
0
  6
Continuous
 62
     7
 48
0.3125
100
AcDbLine
 10
309.1539
 20
235.186249
 30
0.0
 11
322.6539
 21
235.186249
 31
0.0
  0
LINE
  5
54A7
330
A
100
AcDbEntity
  8
0
  6
Continuous
 62
     7
100
AcDbLine
 10
322.6539
 20
235.186249
 30
0.0
 11
322.6539
 21
170.186234
 31
0.0
  0
LINE
  5
54B4
330
A
100
AcDbEntity
  8
0
  6
Continuous
 62
     7
 48
0.2
100
AcDbLine
 10
332.253906
 20
235.186249
 30
0.0
 11
332.253906
 21
171.186234
 31
0.0
  0
LINE
  5
54B9
330
A
100
AcDbEntity
  8
0
  6
Continuous
 62
     7
 48
0.205
100
AcDbLine
 10
332.253906
 20
235.186249
 30
0.0
 11
342.453888
 21
235.186249
 31
0.0
  0
LINE
  5
54BC
330
A
100
AcDbEntity
  8
0
  6
Continuous
 62
     7
100
AcDbLine
 10
366.3538819999998
 20
151.186249
 30
0.0
 11
392.353882
 21
151.186249
 31
0.0
  0
LINE
  5
54BE
330
A
100
AcDbEntity
  8
0
  6
Continuous
 62
     7
 48
0.05
100
AcDbLine
 10
366.3538819999998
 20
151.186249
 30
0.0
 11
366.3538819999997
 21
235.186249
 31
0.0
  0
LINE
  5
54D2
330
A
100
AcDbEntity
  8
0
  6
Continuous
 62
     7
100
AcDbLine
 10
392.353882
 20
235.186249
 30
0.0
 11
366.3538819999997
 21
235.186249
 31
0.0
  0
LINE
  5
54D4
330
A
100
AcDbEntity
  8
0
  6
Continuous
 62
     7
 48
0.05
100
AcDbLine
 10
392.353882
 20
233.186249
 30
0.0
 11
392.353882
 21
235.186249
 31
0.0
  0
LINE
  5
54D6
330
A
100
AcDbEntity
  8
0
  6
Continuous
 62
     7
 48
0.2875
100
AcDbLine
 10
392.353882
 20
233.186249
 30
0.0
 11
379.853882
 21
233.186249
 31
0.0
  0
LINE
  5
54D7
330
A
100
AcDbEntity
  8
0
  6
Continuous
 62
     7
 48
0.2
100
AcDbLine
 10
379.853882
 20
233.186249
 30
0.0
 11
379.853882
 21
225.186249
 31
0.0
  0
LINE
  5
54D9
330
A
100
AcDbEntity
  8
0
  6
Continuous
 62
     7
 48
0.2875
100
AcDbLine
 10
379.853882
 20
225.186249
 30
0.0
 11
392.353882
 21
225.186249
 31
0.0
  0
LINE
  5
54DA
330
A
100
AcDbEntity
  8
0
  6
Continuous
 62
     7
 48
0.025
100
AcDbLine
 10
392.353882
 20
224.1862339999999
 30
0.0
 11
392.353882
 21
225.186249
 31
0.0
  0
LINE
  5
54DC
330
A
100
AcDbEntity
  8
0
  6
Continuous
 62
     7
 48
0.2875
100
AcDbLine
 10
392.353882
 20
224.1862339999999
 30
0.0
 11
379.853882
 21
224.1862339999999
 31
0.0
  0
LINE
  5
54DD
330
A
100
AcDbEntity
  8
0
  6
Continuous
 62
     7
 48
0.2
100
AcDbLine
 10
379.853882
 20
224.1862339999999
 30
0.0
 11
379.853882
 21
216.1862339999999
 31
0.0
  0
LINE
  5
54DF
330
A
100
AcDbEntity
  8
0
  6
Continuous
 62
     7
 48
0.2875
100
AcDbLine
 10
379.853882
 20
216.1862339999999
 30
0.0
 11
392.353882
 21
216.1862339999999
 31
0.0
  0
LINE
  5
54E0
330
A
100
AcDbEntity
  8
0
  6
Continuous
 62
     7
 48
0.025
100
AcDbLine
 10
392.353882
 20
215.186234
 30
0.0
 11
392.353882
 21
216.1862339999999
 31
0.0
  0
LINE
  5
54E2
330
A
100
AcDbEntity
  8
0
  6
Continuous
 62
     7
 48
0.2875
100
AcDbLine
 10
392.353882
 20
215.186234
 30
0.0
 11
379.853882
 21
215.186234
 31
0.0
  0
LINE
  5
54E3
330
A
100
AcDbEntity
  8
0
  6
Continuous
 62
     7
 48
0.2
100
AcDbLine
 10
379.853882
 20
215.186234
 30
0.0
 11
379.853882
 21
207.186234
 31
0.0
  0
LINE
  5
54E5
330
A
100
AcDbEntity
  8
0
  6
Continuous
 62
     7
 48
0.2875
100
AcDbLine
 10
379.853882
 20
207.186234
 30
0.0
 11
392.353882
 21
207.186234
 31
0.0
  0
LINE
  5
54E6
330
A
100
AcDbEntity
  8
0
  6
Continuous
 62
     7
 48
0.025
100
AcDbLine
 10
392.353882
 20
206.186234
 30
0.0
 11
392.353882
 21
207.186234
 31
0.0
  0
LINE
  5
54E8
330
A
100
AcDbEntity
  8
0
  6
Continuous
 62
     7
 48
0.2875
100
AcDbLine
 10
392.353882
 20
206.1862339999999
 30
0.0
 11
379.853882
 21
206.186234
 31
0.0
  0
LINE
  5
54E9
330
A
100
AcDbEntity
  8
0
  6
Continuous
 62
     7
 48
0.2
100
AcDbLine
 10
379.853882
 20
206.186234
 30
0.0
 11
379.853882
 21
198.186234
 31
0.0
  0
LINE
  5
54EB
330
A
100
AcDbEntity
  8
0
  6
Continuous
 62
     7
 48
0.2875
100
AcDbLine
 10
379.853882
 20
198.186234
 30
0.0
 11
392.353882
 21
198.1862339999999
 31
0.0
  0
LINE
  5
54EC
330
A
100
AcDbEntity
  8
0
  6
Continuous
 62
     7
 48
0.025
100
AcDbLine
 10
392.353882
 20
197.186234
 30
0.0
 11
392.353882
 21
198.186234
 31
0.0
  0
LINE
  5
54EE
330
A
100
AcDbEntity
  8
0
  6
Continuous
 62
     7
 48
0.2875
100
AcDbLine
 10
392.353882
 20
197.186234
 30
0.0
 11
379.853882
 21
197.186234
 31
0.0
  0
LINE
  5
54EF
330
A
100
AcDbEntity
  8
0
  6
Continuous
 62
     7
 48
0.2
100
AcDbLine
 10
379.853882
 20
197.186234
 30
0.0
 11
379.853882
 21
189.186234
 31
0.0
  0
LINE
  5
54F1
330
A
100
AcDbEntity
  8
0
  6
Continuous
 62
     7
 48
0.2875
100
AcDbLine
 10
379.853882
 20
189.186234
 30
0.0
 11
392.353882
 21
189.186234
 31
0.0
  0
LINE
  5
54F2
330
A
100
AcDbEntity
  8
0
  6
Continuous
 62
     7
 48
0.025
100
AcDbLine
 10
392.353882
 20
188.1862339999999
 30
0.0
 11
392.353882
 21
189.186234
 31
0.0
  0
LINE
  5
54F4
330
A
100
AcDbEntity
  8
0
  6
Continuous
 62
     7
 48
0.2875
100
AcDbLine
 10
392.353882
 20
188.1862339999999
 30
0.0
 11
379.853882
 21
188.1862339999999
 31
0.0
  0
LINE
  5
54F5
330
A
100
AcDbEntity
  8
0
  6
Continuous
 62
     7
 48
0.2
100
AcDbLine
 10
379.853882
 20
188.1862339999999
 30
0.0
 11
379.853882
 21
180.186234
 31
0.0
  0
LINE
  5
54F7
330
A
100
AcDbEntity
  8
0
  6
Continuous
 62
     7
 48
0.2875
100
AcDbLine
 10
379.853882
 20
180.186234
 30
0.0
 11
392.353882
 21
180.186234
 31
0.0
  0
LINE
  5
54F8
330
A
100
AcDbEntity
  8
0
  6
Continuous
 62
     7
 48
0.025
100
AcDbLine
 10
392.353882
 20
179.186234
 30
0.0
 11
392.353882
 21
180.186234
 31
0.0
  0
LINE
  5
54FA
330
A
100
AcDbEntity
  8
0
  6
Continuous
 62
     7
 48
0.2875
100
AcDbLine
 10
392.353882
 20
179.186234
 30
0.0
 11
379.853882
 21
179.186234
 31
0.0
  0
LINE
  5
54FB
330
A
100
AcDbEntity
  8
0
  6
Continuous
 62
     7
 48
0.2
100
AcDbLine
 10
379.853882
 20
179.186234
 30
0.0
 11
379.853882
 21
171.186234
 31
0.0
  0
LINE
  5
54FD
330
A
100
AcDbEntity
  8
0
  6
Continuous
 62
     7
 48
0.2875
100
AcDbLine
 10
379.853882
 20
171.186234
 30
0.0
 11
392.353882
 21
171.186234
 31
0.0
  0
LINE
  5
54FE
330
A
100
AcDbEntity
  8
0
  6
Continuous
 62
     7
 48
0.025
100
AcDbLine
 10
392.353882
 20
170.186234
 30
0.0
 11
392.353882
 21
171.186234
 31
0.0
  0
LINE
  5
5500
330
A
100
AcDbEntity
  8
0
  6
Continuous
 62
     7
 48
0.2875
100
AcDbLine
 10
392.353882
 20
170.186234
 30
0.0
 11
379.853882
 21
170.186234
 31
0.0
  0
LINE
  5
5501
330
A
100
AcDbEntity
  8
0
  6
Continuous
 62
     7
 48
0.2
100
AcDbLine
 10
379.853882
 20
170.186234
 30
0.0
 11
379.853882
 21
162.186234
 31
0.0
  0
LINE
  5
5503
330
A
100
AcDbEntity
  8
0
  6
Continuous
 62
     7
 48
0.2875
100
AcDbLine
 10
379.853882
 20
162.186234
 30
0.0
 11
392.353882
 21
162.186234
 31
0.0
  0
LINE
  5
5504
330
A
100
AcDbEntity
  8
0
  6
Continuous
 62
     7
 48
0.025
100
AcDbLine
 10
392.353882
 20
161.186234
 30
0.0
 11
392.353882
 21
162.186234
 31
0.0
  0
LINE
  5
5506
330
A
100
AcDbEntity
  8
0
  6
Continuous
 62
     7
 48
0.2875
100
AcDbLine
 10
392.353882
 20
161.186234
 30
0.0
 11
379.853882
 21
161.186234
 31
0.0
  0
LINE
  5
5507
330
A
100
AcDbEntity
  8
0
  6
Continuous
 62
     7
 48
0.2
100
AcDbLine
 10
379.853882
 20
161.186234
 30
0.0
 11
379.853882
 21
153.1862489999999
 31
0.0
  0
LINE
  5
5509
330
A
100
AcDbEntity
  8
0
  6
Continuous
 62
     7
 48
0.2875
100
AcDbLine
 10
392.353882
 20
153.1862489999999
 30
0.0
 11
379.853882
 21
153.1862489999999
 31
0.0
  0
LINE
  5
550A
330
A
100
AcDbEntity
  8
0
  6
Continuous
 62
     7
 48
0.05
100
AcDbLine
 10
392.353882
 20
151.186249
 30
0.0
 11
392.353882
 21
153.1862489999999
 31
0.0
  0
LINE
  5
550C
330
A
100
AcDbEntity
  8
0
  6
Continuous
 62
     7
100
AcDbLine
 10
395.7539060523598
 20
145.186249
 30
0.0
 11
305.753906
 21
145.186249
 31
0.0
  0
ARC
  5
550D
330
A
100
AcDbEntity
  8
0
  6
Continuous
 62
     7
100
AcDbCircle
 10
305.753906
 20
148.186249
 30
0.0
 40
3.0
100
AcDbArc
 50
180.000005
 51
270.000001
  0
LINE
  5
550E
330
A
100
AcDbEntity
  8
0
  6
Continuous
 62
     7
100
AcDbLine
 10
302.753906
 20
238.186249
 30
0.0
 11
302.753906
 21
148.186249
 31
0.0
  0
ARC
  5
550F
330
A
100
AcDbEntity
  8
0
  6
Continuous
 62
     7
100
AcDbCircle
 10
305.753906
 20
238.186249
 30
0.0
 40
3.0
100
AcDbArc
 50
90.00000300000001
 51
180.000005
  0
LINE
  5
5510
330
A
100
AcDbEntity
  8
0
  6
Continuous
 62
     7
100
AcDbLine
 10
305.753906
 20
241.186249
 30
0.0
 11
395.753906418879
 21
241.186249
 31
0.0
  0
ARC
  5
5512
330
A
100
AcDbEntity
  8
0
  6
Continuous
 62
     7
100
AcDbCircle
 10
395.753906
 20
238.186249
 30
0.0
 40
3.0
100
AcDbArc
 50
0.00001
 51
89.99999200000003
  0
LINE
  5
5513
330
A
100
AcDbEntity
  8
0
  6
Continuous
 62
     7
100
AcDbLine
 10
398.753906
 20
148.186249
 30
0.0
 11
398.753906
 21
238.186249
 31
0.0
  0
ARC
  5
5514
330
A
100
AcDbEntity
  8
0
  6
Continuous
 62
     7
100
AcDbCircle
 10
395.753906
 20
148.186249
 30
0.0
 40
3.0
100
AcDbArc
 50
270.000001
 51
0.00001
  0
ARC
  5
5515
330
A
100
AcDbEntity
  8
0
  6
Continuous
 62
     7
100
AcDbCircle
 10
394.678223
 20
237.10379
 30
0.0
 40
0.995728
100
AcDbArc
 50
0.123346
 51
90.60437900000001
  0
ARC
  5
5516
330
A
100
AcDbEntity
  8
0
  6
Continuous
 62
     7
100
AcDbCircle
 10
395.253967
 20
237.686295
 30
0.0
 40
0.999943
100
AcDbArc
 50
359.9990099999998
 51
90.00100000000001
  0
ARC
  5
5517
330
A
100
AcDbEntity
  8
0
  6
Continuous
 62
     7
100
AcDbCircle
 10
395.253967
 20
148.686188
 30
0.0
 40
0.999943
100
AcDbArc
 50
269.999007
 51
0.000996
  0
ARC
  5
5518
330
A
100
AcDbEntity
  8
0
  6
Continuous
 62
     7
100
AcDbCircle
 10
306.253845
 20
237.686295
 30
0.0
 40
0.999943
100
AcDbArc
 50
89.999005
 51
180.000989
  0
ARC
  5
5519
330
A
100
AcDbEntity
  8
0
  6
Continuous
 62
     7
100
AcDbCircle
 10
306.253845
 20
148.686188
 30
0.0
 40
0.999943
100
AcDbArc
 50
179.999008
 51
270.0009839999998
  0
ARC
  5
551A
330
A
100
AcDbEntity
  8
0
  6
Continuous
 62
     7
100
AcDbCircle
 10
306.8295899999998
 20
237.10379
 30
0.0
 40
0.995728
100
AcDbArc
 50
89.39562
 51
179.876652
  0
ARC
  5
551B
330
A
100
AcDbEntity
  8
0
  6
Continuous
 62
     7
100
AcDbCircle
 10
306.8295899999998
 20
149.2686769999999
 30
0.0
 40
0.995728
100
AcDbArc
 50
180.123348
 51
270.6043799999999
  0
ARC
  5
551C
330
A
100
AcDbEntity
  8
0
  6
Continuous
 62
     7
100
AcDbCircle
 10
394.678223
 20
149.2686769999999
 30
0.0
 40
0.995728
100
AcDbArc
 50
269.395621
 51
359.8766529999998
  0
LINE
  5
551E
330
A
100
AcDbEntity
  8
0
  6
Continuous
 62
     7
 48
0.205
100
AcDbLine
 10
332.253906
 20
234.186249
 30
0.0
 11
342.453888
 21
234.186249
 31
0.0
  0
LINE
  5
5520
330
A
100
AcDbEntity
  8
0
  6
Continuous
 62
     7
 48
0.255
100
AcDbLine
 10
342.453888
 20
233.186249
 30
0.0
 11
332.253906
 21
233.186249
 31
0.0
  0
CIRCLE
  5
5521
330
A
100
AcDbEntity
  8
0
  6
Continuous
 62
     7
100
AcDbCircle
 10
337.353882
 20
229.186249
 30
0.0
 40
3.0
  0
LINE
  5
5524
330
A
100
AcDbEntity
  8
0
  6
Continuous
 62
     7
 48
0.205
100
AcDbLine
 10
332.253906
 20
225.186249
 30
0.0
 11
342.453888
 21
225.186249
 31
0.0
  0
LINE
  5
5526
330
A
100
AcDbEntity
  8
0
  6
Continuous
 62
     7
 48
0.205
100
AcDbLine
 10
342.453888
 20
224.1862339999999
 30
0.0
 11
332.253906
 21
224.1862339999999
 31
0.0
  0
CIRCLE
  5
5528
330
A
100
AcDbEntity
  8
0
  6
Continuous
 62
     7
100
AcDbCircle
 10
337.353882
 20
220.1862339999999
 30
0.0
 40
3.0
  0
LINE
  5
552A
330
A
100
AcDbEntity
  8
0
  6
Continuous
 62
     7
 48
0.205
100
AcDbLine
 10
332.253906
 20
216.1862339999999
 30
0.0
 11
342.453888
 21
216.1862339999999
 31
0.0
  0
LINE
  5
552E
330
A
100
AcDbEntity
  8
0
  6
Continuous
 62
     7
 48
0.205
100
AcDbLine
 10
342.453888
 20
215.186234
 30
0.0
 11
332.253906
 21
215.186234
 31
0.0
  0
CIRCLE
  5
552F
330
A
100
AcDbEntity
  8
0
  6
Continuous
 62
     7
100
AcDbCircle
 10
337.353882
 20
211.186234
 30
0.0
 40
3.0
  0
LINE
  5
5532
330
A
100
AcDbEntity
  8
0
  6
Continuous
 62
     7
 48
0.205
100
AcDbLine
 10
332.253906
 20
207.186234
 30
0.0
 11
342.453888
 21
207.186234
 31
0.0
  0
LINE
  5
5534
330
A
100
AcDbEntity
  8
0
  6
Continuous
 62
     7
 48
0.205
100
AcDbLine
 10
342.453888
 20
206.186234
 30
0.0
 11
332.253906
 21
206.186234
 31
0.0
  0
CIRCLE
  5
5536
330
A
100
AcDbEntity
  8
0
  6
Continuous
 62
     7
100
AcDbCircle
 10
337.353882
 20
202.186234
 30
0.0
 40
3.0
  0
LINE
  5
5538
330
A
100
AcDbEntity
  8
0
  6
Continuous
 62
     7
 48
0.205
100
AcDbLine
 10
332.253906
 20
198.186234
 30
0.0
 11
342.453888
 21
198.1862339999999
 31
0.0
  0
LINE
  5
553C
330
A
100
AcDbEntity
  8
0
  6
Continuous
 62
     7
 48
0.205
100
AcDbLine
 10
342.453888
 20
197.186234
 30
0.0
 11
332.253906
 21
197.186234
 31
0.0
  0
CIRCLE
  5
553D
330
A
100
AcDbEntity
  8
0
  6
Continuous
 62
     7
100
AcDbCircle
 10
337.353882
 20
193.186234
 30
0.0
 40
3.0
  0
LINE
  5
5540
330
A
100
AcDbEntity
  8
0
  6
Continuous
 62
     7
 48
0.205
100
AcDbLine
 10
332.253906
 20
189.186234
 30
0.0
 11
342.453888
 21
189.186234
 31
0.0
  0
LINE
  5
5542
330
A
100
AcDbEntity
  8
0
  6
Continuous
 62
     7
 48
0.205
100
AcDbLine
 10
342.453888
 20
188.1862339999998
 30
0.0
 11
332.253906
 21
188.1862339999999
 31
0.0
  0
CIRCLE
  5
5544
330
A
100
AcDbEntity
  8
0
  6
Continuous
 62
     7
100
AcDbCircle
 10
337.353882
 20
184.186234
 30
0.0
 40
3.0
  0
LINE
  5
5547
330
A
100
AcDbEntity
  8
0
  6
Continuous
 62
     7
 48
0.205
100
AcDbLine
 10
332.253906
 20
180.186234
 30
0.0
 11
342.453888
 21
180.186234
 31
0.0
  0
LINE
  5
5549
330
A
100
AcDbEntity
  8
0
  6
Continuous
 62
     7
 48
0.205
100
AcDbLine
 10
342.453888
 20
179.186234
 30
0.0
 11
332.253906
 21
179.186234
 31
0.0
  0
CIRCLE
  5
554B
330
A
100
AcDbEntity
  8
0
  6
Continuous
 62
     7
100
AcDbCircle
 10
337.353882
 20
175.186234
 30
0.0
 40
3.0
  0
LINE
  5
557B
330
A
100
AcDbEntity
  8
0
  6
Continuous
 62
     7
100
AcDbLine
 10
359.953888
 20
170.186234
 30
0.0
 11
322.6539
 21
170.186234
 31
0.0
  0
LINE
  5
557C
330
A
100
AcDbEntity
  8
0
  6
Continuous
 62
     7
 48
0.2875
100
AcDbLine
 10
378.8538819999998
 20
153.1862489999999
 30
0.0
 11
366.3538819999998
 21
153.1862489999999
 31
0.0
  0
LINE
  5
557E
330
A
100
AcDbEntity
  8
0
  6
Continuous
 62
     7
 48
0.2875
100
AcDbLine
 10
378.8538819999998
 20
161.186234
 30
0.0
 11
366.3538819999998
 21
161.186234
 31
0.0
  0
LINE
  5
557F
330
A
100
AcDbEntity
  8
0
  6
Continuous
 62
     7
 48
0.2875
100
AcDbLine
 10
366.3538819999998
 20
162.186234
 30
0.0
 11
378.8538819999998
 21
162.186234
 31
0.0
  0
LINE
  5
558E
330
A
100
AcDbEntity
  8
0
  6
Continuous
 62
     7
 48
0.2
100
AcDbLine
 10
378.8538819999998
 20
153.1862489999999
 30
0.0
 11
378.8538819999998
 21
234.186249
 31
0.0
  0
LINE
  5
5590
330
A
100
AcDbEntity
  8
0
  6
Continuous
 62
     7
 48
0.2875
100
AcDbLine
 10
366.3538819999997
 20
234.186249
 30
0.0
 11
378.8538819999998
 21
234.186249
 31
0.0
  0
LINE
  5
5593
330
A
100
AcDbEntity
  8
0
  6
Continuous
 62
     7
 48
0.3125
100
AcDbLine
 10
378.8538819999998
 20
233.186249
 30
0.0
 11
366.3538819999998
 21
233.186249
 31
0.0
  0
CIRCLE
  5
5594
330
A
100
AcDbEntity
  8
0
  6
Continuous
 62
     7
100
AcDbCircle
 10
372.3538819999998
 20
229.186249
 30
0.0
 40
3.0
  0
LINE
  5
5596
330
A
100
AcDbEntity
  8
0
  6
Continuous
 62
     7
 48
0.2875
100
AcDbLine
 10
378.8538819999998
 20
225.186249
 30
0.0
 11
366.3538819999997
 21
225.186249
 31
0.0
  0
LINE
  5
5598
330
A
100
AcDbEntity
  8
0
  6
Continuous
 62
     7
 48
0.2875
100
AcDbLine
 10
378.8538819999998
 20
224.1862339999999
 30
0.0
 11
366.3538819999997
 21
224.1862339999999
 31
0.0
  0
CIRCLE
  5
5599
330
A
100
AcDbEntity
  8
0
  6
Continuous
 62
     7
100
AcDbCircle
 10
372.3538819999998
 20
220.1862339999999
 30
0.0
 40
3.0
  0
LINE
  5
559B
330
A
100
AcDbEntity
  8
0
  6
Continuous
 62
     7
 48
0.2875
100
AcDbLine
 10
378.8538819999998
 20
216.1862339999999
 30
0.0
 11
366.3538819999998
 21
216.1862339999999
 31
0.0
  0
LINE
  5
559D
330
A
100
AcDbEntity
  8
0
  6
Continuous
 62
     7
 48
0.2875
100
AcDbLine
 10
378.8538819999998
 20
215.186234
 30
0.0
 11
366.3538819999998
 21
215.186234
 31
0.0
  0
CIRCLE
  5
559E
330
A
100
AcDbEntity
  8
0
  6
Continuous
 62
     7
100
AcDbCircle
 10
372.3538819999998
 20
211.186234
 30
0.0
 40
3.0
  0
LINE
  5
55A0
330
A
100
AcDbEntity
  8
0
  6
Continuous
 62
     7
 48
0.2875
100
AcDbLine
 10
378.8538819999998
 20
207.186234
 30
0.0
 11
366.3538819999998
 21
207.186234
 31
0.0
  0
LINE
  5
55A2
330
A
100
AcDbEntity
  8
0
  6
Continuous
 62
     7
 48
0.2875
100
AcDbLine
 10
378.8538819999998
 20
206.186234
 30
0.0
 11
366.3538819999998
 21
206.1862339999999
 31
0.0
  0
CIRCLE
  5
55A3
330
A
100
AcDbEntity
  8
0
  6
Continuous
 62
     7
100
AcDbCircle
 10
372.3538819999998
 20
202.186234
 30
0.0
 40
3.0
  0
LINE
  5
55A5
330
A
100
AcDbEntity
  8
0
  6
Continuous
 62
     7
 48
0.2875
100
AcDbLine
 10
378.8538819999998
 20
198.186234
 30
0.0
 11
366.3538819999998
 21
198.1862339999999
 31
0.0
  0
LINE
  5
55A7
330
A
100
AcDbEntity
  8
0
  6
Continuous
 62
     7
 48
0.2875
100
AcDbLine
 10
378.8538819999998
 20
197.186234
 30
0.0
 11
366.3538819999998
 21
197.186234
 31
0.0
  0
CIRCLE
  5
55A8
330
A
100
AcDbEntity
  8
0
  6
Continuous
 62
     7
100
AcDbCircle
 10
372.3538819999998
 20
193.186234
 30
0.0
 40
3.0
  0
LINE
  5
55AA
330
A
100
AcDbEntity
  8
0
  6
Continuous
 62
     7
 48
0.2875
100
AcDbLine
 10
378.8538819999998
 20
189.186234
 30
0.0
 11
366.3538819999998
 21
189.186234
 31
0.0
  0
LINE
  5
55AC
330
A
100
AcDbEntity
  8
0
  6
Continuous
 62
     7
 48
0.2875
100
AcDbLine
 10
378.8538819999998
 20
188.1862339999999
 30
0.0
 11
366.3538819999998
 21
188.1862339999999
 31
0.0
  0
CIRCLE
  5
55AD
330
A
100
AcDbEntity
  8
0
  6
Continuous
 62
     7
100
AcDbCircle
 10
372.3538819999998
 20
184.186234
 30
0.0
 40
3.0
  0
LINE
  5
55AF
330
A
100
AcDbEntity
  8
0
  6
Continuous
 62
     7
 48
0.2875
100
AcDbLine
 10
378.8538819999998
 20
180.186234
 30
0.0
 11
366.3538819999998
 21
180.1862339999999
 31
0.0
  0
LINE
  5
55B1
330
A
100
AcDbEntity
  8
0
  6
Continuous
 62
     7
 48
0.2875
100
AcDbLine
 10
378.8538819999998
 20
179.186234
 30
0.0
 11
366.3538819999998
 21
179.186234
 31
0.0
  0
CIRCLE
  5
55B2
330
A
100
AcDbEntity
  8
0
  6
Continuous
 62
     7
100
AcDbCircle
 10
372.3538819999998
 20
175.186234
 30
0.0
 40
3.0
  0
LINE
  5
55B4
330
A
100
AcDbEntity
  8
0
  6
Continuous
 62
     7
 48
0.2875
100
AcDbLine
 10
378.8538819999998
 20
171.186234
 30
0.0
 11
366.3538819999998
 21
171.1862339999998
 31
0.0
  0
LINE
  5
55B6
330
A
100
AcDbEntity
  8
0
  6
Continuous
 62
     7
 48
0.2875
100
AcDbLine
 10
378.8538819999998
 20
170.186234
 30
0.0
 11
366.3538819999998
 21
170.186234
 31
0.0
  0
CIRCLE
  5
55B7
330
A
100
AcDbEntity
  8
0
  6
Continuous
 62
     7
100
AcDbCircle
 10
372.3538819999998
 20
166.186234
 30
0.0
 40
3.0
  0
CIRCLE
  5
55BA
330
A
100
AcDbEntity
  8
0
  6
Continuous
 62
     7
100
AcDbCircle
 10
372.3538819999998
 20
157.186249
 30
0.0
 40
3.0
  0
LINE
  5
55E5
330
A
100
AcDbEntity
  8
0
  6
Continuous
 62
     7
 48
0.0125
100
AcDbLine
 10
344.553894
 20
166.3862459999999
 30
0.0
 11
345.053894
 21
166.3862459999999
 31
0.0
  0
LINE
  5
55EB
330
A
100
AcDbEntity
  8
0
  6
Continuous
 62
     7
100
AcDbLine
 10
305.753906
 20
145.186249
 30
0.0
 11
395.7539060523598
 21
145.186249
 31
0.0
  0
ARC
  5
55F0
330
A
100
AcDbEntity
  8
0
  6
Continuous
 62
     7
100
AcDbCircle
 10
395.753906
 20
148.186249
 30
0.0
 40
3.0
100
AcDbArc
 50
270.000001
 51
0.00001
  0
LINE
  5
68F4
330
A
100
AcDbEntity
  8
0
  6
Continuous
 62
     7
 48
0.205
100
AcDbLine
 10
349.753906
 20
225.186249
 30
0.0
 11
359.953888
 21
225.186249
 31
0.0
  0
LINE
  5
68F5
330
A
100
AcDbEntity
  8
0
  6
Continuous
 62
     7
 48
0.205
100
AcDbLine
 10
359.953888
 20
224.1862339999999
 30
0.0
 11
349.753906
 21
224.1862339999999
 31
0.0
  0
LINE
  5
68F6
330
A
100
AcDbEntity
  8
0
  6
Continuous
 62
     7
 48
0.205
100
AcDbLine
 10
349.753906
 20
216.1862339999999
 30
0.0
 11
359.953888
 21
216.1862339999999
 31
0.0
  0
LINE
  5
68F7
330
A
100
AcDbEntity
  8
0
  6
Continuous
 62
     7
 48
0.205
100
AcDbLine
 10
359.953888
 20
215.186234
 30
0.0
 11
349.753906
 21
215.186234
 31
0.0
  0
LINE
  5
68F8
330
A
100
AcDbEntity
  8
0
  6
Continuous
 62
     7
 48
0.205
100
AcDbLine
 10
349.753906
 20
207.186234
 30
0.0
 11
359.953888
 21
207.186234
 31
0.0
  0
LINE
  5
68F9
330
A
100
AcDbEntity
  8
0
  6
Continuous
 62
     7
 48
0.205
100
AcDbLine
 10
359.953888
 20
206.186234
 30
0.0
 11
349.753906
 21
206.186234
 31
0.0
  0
LINE
  5
68FA
330
A
100
AcDbEntity
  8
0
  6
Continuous
 62
     7
 48
0.205
100
AcDbLine
 10
349.753906
 20
198.186234
 30
0.0
 11
359.953888
 21
198.1862339999999
 31
0.0
  0
LINE
  5
68FB
330
A
100
AcDbEntity
  8
0
  6
Continuous
 62
     7
 48
0.205
100
AcDbLine
 10
359.953888
 20
197.186234
 30
0.0
 11
349.753906
 21
197.186234
 31
0.0
  0
LINE
  5
68FC
330
A
100
AcDbEntity
  8
0
  6
Continuous
 62
     7
 48
0.205
100
AcDbLine
 10
349.753906
 20
189.186234
 30
0.0
 11
359.953888
 21
189.186234
 31
0.0
  0
LINE
  5
68FD
330
A
100
AcDbEntity
  8
0
  6
Continuous
 62
     7
 48
0.205
100
AcDbLine
 10
359.953888
 20
188.1862339999998
 30
0.0
 11
349.753906
 21
188.1862339999999
 31
0.0
  0
LINE
  5
68FE
330
A
100
AcDbEntity
  8
0
  6
Continuous
 62
     7
 48
0.205
100
AcDbLine
 10
349.753906
 20
180.186234
 30
0.0
 11
359.953888
 21
180.186234
 31
0.0
  0
LINE
  5
68FF
330
A
100
AcDbEntity
  8
0
  6
Continuous
 62
     7
 48
0.205
100
AcDbLine
 10
359.953888
 20
179.186234
 30
0.0
 11
349.753906
 21
179.186234
 31
0.0
  0
LINE
  5
6900
330
A
100
AcDbEntity
  8
0
  6
Continuous
 62
     7
 48
0.205
100
AcDbLine
 10
349.753906
 20
235.186249
 30
0.0
 11
359.953888
 21
235.186249
 31
0.0
  0
LINE
  5
6901
330
A
100
AcDbEntity
  8
0
  6
Continuous
 62
     7
 48
0.205
100
AcDbLine
 10
349.753906
 20
234.186249
 30
0.0
 11
359.953888
 21
234.186249
 31
0.0
  0
LINE
  5
6902
330
A
100
AcDbEntity
  8
0
  6
Continuous
 62
     7
 48
0.255
100
AcDbLine
 10
359.953888
 20
233.186249
 30
0.0
 11
349.753906
 21
233.186249
 31
0.0
  0
LINE
  5
6903
330
A
100
AcDbEntity
  8
0
  6
Continuous
 62
     7
 48
0.2
100
AcDbLine
 10
349.753906
 20
235.186249
 30
0.0
 11
349.753906
 21
171.186234
 31
0.0
  0
CIRCLE
  5
6904
330
A
100
AcDbEntity
  8
0
  6
Continuous
 62
     7
100
AcDbCircle
 10
354.853882
 20
193.186234
 30
0.0
 40
3.0
  0
CIRCLE
  5
6905
330
A
100
AcDbEntity
  8
0
  6
Continuous
 62
     7
100
AcDbCircle
 10
354.853882
 20
184.186234
 30
0.0
 40
3.0
  0
CIRCLE
  5
6906
330
A
100
AcDbEntity
  8
0
  6
Continuous
 62
     7
100
AcDbCircle
 10
354.853882
 20
175.186234
 30
0.0
 40
3.0
  0
CIRCLE
  5
6907
330
A
100
AcDbEntity
  8
0
  6
Continuous
 62
     7
100
AcDbCircle
 10
354.853882
 20
220.1862339999999
 30
0.0
 40
3.0
  0
CIRCLE
  5
6908
330
A
100
AcDbEntity
  8
0
  6
Continuous
 62
     7
100
AcDbCircle
 10
354.853882
 20
202.186234
 30
0.0
 40
3.0
  0
CIRCLE
  5
6909
330
A
100
AcDbEntity
  8
0
  6
Continuous
 62
     7
100
AcDbCircle
 10
354.853882
 20
211.186234
 30
0.0
 40
3.0
  0
CIRCLE
  5
690A
330
A
100
AcDbEntity
  8
0
  6
Continuous
 62
     7
100
AcDbCircle
 10
354.853882
 20
229.186249
 30
0.0
 40
3.0
  0
LINE
  5
690B
330
A
100
AcDbEntity
  8
0
  6
Continuous
 62
     7
 48
0.2
100
AcDbLine
 10
359.953888
 20
170.186234
 30
0.0
 11
359.953888
 21
235.186249
 31
0.0
  0
LINE
  5
690C
330
A
100
AcDbEntity
  8
0
  6
Continuous
 62
     7
100
AcDbLine
 10
143.1852420523598
 20
145.186249
 30
0.0
 11
145.1852419999999
 21
145.186249
 31
0.0
  0
VIEWPORT
  5
68D7
330
B
100
AcDbEntity
 67
     1
  8
0
 62
     0
100
AcDbViewport
 10
0.0
 20
0.0
 30
0.0
 40
1000.0
 41
1000.0
 68
     1
 69
     1
 12
0.0
 22
0.0
 13
0.0
 23
0.0
 14
1.0
 24
1.0
 15
1.0
 25
1.0
 16
0.0
 26
0.0
 36
1.0
 17
0.0
 27
0.0
 37
0.0
 42
50.0
 43
0.0
 44
0.0
 45
1000.0
 50
0.0
 51
0.0
 72
   100
 90
    32800
  1

281
     0
 71
     1
 74
     0
110
0.0
120
0.0
130
0.0
111
1.0
121
0.0
131
0.0
112
0.0
122
1.0
132
0.0
 79
     0
146
0.0
  0
ENDSEC
  0
SECTION
  2
OBJECTS
  0
DICTIONARY
  5
19
330
0
100
AcDbDictionary
281
     1
  3
ACAD_GROUP
350
1A
  3
ACAD_LAYOUT
350
68DE
  3
ACAD_MLINESTYLE
350
1B
  3
ACAD_PLOTSETTINGS
350
68DF
  3
ACAD_PLOTSTYLENAME
350
68DC
  0
DICTIONARY
  5
1A
102
{ACAD_REACTORS
330
19
102
}
330
19
100
AcDbDictionary
281
     1
  0
DICTIONARY
  5
68DE
102
{ACAD_REACTORS
330
19
102
}
330
19
100
AcDbDictionary
281
     1
  3
Model
350
68E0
  3
ﾚｲｱｳﾄ1
350
68E1
  0
DICTIONARY
  5
1B
102
{ACAD_REACTORS
330
19
102
}
330
19
100
AcDbDictionary
281
     1
  3
STANDARD
350
1C
  0
DICTIONARY
  5
68DF
102
{ACAD_REACTORS
330
19
102
}
330
19
100
AcDbDictionary
281
     1
  0
ACDBDICTIONARYWDFLT
  5
68DC
102
{ACAD_REACTORS
330
19
102
}
330
19
100
AcDbDictionary
281
     1
  3
Normal
350
68DD
100
AcDbDictionaryWithDefault
340
68DD
  0
LAYOUT
  5
68E0
102
{ACAD_REACTORS
330
68DE
102
}
330
68DE
100
AcDbPlotSettings
  1

  2
Canon iR-ADV C5030/5035 LIPSLX
  4

  6

 40
0.0
 41
0.0
 42
0.0
 43
0.0
 44
0.0
 45
0.0
 46
0.0
 47
0.0
 48
0.0
 49
0.0
140
0.0
141
0.0
142
1.0
143
1.0
 70
  1712
 72
     0
 73
     0
 74
     0
  7

 75
     0
147
1.0
148
0.0
149
0.0
100
AcDbLayout
  1
Model
 70
     1
 71
     0
 10
0.0
 20
0.0
 11
12.0
 21
9.0
 12
0.0
 22
0.0
 32
0.0
 14
0.0
 24
0.0
 34
0.0
 15
0.0
 25
0.0
 35
0.0
146
0.0
 13
0.0
 23
0.0
 33
0.0
 16
1.0
 26
0.0
 36
0.0
 17
0.0
 27
1.0
 37
0.0
 76
     0
330
A
  0
LAYOUT
  5
68E1
102
{ACAD_REACTORS
330
68DE
102
}
330
68DE
100
AcDbPlotSettings
  1

  2
Canon iR-ADV C5030/5035 LIPSLX
  4

  6

 40
0.0
 41
0.0
 42
0.0
 43
0.0
 44
0.0
 45
0.0
 46
0.0
 47
0.0
 48
0.0
 49
0.0
140
0.0
141
0.0
142
1.0
143
1.0
 70
   688
 72
     0
 73
     0
 74
     5
  7

 75
    16
147
1.0
148
0.0
149
0.0
100
AcDbLayout
  1
ﾚｲｱｳﾄ1
 70
     1
 71
     1
 10
0.0
 20
0.0
 11
420.0
 21
297.0
 12
0.0
 22
0.0
 32
0.0
 14
0.0
 24
0.0
 34
0.0
 15
401.4999999999998
 25
275.0
 35
2.0
146
0.0
 13
0.0
 23
0.0
 33
0.0
 16
1.0
 26
0.0
 36
0.0
 17
0.0
 27
1.0
 37
0.0
 76
     0
330
B
331
68D7
  0
MLINESTYLE
  5
1C
102
{ACAD_REACTORS
330
1B
102
}
330
1B
100
AcDbMlineStyle
  2
STANDARD
 70
     0
  3

 62
     0
 51
90.0
 52
90.0
 71
     2
 49
0.5
 62
   256
  6
BYLAYER
 49
-0.5
 62
   256
  6
BYLAYER
  0
ACDBPLACEHOLDER
  5
68DD
102
{ACAD_REACTORS
330
68DC
102
}
330
68DC
  0
ENDSEC
  0
EOF
