  0
SECTION
  2
HEADER
  9
$ACADVER
  1
AC1015
  9
$ACADMAINTVER
 70
    10
  9
$DWGCODEPAGE
  3
ANSI_932
  9
$INSBASE
 10
0.0
 20
0.0
 30
0.0
  9
$EXTMIN
 10
21.96275055208247
 20
277.8187359279284
 30
0.0
  9
$EXTMAX
 10
557.8351801762551
 20
454.3173969209632
 30
0.0
  9
$LIMMIN
 10
0.0
 20
0.0
  9
$LIMMAX
 10
420.0
 20
297.0
  9
$ORTHOMODE
 70
     0
  9
$REGENMODE
 70
     1
  9
$FILLMODE
 70
     1
  9
$QTEXTMODE
 70
     0
  9
$MIRRTEXT
 70
     1
  9
$LTSCALE
 40
1.0
  9
$ATTMODE
 70
     1
  9
$TEXTSIZE
 40
0.0
  9
$TRACEWID
 40
1.0
  9
$TEXTSTYLE
  7
STANDARD
  9
$CLAYER
  8
0
  9
$CELTYPE
  6
BYLAYER
  9
$CECOLOR
 62
   256
  9
$CELTSCALE
 40
1.0
  9
$DISPSILH
 70
     0
  9
$DIMSCALE
 40
1.0
  9
$DIMASZ
 40
2.5
  9
$DIMEXO
 40
0.625
  9
$DIMDLI
 40
3.75
  9
$DIMRND
 40
0.0
  9
$DIMDLE
 40
0.0
  9
$DIMEXE
 40
1.25
  9
$DIMTP
 40
0.0
  9
$DIMTM
 40
0.0
  9
$DIMTXT
 40
2.5
  9
$DIMCEN
 40
2.5
  9
$DIMTSZ
 40
0.0
  9
$DIMTOL
 70
     0
  9
$DIMLIM
 70
     0
  9
$DIMTIH
 70
     0
  9
$DIMTOH
 70
     0
  9
$DIMSE1
 70
     0
  9
$DIMSE2
 70
     0
  9
$DIMTAD
 70
     1
  9
$DIMZIN
 70
     8
  9
$DIMBLK
  1

  9
$DIMASO
 70
     1
  9
$DIMSHO
 70
     1
  9
$DIMPOST
  1

  9
$DIMAPOST
  1

  9
$DIMALT
 70
     0
  9
$DIMALTD
 70
     3
  9
$DIMALTF
 40
0.03937
  9
$DIMLFAC
 40
1.0
  9
$DIMTOFL
 70
     1
  9
$DIMTVP
 40
0.0
  9
$DIMTIX
 70
     0
  9
$DIMSOXD
 70
     0
  9
$DIMSAH
 70
     0
  9
$DIMBLK1
  1

  9
$DIMBLK2
  1

  9
$DIMSTYLE
  2
STANDARD
  9
$DIMCLRD
 70
     0
  9
$DIMCLRE
 70
     0
  9
$DIMCLRT
 70
     0
  9
$DIMTFAC
 40
1.0
  9
$DIMGAP
 40
0.625
  9
$DIMJUST
 70
     0
  9
$DIMSD1
 70
     0
  9
$DIMSD2
 70
     0
  9
$DIMTOLJ
 70
     0
  9
$DIMTZIN
 70
     8
  9
$DIMALTZ
 70
     0
  9
$DIMALTTZ
 70
     0
  9
$DIMUPT
 70
     0
  9
$DIMDEC
 70
     2
  9
$DIMTDEC
 70
     2
  9
$DIMALTU
 70
     2
  9
$DIMALTTD
 70
     3
  9
$DIMTXSTY
  7
STANDARD
  9
$DIMAUNIT
 70
     0
  9
$DIMADEC
 70
     0
  9
$DIMALTRND
 40
0.0
  9
$DIMAZIN
 70
     0
  9
$DIMDSEP
 70
    46
  9
$DIMATFIT
 70
     3
  9
$DIMFRAC
 70
     0
  9
$DIMLDRBLK
  1

  9
$DIMLUNIT
 70
     2
  9
$DIMLWD
 70
    -2
  9
$DIMLWE
 70
    -2
  9
$DIMTMOVE
 70
     0
  9
$LUNITS
 70
     2
  9
$LUPREC
 70
     4
  9
$SKETCHINC
 40
1.0
  9
$FILLETRAD
 40
2.5
  9
$AUNITS
 70
     0
  9
$AUPREC
 70
     0
  9
$MENU
  1
.
  9
$ELEVATION
 40
0.0
  9
$PELEVATION
 40
0.0
  9
$THICKNESS
 40
0.0
  9
$LIMCHECK
 70
     0
  9
$CHAMFERA
 40
2.5
  9
$CHAMFERB
 40
2.5
  9
$CHAMFERC
 40
0.0
  9
$CHAMFERD
 40
0.0
  9
$SKPOLY
 70
     0
  9
$TDCREATE
 40
2312275.082422512
  9
$TDUCREATE
 40
2312274.707422511
  9
$TDUPDATE
 40
2456493.788877569
  9
$TDUUPDATE
 40
2456493.413877570
  9
$TDINDWG
 40
0.0283164120
  9
$TDUSRTIMER
 40
0.0283156829
  9
$USRTIMER
 70
     1
  9
$ANGBASE
 50
0.0
  9
$ANGDIR
 70
     0
  9
$PDMODE
 70
     0
  9
$PDSIZE
 40
0.0
  9
$PLINEWID
 40
0.0
  9
$SPLFRAME
 70
     0
  9
$SPLINETYPE
 70
     6
  9
$SPLINESEGS
 70
     8
  9
$HANDSEED
  5
3927
  9
$SURFTAB1
 70
     6
  9
$SURFTAB2
 70
     6
  9
$SURFTYPE
 70
     6
  9
$SURFU
 70
     6
  9
$SURFV
 70
     6
  9
$UCSBASE
  2

  9
$UCSNAME
  2

  9
$UCSORG
 10
0.0
 20
0.0
 30
0.0
  9
$UCSXDIR
 10
1.0
 20
0.0
 30
0.0
  9
$UCSYDIR
 10
0.0
 20
1.0
 30
0.0
  9
$UCSORTHOREF
  2

  9
$UCSORTHOVIEW
 70
     0
  9
$UCSORGTOP
 10
0.0
 20
0.0
 30
0.0
  9
$UCSORGBOTTOM
 10
0.0
 20
0.0
 30
0.0
  9
$UCSORGLEFT
 10
0.0
 20
0.0
 30
0.0
  9
$UCSORGRIGHT
 10
0.0
 20
0.0
 30
0.0
  9
$UCSORGFRONT
 10
0.0
 20
0.0
 30
0.0
  9
$UCSORGBACK
 10
0.0
 20
0.0
 30
0.0
  9
$PUCSBASE
  2

  9
$PUCSNAME
  2

  9
$PUCSORG
 10
0.0
 20
0.0
 30
0.0
  9
$PUCSXDIR
 10
1.0
 20
0.0
 30
0.0
  9
$PUCSYDIR
 10
0.0
 20
1.0
 30
0.0
  9
$PUCSORTHOREF
  2

  9
$PUCSORTHOVIEW
 70
     0
  9
$PUCSORGTOP
 10
0.0
 20
0.0
 30
0.0
  9
$PUCSORGBOTTOM
 10
0.0
 20
0.0
 30
0.0
  9
$PUCSORGLEFT
 10
0.0
 20
0.0
 30
0.0
  9
$PUCSORGRIGHT
 10
0.0
 20
0.0
 30
0.0
  9
$PUCSORGFRONT
 10
0.0
 20
0.0
 30
0.0
  9
$PUCSORGBACK
 10
0.0
 20
0.0
 30
0.0
  9
$USERI1
 70
     0
  9
$USERI2
 70
     0
  9
$USERI3
 70
     0
  9
$USERI4
 70
     0
  9
$USERI5
 70
     0
  9
$USERR1
 40
0.0
  9
$USERR2
 40
0.0
  9
$USERR3
 40
0.0
  9
$USERR4
 40
0.0
  9
$USERR5
 40
0.0
  9
$WORLDVIEW
 70
     1
  9
$SHADEDGE
 70
     3
  9
$SHADEDIF
 70
    70
  9
$TILEMODE
 70
     1
  9
$MAXACTVP
 70
    48
  9
$PINSBASE
 10
0.0
 20
0.0
 30
0.0
  9
$PLIMCHECK
 70
     0
  9
$PEXTMIN
 10
0.0
 20
0.0
 30
0.0
  9
$PEXTMAX
 10
401.4999999999998
 20
275.0
 30
2.0
  9
$PLIMMIN
 10
0.0
 20
0.0
  9
$PLIMMAX
 10
420.0
 20
297.0
  9
$UNITMODE
 70
     0
  9
$VISRETAIN
 70
     0
  9
$PLINEGEN
 70
     0
  9
$PSLTSCALE
 70
     1
  9
$TREEDEPTH
 70
  3020
  9
$CMLSTYLE
  2
STANDARD
  9
$CMLJUST
 70
     0
  9
$CMLSCALE
 40
20.0
  9
$PROXYGRAPHICS
 70
     1
  9
$MEASUREMENT
 70
     1
  9
$CELWEIGHT
370
    -1
  9
$ENDCAPS
280
     0
  9
$JOINSTYLE
280
     0
  9
$LWDISPLAY
290
     0
  9
$INSUNITS
 70
     0
  9
$HYPERLINKBASE
  1

  9
$STYLESHEET
  1

  9
$XEDIT
290
     1
  9
$CEPSNTYPE
380
     0
  9
$PSTYLEMODE
290
     1
  9
$FINGERPRINTGUID
  2
{5E7676C3-759C-43EE-9B61-7527216916F9}
  9
$VERSIONGUID
  2
{29BACD27-8B23-4D0B-BD8E-D2235AF06412}
  9
$EXTNAMES
290
     1
  9
$PSVPSCALE
 40
0.0
  9
$OLESTARTUP
290
     0
  0
ENDSEC
  0
SECTION
  2
CLASSES
  0
CLASS
  1
LWPOLYLINE
  2
AcDbPolyline
  3
AutoCAD 2000
 90
    32768
280
     0
281
     1
  0
CLASS
  1
IMAGE
  2
AcDbRasterImage
  3
ISM
 90
    32895
280
     0
281
     1
  0
CLASS
  1
OLE2FRAME
  2
AcDbOle2Frame
  3
AutoCAD 2000
 90
    32768
280
     0
281
     1
  0
CLASS
  1
HATCH
  2
AcDbHatch
  3
AutoCAD 2000
 90
    32768
280
     0
281
     1
  0
CLASS
  1
DICTIONARYVAR
  2
AcDbDictionaryVar
  3
AutoCAD 2000
 90
    32768
280
     0
281
     0
  0
CLASS
  1
RASTERVARIABLES
  2
AcDbRasterVariables
  3
ISM
 90
    32768
280
     0
281
     0
  0
CLASS
  1
IMAGEDEF
  2
AcDbRasterImageDef
  3
ISM
 90
    32768
280
     0
281
     0
  0
CLASS
  1
IMAGEDEF_REACTOR
  2
AcDbRasterImageDefReactor
  3
ISM
 90
    32769
280
     0
281
     0
  0
CLASS
  1
IDBUFFER
  2
AcDbIdBuffer
  3
AutoCAD 2000
 90
    32768
280
     0
281
     0
  0
CLASS
  1
SPATIAL_FILTER
  2
AcDbSpatialFilter
  3
AutoCAD 2000
 90
    32768
280
     0
281
     0
  0
CLASS
  1
XRECORD
  2
AcDbXrecord
  3
AutoCAD 2000
 90
    32768
280
     0
281
     0
  0
CLASS
  1
SORTENTSTABLE
  2
AcDbSortentsTable
  3
AutoCAD 2000
 90
    32768
280
     0
281
     0
  0
CLASS
  1
LAYER_INDEX
  2
AcDbLayerIndex
  3
AutoCAD 2000
 90
    32768
280
     0
281
     0
  0
CLASS
  1
SPATIAL_INDEX
  2
AcDbSpatialIndex
  3
AutoCAD 2000
 90
    32768
280
     0
281
     0
  0
CLASS
  1
OBJECT_PTR
  2
CAseDLPNTableRecord
  3
"ASE-LPNTableRecord"
 90
    32769
280
     0
281
     0
  0
CLASS
  1
LAYOUT
  2
AcDbLayout
  3
AutoCAD 2000
 90
        0
280
     0
281
     0
  0
CLASS
  1
PLOTSETTINGS
  2
AcDbPlotSettings
  3
AutoCAD 2000
 90
    32768
280
     0
281
     0
  0
CLASS
  1
ACDBDICTIONARYWDFLT
  2
AcDbDictionaryWithDefault
  3
AutoCAD 2000
 90
        0
280
     0
281
     0
  0
CLASS
  1
ACDBPLACEHOLDER
  2
AcDbPlaceHolder
  3
AutoCAD 2000
 90
        0
280
     0
281
     0
  0
CLASS
  1
VBA_PROJECT
  2
AcDbVbaProject
  3
"acadvba"
 90
    32768
280
     0
281
     0
  0
CLASS
  1
WIPEOUT
  2
AcDbWipeout
  3
WipeOut|AutoCAD Express Tool|expresstools@autodesk.com
 90
    32895
280
     0
281
     1
  0
CLASS
  1
WIPEOUTVARIABLES
  2
AcDbWipeoutVariables
  3
WipeOut|AutoCAD Express Tool|expresstools@autodesk.com
 90
    32768
280
     0
281
     0
  0
CLASS
  1
RTEXT
  2
RText
  3
RText|AutoCAD Express Tool|expresstools@autodesk.com
 90
    32768
280
     0
281
     1
  0
CLASS
  1
ARCALIGNEDTEXT
  2
AcDbArcAlignedText
  3
ATEXT|AutoCAD Express Tool|expresstools@autodesk.com
 90
    32768
280
     0
281
     1
  0
ENDSEC
  0
SECTION
  2
TABLES
  0
TABLE
  2
VPORT
  5
7
330
0
100
AcDbSymbolTable
 70
     4
  0
VPORT
  5
3926
330
7
100
AcDbSymbolTableRecord
100
AcDbViewportTableRecord
  2
*Active
 70
     0
 10
0.0
 20
0.0
 11
1.0
 21
1.0
 12
235.9260330726152
 22
375.6095823460527
 13
0.0
 23
0.0
 14
1.0
 24
1.0
 15
0.0
 25
0.0
 16
0.0
 26
0.0
 36
1.0
 17
0.0
 27
0.0
 37
0.0
 40
252.0271808176791
 41
1.781954887218045
 42
50.0
 43
0.0
 44
0.0
 50
0.0
 51
0.0
 71
     0
 72
   100
 73
     1
 74
     1
 75
     0
 76
     0
 77
     0
 78
     0
281
     0
 65
     1
110
0.0
120
0.0
130
0.0
111
1.0
121
0.0
131
0.0
112
0.0
122
1.0
132
0.0
 79
     0
146
0.0
  0
ENDTAB
  0
TABLE
  2
LTYPE
  5
4
330
0
100
AcDbSymbolTable
 70
     2
  0
LTYPE
  5
11
330
4
100
AcDbSymbolTableRecord
100
AcDbLinetypeTableRecord
  2
BYBLOCK
 70
     0
  3

 72
    65
 73
     0
 40
0.0
  0
LTYPE
  5
12
330
4
100
AcDbSymbolTableRecord
100
AcDbLinetypeTableRecord
  2
BYLAYER
 70
     0
  3

 72
    65
 73
     0
 40
0.0
  0
LTYPE
  5
13
330
4
100
AcDbSymbolTableRecord
100
AcDbLinetypeTableRecord
  2
CONTINUOUS
 70
     0
  3
Solid line
 72
    65
 73
     0
 40
0.0
  0
LTYPE
  5
374C
330
4
100
AcDbSymbolTableRecord
100
AcDbLinetypeTableRecord
  2
DASHED
 70
     0
  3
Dashed __ __ __ __ __ __ __ __ __ __ __ __ __ _
 72
    65
 73
     2
 40
19.04999999999997
 49
12.7
 74
     0
 49
-6.349999999999997
 74
     0
  0
ENDTAB
  0
TABLE
  2
LAYER
  5
2
330
0
100
AcDbSymbolTable
 70
     1
  0
LAYER
  5
14
330
2
100
AcDbSymbolTableRecord
100
AcDbLayerTableRecord
  2
0
 70
     0
 62
     7
  6
CONTINUOUS
370
    -3
390
317A
  0
ENDTAB
  0
TABLE
  2
STYLE
  5
3
330
0
100
AcDbSymbolTable
 70
     2
  0
STYLE
  5
17
330
3
100
AcDbSymbolTableRecord
100
AcDbTextStyleTableRecord
  2
STANDARD
 70
     0
 40
0.0
 41
1.0
 50
0.0
 71
     0
 42
0.0
  3
txt
  4

  0
STYLE
  5
374B
330
3
100
AcDbSymbolTableRecord
100
AcDbTextStyleTableRecord
  2

 70
     1
 40
0.0
 41
1.0
 50
0.0
 71
     0
 42
0.2
  3
ltypeshp.shx
  4

  0
ENDTAB
  0
TABLE
  2
VIEW
  5
5
330
0
100
AcDbSymbolTable
 70
     0
  0
ENDTAB
  0
TABLE
  2
UCS
  5
6
330
0
100
AcDbSymbolTable
 70
     0
  0
ENDTAB
  0
TABLE
  2
APPID
  5
8
330
0
100
AcDbSymbolTable
 70
     1
  0
APPID
  5
16
330
8
100
AcDbSymbolTableRecord
100
AcDbRegAppTableRecord
  2
ACAD
 70
     0
  0
ENDTAB
  0
TABLE
  2
DIMSTYLE
  5
9
330
0
100
AcDbSymbolTable
 70
     1
100
AcDbDimStyleTable
 71
     1
340
18
  0
DIMSTYLE
105
18
330
9
100
AcDbSymbolTableRecord
100
AcDbDimStyleTableRecord
  2
STANDARD
 70
     0
340
17
  0
ENDTAB
  0
TABLE
  2
BLOCK_RECORD
  5
1
330
0
100
AcDbSymbolTable
 70
     2
  0
BLOCK_RECORD
  5
A
330
1
100
AcDbSymbolTableRecord
100
AcDbBlockTableRecord
  2
*MODEL_SPACE
340
317D
  0
BLOCK_RECORD
  5
B
330
1
100
AcDbSymbolTableRecord
100
AcDbBlockTableRecord
  2
*PAPER_SPACE
340
317E
  0
ENDTAB
  0
ENDSEC
  0
SECTION
  2
BLOCKS
  0
BLOCK
  5
D
330
A
100
AcDbEntity
  8
0
100
AcDbBlockBegin
  2
*MODEL_SPACE
 70
     0
 10
0.0
 20
0.0
 30
0.0
  3
*MODEL_SPACE
  1

  0
ENDBLK
  5
E
330
A
100
AcDbEntity
  8
0
100
AcDbBlockEnd
  0
BLOCK
  5
F
330
B
100
AcDbEntity
 67
     1
  8
0
100
AcDbBlockBegin
  2
*PAPER_SPACE
 70
     0
 10
0.0
 20
0.0
 30
0.0
  3
*PAPER_SPACE
  1

  0
ENDBLK
  5
10
330
B
100
AcDbEntity
 67
     1
  8
0
100
AcDbBlockEnd
  0
ENDSEC
  0
SECTION
  2
ENTITIES
  0
LINE
  5
341A
330
A
100
AcDbEntity
  8
0
 62
     7
 48
0.16
100
AcDbLine
 10
33.64619678948435
 20
322.1812344240781
 30
0.0
 11
33.64619678948435
 21
314.1812427574107
 31
0.0
  0
LINE
  5
341B
330
A
100
AcDbEntity
  8
0
 62
     7
100
AcDbLine
 10
167.2461991228173
 20
439.6092771919906
 30
0.0
 11
167.2461991228173
 21
301.6092803169898
 31
0.0
  0
LINE
  5
341C
330
A
100
AcDbEntity
  8
0
 62
     7
100
AcDbLine
 10
22.64619918531744
 20
301.6092803169898
 30
0.0
 11
22.64619918531744
 21
439.6092771919906
 31
0.0
  0
LINE
  5
341D
330
A
100
AcDbEntity
  8
0
 62
     7
 48
0.487424
100
AcDbLine
 10
30.64619960198405
 20
332.8668495609933
 30
0.0
 11
30.64619960198405
 21
308.4956283496618
 31
0.0
  0
LINE
  5
341E
330
A
100
AcDbEntity
  8
0
 62
     7
 48
0.487424
100
AcDbLine
 10
159.2462074561498
 20
332.8668495609933
 30
0.0
 11
159.2462074561498
 21
308.4956283496618
 31
0.0
  0
LINE
  5
341F
330
A
100
AcDbEntity
  8
0
 62
     7
100
AcDbLine
 10
31.64619949781737
 20
302.5496214690378
 30
0.0
 11
31.64619949781737
 21
330.3668498214101
 31
0.0
  0
LINE
  5
3420
330
A
100
AcDbEntity
  8
0
 62
     7
100
AcDbLine
 10
158.2462038103168
 20
302.5496214690378
 30
0.0
 11
158.2462038103168
 21
330.3668498214101
 31
0.0
  0
LINE
  5
3421
330
A
100
AcDbEntity
  8
0
 62
     7
 48
0.153712
100
AcDbLine
 10
156.2461965186508
 20
305.9956286100783
 30
0.0
 11
156.2461965186508
 21
330.3668498214101
 31
0.0
  0
LINE
  5
3422
330
A
100
AcDbEntity
  8
0
 62
     7
100
AcDbLine
 10
30.44620087281725
 20
333.1672757796988
 30
0.0
 11
30.44620087281725
 21
299.1779455702541
 31
0.0
  0
LINE
  5
3423
330
A
100
AcDbEntity
  8
0
 62
     7
100
AcDbLine
 10
159.4461924353181
 20
299.1779455702541
 30
0.0
 11
159.4461924353181
 21
333.1672757796988
 31
0.0
  0
LINE
  5
3424
330
A
100
AcDbEntity
  8
0
 62
     7
100
AcDbLine
 10
163.9461994665674
 20
298.3092806607402
 30
0.0
 11
25.94620259156707
 21
298.3092806607402
 31
0.0
  0
LINE
  5
3425
330
A
100
AcDbEntity
  8
0
 62
     7
100
AcDbLine
 10
34.14619923740076
 20
299.4956142871636
 30
0.0
 11
158.2462038103168
 21
299.4956142871636
 31
0.0
  0
LINE
  5
3426
330
A
100
AcDbEntity
  8
0
 62
     7
100
AcDbLine
 10
156.2461965186508
 20
305.9956286100783
 30
0.0
 11
33.64619678948435
 21
305.9956286100783
 31
0.0
  0
LINE
  5
3427
330
A
100
AcDbEntity
  8
0
 62
     7
100
AcDbLine
 10
158.446188789485
 20
298.6102793793861
 30
0.0
 11
31.44619951865069
 21
298.6102793793861
 31
0.0
  0
ARC
  5
3428
330
A
100
AcDbEntity
  8
0
 62
     7
100
AcDbCircle
 10
25.94620259156707
 20
301.6092803169898
 30
0.0
 40
3.299999656250037
100
AcDbArc
 50
180.0000050000005
 51
270.0000009999997
  0
LINE
  5
3429
330
A
100
AcDbEntity
  8
0
 62
     7
 48
0.153712
100
AcDbLine
 10
33.64619678948435
 20
313.6812315594953
 30
0.0
 11
33.64619678948435
 21
305.9956286100783
 31
0.0
  0
LINE
  5
342A
330
A
100
AcDbEntity
  8
0
 62
     7
 48
0.12
100
AcDbLine
 10
31.44619951865069
 20
308.4956283496618
 30
0.0
 11
31.44619951865069
 21
298.6102793793861
 31
0.0
  0
LINE
  5
342C
330
A
100
AcDbEntity
  8
0
 62
     7
 48
0.06
100
AcDbLine
 10
32.64619814365087
 20
304.2726250395583
 30
0.0
 11
32.64619814365087
 21
299.4956142871636
 31
0.0
  0
LINE
  5
342D
330
A
100
AcDbEntity
  8
0
 62
     7
 48
0.029882
100
AcDbLine
 10
31.64619949781737
 20
299.4956142871636
 30
0.0
 11
31.64619949781737
 21
302.5496214690378
 31
0.0
  0
LINE
  5
342E
330
A
100
AcDbEntity
  8
0
 62
     7
 48
0.029882
100
AcDbLine
 10
32.64619814365087
 20
299.4956142871636
 30
0.0
 11
32.64619814365087
 21
300.9897166315281
 31
0.0
  0
LINE
  5
3430
330
A
100
AcDbEntity
  8
0
 62
     7
 48
0.000335
100
AcDbLine
 10
31.44619951865069
 20
300.2872204547049
 30
0.0
 11
31.44619951865069
 21
300.3039867029583
 31
0.0
  0
LINE
  5
3431
330
A
100
AcDbEntity
  8
0
 62
     7
 48
0.03
100
AcDbLine
 10
32.64619814365087
 20
299.4956142871636
 30
0.0
 11
34.14619923740076
 21
299.4956142871636
 31
0.0
  0
LINE
  5
3435
330
A
100
AcDbEntity
  8
0
 62
     7
 48
0.02
100
AcDbLine
 10
30.44620087281725
 20
299.1779455702541
 30
0.0
 11
31.44619951865069
 21
299.1779455702541
 31
0.0
  0
LINE
  5
3436
330
A
100
AcDbEntity
  8
0
 62
     7
 48
0.02
100
AcDbLine
 10
31.64619949781737
 20
299.4956142871636
 30
0.0
 11
32.64619814365087
 21
299.4956142871636
 31
0.0
  0
LINE
  5
343C
330
A
100
AcDbEntity
  8
0
 62
     7
 48
0.039843
100
AcDbLine
 10
33.64619678948435
 20
305.9956286100783
 30
0.0
 11
31.64619949781737
 21
302.5496214690378
 31
0.0
  0
LINE
  5
343D
330
A
100
AcDbEntity
  8
0
 62
     7
 48
0.02
100
AcDbLine
 10
30.64619960198405
 20
308.4956283496618
 30
0.0
 11
31.64619949781737
 21
308.4956283496618
 31
0.0
  0
LINE
  5
343E
330
A
100
AcDbEntity
  8
0
 62
     7
 48
0.01
100
AcDbLine
 10
33.64619678948435
 20
314.1812427574107
 30
0.0
 11
33.64619678948435
 21
313.6812315594953
 31
0.0
  0
LINE
  5
343F
330
A
100
AcDbEntity
  8
0
 62
     7
 48
0.039843
100
AcDbLine
 10
156.2461965186508
 20
305.9956286100783
 30
0.0
 11
158.2462038103168
 21
302.5496214690378
 31
0.0
  0
LINE
  5
3445
330
A
100
AcDbEntity
  8
0
 62
     7
 48
0.065658
100
AcDbLine
 10
157.2462001644838
 20
304.2726250395583
 30
0.0
 11
157.2462001644838
 21
299.4956142871636
 31
0.0
  0
LINE
  5
3447
330
A
100
AcDbEntity
  8
0
 62
     7
 48
0.12
100
AcDbLine
 10
158.446188789485
 20
308.4956283496618
 30
0.0
 11
158.446188789485
 21
299.1779455702541
 31
0.0
  0
ARC
  5
3448
330
A
100
AcDbEntity
  8
0
 62
     7
100
AcDbCircle
 10
163.9461994665674
 20
301.6092803169898
 30
0.0
 40
3.299999656250037
100
AcDbArc
 50
270.0000009999997
 51
0.0000099999977495
  0
LINE
  5
344D
330
A
100
AcDbEntity
  8
0
 62
     7
 48
0.011353
100
AcDbLine
 10
158.446188789485
 20
298.6102793793861
 30
0.0
 11
158.446188789485
 21
299.1779455702541
 31
0.0
  0
LINE
  5
344E
330
A
100
AcDbEntity
  8
0
 62
     7
 48
0.02
100
AcDbLine
 10
158.446188789485
 20
299.1779455702541
 30
0.0
 11
159.4461924353181
 21
299.1779455702541
 31
0.0
  0
LINE
  5
3450
330
A
100
AcDbEntity
  8
0
 62
     7
 48
0.031198
100
AcDbLine
 10
158.2462038103168
 20
302.5496214690378
 30
0.0
 11
158.2462038103168
 21
299.4956142871636
 31
0.0
  0
LINE
  5
3451
330
A
100
AcDbEntity
  8
0
 62
     7
 48
0.02
100
AcDbLine
 10
159.2462074561498
 20
308.4956283496618
 30
0.0
 11
158.2462038103168
 21
308.4956283496618
 31
0.0
  0
LINE
  5
3452
330
A
100
AcDbEntity
  8
0
 62
     7
100
AcDbLine
 10
25.94620259156707
 20
442.9092755982408
 30
0.0
 11
163.9461994665674
 21
442.9092755982408
 31
0.0
  0
LINE
  5
3453
330
A
100
AcDbEntity
  8
0
 62
     7
100
AcDbLine
 10
30.64619960198405
 20
332.8668495609933
 30
0.0
 11
86.94619998740071
 21
332.8668495609933
 31
0.0
  0
LINE
  5
3454
330
A
100
AcDbEntity
  8
0
 62
     7
100
AcDbLine
 10
85.94619634156776
 20
332.366837113078
 30
0.0
 11
33.64619678948435
 21
332.366837113078
 31
0.0
  0
LINE
  5
3455
330
A
100
AcDbEntity
  8
0
 62
     7
100
AcDbLine
 10
33.64619678948435
 20
330.3668498214101
 30
0.0
 11
156.2461965186508
 21
330.3668498214101
 31
0.0
  0
LINE
  5
3456
330
A
100
AcDbEntity
  8
0
 62
     7
100
AcDbLine
 10
30.44620087281725
 20
333.1672757796988
 30
0.0
 11
159.4461924353181
 21
333.1672757796988
 31
0.0
  0
LINE
  5
3457
330
A
100
AcDbEntity
  8
0
 62
     7
100
AcDbLine
 10
32.44619816448423
 20
341.1092837024065
 30
0.0
 11
157.4461851436522
 21
341.1092837024065
 31
0.0
  0
LINE
  5
3458
330
A
100
AcDbEntity
  8
0
 62
     7
100
AcDbLine
 10
157.4461851436522
 20
334.1092769315736
 30
0.0
 11
32.44619816448423
 21
334.1092769315736
 31
0.0
  0
LINE
  5
3459
330
A
100
AcDbEntity
  8
0
 62
     7
100
AcDbLine
 10
33.28953682663643
 20
436.4120462750354
 30
0.0
 11
156.6028514814994
 21
436.4120462750354
 31
0.0
  0
LINE
  5
345A
330
A
100
AcDbEntity
  8
0
 62
     7
100
AcDbLine
 10
156.6028514814994
 20
342.3065073276956
 30
0.0
 11
33.28953682663643
 21
342.3065073276956
 31
0.0
  0
LINE
  5
345B
330
A
100
AcDbEntity
  8
0
 62
     7
100
AcDbLine
 10
151.5462032582336
 20
433.1092816190735
 30
0.0
 11
36.8461989561508
 21
433.1092816190735
 31
0.0
  0
LINE
  5
345C
330
A
100
AcDbEntity
  8
0
 62
     7
100
AcDbLine
 10
36.8461989561508
 20
345.6092719836576
 30
0.0
 11
151.5462032582336
 21
345.6092719836576
 31
0.0
  0
LINE
  5
345D
330
A
100
AcDbEntity
  8
0
 62
     7
100
AcDbLine
 10
157.3462026540669
 20
334.209279421157
 30
0.0
 11
32.54620065406728
 21
334.209279421157
 31
0.0
  0
LINE
  5
345E
330
A
100
AcDbEntity
  8
0
 62
     7
100
AcDbLine
 10
32.54620065406728
 20
341.0092812128234
 30
0.0
 11
157.3462026540669
 21
341.0092812128234
 31
0.0
  0
LINE
  5
345F
330
A
100
AcDbEntity
  8
0
 62
     7
100
AcDbLine
 10
32.17389069284954
 20
343.3262522214723
 30
0.0
 11
32.17389069284954
 21
435.3923013812588
 31
0.0
  0
LINE
  5
3460
330
A
100
AcDbEntity
  8
0
 62
     7
100
AcDbLine
 10
35.84619906031743
 20
346.6092756294906
 30
0.0
 11
35.84619906031743
 21
432.1092779732405
 31
0.0
  0
LINE
  5
3461
330
A
100
AcDbEntity
  8
0
 62
     7
 48
0.153712
100
AcDbLine
 10
33.64619678948435
 20
330.3668498214101
 30
0.0
 11
33.64619678948435
 21
322.6812268719957
 31
0.0
  0
LINE
  5
3462
330
A
100
AcDbEntity
  8
0
 62
     7
 48
0.01
100
AcDbLine
 10
33.64619678948435
 20
322.6812268719957
 30
0.0
 11
33.64619678948435
 21
322.1812344240781
 31
0.0
  0
LINE
  5
3463
330
A
100
AcDbEntity
  8
0
 62
     7
 48
0.14
100
AcDbLine
 10
32.44619816448423
 20
341.1092837024065
 30
0.0
 11
32.44619816448423
 21
334.1092769315736
 31
0.0
  0
LINE
  5
3464
330
A
100
AcDbEntity
  8
0
 62
     7
 48
0.136
100
AcDbLine
 10
32.54620065406728
 20
341.0092812128234
 30
0.0
 11
32.54620065406728
 21
334.209279421157
 31
0.0
  0
ARC
  5
3465
330
A
100
AcDbEntity
  8
0
 62
     7
100
AcDbCircle
 10
33.64619678948435
 20
330.3668498214101
 30
0.0
 40
1.999999791666688
100
AcDbArc
 50
90.00000300000015
 51
180.0000050000005
  0
LINE
  5
3466
330
A
100
AcDbEntity
  8
0
 62
     7
 48
0.04
100
AcDbLine
 10
32.23198443679811
 20
331.7810534240972
 30
0.0
 11
33.64619678948435
 21
330.3668498214101
 31
0.0
  0
LWPOLYLINE
  5
3467
330
A
100
AcDbEntity
  8
0
 62
     7
100
AcDbPolyline
 90
        8
 70
     0
 43
0.0
 10
32.17389069284957
 20
343.3262522214723
 10
32.20108944001637
 20
343.0495147502991
 10
32.26061318381596
 20
342.8591235201315
 10
32.36317567313237
 20
342.6813010386545
 10
32.57697565086154
 20
342.4839473092121
 10
32.7777818799442
 20
342.3860060694143
 10
33.02743435393877
 20
342.3247798257921
 10
33.28953682663643
 20
342.3065073276956
  0
ARC
  5
3468
330
A
100
AcDbEntity
  8
0
 62
     7
100
AcDbCircle
 10
36.8461989561508
 20
346.6092756294906
 30
0.0
 40
0.9999998958333446
100
AcDbArc
 50
180.0000050000005
 51
270.0000009999997
  0
ARC
  5
3469
330
A
100
AcDbEntity
  8
0
 62
     7
100
AcDbCircle
 10
25.94620259156707
 20
439.6092771919906
 30
0.0
 40
3.299999656250037
100
AcDbArc
 50
90.00000300000015
 51
180.0000050000005
  0
ARC
  5
346A
330
A
100
AcDbEntity
  8
0
 62
     7
100
AcDbCircle
 10
36.8461989561508
 20
432.1092779732405
 30
0.0
 40
0.9999998958333446
100
AcDbArc
 50
90.00000300000015
 51
180.0000050000005
  0
ELLIPSE
  5
346B
330
A
100
AcDbEntity
  8
0
 62
     7
100
AcDbEllipse
 10
36.11779653202604
 20
432.8071766505425
 30
0.0
 11
3.71534308832689
 21
-3.278178827224208
 31
0.0
210
0.0
220
0.0
230
1.0
 40
0.4036080000000001
 41
2.712574958801269
 42
3.483713150024412
  0
LINE
  5
346C
330
A
100
AcDbEntity
  8
0
 62
     7
100
AcDbLine
 10
157.7184976152864
 20
343.3262522214723
 30
0.0
 11
157.7184976152864
 21
435.3923013812588
 31
0.0
  0
LINE
  5
346D
330
A
100
AcDbEntity
  8
0
 62
     7
100
AcDbLine
 10
154.046202997817
 20
432.5993904221871
 30
0.0
 11
154.046202997817
 21
346.1191444305461
 31
0.0
  0
LINE
  5
346E
330
A
100
AcDbEntity
  8
0
 62
     7
100
AcDbLine
 10
102.9462020707335
 20
332.8668495609933
 30
0.0
 11
159.2462074561498
 21
332.8668495609933
 31
0.0
  0
LINE
  5
346F
330
A
100
AcDbEntity
  8
0
 62
     7
100
AcDbLine
 10
156.2461965186508
 20
332.366837113078
 30
0.0
 11
117.4461993103171
 21
332.366837113078
 31
0.0
  0
LINE
  5
3470
330
A
100
AcDbEntity
  8
0
 62
     7
 48
0.247848
100
AcDbLine
 10
88.74999854950502
 20
332.8668495609933
 30
0.0
 11
101.1424035086295
 21
332.8668495609933
 31
0.0
  0
LINE
  5
3471
330
A
100
AcDbEntity
  8
0
 62
     7
 48
0.247848
100
AcDbLine
 10
88.74999854950502
 20
331.3241097216955
 30
0.0
 11
101.1424035086295
 21
331.3241097216955
 31
0.0
  0
LINE
  5
3472
330
A
100
AcDbEntity
  8
0
 62
     7
 48
0.36
100
AcDbLine
 10
103.9461969665677
 20
330.8668422693273
 30
0.0
 11
85.94619634156776
 21
330.8668422693273
 31
0.0
  0
LINE
  5
3473
330
A
100
AcDbEntity
  8
0
 62
     7
 48
0.028006
100
AcDbLine
 10
88.26702984981427
 20
331.8218896698433
 30
0.0
 11
86.94619998740071
 21
331.3568584682838
 31
0.0
  0
LINE
  5
3474
330
A
100
AcDbEntity
  8
0
 62
     7
 48
0.00816
100
AcDbLine
 10
88.07158362017323
 20
332.8668495609933
 30
0.0
 11
88.15196861179982
 21
332.4668396026611
 31
0.0
  0
LINE
  5
3475
330
A
100
AcDbEntity
  8
0
 62
     7
 48
0.003215
100
AcDbLine
 10
88.23235360342636
 20
332.8668495609933
 30
0.0
 11
88.07158362017323
 21
332.8668495609933
 31
0.0
  0
LINE
  5
3476
330
A
100
AcDbEntity
  8
0
 62
     7
 48
0.027538
100
AcDbLine
 10
88.74999854950502
 20
331.3241097216955
 30
0.0
 11
87.4512561847907
 21
330.8668422693273
 31
0.0
  0
ELLIPSE
  5
3477
330
A
100
AcDbEntity
  8
0
 62
     7
100
AcDbEllipse
 10
87.46383493348041
 20
331.3690659670123
 30
0.0
 11
0.4902743782510423
 21
0.17263410677314
 31
0.0
210
0.0
220
0.0
230
1.0
 40
0.9619369999999999
 41
2.81499433517456
 42
4.361472129821776
  0
LINE
  5
3478
330
A
100
AcDbEntity
  8
0
 62
     7
 48
0.0302
100
AcDbLine
 10
86.94619998740071
 20
331.3568584682838
 30
0.0
 11
86.94619998740071
 21
332.8668495609933
 31
0.0
  0
LINE
  5
3479
330
A
100
AcDbEntity
  8
0
 62
     7
 48
0.00816
100
AcDbLine
 10
87.99119862854665
 20
332.4668396026611
 30
0.0
 11
88.07158362017323
 21
332.8668495609933
 31
0.0
  0
LINE
  5
347A
330
A
100
AcDbEntity
  8
0
 62
     7
 48
0.00816
100
AcDbLine
 10
87.91081363692013
 20
332.8668495609933
 30
0.0
 11
87.99119862854665
 21
332.4668396026611
 31
0.0
  0
LINE
  5
347B
330
A
100
AcDbEntity
  8
0
 62
     7
 48
0.003215
100
AcDbLine
 10
88.07158362017323
 20
332.8668495609933
 30
0.0
 11
87.91081363692013
 21
332.8668495609933
 31
0.0
  0
LINE
  5
347C
330
A
100
AcDbEntity
  8
0
 62
     7
 48
0.00816
100
AcDbLine
 10
87.83042739529369
 20
332.4668396026611
 30
0.0
 11
87.91081363692013
 21
332.8668495609933
 31
0.0
  0
LINE
  5
347D
330
A
100
AcDbEntity
  8
0
 62
     7
 48
0.00816
100
AcDbLine
 10
87.75005240366608
 20
332.8668495609933
 30
0.0
 11
87.83042739529369
 21
332.4668396026611
 31
0.0
  0
LINE
  5
347E
330
A
100
AcDbEntity
  8
0
 62
     7
 48
0.003215
100
AcDbLine
 10
87.91081363692013
 20
332.8668495609933
 30
0.0
 11
87.75005240366608
 21
332.8668495609933
 31
0.0
  0
LINE
  5
347F
330
A
100
AcDbEntity
  8
0
 62
     7
 48
0.00816
100
AcDbLine
 10
87.66965741204058
 20
332.4668396026611
 30
0.0
 11
87.75005240366608
 21
332.8668495609933
 31
0.0
  0
LINE
  5
3480
330
A
100
AcDbEntity
  8
0
 62
     7
 48
0.00816
100
AcDbLine
 10
87.58928242041296
 20
332.8668495609933
 30
0.0
 11
87.66965741204058
 21
332.4668396026611
 31
0.0
  0
LINE
  5
3481
330
A
100
AcDbEntity
  8
0
 62
     7
 48
0.003215
100
AcDbLine
 10
87.75004240366712
 20
332.8668495609933
 30
0.0
 11
87.58928242041296
 21
332.8668495609933
 31
0.0
  0
LINE
  5
3482
330
A
100
AcDbEntity
  8
0
 62
     7
 48
0.00816
100
AcDbLine
 10
87.50888742878741
 20
332.4668396026611
 30
0.0
 11
87.58928242041296
 21
332.8668495609933
 31
0.0
  0
LINE
  5
3483
330
A
100
AcDbEntity
  8
0
 62
     7
 48
0.00816
100
AcDbLine
 10
87.42851118715995
 20
332.8668495609933
 30
0.0
 11
87.50888742878741
 21
332.4668396026611
 31
0.0
  0
LINE
  5
3484
330
A
100
AcDbEntity
  8
0
 62
     7
 48
0.003215
100
AcDbLine
 10
87.58928242041296
 20
332.8668495609933
 30
0.0
 11
87.42851118715995
 21
332.8668495609933
 31
0.0
  0
LINE
  5
3485
330
A
100
AcDbEntity
  8
0
 62
     7
 48
0.00816
100
AcDbLine
 10
87.0265849790273
 20
332.4668396026611
 30
0.0
 11
87.10697122065372
 21
332.8668495609933
 31
0.0
  0
LINE
  5
3486
330
A
100
AcDbEntity
  8
0
 62
     7
 48
0.003215
100
AcDbLine
 10
87.26774120390684
 20
332.8668495609933
 30
0.0
 11
87.10697122065372
 21
332.8668495609933
 31
0.0
  0
LINE
  5
3487
330
A
100
AcDbEntity
  8
0
 62
     7
 48
0.00816
100
AcDbLine
 10
87.10697122065372
 20
332.8668495609933
 30
0.0
 11
87.18735621228029
 21
332.4668396026611
 31
0.0
  0
LINE
  5
3488
330
A
100
AcDbEntity
  8
0
 62
     7
 48
0.00816
100
AcDbLine
 10
87.18735621228029
 20
332.4668396026611
 30
0.0
 11
87.26774120390684
 21
332.8668495609933
 31
0.0
  0
LINE
  5
3489
330
A
100
AcDbEntity
  8
0
 62
     7
 48
0.003215
100
AcDbLine
 10
87.42851118715995
 20
332.8668495609933
 30
0.0
 11
87.26774120390684
 21
332.8668495609933
 31
0.0
  0
LINE
  5
348A
330
A
100
AcDbEntity
  8
0
 62
     7
 48
0.00816
100
AcDbLine
 10
87.26774120390684
 20
332.8668495609933
 30
0.0
 11
87.34812619553336
 21
332.4668396026611
 31
0.0
  0
LINE
  5
348B
330
A
100
AcDbEntity
  8
0
 62
     7
 48
0.00816
100
AcDbLine
 10
87.34812619553336
 20
332.4668396026611
 30
0.0
 11
87.42851118715995
 21
332.8668495609933
 31
0.0
  0
LINE
  5
348C
330
A
100
AcDbEntity
  8
0
 62
     7
 48
0.00816
100
AcDbLine
 10
86.94619998740071
 20
332.8668495609933
 30
0.0
 11
87.0265849790273
 21
332.4668396026611
 31
0.0
  0
LINE
  5
348D
330
A
100
AcDbEntity
  8
0
 62
     7
 48
0.003215
100
AcDbLine
 10
87.10697122065372
 20
332.8668495609933
 30
0.0
 11
86.94619998740071
 21
332.8668495609933
 31
0.0
  0
LINE
  5
348E
330
A
100
AcDbEntity
  8
0
 62
     7
 48
0.03
100
AcDbLine
 10
85.94619634156776
 20
330.8668422693273
 30
0.0
 11
85.94619634156776
 21
332.366837113078
 31
0.0
  0
LINE
  5
348F
330
A
100
AcDbEntity
  8
0
 62
     7
 48
0.000694
100
AcDbLine
 10
88.23235360342636
 20
332.8668495609933
 30
0.0
 11
88.26702984981427
 21
332.8668495609933
 31
0.0
  0
LINE
  5
3490
330
A
100
AcDbEntity
  8
0
 62
     7
 48
0.00816
100
AcDbLine
 10
88.15196861179982
 20
332.4668396026611
 30
0.0
 11
88.23235360342636
 21
332.8668495609933
 31
0.0
  0
LINE
  5
3491
330
A
100
AcDbEntity
  8
0
 62
     7
 48
0.020899
100
AcDbLine
 10
88.26702984981427
 20
332.8668495609933
 30
0.0
 11
88.26702984981427
 21
331.8218896698433
 31
0.0
  0
ELLIPSE
  5
3492
330
A
100
AcDbEntity
  8
0
 62
     7
100
AcDbEllipse
 10
88.74999854950504
 20
331.8218896698433
 30
0.0
 11
-0.1660442179332196
 21
0.4716300473074171
 31
0.0
210
0.0
220
0.0
230
1.0
 40
0.96194
 41
1.244241356849667
 42
2.790726423263548
  0
LINE
  5
3493
330
A
100
AcDbEntity
  8
0
 62
     7
 48
0.009659
100
AcDbLine
 10
88.74999854950502
 20
332.8668495609933
 30
0.0
 11
88.26702984981427
 21
332.8668495609933
 31
0.0
  0
LINE
  5
3494
330
A
100
AcDbEntity
  8
0
 62
     7
 48
0.200003
100
AcDbLine
 10
106.4461204561586
 20
330.8668422693273
 30
0.0
 11
116.4462806644754
 21
330.8668422693273
 31
0.0
  0
LINE
  5
3495
330
A
100
AcDbEntity
  8
0
 62
     7
 48
0.165906
100
AcDbLine
 10
115.5938395032716
 20
331.2876984754883
 30
0.0
 11
107.2985616173629
 21
331.2876984754883
 31
0.0
  0
LINE
  5
3496
330
A
100
AcDbEntity
  8
0
 62
     7
 48
0.165906
100
AcDbLine
 10
115.5938395032716
 20
332.366837113078
 30
0.0
 11
107.2985616173629
 21
332.366837113078
 31
0.0
  0
LINE
  5
3497
330
A
100
AcDbEntity
  8
0
 62
     7
 48
0.03
100
AcDbLine
 10
105.446201810317
 20
332.366837113078
 30
0.0
 11
103.9461969665677
 21
332.366837113078
 31
0.0
  0
LINE
  5
3498
330
A
100
AcDbEntity
  8
0
 62
     7
 48
0.0302
100
AcDbLine
 10
102.9462020707335
 20
331.3568584682838
 30
0.0
 11
102.9462020707335
 21
332.8668495609933
 31
0.0
  0
ELLIPSE
  5
3499
330
A
100
AcDbEntity
  8
0
 62
     7
100
AcDbEllipse
 10
102.4285571246551
 20
331.3690659670123
 30
0.0
 11
0.4902743782510423
 21
-0.17263410677314
 31
0.0
210
0.0
220
0.0
230
1.0
 40
0.9619369999999999
 41
5.063305854797363
 42
6.60978364944458
  0
ELLIPSE
  5
349A
330
A
100
AcDbEntity
  8
0
 62
     7
100
AcDbEllipse
 10
101.1424035086295
 20
331.8218896698433
 30
0.0
 11
0.1660442179332196
 21
0.4716300473074171
 31
0.0
210
0.0
220
0.0
230
1.0
 40
0.96194
 41
3.492459058761596
 42
5.038943767547608
  0
LINE
  5
349B
330
A
100
AcDbEntity
  8
0
 62
     7
 48
0.020899
100
AcDbLine
 10
101.625363458321
 20
332.8668495609933
 30
0.0
 11
101.625363458321
 21
331.8218896698433
 31
0.0
  0
LINE
  5
349C
330
A
100
AcDbEntity
  8
0
 62
     7
 48
0.009659
100
AcDbLine
 10
101.625363458321
 20
332.8668495609933
 30
0.0
 11
101.1424035086295
 21
332.8668495609933
 31
0.0
  0
LINE
  5
349D
330
A
100
AcDbEntity
  8
0
 62
     7
 48
0.000694
100
AcDbLine
 10
101.660039704709
 20
332.8668495609933
 30
0.0
 11
101.625363458321
 21
332.8668495609933
 31
0.0
  0
LINE
  5
349E
330
A
100
AcDbEntity
  8
0
 62
     7
 48
0.00816
100
AcDbLine
 10
101.7404246963355
 20
332.4668396026611
 30
0.0
 11
101.660039704709
 21
332.8668495609933
 31
0.0
  0
LINE
  5
349F
330
A
100
AcDbEntity
  8
0
 62
     7
 48
0.00816
100
AcDbLine
 10
101.8208096879622
 20
332.8668495609933
 30
0.0
 11
101.7404246963355
 21
332.4668396026611
 31
0.0
  0
LINE
  5
34A0
330
A
100
AcDbEntity
  8
0
 62
     7
 48
0.003215
100
AcDbLine
 10
101.8208096879622
 20
332.8668495609933
 30
0.0
 11
101.660039704709
 21
332.8668495609933
 31
0.0
  0
LINE
  5
34A1
330
A
100
AcDbEntity
  8
0
 62
     7
 48
0.00816
100
AcDbLine
 10
101.9011946795885
 20
332.4668396026611
 30
0.0
 11
101.8208096879622
 21
332.8668495609933
 31
0.0
  0
LINE
  5
34A2
330
A
100
AcDbEntity
  8
0
 62
     7
 48
0.00816
100
AcDbLine
 10
101.9815796712149
 20
332.8668495609933
 30
0.0
 11
101.9011946795885
 21
332.4668396026611
 31
0.0
  0
LINE
  5
34A3
330
A
100
AcDbEntity
  8
0
 62
     7
 48
0.003215
100
AcDbLine
 10
101.9815796712149
 20
332.8668495609933
 30
0.0
 11
101.8208096879622
 21
332.8668495609933
 31
0.0
  0
LINE
  5
34A4
330
A
100
AcDbEntity
  8
0
 62
     7
 48
0.00816
100
AcDbLine
 10
102.0619646628415
 20
332.4668396026611
 30
0.0
 11
101.9815796712149
 21
332.8668495609933
 31
0.0
  0
LINE
  5
34A5
330
A
100
AcDbEntity
  8
0
 62
     7
 48
0.00816
100
AcDbLine
 10
102.1423509044682
 20
332.8668495609933
 30
0.0
 11
102.0619646628415
 21
332.4668396026611
 31
0.0
  0
LINE
  5
34A6
330
A
100
AcDbEntity
  8
0
 62
     7
 48
0.003215
100
AcDbLine
 10
102.1423509044682
 20
332.8668495609933
 30
0.0
 11
101.9815796712149
 21
332.8668495609933
 31
0.0
  0
LINE
  5
34A7
330
A
100
AcDbEntity
  8
0
 62
     7
 48
0.00816
100
AcDbLine
 10
102.2227358960945
 20
332.4668396026611
 30
0.0
 11
102.1423509044682
 21
332.8668495609933
 31
0.0
  0
LINE
  5
34A8
330
A
100
AcDbEntity
  8
0
 62
     7
 48
0.00816
100
AcDbLine
 10
102.3031208877212
 20
332.8668495609933
 30
0.0
 11
102.2227358960945
 21
332.4668396026611
 31
0.0
  0
LINE
  5
34A9
330
A
100
AcDbEntity
  8
0
 62
     7
 48
0.003215
100
AcDbLine
 10
102.3031208877212
 20
332.8668495609933
 30
0.0
 11
102.1423509044682
 21
332.8668495609933
 31
0.0
  0
LINE
  5
34AA
330
A
100
AcDbEntity
  8
0
 62
     7
 48
0.00816
100
AcDbLine
 10
102.3835058793477
 20
332.4668396026611
 30
0.0
 11
102.3031208877212
 21
332.8668495609933
 31
0.0
  0
LINE
  5
34AB
330
A
100
AcDbEntity
  8
0
 62
     7
 48
0.00816
100
AcDbLine
 10
102.4638908709744
 20
332.8668495609933
 30
0.0
 11
102.3835058793477
 21
332.4668396026611
 31
0.0
  0
LINE
  5
34AC
330
A
100
AcDbEntity
  8
0
 62
     7
 48
0.003215
100
AcDbLine
 10
102.4638908709744
 20
332.8668495609933
 30
0.0
 11
102.3031208877212
 21
332.8668495609933
 31
0.0
  0
LINE
  5
34AD
330
A
100
AcDbEntity
  8
0
 62
     7
 48
0.003215
100
AcDbLine
 10
102.7854320874804
 20
332.8668495609933
 30
0.0
 11
102.6246621042276
 21
332.8668495609933
 31
0.0
  0
LINE
  5
34AE
330
A
100
AcDbEntity
  8
0
 62
     7
 48
0.00816
100
AcDbLine
 10
102.8658070791081
 20
332.4668396026611
 30
0.0
 11
102.7854320874804
 21
332.8668495609933
 31
0.0
  0
LINE
  5
34AF
330
A
100
AcDbEntity
  8
0
 62
     7
 48
0.00816
100
AcDbLine
 10
102.7854320874804
 20
332.8668495609933
 30
0.0
 11
102.7050470958539
 21
332.4668396026611
 31
0.0
  0
LINE
  5
34B0
330
A
100
AcDbEntity
  8
0
 62
     7
 48
0.003215
100
AcDbLine
 10
102.6246621042276
 20
332.8668495609933
 30
0.0
 11
102.4638908709744
 21
332.8668495609933
 31
0.0
  0
LINE
  5
34B1
330
A
100
AcDbEntity
  8
0
 62
     7
 48
0.00816
100
AcDbLine
 10
102.7050470958539
 20
332.4668396026611
 30
0.0
 11
102.6246621042276
 21
332.8668495609933
 31
0.0
  0
LINE
  5
34B2
330
A
100
AcDbEntity
  8
0
 62
     7
 48
0.00816
100
AcDbLine
 10
102.6246621042276
 20
332.8668495609933
 30
0.0
 11
102.5442758626009
 21
332.4668396026611
 31
0.0
  0
LINE
  5
34B3
330
A
100
AcDbEntity
  8
0
 62
     7
 48
0.00816
100
AcDbLine
 10
102.5442758626009
 20
332.4668396026611
 30
0.0
 11
102.4638908709744
 21
332.8668495609933
 31
0.0
  0
LINE
  5
34B4
330
A
100
AcDbEntity
  8
0
 62
     7
 48
0.027538
100
AcDbLine
 10
101.1424035086295
 20
331.3241097216955
 30
0.0
 11
102.4411458733436
 21
330.8668422693273
 31
0.0
  0
LINE
  5
34B5
330
A
100
AcDbEntity
  8
0
 62
     7
 48
0.028006
100
AcDbLine
 10
101.625363458321
 20
331.8218896698433
 30
0.0
 11
102.9462020707335
 21
331.3568584682838
 31
0.0
  0
LINE
  5
34B6
330
A
100
AcDbEntity
  8
0
 62
     7
 48
0.00816
100
AcDbLine
 10
102.9462020707335
 20
332.8668495609933
 30
0.0
 11
102.8658070791081
 21
332.4668396026611
 31
0.0
  0
LINE
  5
34B7
330
A
100
AcDbEntity
  8
0
 62
     7
 48
0.003215
100
AcDbLine
 10
102.9462020707335
 20
332.8668495609933
 30
0.0
 11
102.7854320874804
 21
332.8668495609933
 31
0.0
  0
LINE
  5
34B8
330
A
100
AcDbEntity
  8
0
 62
     7
 48
0.03
100
AcDbLine
 10
103.9461969665677
 20
332.366837113078
 30
0.0
 11
103.9461969665677
 21
330.8668422693273
 31
0.0
  0
ELLIPSE
  5
34B9
330
A
100
AcDbEntity
  8
0
 62
     7
100
AcDbEllipse
 10
106.4771329529285
 20
331.3745584664404
 30
0.0
 11
0.4825877640614963
 21
0.2382659663915661
 31
0.0
210
0.0
220
0.0
230
1.0
 40
0.9290169999999999
 41
2.711533308029173
 42
4.223884582519531
  0
LINE
  5
34BA
330
A
100
AcDbEntity
  8
0
 62
     7
 48
0.019013
100
AcDbLine
 10
106.4461204561586
 20
330.8668422693273
 30
0.0
 11
107.2985616173629
 21
331.2876984754883
 31
0.0
  0
ARC
  5
34BB
330
A
100
AcDbEntity
  8
0
 62
     7
100
AcDbCircle
 10
105.9462042582334
 20
330.8668422693273
 30
0.0
 40
0.4999999479166723
100
AcDbArc
 50
180.0000359999984
 51
270.0000109999999
  0
LINE
  5
34BC
330
A
100
AcDbEntity
  8
0
 62
     7
 48
0.020439
100
AcDbLine
 10
105.9462042582334
 20
332.366837113078
 30
0.0
 11
105.9462042582334
 21
331.3448997195298
 31
0.0
  0
LINE
  5
34BD
330
A
100
AcDbEntity
  8
0
 62
     7
 48
0.01
100
AcDbLine
 10
105.9462042582334
 20
332.366837113078
 30
0.0
 11
105.446201810317
 21
332.366837113078
 31
0.0
  0
LINE
  5
34BE
330
A
100
AcDbEntity
  8
0
 62
     7
 48
0.03
100
AcDbLine
 10
105.446201810317
 20
330.8668422693273
 30
0.0
 11
105.446201810317
 21
332.366837113078
 31
0.0
  0
LINE
  5
34BF
330
A
100
AcDbEntity
  8
0
 62
     7
 48
0.01763
100
AcDbLine
 10
106.8276854164126
 20
332.366837113078
 30
0.0
 11
105.9462042582334
 21
332.366837113078
 31
0.0
  0
LINE
  5
34C0
330
A
100
AcDbEntity
  8
0
 62
     7
 48
0.009418
100
AcDbLine
 10
107.2985616173629
 20
332.366837113078
 30
0.0
 11
106.8276854164126
 21
332.366837113078
 31
0.0
  0
ELLIPSE
  5
34C1
330
A
100
AcDbEntity
  8
0
 62
     7
100
AcDbEllipse
 10
107.2985616173629
 20
331.7801184241945
 30
0.0
 11
-0.2213477857808296
 21
0.4483413229266854
 31
0.0
210
0.0
220
0.0
230
0.9999999999999996
 40
0.9290209999999998
 41
1.140754342079162
 42
2.653113126754759
  0
LINE
  5
34C2
330
A
100
AcDbEntity
  8
0
 62
     7
 48
0.011734
100
AcDbLine
 10
106.8276854164126
 20
332.366837113078
 30
0.0
 11
106.8276854164126
 21
331.7801184241945
 31
0.0
  0
LINE
  5
34C3
330
A
100
AcDbEntity
  8
0
 62
     7
 48
0.019661
100
AcDbLine
 10
105.9462042582334
 20
331.3448997195298
 30
0.0
 11
106.8276854164126
 21
331.7801184241945
 31
0.0
  0
ELLIPSE
  5
34C4
330
A
100
AcDbEntity
  8
0
 62
     7
100
AcDbEllipse
 10
116.4152681677059
 20
331.3745584664404
 30
0.0
 11
0.4825877640614963
 21
-0.2382659663915661
 31
0.0
210
0.0
220
0.0
230
1.0
 40
0.9290169999999999
 41
5.200893402099608
 42
6.713244438171386
  0
LINE
  5
34C5
330
A
100
AcDbEntity
  8
0
 62
     7
 48
0.01763
100
AcDbLine
 10
116.946196862401
 20
332.366837113078
 30
0.0
 11
116.0647069542227
 21
332.366837113078
 31
0.0
  0
LINE
  5
34C6
330
A
100
AcDbEntity
  8
0
 62
     7
 48
0.019662
100
AcDbLine
 10
116.0647069542227
 20
331.7801184241945
 30
0.0
 11
116.946196862401
 21
331.3448997195298
 31
0.0
  0
LINE
  5
34C7
330
A
100
AcDbEntity
  8
0
 62
     7
 48
0.019013
100
AcDbLine
 10
115.5938395032716
 20
331.2876984754883
 30
0.0
 11
116.4462806644754
 21
330.8668422693273
 31
0.0
  0
LINE
  5
34C8
330
A
100
AcDbEntity
  8
0
 62
     7
 48
0.009417
100
AcDbLine
 10
116.0647069542227
 20
332.366837113078
 30
0.0
 11
115.5938395032716
 21
332.366837113078
 31
0.0
  0
ELLIPSE
  5
34C9
330
A
100
AcDbEntity
  8
0
 62
     7
100
AcDbEllipse
 10
115.5938395032716
 20
331.7801184241945
 30
0.0
 11
0.2213477857808296
 21
0.4483413229266854
 31
0.0
210
0.0
220
0.0
230
0.9999999999999996
 40
0.9290209999999998
 41
3.630072116851806
 42
5.142430782318115
  0
LINE
  5
34CA
330
A
100
AcDbEntity
  8
0
 62
     7
 48
0.011734
100
AcDbLine
 10
116.0647069542227
 20
332.366837113078
 30
0.0
 11
116.0647069542227
 21
331.7801184241945
 31
0.0
  0
LINE
  5
34CB
330
A
100
AcDbEntity
  8
0
 62
     7
 48
0.01
100
AcDbLine
 10
117.4461993103171
 20
332.366837113078
 30
0.0
 11
116.946196862401
 21
332.366837113078
 31
0.0
  0
LINE
  5
34CC
330
A
100
AcDbEntity
  8
0
 62
     7
 48
0.020439
100
AcDbLine
 10
116.946196862401
 20
332.366837113078
 30
0.0
 11
116.946196862401
 21
331.3448997195298
 31
0.0
  0
ARC
  5
34CD
330
A
100
AcDbEntity
  8
0
 62
     7
100
AcDbCircle
 10
116.946196862401
 20
330.8668422693273
 30
0.0
 40
0.4999999479166723
100
AcDbArc
 50
269.9999909999999
 51
359.9999630000001
  0
LINE
  5
34CE
330
A
100
AcDbEntity
  8
0
 62
     7
 48
0.03
100
AcDbLine
 10
117.4461993103171
 20
330.8668422693273
 30
0.0
 11
117.4461993103171
 21
332.366837113078
 31
0.0
  0
ARC
  5
34CF
330
A
100
AcDbEntity
  8
0
 62
     7
100
AcDbCircle
 10
156.2461965186508
 20
330.3668498214101
 30
0.0
 40
1.999999791666688
100
AcDbArc
 50
0.0
 51
90.00000300000015
  0
LINE
  5
34D0
330
A
100
AcDbEntity
  8
0
 62
     7
 48
0.14
100
AcDbLine
 10
157.4461851436522
 20
334.1092769315736
 30
0.0
 11
157.4461851436522
 21
341.1092837024065
 31
0.0
  0
LINE
  5
34D1
330
A
100
AcDbEntity
  8
0
 62
     7
 48
0.136
100
AcDbLine
 10
157.3462026540669
 20
334.209279421157
 30
0.0
 11
157.3462026540669
 21
341.0092812128234
 31
0.0
  0
LINE
  5
34D2
330
A
100
AcDbEntity
  8
0
 62
     7
 48
0.04
100
AcDbLine
 10
157.6604188713361
 20
331.7810534240972
 30
0.0
 11
156.2461965186508
 21
330.3668498214101
 31
0.0
  0
ELLIPSE
  5
34D3
330
A
100
AcDbEntity
  8
0
 62
     7
100
AcDbEllipse
 10
152.0738907032662
 20
347.4120405458692
 30
0.0
 11
-1.858024403623761
 21
1.63944227307242
 31
0.0
210
0.0
220
0.0
230
1.0
 40
0.4035670000000002
 41
2.71262175241579
 42
3.483681265507831
  0
LINE
  5
34D4
330
A
100
AcDbEntity
  8
0
 62
     7
 48
0.01
100
AcDbLine
 10
152.046195706151
 20
345.6092719836576
 30
0.0
 11
151.5462032582336
 21
345.6092719836576
 31
0.0
  0
LINE
  5
34D5
330
A
100
AcDbEntity
  8
0
 62
     7
 48
0.02
100
AcDbLine
 10
153.0461993519841
 20
345.6092719836576
 30
0.0
 11
152.046195706151
 21
345.6092719836576
 31
0.0
  0
LINE
  5
34D6
330
A
100
AcDbEntity
  8
0
 62
     7
 48
0.008844
100
AcDbLine
 10
153.4883805559235
 20
345.6092719836576
 30
0.0
 11
153.0461993519841
 21
345.6092719836576
 31
0.0
  0
ELLIPSE
  5
34D7
330
A
100
AcDbEntity
  8
0
 62
     7
100
AcDbEllipse
 10
153.774596776109
 20
345.9113769521885
 30
0.0
 11
3.71534308832689
 21
-3.278178827224208
 31
0.0
210
0.0
220
0.0
230
1.0
 40
0.4036080000000001
 41
5.854167461395262
 42
6.625305652618407
  0
ELLIPSE
  5
34D8
330
A
100
AcDbEntity
  8
0
 62
     7
100
AcDbEllipse
 10
152.0738907032662
 20
431.3064943068637
 30
0.0
 11
-1.858024403623761
 21
-1.63944227307242
 31
0.0
210
0.0
220
0.0
230
1.0
 40
0.4035670000000002
 41
2.799504041671751
 42
3.570563554763792
  0
LINE
  5
34D9
330
A
100
AcDbEntity
  8
0
 62
     7
 48
0.01
100
AcDbLine
 10
152.046195706151
 20
433.1092816190735
 30
0.0
 11
151.5462032582336
 21
433.1092816190735
 31
0.0
  0
LINE
  5
34DA
330
A
100
AcDbEntity
  8
0
 62
     7
 48
0.02
100
AcDbLine
 10
152.046195706151
 20
433.1092816190735
 30
0.0
 11
153.0461993519841
 21
433.1092816190735
 31
0.0
  0
LINE
  5
34DB
330
A
100
AcDbEntity
  8
0
 62
     7
 48
0.008844
100
AcDbLine
 10
153.0461993519841
 20
433.1092816190735
 30
0.0
 11
153.4883805559235
 21
433.1092816190735
 31
0.0
  0
LWPOLYLINE
  5
34DC
330
A
100
AcDbEntity
  8
0
 62
     7
100
AcDbPolyline
 90
        8
 70
     0
 43
0.0
 10
157.7184976152864
 20
435.3923013812588
 10
157.6913176181176
 20
435.6690201024338
 10
157.6317701243203
 20
435.8594300825997
 10
157.5292126350034
 20
436.0372338140783
 10
157.3154176572735
 20
436.2345862935208
 10
157.1146114281908
 20
436.3325287833186
 10
156.8649589541966
 20
436.3937737769387
 10
156.6028514814994
 20
436.4120462750354
  0
LINE
  5
34DE
330
A
100
AcDbEntity
  8
0
 62
     7
100
AcDbLine
 10
372.7900249785541
 20
438.8101745625565
 30
0.0
 11
372.7900249785541
 21
302.4101750208897
 31
0.0
  0
LINE
  5
34E5
330
A
100
AcDbEntity
  8
0
 62
     7
100
AcDbLine
 10
372.7900249785541
 20
439.1101620313078
 30
0.0
 11
372.7900249785541
 21
302.1101688021403
 31
0.0
  0
LINE
  5
34E6
330
A
100
AcDbEntity
  8
0
 62
     7
100
AcDbLine
 10
373.7900098743891
 20
302.1101688021403
 30
0.0
 11
373.7900098743891
 21
439.1101620313078
 31
0.0
  0
LINE
  5
34E7
330
A
100
AcDbEntity
  8
0
 62
     7
 48
0.1
100
AcDbLine
 10
208.0900296348039
 20
315.6821348883938
 30
0.0
 11
208.0900296348039
 21
320.6821343675605
 31
0.0
  0
LINE
  5
34E8
330
A
100
AcDbEntity
  8
0
 62
     7
 48
0.1
100
AcDbLine
 10
207.9900271452205
 20
320.6821343675605
 30
0.0
 11
207.9900271452205
 21
315.6821348883938
 31
0.0
  0
LINE
  5
34E9
330
A
100
AcDbEntity
  8
0
 62
     7
 48
0.092
100
AcDbLine
 10
208.0650246374085
 20
320.4821306383942
 30
0.0
 11
208.0650246374085
 21
315.882121117562
 31
0.0
  0
LINE
  5
34EA
330
A
100
AcDbEntity
  8
0
 62
     7
 48
0.16
100
AcDbLine
 10
207.1900097285559
 20
314.1821387946433
 30
0.0
 11
207.1900097285559
 21
322.1821304613108
 31
0.0
  0
LINE
  5
34EB
330
A
100
AcDbEntity
  8
0
 62
     7
100
AcDbLine
 10
236.890017884805
 20
442.6101654167239
 30
0.0
 11
236.890017884805
 21
298.610165416724
 31
0.0
  0
LINE
  5
34EC
330
A
100
AcDbEntity
  8
0
 62
     7
100
AcDbLine
 10
236.2900241973044
 20
442.9101716354734
 30
0.0
 11
236.2900241973044
 21
298.3101766979728
 31
0.0
  0
LINE
  5
34ED
330
A
100
AcDbEntity
  8
0
 62
     7
100
AcDbLine
 10
234.7900281035539
 20
442.9101716354734
 30
0.0
 11
234.7900281035539
 21
298.3101766979728
 31
0.0
  0
LINE
  5
34EE
330
A
100
AcDbEntity
  8
0
 62
     7
 48
0.4474250000000001
100
AcDbLine
 10
210.5900293743871
 20
330.3677458586427
 30
0.0
 11
210.5900293743871
 21
307.9965131889792
 31
0.0
  0
LINE
  5
34EF
330
A
100
AcDbEntity
  8
0
 62
     7
100
AcDbLine
 10
210.7900143535554
 20
302.4965212618953
 30
0.0
 11
210.7900143535554
 21
438.7238283215508
 31
0.0
  0
LINE
  5
34F0
330
A
100
AcDbEntity
  8
0
 62
     7
100
AcDbLine
 10
236.890017884805
 20
302.1101688021403
 30
0.0
 11
372.7900249785541
 21
302.1101688021403
 31
0.0
  0
LINE
  5
34F1
330
A
100
AcDbEntity
  8
0
 62
     7
 48
0.22
100
AcDbLine
 10
223.7900254993876
 20
298.610165416724
 30
0.0
 11
234.7900281035539
 21
298.610165416724
 31
0.0
  0
LINE
  5
34F2
330
A
100
AcDbEntity
  8
0
 62
     7
 48
0.042952
100
AcDbLine
 10
213.5285478182915
 20
299.5079353232063
 30
0.0
 11
215.6679825954336
 21
299.320766592703
 31
0.0
  0
LINE
  5
34F3
330
A
100
AcDbEntity
  8
0
 62
     7
 48
0.153712
100
AcDbLine
 10
207.6900209264714
 20
305.9965246473111
 30
0.0
 11
207.6900209264714
 21
313.6821275967278
 31
0.0
  0
LINE
  5
34F4
330
A
100
AcDbEntity
  8
0
 62
     7
 48
0.193712
100
AcDbLine
 10
208.0900296348039
 20
305.9965246473111
 30
0.0
 11
208.0900296348039
 21
315.6821348883938
 31
0.0
  0
ARC
  5
34F5
330
A
100
AcDbEntity
  8
0
 62
     7
100
AcDbCircle
 10
213.5900215618878
 20
302.4965212618953
 30
0.0
 40
2.99999968750003
100
AcDbArc
 50
210.1301529999998
 51
271.179684
  0
ARC
  5
34F6
330
A
100
AcDbEntity
  8
0
 62
     7
100
AcDbCircle
 10
213.7900265410542
 20
302.4965212618953
 30
0.0
 40
2.99999968750003
100
AcDbArc
 50
179.9999949999993
 51
242.592818
  0
ARC
  5
34F7
330
A
100
AcDbEntity
  8
0
 62
     7
100
AcDbCircle
 10
213.7900265410542
 20
302.4965212618953
 30
0.0
 40
2.99999968750003
100
AcDbArc
 50
242.6151230000004
 51
265.0000019999999
  0
LINE
  5
34F8
330
A
100
AcDbEntity
  8
0
 62
     7
 48
0.036072
100
AcDbLine
 10
210.0900181764715
 20
302.5505175062703
 30
0.0
 11
210.9953605821651
 21
300.9906126687606
 31
0.0
  0
LINE
  5
34F9
330
A
100
AcDbEntity
  8
0
 62
     7
 48
0.013741
100
AcDbLine
 10
208.7451470665624
 20
304.8677360148932
 30
0.0
 11
209.0900332806368
 21
304.2735210767911
 31
0.0
  0
LINE
  5
34FA
330
A
100
AcDbEntity
  8
0
 62
     7
 48
0.008
100
AcDbLine
 10
208.0900296348039
 20
305.9965246473111
 30
0.0
 11
207.6900209264714
 21
305.9965246473111
 31
0.0
  0
LINE
  5
34FB
330
A
100
AcDbEntity
  8
0
 62
     7
 48
0.026102
100
AcDbLine
 10
208.0900296348039
 20
305.9965246473111
 30
0.0
 11
208.7451470665624
 21
304.8677360148932
 31
0.0
  0
LINE
  5
34FC
330
A
100
AcDbEntity
  8
0
 62
     7
 48
0.039843
100
AcDbLine
 10
209.0900332806368
 20
304.2735210767911
 30
0.0
 11
210.0900181764715
 21
302.5505175062703
 31
0.0
  0
LINE
  5
34FD
330
A
100
AcDbEntity
  8
0
 62
     7
 48
0.004
100
AcDbLine
 10
210.5900106243892
 20
308.0264006858661
 30
0.0
 11
210.7900143535554
 21
308.0264006858661
 31
0.0
  0
LINE
  5
34FE
330
A
100
AcDbEntity
  8
0
 62
     7
 48
0.004
100
AcDbLine
 10
210.7900143535554
 20
307.9965131889792
 30
0.0
 11
210.5900293743871
 21
307.9965131889792
 31
0.0
  0
LINE
  5
34FF
330
A
100
AcDbEntity
  8
0
 62
     7
 48
0.002
100
AcDbLine
 10
207.9900271452205
 20
315.6821348883938
 30
0.0
 11
208.0900296348039
 21
315.6821348883938
 31
0.0
  0
LINE
  5
3500
330
A
100
AcDbEntity
  8
0
 62
     7
 48
0.004
100
AcDbLine
 10
208.0650246374085
 20
315.882121117562
 30
0.0
 11
208.0650246374085
 21
315.6821348883938
 31
0.0
  0
LINE
  5
3501
330
A
100
AcDbEntity
  8
0
 62
     7
 48
0.0005
100
AcDbLine
 10
208.0900296348039
 20
315.882121117562
 30
0.0
 11
208.0650246374085
 21
315.882121117562
 31
0.0
  0
LINE
  5
3502
330
A
100
AcDbEntity
  8
0
 62
     7
 48
0.014142
100
AcDbLine
 10
207.6900209264714
 20
313.6821275967278
 30
0.0
 11
207.1900097285559
 21
314.1821387946433
 31
0.0
  0
LINE
  5
3503
330
A
100
AcDbEntity
  8
0
 62
     7
 48
0.163061
100
AcDbLine
 10
215.6679825954336
 20
299.320766592703
 30
0.0
 11
223.7900254993876
 21
298.610165416724
 31
0.0
  0
LINE
  5
3508
330
A
100
AcDbEntity
  8
0
 62
     7
 48
0.03
100
AcDbLine
 10
236.2900241973044
 20
298.3101766979728
 30
0.0
 11
234.7900281035539
 21
298.3101766979728
 31
0.0
  0
LINE
  5
3509
330
A
100
AcDbEntity
  8
0
 62
     7
 48
0.013416
100
AcDbLine
 10
236.890017884805
 20
298.610165416724
 30
0.0
 11
236.2900241973044
 21
298.3101766979728
 31
0.0
  0
LINE
  5
350C
330
A
100
AcDbEntity
  8
0
 62
     7
 48
0.19
100
AcDbLine
 10
373.7900098743891
 20
314.1101750521393
 30
0.0
 11
383.2900163848051
 21
314.1101750521393
 31
0.0
  0
LINE
  5
350D
330
A
100
AcDbEntity
  8
0
 62
     7
 48
0.19
100
AcDbLine
 10
373.7900098743891
 20
306.1101646354741
 30
0.0
 11
383.2900163848051
 21
306.1101646354741
 31
0.0
  0
LINE
  5
350E
330
A
100
AcDbEntity
  8
0
 62
     7
 48
0.19
100
AcDbLine
 10
373.7900098743891
 20
306.1101646354741
 30
0.0
 11
383.2900163848051
 21
306.1101646354741
 31
0.0
  0
LINE
  5
350F
330
A
100
AcDbEntity
  8
0
 62
     7
 48
0.02
100
AcDbLine
 10
373.7900098743891
 20
302.4101750208897
 30
0.0
 11
372.7900249785541
 21
302.4101750208897
 31
0.0
  0
LINE
  5
3510
330
A
100
AcDbEntity
  8
0
 62
     7
 48
0.02
100
AcDbLine
 10
373.7900098743891
 20
302.1101688021403
 30
0.0
 11
372.7900249785541
 21
302.1101688021403
 31
0.0
  0
LINE
  5
351A
330
A
100
AcDbEntity
  8
0
 62
     7
100
AcDbLine
 10
236.890017884805
 20
439.1101620313078
 30
0.0
 11
372.7900249785541
 21
439.1101620313078
 31
0.0
  0
ARC
  5
351B
330
A
100
AcDbEntity
  8
0
 62
     7
100
AcDbCircle
 10
323.3900051243898
 20
410.6101612500578
 30
0.0
 40
1.199999875000011
100
AcDbArc
 50
270.0000009999997
 51
89.99999200000019
  0
ARC
  5
351C
330
A
100
AcDbEntity
  8
0
 62
     7
100
AcDbCircle
 10
285.790026541054
 20
410.6101612500578
 30
0.0
 40
1.199999875000011
100
AcDbArc
 50
90.00000300000015
 51
270.0000009999997
  0
LINE
  5
351D
330
A
100
AcDbEntity
  8
0
 62
     7
 48
0.14
100
AcDbLine
 10
262.2900252389711
 20
378.1101646354739
 30
0.0
 11
269.2900120098057
 21
378.1101646354739
 31
0.0
  0
LINE
  5
351E
330
A
100
AcDbEntity
  8
0
 62
     7
 48
0.14
100
AcDbLine
 10
269.2900120098057
 20
364.1101698438068
 30
0.0
 11
262.2900252389711
 21
364.1101698438068
 31
0.0
  0
LINE
  5
351F
330
A
100
AcDbEntity
  8
0
 62
     7
 48
0.04
100
AcDbLine
 10
262.2900252389711
 20
364.1101698438068
 30
0.0
 11
262.2900252389711
 21
366.1101771354727
 31
0.0
  0
ARC
  5
3520
330
A
100
AcDbEntity
  8
0
 62
     7
100
AcDbCircle
 10
250.5100114660556
 20
358.910165385474
 30
0.0
 40
7.000000520833277
100
AcDbArc
 50
270.0000009999997
 51
89.99999200000019
  0
LINE
  5
3521
330
A
100
AcDbEntity
  8
0
 62
     7
 48
0.04
100
AcDbLine
 10
243.5100246952209
 20
363.9101648646408
 30
0.0
 11
243.5100246952209
 21
365.9101721563067
 31
0.0
  0
LINE
  5
3522
330
A
100
AcDbEntity
  8
0
 62
     7
 48
0.153712
100
AcDbLine
 10
207.6900209264714
 20
322.6821229092283
 30
0.0
 11
207.6900209264714
 21
330.3677458586427
 31
0.0
  0
LINE
  5
3523
330
A
100
AcDbEntity
  8
0
 62
     7
 48
0.193712
100
AcDbLine
 10
208.0900296348039
 20
320.6821343675605
 30
0.0
 11
208.0900296348039
 21
330.3677458586427
 31
0.0
  0
LINE
  5
3524
330
A
100
AcDbEntity
  8
0
 62
     7
 48
0.002
100
AcDbLine
 10
207.9900271452205
 20
320.6821343675605
 30
0.0
 11
208.0900296348039
 21
320.6821343675605
 31
0.0
  0
LINE
  5
3525
330
A
100
AcDbEntity
  8
0
 62
     7
 48
0.0005
100
AcDbLine
 10
208.0900296348039
 20
320.4821306383942
 30
0.0
 11
208.0650246374085
 21
320.4821306383942
 31
0.0
  0
LINE
  5
3526
330
A
100
AcDbEntity
  8
0
 62
     7
 48
0.004
100
AcDbLine
 10
208.0650246374085
 20
320.6821343675605
 30
0.0
 11
208.0650246374085
 21
320.4821306383942
 31
0.0
  0
LINE
  5
3527
330
A
100
AcDbEntity
  8
0
 62
     7
 48
0.014142
100
AcDbLine
 10
207.1900097285559
 20
322.1821304613108
 30
0.0
 11
207.6900209264714
 21
322.6821229092283
 31
0.0
  0
LINE
  5
3528
330
A
100
AcDbEntity
  8
0
 62
     7
 48
0.01
100
AcDbLine
 10
207.1900097285559
 20
332.8677455982261
 30
0.0
 11
206.8900022598066
 21
332.4677356398938
 31
0.0
  0
LINE
  5
3529
330
A
100
AcDbEntity
  8
0
 62
     7
 48
0.048473
100
AcDbLine
 10
205.7031923834327
 20
331.2885945127208
 30
0.0
 11
208.0900296348039
 21
330.8677383065601
 31
0.0
  0
LINE
  5
352A
330
A
100
AcDbEntity
  8
0
 62
     7
 48
0.049364
100
AcDbLine
 10
208.0900296348039
 20
332.3677331503106
 30
0.0
 11
205.6218448919064
 21
332.3677331503106
 31
0.0
  0
LINE
  5
352B
330
A
100
AcDbEntity
  8
0
 62
     7
 48
0.01
100
AcDbLine
 10
205.8606061170354
 20
332.8677455982261
 30
0.0
 11
205.8606061170354
 21
332.3677531503085
 31
0.0
  0
LINE
  5
352C
330
A
100
AcDbEntity
  8
0
 62
     7
 48
0.007412
100
AcDbLine
 10
205.8606061170354
 20
332.8677455982261
 30
0.0
 11
205.4900086556393
 21
332.8677455982261
 31
0.0
  0
LINE
  5
352D
330
A
100
AcDbEntity
  8
0
 62
     7
 48
0.01
100
AcDbLine
 10
205.4900086556393
 20
332.8677455982261
 30
0.0
 11
205.4900086556393
 21
332.3677531503085
 31
0.0
  0
LINE
  5
352E
330
A
100
AcDbEntity
  8
0
 62
     7
 48
0.002588
100
AcDbLine
 10
205.9900198535546
 20
332.8677455982261
 30
0.0
 11
205.8606061170354
 21
332.8677455982261
 31
0.0
  0
LINE
  5
352F
330
A
100
AcDbEntity
  8
0
 62
     7
 48
0.01
100
AcDbLine
 10
206.290027322304
 20
332.4677356398938
 30
0.0
 11
205.9900198535546
 21
332.8677455982261
 31
0.0
  0
LINE
  5
3530
330
A
100
AcDbEntity
  8
0
 62
     7
 48
0.01
100
AcDbLine
 10
206.5900147910554
 20
332.8677455982261
 30
0.0
 11
206.290027322304
 21
332.4677356398938
 31
0.0
  0
LINE
  5
3531
330
A
100
AcDbEntity
  8
0
 62
     7
 48
0.01
100
AcDbLine
 10
206.8900022598066
 20
332.4677356398938
 30
0.0
 11
206.5900147910554
 21
332.8677455982261
 31
0.0
  0
LINE
  5
3532
330
A
100
AcDbEntity
  8
0
 62
     7
 48
0.006636
100
AcDbLine
 10
205.6218448919064
 20
332.3677331503106
 30
0.0
 11
205.2900224264713
 21
332.3677331503106
 31
0.0
  0
LINE
  5
3533
330
A
100
AcDbEntity
  8
0
 62
     7
 48
0.011734
100
AcDbLine
 10
205.2900224264713
 20
332.3677331503106
 30
0.0
 11
205.2900224264713
 21
331.7810144614272
 31
0.0
  0
ARC
  5
3534
330
A
100
AcDbEntity
  8
0
 62
     7
100
AcDbCircle
 10
205.7900148743887
 20
331.7810144614272
 30
0.0
 40
0.4999999479166723
100
AcDbArc
 50
180.0000050000005
 51
260.0000029999999
  0
LINE
  5
3535
330
A
100
AcDbEntity
  8
0
 62
     7
 48
0.020439
100
AcDbLine
 10
208.0900296348039
 20
332.3677331503106
 30
0.0
 11
208.0900296348039
 21
331.3457957567625
 31
0.0
  0
LINE
  5
3536
330
A
100
AcDbEntity
  8
0
 62
     7
 48
0.03
100
AcDbLine
 10
208.5900220827213
 20
330.8677383065601
 30
0.0
 11
208.5900220827213
 21
332.3677331503106
 31
0.0
  0
LINE
  5
3537
330
A
100
AcDbEntity
  8
0
 62
     7
 48
0.009561
100
AcDbLine
 10
208.0900296348039
 20
331.3457957567625
 30
0.0
 11
208.0900296348039
 21
330.8677383065601
 31
0.0
  0
LINE
  5
3538
330
A
100
AcDbEntity
  8
0
 62
     7
 48
0.01
100
AcDbLine
 10
210.490026884804
 20
332.4677356398938
 30
0.0
 11
210.1900206660546
 21
332.8677455982261
 31
0.0
  0
LINE
  5
3539
330
A
100
AcDbEntity
  8
0
 62
     7
 48
0.01
100
AcDbLine
 10
210.1900206660546
 20
332.8677455982261
 30
0.0
 11
209.8900131973054
 21
332.4677356398938
 31
0.0
  0
LINE
  5
353A
330
A
100
AcDbEntity
  8
0
 62
     7
 48
0.01
100
AcDbLine
 10
209.8900131973054
 20
332.4677356398938
 30
0.0
 11
209.5900257285542
 21
332.8677455982261
 31
0.0
  0
LINE
  5
353B
330
A
100
AcDbEntity
  8
0
 62
     7
 48
0.01
100
AcDbLine
 10
210.7900143535554
 20
332.8677455982261
 30
0.0
 11
210.490026884804
 21
332.4677356398938
 31
0.0
  0
LINE
  5
353C
330
A
100
AcDbEntity
  8
0
 62
     7
 48
0.01
100
AcDbLine
 10
210.5900293743871
 20
332.3677331503106
 30
0.0
 11
210.0900181764715
 21
332.3677331503106
 31
0.0
  0
LINE
  5
353D
330
A
100
AcDbEntity
  8
0
 62
     7
 48
0.016568
100
AcDbLine
 10
210.0900181764715
 20
332.3677331503106
 30
0.0
 11
209.504233237491
 21
331.7819494613298
 31
0.0
  0
LINE
  5
353E
330
A
100
AcDbEntity
  8
0
 62
     7
 48
0.04
100
AcDbLine
 10
210.5900293743871
 20
330.3677458586427
 30
0.0
 11
210.5900293743871
 21
332.3677331503106
 31
0.0
  0
LINE
  5
353F
330
A
100
AcDbEntity
  8
0
 62
     7
 48
0.01
100
AcDbLine
 10
207.4900159473052
 20
332.4677356398938
 30
0.0
 11
207.1900097285559
 21
332.8677455982261
 31
0.0
  0
LINE
  5
3540
330
A
100
AcDbEntity
  8
0
 62
     7
 48
0.01
100
AcDbLine
 10
207.7900221660544
 20
332.8677455982261
 30
0.0
 11
207.4900159473052
 21
332.4677356398938
 31
0.0
  0
LINE
  5
3541
330
A
100
AcDbEntity
  8
0
 62
     7
 48
0.01
100
AcDbLine
 10
208.0900296348039
 20
332.4677356398938
 30
0.0
 11
207.7900221660544
 21
332.8677455982261
 31
0.0
  0
LINE
  5
3542
330
A
100
AcDbEntity
  8
0
 62
     7
 48
0.01
100
AcDbLine
 10
208.390017103555
 20
332.8677455982261
 30
0.0
 11
208.0900296348039
 21
332.4677356398938
 31
0.0
  0
LINE
  5
3543
330
A
100
AcDbEntity
  8
0
 62
     7
 48
0.01
100
AcDbLine
 10
208.6900245723044
 20
332.4677356398938
 30
0.0
 11
208.390017103555
 21
332.8677455982261
 31
0.0
  0
LINE
  5
3544
330
A
100
AcDbEntity
  8
0
 62
     7
 48
0.01
100
AcDbLine
 10
208.9900120410554
 20
332.8677455982261
 30
0.0
 11
208.6900245723044
 21
332.4677356398938
 31
0.0
  0
LINE
  5
3545
330
A
100
AcDbEntity
  8
0
 62
     7
 48
0.01
100
AcDbLine
 10
209.2900182598051
 20
332.4677356398938
 30
0.0
 11
208.9900120410554
 21
332.8677455982261
 31
0.0
  0
LINE
  5
3546
330
A
100
AcDbEntity
  8
0
 62
     7
 48
0.01
100
AcDbLine
 10
208.0900296348039
 20
330.3677458586427
 30
0.0
 11
208.0900296348039
 21
330.8677383065601
 31
0.0
  0
LINE
  5
3547
330
A
100
AcDbEntity
  8
0
 62
     7
 48
0.01
100
AcDbLine
 10
208.5900220827213
 20
332.3677331503106
 30
0.0
 11
208.0900296348039
 21
332.3677331503106
 31
0.0
  0
LINE
  5
3548
330
A
100
AcDbEntity
  8
0
 62
     7
 48
0.008
100
AcDbLine
 10
208.0900296348039
 20
330.3677458586427
 30
0.0
 11
207.6900209264714
 21
330.3677458586427
 31
0.0
  0
LINE
  5
3549
330
A
100
AcDbEntity
  8
0
 62
     7
 48
0.01
100
AcDbLine
 10
209.5900257285542
 20
332.8677455982261
 30
0.0
 11
209.2900182598051
 21
332.4677356398938
 31
0.0
  0
LINE
  5
354A
330
A
100
AcDbEntity
  8
0
 62
     7
 48
0.03
100
AcDbLine
 10
208.5900220827213
 20
332.3677331503106
 30
0.0
 11
210.0900181764715
 21
332.3677331503106
 31
0.0
  0
LINE
  5
354B
330
A
100
AcDbEntity
  8
0
 62
     7
 48
0.04
100
AcDbLine
 10
209.504233237491
 20
331.7819494613298
 30
0.0
 11
208.0900296348039
 21
330.3677458586427
 31
0.0
  0
LINE
  5
354C
330
A
100
AcDbEntity
  8
0
 62
     7
 48
0.14
100
AcDbLine
 10
250.5100114660556
 20
351.9101773646393
 30
0.0
 11
243.5100246952209
 21
351.9101773646393
 31
0.0
  0
LINE
  5
354D
330
A
100
AcDbEntity
  8
0
 62
     7
 48
0.04
100
AcDbLine
 10
243.5100246952209
 20
351.9101773646393
 30
0.0
 11
243.5100246952209
 21
353.9101659063072
 31
0.0
  0
LINE
  5
354E
330
A
100
AcDbEntity
  8
0
 62
     7
 48
0.2
100
AcDbLine
 10
244.3100046118896
 20
353.9101659063072
 30
0.0
 11
244.3100046118896
 21
363.9101648646408
 31
0.0
  0
LINE
  5
354F
330
A
100
AcDbEntity
  8
0
 62
     7
 48
0.01
100
AcDbLine
 10
244.3100046118896
 20
353.9101659063072
 30
0.0
 11
243.8100121639723
 21
353.9101659063072
 31
0.0
  0
LINE
  5
3550
330
A
100
AcDbEntity
  8
0
 62
     7
 48
0.006
100
AcDbLine
 10
243.8100121639723
 20
353.9101659063072
 30
0.0
 11
243.5100246952209
 21
353.9101659063072
 31
0.0
  0
LINE
  5
3551
330
A
100
AcDbEntity
  8
0
 62
     7
 48
0.01
100
AcDbLine
 10
243.8100121639723
 20
363.9101648646408
 30
0.0
 11
244.3100046118896
 21
363.9101648646408
 31
0.0
  0
LINE
  5
3552
330
A
100
AcDbEntity
  8
0
 62
     7
 48
0.006
100
AcDbLine
 10
243.5100246952209
 20
363.9101648646408
 30
0.0
 11
243.8100121639723
 21
363.9101648646408
 31
0.0
  0
LINE
  5
3553
330
A
100
AcDbEntity
  8
0
 62
     7
 48
0.14
100
AcDbLine
 10
243.5100246952209
 20
365.9101721563067
 30
0.0
 11
250.5100114660556
 21
365.9101721563067
 31
0.0
  0
LINE
  5
3554
330
A
100
AcDbEntity
  8
0
 62
     7
 48
0.04
100
AcDbLine
 10
262.2900252389711
 20
376.1101760938061
 30
0.0
 11
262.2900252389711
 21
378.1101646354739
 31
0.0
  0
LINE
  5
3555
330
A
100
AcDbEntity
  8
0
 62
     7
 48
0.2
100
AcDbLine
 10
263.0900239056375
 20
366.1101771354727
 30
0.0
 11
263.0900239056375
 21
376.1101760938061
 31
0.0
  0
LINE
  5
3556
330
A
100
AcDbEntity
  8
0
 62
     7
 48
0.01
100
AcDbLine
 10
263.0900239056375
 20
366.1101771354727
 30
0.0
 11
262.5900314577201
 21
366.1101771354727
 31
0.0
  0
LINE
  5
3557
330
A
100
AcDbEntity
  8
0
 62
     7
 48
0.006
100
AcDbLine
 10
262.2900252389711
 20
366.1101771354727
 30
0.0
 11
262.5900314577201
 21
366.1101771354727
 31
0.0
  0
LINE
  5
3558
330
A
100
AcDbEntity
  8
0
 62
     7
 48
0.01
100
AcDbLine
 10
262.5900314577201
 20
376.1101760938061
 30
0.0
 11
263.0900239056375
 21
376.1101760938061
 31
0.0
  0
LINE
  5
3559
330
A
100
AcDbEntity
  8
0
 62
     7
 48
0.006
100
AcDbLine
 10
262.5900314577201
 20
376.1101760938061
 30
0.0
 11
262.2900252389711
 21
376.1101760938061
 31
0.0
  0
ARC
  5
355A
330
A
100
AcDbEntity
  8
0
 62
     7
100
AcDbCircle
 10
323.3900051243898
 20
365.6101659375572
 30
0.0
 40
1.199999875000011
100
AcDbArc
 50
270.0000009999997
 51
89.99999200000019
  0
ARC
  5
355B
330
A
100
AcDbEntity
  8
0
 62
     7
100
AcDbCircle
 10
285.790026541054
 20
365.6101659375572
 30
0.0
 40
1.199999875000011
100
AcDbArc
 50
90.00000300000015
 51
270.0000009999997
  0
ARC
  5
355C
330
A
100
AcDbEntity
  8
0
 62
     7
100
AcDbCircle
 10
269.2900120098057
 20
371.1101766146394
 30
0.0
 40
7.000000520833277
100
AcDbArc
 50
270.0000009999997
 51
89.99999200000019
  0
LINE
  5
355D
330
A
100
AcDbEntity
  8
0
 62
     7
100
AcDbLine
 10
285.790026541054
 20
346.8101766458896
 30
0.0
 11
323.3900051243898
 21
346.8101766458896
 31
0.0
  0
LINE
  5
355E
330
A
100
AcDbEntity
  8
0
 62
     7
100
AcDbLine
 10
323.3900051243898
 20
344.4101781458893
 30
0.0
 11
285.790026541054
 21
344.4101781458893
 31
0.0
  0
LINE
  5
355F
330
A
100
AcDbEntity
  8
0
 62
     7
100
AcDbLine
 10
285.790026541054
 20
351.8101761250561
 30
0.0
 11
323.3900051243898
 21
351.8101761250561
 31
0.0
  0
LINE
  5
3560
330
A
100
AcDbEntity
  8
0
 62
     7
100
AcDbLine
 10
323.3900051243898
 20
349.4101776250561
 30
0.0
 11
285.790026541054
 21
349.4101776250561
 31
0.0
  0
LINE
  5
3561
330
A
100
AcDbEntity
  8
0
 62
     7
100
AcDbLine
 10
285.790026541054
 20
356.810175604223
 30
0.0
 11
323.3900051243898
 21
356.810175604223
 31
0.0
  0
LINE
  5
3562
330
A
100
AcDbEntity
  8
0
 62
     7
100
AcDbLine
 10
323.3900051243898
 20
354.4101771042227
 30
0.0
 11
285.790026541054
 21
354.4101771042227
 31
0.0
  0
LINE
  5
3563
330
A
100
AcDbEntity
  8
0
 62
     7
100
AcDbLine
 10
285.790026541054
 20
361.8101750833896
 30
0.0
 11
323.3900051243898
 21
361.8101750833896
 31
0.0
  0
LINE
  5
3564
330
A
100
AcDbEntity
  8
0
 62
     7
100
AcDbLine
 10
323.3900051243898
 20
359.4101765833896
 30
0.0
 11
285.790026541054
 21
359.4101765833896
 31
0.0
  0
LINE
  5
3565
330
A
100
AcDbEntity
  8
0
 62
     7
100
AcDbLine
 10
323.3900051243898
 20
364.4101760625563
 30
0.0
 11
285.790026541054
 21
364.4101760625563
 31
0.0
  0
ARC
  5
3566
330
A
100
AcDbEntity
  8
0
 62
     7
100
AcDbCircle
 10
285.790026541054
 20
345.6101680208903
 30
0.0
 40
1.199999875000011
100
AcDbArc
 50
90.00000300000015
 51
270.0000009999997
  0
ARC
  5
3567
330
A
100
AcDbEntity
  8
0
 62
     7
100
AcDbCircle
 10
285.790026541054
 20
350.6101675000572
 30
0.0
 40
1.199999875000011
100
AcDbArc
 50
90.00000300000015
 51
270.0000009999997
  0
ARC
  5
3568
330
A
100
AcDbEntity
  8
0
 62
     7
100
AcDbCircle
 10
285.790026541054
 20
355.6101669792237
 30
0.0
 40
1.199999875000011
100
AcDbArc
 50
90.00000300000015
 51
270.0000009999997
  0
ARC
  5
3569
330
A
100
AcDbEntity
  8
0
 62
     7
100
AcDbCircle
 10
285.790026541054
 20
360.6101664583906
 30
0.0
 40
1.199999875000011
100
AcDbArc
 50
90.00000300000015
 51
270.0000009999997
  0
ARC
  5
356A
330
A
100
AcDbEntity
  8
0
 62
     7
100
AcDbCircle
 10
323.3900051243898
 20
345.6101680208903
 30
0.0
 40
1.199999875000011
100
AcDbArc
 50
270.0000009999997
 51
89.99999200000019
  0
ARC
  5
356B
330
A
100
AcDbEntity
  8
0
 62
     7
100
AcDbCircle
 10
323.3900051243898
 20
350.6101675000572
 30
0.0
 40
1.199999875000011
100
AcDbArc
 50
270.0000009999997
 51
89.99999200000019
  0
ARC
  5
356C
330
A
100
AcDbEntity
  8
0
 62
     7
100
AcDbCircle
 10
323.3900051243898
 20
355.6101669792237
 30
0.0
 40
1.199999875000011
100
AcDbArc
 50
270.0000009999997
 51
89.99999200000019
  0
ARC
  5
356D
330
A
100
AcDbEntity
  8
0
 62
     7
100
AcDbCircle
 10
323.3900051243898
 20
360.6101664583906
 30
0.0
 40
1.199999875000011
100
AcDbArc
 50
270.0000009999997
 51
89.99999200000019
  0
LINE
  5
356E
330
A
100
AcDbEntity
  8
0
 62
     7
100
AcDbLine
 10
285.790026541054
 20
366.8101745625563
 30
0.0
 11
323.3900051243898
 21
366.8101745625563
 31
0.0
  0
LINE
  5
356F
330
A
100
AcDbEntity
  8
0
 62
     7
100
AcDbLine
 10
285.790026541054
 20
396.8101714375568
 30
0.0
 11
323.3900051243898
 21
396.8101714375568
 31
0.0
  0
LINE
  5
3570
330
A
100
AcDbEntity
  8
0
 62
     7
100
AcDbLine
 10
323.3900051243898
 20
394.4101729375566
 30
0.0
 11
285.790026541054
 21
394.4101729375566
 31
0.0
  0
LINE
  5
3571
330
A
100
AcDbEntity
  8
0
 62
     7
100
AcDbLine
 10
285.790026541054
 20
401.8101709167233
 30
0.0
 11
323.3900051243898
 21
401.8101709167233
 31
0.0
  0
LINE
  5
3572
330
A
100
AcDbEntity
  8
0
 62
     7
100
AcDbLine
 10
323.3900051243898
 20
399.4101724167233
 30
0.0
 11
285.790026541054
 21
399.4101724167233
 31
0.0
  0
LINE
  5
3573
330
A
100
AcDbEntity
  8
0
 62
     7
100
AcDbLine
 10
285.790026541054
 20
406.8101703958901
 30
0.0
 11
323.3900051243898
 21
406.8101703958901
 31
0.0
  0
LINE
  5
3574
330
A
100
AcDbEntity
  8
0
 62
     7
100
AcDbLine
 10
323.3900051243898
 20
404.4101718958899
 30
0.0
 11
285.790026541054
 21
404.4101718958899
 31
0.0
  0
LINE
  5
3575
330
A
100
AcDbEntity
  8
0
 62
     7
100
AcDbLine
 10
323.3900051243898
 20
409.4101713750566
 30
0.0
 11
285.790026541054
 21
409.4101713750566
 31
0.0
  0
LINE
  5
3576
330
A
100
AcDbEntity
  8
0
 62
     7
100
AcDbLine
 10
323.3900051243898
 20
374.4101750208896
 30
0.0
 11
285.790026541054
 21
374.4101750208896
 31
0.0
  0
LINE
  5
3577
330
A
100
AcDbEntity
  8
0
 62
     7
100
AcDbLine
 10
285.790026541054
 20
376.8101735208897
 30
0.0
 11
323.3900051243898
 21
376.8101735208897
 31
0.0
  0
LINE
  5
3578
330
A
100
AcDbEntity
  8
0
 62
     7
100
AcDbLine
 10
285.790026541054
 20
371.8101740417232
 30
0.0
 11
323.3900051243898
 21
371.8101740417232
 31
0.0
  0
LINE
  5
3579
330
A
100
AcDbEntity
  8
0
 62
     7
100
AcDbLine
 10
323.3900051243898
 20
369.410175541723
 30
0.0
 11
285.790026541054
 21
369.410175541723
 31
0.0
  0
LINE
  5
357A
330
A
100
AcDbEntity
  8
0
 62
     7
 48
0.14
100
AcDbLine
 10
275.7900275827206
 20
382.6101716667234
 30
0.0
 11
275.7900275827206
 21
389.6101784375558
 31
0.0
  0
LINE
  5
357B
330
A
100
AcDbEntity
  8
0
 62
     7
 48
0.14
100
AcDbLine
 10
267.7900159160553
 20
389.6101784375558
 30
0.0
 11
267.7900159160553
 21
382.6101716667234
 31
0.0
  0
LINE
  5
357C
330
A
100
AcDbEntity
  8
0
 62
     7
 48
0.14
100
AcDbLine
 10
268.2900283639706
 20
389.6101784375558
 30
0.0
 11
268.2900283639706
 21
382.6101716667234
 31
0.0
  0
LINE
  5
357D
330
A
100
AcDbEntity
  8
0
 62
     7
 48
0.16
100
AcDbLine
 10
275.7900275827206
 20
382.6101716667234
 30
0.0
 11
267.7900159160553
 21
382.6101716667234
 31
0.0
  0
ARC
  5
357E
330
A
100
AcDbEntity
  8
0
 62
     7
100
AcDbCircle
 10
285.790026541054
 20
375.6101648958908
 30
0.0
 40
1.199999875000011
100
AcDbArc
 50
90.00000300000015
 51
270.0000009999997
  0
ARC
  5
357F
330
A
100
AcDbEntity
  8
0
 62
     7
100
AcDbCircle
 10
285.790026541054
 20
370.6101654167241
 30
0.0
 40
1.199999875000011
100
AcDbArc
 50
90.00000300000015
 51
270.0000009999997
  0
LINE
  5
3580
330
A
100
AcDbEntity
  8
0
 62
     7
 48
0.16
100
AcDbLine
 10
267.7900159160553
 20
389.6101784375558
 30
0.0
 11
275.7900275827206
 21
389.6101784375558
 31
0.0
  0
ARC
  5
3581
330
A
100
AcDbEntity
  8
0
 62
     7
100
AcDbCircle
 10
285.790026541054
 20
400.6101622917244
 30
0.0
 40
1.199999875000011
100
AcDbArc
 50
90.00000300000015
 51
270.0000009999997
  0
ARC
  5
3582
330
A
100
AcDbEntity
  8
0
 62
     7
100
AcDbCircle
 10
285.790026541054
 20
395.6101628125577
 30
0.0
 40
1.199999875000011
100
AcDbArc
 50
90.00000300000015
 51
270.0000009999997
  0
ARC
  5
3583
330
A
100
AcDbEntity
  8
0
 62
     7
100
AcDbCircle
 10
285.790026541054
 20
405.6101617708911
 30
0.0
 40
1.199999875000011
100
AcDbArc
 50
90.00000300000015
 51
270.0000009999997
  0
LINE
  5
3584
330
A
100
AcDbEntity
  8
0
 62
     7
 48
0.14
100
AcDbLine
 10
325.7900223743878
 20
382.6101716667234
 30
0.0
 11
325.7900223743878
 21
389.6101784375558
 31
0.0
  0
LINE
  5
3585
330
A
100
AcDbEntity
  8
0
 62
     7
 48
0.14
100
AcDbLine
 10
317.7900307077202
 20
389.6101784375558
 30
0.0
 11
317.7900307077202
 21
382.6101716667234
 31
0.0
  0
ARC
  5
3586
330
A
100
AcDbEntity
  8
0
 62
     7
100
AcDbCircle
 10
323.3900051243898
 20
375.6101648958908
 30
0.0
 40
1.199999875000011
100
AcDbArc
 50
270.0000009999997
 51
89.99999200000019
  0
ARC
  5
3587
330
A
100
AcDbEntity
  8
0
 62
     7
100
AcDbCircle
 10
323.3900051243898
 20
370.6101654167241
 30
0.0
 40
1.199999875000011
100
AcDbArc
 50
270.0000009999997
 51
89.99999200000019
  0
LINE
  5
3588
330
A
100
AcDbEntity
  8
0
 62
     7
 48
0.16
100
AcDbLine
 10
325.7900223743878
 20
382.6101716667234
 30
0.0
 11
317.7900307077202
 21
382.6101716667234
 31
0.0
  0
ARC
  5
3589
330
A
100
AcDbEntity
  8
0
 62
     7
100
AcDbCircle
 10
323.3900051243898
 20
400.6101622917244
 30
0.0
 40
1.199999875000011
100
AcDbArc
 50
270.0000009999997
 51
89.99999200000019
  0
LINE
  5
358A
330
A
100
AcDbEntity
  8
0
 62
     7
 48
0.16
100
AcDbLine
 10
317.7900307077202
 20
389.6101784375558
 30
0.0
 11
325.7900223743878
 21
389.6101784375558
 31
0.0
  0
ARC
  5
358B
330
A
100
AcDbEntity
  8
0
 62
     7
100
AcDbCircle
 10
323.3900051243898
 20
395.6101628125577
 30
0.0
 40
1.199999875000011
100
AcDbArc
 50
270.0000009999997
 51
89.99999200000019
  0
ARC
  5
358C
330
A
100
AcDbEntity
  8
0
 62
     7
100
AcDbCircle
 10
323.3900051243898
 20
405.6101617708911
 30
0.0
 40
1.199999875000011
100
AcDbArc
 50
270.0000009999997
 51
89.99999200000019
  0
LINE
  5
358D
330
A
100
AcDbEntity
  8
0
 62
     7
 48
0.22
100
AcDbLine
 10
223.7900254993876
 20
442.6101654167238
 30
0.0
 11
234.7900281035539
 21
442.6101654167238
 31
0.0
  0
LINE
  5
358E
330
A
100
AcDbEntity
  8
0
 62
     7
 48
0.042952
100
AcDbLine
 10
215.6679825954336
 20
441.8995829907431
 30
0.0
 11
213.5285478182915
 21
441.7124142602396
 31
0.0
  0
ARC
  5
358F
330
A
100
AcDbEntity
  8
0
 62
     7
100
AcDbCircle
 10
213.7900265410542
 20
438.7238283215508
 30
0.0
 40
2.99999968750003
100
AcDbArc
 50
117.3824829999995
 51
180.0000050000005
  0
ARC
  5
3590
330
A
100
AcDbEntity
  8
0
 62
     7
100
AcDbCircle
 10
213.7900265410542
 20
438.7238283215508
 30
0.0
 40
2.99999968750003
100
AcDbArc
 50
95.0000010000001
 51
117.3807339999999
  0
LINE
  5
3591
330
A
100
AcDbEntity
  8
0
 62
     7
 48
0.163061
100
AcDbLine
 10
223.7900254993876
 20
442.6101654167238
 30
0.0
 11
215.6679825954336
 21
441.8995829907431
 31
0.0
  0
LINE
  5
3597
330
A
100
AcDbEntity
  8
0
 62
     7
 48
0.03
100
AcDbLine
 10
236.2900241973044
 20
442.9101716354734
 30
0.0
 11
234.7900281035539
 21
442.9101716354734
 31
0.0
  0
LINE
  5
3598
330
A
100
AcDbEntity
  8
0
 62
     7
 48
0.013416
100
AcDbLine
 10
236.890017884805
 20
442.6101654167238
 30
0.0
 11
236.2900241973044
 21
442.9101716354734
 31
0.0
  0
LINE
  5
3599
330
A
100
AcDbEntity
  8
0
 62
     7
100
AcDbLine
 10
285.790026541054
 20
411.8101698750568
 30
0.0
 11
323.3900051243898
 21
411.8101698750568
 31
0.0
  0
LINE
  5
359A
330
A
100
AcDbEntity
  8
0
 62
     7
100
AcDbLine
 10
285.790026541054
 20
416.8101693542237
 30
0.0
 11
323.3900051243898
 21
416.8101693542237
 31
0.0
  0
LINE
  5
359B
330
A
100
AcDbEntity
  8
0
 62
     7
100
AcDbLine
 10
323.3900051243898
 20
414.4101708542233
 30
0.0
 11
285.790026541054
 21
414.4101708542233
 31
0.0
  0
LINE
  5
359C
330
A
100
AcDbEntity
  8
0
 62
     7
100
AcDbLine
 10
285.790026541054
 20
421.8101688333903
 30
0.0
 11
323.3900051243898
 21
421.8101688333903
 31
0.0
  0
LINE
  5
359D
330
A
100
AcDbEntity
  8
0
 62
     7
100
AcDbLine
 10
323.3900051243898
 20
419.4101703333902
 30
0.0
 11
285.790026541054
 21
419.4101703333902
 31
0.0
  0
LINE
  5
359E
330
A
100
AcDbEntity
  8
0
 62
     7
100
AcDbLine
 10
323.3900051243898
 20
429.4101692917235
 30
0.0
 11
285.790026541054
 21
429.4101692917235
 31
0.0
  0
LINE
  5
359F
330
A
100
AcDbEntity
  8
0
 62
     7
100
AcDbLine
 10
285.790026541054
 20
431.8101677917238
 30
0.0
 11
323.3900051243898
 21
431.8101677917238
 31
0.0
  0
LINE
  5
35A0
330
A
100
AcDbEntity
  8
0
 62
     7
100
AcDbLine
 10
285.790026541054
 20
426.8101683125571
 30
0.0
 11
323.3900051243898
 21
426.8101683125571
 31
0.0
  0
LINE
  5
35A1
330
A
100
AcDbEntity
  8
0
 62
     7
100
AcDbLine
 10
323.3900051243898
 20
424.4101698125568
 30
0.0
 11
285.790026541054
 21
424.4101698125568
 31
0.0
  0
ARC
  5
35A2
330
A
100
AcDbEntity
  8
0
 62
     7
100
AcDbCircle
 10
285.790026541054
 20
415.6101607292243
 30
0.0
 40
1.199999875000011
100
AcDbArc
 50
90.00000300000015
 51
270.0000009999997
  0
ARC
  5
35A3
330
A
100
AcDbEntity
  8
0
 62
     7
100
AcDbCircle
 10
285.790026541054
 20
420.6101789583891
 30
0.0
 40
1.199999875000011
100
AcDbArc
 50
90.00000300000015
 51
270.0000009999997
  0
ARC
  5
35A4
330
A
100
AcDbEntity
  8
0
 62
     7
100
AcDbCircle
 10
285.790026541054
 20
425.610178437556
 30
0.0
 40
1.199999875000011
100
AcDbArc
 50
90.00000300000015
 51
270.0000009999997
  0
ARC
  5
35A5
330
A
100
AcDbEntity
  8
0
 62
     7
100
AcDbCircle
 10
285.790026541054
 20
430.6101779167228
 30
0.0
 40
1.199999875000011
100
AcDbArc
 50
90.00000300000015
 51
270.0000009999997
  0
ARC
  5
35A6
330
A
100
AcDbEntity
  8
0
 62
     7
100
AcDbCircle
 10
323.3900051243898
 20
415.6101607292243
 30
0.0
 40
1.199999875000011
100
AcDbArc
 50
270.0000009999997
 51
89.99999200000019
  0
ARC
  5
35A7
330
A
100
AcDbEntity
  8
0
 62
     7
100
AcDbCircle
 10
323.3900051243898
 20
420.6101789583891
 30
0.0
 40
1.199999875000011
100
AcDbArc
 50
270.0000009999997
 51
89.99999200000019
  0
ARC
  5
35A8
330
A
100
AcDbEntity
  8
0
 62
     7
100
AcDbCircle
 10
323.3900051243898
 20
425.610178437556
 30
0.0
 40
1.199999875000011
100
AcDbArc
 50
270.0000009999997
 51
89.99999200000019
  0
ARC
  5
35A9
330
A
100
AcDbEntity
  8
0
 62
     7
100
AcDbCircle
 10
323.3900051243898
 20
430.6101779167228
 30
0.0
 40
1.199999875000011
100
AcDbArc
 50
270.0000009999997
 51
89.99999200000019
  0
LINE
  5
35AA
330
A
100
AcDbEntity
  8
0
 62
     7
 48
0.255
100
AcDbLine
 10
396.4100175181385
 20
411.1101724479733
 30
0.0
 11
396.4100175181385
 21
423.8601673698488
 31
0.0
  0
LINE
  5
35AB
330
A
100
AcDbEntity
  8
0
 62
     7
100
AcDbLine
 10
385.5100174035553
 20
407.610169062557
 30
0.0
 11
385.5100174035553
 21
438.1101771354727
 31
0.0
  0
LINE
  5
35AC
330
A
100
AcDbEntity
  8
0
 62
     7
100
AcDbLine
 10
373.7900098743891
 20
438.1101771354727
 30
0.0
 11
373.7900098743891
 21
407.610169062557
 31
0.0
  0
ARC
  5
35AD
330
A
100
AcDbEntity
  8
0
 62
     7
100
AcDbCircle
 10
395.4099951223075
 20
411.1101724479733
 30
0.0
 40
0.9999998958333446
100
AcDbArc
 50
270.0000009999997
 51
0.0000099999977495
  0
LINE
  5
35B8
330
A
100
AcDbEntity
  8
0
 62
     7
 48
0.318
100
AcDbLine
 10
378.7900093535558
 20
332.3301781542226
 30
0.0
 11
378.7900093535558
 21
348.2301777479726
 31
0.0
  0
LINE
  5
35BA
330
A
100
AcDbEntity
  8
0
 62
     7
 48
0.09
100
AcDbLine
 10
383.2900163848051
 20
333.8301742479731
 30
0.0
 11
378.7900093535558
 21
333.8301742479731
 31
0.0
  0
LINE
  5
35BB
330
A
100
AcDbEntity
  8
0
 62
     7
 48
0.09
100
AcDbLine
 10
383.2900163848051
 20
332.83017060214
 30
0.0
 11
378.7900093535558
 21
332.83017060214
 31
0.0
  0
LINE
  5
35BC
330
A
100
AcDbEntity
  8
0
 62
     7
 48
0.189999
100
AcDbLine
 10
373.7900098743891
 20
323.6101815625556
 30
0.0
 11
383.2899401348133
 21
323.6101815625556
 31
0.0
  0
LINE
  5
35BD
330
A
100
AcDbEntity
  8
0
 62
     7
 48
0.2
100
AcDbLine
 10
373.7900098743891
 20
323.6101815625556
 30
0.0
 11
383.7900088327226
 21
323.6101815625556
 31
0.0
  0
LINE
  5
35BE
330
A
100
AcDbEntity
  8
0
 62
     7
 48
0.2
100
AcDbLine
 10
373.7900098743891
 20
330.6101695833902
 30
0.0
 11
383.7900088327226
 21
330.6101695833902
 31
0.0
  0
LINE
  5
35BF
330
A
100
AcDbEntity
  8
0
 62
     7
 48
0.1
100
AcDbLine
 10
373.7900098743891
 20
332.3301781542226
 30
0.0
 11
378.7900093535558
 21
332.3301781542226
 31
0.0
  0
LINE
  5
35C0
330
A
100
AcDbEntity
  8
0
 62
     7
 48
0.034399
100
AcDbLine
 10
378.7900093535558
 20
332.3301781542226
 30
0.0
 11
378.7900093535558
 21
330.6102070833861
 31
0.0
  0
LINE
  5
35D5
330
A
100
AcDbEntity
  8
0
 62
     7
 48
0.252
100
AcDbLine
 10
373.7900098743891
 20
358.1101667188072
 30
0.0
 11
386.3900298118873
 21
358.1101667188072
 31
0.0
  0
LINE
  5
35D6
330
A
100
AcDbEntity
  8
0
 62
     7
 48
0.252
100
AcDbLine
 10
373.7900098743891
 20
358.1101667188072
 30
0.0
 11
386.3900298118873
 21
358.1101667188072
 31
0.0
  0
LINE
  5
35D7
330
A
100
AcDbEntity
  8
0
 62
     7
 48
0.09
100
AcDbLine
 10
383.2900163848051
 20
347.6101753125563
 30
0.0
 11
378.7900093535558
 21
347.6101753125563
 31
0.0
  0
LINE
  5
35D8
330
A
100
AcDbEntity
  8
0
 62
     7
 48
0.09
100
AcDbLine
 10
383.2900163848051
 20
347.7301665500571
 30
0.0
 11
378.7900093535558
 21
347.7301665500571
 31
0.0
  0
LINE
  5
35D9
330
A
100
AcDbEntity
  8
0
 62
     7
 48
0.09
100
AcDbLine
 10
383.2900163848051
 20
344.1103431771221
 30
0.0
 11
378.7900093535558
 21
344.1103431771221
 31
0.0
  0
LINE
  5
35DA
330
A
100
AcDbEntity
  8
0
 62
     7
 48
0.1
100
AcDbLine
 10
373.7900098743891
 20
348.2301777479726
 30
0.0
 11
378.7900093535558
 21
348.2301777479726
 31
0.0
  0
LINE
  5
35DB
330
A
100
AcDbEntity
  8
0
 62
     7
 48
0.1
100
AcDbLine
 10
373.7900098743891
 20
350.2301662896405
 30
0.0
 11
378.7900093535558
 21
350.2301662896405
 31
0.0
  0
LINE
  5
35DC
330
A
100
AcDbEntity
  8
0
 62
     7
 48
0.04
100
AcDbLine
 10
378.7900093535558
 20
350.2301662896405
 30
0.0
 11
378.7900093535558
 21
348.2301777479726
 31
0.0
  0
LINE
  5
35EA
330
A
100
AcDbEntity
  8
0
 62
     7
 48
0.318
100
AcDbLine
 10
380.7900166452217
 20
400.2301610813075
 30
0.0
 11
380.7900166452217
 21
384.3301614875578
 31
0.0
  0
LINE
  5
35EB
330
A
100
AcDbEntity
  8
0
 62
     7
 48
0.262
100
AcDbLine
 10
373.7900098743891
 20
382.6101716667234
 30
0.0
 11
386.8900222598048
 21
382.6101716667234
 31
0.0
  0
LINE
  5
35EC
330
A
100
AcDbEntity
  8
0
 62
     7
 48
0.252
100
AcDbLine
 10
373.7900098743891
 20
366.1101771354727
 30
0.0
 11
386.3900298118873
 21
366.1101771354727
 31
0.0
  0
LINE
  5
35ED
330
A
100
AcDbEntity
  8
0
 62
     7
 48
0.262
100
AcDbLine
 10
373.7900098743891
 20
375.6101648958908
 30
0.0
 11
386.8900222598048
 21
375.6101648958908
 31
0.0
  0
LINE
  5
35EE
330
A
100
AcDbEntity
  8
0
 62
     7
 48
0.252
100
AcDbLine
 10
373.7900098743891
 20
375.6101648958908
 30
0.0
 11
386.3899910618913
 21
375.6101648958908
 31
0.0
  0
LINE
  5
35FA
330
A
100
AcDbEntity
  8
0
 62
     7
 48
0.112
100
AcDbLine
 10
386.3900298118873
 20
384.8301726854733
 30
0.0
 11
380.7900166452217
 21
384.8301726854733
 31
0.0
  0
LINE
  5
35FB
330
A
100
AcDbEntity
  8
0
 62
     7
 48
0.112
100
AcDbLine
 10
386.3900298118873
 20
385.8301763313063
 30
0.0
 11
380.7900166452217
 21
385.8301763313063
 31
0.0
  0
ARC
  5
35FC
330
A
100
AcDbEntity
  8
0
 62
     7
100
AcDbCircle
 10
379.7900317493871
 20
383.3301765917228
 30
0.0
 40
0.9999998958333446
100
AcDbArc
 50
313.9458459999993
 51
0.0000099999977495
  0
LINE
  5
35FD
330
A
100
AcDbEntity
  8
0
 62
     7
 48
0.02
100
AcDbLine
 10
380.7900166452217
 20
384.3301614875578
 30
0.0
 11
380.7900166452217
 21
383.3301765917228
 31
0.0
  0
ARC
  5
3607
330
A
100
AcDbEntity
  8
0
 62
     7
100
AcDbCircle
 10
379.7900317493871
 20
401.2301647271407
 30
0.0
 40
0.9999998958333446
100
AcDbArc
 50
0.0
 51
90.00000300000015
  0
LINE
  5
3608
330
A
100
AcDbEntity
  8
0
 62
     7
 48
0.2144
100
AcDbLine
 10
384.5100325077203
 20
406.610165416724
 30
0.0
 11
373.7900098743891
 21
406.610165416724
 31
0.0
  0
LINE
  5
3609
330
A
100
AcDbEntity
  8
0
 62
     7
 48
0.1
100
AcDbLine
 10
373.7900098743891
 20
402.2301683729737
 30
0.0
 11
378.7900093535558
 21
402.2301683729737
 31
0.0
  0
LINE
  5
360A
330
A
100
AcDbEntity
  8
0
 62
     7
 48
0.02
100
AcDbLine
 10
378.7900093535558
 20
402.2301683729737
 30
0.0
 11
379.7900317493871
 21
402.2301683729737
 31
0.0
  0
LINE
  5
360B
330
A
100
AcDbEntity
  8
0
 62
     7
 48
0.02
100
AcDbLine
 10
373.7900098743891
 20
406.610165416724
 30
0.0
 11
373.7900098743891
 21
407.610169062557
 31
0.0
  0
LINE
  5
360C
330
A
100
AcDbEntity
  8
0
 62
     7
 48
0.112
100
AcDbLine
 10
386.3900298118873
 20
396.1103452604553
 30
0.0
 11
380.7900166452217
 21
396.1103452604553
 31
0.0
  0
LINE
  5
360D
330
A
100
AcDbEntity
  8
0
 62
     7
 48
0.112
100
AcDbLine
 10
386.3900298118873
 20
399.6101773958895
 30
0.0
 11
380.7900166452217
 21
399.6101773958895
 31
0.0
  0
LINE
  5
360E
330
A
100
AcDbEntity
  8
0
 62
     7
 48
0.112
100
AcDbLine
 10
386.3900298118873
 20
399.7301686333903
 30
0.0
 11
380.7900166452217
 21
399.7301686333903
 31
0.0
  0
LINE
  5
360F
330
A
100
AcDbEntity
  8
0
 62
     7
 48
0.198
100
AcDbLine
 10
385.5100174035553
 20
410.1101688021403
 30
0.0
 11
395.4099951223075
 21
410.1101688021403
 31
0.0
  0
LINE
  5
3612
330
A
100
AcDbEntity
  8
0
 62
     7
 48
0.02
100
AcDbLine
 10
380.7900166452217
 20
401.2301647271407
 30
0.0
 11
380.7900166452217
 21
400.2301610813075
 31
0.0
  0
ARC
  5
3613
330
A
100
AcDbEntity
  8
0
 62
     7
100
AcDbCircle
 10
384.5100325077203
 20
407.610169062557
 30
0.0
 40
0.9999998958333446
100
AcDbArc
 50
270.0000009999997
 51
0.0000099999977495
  0
LINE
  5
3694
330
A
100
AcDbEntity
  8
0
 62
     7
 48
0.050901
100
AcDbLine
 10
395.910025070221
 20
435.1101661979738
 30
0.0
 11
398.1864073330978
 21
436.2483573294124
 31
0.0
  0
LINE
  5
3695
330
A
100
AcDbEntity
  8
0
 62
     7
 48
0.178
100
AcDbLine
 10
398.9100172577217
 20
431.6101628125577
 30
0.0
 11
390.0100244348044
 21
431.6101628125577
 31
0.0
  0
LINE
  5
3696
330
A
100
AcDbEntity
  8
0
 62
     7
 48
0.178
100
AcDbLine
 10
398.9100172577217
 20
427.6101669792238
 30
0.0
 11
390.0100244348044
 21
427.6101669792238
 31
0.0
  0
LINE
  5
3697
330
A
100
AcDbEntity
  8
0
 62
     7
 48
0.050901
100
AcDbLine
 10
398.1864073330978
 20
422.9719724623691
 30
0.0
 11
395.910025070221
 21
424.1101635938075
 31
0.0
  0
LINE
  5
3698
330
A
100
AcDbEntity
  8
0
 62
     7
 48
0.043863
100
AcDbLine
 10
395.910025070221
 20
424.1101635938075
 30
0.0
 11
395.0100239139711
 21
422.1101750521397
 31
0.0
  0
LINE
  5
3699
330
A
100
AcDbEntity
  8
0
 62
     7
 48
0.19
100
AcDbLine
 10
395.0100239139711
 20
422.1101750521397
 30
0.0
 11
385.5100174035553
 21
422.1101750521397
 31
0.0
  0
LINE
  5
369A
330
A
100
AcDbEntity
  8
0
 62
     7
 48
0.09
100
AcDbLine
 10
390.0100244348044
 20
434.6101737500563
 30
0.0
 11
385.5100174035553
 21
434.6101737500563
 31
0.0
  0
LINE
  5
369B
330
A
100
AcDbEntity
  8
0
 62
     7
 48
0.09
100
AcDbLine
 10
385.5100174035553
 20
424.6101747917228
 30
0.0
 11
390.0100244348044
 21
424.6101747917228
 31
0.0
  0
LINE
  5
369C
330
A
100
AcDbEntity
  8
0
 62
     7
 48
0.2
100
AcDbLine
 10
390.0100244348044
 20
424.6101747917228
 30
0.0
 11
390.0100244348044
 21
434.6101737500563
 31
0.0
  0
LINE
  5
369D
330
A
100
AcDbEntity
  8
0
 62
     7
 48
0.2144
100
AcDbLine
 10
373.7900098743891
 20
439.1101620313078
 30
0.0
 11
384.5100325077203
 21
439.1101620313078
 31
0.0
  0
LINE
  5
369E
330
A
100
AcDbEntity
  8
0
 62
     7
 48
0.02
100
AcDbLine
 10
373.7900098743891
 20
439.1101620313078
 30
0.0
 11
372.7900249785541
 21
439.1101620313078
 31
0.0
  0
LINE
  5
369F
330
A
100
AcDbEntity
  8
0
 62
     7
 48
0.02
100
AcDbLine
 10
373.7900098743891
 20
438.8101745625565
 30
0.0
 11
372.7900249785541
 21
438.8101745625565
 31
0.0
  0
LINE
  5
36A0
330
A
100
AcDbEntity
  8
0
 62
     7
 48
0.19
100
AcDbLine
 10
385.5100174035553
 20
437.11017348964
 30
0.0
 11
395.0100239139711
 21
437.11017348964
 31
0.0
  0
ARC
  5
36A1
330
A
100
AcDbEntity
  8
0
 62
     7
100
AcDbCircle
 10
384.5100325077203
 20
438.1101771354727
 30
0.0
 40
0.9999998958333446
100
AcDbArc
 50
0.0
 51
90.00000300000015
  0
LINE
  5
36A2
330
A
100
AcDbEntity
  8
0
 62
     7
 48
0.043864
100
AcDbLine
 10
395.0100239139711
 20
437.11017348964
 30
0.0
 11
395.910025070221
 21
435.1101661979738
 31
0.0
  0
LINE
  5
36A3
330
A
100
AcDbEntity
  8
0
 62
     7
 48
0.08382
100
AcDbLine
 10
398.9100172577217
 20
435.8011598759953
 30
0.0
 11
398.9100172577217
 21
431.6101628125577
 31
0.0
  0
ARC
  5
36A4
330
A
100
AcDbEntity
  8
0
 62
     7
100
AcDbCircle
 10
398.4100248098044
 20
423.4191886657842
 30
0.0
 40
0.4999999479166723
100
AcDbArc
 50
243.4349370000004
 51
0.0000099999977495
  0
LINE
  5
36A5
330
A
100
AcDbEntity
  8
0
 62
     7
 48
0.08
100
AcDbLine
 10
398.9100172577217
 20
431.6101628125577
 30
0.0
 11
398.9100172577217
 21
427.6101669792238
 31
0.0
  0
LINE
  5
36A6
330
A
100
AcDbEntity
  8
0
 62
     7
 48
0.08382
100
AcDbLine
 10
398.9100172577217
 20
427.6101669792238
 30
0.0
 11
398.9100172577217
 21
423.4191886657842
 31
0.0
  0
ARC
  5
36A7
330
A
100
AcDbEntity
  8
0
 62
     7
100
AcDbCircle
 10
398.4100248098044
 20
435.8011598759953
 30
0.0
 40
0.4999999479166723
100
AcDbArc
 50
0.0
 51
116.5650469999991
  0
LINE
  5
36A8
330
A
100
AcDbEntity
  8
0
  6
DASHED
 62
     4
 48
0.12
100
AcDbLine
 10
386.2900164004298
 20
439.110275781296
 30
0.0
 11
386.2900164004298
 21
446.1102829774761
 31
0.0
  0
LINE
  5
36A9
330
A
100
AcDbEntity
  8
0
 62
     7
 48
0.035426
100
AcDbLine
 10
384.5187377273086
 20
439.110275781296
 30
0.0
 11
386.2900164004298
 21
439.110275781296
 31
0.0
  0
LINE
  5
36AA
330
A
100
AcDbEntity
  8
0
  6
DASHED
 62
     4
100
AcDbLine
 10
235.2900192042494
 20
446.1102829774761
 30
0.0
 11
386.2900164004298
 21
446.1102829774761
 31
0.0
  0
LINE
  5
36AB
330
A
100
AcDbEntity
  8
0
  6
DASHED
 62
     4
100
AcDbLine
 10
238.2900115740414
 20
445.1102792708791
 30
0.0
 11
386.2900164004298
 21
445.1102792708791
 31
0.0
  0
LINE
  5
36AC
330
A
100
AcDbEntity
  8
0
  6
DASHED
 62
     4
100
AcDbLine
 10
262.2900254800143
 20
454.1102901302536
 30
0.0
 11
358.2900250633474
 21
454.1102901302536
 31
0.0
  0
LINE
  5
36AE
330
A
100
AcDbEntity
  8
0
  6
DASHED
 62
     4
100
AcDbLine
 10
261.2900218257771
 20
447.1102866840734
 30
0.0
 11
359.2900100723054
 21
447.1102866840734
 31
0.0
  0
LINE
  5
36AF
330
A
100
AcDbEntity
  8
0
  6
DASHED
 62
     4
 48
0.4600000000000001
100
AcDbLine
 10
260.2900180668202
 20
454.1102901302536
 30
0.0
 11
236.2900228584865
 21
454.1102901302536
 31
0.0
  0
ARC
  5
36B1
330
A
100
AcDbEntity
  8
0
  6
DASHED
 62
     4
100
AcDbCircle
 10
262.2900255323742
 20
453.1102901736564
 30
0.0
 40
0.9999999565972242
100
AcDbArc
 50
90.00000300000001
 51
180.000005
  0
ARC
  5
36B2
330
A
100
AcDbEntity
  8
0
  6
DASHED
 62
     4
100
AcDbCircle
 10
260.2900181191801
 20
453.1102901736564
 30
0.0
 40
0.9999999565972242
100
AcDbArc
 50
0.0
 51
90.00000300000001
  0
LINE
  5
36B7
330
A
100
AcDbEntity
  8
0
  6
DASHED
 62
     4
 48
0.14
100
AcDbLine
 10
261.2900218257771
 20
446.1102829774761
 30
0.0
 11
261.2900218257771
 21
453.1102901736564
 31
0.0
  0
LINE
  5
36BD
330
A
100
AcDbEntity
  8
0
  6
DASHED
 62
     4
 48
0.4600000000000001
100
AcDbLine
 10
360.2900324765418
 20
454.1102901302536
 30
0.0
 11
384.2900089348758
 21
454.1102901302536
 31
0.0
  0
ARC
  5
36BF
330
A
100
AcDbEntity
  8
0
  6
DASHED
 62
     4
100
AcDbCircle
 10
358.2900251157074
 20
453.1102901736564
 30
0.0
 40
0.9999999565972242
100
AcDbArc
 50
0.0
 51
90.00000300000001
  0
ARC
  5
36C0
330
A
100
AcDbEntity
  8
0
  6
DASHED
 62
     4
100
AcDbCircle
 10
360.2900325289017
 20
453.1102901736564
 30
0.0
 40
0.9999999565972242
100
AcDbArc
 50
90.00000300000001
 51
180.000005
  0
LINE
  5
36C7
330
A
100
AcDbEntity
  8
0
  6
DASHED
 62
     4
 48
0.14
100
AcDbLine
 10
359.2900100723054
 20
446.1102829774761
 30
0.0
 11
359.2900100723054
 21
453.1102901736564
 31
0.0
  0
ARC
  5
36CB
330
A
100
AcDbEntity
  8
0
  6
DASHED
 62
     4
100
AcDbCircle
 10
384.2900089872358
 20
453.1102901736564
 30
0.0
 40
0.9999999565972242
100
AcDbArc
 50
0.0
 51
90.00000300000001
  0
LINE
  5
36CD
330
A
100
AcDbEntity
  8
0
  6
DASHED
 62
     4
 48
0.14
100
AcDbLine
 10
385.2900314438321
 20
446.1102829774761
 30
0.0
 11
385.2900314438321
 21
453.1102901736564
 31
0.0
  0
ARC
  5
36D2
330
A
100
AcDbEntity
  8
0
  6
DASHED
 62
     4
100
AcDbCircle
 10
236.2900229108463
 20
453.1102901736564
 30
0.0
 40
0.9999999565972242
100
AcDbArc
 50
90.00000300000001
 51
180.000005
  0
LINE
  5
36D4
330
A
100
AcDbEntity
  8
0
  6
DASHED
 62
     4
 48
0.12
100
AcDbLine
 10
238.2900115740414
 20
439.110275781296
 30
0.0
 11
238.2900115740414
 21
445.1102792708791
 31
0.0
  0
LINE
  5
36D7
330
A
100
AcDbEntity
  8
0
  6
DASHED
 62
     4
 48
0.14
100
AcDbLine
 10
235.2900192042494
 20
446.1102829774761
 30
0.0
 11
235.2900192042494
 21
453.1102901736564
 31
0.0
  0
LINE
  5
36DA
330
A
100
AcDbEntity
  8
0
  6
DASHED
 62
     4
 48
0.02
100
AcDbLine
 10
237.2900266174435
 20
444.5102842969204
 30
0.0
 11
238.2900115740414
 21
444.5102842969204
 31
0.0
  0
LINE
  5
36DB
330
A
100
AcDbEntity
  8
0
  6
DASHED
 62
     4
 48
0.032
100
AcDbLine
 10
236.2900229108463
 20
446.1102829774761
 30
0.0
 11
236.2900229108463
 21
444.5102842969204
 31
0.0
  0
LINE
  5
36DD
330
A
100
AcDbEntity
  8
0
  6
DASHED
 62
     4
 48
0.02
100
AcDbLine
 10
237.2900266174435
 20
444.5102842969204
 30
0.0
 11
236.2900229108463
 21
444.5102842969204
 31
0.0
  0
LINE
  5
36DE
330
A
100
AcDbEntity
  8
0
  6
DASHED
 62
     4
 48
0.032
100
AcDbLine
 10
237.2900266174435
 20
446.1102829774761
 30
0.0
 11
237.2900266174435
 21
444.5102842969204
 31
0.0
  0
LINE
  5
36DF
330
A
100
AcDbEntity
  8
0
  6
DASHED
 62
     4
 48
0.02
100
AcDbLine
 10
238.2900115740414
 20
446.1102829774761
 30
0.0
 11
238.2900115740414
 21
445.1102792708791
 31
0.0
  0
LINE
  5
36E1
330
A
100
AcDbEntity
  8
0
 62
     7
100
AcDbLine
 10
236.890017884805
 20
439.110275781296
 30
0.0
 11
372.790031986367
 21
439.110275781296
 31
0.0
  0
ARC
  5
36E4
330
A
100
AcDbEntity
  8
0
  6
DASHED
 62
     4
100
AcDbCircle
 10
85.64619832594214
 20
453.1092801555323
 30
0.0
 40
0.9999999565972242
100
AcDbArc
 50
90.00000300000001
 51
180.000005
  0
LINE
  5
36E6
330
A
100
AcDbEntity
  8
0
  6
DASHED
 62
     4
 48
0.496
100
AcDbLine
 10
107.0461998971227
 20
446.109272959352
 30
0.0
 11
82.24619597351184
 21
446.109272959352
 31
0.0
  0
LINE
  5
36E8
330
A
100
AcDbEntity
  8
0
  6
DASHED
 62
     4
 48
0.14
100
AcDbLine
 10
84.70499711679305
 20
447.1092766659491
 30
0.0
 11
84.704997116793
 21
446.109272959352
 31
0.0
  0
LINE
  5
36EA
330
A
100
AcDbEntity
  8
0
  6
DASHED
 62
     4
 48
0.12
100
AcDbLine
 10
84.64620336934483
 20
447.1092766659491
 30
0.0
 11
84.64620336934483
 21
453.1092801555323
 31
0.0
  0
LINE
  5
36EB
330
A
100
AcDbEntity
  8
0
  6
DASHED
 62
     4
 48
0.012
100
AcDbLine
 10
80.64619854295616
 20
446.109272959352
 30
0.0
 11
81.24620226691432
 21
446.109272959352
 31
0.0
  0
LINE
  5
36EC
330
A
100
AcDbEntity
  8
0
  6
DASHED
 62
     4
 48
0.044
100
AcDbLine
 10
79.64620358635869
 20
445.109269252755
 30
0.0
 11
79.64620358635869
 21
442.9092755982408
 31
0.0
  0
ARC
  5
36ED
330
A
100
AcDbEntity
  8
0
  6
DASHED
 62
     4
100
AcDbCircle
 10
80.64619854295616
 20
445.109269252755
 30
0.0
 40
0.9999999565972242
100
AcDbArc
 50
90.00000300000001
 51
180.000005
  0
LINE
  5
36EE
330
A
100
AcDbEntity
  8
0
  6
DASHED
 62
     4
 48
0.001179
100
AcDbLine
 10
84.64620336934483
 20
447.1092766659491
 30
0.0
 11
84.704997116793
 21
447.1092766659491
 31
0.0
  0
LINE
  5
36EF
330
A
100
AcDbEntity
  8
0
  6
DASHED
 62
     4
 48
0.02
100
AcDbLine
 10
81.24620226691432
 20
446.109272959352
 30
0.0
 11
82.24619597351184
 21
446.109272959352
 31
0.0
  0
ARC
  5
36F9
330
A
100
AcDbEntity
  8
0
  6
DASHED
 62
     4
100
AcDbCircle
 10
103.6461987946921
 20
453.1092801555323
 30
0.0
 40
0.9999999565972242
100
AcDbArc
 50
0.0
 51
90.00000300000001
  0
LINE
  5
36FE
330
A
100
AcDbEntity
  8
0
  6
DASHED
 62
     4
 48
0.302263
100
AcDbLine
 10
87.08962201329367
 20
446.109272959352
 30
0.0
 11
102.2027838573404
 21
446.109272959352
 31
0.0
  0
LINE
  5
3702
330
A
100
AcDbEntity
  8
0
  6
DASHED
 62
     4
 48
0.028269
100
AcDbLine
 10
85.6761720746412
 20
446.109272959352
 30
0.0
 11
87.08962201329367
 21
446.109272959352
 31
0.0
  0
ARC
  5
3708
330
A
100
AcDbEntity
  8
0
  6
DASHED
 62
     4
100
AcDbCircle
 10
108.6461985776782
 20
445.109269252755
 30
0.0
 40
0.9999999565972242
100
AcDbArc
 50
0.0
 51
90.00000300000001
  0
LINE
  5
370D
330
A
100
AcDbEntity
  8
0
  6
DASHED
 62
     4
 48
0.12
100
AcDbLine
 10
104.646202501289
 20
447.1092766659491
 30
0.0
 11
104.646202501289
 21
453.1092801555323
 31
0.0
  0
LINE
  5
370E
330
A
100
AcDbEntity
  8
0
  6
DASHED
 62
     4
 48
0.020001
100
AcDbLine
 10
104.5873987538415
 20
447.1093341659466
 30
0.0
 11
104.5873987538415
 21
446.109272959352
 31
0.0
  0
LINE
  5
370F
330
A
100
AcDbEntity
  8
0
  6
DASHED
 62
     4
 48
0.028269
100
AcDbLine
 10
102.2027838573404
 20
446.109272959352
 30
0.0
 11
103.616225045993
 21
446.109272959352
 31
0.0
  0
LINE
  5
3710
330
A
100
AcDbEntity
  8
0
  6
DASHED
 62
     4
 48
0.001179
100
AcDbLine
 10
104.5872562538475
 20
447.1092766659491
 30
0.0
 11
104.646202501289
 21
447.1092766659491
 31
0.0
  0
LINE
  5
3712
330
A
100
AcDbEntity
  8
0
  6
DASHED
 62
     4
 48
0.02
100
AcDbLine
 10
107.0461998971227
 20
446.109272959352
 30
0.0
 11
108.0462036037197
 21
446.109272959352
 31
0.0
  0
LINE
  5
3715
330
A
100
AcDbEntity
  8
0
  6
DASHED
 62
     4
 48
0.012
100
AcDbLine
 10
108.0462036037197
 20
446.109272959352
 30
0.0
 11
108.6461985776782
 21
446.109272959352
 31
0.0
  0
LINE
  5
371B
330
A
100
AcDbEntity
  8
0
  6
DASHED
 62
     4
 48
0.044
100
AcDbLine
 10
109.6462022842753
 20
442.9092755982408
 30
0.0
 11
109.6462022842753
 21
445.109269252755
 31
0.0
  0
LINE
  5
371C
330
A
100
AcDbEntity
  8
0
  6
DASHED
 62
     4
 48
0.302263
100
AcDbLine
 10
102.2027838573404
 20
454.1092838621294
 30
0.0
 11
87.08962201329367
 21
454.1092838621294
 31
0.0
  0
LINE
  5
371D
330
A
100
AcDbEntity
  8
0
  6
DASHED
 62
     4
 48
0.001121
100
AcDbLine
 10
85.64619832594214
 20
454.1092838621294
 30
0.0
 11
85.70225457350916
 21
454.1092838621294
 31
0.0
  0
LINE
  5
371E
330
A
100
AcDbEntity
  8
0
  6
DASHED
 62
     4
 48
0.017692
100
AcDbLine
 10
86.58999203497904
 20
454.1092838621294
 30
0.0
 11
85.70537332337378
 21
454.1092838621294
 31
0.0
  0
LINE
  5
371F
330
A
100
AcDbEntity
  8
0
  6
DASHED
 62
     4
 48
0.009993
100
AcDbLine
 10
86.58999203497904
 20
454.1092838621294
 30
0.0
 11
87.08962201329367
 21
454.1092838621294
 31
0.0
  0
LINE
  5
3720
330
A
100
AcDbEntity
  8
0
  6
DASHED
 62
     4
 48
0.001177
100
AcDbLine
 10
103.5873575472459
 20
454.1092838621294
 30
0.0
 11
103.6461987946921
 21
454.1092838621294
 31
0.0
  0
LINE
  5
3721
330
A
100
AcDbEntity
  8
0
  6
DASHED
 62
     4
 48
0.009993
100
AcDbLine
 10
102.2027838573404
 20
454.1092838621294
 30
0.0
 11
102.7024138356551
 21
454.1092838621294
 31
0.0
  0
LINE
  5
3722
330
A
100
AcDbEntity
  8
0
  6
DASHED
 62
     4
 48
0.017692
100
AcDbLine
 10
103.5870325472602
 20
454.1092838621294
 30
0.0
 11
102.7024138356551
 21
454.1092838621294
 31
0.0
  0
LINE
  5
3724
330
A
100
AcDbEntity
  8
0
  6
DASHED
 62
     4
 48
0.377797
100
AcDbLine
 10
125.8201327055467
 20
279.4857052094457
 30
0.0
 11
124.2514152736331
 21
298.3102918924063
 31
0.0
  0
LINE
  5
3725
330
A
100
AcDbEntity
  8
0
  6
DASHED
 62
     4
 48
0.377797
100
AcDbLine
 10
144.049388164346
 20
279.4857052094457
 30
0.0
 11
145.6180868462604
 21
298.3102918924063
 31
0.0
  0
LINE
  5
3726
330
A
100
AcDbEntity
  8
0
  6
DASHED
 62
     4
 48
0.269688
100
AcDbLine
 10
144.0493793010416
 20
279.485706981596
 30
0.0
 11
125.8201327055467
 21
279.4857052094457
 31
0.0
  0
LINE
  5
3727
330
A
100
AcDbEntity
  8
0
  6
DASHED
 62
     4
 48
0.225459
100
AcDbLine
 10
142.554560650686
 20
278.1102752691432
 30
0.0
 11
127.314960140667
 21
278.1102790191431
 31
0.0
  0
ARC
  5
3728
330
A
100
AcDbEntity
  8
0
  6
DASHED
 62
     4
100
AcDbCircle
 10
127.314960140667
 20
279.6102752040389
 30
0.0
 40
1.499999934895833
100
AcDbArc
 50
184.7636419999999
 51
269.9999969999999
  0
ARC
  5
3729
330
A
100
AcDbEntity
  8
0
  6
DASHED
 62
     4
100
AcDbCircle
 10
142.554560729226
 20
279.6102752040389
 30
0.0
 40
1.499999934895833
100
AcDbArc
 50
269.9999969999999
 51
355.236358
  0
LINE
  5
372C
330
A
100
AcDbEntity
  8
0
  6
DASHED
 62
     4
 48
0.269688
100
AcDbLine
 10
53.04937836399957
 20
279.4857052094457
 30
0.0
 11
34.8201329051995
 21
279.4857052094457
 31
0.0
  0
LINE
  5
372D
330
A
100
AcDbEntity
  8
0
  6
DASHED
 62
     4
 48
0.225459
100
AcDbLine
 10
51.55456085033901
 20
278.1102752691432
 30
0.0
 11
36.31495159032022
 21
278.1102790191431
 31
0.0
  0
LINE
  5
372E
330
A
100
AcDbEntity
  8
0
  6
DASHED
 62
     4
 48
0.377797
100
AcDbLine
 10
34.8201329051995
 20
279.4857052094457
 30
0.0
 11
33.25142047328592
 21
298.3102918924063
 31
0.0
  0
ARC
  5
372F
330
A
100
AcDbEntity
  8
0
  6
DASHED
 62
     4
100
AcDbCircle
 10
36.31495159032022
 20
279.6102752040389
 30
0.0
 40
1.499999934895833
100
AcDbArc
 50
184.7636419999999
 51
269.9999969999999
  0
LINE
  5
3730
330
A
100
AcDbEntity
  8
0
  6
DASHED
 62
     4
 48
0.377797
100
AcDbLine
 10
53.04937836399957
 20
279.4857052094457
 30
0.0
 11
54.61808704591326
 21
298.3102918924063
 31
0.0
  0
ARC
  5
3731
330
A
100
AcDbEntity
  8
0
  6
DASHED
 62
     4
100
AcDbCircle
 10
51.55456092887883
 20
279.6102752040389
 30
0.0
 40
1.499999934895833
100
AcDbArc
 50
269.9999969999999
 51
355.236358
  0
LINE
  5
3734
330
A
100
AcDbEntity
  8
0
  6
DASHED
 62
     4
 48
0.342269
100
AcDbLine
 10
257.9046307227125
 20
279.4857052094457
 30
0.0
 11
239.6753952639119
 21
279.4857052094457
 31
0.0
  0
LINE
  5
3735
330
A
100
AcDbEntity
  8
0
  6
DASHED
 62
     4
 48
0.286136
100
AcDbLine
 10
256.4098220375914
 20
278.1102790191431
 30
0.0
 11
241.1702226204925
 21
278.1102752691432
 31
0.0
  0
LINE
  5
3736
330
A
100
AcDbEntity
  8
0
  6
DASHED
 62
     4
 48
0.4540600000000001
100
AcDbLine
 10
239.6753952639119
 20
279.4857052094457
 30
0.0
 11
237.7900190957424
 21
302.1102742274766
 31
0.0
  0
ARC
  5
3737
330
A
100
AcDbEntity
  8
0
  6
DASHED
 62
     4
100
AcDbCircle
 10
241.1702226990323
 20
279.6102752040389
 30
0.0
 40
1.499999934895833
100
AcDbArc
 50
184.7636419999999
 51
269.9999969999999
  0
LINE
  5
373A
330
A
100
AcDbEntity
  8
0
  6
DASHED
 62
     4
 48
0.4540600000000001
100
AcDbLine
 10
257.9046307227125
 20
279.4857052094457
 30
0.0
 11
259.7900256408812
 21
302.1102742274766
 31
0.0
  0
ARC
  5
373B
330
A
100
AcDbEntity
  8
0
  6
DASHED
 62
     4
100
AcDbCircle
 10
256.4098220375914
 20
279.6102752040389
 30
0.0
 40
1.499999934895833
100
AcDbArc
 50
269.9999969999999
 51
355.23636
  0
LINE
  5
373C
330
A
100
AcDbEntity
  8
0
  6
DASHED
 62
     4
 48
0.4540600000000001
100
AcDbLine
 10
347.6754018264116
 20
279.4857052094457
 30
0.0
 11
345.7900256582421
 21
302.1102742274766
 31
0.0
  0
LINE
  5
373D
330
A
100
AcDbEntity
  8
0
  6
DASHED
 62
     4
 48
0.4540600000000001
100
AcDbLine
 10
365.9046560352113
 20
279.4857052094457
 30
0.0
 11
367.7900322033809
 21
302.1102742274766
 31
0.0
  0
LINE
  5
373E
330
A
100
AcDbEntity
  8
0
  6
DASHED
 62
     4
 48
0.342269
100
AcDbLine
 10
365.9046560352113
 20
279.4857052094457
 30
0.0
 11
347.6754106897161
 21
279.485706981596
 31
0.0
  0
LINE
  5
373F
330
A
100
AcDbEntity
  8
0
  6
DASHED
 62
     4
 48
0.286136
100
AcDbLine
 10
364.4098298500911
 20
278.1102790191431
 30
0.0
 11
349.1702291829921
 21
278.1102752691432
 31
0.0
  0
ARC
  5
3740
330
A
100
AcDbEntity
  8
0
  6
DASHED
 62
     4
100
AcDbCircle
 10
349.1702292615319
 20
279.6102752040389
 30
0.0
 40
1.499999934895833
100
AcDbArc
 50
184.7636419999999
 51
269.9999969999999
  0
ARC
  5
3743
330
A
100
AcDbEntity
  8
0
  6
DASHED
 62
     4
100
AcDbCircle
 10
364.4098298500911
 20
279.6102752040389
 30
0.0
 40
1.499999934895833
100
AcDbArc
 50
269.9999969999999
 51
355.23636
  0
LINE
  5
3768
330
A
100
AcDbEntity
  8
0
  6
Continuous
 62
     7
100
AcDbLine
 10
166.9465617997476
 20
439.6210413301083
 30
0.0
 11
166.9465617997476
 21
301.597855576557
 31
0.0
  0
ARC
  5
3769
330
A
100
AcDbEntity
  8
0
  6
Continuous
 62
     7
100
AcDbCircle
 10
163.9630793800454
 20
439.6261525928196
 30
0.0
 40
2.983123668810018
100
AcDbArc
 50
359.9019570000005
 51
90.09804299999952
  0
LINE
  5
376A
330
A
100
AcDbEntity
  8
0
  6
Continuous
 62
     7
100
AcDbLine
 10
25.93478736379532
 20
442.6096350125217
 30
0.0
 11
163.9579868673807
 21
442.6096350125217
 31
0.0
  0
ARC
  5
376B
330
A
100
AcDbEntity
  8
0
  6
Continuous
 62
     7
100
AcDbCircle
 10
163.9461994665674
 20
439.6092771919906
 30
0.0
 40
3.299999656250037
100
AcDbArc
 50
0.0000100000010064
 51
89.99999200000019
  0
ARC
  5
376C
330
A
100
AcDbEntity
  8
0
  6
Continuous
 62
     7
100
AcDbCircle
 10
25.92968485110572
 20
439.6261525928196
 30
0.0
 40
2.983123668810018
100
AcDbArc
 50
89.90195499999966
 51
180.0980459999983
  0
LINE
  5
376D
330
A
100
AcDbEntity
  8
0
  6
Continuous
 62
     7
100
AcDbLine
 10
22.94619868139422
 20
301.597855576557
 30
0.0
 11
22.94619868139422
 21
439.6210413301083
 31
0.0
  0
LINE
  5
376E
330
A
100
AcDbEntity
  8
0
  6
Continuous
 62
     7
100
AcDbLine
 10
163.9579868673807
 20
298.6092618941434
 30
0.0
 11
25.93478736379532
 21
298.6092618941434
 31
0.0
  0
ARC
  5
376F
330
A
100
AcDbEntity
  8
0
  6
Continuous
 62
     7
100
AcDbCircle
 10
25.92968485110572
 20
301.5927443138456
 30
0.0
 40
2.983123668810018
100
AcDbArc
 50
179.9019509999995
 51
270.0980549999997
  0
ARC
  5
3770
330
A
100
AcDbEntity
  8
0
  6
Continuous
 62
     7
100
AcDbCircle
 10
163.9630793800454
 20
301.5927443138456
 30
0.0
 40
2.983123668810018
100
AcDbArc
 50
269.9019570000004
 51
0.0980429999995006
  0
LINE
  5
38A2
330
A
100
AcDbEntity
  8
0
 62
     7
 48
0.34375
100
AcDbLine
 10
416.7900235966122
 20
331.6101701250585
 30
0.0
 11
388.7900175688329
 21
331.6101701250585
 31
0.0
  0
LINE
  5
38A3
330
A
100
AcDbEntity
  8
0
 62
     7
 48
0.34375
100
AcDbLine
 10
388.7900175688329
 20
322.6101681875583
 30
0.0
 11
416.7900235966122
 21
322.6101681875583
 31
0.0
  0
LINE
  5
38A4
330
A
100
AcDbEntity
  8
0
 62
     7
 48
0.03875
100
AcDbLine
 10
424.3100452155058
 20
354.1101749688097
 30
0.0
 11
384.7900167077217
 21
354.1101749688097
 31
0.0
  0
LINE
  5
38A5
330
A
100
AcDbEntity
  8
0
 62
     7
 48
0.3875
100
AcDbLine
 10
385.2900168153608
 20
304.1101642049185
 30
0.0
 11
416.2900234889733
 21
304.1101642049185
 31
0.0
  0
LINE
  5
38A6
330
A
100
AcDbEntity
  8
0
 62
     7
 48
0.044382
100
AcDbLine
 10
391.2900421070328
 20
329.5101636729739
 30
0.0
 11
391.2900181070277
 21
324.7101746396427
 31
0.0
  0
LINE
  5
38A7
330
A
100
AcDbEntity
  8
0
 62
     7
 48
0.1125
100
AcDbLine
 10
388.7900175688329
 20
322.6101681875583
 30
0.0
 11
388.7900175688329
 21
331.6101701250585
 31
0.0
  0
LINE
  5
38A8
330
A
100
AcDbEntity
  8
0
 62
     7
 48
0.019522
100
AcDbLine
 10
389.290017676472
 20
331.1101700174198
 30
0.0
 11
389.290017676472
 21
323.110168295197
 31
0.0
  0
LINE
  5
38A9
330
A
100
AcDbEntity
  8
0
 62
     7
 48
0.1
100
AcDbLine
 10
383.7900164924439
 20
331.1101700174198
 30
0.0
 11
383.7900164924439
 21
323.110168295197
 31
0.0
  0
LINE
  5
38AA
330
A
100
AcDbEntity
  8
0
 62
     7
 48
0.021339
100
AcDbLine
 10
383.2900163848051
 20
305.6101645278352
 30
0.0
 11
384.4971086446652
 21
304.4030402679675
 31
0.0
  0
LINE
  5
38AB
330
A
100
AcDbEntity
  8
0
 62
     7
 48
0.21875
100
AcDbLine
 10
383.2900163848051
 20
323.110168295197
 30
0.0
 11
383.2900163848051
 21
305.6101645278352
 31
0.0
  0
LINE
  5
38AC
330
A
100
AcDbEntity
  8
0
 62
     7
 48
0.00625
100
AcDbLine
 10
383.2900163848051
 20
323.110168295197
 30
0.0
 11
383.7900164924439
 21
323.110168295197
 31
0.0
  0
LINE
  5
38AD
330
A
100
AcDbEntity
  8
0
 62
     7
 48
0.006252
100
AcDbLine
 10
383.2900163848051
 20
323.6102904028619
 30
0.0
 11
383.2900163848051
 21
323.110168295197
 31
0.0
  0
LINE
  5
38AE
330
A
100
AcDbEntity
  8
0
 62
     7
 48
0.00625
100
AcDbLine
 10
385.2900168153608
 20
304.1101642049185
 30
0.0
 11
384.7900167077217
 21
304.1101642049185
 31
0.0
  0
LINE
  5
38AF
330
A
100
AcDbEntity
  8
0
 62
     7
 48
0.001768
100
AcDbLine
 10
384.7900167077217
 20
304.1101642049185
 30
0.0
 11
384.690040686199
 21
304.2101702264473
 31
0.0
  0
LINE
  5
38B0
330
A
100
AcDbEntity
  8
0
 62
     7
 48
0.002121
100
AcDbLine
 10
384.690040686199
 20
304.2101702264473
 30
0.0
 11
384.5700466603671
 21
304.3301662522797
 31
0.0
  0
LINE
  5
38B1
330
A
100
AcDbEntity
  8
0
 62
     7
 48
0.001289
100
AcDbLine
 10
384.4971086446652
 20
304.4030402679675
 30
0.0
 11
384.5700466603671
 21
304.3301662522797
 31
0.0
  0
LINE
  5
38B2
330
A
100
AcDbEntity
  8
0
 62
     7
 48
0.0175
100
AcDbLine
 10
390.6900419778662
 20
324.110168510475
 30
0.0
 11
389.290017676472
 21
324.110168510475
 31
0.0
  0
LINE
  5
38B3
330
A
100
AcDbEntity
  8
0
 62
     7
 48
0.008839
100
AcDbLine
 10
389.290017676472
 20
323.110168295197
 30
0.0
 11
388.7900175688329
 21
322.6101681875583
 31
0.0
  0
ARC
  5
38B4
330
A
100
AcDbEntity
  8
0
 62
     7
100
AcDbCircle
 10
390.6900419778662
 20
324.7101746396427
 30
0.0
 40
0.6000001291666948
100
AcDbArc
 50
269.9999970000023
 51
0.0
  0
LINE
  5
38B5
330
A
100
AcDbEntity
  8
0
 62
     7
 48
0.021339
100
AcDbLine
 10
383.2900163848051
 20
352.6101746458929
 30
0.0
 11
384.7900167077217
 21
354.1101749688097
 31
0.0
  0
LINE
  5
38B6
330
A
100
AcDbEntity
  8
0
 62
     7
 48
0.26875
100
AcDbLine
 10
383.2900163848051
 20
352.6101746458929
 30
0.0
 11
383.2900163848051
 21
331.1101700174198
 31
0.0
  0
LINE
  5
38B7
330
A
100
AcDbEntity
  8
0
 62
     7
 48
0.00625
100
AcDbLine
 10
383.2900163848051
 20
331.1101700174198
 30
0.0
 11
383.7900164924439
 21
331.1101700174198
 31
0.0
  0
LINE
  5
38B8
330
A
100
AcDbEntity
  8
0
 62
     7
 48
0.006252
100
AcDbLine
 10
383.2900163848051
 20
331.1101700174198
 30
0.0
 11
383.2900163848051
 21
330.6100179097481
 31
0.0
  0
LINE
  5
38B9
330
A
100
AcDbEntity
  8
0
 62
     7
 48
0.0175
100
AcDbLine
 10
390.6900419778662
 20
330.1101698021419
 30
0.0
 11
389.290017676472
 21
330.1101698021419
 31
0.0
  0
LINE
  5
38BA
330
A
100
AcDbEntity
  8
0
 62
     7
 48
0.008839
100
AcDbLine
 10
389.290017676472
 20
331.1101700174198
 30
0.0
 11
388.7900175688329
 21
331.6101701250585
 31
0.0
  0
ARC
  5
38BB
330
A
100
AcDbEntity
  8
0
 62
     7
100
AcDbCircle
 10
390.6900419778662
 20
329.5101636729739
 30
0.0
 40
0.6000001291666948
100
AcDbArc
 50
0.0
 51
90.00000299999769
  0
LINE
  5
38BC
330
A
100
AcDbEntity
  8
0
 62
     7
 48
0.225895
100
AcDbLine
 10
416.7900235966122
 20
306.210170657003
 30
0.0
 11
416.7900235966122
 21
354.1101749688097
 31
0.0
  0
LINE
  5
38BD
330
A
100
AcDbEntity
  8
0
 62
     7
 48
0.232145
100
AcDbLine
 10
438.8900043542469
 20
305.7101705493641
 30
0.0
 11
438.8900043542469
 21
342.9747045715903
 31
0.0
  0
LINE
  5
38BE
330
A
100
AcDbEntity
  8
0
 62
     7
 48
0.23125
100
AcDbLine
 10
416.7900235966122
 20
324.2817385474102
 30
0.0
 11
438.8900043542469
 21
324.2817385474102
 31
0.0
  0
LINE
  5
38BF
330
A
100
AcDbEntity
  8
0
 62
     7
 48
0.21875
100
AcDbLine
 10
438.390004220428
 20
305.2101704417248
 30
0.0
 11
417.79002381189
 21
305.2101704417249
 31
0.0
  0
LINE
  5
38C0
330
A
100
AcDbEntity
  8
0
 62
     7
 48
0.225
100
AcDbLine
 10
416.7900235966122
 20
304.6101643125574
 30
0.0
 11
416.7900235966122
 21
322.6101681875583
 31
0.0
  0
LINE
  5
38C1
330
A
100
AcDbEntity
  8
0
 62
     7
 48
0.007499
100
AcDbLine
 10
419.8900002639677
 20
304.6101643125574
 30
0.0
 11
419.8900002639677
 21
305.2100484416989
 31
0.0
  0
ARC
  5
38C2
330
A
100
AcDbEntity
  8
0
 62
     7
100
AcDbCircle
 10
419.3900001563291
 20
304.6101643125574
 30
0.0
 40
0.5000001076389125
100
AcDbArc
 50
270.0000010000014
 51
0.0000100000010064
  0
ARC
  5
38C3
330
A
100
AcDbEntity
  8
0
 62
     7
100
AcDbCircle
 10
416.2900234889733
 20
304.6101643125574
 30
0.0
 40
0.5000001076389125
100
AcDbArc
 50
270.0000010000014
 51
0.0000100000010064
  0
LINE
  5
38C4
330
A
100
AcDbEntity
  8
0
 62
     7
 48
0.038625
100
AcDbLine
 10
416.2999714911144
 20
304.1101642049185
 30
0.0
 11
419.3900001563291
 21
304.1101642049185
 31
0.0
  0
ARC
  5
38C5
330
A
100
AcDbEntity
  8
0
 62
     7
100
AcDbCircle
 10
417.79002381189
 20
306.210170657003
 30
0.0
 40
1.000000215277824
100
AcDbArc
 50
180.0000050000005
 51
270.0000010000014
  0
ARC
  5
38C6
330
A
100
AcDbEntity
  8
0
 62
     7
100
AcDbCircle
 10
438.390004246608
 20
305.7101705493641
 30
0.0
 40
0.5000001076389125
100
AcDbArc
 50
269.9999970000023
 51
0.0
  0
ARC
  5
38C7
330
A
100
AcDbEntity
  8
0
 62
     7
100
AcDbCircle
 10
432.3798089527462
 20
349.7101800215885
 30
0.0
 40
3.000000645833473
100
AcDbArc
 50
29.48037299999909
 51
90.00000299999769
  0
LINE
  5
38C8
330
A
100
AcDbEntity
  8
0
 62
     7
 48
0.155781
100
AcDbLine
 10
420.737412446397
 20
347.85593162241
 30
0.0
 11
436.8742037484579
 21
347.8559316224099
 31
0.0
  0
LINE
  5
38C9
330
A
100
AcDbEntity
  8
0
 62
     7
 48
0.181908
100
AcDbLine
 10
438.8900043542467
 20
342.5644264832663
 30
0.0
 11
420.737412446397
 21
342.5644264832663
 31
0.0
  0
LINE
  5
38CA
330
A
100
AcDbEntity
  8
0
 62
     7
 48
0.23125
100
AcDbLine
 10
416.7900235966122
 20
329.9385997652064
 30
0.0
 11
438.8900043542469
 21
329.9385997652064
 31
0.0
  0
LINE
  5
38CB
330
A
100
AcDbEntity
  8
0
 62
     7
 48
0.044383
100
AcDbLine
 10
420.7900484577287
 20
347.6101735695038
 30
0.0
 11
420.7900244577235
 21
342.8101545361664
 31
0.0
  0
LINE
  5
38CC
330
A
100
AcDbEntity
  8
0
 62
     7
 48
0.01875
100
AcDbLine
 10
418.7900240271678
 20
352.2101805597829
 30
0.0
 11
418.7900240271678
 21
338.2101775458934
 31
0.0
  0
ARC
  5
38CD
330
A
100
AcDbEntity
  8
0
 62
     7
100
AcDbCircle
 10
420.1900483285618
 20
342.8101545361664
 30
0.0
 40
0.6000001291666948
100
AcDbArc
 50
269.9999970000023
 51
0.0
  0
ARC
  5
38CE
330
A
100
AcDbEntity
  8
0
 62
     7
100
AcDbCircle
 10
418.2900239195291
 20
338.2101775458934
 30
0.0
 40
0.5000001076389125
100
AcDbArc
 50
270.0000010000014
 51
0.0000100000010064
  0
LINE
  5
38CF
330
A
100
AcDbEntity
  8
0
 62
     7
 48
0.0175
100
AcDbLine
 10
420.1900483285618
 20
342.2101784070047
 30
0.0
 11
418.7900240271678
 21
342.2101784070047
 31
0.0
  0
LINE
  5
38D0
330
A
100
AcDbEntity
  8
0
 62
     7
 48
0.01875
100
AcDbLine
 10
416.7900235966122
 20
337.7101774382545
 30
0.0
 11
418.2900239195291
 21
337.7101774382545
 31
0.0
  0
ARC
  5
38D1
330
A
100
AcDbEntity
  8
0
 62
     7
100
AcDbCircle
 10
420.1900483285618
 20
347.6101735695038
 30
0.0
 40
0.6000001291666948
100
AcDbArc
 50
0.0
 51
90.00000299999769
  0
LINE
  5
38D2
330
A
100
AcDbEntity
  8
0
 62
     7
 48
0.137372
100
AcDbLine
 10
432.3798087956665
 20
352.7101806674217
 30
0.0
 11
416.7900235966122
 21
352.7101806674217
 31
0.0
  0
ARC
  5
38D3
330
A
100
AcDbEntity
  8
0
 62
     7
100
AcDbCircle
 10
418.2900239195291
 20
352.2101805597829
 30
0.0
 40
0.5000001076389125
100
AcDbArc
 50
0.0
 51
90.00000299999769
  0
LINE
  5
38D4
330
A
100
AcDbEntity
  8
0
 62
     7
 48
0.0175
100
AcDbLine
 10
420.1900483285618
 20
348.2101796986716
 30
0.0
 11
418.7900240271678
 21
348.2101796986716
 31
0.0
  0
LINE
  5
38D5
330
A
100
AcDbEntity
  8
0
 62
     7
 48
0.011251
100
AcDbLine
 10
424.8100453231446
 20
353.6101748611708
 30
0.0
 11
424.8100453231446
 21
352.7100586673958
 31
0.0
  0
LINE
  5
38D6
330
A
100
AcDbEntity
  8
0
 62
     7
 48
0.00125
100
AcDbLine
 10
424.8100453231446
 20
353.1901607707509
 30
0.0
 11
424.9100213446673
 21
353.1901607707509
 31
0.0
  0
LINE
  5
38D7
330
A
100
AcDbEntity
  8
0
 62
     7
 48
0.006
100
AcDbLine
 10
424.8100453231446
 20
353.1901607707509
 30
0.0
 11
424.8100453231446
 21
352.7101806674217
 31
0.0
  0
LINE
  5
38D8
330
A
100
AcDbEntity
  8
0
 62
     7
 48
0.006
100
AcDbLine
 10
424.9100213446673
 20
353.1901607707509
 30
0.0
 11
424.9100213446673
 21
352.7101806674217
 31
0.0
  0
LINE
  5
38D9
330
A
100
AcDbEntity
  8
0
 62
     7
 48
0.01125
100
AcDbLine
 10
421.7100086557755
 20
353.6101748611708
 30
0.0
 11
421.7100086557755
 21
352.7101806674217
 31
0.0
  0
ARC
  5
38DA
330
A
100
AcDbEntity
  8
0
 62
     7
100
AcDbCircle
 10
421.2100085481367
 20
353.6101748611708
 30
0.0
 40
0.5000001076389125
100
AcDbArc
 50
0.0
 51
90.00000299999769
  0
LINE
  5
38DB
330
A
100
AcDbEntity
  8
0
 62
     7
 48
0.00125
100
AcDbLine
 10
421.7100086557755
 20
353.1901607707509
 30
0.0
 11
421.8100446773112
 21
353.1901607707509
 31
0.0
  0
LINE
  5
38DC
330
A
100
AcDbEntity
  8
0
 62
     7
 48
0.006
100
AcDbLine
 10
421.7100086557755
 20
353.1901607707509
 30
0.0
 11
421.7100086557755
 21
352.7101806674217
 31
0.0
  0
LINE
  5
38DD
330
A
100
AcDbEntity
  8
0
 62
     7
 48
0.006
100
AcDbLine
 10
421.8100446773112
 20
353.1901607707509
 30
0.0
 11
421.8100446773112
 21
352.7101806674217
 31
0.0
  0
ARC
  5
38DE
330
A
100
AcDbEntity
  8
0
 62
     7
100
AcDbCircle
 10
424.3100452155058
 20
353.6101748611708
 30
0.0
 40
0.5000001076389125
100
AcDbArc
 50
0.0
 51
90.00000299999769
  0
LINE
  5
38DF
330
A
100
AcDbEntity
  8
0
 62
     7
 48
0.000301
100
AcDbLine
 10
438.2426642148884
 20
345.4353071013034
 30
0.0
 11
438.2308242123399
 21
345.4562431058103
 31
0.0
  0
ARC
  5
38E0
330
A
100
AcDbEntity
  8
0
 62
     7
100
AcDbCircle
 10
433.8900032778576
 20
342.9747045715903
 30
0.0
 40
5.000001076389123
100
AcDbArc
 50
0.0
 51
29.48037299999909
  0
LINE
  5
38E1
330
A
100
AcDbEntity
  8
0
 62
     7
 48
0.044291
100
AcDbLine
 10
436.735095890343
 20
348.101995675382
 30
0.0
 11
434.9913835149604
 21
351.1865603394202
 31
0.0
  0
LINE
  5
38E2
330
A
100
AcDbEntity
  8
0
 62
     7
 48
0.037991
100
AcDbLine
 10
438.2308242123399
 20
345.4562431058103
 30
0.0
 11
436.735095890343
 21
348.101995675382
 31
0.0
  0
LINE
  5
38E3
330
A
100
AcDbEntity
  8
0
 62
     7
 48
0.34375
100
AcDbLine
 10
419.8900370236944
 20
383.6101722083916
 30
0.0
 11
391.8900309959151
 21
383.6101722083916
 31
0.0
  0
LINE
  5
38E4
330
A
100
AcDbEntity
  8
0
 62
     7
 48
0.34375
100
AcDbLine
 10
391.8900309959151
 20
374.6101702708914
 30
0.0
 11
419.8900370236944
 21
374.6101702708914
 31
0.0
  0
LINE
  5
38E5
330
A
100
AcDbEntity
  8
0
 62
     7
 48
0.03875
100
AcDbLine
 10
427.410058642588
 20
406.1101770521428
 30
0.0
 11
387.8900301348039
 21
406.1101770521428
 31
0.0
  0
LINE
  5
38E6
330
A
100
AcDbEntity
  8
0
 62
     7
 48
0.3875
100
AcDbLine
 10
388.390030242443
 20
356.1101662882516
 30
0.0
 11
419.3900369160554
 21
356.1101662882516
 31
0.0
  0
LINE
  5
38E7
330
A
100
AcDbEntity
  8
0
 62
     7
 48
0.044382
100
AcDbLine
 10
394.390055534115
 20
381.510165756307
 30
0.0
 11
394.3900315341098
 21
376.7101767229758
 31
0.0
  0
LINE
  5
38E8
330
A
100
AcDbEntity
  8
0
 62
     7
 48
0.1125
100
AcDbLine
 10
391.8900309959151
 20
374.6101702708914
 30
0.0
 11
391.8900309959151
 21
383.6101722083916
 31
0.0
  0
LINE
  5
38E9
330
A
100
AcDbEntity
  8
0
 62
     7
 48
0.019522
100
AcDbLine
 10
392.3900311035541
 20
383.1101721007529
 30
0.0
 11
392.3900311035541
 21
375.1101703785301
 31
0.0
  0
LINE
  5
38EA
330
A
100
AcDbEntity
  8
0
 62
     7
 48
0.1
100
AcDbLine
 10
386.890029919526
 20
383.1101721007529
 30
0.0
 11
386.890029919526
 21
375.1101703785301
 31
0.0
  0
LINE
  5
38EB
330
A
100
AcDbEntity
  8
0
 62
     7
 48
0.021339
100
AcDbLine
 10
386.3900298118873
 20
357.6101666111683
 30
0.0
 11
387.5971220717474
 21
356.4030423513006
 31
0.0
  0
LINE
  5
38EC
330
A
100
AcDbEntity
  8
0
 62
     7
 48
0.21875
100
AcDbLine
 10
386.3900298118873
 20
375.1101703785301
 30
0.0
 11
386.3900298118873
 21
357.6101666111683
 31
0.0
  0
LINE
  5
38ED
330
A
100
AcDbEntity
  8
0
 62
     7
 48
0.00625
100
AcDbLine
 10
386.3900298118873
 20
375.1101703785301
 30
0.0
 11
386.890029919526
 21
375.1101703785301
 31
0.0
  0
LINE
  5
38EE
330
A
100
AcDbEntity
  8
0
 62
     7
 48
0.006252
100
AcDbLine
 10
386.3900298118873
 20
375.610292486195
 30
0.0
 11
386.3900298118873
 21
375.1101703785301
 31
0.0
  0
LINE
  5
38EF
330
A
100
AcDbEntity
  8
0
 62
     7
 48
0.00625
100
AcDbLine
 10
388.390030242443
 20
356.1101662882516
 30
0.0
 11
387.8900301348039
 21
356.1101662882516
 31
0.0
  0
LINE
  5
38F0
330
A
100
AcDbEntity
  8
0
 62
     7
 48
0.001768
100
AcDbLine
 10
387.8900301348039
 20
356.1101662882516
 30
0.0
 11
387.7900541132812
 21
356.2101723097804
 31
0.0
  0
LINE
  5
38F1
330
A
100
AcDbEntity
  8
0
 62
     7
 48
0.002121
100
AcDbLine
 10
387.7900541132812
 20
356.2101723097804
 30
0.0
 11
387.6700600874493
 21
356.3301683356129
 31
0.0
  0
LINE
  5
38F2
330
A
100
AcDbEntity
  8
0
 62
     7
 48
0.001289
100
AcDbLine
 10
387.5971220717474
 20
356.4030423513006
 30
0.0
 11
387.6700600874493
 21
356.3301683356129
 31
0.0
  0
LINE
  5
38F3
330
A
100
AcDbEntity
  8
0
 62
     7
 48
0.0175
100
AcDbLine
 10
393.7900554049483
 20
376.1101705938081
 30
0.0
 11
392.3900311035541
 21
376.1101705938081
 31
0.0
  0
LINE
  5
38F4
330
A
100
AcDbEntity
  8
0
 62
     7
 48
0.008839
100
AcDbLine
 10
392.3900311035541
 20
375.1101703785301
 30
0.0
 11
391.8900309959151
 21
374.6101702708914
 31
0.0
  0
ARC
  5
38F5
330
A
100
AcDbEntity
  8
0
 62
     7
100
AcDbCircle
 10
393.7900554049483
 20
376.7101767229758
 30
0.0
 40
0.6000001291666948
100
AcDbArc
 50
269.9999970000023
 51
0.0
  0
LINE
  5
38F6
330
A
100
AcDbEntity
  8
0
 62
     7
 48
0.021339
100
AcDbLine
 10
386.3900298118873
 20
404.6101767292261
 30
0.0
 11
387.8900301348039
 21
406.1101770521428
 31
0.0
  0
LINE
  5
38F7
330
A
100
AcDbEntity
  8
0
 62
     7
 48
0.26875
100
AcDbLine
 10
386.3900298118873
 20
404.6101767292261
 30
0.0
 11
386.3900298118873
 21
383.1101721007529
 31
0.0
  0
LINE
  5
38F8
330
A
100
AcDbEntity
  8
0
 62
     7
 48
0.00625
100
AcDbLine
 10
386.3900298118873
 20
383.1101721007529
 30
0.0
 11
386.890029919526
 21
383.1101721007529
 31
0.0
  0
LINE
  5
38F9
330
A
100
AcDbEntity
  8
0
 62
     7
 48
0.006252
100
AcDbLine
 10
386.3900298118873
 20
383.1101721007529
 30
0.0
 11
386.3900298118873
 21
382.6100199930812
 31
0.0
  0
LINE
  5
38FA
330
A
100
AcDbEntity
  8
0
 62
     7
 48
0.0175
100
AcDbLine
 10
393.7900554049483
 20
382.110171885475
 30
0.0
 11
392.3900311035541
 21
382.110171885475
 31
0.0
  0
LINE
  5
38FB
330
A
100
AcDbEntity
  8
0
 62
     7
 48
0.008839
100
AcDbLine
 10
392.3900311035541
 20
383.1101721007529
 30
0.0
 11
391.8900309959151
 21
383.6101722083916
 31
0.0
  0
ARC
  5
38FC
330
A
100
AcDbEntity
  8
0
 62
     7
100
AcDbCircle
 10
393.7900554049483
 20
381.510165756307
 30
0.0
 40
0.6000001291666948
100
AcDbArc
 50
0.0
 51
90.00000299999769
  0
LINE
  5
38FD
330
A
100
AcDbEntity
  8
0
 62
     7
 48
0.225895
100
AcDbLine
 10
419.8900370236944
 20
358.210172740336
 30
0.0
 11
419.8900370236944
 21
406.1101770521428
 31
0.0
  0
LINE
  5
38FE
330
A
100
AcDbEntity
  8
0
 62
     7
 48
0.232145
100
AcDbLine
 10
441.9900177813291
 20
357.7101726326972
 30
0.0
 11
441.9900177813291
 21
394.9747066549234
 31
0.0
  0
LINE
  5
38FF
330
A
100
AcDbEntity
  8
0
 62
     7
 48
0.23125
100
AcDbLine
 10
419.8900370236944
 20
376.2817406307433
 30
0.0
 11
441.9900177813291
 21
376.2817406307433
 31
0.0
  0
LINE
  5
3900
330
A
100
AcDbEntity
  8
0
 62
     7
 48
0.21875
100
AcDbLine
 10
441.4900176475101
 20
357.2101725250579
 30
0.0
 11
420.8900372389722
 21
357.210172525058
 31
0.0
  0
LINE
  5
3901
330
A
100
AcDbEntity
  8
0
 62
     7
 48
0.225
100
AcDbLine
 10
419.8900370236944
 20
356.6101663958904
 30
0.0
 11
419.8900370236944
 21
374.6101702708914
 31
0.0
  0
LINE
  5
3902
330
A
100
AcDbEntity
  8
0
 62
     7
 48
0.007499
100
AcDbLine
 10
422.9900136910499
 20
356.6101663958904
 30
0.0
 11
422.9900136910499
 21
357.210050525032
 31
0.0
  0
ARC
  5
3903
330
A
100
AcDbEntity
  8
0
 62
     7
100
AcDbCircle
 10
422.4900135834112
 20
356.6101663958904
 30
0.0
 40
0.5000001076389125
100
AcDbArc
 50
270.0000010000014
 51
0.0000100000010064
  0
ARC
  5
3904
330
A
100
AcDbEntity
  8
0
 62
     7
100
AcDbCircle
 10
419.3900369160554
 20
356.6101663958904
 30
0.0
 40
0.5000001076389125
100
AcDbArc
 50
270.0000010000014
 51
0.0000100000010064
  0
LINE
  5
3905
330
A
100
AcDbEntity
  8
0
 62
     7
 48
0.038625
100
AcDbLine
 10
419.3999849181966
 20
356.1101662882516
 30
0.0
 11
422.4900135834112
 21
356.1101662882516
 31
0.0
  0
ARC
  5
3906
330
A
100
AcDbEntity
  8
0
 62
     7
100
AcDbCircle
 10
420.8900372389722
 20
358.210172740336
 30
0.0
 40
1.000000215277824
100
AcDbArc
 50
180.0000050000005
 51
270.0000010000014
  0
ARC
  5
3907
330
A
100
AcDbEntity
  8
0
 62
     7
100
AcDbCircle
 10
441.4900176736901
 20
357.7101726326972
 30
0.0
 40
0.5000001076389125
100
AcDbArc
 50
269.9999970000023
 51
0.0
  0
ARC
  5
3908
330
A
100
AcDbEntity
  8
0
 62
     7
100
AcDbCircle
 10
435.4798223798284
 20
401.7101821049216
 30
0.0
 40
3.000000645833473
100
AcDbArc
 50
29.48037299999909
 51
90.00000299999769
  0
LINE
  5
3909
330
A
100
AcDbEntity
  8
0
 62
     7
 48
0.155781
100
AcDbLine
 10
423.8374258734792
 20
399.8559337057431
 30
0.0
 11
439.97421717554
 21
399.8559337057429
 31
0.0
  0
LINE
  5
390A
330
A
100
AcDbEntity
  8
0
 62
     7
 48
0.181908
100
AcDbLine
 10
441.9900177813288
 20
394.5644285665995
 30
0.0
 11
423.8374258734792
 21
394.5644285665995
 31
0.0
  0
LINE
  5
390B
330
A
100
AcDbEntity
  8
0
 62
     7
 48
0.23125
100
AcDbLine
 10
419.8900370236944
 20
381.9386018485396
 30
0.0
 11
441.9900177813291
 21
381.9386018485396
 31
0.0
  0
LINE
  5
390C
330
A
100
AcDbEntity
  8
0
 62
     7
 48
0.044383
100
AcDbLine
 10
423.8900618848108
 20
399.6101756528369
 30
0.0
 11
423.8900378848057
 21
394.8101566194994
 31
0.0
  0
LINE
  5
390D
330
A
100
AcDbEntity
  8
0
 62
     7
 48
0.01875
100
AcDbLine
 10
421.8900374542499
 20
404.210182643116
 30
0.0
 11
421.8900374542499
 21
390.2101796292265
 31
0.0
  0
ARC
  5
390E
330
A
100
AcDbEntity
  8
0
 62
     7
100
AcDbCircle
 10
423.290061755644
 20
394.8101566194994
 30
0.0
 40
0.6000001291666948
100
AcDbArc
 50
269.9999970000023
 51
0.0
  0
ARC
  5
390F
330
A
100
AcDbEntity
  8
0
 62
     7
100
AcDbCircle
 10
421.3900373466112
 20
390.2101796292265
 30
0.0
 40
0.5000001076389125
100
AcDbArc
 50
270.0000010000014
 51
0.0000100000010064
  0
LINE
  5
3910
330
A
100
AcDbEntity
  8
0
 62
     7
 48
0.0175
100
AcDbLine
 10
423.290061755644
 20
394.2101804903377
 30
0.0
 11
421.8900374542499
 21
394.2101804903377
 31
0.0
  0
LINE
  5
3911
330
A
100
AcDbEntity
  8
0
 62
     7
 48
0.01875
100
AcDbLine
 10
419.8900370236944
 20
389.7101795215876
 30
0.0
 11
421.3900373466112
 21
389.7101795215876
 31
0.0
  0
ARC
  5
3912
330
A
100
AcDbEntity
  8
0
 62
     7
100
AcDbCircle
 10
423.290061755644
 20
399.6101756528369
 30
0.0
 40
0.6000001291666948
100
AcDbArc
 50
0.0
 51
90.00000299999769
  0
LINE
  5
3913
330
A
100
AcDbEntity
  8
0
 62
     7
 48
0.137372
100
AcDbLine
 10
435.4798222227486
 20
404.7101827507548
 30
0.0
 11
419.8900370236944
 21
404.7101827507548
 31
0.0
  0
ARC
  5
3914
330
A
100
AcDbEntity
  8
0
 62
     7
100
AcDbCircle
 10
421.3900373466112
 20
404.210182643116
 30
0.0
 40
0.5000001076389125
100
AcDbArc
 50
0.0
 51
90.00000299999769
  0
LINE
  5
3915
330
A
100
AcDbEntity
  8
0
 62
     7
 48
0.0175
100
AcDbLine
 10
423.290061755644
 20
400.2101817820046
 30
0.0
 11
421.8900374542499
 21
400.2101817820046
 31
0.0
  0
LINE
  5
3916
330
A
100
AcDbEntity
  8
0
 62
     7
 48
0.011251
100
AcDbLine
 10
427.9100587502267
 20
405.6101769445039
 30
0.0
 11
427.9100587502267
 21
404.7100607507288
 31
0.0
  0
LINE
  5
3917
330
A
100
AcDbEntity
  8
0
 62
     7
 48
0.00125
100
AcDbLine
 10
427.9100587502267
 20
405.1901628540839
 30
0.0
 11
428.0100347717494
 21
405.1901628540839
 31
0.0
  0
LINE
  5
3918
330
A
100
AcDbEntity
  8
0
 62
     7
 48
0.006
100
AcDbLine
 10
427.9100587502267
 20
405.1901628540839
 30
0.0
 11
427.9100587502267
 21
404.7101827507548
 31
0.0
  0
LINE
  5
3919
330
A
100
AcDbEntity
  8
0
 62
     7
 48
0.006
100
AcDbLine
 10
428.0100347717494
 20
405.1901628540839
 30
0.0
 11
428.0100347717494
 21
404.7101827507548
 31
0.0
  0
LINE
  5
391A
330
A
100
AcDbEntity
  8
0
 62
     7
 48
0.01125
100
AcDbLine
 10
424.8100220828576
 20
405.6101769445039
 30
0.0
 11
424.8100220828576
 21
404.7101827507548
 31
0.0
  0
ARC
  5
391B
330
A
100
AcDbEntity
  8
0
 62
     7
100
AcDbCircle
 10
424.3100219752188
 20
405.6101769445039
 30
0.0
 40
0.5000001076389125
100
AcDbArc
 50
0.0
 51
90.00000299999769
  0
LINE
  5
391C
330
A
100
AcDbEntity
  8
0
 62
     7
 48
0.00125
100
AcDbLine
 10
424.8100220828576
 20
405.1901628540839
 30
0.0
 11
424.9100581043934
 21
405.1901628540839
 31
0.0
  0
LINE
  5
391D
330
A
100
AcDbEntity
  8
0
 62
     7
 48
0.006
100
AcDbLine
 10
424.8100220828576
 20
405.1901628540839
 30
0.0
 11
424.8100220828576
 21
404.7101827507548
 31
0.0
  0
LINE
  5
391E
330
A
100
AcDbEntity
  8
0
 62
     7
 48
0.006
100
AcDbLine
 10
424.9100581043934
 20
405.1901628540839
 30
0.0
 11
424.9100581043934
 21
404.7101827507548
 31
0.0
  0
ARC
  5
391F
330
A
100
AcDbEntity
  8
0
 62
     7
100
AcDbCircle
 10
427.410058642588
 20
405.6101769445039
 30
0.0
 40
0.5000001076389125
100
AcDbArc
 50
0.0
 51
90.00000299999769
  0
LINE
  5
3920
330
A
100
AcDbEntity
  8
0
 62
     7
 48
0.000301
100
AcDbLine
 10
441.3426776419706
 20
397.4353091846364
 30
0.0
 11
441.3308376394221
 21
397.4562451891433
 31
0.0
  0
ARC
  5
3921
330
A
100
AcDbEntity
  8
0
 62
     7
100
AcDbCircle
 10
436.9900167049398
 20
394.9747066549234
 30
0.0
 40
5.000001076389123
100
AcDbArc
 50
0.0
 51
29.48037299999909
  0
LINE
  5
3922
330
A
100
AcDbEntity
  8
0
 62
     7
 48
0.044291
100
AcDbLine
 10
439.8351093174252
 20
400.1019977587151
 30
0.0
 11
438.0913969420426
 21
403.1865624227533
 31
0.0
  0
LINE
  5
3923
330
A
100
AcDbEntity
  8
0
 62
     7
 48
0.037991
100
AcDbLine
 10
441.3308376394221
 20
397.4562451891433
 30
0.0
 11
439.8351093174252
 21
400.1019977587151
 31
0.0
  0
VIEWPORT
  5
3174
330
B
100
AcDbEntity
 67
     1
  8
0
 62
     0
100
AcDbViewport
 10
0.0
 20
0.0
 30
0.0
 40
1000.0
 41
1000.0
 68
     1
 69
     1
 12
0.0
 22
0.0
 13
0.0
 23
0.0
 14
1.0
 24
1.0
 15
1.0
 25
1.0
 16
0.0
 26
0.0
 36
1.0
 17
0.0
 27
0.0
 37
0.0
 42
50.0
 43
0.0
 44
0.0
 45
1000.0
 50
0.0
 51
0.0
 72
   100
 90
    32800
  1

281
     0
 71
     1
 74
     0
110
0.0
120
0.0
130
0.0
111
1.0
121
0.0
131
0.0
112
0.0
122
1.0
132
0.0
 79
     0
146
0.0
  0
ENDSEC
  0
SECTION
  2
OBJECTS
  0
DICTIONARY
  5
19
330
0
100
AcDbDictionary
281
     1
  3
ACAD_GROUP
350
1A
  3
ACAD_LAYOUT
350
317B
  3
ACAD_MLINESTYLE
350
1B
  3
ACAD_PLOTSETTINGS
350
317C
  3
ACAD_PLOTSTYLENAME
350
3179
  0
DICTIONARY
  5
1A
102
{ACAD_REACTORS
330
19
102
}
330
19
100
AcDbDictionary
281
     1
  0
DICTIONARY
  5
317B
102
{ACAD_REACTORS
330
19
102
}
330
19
100
AcDbDictionary
281
     1
  3
Model
350
317D
  3
ﾚｲｱｳﾄ1
350
317E
  0
DICTIONARY
  5
1B
102
{ACAD_REACTORS
330
19
102
}
330
19
100
AcDbDictionary
281
     1
  3
STANDARD
350
1C
  0
DICTIONARY
  5
317C
102
{ACAD_REACTORS
330
19
102
}
330
19
100
AcDbDictionary
281
     1
  0
ACDBDICTIONARYWDFLT
  5
3179
102
{ACAD_REACTORS
330
19
102
}
330
19
100
AcDbDictionary
281
     1
  3
Normal
350
317A
100
AcDbDictionaryWithDefault
340
317A
  0
LAYOUT
  5
317D
102
{ACAD_REACTORS
330
317B
102
}
330
317B
100
AcDbPlotSettings
  1

  2
Canon iR-ADV C5030/5035 LIPSLX
  4

  6

 40
0.0
 41
0.0
 42
0.0
 43
0.0
 44
0.0
 45
0.0
 46
0.0
 47
0.0
 48
0.0
 49
0.0
140
0.0
141
0.0
142
1.0
143
1.0
 70
  1712
 72
     0
 73
     0
 74
     0
  7

 75
     0
147
1.0
148
0.0
149
0.0
100
AcDbLayout
  1
Model
 70
     1
 71
     0
 10
0.0
 20
0.0
 11
12.0
 21
9.0
 12
0.0
 22
0.0
 32
0.0
 14
0.0
 24
0.0
 34
0.0
 15
0.0
 25
0.0
 35
0.0
146
0.0
 13
0.0
 23
0.0
 33
0.0
 16
1.0
 26
0.0
 36
0.0
 17
0.0
 27
1.0
 37
0.0
 76
     0
330
A
  0
LAYOUT
  5
317E
102
{ACAD_REACTORS
330
317B
102
}
330
317B
100
AcDbPlotSettings
  1

  2
Canon iR-ADV C5030/5035 LIPSLX
  4

  6

 40
0.0
 41
0.0
 42
0.0
 43
0.0
 44
0.0
 45
0.0
 46
0.0
 47
0.0
 48
0.0
 49
0.0
140
0.0
141
0.0
142
1.0
143
1.0
 70
   688
 72
     0
 73
     0
 74
     5
  7

 75
    16
147
1.0
148
0.0
149
0.0
100
AcDbLayout
  1
ﾚｲｱｳﾄ1
 70
     1
 71
     1
 10
0.0
 20
0.0
 11
420.0
 21
297.0
 12
0.0
 22
0.0
 32
0.0
 14
0.0
 24
0.0
 34
0.0
 15
401.4999999999998
 25
275.0
 35
2.0
146
0.0
 13
0.0
 23
0.0
 33
0.0
 16
1.0
 26
0.0
 36
0.0
 17
0.0
 27
1.0
 37
0.0
 76
     0
330
B
331
3174
  0
MLINESTYLE
  5
1C
102
{ACAD_REACTORS
330
1B
102
}
330
1B
100
AcDbMlineStyle
  2
STANDARD
 70
     0
  3

 62
     0
 51
90.0
 52
90.0
 71
     2
 49
0.5
 62
   256
  6
BYLAYER
 49
-0.5
 62
   256
  6
BYLAYER
  0
ACDBPLACEHOLDER
  5
317A
102
{ACAD_REACTORS
330
3179
102
}
330
3179
  0
ENDSEC
  0
EOF
