  0
SECTION
  2
HEADER
  9
$ACADVER
  1
AC1014
  9
$ACADMAINTVER
 70
     0
  9
$DWGCODEPAGE
  3
ANSI_1252
  9
$INSBASE
 10
0.0
 20
0.0
 30
0.0
  9
$EXTMIN
 10
0.0
 20
0.0
 30
0.0
  9
$EXTMAX
 10
401.5
 20
275.0
 30
2.0
  9
$LIMMIN
 10
0.0
 20
0.0
  9
$LIMMAX
 10
420.0
 20
297.0
  9
$ORTHOMODE
 70
     0
  9
$REGENMODE
 70
     1
  9
$FILLMODE
 70
     1
  9
$QTEXTMODE
 70
     0
  9
$MIRRTEXT
 70
     1
  9
$DRAGMODE
 70
     2
  9
$LTSCALE
 40
1.0
  9
$OSMODE
 70
     0
  9
$ATTMODE
 70
     1
  9
$TEXTSIZE
 40
2.5
  9
$TRACEWID
 40
1.0
  9
$TEXTSTYLE
  7
STANDARD
  9
$CLAYER
  8
0
  9
$CELTYPE
  6
BYLAYER
  9
$CECOLOR
 62
   256
  9
$CELTSCALE
 40
1.0
  9
$DELOBJ
 70
     1
  9
$DISPSILH
 70
     0
  9
$DIMSCALE
 40
1.0
  9
$DIMASZ
 40
2.5
  9
$DIMEXO
 40
0.625
  9
$DIMDLI
 40
3.75
  9
$DIMRND
 40
0.0
  9
$DIMDLE
 40
0.0
  9
$DIMEXE
 40
1.25
  9
$DIMTP
 40
0.0
  9
$DIMTM
 40
0.0
  9
$DIMTXT
 40
2.5
  9
$DIMCEN
 40
2.5
  9
$DIMTSZ
 40
0.0
  9
$DIMTOL
 70
     0
  9
$DIMLIM
 70
     0
  9
$DIMTIH
 70
     0
  9
$DIMTOH
 70
     0
  9
$DIMSE1
 70
     0
  9
$DIMSE2
 70
     0
  9
$DIMTAD
 70
     1
  9
$DIMZIN
 70
     8
  9
$DIMBLK
  1

  9
$DIMASO
 70
     1
  9
$DIMSHO
 70
     1
  9
$DIMPOST
  1

  9
$DIMAPOST
  1

  9
$DIMALT
 70
     0
  9
$DIMALTD
 70
     3
  9
$DIMALTF
 40
0.03937
  9
$DIMLFAC
 40
1.0
  9
$DIMTOFL
 70
     1
  9
$DIMTVP
 40
0.0
  9
$DIMTIX
 70
     0
  9
$DIMSOXD
 70
     0
  9
$DIMSAH
 70
     0
  9
$DIMBLK1
  1

  9
$DIMBLK2
  1

  9
$DIMSTYLE
  2

  9
$DIMCLRD
 70
     0
  9
$DIMCLRE
 70
     0
  9
$DIMCLRT
 70
     0
  9
$DIMTFAC
 40
1.0
  9
$DIMGAP
 40
0.625
  9
$DIMJUST
 70
     0
  9
$DIMSD1
 70
     0
  9
$DIMSD2
 70
     0
  9
$DIMTOLJ
 70
     0
  9
$DIMTZIN
 70
     8
  9
$DIMALTZ
 70
     0
  9
$DIMALTTZ
 70
     0
  9
$DIMFIT
 70
     0
  9
$DIMUPT
 70
     0
  9
$DIMUNIT
 70
     2
  9
$DIMDEC
 70
     2
  9
$DIMTDEC
 70
     2
  9
$DIMALTU
 70
     2
  9
$DIMALTTD
 70
     3
  9
$DIMTXSTY
  7
STANDARD
  9
$DIMAUNIT
 70
     0
  9
$LUNITS
 70
     2
  9
$LUPREC
 70
     4
  9
$SKETCHINC
 40
1.0
  9
$FILLETRAD
 40
2.5
  9
$AUNITS
 70
     0
  9
$AUPREC
 70
     0
  9
$MENU
  1
.
  9
$ELEVATION
 40
0.0
  9
$PELEVATION
 40
0.0
  9
$THICKNESS
 40
0.0
  9
$LIMCHECK
 70
     0
  9
$BLIPMODE
 70
     1
  9
$CHAMFERA
 40
2.5
  9
$CHAMFERB
 40
2.5
  9
$CHAMFERC
 40
0.0
  9
$CHAMFERD
 40
0.0
  9
$SKPOLY
 70
     0
  9
$TDCREATE
 40
0.000000000
  9
$TDUPDATE
 40
0.000000000
  9
$TDINDWG
 40
0.0000000000
  9
$TDUSRTIMER
 40
0.0000000000
  9
$USRTIMER
 70
     1
  9
$ANGBASE
 50
0.0
  9
$ANGDIR
 70
     0
  9
$PDMODE
 70
     0
  9
$PDSIZE
 40
0.0
  9
$PLINEWID
 40
0.0
  9
$COORDS
 70
     0
  9
$SPLFRAME
 70
     0
  9
$SPLINETYPE
 70
     6
  9
$SPLINESEGS
 70
     8
  9
$ATTDIA
 70
     0
  9
$ATTREQ
 70
     1
  9
$HANDLING
 70
     1
  9
$HANDSEED
  5
335
  9
$SURFTAB1
 70
     6
  9
$SURFTAB2
 70
     6
  9
$SURFTYPE
 70
     6
  9
$SURFU
 70
     6
  9
$SURFV
 70
     6
  9
$UCSNAME
  2

  9
$UCSORG
 10
0.0
 20
0.0
 30
0.0
  9
$UCSXDIR
 10
1.0
 20
0.0
 30
0.0
  9
$UCSYDIR
 10
0.0
 20
1.0
 30
0.0
  9
$PUCSNAME
  2

  9
$PUCSORG
 10
0.0
 20
0.0
 30
0.0
  9
$PUCSXDIR
 10
1.0
 20
0.0
 30
0.0
  9
$PUCSYDIR
 10
0.0
 20
1.0
 30
0.0
  9
$USERI1
 70
     0
  9
$USERI2
 70
     0
  9
$USERI3
 70
     0
  9
$USERI4
 70
     0
  9
$USERI5
 70
     0
  9
$USERR1
 40
0.0
  9
$USERR2
 40
0.0
  9
$USERR3
 40
0.0
  9
$USERR4
 40
0.0
  9
$USERR5
 40
0.0
  9
$WORLDVIEW
 70
     1
  9
$SHADEDGE
 70
     3
  9
$SHADEDIF
 70
    70
  9
$TILEMODE
 70
     1
  9
$MAXACTVP
 70
    48
  9
$PINSBASE
 10
0.0
 20
0.0
 30
0.0
  9
$PLIMCHECK
 70
     0
  9
$PEXTMIN
 10
0.0
 20
0.0
 30
0.0
  9
$PEXTMAX
 10
401.5
 20
275.0
 30
2.0
  9
$PLIMMIN
 10
0.0
 20
0.0
  9
$PLIMMAX
 10
420.0
 20
297.0
  9
$UNITMODE
 70
     0
  9
$VISRETAIN
 70
     0
  9
$PLINEGEN
 70
     0
  9
$PSLTSCALE
 70
     1
  9
$TREEDEPTH
 70
  3020
  9
$PICKSTYLE
 70
     1
  9
$CMLSTYLE
  2
STANDARD
  9
$CMLJUST
 70
     0
  9
$CMLSCALE
 40
20.0
  9
$PROXYGRAPHICS
 70
     1
  9
$MEASUREMENT
 70
     1
  0
ENDSEC
  0
SECTION
  2
CLASSES
  0
CLASS
  1
LWPOLYLINE
  2
AcDbPolyline
  3
"AutoCAD"
 90
        0
280
     0
281
     1
  0
CLASS
  1
IMAGE
  2
AcDbRasterImage
  3
ISM
 90
      127
280
     0
281
     1
  0
CLASS
  1
OLE2FRAME
  2
AcDbOle2Frame
  3
""
 90
        0
280
     0
281
     1
  0
CLASS
  1
HATCH
  2
AcDbHatch
  3
"ACAD_SEDONA"
 90
        0
280
     0
281
     1
  0
CLASS
  1
DICTIONARYVAR
  2
AcDbDictionaryVar
  3
"AutoCAD"
 90
        0
280
     0
281
     0
  0
CLASS
  1
RASTERVARIABLES
  2
AcDbRasterVariables
  3
ISM
 90
        0
280
     0
281
     0
  0
CLASS
  1
IMAGEDEF
  2
AcDbRasterImageDef
  3
ISM
 90
        0
280
     0
281
     0
  0
CLASS
  1
IMAGEDEF_REACTOR
  2
AcDbRasterImageDefReactor
  3
ISM
 90
        1
280
     0
281
     0
  0
CLASS
  1
IDBUFFER
  2
AcDbIdBuffer
  3
"Acad"
 90
        0
280
     0
281
     0
  0
CLASS
  1
SPATIAL_FILTER
  2
AcDbSpatialFilter
  3
"Acad"
 90
        0
280
     0
281
     0
  0
CLASS
  1
XRECORD
  2
AcDbXrecord
  3
"<Built In>"
 90
        0
280
     0
281
     0
  0
CLASS
  1
SORTENTSTABLE
  2
AcDbSortentsTable
  3
"AutoCAD"
 90
        0
280
     0
281
     0
  0
CLASS
  1
LAYER_INDEX
  2
AcDbLayerIndex
  3
"Acad"
 90
        0
280
     0
281
     0
  0
CLASS
  1
SPATIAL_INDEX
  2
AcDbSpatialIndex
  3
"Acad"
 90
        0
280
     0
281
     0
  0
CLASS
  1
OBJECT_PTR
  2
CAseDLPNTableRecord
  3
"ASE-LPNTableRecord"
 90
        1
280
     0
281
     0
  0
CLASS
  1
LAYOUT
  2
AcDbLayout
  3
"AutoCAD 2000"
 90
        0
280
     0
281
     0
  0
CLASS
  1
PLOTSETTINGS
  2
AcDbPlotSettings
  3
"AutoCAD 2000"
 90
        0
280
     0
281
     0
  0
CLASS
  1
ACDBDICTIONARYWDFLT
  2
AcDbDictionaryWithDefault
  3
"AutoCAD 2000"
 90
        0
280
     0
281
     0
  0
CLASS
  1
ACDBPLACEHOLDER
  2
AcDbPlaceHolder
  3
"AutoCAD 2000"
 90
        0
280
     0
281
     0
  0
CLASS
  1
VBA_PROJECT
  2
AcDbVbaProject
  3
"acadvba"
 90
        0
280
     0
281
     0
  0
CLASS
  1
WIPEOUT
  2
AcDbWipeout
  3
WipeOut|AutoCAD Express Tool|expresstools@autodesk.com
 90
      127
280
     0
281
     1
  0
CLASS
  1
WIPEOUTVARIABLES
  2
AcDbWipeoutVariables
  3
WipeOut|AutoCAD Express Tool|expresstools@autodesk.com
 90
        0
280
     0
281
     0
  0
CLASS
  1
RTEXT
  2
RText
  3
RText|AutoCAD Express Tool|expresstools@autodesk.com
 90
        0
280
     0
281
     1
  0
CLASS
  1
ARCALIGNEDTEXT
  2
AcDbArcAlignedText
  3
ATEXT|AutoCAD Express Tool|expresstools@autodesk.com
 90
        0
280
     0
281
     1
  0
ENDSEC
  0
SECTION
  2
TABLES
  0
TABLE
  2
VPORT
  5
7
100
AcDbSymbolTable
 70
     1
  0
VPORT
  5
15
100
AcDbSymbolTableRecord
100
AcDbViewportTableRecord
  2
*ACTIVE
 70
     0
 10
0.0
 20
0.0
 11
1.0
 21
1.0
 12
6.591288
 22
4.579184
 13
0.0
 23
0.0
 14
1.0
 24
1.0
 15
0.0
 25
0.0
 16
0.0
 26
0.0
 36
1.0
 17
0.0
 27
0.0
 37
0.0
 40
9.158369
 41
0.688564
 42
50.0
 43
0.0
 44
0.0
 50
0.0
 51
0.0
 71
     0
 72
   100
 73
     1
 74
     1
 75
     0
 76
     0
 77
     0
 78
     0
  0
ENDTAB
  0
TABLE
  2
LTYPE
  5
4
100
AcDbSymbolTable
 70
    10
  0
LTYPE
  5
11
100
AcDbSymbolTableRecord
100
AcDbLinetypeTableRecord
  2
BYBLOCK
 70
    64
  3

 72
    65
 73
     0
 40
0.0
  0
LTYPE
  5
12
100
AcDbSymbolTableRecord
100
AcDbLinetypeTableRecord
  2
BYLAYER
 70
    64
  3

 72
    65
 73
     0
 40
0.0
  0
LTYPE
  5
13
100
AcDbSymbolTableRecord
100
AcDbLinetypeTableRecord
  2
CONTINUOUS
 70
    64
  3
Solid line
 72
    65
 73
     0
 40
0.0
  0
LTYPE
  5
1D
100
AcDbSymbolTableRecord
100
AcDbLinetypeTableRecord
  2
DASHED
 70
     0
  3
__ __ __ __ __ __ __ __ __ __ __ __ __ __ __ __
 72
    65
 73
     2
 40
15.0
 49
12.0
 74
     0
 49
-3.0
 74
     0
  0
LTYPE
  5
1E
100
AcDbSymbolTableRecord
100
AcDbLinetypeTableRecord
  2
DASHDOT
 70
     0
  3
 __ . __ . __ . __ . __ . __ . __ . 
 72
    65
 73
     4
 40
18.5
 49
12.0
 74
     0
 49
-3.0
 74
     0
 49
0.5
 74
     0
 49
-3.0
 74
     0
  0
LTYPE
  5
1F
100
AcDbSymbolTableRecord
100
AcDbLinetypeTableRecord
  2
DOT
 70
     0
  3
 . . . . . . . . . . . . . . . .
 72
    65
 73
     2
 40
3.5
 49
0.5
 74
     0
 49
-3.0
 74
     0
  0
LTYPE
  5
20
100
AcDbSymbolTableRecord
100
AcDbLinetypeTableRecord
  2
DASHSPACE
 70
     0
  3
__    __    __    __    __   
 72
    65
 73
     2
 40
30.0
 49
12.0
 74
     0
 49
-18.0
 74
     0
  0
LTYPE
  5
21
100
AcDbSymbolTableRecord
100
AcDbLinetypeTableRecord
  2
DASHDOT2
 70
     0
  3
__ . . __ . . __ . . __ 
 72
    65
 73
     6
 40
22.0
 49
12.0
 74
     0
 49
-3.0
 74
     0
 49
0.5
 74
     0
 49
-3.0
 74
     0
 49
0.5
 74
     0
 49
-3.0
 74
     0
  0
LTYPE
  5
22
100
AcDbSymbolTableRecord
100
AcDbLinetypeTableRecord
  2
PHANTOM
 70
     0
  3
____________    ____    ____   _
 72
    65
 73
     6
 40
20.0
 49
10.0
 74
     0
 49
-2.0
 74
     0
 49
2.0
 74
     0
 49
-2.0
 74
     0
 49
2.0
 74
     0
 49
-2.0
 74
     0
  0
LTYPE
  5
23
100
AcDbSymbolTableRecord
100
AcDbLinetypeTableRecord
  2
AXES
 70
     0
  3
________  __  ________  __  _____
 72
    65
 73
     4
 40
24.0
 49
15.0
 74
     0
 49
-3.0
 74
     0
 49
3.0
 74
     0
 49
-3.0
 74
     0
  0
ENDTAB
  0
TABLE
  2
LAYER
  5
2
100
AcDbSymbolTable
 70
     1
  0
LAYER
  5
14
100
AcDbSymbolTableRecord
100
AcDbLayerTableRecord
  2
0
 70
     0
 62
     7
  6
CONTINUOUS
  0
ENDTAB
  0
TABLE
  2
STYLE
  5
3
100
AcDbSymbolTable
 70
     1
  0
STYLE
  5
17
100
AcDbSymbolTableRecord
100
AcDbTextStyleTableRecord
  2
STANDARD
 70
     0
 40
0.0
 41
1.0
 50
0.0
 71
     0
 42
0.0
  3
txt
  4

  0
ENDTAB
  0
TABLE
  2
VIEW
  5
5
100
AcDbSymbolTable
 70
     0
  0
ENDTAB
  0
TABLE
  2
UCS
  5
6
100
AcDbSymbolTable
 70
     0
  0
ENDTAB
  0
TABLE
  2
APPID
  5
8
100
AcDbSymbolTable
 70
     1
  0
APPID
  5
16
100
AcDbSymbolTableRecord
100
AcDbRegAppTableRecord
  2
ACAD
 70
     0
  0
ENDTAB
  0
TABLE
  2
DIMSTYLE
  5
9
100
AcDbSymbolTable
 70
     1
  0
DIMSTYLE
105
18
100
AcDbSymbolTableRecord
100
AcDbDimStyleTableRecord
  2
STANDARD
 70
     0
  3

  4

  5

  6

  7

 40
1.0
 41
0.18
 42
0.0625
 43
0.38
 44
0.18
 45
0.0
 46
0.0
 47
0.0
 48
0.0
 71
     0
 72
     0
 73
     1
 74
     1
 75
     0
 76
     0
 77
     0
 78
     0
140
0.18
141
0.09
142
0.0
143
25.4
144
1.0
145
0.0
146
1.0
147
0.09
170
     0
171
     2
172
     0
173
     0
174
     0
175
     0
176
     0
177
     0
178
     0
270
     2
271
     4
272
     4
273
     2
274
     2
275
     0
280
     0
281
     0
282
     0
283
     1
284
     0
285
     0
286
     0
287
     3
288
     0
340
17
  0
ENDTAB
  0
TABLE
  2
BLOCK_RECORD
  5
1
100
AcDbSymbolTable
 70
     0
  0
BLOCK_RECORD
  5
A
100
AcDbSymbolTableRecord
100
AcDbBlockTableRecord
  2
*MODEL_SPACE
  0
BLOCK_RECORD
  5
B
100
AcDbSymbolTableRecord
100
AcDbBlockTableRecord
  2
*PAPER_SPACE
  0
ENDTAB
  0
ENDSEC
  0
SECTION
  2
BLOCKS
  0
BLOCK
  5
D
100
AcDbEntity
  8
0
100
AcDbBlockBegin
  2
*MODEL_SPACE
 70
     0
 10
0.0
 20
0.0
 30
0.0
  3
*MODEL_SPACE
  1

  0
ENDBLK
  5
E
100
AcDbEntity
  8
0
100
AcDbBlockEnd
  0
BLOCK
  5
F
100
AcDbEntity
 67
     1
  8
0
100
AcDbBlockBegin
  2
*PAPER_SPACE
 70
     0
 10
0.0
 20
0.0
 30
0.0
  3
*PAPER_SPACE
  1

  0
ENDBLK
  5
10
100
AcDbEntity
 67
     1
  8
0
100
AcDbBlockEnd
  0
ENDSEC
  0
SECTION
  2
ENTITIES
  0
VIEWPORT
  5
334
100
AcDbEntity
 67
     1
  8
0
 62
     0
 48
0.0
100
AcDbViewport
 10
0.0
 20
0.0
 30
0.0
 40
1000.0
 41
1000.0
 68
     1
 69
     1
1001
ACAD
1000
MVIEW
1002
{
1070
    16
1010
0.0
1020
0.0
1030
0.0
1010
0.0
1020
0.0
1030
1.0
1040
0.0
1040
1000.0
1040
0.0
1040
0.0
1040
50.0
1040
0.0
1040
0.0
1070
     0
1070
   100
1070
     1
1070
     1
1070
     0
1070
     0
1070
     0
1070
     0
1040
0.0
1040
0.0
1040
0.0
1040
1.0
1040
1.0
1040
1.0
1040
1.0
1070
     0
1002
{
1002
}
1002
}
  0
LINE
  5
24
100
AcDbEntity
  8
0
 62
     7
100
AcDbLine
 10
24.5
 20
15.0
 30
0.0
 11
401.5
 21
15.0
 31
0.0
210
0.0
220
0.0
230
1.0
  0
LINE
  5
25
100
AcDbEntity
  8
0
 62
     7
100
AcDbLine
 10
401.5
 20
15.0
 30
0.0
 11
401.5
 21
275.0
 31
0.0
210
0.0
220
0.0
230
1.0
  0
LINE
  5
26
100
AcDbEntity
  8
0
 62
     7
100
AcDbLine
 10
24.5
 20
275.0
 30
0.0
 11
401.5
 21
275.0
 31
0.0
210
0.0
220
0.0
230
1.0
  0
LINE
  5
27
100
AcDbEntity
  8
0
 62
     7
100
AcDbLine
 10
24.5
 20
15.0
 30
0.0
 11
24.5
 21
275.0
 31
0.0
210
0.0
220
0.0
230
1.0
  0
LINE
  5
28
100
AcDbEntity
  8
0
 62
     7
100
AcDbLine
 10
184.816162
 20
185.323624
 30
0.0
 11
184.816162
 21
116.323624
 31
0.0
210
0.0
220
0.0
230
1.0
  0
ARC
  5
29
100
AcDbEntity
  8
0
 62
     7
100
AcDbCircle
 10
183.166168
 20
185.323624
 30
0.0
 40
1.65
210
0.0
220
0.0
230
1.0
100
AcDbArc
 50
0.00001
 51
89.999992
  0
ARC
  5
2A
100
AcDbEntity
  8
0
 62
     7
100
AcDbCircle
 10
183.166168
 20
116.323624
 30
0.0
 40
1.65
210
0.0
220
0.0
230
1.0
100
AcDbArc
 50
270.000001
 51
0.00001
  0
ARC
  5
2B
100
AcDbEntity
  8
0
 62
     7
100
AcDbCircle
 10
114.166168
 20
185.323624
 30
0.0
 40
1.65
210
0.0
220
0.0
230
1.0
100
AcDbArc
 50
90.000003
 51
180.000005
  0
LINE
  5
2C
100
AcDbEntity
  8
0
 62
     7
100
AcDbLine
 10
114.166168
 20
186.973633
 30
0.0
 11
183.166168
 21
186.973633
 31
0.0
210
0.0
220
0.0
230
1.0
  0
LINE
  5
2D
100
AcDbEntity
  8
0
 62
     7
100
AcDbLine
 10
183.166168
 20
114.673622
 30
0.0
 11
114.166168
 21
114.673622
 31
0.0
210
0.0
220
0.0
230
1.0
  0
ARC
  5
2E
100
AcDbEntity
  8
0
 62
     7
100
AcDbCircle
 10
114.166168
 20
116.323624
 30
0.0
 40
1.65
210
0.0
220
0.0
230
1.0
100
AcDbArc
 50
180.000005
 51
270.000001
  0
LINE
  5
2F
100
AcDbEntity
  8
0
 62
     7
100
AcDbLine
 10
112.516167
 20
116.323624
 30
0.0
 11
112.516167
 21
185.323624
 31
0.0
210
0.0
220
0.0
230
1.0
  0
ARC
  5
30
100
AcDbEntity
  8
0
 62
     7
100
AcDbCircle
 10
173.929367
 20
120.723656
 30
0.0
 40
4.86165
210
0.0
220
0.0
230
1.0
100
AcDbArc
 50
269.844426
 51
292.23697
  0
LINE
  5
31
100
AcDbEntity
  8
0
 62
     7
 48
0.00904
100
AcDbLine
 10
173.916168
 20
116.223625
 30
0.0
 11
173.916168
 21
115.86203
 31
0.0
210
0.0
220
0.0
230
1.0
  0
ARC
  5
32
100
AcDbEntity
  8
0
 62
     7
100
AcDbCircle
 10
173.916153
 20
120.666641
 30
0.0
 40
4.8489
210
0.0
220
0.0
230
1.0
100
AcDbArc
 50
270.000182
 51
293.616148
  0
LINE
  5
33
100
AcDbEntity
  8
0
 62
     7
 48
0.001107
100
AcDbLine
 10
173.916168
 20
115.86203
 30
0.0
 11
173.916168
 21
115.817734
 31
0.0
210
0.0
220
0.0
230
1.0
  0
LINE
  5
34
100
AcDbEntity
  8
0
 62
     7
 48
0.001107
100
AcDbLine
 10
123.416168
 20
115.86203
 30
0.0
 11
123.416168
 21
115.817734
 31
0.0
210
0.0
220
0.0
230
1.0
  0
ARC
  5
35
100
AcDbEntity
  8
0
 62
     7
100
AcDbCircle
 10
123.416176
 20
120.666595
 30
0.0
 40
4.848863
210
0.0
220
0.0
230
1.0
100
AcDbArc
 50
246.383743
 51
269.999881
  0
ARC
  5
36
100
AcDbEntity
  8
0
 62
     7
100
AcDbCircle
 10
123.402969
 20
120.723656
 30
0.0
 40
4.86165
210
0.0
220
0.0
230
1.0
100
AcDbArc
 50
247.763033
 51
270.155569
  0
LINE
  5
37
100
AcDbEntity
  8
0
 62
     7
 48
0.00904
100
AcDbLine
 10
123.416168
 20
116.223625
 30
0.0
 11
123.416168
 21
115.86203
 31
0.0
210
0.0
220
0.0
230
1.0
  0
LINE
  5
38
100
AcDbEntity
  8
0
 62
     7
100
AcDbLine
 10
173.916168
 20
115.86203
 30
0.0
 11
123.416168
 21
115.86203
 31
0.0
210
0.0
220
0.0
230
1.0
  0
LINE
  5
39
100
AcDbEntity
  8
0
 62
     7
 48
0.001851
100
AcDbLine
 10
179.666168
 20
115.615761
 30
0.0
 11
179.666168
 21
115.541718
 31
0.0
210
0.0
220
0.0
230
1.0
  0
LINE
  5
3A
100
AcDbEntity
  8
0
 62
     7
 48
0.00625
100
AcDbLine
 10
143.166168
 20
130.823624
 30
0.0
 11
143.416168
 21
130.823624
 31
0.0
210
0.0
220
0.0
230
1.0
  0
LINE
  5
3B
100
AcDbEntity
  8
0
 62
     7
 48
0.00625
100
AcDbLine
 10
153.916168
 20
130.823624
 30
0.0
 11
154.166168
 21
130.823624
 31
0.0
210
0.0
220
0.0
230
1.0
  0
LINE
  5
3C
100
AcDbEntity
  8
0
 62
     7
 48
0.001851
100
AcDbLine
 10
117.666168
 20
115.615761
 30
0.0
 11
117.666168
 21
115.541718
 31
0.0
210
0.0
220
0.0
230
1.0
  0
LINE
  5
3D
100
AcDbEntity
  8
0
 62
     7
 48
0.0025
100
AcDbLine
 10
180.166168
 20
117.350403
 30
0.0
 11
180.066162
 21
117.350403
 31
0.0
210
0.0
220
0.0
230
1.0
  0
LINE
  5
3E
100
AcDbEntity
  8
0
 62
     7
 48
0.0025
100
AcDbLine
 10
154.916168
 20
131.323624
 30
0.0
 11
154.916168
 21
131.223618
 31
0.0
210
0.0
220
0.0
230
1.0
  0
LINE
  5
3F
100
AcDbEntity
  8
0
 62
     7
 48
0.0125
100
AcDbLine
 10
180.166168
 20
115.541718
 30
0.0
 11
179.666168
 21
115.541718
 31
0.0
210
0.0
220
0.0
230
1.0
  0
LINE
  5
40
100
AcDbEntity
  8
0
 62
     7
 48
0.008477
100
AcDbLine
 10
154.916168
 20
131.323624
 30
0.0
 11
154.916168
 21
131.66272
 31
0.0
210
0.0
220
0.0
230
1.0
  0
LINE
  5
41
100
AcDbEntity
  8
0
 62
     7
 48
0.0025
100
AcDbLine
 10
117.166168
 20
117.350403
 30
0.0
 11
117.266167
 21
117.350403
 31
0.0
210
0.0
220
0.0
230
1.0
  0
ARC
  5
42
100
AcDbEntity
  8
0
 62
     7
100
AcDbCircle
 10
179.816162
 20
130.973618
 30
0.0
 40
0.35
210
0.0
220
0.0
230
1.0
100
AcDbArc
 50
0.0
 51
90.000003
  0
LINE
  5
43
100
AcDbEntity
  8
0
 62
     7
100
AcDbLine
 10
154.916168
 20
131.323624
 30
0.0
 11
179.816162
 21
131.323624
 31
0.0
210
0.0
220
0.0
230
1.0
  0
LINE
  5
44
100
AcDbEntity
  8
0
 62
     7
 48
0.358451
100
AcDbLine
 10
180.166168
 20
116.635559
 30
0.0
 11
180.166168
 21
130.973618
 31
0.0
210
0.0
220
0.0
230
1.0
  0
LINE
  5
45
100
AcDbEntity
  8
0
 62
     7
 48
0.025495
100
AcDbLine
 10
180.166168
 20
116.635559
 30
0.0
 11
180.166168
 21
115.615761
 31
0.0
210
0.0
220
0.0
230
1.0
  0
LINE
  5
46
100
AcDbEntity
  8
0
 62
     7
 48
0.011862
100
AcDbLine
 10
180.166168
 20
115.615761
 30
0.0
 11
180.166168
 21
115.141273
 31
0.0
210
0.0
220
0.0
230
1.0
  0
LINE
  5
47
100
AcDbEntity
  8
0
 62
     7
 48
0.007941
100
AcDbLine
 10
180.166168
 20
114.823624
 30
0.0
 11
180.166168
 21
115.141273
 31
0.0
210
0.0
220
0.0
230
1.0
  0
LINE
  5
48
100
AcDbEntity
  8
0
 62
     7
 48
0.358451
100
AcDbLine
 10
117.166168
 20
130.973618
 30
0.0
 11
117.166168
 21
116.635559
 31
0.0
210
0.0
220
0.0
230
1.0
  0
LINE
  5
49
100
AcDbEntity
  8
0
 62
     7
 48
0.025495
100
AcDbLine
 10
117.166168
 20
115.615761
 30
0.0
 11
117.166168
 21
116.635559
 31
0.0
210
0.0
220
0.0
230
1.0
  0
LINE
  5
4A
100
AcDbEntity
  8
0
 62
     7
 48
0.011862
100
AcDbLine
 10
117.166168
 20
115.141273
 30
0.0
 11
117.166168
 21
115.615761
 31
0.0
210
0.0
220
0.0
230
1.0
  0
LINE
  5
4B
100
AcDbEntity
  8
0
 62
     7
 48
0.007941
100
AcDbLine
 10
117.166168
 20
114.823624
 30
0.0
 11
117.166168
 21
115.141273
 31
0.0
210
0.0
220
0.0
230
1.0
  0
ARC
  5
4C
100
AcDbEntity
  8
0
 62
     7
100
AcDbCircle
 10
117.516167
 20
130.973618
 30
0.0
 40
0.35
210
0.0
220
0.0
230
1.0
100
AcDbArc
 50
90.000003
 51
180.000005
  0
LINE
  5
4D
100
AcDbEntity
  8
0
 62
     7
 48
0.021967
100
AcDbLine
 10
116.287491
 20
116.635559
 30
0.0
 11
117.166168
 21
116.635559
 31
0.0
210
0.0
220
0.0
230
1.0
  0
LINE
  5
4E
100
AcDbEntity
  8
0
 62
     7
 48
0.037357
100
AcDbLine
 10
116.287491
 20
115.141273
 30
0.0
 11
116.287491
 21
116.635559
 31
0.0
210
0.0
220
0.0
230
1.0
  0
LINE
  5
4F
100
AcDbEntity
  8
0
 62
     7
 48
0.021967
100
AcDbLine
 10
116.287491
 20
115.141273
 30
0.0
 11
117.166168
 21
115.141273
 31
0.0
210
0.0
220
0.0
230
1.0
  0
LINE
  5
50
100
AcDbEntity
  8
0
 62
     7
 48
0.049761
100
AcDbLine
 10
114.304626
 20
114.967789
 30
0.0
 11
116.287491
 21
115.141273
 31
0.0
210
0.0
220
0.0
230
1.0
  0
LINE
  5
51
100
AcDbEntity
  8
0
 62
     7
 48
0.005097
100
AcDbLine
 10
114.160461
 20
114.823624
 30
0.0
 11
114.304626
 21
114.967789
 31
0.0
210
0.0
220
0.0
230
1.0
  0
LINE
  5
52
100
AcDbEntity
  8
0
 62
     7
 48
0.000143
100
AcDbLine
 10
114.160461
 20
114.823639
 30
0.0
 11
114.166168
 21
114.823624
 31
0.0
210
0.0
220
0.0
230
1.0
  0
LINE
  5
53
100
AcDbEntity
  8
0
 62
     7
 48
0.075
100
AcDbLine
 10
117.166168
 20
114.823624
 30
0.0
 11
114.166168
 21
114.823624
 31
0.0
210
0.0
220
0.0
230
1.0
  0
LINE
  5
54
100
AcDbEntity
  8
0
 62
     7
100
AcDbLine
 10
117.516167
 20
131.323624
 30
0.0
 11
142.416168
 21
131.323624
 31
0.0
210
0.0
220
0.0
230
1.0
  0
LINE
  5
55
100
AcDbEntity
  8
0
 62
     7
 48
0.026517
100
AcDbLine
 10
116.287491
 20
116.635559
 30
0.0
 11
115.22683
 21
116.635559
 31
0.0
210
0.0
220
0.0
230
1.0
  0
ELLIPSE
  5
56
100
AcDbEntity
  8
0
 62
     7
100
AcDbEllipse
 10
116.287491
 20
116.635559
 30
0.0
 11
0.1307373046875
 21
-1.494293212890625
 31
0.0
210
0.0
220
0.0
230
1.0
 40
0.705758
 41
4.650721549987793
 42
6.1598501205444336
  0
ELLIPSE
  5
57
100
AcDbEntity
  8
0
 62
     7
100
AcDbEllipse
 10
114.304626
 20
116.462082
 30
0.0
 11
0.1307373046875
 21
-1.494293212890625
 31
0.0
210
0.0
220
0.0
230
1.0
 40
0.705758
 41
4.650721549987793
 42
6.1598501205444336
  0
LINE
  5
58
100
AcDbEntity
  8
0
 62
     7
 48
0.049761
100
AcDbLine
 10
113.243973
 20
116.462082
 30
0.0
 11
115.22683
 21
116.635559
 31
0.0
210
0.0
220
0.0
230
1.0
  0
ELLIPSE
  5
59
100
AcDbEntity
  8
0
 62
     7
100
AcDbEllipse
 10
114.304626
 20
116.462082
 30
0.0
 11
1.0606536865234375
 21
-1.0606536865234375
 31
0.0
210
0.0
220
0.0
230
1.0
 40
0.992433
 41
3.9307889938354492
 42
5.4939889907836914
  0
LINE
  5
5A
100
AcDbEntity
  8
0
 62
     7
 48
0.005097
100
AcDbLine
 10
112.666168
 20
116.317917
 30
0.0
 11
112.810333
 21
116.462082
 31
0.0
210
0.0
220
0.0
230
1.0
  0
ARC
  5
5B
100
AcDbEntity
  8
0
 62
     7
100
AcDbCircle
 10
114.166168
 20
116.323624
 30
0.0
 40
1.5
210
0.0
220
0.0
230
1.0
100
AcDbArc
 50
180.217618
 51
269.781971
  0
LINE
  5
5C
100
AcDbEntity
  8
0
 62
     7
 48
0.026517
100
AcDbLine
 10
116.287491
 20
185.011688
 30
0.0
 11
115.22683
 21
185.011688
 31
0.0
210
0.0
220
0.0
230
1.0
  0
LINE
  5
5D
100
AcDbEntity
  8
0
 62
     7
100
AcDbLine
 10
115.22683
 20
116.635559
 30
0.0
 11
115.22683
 21
185.011688
 31
0.0
210
0.0
220
0.0
230
1.0
  0
LINE
  5
5E
100
AcDbEntity
  8
0
 62
     7
100
AcDbLine
 10
116.287491
 20
116.635559
 30
0.0
 11
116.287491
 21
185.011688
 31
0.0
210
0.0
220
0.0
230
1.0
  0
LINE
  5
5F
100
AcDbEntity
  8
0
 62
     7
100
AcDbLine
 10
113.243973
 20
185.185165
 30
0.0
 11
113.243973
 21
116.462082
 31
0.0
210
0.0
220
0.0
230
1.0
  0
LINE
  5
60
100
AcDbEntity
  8
0
 62
     7
 48
0.049761
100
AcDbLine
 10
115.22683
 20
185.011688
 30
0.0
 11
113.243973
 21
185.185165
 31
0.0
210
0.0
220
0.0
230
1.0
  0
LINE
  5
61
100
AcDbEntity
  8
0
 62
     7
 48
0.000143
100
AcDbLine
 10
112.666168
 20
185.323624
 30
0.0
 11
112.666183
 21
185.32933
 31
0.0
210
0.0
220
0.0
230
1.0
  0
LINE
  5
62
100
AcDbEntity
  8
0
 62
     7
100
AcDbLine
 10
112.666168
 20
185.323624
 30
0.0
 11
112.666168
 21
116.323624
 31
0.0
210
0.0
220
0.0
230
1.0
  0
LINE
  5
63
100
AcDbEntity
  8
0
 62
     7
 48
0.000142
100
AcDbLine
 10
112.666168
 20
116.317932
 30
0.0
 11
112.666168
 21
116.323624
 31
0.0
210
0.0
220
0.0
230
1.0
  0
LINE
  5
64
100
AcDbEntity
  8
0
 62
     7
100
AcDbLine
 10
112.810333
 20
185.185165
 30
0.0
 11
112.810333
 21
116.462082
 31
0.0
210
0.0
220
0.0
230
1.0
  0
LINE
  5
65
100
AcDbEntity
  8
0
 62
     7
 48
0.005097
100
AcDbLine
 10
112.810333
 20
185.185165
 30
0.0
 11
112.666168
 21
185.32933
 31
0.0
210
0.0
220
0.0
230
1.0
  0
LINE
  5
66
100
AcDbEntity
  8
0
 62
     7
 48
0.037357
100
AcDbLine
 10
116.287491
 20
185.011688
 30
0.0
 11
116.287491
 21
186.505981
 31
0.0
210
0.0
220
0.0
230
1.0
  0
ELLIPSE
  5
67
100
AcDbEntity
  8
0
 62
     7
100
AcDbEllipse
 10
116.287491
 20
185.011688
 30
0.0
 11
0.1307373046875
 21
1.494293212890625
 31
0.0
210
0.0
220
0.0
230
1.0
 40
0.705758
 41
0.123334988951683
 42
1.632463812828064
  0
LINE
  5
68
100
AcDbEntity
  8
0
 62
     7
 48
0.010841
100
AcDbLine
 10
112.810333
 20
116.462082
 30
0.0
 11
113.243973
 21
116.462082
 31
0.0
210
0.0
220
0.0
230
1.0
  0
LINE
  5
69
100
AcDbEntity
  8
0
 62
     7
 48
0.010841
100
AcDbLine
 10
112.810333
 20
185.185165
 30
0.0
 11
113.243973
 21
185.185165
 31
0.0
210
0.0
220
0.0
230
1.0
  0
LINE
  5
6A
100
AcDbEntity
  8
0
 62
     7
 48
0.049761
100
AcDbLine
 10
116.287491
 20
186.505981
 30
0.0
 11
114.304626
 21
186.679459
 31
0.0
210
0.0
220
0.0
230
1.0
  0
ELLIPSE
  5
6B
100
AcDbEntity
  8
0
 62
     7
100
AcDbEllipse
 10
114.304626
 20
185.185165
 30
0.0
 11
0.1307373046875
 21
1.494293212890625
 31
0.0
210
0.0
220
0.0
230
1.0
 40
0.705758
 41
0.123334988951683
 42
1.632463812828064
  0
LINE
  5
6C
100
AcDbEntity
  8
0
 62
     7
 48
0.037357
100
AcDbLine
 10
181.044846
 20
185.011688
 30
0.0
 11
181.044846
 21
186.505981
 31
0.0
210
0.0
220
0.0
230
1.0
  0
LINE
  5
6D
100
AcDbEntity
  8
0
 62
     7
100
AcDbLine
 10
116.287491
 20
186.505981
 30
0.0
 11
181.044846
 21
186.505981
 31
0.0
210
0.0
220
0.0
230
1.0
  0
LINE
  5
6E
100
AcDbEntity
  8
0
 62
     7
100
AcDbLine
 10
116.287491
 20
185.011688
 30
0.0
 11
181.044846
 21
185.011688
 31
0.0
210
0.0
220
0.0
230
1.0
  0
LINE
  5
6F
100
AcDbEntity
  8
0
 62
     7
 48
0.005097
100
AcDbLine
 10
183.02771
 20
186.679459
 30
0.0
 11
183.171875
 21
186.823624
 31
0.0
210
0.0
220
0.0
230
1.0
  0
LINE
  5
70
100
AcDbEntity
  8
0
 62
     7
 48
0.000143
100
AcDbLine
 10
183.166168
 20
186.823624
 30
0.0
 11
183.171875
 21
186.823608
 31
0.0
210
0.0
220
0.0
230
1.0
  0
LINE
  5
71
100
AcDbEntity
  8
0
 62
     7
100
AcDbLine
 10
183.166168
 20
186.823624
 30
0.0
 11
114.166168
 21
186.823624
 31
0.0
210
0.0
220
0.0
230
1.0
  0
LINE
  5
72
100
AcDbEntity
  8
0
 62
     7
 48
0.000142
100
AcDbLine
 10
114.160477
 20
186.823608
 30
0.0
 11
114.166168
 21
186.823624
 31
0.0
210
0.0
220
0.0
230
1.0
  0
LINE
  5
73
100
AcDbEntity
  8
0
 62
     7
 48
0.005097
100
AcDbLine
 10
114.304626
 20
186.679459
 30
0.0
 11
114.160461
 21
186.823624
 31
0.0
210
0.0
220
0.0
230
1.0
  0
LINE
  5
74
100
AcDbEntity
  8
0
 62
     7
 48
0.049761
100
AcDbLine
 10
181.044846
 20
186.505981
 30
0.0
 11
183.02771
 21
186.679459
 31
0.0
210
0.0
220
0.0
230
1.0
  0
LINE
  5
75
100
AcDbEntity
  8
0
 62
     7
 48
0.026516
100
AcDbLine
 10
181.044846
 20
185.011688
 30
0.0
 11
182.105499
 21
185.011688
 31
0.0
210
0.0
220
0.0
230
1.0
  0
ELLIPSE
  5
76
100
AcDbEntity
  8
0
 62
     7
100
AcDbEllipse
 10
181.044846
 20
185.011688
 30
0.0
 11
0.1307373046875
 21
-1.494293212890625
 31
0.0
210
0.0
220
0.0
230
1.0
 40
0.705758
 41
1.5091288089752197
 42
3.0182576179504395
  0
LINE
  5
77
100
AcDbEntity
  8
0
 62
     7
 48
0.049761
100
AcDbLine
 10
182.105499
 20
185.011688
 30
0.0
 11
184.088364
 21
185.185165
 31
0.0
210
0.0
220
0.0
230
1.0
  0
ELLIPSE
  5
78
100
AcDbEntity
  8
0
 62
     7
100
AcDbEllipse
 10
183.02771
 20
185.185165
 30
0.0
 11
0.1307373046875
 21
-1.494293212890625
 31
0.0
210
0.0
220
0.0
230
1.0
 40
0.705758
 41
1.5091288089752197
 42
3.0182576179504395
  0
LINE
  5
79
100
AcDbEntity
  8
0
 62
     7
100
AcDbLine
 10
182.105499
 20
116.635559
 30
0.0
 11
182.105499
 21
185.011688
 31
0.0
210
0.0
220
0.0
230
1.0
  0
LINE
  5
7A
100
AcDbEntity
  8
0
 62
     7
100
AcDbLine
 10
181.044846
 20
116.635559
 30
0.0
 11
181.044846
 21
185.011688
 31
0.0
210
0.0
220
0.0
230
1.0
  0
LINE
  5
7B
100
AcDbEntity
  8
0
 62
     7
 48
0.026516
100
AcDbLine
 10
181.044846
 20
116.635559
 30
0.0
 11
182.105499
 21
116.635559
 31
0.0
210
0.0
220
0.0
230
1.0
  0
LINE
  5
7C
100
AcDbEntity
  8
0
 62
     7
 48
0.049761
100
AcDbLine
 10
184.088364
 20
116.462082
 30
0.0
 11
182.105499
 21
116.635559
 31
0.0
210
0.0
220
0.0
230
1.0
  0
LINE
  5
7D
100
AcDbEntity
  8
0
 62
     7
100
AcDbLine
 10
184.088364
 20
185.185165
 30
0.0
 11
184.088364
 21
116.462082
 31
0.0
210
0.0
220
0.0
230
1.0
  0
ELLIPSE
  5
7E
100
AcDbEntity
  8
0
 62
     7
100
AcDbEllipse
 10
181.044846
 20
116.635559
 30
0.0
 11
-0.1307373046875
 21
-1.494293212890625
 31
0.0
210
0.0
220
0.0
230
1.0
 40
0.705758
 41
0.123334988951683
 42
1.632463812828064
  0
LINE
  5
7F
100
AcDbEntity
  8
0
 62
     7
 48
0.037357
100
AcDbLine
 10
181.044846
 20
115.141273
 30
0.0
 11
181.044846
 21
116.635559
 31
0.0
210
0.0
220
0.0
230
1.0
  0
LINE
  5
80
100
AcDbEntity
  8
0
 62
     7
 48
0.014219
100
AcDbLine
 10
153.597412
 20
130.823624
 30
0.0
 11
154.166168
 21
130.823624
 31
0.0
210
0.0
220
0.0
230
1.0
  0
LINE
  5
81
100
AcDbEntity
  8
0
 62
     7
 48
0.163764
100
AcDbLine
 10
145.390884
 20
130.823624
 30
0.0
 11
151.941437
 21
130.823624
 31
0.0
210
0.0
220
0.0
230
1.0
  0
LINE
  5
82
100
AcDbEntity
  8
0
 62
     7
 48
0.014219
100
AcDbLine
 10
143.166168
 20
130.823624
 30
0.0
 11
143.734924
 21
130.823624
 31
0.0
210
0.0
220
0.0
230
1.0
  0
ARC
  5
83
100
AcDbEntity
  8
0
 62
     7
100
AcDbCircle
 10
183.166168
 20
116.323624
 30
0.0
 40
1.5
210
0.0
220
0.0
230
1.0
100
AcDbArc
 50
270.217614
 51
330.0
  0
LINE
  5
84
100
AcDbEntity
  8
0
 62
     7
 48
0.000142
100
AcDbLine
 10
183.166168
 20
114.823624
 30
0.0
 11
183.17186
 21
114.823624
 31
0.0
210
0.0
220
0.0
230
1.0
  0
LINE
  5
85
100
AcDbEntity
  8
0
 62
     7
 48
0.000143
100
AcDbLine
 10
184.666153
 20
116.317917
 30
0.0
 11
184.666168
 21
116.323624
 31
0.0
210
0.0
220
0.0
230
1.0
  0
ARC
  5
86
100
AcDbEntity
  8
0
 62
     7
100
AcDbCircle
 10
183.166168
 20
116.323624
 30
0.0
 40
1.5
210
0.0
220
0.0
230
1.0
100
AcDbArc
 50
354.260829
 51
359.781973
  0
ARC
  5
87
100
AcDbEntity
  8
0
 62
     7
100
AcDbCircle
 10
183.166168
 20
116.323624
 30
0.0
 40
1.5
210
0.0
220
0.0
230
1.0
100
AcDbArc
 50
329.999989
 51
354.26082
  0
LINE
  5
88
100
AcDbEntity
  8
0
 62
     7
 48
0.05
100
AcDbLine
 10
183.166168
 20
114.823624
 30
0.0
 11
181.166168
 21
114.823624
 31
0.0
210
0.0
220
0.0
230
1.0
  0
LINE
  5
89
100
AcDbEntity
  8
0
 62
     7
 48
0.005097
100
AcDbLine
 10
184.666168
 20
116.317917
 30
0.0
 11
184.522003
 21
116.462082
 31
0.0
210
0.0
220
0.0
230
1.0
  0
ELLIPSE
  5
8A
100
AcDbEntity
  8
0
 62
     7
100
AcDbEllipse
 10
183.02771
 20
116.462082
 30
0.0
 11
-1.0606536865234375
 21
-1.0606536865234375
 31
0.0
210
0.0
220
0.0
230
1.0
 40
0.992433
 41
0.789196252822876
 42
2.3523964881896973
  0
LINE
  5
8B
100
AcDbEntity
  8
0
 62
     7
 48
0.001231
100
AcDbLine
 10
183.062515
 20
114.932983
 30
0.0
 11
183.02771
 21
114.967789
 31
0.0
210
0.0
220
0.0
230
1.0
  0
ARC
  5
8C
100
AcDbEntity
  8
0
 62
     7
100
AcDbCircle
 10
183.062531
 20
116.437546
 30
0.0
 40
1.504565
210
0.0
220
0.0
230
1.0
100
AcDbArc
 50
269.999554
 51
273.949917
  0
LINE
  5
8D
100
AcDbEntity
  8
0
 62
     7
 48
0.002681
100
AcDbLine
 10
183.166168
 20
114.82933
 30
0.0
 11
183.166168
 21
114.936554
 31
0.0
210
0.0
220
0.0
230
1.0
  0
LINE
  5
8E
100
AcDbEntity
  8
0
 62
     7
 48
0.000202
100
AcDbLine
 10
183.171875
 20
114.823624
 30
0.0
 11
183.166168
 21
114.82933
 31
0.0
210
0.0
220
0.0
230
1.0
  0
LINE
  5
8F
100
AcDbEntity
  8
0
 62
     7
 48
0.00438
100
AcDbLine
 10
184.290024
 20
115.573624
 30
0.0
 11
184.46521
 21
115.573624
 31
0.0
210
0.0
220
0.0
230
1.0
  0
ARC
  5
90
100
AcDbEntity
  8
0
 62
     7
100
AcDbCircle
 10
183.062683
 20
116.425316
 30
0.0
 40
1.493909
210
0.0
220
0.0
230
1.0
100
AcDbArc
 50
325.241749
 51
350.300649
  0
LINE
  5
91
100
AcDbEntity
  8
0
 62
     7
 48
0.003085
100
AcDbLine
 10
184.535263
 20
116.173622
 30
0.0
 11
184.658646
 21
116.173622
 31
0.0
210
0.0
220
0.0
230
1.0
  0
LINE
  5
92
100
AcDbEntity
  8
0
 62
     7
 48
0.000143
100
AcDbLine
 10
183.166168
 20
114.823624
 30
0.0
 11
183.166168
 21
114.82933
 31
0.0
210
0.0
220
0.0
230
1.0
  0
LINE
  5
93
100
AcDbEntity
  8
0
 62
     7
100
AcDbLine
 10
184.666168
 20
185.323624
 30
0.0
 11
184.666168
 21
116.323624
 31
0.0
210
0.0
220
0.0
230
1.0
  0
LINE
  5
94
100
AcDbEntity
  8
0
 62
     7
 48
0.005097
100
AcDbLine
 10
184.522003
 20
185.185165
 30
0.0
 11
184.666168
 21
185.32933
 31
0.0
210
0.0
220
0.0
230
1.0
  0
LINE
  5
95
100
AcDbEntity
  8
0
 62
     7
100
AcDbLine
 10
184.522003
 20
185.185165
 30
0.0
 11
184.522003
 21
116.462082
 31
0.0
210
0.0
220
0.0
230
1.0
  0
LINE
  5
96
100
AcDbEntity
  8
0
 62
     7
 48
0.000143
100
AcDbLine
 10
184.666168
 20
185.323624
 30
0.0
 11
184.666168
 21
185.32933
 31
0.0
210
0.0
220
0.0
230
1.0
  0
ARC
  5
97
100
AcDbEntity
  8
0
 62
     7
100
AcDbCircle
 10
177.716171
 20
136.873627
 30
0.0
 40
0.5
210
0.0
220
0.0
230
1.0
100
AcDbArc
 50
269.999997
 51
359.999879
  0
ARC
  5
98
100
AcDbEntity
  8
0
 62
     7
100
AcDbCircle
 10
119.616165
 20
180.573624
 30
0.0
 40
0.5
210
0.0
220
0.0
230
1.0
100
AcDbArc
 50
89.999852
 51
180.000005
  0
LINE
  5
99
100
AcDbEntity
  8
0
 62
     7
100
AcDbLine
 10
119.116165
 20
136.873627
 30
0.0
 11
119.116165
 21
180.573624
 31
0.0
210
0.0
220
0.0
230
1.0
  0
ARC
  5
9A
100
AcDbEntity
  8
0
 62
     7
100
AcDbCircle
 10
119.616165
 20
136.873627
 30
0.0
 40
0.5
210
0.0
220
0.0
230
1.0
100
AcDbArc
 50
179.999995
 51
269.999827
  0
LINE
  5
9B
100
AcDbEntity
  8
0
 62
     7
 48
0.002651
100
AcDbLine
 10
177.610138
 20
136.373627
 30
0.0
 11
177.716171
 21
136.373627
 31
0.0
210
0.0
220
0.0
230
1.0
  0
LINE
  5
9C
100
AcDbEntity
  8
0
 62
     7
 48
0.002651
100
AcDbLine
 10
119.616165
 20
136.373627
 30
0.0
 11
119.722191
 21
136.373627
 31
0.0
210
0.0
220
0.0
230
1.0
  0
LINE
  5
9D
100
AcDbEntity
  8
0
 62
     7
100
AcDbLine
 10
119.722191
 20
136.373627
 30
0.0
 11
177.610138
 21
136.373627
 31
0.0
210
0.0
220
0.0
230
1.0
  0
LINE
  5
9E
100
AcDbEntity
  8
0
 62
     7
100
AcDbLine
 10
178.216171
 20
180.573624
 30
0.0
 11
178.216171
 21
136.873627
 31
0.0
210
0.0
220
0.0
230
1.0
  0
LINE
  5
9F
100
AcDbEntity
  8
0
 62
     7
100
AcDbLine
 10
177.610138
 20
181.073624
 30
0.0
 11
119.722191
 21
181.073624
 31
0.0
210
0.0
220
0.0
230
1.0
  0
LINE
  5
A0
100
AcDbEntity
  8
0
 62
     7
 48
0.002651
100
AcDbLine
 10
119.616165
 20
181.073624
 30
0.0
 11
119.722191
 21
181.073624
 31
0.0
210
0.0
220
0.0
230
1.0
  0
LINE
  5
A1
100
AcDbEntity
  8
0
 62
     7
 48
0.002651
100
AcDbLine
 10
177.610138
 20
181.073624
 30
0.0
 11
177.716171
 21
181.073624
 31
0.0
210
0.0
220
0.0
230
1.0
  0
ARC
  5
A2
100
AcDbEntity
  8
0
 62
     7
100
AcDbCircle
 10
177.716171
 20
180.573624
 30
0.0
 40
0.5
210
0.0
220
0.0
230
1.0
100
AcDbArc
 50
0.0
 51
89.999825
  0
LINE
  5
A3
100
AcDbEntity
  8
0
 62
     7
 48
0.041851
100
AcDbLine
 10
118.116165
 20
181.54599
 30
0.0
 11
119.722191
 21
181.073624
 31
0.0
210
0.0
220
0.0
230
1.0
  0
LINE
  5
A4
100
AcDbEntity
  8
0
 62
     7
 48
0.041851
100
AcDbLine
 10
179.216171
 20
181.54599
 30
0.0
 11
177.610138
 21
181.073624
 31
0.0
210
0.0
220
0.0
230
1.0
  0
LINE
  5
A5
100
AcDbEntity
  8
0
 62
     7
100
AcDbLine
 10
179.216171
 20
181.54599
 30
0.0
 11
118.116165
 21
181.54599
 31
0.0
210
0.0
220
0.0
230
1.0
  0
LINE
  5
A6
100
AcDbEntity
  8
0
 62
     7
 48
0.044287
100
AcDbLine
 10
117.439636
 20
181.22319
 30
0.0
 11
119.139114
 21
180.723343
 31
0.0
210
0.0
220
0.0
230
1.0
  0
ELLIPSE
  5
A7
100
AcDbEntity
  8
0
 62
     7
100
AcDbEllipse
 10
118.572327
 20
180.9646
 30
0.0
 11
1.1240692138671875
 21
-0.3306121826171875
 31
0.0
210
0.0
220
0.0
230
1.0
 40
0.42674
 41
2.1100702285766602
 42
3.2851493358612061
  0
LINE
  5
A8
100
AcDbEntity
  8
0
 62
     7
100
AcDbLine
 10
117.439636
 20
181.22319
 30
0.0
 11
117.439636
 21
136.22406
 31
0.0
210
0.0
220
0.0
230
1.0
  0
LINE
  5
A9
100
AcDbEntity
  8
0
 62
     7
 48
0.044287
100
AcDbLine
 10
117.439636
 20
136.22406
 30
0.0
 11
119.139114
 21
136.723907
 31
0.0
210
0.0
220
0.0
230
1.0
  0
LINE
  5
AA
100
AcDbEntity
  8
0
 62
     7
 48
0.041851
100
AcDbLine
 10
118.116165
 20
135.90126
 30
0.0
 11
119.722191
 21
136.373627
 31
0.0
210
0.0
220
0.0
230
1.0
  0
ELLIPSE
  5
AB
100
AcDbEntity
  8
0
 62
     7
100
AcDbEllipse
 10
118.572319
 20
136.482635
 30
0.0
 11
1.124053955078125
 21
0.330596923828125
 31
0.0
210
0.0
220
0.0
230
1.0
 40
0.426741
 41
2.9980361461639404
 42
4.1731185913085937
  0
LINE
  5
AC
100
AcDbEntity
  8
0
 62
     7
 48
0.041851
100
AcDbLine
 10
179.216171
 20
135.90126
 30
0.0
 11
177.610138
 21
136.373627
 31
0.0
210
0.0
220
0.0
230
1.0
  0
LINE
  5
AD
100
AcDbEntity
  8
0
 62
     7
100
AcDbLine
 10
179.216171
 20
135.90126
 30
0.0
 11
118.116165
 21
135.90126
 31
0.0
210
0.0
220
0.0
230
1.0
  0
LINE
  5
AE
100
AcDbEntity
  8
0
 62
     7
 48
0.044287
100
AcDbLine
 10
179.8927
 20
136.22406
 30
0.0
 11
178.193222
 21
136.723907
 31
0.0
210
0.0
220
0.0
230
1.0
  0
ELLIPSE
  5
AF
100
AcDbEntity
  8
0
 62
     7
100
AcDbEllipse
 10
178.76001
 20
136.482635
 30
0.0
 11
1.1240692138671875
 21
-0.3306121826171875
 31
0.0
210
0.0
220
0.0
230
1.0
 40
0.42674
 41
5.2516627311706543
 42
6.4267420768737793
  0
LINE
  5
B0
100
AcDbEntity
  8
0
 62
     7
100
AcDbLine
 10
179.8927
 20
136.22406
 30
0.0
 11
179.8927
 21
181.22319
 31
0.0
210
0.0
220
0.0
230
1.0
  0
LINE
  5
B1
100
AcDbEntity
  8
0
 62
     7
 48
0.044287
100
AcDbLine
 10
179.8927
 20
181.22319
 30
0.0
 11
178.193222
 21
180.723343
 31
0.0
210
0.0
220
0.0
230
1.0
  0
ELLIPSE
  5
B2
100
AcDbEntity
  8
0
 62
     7
100
AcDbEllipse
 10
178.76001
 20
180.964615
 30
0.0
 11
1.124053955078125
 21
0.330596923828125
 31
0.0
210
0.0
220
0.0
230
1.0
 40
0.426741
 41
6.1396288871765137
 42
7.3147115707397461
  0
LINE
  5
B3
100
AcDbEntity
  8
0
 62
     7
 48
0.047409
100
AcDbLine
 10
181.166168
 20
114.932983
 30
0.0
 11
183.062515
 21
114.932983
 31
0.0
210
0.0
220
0.0
230
1.0
  0
LINE
  5
B4
100
AcDbEntity
  8
0
 62
     7
 48
0.010841
100
AcDbLine
 10
184.088364
 20
116.462082
 30
0.0
 11
184.522003
 21
116.462082
 31
0.0
210
0.0
220
0.0
230
1.0
  0
ELLIPSE
  5
B5
100
AcDbEntity
  8
0
 62
     7
100
AcDbEllipse
 10
183.02771
 20
116.462082
 30
0.0
 11
-0.1307373046875
 21
-1.494293212890625
 31
0.0
210
0.0
220
0.0
230
1.0
 40
0.705758
 41
0.123334988951683
 42
1.632463812828064
  0
LINE
  5
B6
100
AcDbEntity
  8
0
 62
     7
 48
0.002734
100
AcDbLine
 10
181.166168
 20
114.823624
 30
0.0
 11
181.166168
 21
114.932983
 31
0.0
210
0.0
220
0.0
230
1.0
  0
LINE
  5
B7
100
AcDbEntity
  8
0
 62
     7
 48
0.0875
100
AcDbLine
 10
180.166168
 20
131.723618
 30
0.0
 11
180.166168
 21
135.223618
 31
0.0
210
0.0
220
0.0
230
1.0
  0
LINE
  5
B8
100
AcDbEntity
  8
0
 62
     7
100
AcDbLine
 10
117.166168
 20
135.223618
 30
0.0
 11
180.166168
 21
135.223618
 31
0.0
210
0.0
220
0.0
230
1.0
  0
LINE
  5
B9
100
AcDbEntity
  8
0
 62
     7
 48
0.0875
100
AcDbLine
 10
117.166168
 20
135.223618
 30
0.0
 11
117.166168
 21
131.723618
 31
0.0
210
0.0
220
0.0
230
1.0
  0
LINE
  5
BA
100
AcDbEntity
  8
0
 62
     7
100
AcDbLine
 10
180.166168
 20
131.723618
 30
0.0
 11
117.166168
 21
131.723618
 31
0.0
210
0.0
220
0.0
230
1.0
  0
LINE
  5
BB
100
AcDbEntity
  8
0
 62
     7
 48
0.002236
100
AcDbLine
 10
179.216171
 20
181.54599
 30
0.0
 11
179.216171
 21
181.635422
 31
0.0
210
0.0
220
0.0
230
1.0
  0
LINE
  5
BC
100
AcDbEntity
  8
0
 62
     7
100
AcDbLine
 10
179.216171
 20
181.635422
 30
0.0
 11
118.116165
 21
181.635422
 31
0.0
210
0.0
220
0.0
230
1.0
  0
LINE
  5
BD
100
AcDbEntity
  8
0
 62
     7
 48
0.002236
100
AcDbLine
 10
118.116165
 20
181.54599
 30
0.0
 11
118.116165
 21
181.635422
 31
0.0
210
0.0
220
0.0
230
1.0
  0
ELLIPSE
  5
BE
100
AcDbEntity
  8
0
 62
     7
100
AcDbEllipse
 10
118.572311
 20
180.964615
 30
0.0
 11
1.17120361328125
 21
-0.3444671630859375
 31
0.0
210
0.0
220
0.0
230
1.0
 40
0.491474
 41
2.1100645065307617
 42
3.2851488590240479
  0
LINE
  5
BF
100
AcDbEntity
  8
0
 62
     7
 48
0.001267
100
AcDbLine
 10
117.439636
 20
181.22319
 30
0.0
 11
117.388939
 21
181.22319
 31
0.0
210
0.0
220
0.0
230
1.0
  0
LINE
  5
C0
100
AcDbEntity
  8
0
 62
     7
100
AcDbLine
 10
117.388939
 20
181.22319
 30
0.0
 11
117.388939
 21
136.22406
 31
0.0
210
0.0
220
0.0
230
1.0
  0
LINE
  5
C1
100
AcDbEntity
  8
0
 62
     7
 48
0.001267
100
AcDbLine
 10
117.439636
 20
136.22406
 30
0.0
 11
117.388939
 21
136.22406
 31
0.0
210
0.0
220
0.0
230
1.0
  0
ELLIPSE
  5
C2
100
AcDbEntity
  8
0
 62
     7
100
AcDbEllipse
 10
118.572327
 20
136.482635
 30
0.0
 11
1.1712188720703125
 21
0.3444671630859375
 31
0.0
210
0.0
220
0.0
230
1.0
 40
0.491473
 41
2.9980361461639404
 42
4.1731162071228027
  0
LINE
  5
C3
100
AcDbEntity
  8
0
 62
     7
 48
0.002236
100
AcDbLine
 10
118.116165
 20
135.90126
 30
0.0
 11
118.116165
 21
135.811813
 31
0.0
210
0.0
220
0.0
230
1.0
  0
LINE
  5
C4
100
AcDbEntity
  8
0
 62
     7
100
AcDbLine
 10
179.216171
 20
135.811813
 30
0.0
 11
118.116165
 21
135.811813
 31
0.0
210
0.0
220
0.0
230
1.0
  0
LINE
  5
C5
100
AcDbEntity
  8
0
 62
     7
 48
0.002236
100
AcDbLine
 10
179.216171
 20
135.90126
 30
0.0
 11
179.216171
 21
135.811813
 31
0.0
210
0.0
220
0.0
230
1.0
  0
ELLIPSE
  5
C6
100
AcDbEntity
  8
0
 62
     7
100
AcDbEllipse
 10
178.760025
 20
136.482635
 30
0.0
 11
1.17120361328125
 21
-0.3444671630859375
 31
0.0
210
0.0
220
0.0
230
1.0
 40
0.491474
 41
5.2516570091247559
 42
6.4267416000366211
  0
LINE
  5
C7
100
AcDbEntity
  8
0
 62
     7
 48
0.001268
100
AcDbLine
 10
179.8927
 20
136.22406
 30
0.0
 11
179.943405
 21
136.22406
 31
0.0
210
0.0
220
0.0
230
1.0
  0
LINE
  5
C8
100
AcDbEntity
  8
0
 62
     7
100
AcDbLine
 10
179.943405
 20
136.22406
 30
0.0
 11
179.943405
 21
181.22319
 31
0.0
210
0.0
220
0.0
230
1.0
  0
LINE
  5
C9
100
AcDbEntity
  8
0
 62
     7
 48
0.001268
100
AcDbLine
 10
179.8927
 20
181.22319
 30
0.0
 11
179.943405
 21
181.22319
 31
0.0
210
0.0
220
0.0
230
1.0
  0
ELLIPSE
  5
CA
100
AcDbEntity
  8
0
 62
     7
100
AcDbEllipse
 10
178.76001
 20
180.9646
 30
0.0
 11
1.1712188720703125
 21
0.3444671630859375
 31
0.0
210
0.0
220
0.0
230
1.0
 40
0.491473
 41
6.1396288871765137
 42
7.3147087097167969
  0
LINE
  5
CB
100
AcDbEntity
  8
0
 62
     7
 48
0.049761
100
AcDbLine
 10
183.02771
 20
114.967789
 30
0.0
 11
181.044846
 21
115.141273
 31
0.0
210
0.0
220
0.0
230
1.0
  0
LINE
  5
CC
100
AcDbEntity
  8
0
 62
     7
 48
0.010841
100
AcDbLine
 10
184.088364
 20
185.185165
 30
0.0
 11
184.522003
 21
185.185165
 31
0.0
210
0.0
220
0.0
230
1.0
  0
ELLIPSE
  5
CD
100
AcDbEntity
  8
0
 62
     7
100
AcDbEllipse
 10
183.02771
 20
185.185165
 30
0.0
 11
1.0606536865234375
 21
-1.0606536865234375
 31
0.0
210
0.0
220
0.0
230
1.0
 40
0.992433
 41
0.789196252822876
 42
2.3523964881896973
  0
ARC
  5
CE
100
AcDbEntity
  8
0
 62
     7
100
AcDbCircle
 10
183.166168
 20
185.323624
 30
0.0
 40
1.5
210
0.0
220
0.0
230
1.0
100
AcDbArc
 50
0.217615
 51
89.781976
  0
ELLIPSE
  5
CF
100
AcDbEntity
  8
0
 62
     7
100
AcDbEllipse
 10
114.304626
 20
185.185165
 30
0.0
 11
1.0606536865234375
 21
1.0606536865234375
 31
0.0
210
0.0
220
0.0
230
1.0
 40
0.992433
 41
0.789196252822876
 42
2.3523964881896973
  0
ARC
  5
D0
100
AcDbEntity
  8
0
 62
     7
100
AcDbCircle
 10
114.166168
 20
185.323624
 30
0.0
 40
1.5
210
0.0
220
0.0
230
1.0
100
AcDbArc
 50
90.217612
 51
179.781972
  0
LINE
  5
D1
100
AcDbEntity
  8
0
 62
     7
 48
0.021967
100
AcDbLine
 10
180.166168
 20
116.635559
 30
0.0
 11
181.044846
 21
116.635559
 31
0.0
210
0.0
220
0.0
230
1.0
  0
LINE
  5
D2
100
AcDbEntity
  8
0
 62
     7
 48
0.021967
100
AcDbLine
 10
180.166168
 20
115.141273
 30
0.0
 11
181.044846
 21
115.141273
 31
0.0
210
0.0
220
0.0
230
1.0
  0
LINE
  5
D3
100
AcDbEntity
  8
0
 62
     7
 48
0.025
100
AcDbLine
 10
181.166168
 20
114.823624
 30
0.0
 11
180.166168
 21
114.823624
 31
0.0
210
0.0
220
0.0
230
1.0
  0
LINE
  5
D4
100
AcDbEntity
  8
0
 62
     7
 48
0.0125
100
AcDbLine
 10
117.666168
 20
114.823624
 30
0.0
 11
117.166168
 21
114.823624
 31
0.0
210
0.0
220
0.0
230
1.0
  0
LINE
  5
D5
100
AcDbEntity
  8
0
 62
     7
100
AcDbLine
 10
179.666168
 20
114.823624
 30
0.0
 11
117.666168
 21
114.823624
 31
0.0
210
0.0
220
0.0
230
1.0
  0
LINE
  5
D6
100
AcDbEntity
  8
0
 62
     7
 48
0.0125
100
AcDbLine
 10
180.166168
 20
114.823624
 30
0.0
 11
179.666168
 21
114.823624
 31
0.0
210
0.0
220
0.0
230
1.0
  0
LINE
  5
D7
100
AcDbEntity
  8
0
 62
     7
 48
0.3125
100
AcDbLine
 10
142.416168
 20
131.66272
 30
0.0
 11
154.916168
 21
131.66272
 31
0.0
210
0.0
220
0.0
230
1.0
  0
LINE
  5
D8
100
AcDbEntity
  8
0
 62
     7
 48
0.008477
100
AcDbLine
 10
142.416168
 20
131.323624
 30
0.0
 11
142.416168
 21
131.66272
 31
0.0
210
0.0
220
0.0
230
1.0
  0
LINE
  5
D9
100
AcDbEntity
  8
0
 62
     7
 48
0.0125
100
AcDbLine
 10
117.166168
 20
115.541718
 30
0.0
 11
117.666168
 21
115.541718
 31
0.0
210
0.0
220
0.0
230
1.0
  0
LINE
  5
DA
100
AcDbEntity
  8
0
 62
     7
 48
0.0025
100
AcDbLine
 10
142.416168
 20
131.323624
 30
0.0
 11
142.416168
 21
131.223618
 31
0.0
210
0.0
220
0.0
230
1.0
  0
LINE
  5
DB
100
AcDbEntity
  8
0
 62
     7
100
AcDbLine
 10
123.416168
 20
115.817734
 30
0.0
 11
173.916168
 21
115.817734
 31
0.0
210
0.0
220
0.0
230
1.0
  0
LINE
  5
DC
100
AcDbEntity
  8
0
 62
     7
 48
0.0025
100
AcDbLine
 10
117.166168
 20
115.823624
 30
0.0
 11
117.266167
 21
115.823624
 31
0.0
210
0.0
220
0.0
230
1.0
  0
LINE
  5
DD
100
AcDbEntity
  8
0
 62
     7
 48
0.0025
100
AcDbLine
 10
180.066162
 20
115.823624
 30
0.0
 11
180.166168
 21
115.823624
 31
0.0
210
0.0
220
0.0
230
1.0
  0
LINE
  5
DE
100
AcDbEntity
  8
0
 62
     7
 48
0.002002
100
AcDbLine
 10
118.616165
 20
115.141273
 30
0.0
 11
118.616165
 21
115.221352
 31
0.0
210
0.0
220
0.0
230
1.0
  0
LINE
  5
DF
100
AcDbEntity
  8
0
 62
     7
 48
0.001337
100
AcDbLine
 10
118.616165
 20
115.087799
 30
0.0
 11
118.616165
 21
115.141273
 31
0.0
210
0.0
220
0.0
230
1.0
  0
LINE
  5
E0
100
AcDbEntity
  8
0
 62
     7
 48
0.01875
100
AcDbLine
 10
117.866165
 20
115.087799
 30
0.0
 11
118.616165
 21
115.087799
 31
0.0
210
0.0
220
0.0
230
1.0
  0
LINE
  5
E1
100
AcDbEntity
  8
0
 62
     7
 48
0.011862
100
AcDbLine
 10
117.866165
 20
115.141273
 30
0.0
 11
117.866165
 21
115.615761
 31
0.0
210
0.0
220
0.0
230
1.0
  0
LINE
  5
E2
100
AcDbEntity
  8
0
 62
     7
 48
0.001337
100
AcDbLine
 10
117.866165
 20
115.141273
 30
0.0
 11
117.866165
 21
115.087799
 31
0.0
210
0.0
220
0.0
230
1.0
  0
LINE
  5
E3
100
AcDbEntity
  8
0
 62
     7
 48
0.011862
100
AcDbLine
 10
179.466171
 20
115.615761
 30
0.0
 11
179.466171
 21
115.141273
 31
0.0
210
0.0
220
0.0
230
1.0
  0
LINE
  5
E4
100
AcDbEntity
  8
0
 62
     7
 48
0.001337
100
AcDbLine
 10
179.466171
 20
115.141273
 30
0.0
 11
179.466171
 21
115.087799
 31
0.0
210
0.0
220
0.0
230
1.0
  0
LINE
  5
E5
100
AcDbEntity
  8
0
 62
     7
 48
0.01875
100
AcDbLine
 10
178.716171
 20
115.087799
 30
0.0
 11
179.466171
 21
115.087799
 31
0.0
210
0.0
220
0.0
230
1.0
  0
LINE
  5
E6
100
AcDbEntity
  8
0
 62
     7
 48
0.001337
100
AcDbLine
 10
178.716171
 20
115.087799
 30
0.0
 11
178.716171
 21
115.141273
 31
0.0
210
0.0
220
0.0
230
1.0
  0
LINE
  5
E7
100
AcDbEntity
  8
0
 62
     7
 48
0.002002
100
AcDbLine
 10
178.716171
 20
115.221352
 30
0.0
 11
178.716171
 21
115.141273
 31
0.0
210
0.0
220
0.0
230
1.0
  0
LINE
  5
E8
100
AcDbEntity
  8
0
 62
     7
 48
0.03875
100
AcDbLine
 10
120.166168
 20
115.221352
 30
0.0
 11
118.616165
 21
115.221352
 31
0.0
210
0.0
220
0.0
230
1.0
  0
LINE
  5
E9
100
AcDbEntity
  8
0
 62
     7
 48
0.03875
100
AcDbLine
 10
178.716171
 20
115.221352
 30
0.0
 11
177.166168
 21
115.221352
 31
0.0
210
0.0
220
0.0
230
1.0
  0
LINE
  5
EA
100
AcDbEntity
  8
0
 62
     7
 48
0.01875
100
AcDbLine
 10
179.466171
 20
115.141273
 30
0.0
 11
178.716171
 21
115.141273
 31
0.0
210
0.0
220
0.0
230
1.0
  0
LINE
  5
EB
100
AcDbEntity
  8
0
 62
     7
 48
0.015
100
AcDbLine
 10
180.066162
 20
115.615761
 30
0.0
 11
179.466171
 21
115.615761
 31
0.0
210
0.0
220
0.0
230
1.0
  0
LINE
  5
EC
100
AcDbEntity
  8
0
 62
     7
 48
0.025495
100
AcDbLine
 10
180.066162
 20
115.615761
 30
0.0
 11
180.066162
 21
116.635559
 31
0.0
210
0.0
220
0.0
230
1.0
  0
LINE
  5
ED
100
AcDbEntity
  8
0
 62
     7
100
AcDbLine
 10
180.066162
 20
116.635559
 30
0.0
 11
117.266167
 21
116.635559
 31
0.0
210
0.0
220
0.0
230
1.0
  0
LINE
  5
EE
100
AcDbEntity
  8
0
 62
     7
 48
0.025495
100
AcDbLine
 10
117.266167
 20
116.635559
 30
0.0
 11
117.266167
 21
115.615761
 31
0.0
210
0.0
220
0.0
230
1.0
  0
LINE
  5
EF
100
AcDbEntity
  8
0
 62
     7
 48
0.015
100
AcDbLine
 10
117.866165
 20
115.615761
 30
0.0
 11
117.266167
 21
115.615761
 31
0.0
210
0.0
220
0.0
230
1.0
  0
LINE
  5
F0
100
AcDbEntity
  8
0
 62
     7
 48
0.01875
100
AcDbLine
 10
118.616165
 20
115.141273
 30
0.0
 11
117.866165
 21
115.141273
 31
0.0
210
0.0
220
0.0
230
1.0
  0
LINE
  5
F1
100
AcDbEntity
  8
0
 62
     7
 48
0.012557
100
AcDbLine
 10
120.166168
 20
115.723625
 30
0.0
 11
120.166168
 21
115.221352
 31
0.0
210
0.0
220
0.0
230
1.0
  0
ARC
  5
F2
100
AcDbEntity
  8
0
 62
     7
100
AcDbCircle
 10
120.666168
 20
115.723625
 30
0.0
 40
0.5
210
0.0
220
0.0
230
1.0
100
AcDbArc
 50
90.000003
 51
180.000005
  0
LINE
  5
F3
100
AcDbEntity
  8
0
 62
     7
100
AcDbLine
 10
120.666168
 20
116.223625
 30
0.0
 11
176.666168
 21
116.223625
 31
0.0
210
0.0
220
0.0
230
1.0
  0
ARC
  5
F4
100
AcDbEntity
  8
0
 62
     7
100
AcDbCircle
 10
176.666168
 20
115.723625
 30
0.0
 40
0.5
210
0.0
220
0.0
230
1.0
100
AcDbArc
 50
0.0
 51
90.000003
  0
LINE
  5
F5
100
AcDbEntity
  8
0
 62
     7
 48
0.012557
100
AcDbLine
 10
177.166168
 20
115.221352
 30
0.0
 11
177.166168
 21
115.723625
 31
0.0
210
0.0
220
0.0
230
1.0
  0
LINE
  5
F6
100
AcDbEntity
  8
0
 62
     7
 48
0.358451
100
AcDbLine
 10
180.066162
 20
116.635559
 30
0.0
 11
180.066162
 21
130.973618
 31
0.0
210
0.0
220
0.0
230
1.0
  0
LINE
  5
F7
100
AcDbEntity
  8
0
 62
     7
100
AcDbLine
 10
154.416168
 20
131.223618
 30
0.0
 11
179.816162
 21
131.223618
 31
0.0
210
0.0
220
0.0
230
1.0
  0
ARC
  5
F8
100
AcDbEntity
  8
0
 62
     7
100
AcDbCircle
 10
154.416168
 20
130.973618
 30
0.0
 40
0.25
210
0.0
220
0.0
230
1.0
100
AcDbArc
 50
90.000003
 51
180.000005
  0
LINE
  5
F9
100
AcDbEntity
  8
0
 62
     7
 48
0.05625
100
AcDbLine
 10
154.166168
 20
130.973618
 30
0.0
 11
154.166168
 21
128.723618
 31
0.0
210
0.0
220
0.0
230
1.0
  0
LINE
  5
FA
100
AcDbEntity
  8
0
 62
     7
 48
0.275
100
AcDbLine
 10
143.166168
 20
128.723618
 30
0.0
 11
154.166168
 21
128.723618
 31
0.0
210
0.0
220
0.0
230
1.0
  0
LINE
  5
FB
100
AcDbEntity
  8
0
 62
     7
 48
0.05625
100
AcDbLine
 10
143.166168
 20
130.973618
 30
0.0
 11
143.166168
 21
128.723618
 31
0.0
210
0.0
220
0.0
230
1.0
  0
ARC
  5
FC
100
AcDbEntity
  8
0
 62
     7
100
AcDbCircle
 10
142.916168
 20
130.973618
 30
0.0
 40
0.25
210
0.0
220
0.0
230
1.0
100
AcDbArc
 50
0.0
 51
90.000003
  0
LINE
  5
FD
100
AcDbEntity
  8
0
 62
     7
100
AcDbLine
 10
117.516167
 20
131.223618
 30
0.0
 11
142.916168
 21
131.223618
 31
0.0
210
0.0
220
0.0
230
1.0
  0
ARC
  5
FE
100
AcDbEntity
  8
0
 62
     7
100
AcDbCircle
 10
117.516167
 20
130.973618
 30
0.0
 40
0.25
210
0.0
220
0.0
230
1.0
100
AcDbArc
 50
90.000003
 51
180.000005
  0
LINE
  5
FF
100
AcDbEntity
  8
0
 62
     7
 48
0.358451
100
AcDbLine
 10
117.266167
 20
130.973618
 30
0.0
 11
117.266167
 21
116.635559
 31
0.0
210
0.0
220
0.0
230
1.0
  0
ARC
  5
100
100
AcDbEntity
  8
0
 62
     7
100
AcDbCircle
 10
179.816162
 20
130.973618
 30
0.0
 40
0.25
210
0.0
220
0.0
230
1.0
100
AcDbArc
 50
0.0
 51
90.000003
  0
CIRCLE
  5
101
100
AcDbEntity
  8
0
 62
     7
100
AcDbCircle
 10
125.666168
 20
122.023621
 30
0.0
 40
1.25
210
0.0
220
0.0
230
1.0
  0
LINE
  5
102
100
AcDbEntity
  8
0
 62
     7
 48
0.01875
100
AcDbLine
 10
153.766174
 20
129.473633
 30
0.0
 11
153.766174
 21
128.723618
 31
0.0
210
0.0
220
0.0
230
1.0
  0
LINE
  5
103
100
AcDbEntity
  8
0
 62
     7
 48
0.000063
100
AcDbLine
 10
153.763672
 20
129.473618
 30
0.0
 11
153.766174
 21
129.473633
 31
0.0
210
0.0
220
0.0
230
1.0
  0
LINE
  5
104
100
AcDbEntity
  8
0
 62
     7
 48
0.102438
100
AcDbLine
 10
149.666168
 20
129.473618
 30
0.0
 11
153.763672
 21
129.473618
 31
0.0
210
0.0
220
0.0
230
1.0
  0
LINE
  5
105
100
AcDbEntity
  8
0
 62
     7
 48
0.05
100
AcDbLine
 10
147.666168
 20
129.473618
 30
0.0
 11
149.666168
 21
129.473618
 31
0.0
210
0.0
220
0.0
230
1.0
  0
LINE
  5
106
100
AcDbEntity
  8
0
 62
     7
 48
0.102438
100
AcDbLine
 10
143.568665
 20
129.473618
 30
0.0
 11
147.666168
 21
129.473618
 31
0.0
210
0.0
220
0.0
230
1.0
  0
LINE
  5
107
100
AcDbEntity
  8
0
 62
     7
 48
0.000063
100
AcDbLine
 10
143.566162
 20
129.473633
 30
0.0
 11
143.568665
 21
129.473618
 31
0.0
210
0.0
220
0.0
230
1.0
  0
LINE
  5
108
100
AcDbEntity
  8
0
 62
     7
 48
0.01875
100
AcDbLine
 10
143.566162
 20
129.473633
 30
0.0
 11
143.566162
 21
128.723618
 31
0.0
210
0.0
220
0.0
230
1.0
  0
LINE
  5
109
100
AcDbEntity
  8
0
 62
     7
 48
0.00375
100
AcDbLine
 10
154.016174
 20
130.473618
 30
0.0
 11
154.166168
 21
130.473618
 31
0.0
210
0.0
220
0.0
230
1.0
  0
LINE
  5
10A
100
AcDbEntity
  8
0
 62
     7
 48
0.020311
100
AcDbLine
 10
143.316162
 20
129.536072
 30
0.0
 11
143.316162
 21
128.723618
 31
0.0
210
0.0
220
0.0
230
1.0
  0
POLYLINE
  5
10B
100
AcDbEntity
  8
0
 62
     7
100
AcDb2dPolyline
 66
     1
 10
0.0
 20
0.0
 30
0.0
 71
     9
  0
VERTEX
  5
10C
100
AcDbEntity
  8
0
100
AcDbVertex
100
AcDb2dVertex
 10
143.566162
 20
129.473633
 30
0.0
  0
VERTEX
  5
10D
100
AcDbEntity
  8
0
100
AcDbVertex
100
AcDb2dVertex
 10
143.513336
 20
129.478729
 30
0.0
  0
VERTEX
  5
10E
100
AcDbEntity
  8
0
100
AcDbVertex
100
AcDb2dVertex
 10
143.417999
 20
129.509415
 30
0.0
  0
VERTEX
  5
10F
100
AcDbEntity
  8
0
100
AcDbVertex
100
AcDb2dVertex
 10
143.342773
 20
129.547058
 30
0.0
  0
VERTEX
  5
110
100
AcDbEntity
  8
0
100
AcDbVertex
100
AcDb2dVertex
 10
143.329102
 20
129.550659
 30
0.0
  0
VERTEX
  5
111
100
AcDbEntity
  8
0
100
AcDbVertex
100
AcDb2dVertex
 10
143.323914
 20
129.550156
 30
0.0
  0
VERTEX
  5
112
100
AcDbEntity
  8
0
100
AcDbVertex
100
AcDb2dVertex
 10
143.318634
 20
129.546249
 30
0.0
  0
VERTEX
  5
113
100
AcDbEntity
  8
0
100
AcDbVertex
100
AcDb2dVertex
 10
143.317245
 20
129.543396
 30
0.0
  0
VERTEX
  5
114
100
AcDbEntity
  8
0
100
AcDbVertex
100
AcDb2dVertex
 10
143.316162
 20
129.536072
 30
0.0
  0
SEQEND
  5
115
100
AcDbEntity
  8
0
  0
LINE
  5
116
100
AcDbEntity
  8
0
 62
     7
 48
0.00433
100
AcDbLine
 10
154.016174
 20
130.473618
 30
0.0
 11
154.016174
 21
130.300415
 31
0.0
210
0.0
220
0.0
230
1.0
  0
LINE
  5
117
100
AcDbEntity
  8
0
 62
     7
 48
0.014524
100
AcDbLine
 10
154.016174
 20
130.300415
 30
0.0
 11
154.016174
 21
129.719437
 31
0.0
210
0.0
220
0.0
230
1.0
  0
LINE
  5
118
100
AcDbEntity
  8
0
 62
     7
 48
0.004584
100
AcDbLine
 10
154.016174
 20
129.536072
 30
0.0
 11
154.016174
 21
129.719437
 31
0.0
210
0.0
220
0.0
230
1.0
  0
LINE
  5
119
100
AcDbEntity
  8
0
 62
     7
 48
0.020311
100
AcDbLine
 10
154.016174
 20
129.536072
 30
0.0
 11
154.016174
 21
128.723618
 31
0.0
210
0.0
220
0.0
230
1.0
  0
LINE
  5
11A
100
AcDbEntity
  8
0
 62
     7
 48
0.014524
100
AcDbLine
 10
143.316162
 20
130.300415
 30
0.0
 11
143.316162
 21
129.719437
 31
0.0
210
0.0
220
0.0
230
1.0
  0
LINE
  5
11B
100
AcDbEntity
  8
0
 62
     7
 48
0.00433
100
AcDbLine
 10
143.316162
 20
130.473618
 30
0.0
 11
143.316162
 21
130.300415
 31
0.0
210
0.0
220
0.0
230
1.0
  0
LINE
  5
11C
100
AcDbEntity
  8
0
 62
     7
 48
0.004584
100
AcDbLine
 10
143.316162
 20
129.536072
 30
0.0
 11
143.316162
 21
129.719437
 31
0.0
210
0.0
220
0.0
230
1.0
  0
LINE
  5
11D
100
AcDbEntity
  8
0
 62
     7
 48
0.002187
100
AcDbLine
 10
154.016174
 20
130.300415
 30
0.0
 11
154.003662
 21
130.213821
 31
0.0
210
0.0
220
0.0
230
1.0
  0
LINE
  5
11E
100
AcDbEntity
  8
0
 62
     7
 48
0.00125
100
AcDbLine
 10
154.016174
 20
130.473618
 30
0.0
 11
153.966171
 21
130.473618
 31
0.0
210
0.0
220
0.0
230
1.0
  0
LINE
  5
11F
100
AcDbEntity
  8
0
 62
     7
 48
0.00125
100
AcDbLine
 10
143.366165
 20
130.473618
 30
0.0
 11
143.316162
 21
130.473618
 31
0.0
210
0.0
220
0.0
230
1.0
  0
LINE
  5
120
100
AcDbEntity
  8
0
 62
     7
 48
0.002187
100
AcDbLine
 10
143.316162
 20
130.300415
 30
0.0
 11
143.328674
 21
130.213821
 31
0.0
210
0.0
220
0.0
230
1.0
  0
LINE
  5
121
100
AcDbEntity
  8
0
 62
     7
 48
0.000625
100
AcDbLine
 10
153.666168
 20
130.473618
 30
0.0
 11
153.641174
 21
130.473618
 31
0.0
210
0.0
220
0.0
230
1.0
  0
LINE
  5
122
100
AcDbEntity
  8
0
 62
     7
 48
0.012597
100
AcDbLine
 10
153.578674
 20
130.973618
 30
0.0
 11
153.641174
 21
130.473618
 31
0.0
210
0.0
220
0.0
230
1.0
  0
LINE
  5
123
100
AcDbEntity
  8
0
 62
     7
 48
0.005445
100
AcDbLine
 10
153.578674
 20
130.973618
 30
0.0
 11
153.360855
 21
130.973618
 31
0.0
210
0.0
220
0.0
230
1.0
  0
LINE
  5
124
100
AcDbEntity
  8
0
 62
     7
 48
0.025893
100
AcDbLine
 10
153.360855
 20
129.937881
 30
0.0
 11
153.360855
 21
130.973618
 31
0.0
210
0.0
220
0.0
230
1.0
  0
LINE
  5
125
100
AcDbEntity
  8
0
 62
     7
 48
0.017269
100
AcDbLine
 10
154.016174
 20
129.719437
 30
0.0
 11
153.360855
 21
129.937881
 31
0.0
210
0.0
220
0.0
230
1.0
  0
LINE
  5
126
100
AcDbEntity
  8
0
 62
     7
 48
0.006562
100
AcDbLine
 10
154.003662
 20
130.213821
 30
0.0
 11
153.966171
 21
130.473618
 31
0.0
210
0.0
220
0.0
230
1.0
  0
LINE
  5
127
100
AcDbEntity
  8
0
 62
     7
 48
0.006562
100
AcDbLine
 10
153.966171
 20
130.473618
 30
0.0
 11
153.928665
 21
130.213821
 31
0.0
210
0.0
220
0.0
230
1.0
  0
LINE
  5
128
100
AcDbEntity
  8
0
 62
     7
 48
0.006562
100
AcDbLine
 10
153.928665
 20
130.213821
 30
0.0
 11
153.891174
 21
130.473618
 31
0.0
210
0.0
220
0.0
230
1.0
  0
LINE
  5
129
100
AcDbEntity
  8
0
 62
     7
 48
0.006562
100
AcDbLine
 10
153.891174
 20
130.473618
 30
0.0
 11
153.853668
 21
130.213821
 31
0.0
210
0.0
220
0.0
230
1.0
  0
LINE
  5
12A
100
AcDbEntity
  8
0
 62
     7
 48
0.006562
100
AcDbLine
 10
153.853668
 20
130.213821
 30
0.0
 11
153.816162
 21
130.473618
 31
0.0
210
0.0
220
0.0
230
1.0
  0
LINE
  5
12B
100
AcDbEntity
  8
0
 62
     7
 48
0.006562
100
AcDbLine
 10
153.816162
 20
130.473618
 30
0.0
 11
153.778671
 21
130.213821
 31
0.0
210
0.0
220
0.0
230
1.0
  0
LINE
  5
12C
100
AcDbEntity
  8
0
 62
     7
 48
0.006562
100
AcDbLine
 10
153.778671
 20
130.213821
 30
0.0
 11
153.741165
 21
130.473618
 31
0.0
210
0.0
220
0.0
230
1.0
  0
LINE
  5
12D
100
AcDbEntity
  8
0
 62
     7
 48
0.006562
100
AcDbLine
 10
153.741165
 20
130.473618
 30
0.0
 11
153.703674
 21
130.213821
 31
0.0
210
0.0
220
0.0
230
1.0
  0
LINE
  5
12E
100
AcDbEntity
  8
0
 62
     7
 48
0.006562
100
AcDbLine
 10
153.703674
 20
130.213821
 30
0.0
 11
153.666168
 21
130.473618
 31
0.0
210
0.0
220
0.0
230
1.0
  0
LINE
  5
12F
100
AcDbEntity
  8
0
 62
     7
 48
0.00375
100
AcDbLine
 10
143.166168
 20
130.473618
 30
0.0
 11
143.316162
 21
130.473618
 31
0.0
210
0.0
220
0.0
230
1.0
  0
LINE
  5
130
100
AcDbEntity
  8
0
 62
     7
 48
0.000625
100
AcDbLine
 10
143.666168
 20
130.473618
 30
0.0
 11
143.691162
 21
130.473618
 31
0.0
210
0.0
220
0.0
230
1.0
  0
LINE
  5
131
100
AcDbEntity
  8
0
 62
     7
 48
0.012127
100
AcDbLine
 10
153.360855
 20
130.973618
 30
0.0
 11
152.875778
 21
130.973618
 31
0.0
210
0.0
220
0.0
230
1.0
  0
LINE
  5
132
100
AcDbEntity
  8
0
 62
     7
 48
0.025499
100
AcDbLine
 10
152.875778
 20
129.953659
 30
0.0
 11
152.875778
 21
130.973618
 31
0.0
210
0.0
220
0.0
230
1.0
  0
ELLIPSE
  5
133
100
AcDbEntity
  8
0
 62
     7
100
AcDbEllipse
 10
152.875778
 20
129.932831
 30
0.0
 11
0.5
 21
0.0
 31
0.0
210
0.0
220
0.0
230
1.0
 40
0.041667
 41
0.2449805587530136
 42
1.5707894563674927
  0
LINE
  5
134
100
AcDbEntity
  8
0
 62
     7
 48
0.001875
100
AcDbLine
 10
153.966171
 20
130.473618
 30
0.0
 11
153.891174
 21
130.473618
 31
0.0
210
0.0
220
0.0
230
1.0
  0
LINE
  5
135
100
AcDbEntity
  8
0
 62
     7
 48
0.001875
100
AcDbLine
 10
143.441162
 20
130.473618
 30
0.0
 11
143.366165
 21
130.473618
 31
0.0
210
0.0
220
0.0
230
1.0
  0
LINE
  5
136
100
AcDbEntity
  8
0
 62
     7
 48
0.006562
100
AcDbLine
 10
143.366165
 20
130.473618
 30
0.0
 11
143.403671
 21
130.213821
 31
0.0
210
0.0
220
0.0
230
1.0
  0
LINE
  5
137
100
AcDbEntity
  8
0
 62
     7
 48
0.001875
100
AcDbLine
 10
153.891174
 20
130.473618
 30
0.0
 11
153.816162
 21
130.473618
 31
0.0
210
0.0
220
0.0
230
1.0
  0
LINE
  5
138
100
AcDbEntity
  8
0
 62
     7
 48
0.001875
100
AcDbLine
 10
143.516174
 20
130.473618
 30
0.0
 11
143.441162
 21
130.473618
 31
0.0
210
0.0
220
0.0
230
1.0
  0
LINE
  5
139
100
AcDbEntity
  8
0
 62
     7
 48
0.006562
100
AcDbLine
 10
143.403671
 20
130.213821
 30
0.0
 11
143.441162
 21
130.473618
 31
0.0
210
0.0
220
0.0
230
1.0
  0
LINE
  5
13A
100
AcDbEntity
  8
0
 62
     7
 48
0.006562
100
AcDbLine
 10
143.441162
 20
130.473618
 30
0.0
 11
143.478668
 21
130.213821
 31
0.0
210
0.0
220
0.0
230
1.0
  0
LINE
  5
13B
100
AcDbEntity
  8
0
 62
     7
 48
0.001875
100
AcDbLine
 10
153.816162
 20
130.473618
 30
0.0
 11
153.741165
 21
130.473618
 31
0.0
210
0.0
220
0.0
230
1.0
  0
LINE
  5
13C
100
AcDbEntity
  8
0
 62
     7
 48
0.001875
100
AcDbLine
 10
143.591171
 20
130.473618
 30
0.0
 11
143.516174
 21
130.473618
 31
0.0
210
0.0
220
0.0
230
1.0
  0
LINE
  5
13D
100
AcDbEntity
  8
0
 62
     7
 48
0.006562
100
AcDbLine
 10
143.478668
 20
130.213821
 30
0.0
 11
143.516174
 21
130.473618
 31
0.0
210
0.0
220
0.0
230
1.0
  0
LINE
  5
13E
100
AcDbEntity
  8
0
 62
     7
 48
0.006562
100
AcDbLine
 10
143.516174
 20
130.473618
 30
0.0
 11
143.553665
 21
130.213821
 31
0.0
210
0.0
220
0.0
230
1.0
  0
LINE
  5
13F
100
AcDbEntity
  8
0
 62
     7
 48
0.001875
100
AcDbLine
 10
153.741165
 20
130.473618
 30
0.0
 11
153.666168
 21
130.473618
 31
0.0
210
0.0
220
0.0
230
1.0
  0
LINE
  5
140
100
AcDbEntity
  8
0
 62
     7
 48
0.001875
100
AcDbLine
 10
143.666168
 20
130.473618
 30
0.0
 11
143.591171
 21
130.473618
 31
0.0
210
0.0
220
0.0
230
1.0
  0
LINE
  5
141
100
AcDbEntity
  8
0
 62
     7
 48
0.006562
100
AcDbLine
 10
143.553665
 20
130.213821
 30
0.0
 11
143.591171
 21
130.473618
 31
0.0
210
0.0
220
0.0
230
1.0
  0
LINE
  5
142
100
AcDbEntity
  8
0
 62
     7
 48
0.006562
100
AcDbLine
 10
143.591171
 20
130.473618
 30
0.0
 11
143.628662
 21
130.213821
 31
0.0
210
0.0
220
0.0
230
1.0
  0
LINE
  5
143
100
AcDbEntity
  8
0
 62
     7
 48
0.006562
100
AcDbLine
 10
143.628662
 20
130.213821
 30
0.0
 11
143.666168
 21
130.473618
 31
0.0
210
0.0
220
0.0
230
1.0
  0
LINE
  5
144
100
AcDbEntity
  8
0
 62
     7
 48
0.007612
100
AcDbLine
 10
144.761047
 20
130.973618
 30
0.0
 11
144.456558
 21
130.973618
 31
0.0
210
0.0
220
0.0
230
1.0
  0
LINE
  5
145
100
AcDbEntity
  8
0
 62
     7
 48
0.025499
100
AcDbLine
 10
144.456558
 20
129.953659
 30
0.0
 11
144.456558
 21
130.973618
 31
0.0
210
0.0
220
0.0
230
1.0
  0
LINE
  5
146
100
AcDbEntity
  8
0
 62
     7
 48
0.21048
100
AcDbLine
 10
152.875778
 20
129.953659
 30
0.0
 11
144.456558
 21
129.953659
 31
0.0
210
0.0
220
0.0
230
1.0
  0
LINE
  5
147
100
AcDbEntity
  8
0
 62
     7
 48
0.007612
100
AcDbLine
 10
152.875778
 20
130.973618
 30
0.0
 11
152.571289
 21
130.973618
 31
0.0
210
0.0
220
0.0
230
1.0
  0
ARC
  5
148
100
AcDbEntity
  8
0
 62
     7
100
AcDbCircle
 10
148.666168
 20
145.973618
 30
0.0
 40
15.5
210
0.0
220
0.0
230
1.0
100
AcDbArc
 50
255.407438
 51
284.592562
  0
LINE
  5
149
100
AcDbEntity
  8
0
 62
     7
 48
0.012127
100
AcDbLine
 10
144.456558
 20
130.973618
 30
0.0
 11
143.971481
 21
130.973618
 31
0.0
210
0.0
220
0.0
230
1.0
  0
LINE
  5
14A
100
AcDbEntity
  8
0
 62
     7
 48
0.025893
100
AcDbLine
 10
143.971481
 20
129.937881
 30
0.0
 11
143.971481
 21
130.973618
 31
0.0
210
0.0
220
0.0
230
1.0
  0
ELLIPSE
  5
14B
100
AcDbEntity
  8
0
 62
     7
100
AcDbEllipse
 10
144.456543
 20
129.932831
 30
0.0
 11
0.4999847412109375
 21
0.0
 31
0.0
210
0.0
220
0.0
230
1.0
 40
0.041666
 41
1.5707738399505615
 42
2.8966159820556641
  0
LINE
  5
14C
100
AcDbEntity
  8
0
 62
     7
 48
0.00875
100
AcDbLine
 10
153.916168
 20
130.823624
 30
0.0
 11
153.916168
 21
130.473618
 31
0.0
210
0.0
220
0.0
230
1.0
  0
LINE
  5
14D
100
AcDbEntity
  8
0
 62
     7
 48
0.00875
100
AcDbLine
 10
143.416168
 20
130.823624
 30
0.0
 11
143.416168
 21
130.473618
 31
0.0
210
0.0
220
0.0
230
1.0
  0
LINE
  5
14E
100
AcDbEntity
  8
0
 62
     7
 48
0.006228
100
AcDbLine
 10
144.456558
 20
129.704529
 30
0.0
 11
144.456558
 21
129.953659
 31
0.0
210
0.0
220
0.0
230
1.0
  0
ELLIPSE
  5
14F
100
AcDbEntity
  8
0
 62
     7
100
AcDbEllipse
 10
144.21402
 20
129.937881
 30
0.0
 11
0.0790557861328125
 21
-0.2371673583984375
 31
0.0
210
0.0
220
0.0
230
1.0
 40
0.966988
 41
4.4005746841430664
 42
5.951228141784668
  0
ELLIPSE
  5
150
100
AcDbEntity
  8
0
 62
     7
100
AcDbEllipse
 10
144.456558
 20
129.683685
 30
0.0
 11
0.25
 21
0.0
 31
0.0
210
0.0
220
0.0
230
1.0
 40
0.083334
 41
1.5708084106445313
 42
2.8966119289398193
  0
LINE
  5
151
100
AcDbEntity
  8
0
 62
     7
 48
0.006228
100
AcDbLine
 10
152.875778
 20
129.704529
 30
0.0
 11
152.875778
 21
129.953659
 31
0.0
210
0.0
220
0.0
230
1.0
  0
LINE
  5
152
100
AcDbEntity
  8
0
 62
     7
 48
0.21048
100
AcDbLine
 10
152.875778
 20
129.704529
 30
0.0
 11
144.456558
 21
129.704529
 31
0.0
210
0.0
220
0.0
230
1.0
  0
LINE
  5
153
100
AcDbEntity
  8
0
 62
     7
 48
0.005445
100
AcDbLine
 10
143.971481
 20
130.973618
 30
0.0
 11
143.753662
 21
130.973618
 31
0.0
210
0.0
220
0.0
230
1.0
  0
ELLIPSE
  5
154
100
AcDbEntity
  8
0
 62
     7
100
AcDbEllipse
 10
153.118317
 20
129.937881
 30
0.0
 11
-0.0790557861328125
 21
-0.2371673583984375
 31
0.0
210
0.0
220
0.0
230
1.0
 40
0.966988
 41
0.3319571912288666
 42
1.8826106786727905
  0
ELLIPSE
  5
155
100
AcDbEntity
  8
0
 62
     7
100
AcDbEllipse
 10
152.875778
 20
129.683685
 30
0.0
 11
0.25
 21
0.0
 31
0.0
210
0.0
220
0.0
230
1.0
 40
0.083333
 41
0.2449789941310883
 42
1.5708011388778687
  0
LINE
  5
156
100
AcDbEntity
  8
0
 62
     7
 48
0.012597
100
AcDbLine
 10
143.753662
 20
130.973618
 30
0.0
 11
143.691162
 21
130.473618
 31
0.0
210
0.0
220
0.0
230
1.0
  0
LINE
  5
157
100
AcDbEntity
  8
0
 62
     7
 48
0.006562
100
AcDbLine
 10
143.328674
 20
130.213821
 30
0.0
 11
143.366165
 21
130.473618
 31
0.0
210
0.0
220
0.0
230
1.0
  0
LINE
  5
158
100
AcDbEntity
  8
0
 62
     7
 48
0.017269
100
AcDbLine
 10
143.316162
 20
129.719437
 30
0.0
 11
143.971481
 21
129.937881
 31
0.0
210
0.0
220
0.0
230
1.0
  0
POLYLINE
  5
159
100
AcDbEntity
  8
0
 62
     7
100
AcDb2dPolyline
 66
     1
 10
0.0
 20
0.0
 30
0.0
 71
     9
  0
VERTEX
  5
15A
100
AcDbEntity
  8
0
100
AcDbVertex
100
AcDb2dVertex
 10
153.766174
 20
129.473633
 30
0.0
  0
VERTEX
  5
15B
100
AcDbEntity
  8
0
100
AcDbVertex
100
AcDb2dVertex
 10
153.819
 20
129.478729
 30
0.0
  0
VERTEX
  5
15C
100
AcDbEntity
  8
0
100
AcDbVertex
100
AcDb2dVertex
 10
153.914337
 20
129.509415
 30
0.0
  0
VERTEX
  5
15D
100
AcDbEntity
  8
0
100
AcDbVertex
100
AcDb2dVertex
 10
153.989563
 20
129.547058
 30
0.0
  0
VERTEX
  5
15E
100
AcDbEntity
  8
0
100
AcDbVertex
100
AcDb2dVertex
 10
154.003235
 20
129.550659
 30
0.0
  0
VERTEX
  5
15F
100
AcDbEntity
  8
0
100
AcDbVertex
100
AcDb2dVertex
 10
154.008423
 20
129.550156
 30
0.0
  0
VERTEX
  5
160
100
AcDbEntity
  8
0
100
AcDbVertex
100
AcDb2dVertex
 10
154.013702
 20
129.546249
 30
0.0
  0
VERTEX
  5
161
100
AcDbEntity
  8
0
100
AcDbVertex
100
AcDb2dVertex
 10
154.015091
 20
129.543396
 30
0.0
  0
VERTEX
  5
162
100
AcDbEntity
  8
0
100
AcDbVertex
100
AcDb2dVertex
 10
154.016174
 20
129.536072
 30
0.0
  0
SEQEND
  5
163
100
AcDbEntity
  8
0
  0
LINE
  5
164
100
AcDbEntity
  8
0
 62
     7
 48
0.017007
100
AcDbLine
 10
153.763672
 20
129.473618
 30
0.0
 11
153.118317
 21
129.688736
 31
0.0
210
0.0
220
0.0
230
1.0
  0
LINE
  5
165
100
AcDbEntity
  8
0
 62
     7
 48
0.017007
100
AcDbLine
 10
143.568665
 20
129.473618
 30
0.0
 11
144.21402
 21
129.688736
 31
0.0
210
0.0
220
0.0
230
1.0
  0
LINE
  5
166
100
AcDbEntity
  8
0
 62
     7
100
AcDbLine
 10
179.916168
 20
135.17363
 30
0.0
 11
117.416168
 21
135.17363
 31
0.0
210
0.0
220
0.0
230
1.0
  0
LINE
  5
167
100
AcDbEntity
  8
0
 62
     7
 48
0.085
100
AcDbLine
 10
179.916168
 20
131.773621
 30
0.0
 11
179.916168
 21
135.17363
 31
0.0
210
0.0
220
0.0
230
1.0
  0
LINE
  5
168
100
AcDbEntity
  8
0
 62
     7
100
AcDbLine
 10
117.416168
 20
131.773621
 30
0.0
 11
179.916168
 21
131.773621
 31
0.0
210
0.0
220
0.0
230
1.0
  0
LINE
  5
169
100
AcDbEntity
  8
0
 62
     7
 48
0.085
100
AcDbLine
 10
117.416168
 20
135.17363
 30
0.0
 11
117.416168
 21
131.773621
 31
0.0
210
0.0
220
0.0
230
1.0
  0
LINE
  5
16A
100
AcDbEntity
  8
0
 62
     7
 48
0.0182
100
AcDbLine
 10
173.502167
 20
132.273621
 30
0.0
 11
174.230164
 21
132.273621
 31
0.0
210
0.0
220
0.0
230
1.0
  0
LINE
  5
16B
100
AcDbEntity
  8
0
 62
     7
 48
0.002625
100
AcDbLine
 10
174.230164
 20
132.273621
 30
0.0
 11
174.230164
 21
132.378632
 31
0.0
210
0.0
220
0.0
230
1.0
  0
LINE
  5
16C
100
AcDbEntity
  8
0
 62
     7
 48
0.0049
100
AcDbLine
 10
174.230164
 20
132.378632
 30
0.0
 11
174.034164
 21
132.378632
 31
0.0
210
0.0
220
0.0
230
1.0
  0
LINE
  5
16D
100
AcDbEntity
  8
0
 62
     7
 48
0.0175
100
AcDbLine
 10
174.034164
 20
132.378632
 30
0.0
 11
174.034164
 21
133.078629
 31
0.0
210
0.0
220
0.0
230
1.0
  0
LINE
  5
16E
100
AcDbEntity
  8
0
 62
     7
 48
0.0049
100
AcDbLine
 10
174.034164
 20
133.078629
 30
0.0
 11
174.230164
 21
133.078629
 31
0.0
210
0.0
220
0.0
230
1.0
  0
LINE
  5
16F
100
AcDbEntity
  8
0
 62
     7
 48
0.002625
100
AcDbLine
 10
174.230164
 20
133.078629
 30
0.0
 11
174.230164
 21
133.183624
 31
0.0
210
0.0
220
0.0
230
1.0
  0
LINE
  5
170
100
AcDbEntity
  8
0
 62
     7
 48
0.0182
100
AcDbLine
 10
174.230164
 20
133.183624
 30
0.0
 11
173.502167
 21
133.183624
 31
0.0
210
0.0
220
0.0
230
1.0
  0
LINE
  5
171
100
AcDbEntity
  8
0
 62
     7
 48
0.002625
100
AcDbLine
 10
173.502167
 20
133.183624
 30
0.0
 11
173.502167
 21
133.078629
 31
0.0
210
0.0
220
0.0
230
1.0
  0
LINE
  5
172
100
AcDbEntity
  8
0
 62
     7
 48
0.0049
100
AcDbLine
 10
173.502167
 20
133.078629
 30
0.0
 11
173.698166
 21
133.078629
 31
0.0
210
0.0
220
0.0
230
1.0
  0
LINE
  5
173
100
AcDbEntity
  8
0
 62
     7
 48
0.0175
100
AcDbLine
 10
173.698166
 20
133.078629
 30
0.0
 11
173.698166
 21
132.378632
 31
0.0
210
0.0
220
0.0
230
1.0
  0
LINE
  5
174
100
AcDbEntity
  8
0
 62
     7
 48
0.0049
100
AcDbLine
 10
173.698166
 20
132.378632
 30
0.0
 11
173.502167
 21
132.378632
 31
0.0
210
0.0
220
0.0
230
1.0
  0
LINE
  5
175
100
AcDbEntity
  8
0
 62
     7
 48
0.002625
100
AcDbLine
 10
173.502167
 20
132.378632
 30
0.0
 11
173.502167
 21
132.273621
 31
0.0
210
0.0
220
0.0
230
1.0
  0
LINE
  5
176
100
AcDbEntity
  8
0
 62
     7
 48
0.002625
100
AcDbLine
 10
173.152161
 20
132.273621
 30
0.0
 11
173.152161
 21
132.378632
 31
0.0
210
0.0
220
0.0
230
1.0
  0
LINE
  5
177
100
AcDbEntity
  8
0
 62
     7
 48
0.0049
100
AcDbLine
 10
173.152161
 20
132.378632
 30
0.0
 11
172.956177
 21
132.378632
 31
0.0
210
0.0
220
0.0
230
1.0
  0
LINE
  5
178
100
AcDbEntity
  8
0
 62
     7
 48
0.0175
100
AcDbLine
 10
172.956177
 20
132.378632
 30
0.0
 11
172.956177
 21
133.078629
 31
0.0
210
0.0
220
0.0
230
1.0
  0
LINE
  5
179
100
AcDbEntity
  8
0
 62
     7
 48
0.0049
100
AcDbLine
 10
172.956177
 20
133.078629
 30
0.0
 11
173.152161
 21
133.078629
 31
0.0
210
0.0
220
0.0
230
1.0
  0
LINE
  5
17A
100
AcDbEntity
  8
0
 62
     7
 48
0.002625
100
AcDbLine
 10
173.152161
 20
133.078629
 30
0.0
 11
173.152161
 21
133.183624
 31
0.0
210
0.0
220
0.0
230
1.0
  0
LINE
  5
17B
100
AcDbEntity
  8
0
 62
     7
 48
0.0175
100
AcDbLine
 10
173.152161
 20
133.183624
 30
0.0
 11
172.452164
 21
133.183624
 31
0.0
210
0.0
220
0.0
230
1.0
  0
LINE
  5
17C
100
AcDbEntity
  8
0
 62
     7
 48
0.002625
100
AcDbLine
 10
172.452164
 20
133.183624
 30
0.0
 11
172.452164
 21
133.078629
 31
0.0
210
0.0
220
0.0
230
1.0
  0
LINE
  5
17D
100
AcDbEntity
  8
0
 62
     7
 48
0.0049
100
AcDbLine
 10
172.452164
 20
133.078629
 30
0.0
 11
172.648163
 21
133.078629
 31
0.0
210
0.0
220
0.0
230
1.0
  0
LINE
  5
17E
100
AcDbEntity
  8
0
 62
     7
 48
0.00665
100
AcDbLine
 10
172.648163
 20
133.078629
 30
0.0
 11
172.648163
 21
132.812622
 31
0.0
210
0.0
220
0.0
230
1.0
  0
LINE
  5
17F
100
AcDbEntity
  8
0
 62
     7
 48
0.0168
100
AcDbLine
 10
172.648163
 20
132.812622
 30
0.0
 11
171.976166
 21
132.812622
 31
0.0
210
0.0
220
0.0
230
1.0
  0
LINE
  5
180
100
AcDbEntity
  8
0
 62
     7
 48
0.00665
100
AcDbLine
 10
171.976166
 20
132.812622
 30
0.0
 11
171.976166
 21
133.078629
 31
0.0
210
0.0
220
0.0
230
1.0
  0
LINE
  5
181
100
AcDbEntity
  8
0
 62
     7
 48
0.0049
100
AcDbLine
 10
171.976166
 20
133.078629
 30
0.0
 11
172.172165
 21
133.078629
 31
0.0
210
0.0
220
0.0
230
1.0
  0
LINE
  5
182
100
AcDbEntity
  8
0
 62
     7
 48
0.002625
100
AcDbLine
 10
172.172165
 20
133.078629
 30
0.0
 11
172.172165
 21
133.183624
 31
0.0
210
0.0
220
0.0
230
1.0
  0
LINE
  5
183
100
AcDbEntity
  8
0
 62
     7
 48
0.0175
100
AcDbLine
 10
172.172165
 20
133.183624
 30
0.0
 11
171.472168
 21
133.183624
 31
0.0
210
0.0
220
0.0
230
1.0
  0
LINE
  5
184
100
AcDbEntity
  8
0
 62
     7
 48
0.002625
100
AcDbLine
 10
171.472168
 20
133.183624
 30
0.0
 11
171.472168
 21
133.078629
 31
0.0
210
0.0
220
0.0
230
1.0
  0
LINE
  5
185
100
AcDbEntity
  8
0
 62
     7
 48
0.0049
100
AcDbLine
 10
171.472168
 20
133.078629
 30
0.0
 11
171.668167
 21
133.078629
 31
0.0
210
0.0
220
0.0
230
1.0
  0
LINE
  5
186
100
AcDbEntity
  8
0
 62
     7
 48
0.0175
100
AcDbLine
 10
171.668167
 20
133.078629
 30
0.0
 11
171.668167
 21
132.378632
 31
0.0
210
0.0
220
0.0
230
1.0
  0
LINE
  5
187
100
AcDbEntity
  8
0
 62
     7
 48
0.0049
100
AcDbLine
 10
171.668167
 20
132.378632
 30
0.0
 11
171.472168
 21
132.378632
 31
0.0
210
0.0
220
0.0
230
1.0
  0
LINE
  5
188
100
AcDbEntity
  8
0
 62
     7
 48
0.002625
100
AcDbLine
 10
171.472168
 20
132.378632
 30
0.0
 11
171.472168
 21
132.273621
 31
0.0
210
0.0
220
0.0
230
1.0
  0
LINE
  5
189
100
AcDbEntity
  8
0
 62
     7
 48
0.0175
100
AcDbLine
 10
171.472168
 20
132.273621
 30
0.0
 11
172.172165
 21
132.273621
 31
0.0
210
0.0
220
0.0
230
1.0
  0
LINE
  5
18A
100
AcDbEntity
  8
0
 62
     7
 48
0.002625
100
AcDbLine
 10
172.172165
 20
132.273621
 30
0.0
 11
172.172165
 21
132.378632
 31
0.0
210
0.0
220
0.0
230
1.0
  0
LINE
  5
18B
100
AcDbEntity
  8
0
 62
     7
 48
0.0049
100
AcDbLine
 10
172.172165
 20
132.378632
 30
0.0
 11
171.976166
 21
132.378632
 31
0.0
210
0.0
220
0.0
230
1.0
  0
LINE
  5
18C
100
AcDbEntity
  8
0
 62
     7
 48
0.00665
100
AcDbLine
 10
171.976166
 20
132.378632
 30
0.0
 11
171.976166
 21
132.644623
 31
0.0
210
0.0
220
0.0
230
1.0
  0
LINE
  5
18D
100
AcDbEntity
  8
0
 62
     7
 48
0.0168
100
AcDbLine
 10
171.976166
 20
132.644623
 30
0.0
 11
172.648163
 21
132.644623
 31
0.0
210
0.0
220
0.0
230
1.0
  0
LINE
  5
18E
100
AcDbEntity
  8
0
 62
     7
 48
0.00665
100
AcDbLine
 10
172.648163
 20
132.644623
 30
0.0
 11
172.648163
 21
132.378632
 31
0.0
210
0.0
220
0.0
230
1.0
  0
LINE
  5
18F
100
AcDbEntity
  8
0
 62
     7
 48
0.0049
100
AcDbLine
 10
172.648163
 20
132.378632
 30
0.0
 11
172.452164
 21
132.378632
 31
0.0
210
0.0
220
0.0
230
1.0
  0
LINE
  5
190
100
AcDbEntity
  8
0
 62
     7
 48
0.002625
100
AcDbLine
 10
172.452164
 20
132.378632
 30
0.0
 11
172.452164
 21
132.273621
 31
0.0
210
0.0
220
0.0
230
1.0
  0
LINE
  5
191
100
AcDbEntity
  8
0
 62
     7
 48
0.0175
100
AcDbLine
 10
172.452164
 20
132.273621
 30
0.0
 11
173.152161
 21
132.273621
 31
0.0
210
0.0
220
0.0
230
1.0
  0
LINE
  5
192
100
AcDbEntity
  8
0
 62
     7
 48
0.01505
100
AcDbLine
 10
175.182175
 20
132.273621
 30
0.0
 11
174.58017
 21
132.273621
 31
0.0
210
0.0
220
0.0
230
1.0
  0
LINE
  5
193
100
AcDbEntity
  8
0
 62
     7
 48
0.002625
100
AcDbLine
 10
175.182175
 20
132.378632
 30
0.0
 11
175.182175
 21
132.273621
 31
0.0
210
0.0
220
0.0
230
1.0
  0
LINE
  5
194
100
AcDbEntity
  8
0
 62
     7
 48
0.0049
100
AcDbLine
 10
174.986176
 20
132.378632
 30
0.0
 11
175.182175
 21
132.378632
 31
0.0
210
0.0
220
0.0
230
1.0
  0
LINE
  5
195
100
AcDbEntity
  8
0
 62
     7
 48
0.012075
100
AcDbLine
 10
174.986176
 20
132.861618
 30
0.0
 11
174.986176
 21
132.378632
 31
0.0
210
0.0
220
0.0
230
1.0
  0
LINE
  5
196
100
AcDbEntity
  8
0
 62
     7
 48
0.023395
100
AcDbLine
 10
175.714172
 20
132.273621
 30
0.0
 11
174.986176
 21
132.861618
 31
0.0
210
0.0
220
0.0
230
1.0
  0
LINE
  5
197
100
AcDbEntity
  8
0
 62
     7
 48
0.007
100
AcDbLine
 10
175.994171
 20
132.273621
 30
0.0
 11
175.714172
 21
132.273621
 31
0.0
210
0.0
220
0.0
230
1.0
  0
LINE
  5
198
100
AcDbEntity
  8
0
 62
     7
 48
0.020125
100
AcDbLine
 10
175.994171
 20
133.078629
 30
0.0
 11
175.994171
 21
132.273621
 31
0.0
210
0.0
220
0.0
230
1.0
  0
LINE
  5
199
100
AcDbEntity
  8
0
 62
     7
 48
0.0049
100
AcDbLine
 10
176.19017
 20
133.078629
 30
0.0
 11
175.994171
 21
133.078629
 31
0.0
210
0.0
220
0.0
230
1.0
  0
LINE
  5
19A
100
AcDbEntity
  8
0
 62
     7
 48
0.002625
100
AcDbLine
 10
176.19017
 20
133.183624
 30
0.0
 11
176.19017
 21
133.078629
 31
0.0
210
0.0
220
0.0
230
1.0
  0
LINE
  5
19B
100
AcDbEntity
  8
0
 62
     7
 48
0.01505
100
AcDbLine
 10
175.588165
 20
133.183624
 30
0.0
 11
176.19017
 21
133.183624
 31
0.0
210
0.0
220
0.0
230
1.0
  0
LINE
  5
19C
100
AcDbEntity
  8
0
 62
     7
 48
0.002625
100
AcDbLine
 10
175.588165
 20
133.078629
 30
0.0
 11
175.588165
 21
133.183624
 31
0.0
210
0.0
220
0.0
230
1.0
  0
LINE
  5
19D
100
AcDbEntity
  8
0
 62
     7
 48
0.0049
100
AcDbLine
 10
175.784164
 20
133.078629
 30
0.0
 11
175.588165
 21
133.078629
 31
0.0
210
0.0
220
0.0
230
1.0
  0
LINE
  5
19E
100
AcDbEntity
  8
0
 62
     7
 48
0.012075
100
AcDbLine
 10
175.784164
 20
132.595627
 30
0.0
 11
175.784164
 21
133.078629
 31
0.0
210
0.0
220
0.0
230
1.0
  0
LINE
  5
19F
100
AcDbEntity
  8
0
 62
     7
 48
0.023395
100
AcDbLine
 10
175.056168
 20
133.183624
 30
0.0
 11
175.784164
 21
132.595627
 31
0.0
210
0.0
220
0.0
230
1.0
  0
LINE
  5
1A0
100
AcDbEntity
  8
0
 62
     7
 48
0.0119
100
AcDbLine
 10
174.58017
 20
133.183624
 30
0.0
 11
175.056168
 21
133.183624
 31
0.0
210
0.0
220
0.0
230
1.0
  0
LINE
  5
1A1
100
AcDbEntity
  8
0
 62
     7
 48
0.002625
100
AcDbLine
 10
174.58017
 20
133.078629
 30
0.0
 11
174.58017
 21
133.183624
 31
0.0
210
0.0
220
0.0
230
1.0
  0
LINE
  5
1A2
100
AcDbEntity
  8
0
 62
     7
 48
0.0049
100
AcDbLine
 10
174.776169
 20
133.078629
 30
0.0
 11
174.58017
 21
133.078629
 31
0.0
210
0.0
220
0.0
230
1.0
  0
LINE
  5
1A3
100
AcDbEntity
  8
0
 62
     7
 48
0.0175
100
AcDbLine
 10
174.776169
 20
132.378632
 30
0.0
 11
174.776169
 21
133.078629
 31
0.0
210
0.0
220
0.0
230
1.0
  0
LINE
  5
1A4
100
AcDbEntity
  8
0
 62
     7
 48
0.0049
100
AcDbLine
 10
174.58017
 20
132.378632
 30
0.0
 11
174.776169
 21
132.378632
 31
0.0
210
0.0
220
0.0
230
1.0
  0
LINE
  5
1A5
100
AcDbEntity
  8
0
 62
     7
 48
0.002625
100
AcDbLine
 10
174.58017
 20
132.273621
 30
0.0
 11
174.58017
 21
132.378632
 31
0.0
210
0.0
220
0.0
230
1.0
  0
ARC
  5
1A6
100
AcDbEntity
  8
0
 62
     7
100
AcDbCircle
 10
177.20517
 20
131.832626
 30
0.0
 40
1.386
210
0.0
220
0.0
230
1.0
100
AcDbArc
 50
64.72499
 51
115.275015
  0
ARC
  5
1A7
100
AcDbEntity
  8
0
 62
     7
100
AcDbCircle
 10
176.806168
 20
132.728622
 30
0.0
 40
0.406
210
0.0
220
0.0
230
1.0
100
AcDbArc
 50
118.346755
 51
241.653242
  0
ARC
  5
1A8
100
AcDbEntity
  8
0
 62
     7
100
AcDbCircle
 10
177.20517
 20
133.624619
 30
0.0
 40
1.386
210
0.0
220
0.0
230
1.0
100
AcDbArc
 50
244.724996
 51
295.275007
  0
ARC
  5
1A9
100
AcDbEntity
  8
0
 62
     7
100
AcDbCircle
 10
177.604172
 20
132.728622
 30
0.0
 40
0.406
210
0.0
220
0.0
230
1.0
100
AcDbArc
 50
298.346762
 51
61.653231
  0
ARC
  5
1AA
100
AcDbEntity
  8
0
 62
     7
100
AcDbCircle
 10
177.296173
 20
132.728622
 30
0.0
 40
0.364
210
0.0
220
0.0
230
1.0
100
AcDbArc
 50
305.439203
 51
70.524582
  0
ARC
  5
1AB
100
AcDbEntity
  8
0
 62
     7
100
AcDbCircle
 10
177.20517
 20
132.903625
 30
0.0
 40
0.560011
210
0.0
220
0.0
230
1.0
100
AcDbArc
 50
237.358228
 51
302.641775
  0
ARC
  5
1AC
100
AcDbEntity
  8
0
 62
     7
100
AcDbCircle
 10
177.114166
 20
132.728622
 30
0.0
 40
0.364
210
0.0
220
0.0
230
1.0
100
AcDbArc
 50
125.473456
 51
234.560799
  0
ARC
  5
1AD
100
AcDbEntity
  8
0
 62
     7
100
AcDbCircle
 10
177.20517
 20
132.553619
 30
0.0
 40
0.56
210
0.0
220
0.0
230
1.0
100
AcDbArc
 50
67.715151
 51
122.664008
  0
ARC
  5
1AE
100
AcDbEntity
  8
0
 62
     7
100
AcDbCircle
 10
170.478165
 20
132.38562
 30
0.0
 40
0.707
210
0.0
220
0.0
230
1.0
100
AcDbArc
 50
47.612901
 51
130.83659
  0
ARC
  5
1AF
100
AcDbEntity
  8
0
 62
     7
100
AcDbCircle
 10
170.674164
 20
132.728622
 30
0.0
 40
0.332949
210
0.0
220
0.0
230
1.0
100
AcDbArc
 50
22.236833
 51
32.561575
  0
LINE
  5
1B0
100
AcDbEntity
  8
0
 62
     7
 48
0.00507
100
AcDbLine
 10
171.185165
 20
132.85463
 30
0.0
 11
170.982361
 21
132.85463
 31
0.0
210
0.0
220
0.0
230
1.0
  0
LINE
  5
1B1
100
AcDbEntity
  8
0
 62
     7
 48
0.008225
100
AcDbLine
 10
171.185165
 20
132.85463
 30
0.0
 11
171.185165
 21
133.183624
 31
0.0
210
0.0
220
0.0
230
1.0
  0
LINE
  5
1B2
100
AcDbEntity
  8
0
 62
     7
 48
0.00385
100
AcDbLine
 10
171.185165
 20
133.183624
 30
0.0
 11
171.031174
 21
133.183624
 31
0.0
210
0.0
220
0.0
230
1.0
  0
LINE
  5
1B3
100
AcDbEntity
  8
0
 62
     7
 48
0.003551
100
AcDbLine
 10
171.031174
 20
133.183624
 30
0.0
 11
171.031174
 21
133.041595
 31
0.0
210
0.0
220
0.0
230
1.0
  0
ARC
  5
1B4
100
AcDbEntity
  8
0
 62
     7
100
AcDbCircle
 10
170.674164
 20
132.602631
 30
0.0
 40
0.565814
210
0.0
220
0.0
230
1.0
100
AcDbArc
 50
50.87979
 51
69.676864
  0
ARC
  5
1B5
100
AcDbEntity
  8
0
 62
     7
100
AcDbCircle
 10
170.394165
 20
131.846619
 30
0.0
 40
1.372
210
0.0
220
0.0
230
1.0
100
AcDbArc
 50
69.676864
 51
114.902606
  0
ARC
  5
1B6
100
AcDbEntity
  8
0
 62
     7
100
AcDbCircle
 10
170.030167
 20
132.728622
 30
0.0
 40
0.420757
210
0.0
220
0.0
230
1.0
100
AcDbArc
 50
120.526433
 51
239.473563
  0
ARC
  5
1B7
100
AcDbEntity
  8
0
 62
     7
100
AcDbCircle
 10
170.394165
 20
133.610626
 30
0.0
 40
1.372
210
0.0
220
0.0
230
1.0
100
AcDbArc
 50
245.097404
 51
290.323146
  0
ARC
  5
1B8
100
AcDbEntity
  8
0
 62
     7
100
AcDbCircle
 10
170.674164
 20
132.85463
 30
0.0
 40
0.565814
210
0.0
220
0.0
230
1.0
100
AcDbArc
 50
290.323146
 51
333.552589
  0
LINE
  5
1B9
100
AcDbEntity
  8
0
 62
     7
 48
0.00496
100
AcDbLine
 10
171.180771
 20
132.602631
 30
0.0
 11
170.982361
 21
132.602631
 31
0.0
210
0.0
220
0.0
230
1.0
  0
ARC
  5
1BA
100
AcDbEntity
  8
0
 62
     7
100
AcDbCircle
 10
170.674164
 20
132.728622
 30
0.0
 40
0.332949
210
0.0
220
0.0
230
1.0
100
AcDbArc
 50
299.744873
 51
337.763154
  0
ARC
  5
1BB
100
AcDbEntity
  8
0
 62
     7
100
AcDbCircle
 10
170.478165
 20
133.071625
 30
0.0
 40
0.728
210
0.0
220
0.0
230
1.0
100
AcDbArc
 50
242.049036
 51
299.744873
  0
ARC
  5
1BC
100
AcDbEntity
  8
0
 62
     7
100
AcDbCircle
 10
170.296173
 20
132.728622
 30
0.0
 40
0.339705
210
0.0
220
0.0
230
1.0
100
AcDbArc
 50
145.604456
 51
242.049036
  0
LINE
  5
1BD
100
AcDbEntity
  8
0
 62
     7
 48
0.09
100
AcDbLine
 10
238.2939
 20
176.723618
 30
0.0
 11
238.2939
 21
180.323624
 31
0.0
210
0.0
220
0.0
230
1.0
  0
LINE
  5
1BE
100
AcDbEntity
  8
0
 62
     7
 48
0.1
100
AcDbLine
 10
282.293884
 20
143.323624
 30
0.0
 11
286.293884
 21
143.323624
 31
0.0
210
0.0
220
0.0
230
1.0
  0
LINE
  5
1BF
100
AcDbEntity
  8
0
 62
     7
 48
0.0875
100
AcDbLine
 10
282.293884
 20
143.323624
 30
0.0
 11
282.293884
 21
139.823624
 31
0.0
210
0.0
220
0.0
230
1.0
  0
LINE
  5
1C0
100
AcDbEntity
  8
0
 62
     7
100
AcDbLine
 10
234.843903
 20
116.573624
 30
0.0
 11
305.293884
 21
116.573624
 31
0.0
210
0.0
220
0.0
230
1.0
  0
LINE
  5
1C1
100
AcDbEntity
  8
0
 62
     7
100
AcDbLine
 10
305.293884
 20
184.823624
 30
0.0
 11
305.293884
 21
116.573624
 31
0.0
210
0.0
220
0.0
230
1.0
  0
LINE
  5
1C2
100
AcDbEntity
  8
0
 62
     7
100
AcDbLine
 10
234.843903
 20
184.823624
 30
0.0
 11
305.293884
 21
184.823624
 31
0.0
210
0.0
220
0.0
230
1.0
  0
LINE
  5
1C3
100
AcDbEntity
  8
0
 62
     7
 48
0.0875
100
AcDbLine
 10
286.293884
 20
139.823624
 30
0.0
 11
286.293884
 21
143.323624
 31
0.0
210
0.0
220
0.0
230
1.0
  0
LINE
  5
1C4
100
AcDbEntity
  8
0
 62
     7
 48
0.1
100
AcDbLine
 10
286.293884
 20
139.823624
 30
0.0
 11
282.293884
 21
139.823624
 31
0.0
210
0.0
220
0.0
230
1.0
  0
LINE
  5
1C5
100
AcDbEntity
  8
0
 62
     7
 48
0.0875
100
AcDbLine
 10
261.293884
 20
139.823624
 30
0.0
 11
261.293884
 21
143.323624
 31
0.0
210
0.0
220
0.0
230
1.0
  0
LINE
  5
1C6
100
AcDbEntity
  8
0
 62
     7
 48
0.1
100
AcDbLine
 10
261.293884
 20
139.823624
 30
0.0
 11
257.293884
 21
139.823624
 31
0.0
210
0.0
220
0.0
230
1.0
  0
LINE
  5
1C7
100
AcDbEntity
  8
0
 62
     7
 48
0.0875
100
AcDbLine
 10
257.293884
 20
143.323624
 30
0.0
 11
257.293884
 21
139.823624
 31
0.0
210
0.0
220
0.0
230
1.0
  0
LINE
  5
1C8
100
AcDbEntity
  8
0
 62
     7
 48
0.1
100
AcDbLine
 10
257.293884
 20
143.323624
 30
0.0
 11
261.293884
 21
143.323624
 31
0.0
210
0.0
220
0.0
230
1.0
  0
LINE
  5
1C9
100
AcDbEntity
  8
0
 62
     7
 48
0.05625
100
AcDbLine
 10
240.39389
 20
180.323624
 30
0.0
 11
238.14389
 21
180.323624
 31
0.0
210
0.0
220
0.0
230
1.0
  0
LINE
  5
1CA
100
AcDbEntity
  8
0
 62
     7
 48
0.09
100
AcDbLine
 10
240.39389
 20
180.323624
 30
0.0
 11
240.39389
 21
176.723618
 31
0.0
210
0.0
220
0.0
230
1.0
  0
LINE
  5
1CB
100
AcDbEntity
  8
0
 62
     7
 48
0.05625
100
AcDbLine
 10
238.14389
 20
176.723618
 30
0.0
 11
240.39389
 21
176.723618
 31
0.0
210
0.0
220
0.0
230
1.0
  0
LINE
  5
1CC
100
AcDbEntity
  8
0
 62
     7
 48
0.09
100
AcDbLine
 10
238.14389
 20
176.723618
 30
0.0
 11
238.14389
 21
180.323624
 31
0.0
210
0.0
220
0.0
230
1.0
  0
CIRCLE
  5
1CD
100
AcDbEntity
  8
0
 62
     7
100
AcDbCircle
 10
297.293884
 20
118.973625
 30
0.0
 40
0.2
210
0.0
220
0.0
230
1.0
  0
CIRCLE
  5
1CE
100
AcDbEntity
  8
0
 62
     7
100
AcDbCircle
 10
241.2939
 20
118.973625
 30
0.0
 40
0.2
210
0.0
220
0.0
230
1.0
  0
LINE
  5
1CF
100
AcDbEntity
  8
0
 62
     7
100
AcDbLine
 10
234.843903
 20
185.073624
 30
0.0
 11
305.293884
 21
185.073624
 31
0.0
210
0.0
220
0.0
230
1.0
  0
LINE
  5
1D0
100
AcDbEntity
  8
0
 62
     7
 48
0.00625
100
AcDbLine
 10
305.293884
 20
184.823624
 30
0.0
 11
305.293884
 21
185.073624
 31
0.0
210
0.0
220
0.0
230
1.0
  0
LINE
  5
1D1
100
AcDbEntity
  8
0
 62
     7
 48
0.11875
100
AcDbLine
 10
300.293884
 20
116.573624
 30
0.0
 11
305.043884
 21
116.573624
 31
0.0
210
0.0
220
0.0
230
1.0
  0
LINE
  5
1D2
100
AcDbEntity
  8
0
 62
     7
 48
0.0125
100
AcDbLine
 10
300.293884
 20
116.573624
 30
0.0
 11
299.793884
 21
116.573624
 31
0.0
210
0.0
220
0.0
230
1.0
  0
LINE
  5
1D3
100
AcDbEntity
  8
0
 62
     7
100
AcDbLine
 10
234.843903
 20
116.573624
 30
0.0
 11
299.793884
 21
116.573624
 31
0.0
210
0.0
220
0.0
230
1.0
  0
LINE
  5
1D4
100
AcDbEntity
  8
0
 62
     7
 48
0.015
100
AcDbLine
 10
305.293884
 20
116.973625
 30
0.0
 11
305.293884
 21
117.573624
 31
0.0
210
0.0
220
0.0
230
1.0
  0
LINE
  5
1D5
100
AcDbEntity
  8
0
 62
     7
 48
0.075
100
AcDbLine
 10
305.293884
 20
120.855949
 30
0.0
 11
305.293884
 21
123.855949
 31
0.0
210
0.0
220
0.0
230
1.0
  0
LINE
  5
1D6
100
AcDbEntity
  8
0
 62
     7
100
AcDbLine
 10
305.293884
 20
164.168396
 30
0.0
 11
305.293884
 21
123.855949
 31
0.0
210
0.0
220
0.0
230
1.0
  0
LINE
  5
1D7
100
AcDbEntity
  8
0
 62
     7
 48
0.082058
100
AcDbLine
 10
305.293884
 20
120.855949
 30
0.0
 11
305.293884
 21
117.573624
 31
0.0
210
0.0
220
0.0
230
1.0
  0
LINE
  5
1D8
100
AcDbEntity
  8
0
 62
     7
 48
0.00375
100
AcDbLine
 10
305.293884
 20
116.973625
 30
0.0
 11
305.293884
 21
116.823624
 31
0.0
210
0.0
220
0.0
230
1.0
  0
LINE
  5
1D9
100
AcDbEntity
  8
0
 62
     7
 48
0.00625
100
AcDbLine
 10
305.543884
 20
149.123627
 30
0.0
 11
305.293884
 21
149.123627
 31
0.0
210
0.0
220
0.0
230
1.0
  0
LINE
  5
1DA
100
AcDbEntity
  8
0
 62
     7
 48
0.00625
100
AcDbLine
 10
305.543884
 20
152.123627
 30
0.0
 11
305.293884
 21
152.123627
 31
0.0
210
0.0
220
0.0
230
1.0
  0
LINE
  5
1DB
100
AcDbEntity
  8
0
 62
     7
 48
0.1
100
AcDbLine
 10
257.293884
 20
142.023621
 30
0.0
 11
261.293884
 21
142.023621
 31
0.0
210
0.0
220
0.0
230
1.0
  0
LINE
  5
1DC
100
AcDbEntity
  8
0
 62
     7
 48
0.1
100
AcDbLine
 10
282.293884
 20
142.023621
 30
0.0
 11
286.293884
 21
142.023621
 31
0.0
210
0.0
220
0.0
230
1.0
  0
LINE
  5
1DD
100
AcDbEntity
  8
0
 62
     7
 48
0.010001
100
AcDbLine
 10
305.293884
 20
127.823624
 30
0.0
 11
305.693909
 21
127.823624
 31
0.0
210
0.0
220
0.0
230
1.0
  0
LINE
  5
1DE
100
AcDbEntity
  8
0
 62
     7
 48
0.005433
100
AcDbLine
 10
305.293884
 20
127.606316
 30
0.0
 11
305.293884
 21
127.823624
 31
0.0
210
0.0
220
0.0
230
1.0
  0
LINE
  5
1DF
100
AcDbEntity
  8
0
 62
     7
 48
0.005433
100
AcDbLine
 10
305.693909
 20
127.606316
 30
0.0
 11
305.693909
 21
127.823624
 31
0.0
210
0.0
220
0.0
230
1.0
  0
LINE
  5
1E0
100
AcDbEntity
  8
0
 62
     7
100
AcDbLine
 10
234.843903
 20
185.323624
 30
0.0
 11
234.843903
 21
116.323624
 31
0.0
210
0.0
220
0.0
230
1.0
  0
LINE
  5
1E1
100
AcDbEntity
  8
0
 62
     7
 48
0.0375
100
AcDbLine
 10
234.843903
 20
185.323624
 30
0.0
 11
234.843903
 21
186.823624
 31
0.0
210
0.0
220
0.0
230
1.0
  0
LINE
  5
1E2
100
AcDbEntity
  8
0
 62
     7
 48
0.0075
100
AcDbLine
 10
234.843903
 20
185.323624
 30
0.0
 11
234.5439
 21
185.323624
 31
0.0
210
0.0
220
0.0
230
1.0
  0
LINE
  5
1E3
100
AcDbEntity
  8
0
 62
     7
100
AcDbLine
 10
234.5439
 20
185.323624
 30
0.0
 11
234.5439
 21
116.323624
 31
0.0
210
0.0
220
0.0
230
1.0
  0
LINE
  5
1E4
100
AcDbEntity
  8
0
 62
     7
 48
0.0075
100
AcDbLine
 10
234.843903
 20
116.323624
 30
0.0
 11
234.5439
 21
116.323624
 31
0.0
210
0.0
220
0.0
230
1.0
  0
LINE
  5
1E5
100
AcDbEntity
  8
0
 62
     7
 48
0.0375
100
AcDbLine
 10
234.843903
 20
114.823624
 30
0.0
 11
234.843903
 21
116.323624
 31
0.0
210
0.0
220
0.0
230
1.0
  0
LINE
  5
1E6
100
AcDbEntity
  8
0
 62
     7
 48
0.0375
100
AcDbLine
 10
234.843903
 20
185.323624
 30
0.0
 11
234.843903
 21
186.823624
 31
0.0
210
0.0
220
0.0
230
1.0
  0
LINE
  5
1E7
100
AcDbEntity
  8
0
 62
     7
 48
0.0375
100
AcDbLine
 10
234.843903
 20
114.823624
 30
0.0
 11
234.843903
 21
116.323624
 31
0.0
210
0.0
220
0.0
230
1.0
  0
LINE
  5
1E8
100
AcDbEntity
  8
0
 62
     7
 48
0.006251
100
AcDbLine
 10
234.843903
 20
116.323624
 30
0.0
 11
234.843903
 21
116.573669
 31
0.0
210
0.0
220
0.0
230
1.0
  0
LINE
  5
1E9
100
AcDbEntity
  8
0
 62
     7
 48
0.006249
100
AcDbLine
 10
234.843903
 20
185.073669
 30
0.0
 11
234.843903
 21
185.323624
 31
0.0
210
0.0
220
0.0
230
1.0
  0
LINE
  5
1EA
100
AcDbEntity
  8
0
 62
     7
 48
0.008385
100
AcDbLine
 10
234.843903
 20
186.823624
 30
0.0
 11
234.5439
 21
186.973633
 31
0.0
210
0.0
220
0.0
230
1.0
  0
LINE
  5
1EB
100
AcDbEntity
  8
0
 62
     7
 48
0.04125
100
AcDbLine
 10
234.5439
 20
185.323624
 30
0.0
 11
234.5439
 21
186.973633
 31
0.0
210
0.0
220
0.0
230
1.0
  0
LINE
  5
1EC
100
AcDbEntity
  8
0
 62
     7
 48
0.01875
100
AcDbLine
 10
234.5439
 20
185.323624
 30
0.0
 11
233.7939
 21
185.323624
 31
0.0
210
0.0
220
0.0
230
1.0
  0
LINE
  5
1ED
100
AcDbEntity
  8
0
 62
     7
 48
0.01875
100
AcDbLine
 10
234.5439
 20
116.323624
 30
0.0
 11
233.7939
 21
116.323624
 31
0.0
210
0.0
220
0.0
230
1.0
  0
LINE
  5
1EE
100
AcDbEntity
  8
0
 62
     7
100
AcDbLine
 10
233.7939
 20
185.323624
 30
0.0
 11
233.7939
 21
116.323624
 31
0.0
210
0.0
220
0.0
230
1.0
  0
LINE
  5
1EF
100
AcDbEntity
  8
0
 62
     7
 48
0.04125
100
AcDbLine
 10
234.5439
 20
114.673622
 30
0.0
 11
234.5439
 21
116.323624
 31
0.0
210
0.0
220
0.0
230
1.0
  0
LINE
  5
1F0
100
AcDbEntity
  8
0
 62
     7
 48
0.008385
100
AcDbLine
 10
234.843903
 20
114.823624
 30
0.0
 11
234.5439
 21
114.673622
 31
0.0
210
0.0
220
0.0
230
1.0
  0
LINE
  5
1F1
100
AcDbEntity
  8
0
 62
     7
 48
0.01875
100
AcDbLine
 10
234.5439
 20
186.973633
 30
0.0
 11
233.7939
 21
186.973633
 31
0.0
210
0.0
220
0.0
230
1.0
  0
LINE
  5
1F2
100
AcDbEntity
  8
0
 62
     7
 48
0.04125
100
AcDbLine
 10
233.7939
 20
185.323624
 30
0.0
 11
233.7939
 21
186.973633
 31
0.0
210
0.0
220
0.0
230
1.0
  0
LINE
  5
1F3
100
AcDbEntity
  8
0
 62
     7
 48
0.01875
100
AcDbLine
 10
234.5439
 20
114.673622
 30
0.0
 11
233.7939
 21
114.673622
 31
0.0
210
0.0
220
0.0
230
1.0
  0
LINE
  5
1F4
100
AcDbEntity
  8
0
 62
     7
 48
0.04125
100
AcDbLine
 10
233.7939
 20
114.673622
 30
0.0
 11
233.7939
 21
116.323624
 31
0.0
210
0.0
220
0.0
230
1.0
  0
ARC
  5
1F5
100
AcDbEntity
  8
0
 62
     7
100
AcDbCircle
 10
227.7939
 20
185.011688
 30
0.0
 40
1.5
210
0.0
220
0.0
230
1.0
100
AcDbArc
 50
95.000001
 51
149.765393
  0
LINE
  5
1F6
100
AcDbEntity
  8
0
 62
     7
 48
0.041354
100
AcDbLine
 10
229.646027
 20
186.679459
 30
0.0
 11
231.2939
 21
186.823624
 31
0.0
210
0.0
220
0.0
230
1.0
  0
LINE
  5
1F7
100
AcDbEntity
  8
0
 62
     7
 48
0.049761
100
AcDbLine
 10
227.663162
 20
186.505981
 30
0.0
 11
229.646027
 21
186.679459
 31
0.0
210
0.0
220
0.0
230
1.0
  0
LINE
  5
1F8
100
AcDbEntity
  8
0
 62
     7
 48
0.010984
100
AcDbLine
 10
226.2939
 20
185.011688
 30
0.0
 11
226.733246
 21
185.011688
 31
0.0
210
0.0
220
0.0
230
1.0
  0
ELLIPSE
  5
1F9
100
AcDbEntity
  8
0
 62
     7
100
AcDbEllipse
 10
227.7939
 20
185.011688
 30
0.0
 11
0.1307373046875
 21
-1.494293212890625
 31
0.0
210
0.0
220
0.0
230
1.0
 40
0.705758
 41
3.1415927410125732
 42
4.650721549987793
  0
LINE
  5
1FA
100
AcDbEntity
  8
0
 62
     7
 48
0.049761
100
AcDbLine
 10
226.733246
 20
185.011688
 30
0.0
 11
228.716095
 21
185.185165
 31
0.0
210
0.0
220
0.0
230
1.0
  0
ELLIPSE
  5
1FB
100
AcDbEntity
  8
0
 62
     7
100
AcDbEllipse
 10
229.776764
 20
185.185165
 30
0.0
 11
0.1307373046875
 21
-1.494293212890625
 31
0.0
210
0.0
220
0.0
230
1.0
 40
0.705758
 41
3.1415927410125732
 42
4.650721549987793
  0
LINE
  5
1FC
100
AcDbEntity
  8
0
 62
     7
 48
0.0625
100
AcDbLine
 10
233.7939
 20
186.823624
 30
0.0
 11
231.2939
 21
186.823624
 31
0.0
210
0.0
220
0.0
230
1.0
  0
LINE
  5
1FD
100
AcDbEntity
  8
0
 62
     7
100
AcDbLine
 10
226.733246
 20
116.635559
 30
0.0
 11
226.733246
 21
185.011688
 31
0.0
210
0.0
220
0.0
230
1.0
  0
LINE
  5
1FE
100
AcDbEntity
  8
0
 62
     7
100
AcDbLine
 10
226.2939
 20
116.635559
 30
0.0
 11
226.2939
 21
185.011688
 31
0.0
210
0.0
220
0.0
230
1.0
  0
LINE
  5
1FF
100
AcDbEntity
  8
0
 62
     7
 48
0.010984
100
AcDbLine
 10
226.2939
 20
116.635559
 30
0.0
 11
226.733246
 21
116.635559
 31
0.0
210
0.0
220
0.0
230
1.0
  0
LINE
  5
200
100
AcDbEntity
  8
0
 62
     7
 48
0.049761
100
AcDbLine
 10
228.716095
 20
116.462082
 30
0.0
 11
226.733246
 21
116.635559
 31
0.0
210
0.0
220
0.0
230
1.0
  0
LINE
  5
201
100
AcDbEntity
  8
0
 62
     7
100
AcDbLine
 10
228.716095
 20
185.185165
 30
0.0
 11
228.716095
 21
116.462082
 31
0.0
210
0.0
220
0.0
230
1.0
  0
ELLIPSE
  5
202
100
AcDbEntity
  8
0
 62
     7
100
AcDbEllipse
 10
227.7939
 20
116.635559
 30
0.0
 11
-0.1307373046875
 21
-1.494293212890625
 31
0.0
210
0.0
220
0.0
230
1.0
 40
0.705758
 41
4.7740564346313477
 42
6.2831854820251465
  0
ARC
  5
203
100
AcDbEntity
  8
0
 62
     7
100
AcDbCircle
 10
227.7939
 20
116.635559
 30
0.0
 40
1.5
210
0.0
220
0.0
230
1.0
100
AcDbArc
 50
180.000005
 51
265.000002
  0
ELLIPSE
  5
204
100
AcDbEntity
  8
0
 62
     7
100
AcDbEllipse
 10
231.359436
 20
116.324234
 30
0.0
 11
-0.0655364990234375
 21
-1.5006103515625
 31
0.0
210
0.0
220
0.0
230
1.0
 40
0.043489
 41
5.2381200790405273
 42
6.2812833786010742
  0
LINE
  5
205
100
AcDbEntity
  8
0
 62
     7
 48
0.01875
100
AcDbLine
 10
232.0439
 20
114.823624
 30
0.0
 11
231.2939
 21
114.823624
 31
0.0
210
0.0
220
0.0
230
1.0
  0
LINE
  5
206
100
AcDbEntity
  8
0
 62
     7
 48
0.04375
100
AcDbLine
 10
233.7939
 20
114.823624
 30
0.0
 11
232.0439
 21
114.823624
 31
0.0
210
0.0
220
0.0
230
1.0
  0
LINE
  5
207
100
AcDbEntity
  8
0
 62
     7
 48
0.0625
100
AcDbLine
 10
233.7939
 20
116.323624
 30
0.0
 11
231.2939
 21
116.323624
 31
0.0
210
0.0
220
0.0
230
1.0
  0
LINE
  5
208
100
AcDbEntity
  8
0
 62
     7
 48
0.000143
100
AcDbLine
 10
231.293777
 20
116.317917
 30
0.0
 11
231.2939
 21
116.323624
 31
0.0
210
0.0
220
0.0
230
1.0
  0
LINE
  5
209
100
AcDbEntity
  8
0
 62
     7
 48
0.003611
100
AcDbLine
 10
231.287811
 20
116.173622
 30
0.0
 11
231.2939
 21
116.317917
 31
0.0
210
0.0
220
0.0
230
1.0
  0
LINE
  5
20A
100
AcDbEntity
  8
0
 62
     7
 48
0.018902
100
AcDbLine
 10
231.287811
 20
116.173622
 30
0.0
 11
232.0439
 21
116.173622
 31
0.0
210
0.0
220
0.0
230
1.0
  0
LINE
  5
20B
100
AcDbEntity
  8
0
 62
     7
 48
0.015
100
AcDbLine
 10
232.0439
 20
116.173622
 30
0.0
 11
232.0439
 21
115.573624
 31
0.0
210
0.0
220
0.0
230
1.0
  0
LINE
  5
20C
100
AcDbEntity
  8
0
 62
     7
 48
0.019345
100
AcDbLine
 10
231.270096
 20
115.573624
 30
0.0
 11
232.0439
 21
115.573624
 31
0.0
210
0.0
220
0.0
230
1.0
  0
LINE
  5
20D
100
AcDbEntity
  8
0
 62
     7
 48
0.041354
100
AcDbLine
 10
231.2939
 20
116.317917
 30
0.0
 11
229.646027
 21
116.462082
 31
0.0
210
0.0
220
0.0
230
1.0
  0
ELLIPSE
  5
20E
100
AcDbEntity
  8
0
 62
     7
100
AcDbEllipse
 10
229.776764
 20
116.462082
 30
0.0
 11
-0.1307373046875
 21
-1.494293212890625
 31
0.0
210
0.0
220
0.0
230
1.0
 40
0.086827
 41
4.7199850082397461
 42
6.2831854820251465
  0
LINE
  5
20F
100
AcDbEntity
  8
0
 62
     7
 48
0.009985
100
AcDbLine
 10
230.0439
 20
114.932983
 30
0.0
 11
229.646027
 21
114.967789
 31
0.0
210
0.0
220
0.0
230
1.0
  0
LINE
  5
210
100
AcDbEntity
  8
0
 62
     7
 48
0.000089
100
AcDbLine
 10
230.0439
 20
114.932983
 30
0.0
 11
230.0439
 21
114.936554
 31
0.0
210
0.0
220
0.0
230
1.0
  0
ARC
  5
211
100
AcDbEntity
  8
0
 62
     7
100
AcDbCircle
 10
248.533401
 20
312.630554
 30
0.0
 40
198.556763
210
0.0
220
0.0
230
1.0
100
AcDbArc
 50
264.656905
 51
265.000176
  0
LINE
  5
212
100
AcDbEntity
  8
0
 62
     7
 48
0.001637
100
AcDbLine
 10
231.2939
 20
114.823624
 30
0.0
 11
231.228653
 21
114.82933
 31
0.0
210
0.0
220
0.0
230
1.0
  0
LINE
  5
213
100
AcDbEntity
  8
0
 62
     7
 48
0.030655
100
AcDbLine
 10
230.0439
 20
115.573624
 30
0.0
 11
231.270096
 21
115.573624
 31
0.0
210
0.0
220
0.0
230
1.0
  0
LINE
  5
214
100
AcDbEntity
  8
0
 62
     7
 48
0.015
100
AcDbLine
 10
230.0439
 20
115.573624
 30
0.0
 11
230.0439
 21
116.173622
 31
0.0
210
0.0
220
0.0
230
1.0
  0
LINE
  5
215
100
AcDbEntity
  8
0
 62
     7
 48
0.031098
100
AcDbLine
 10
230.0439
 20
116.173622
 30
0.0
 11
231.287811
 21
116.173622
 31
0.0
210
0.0
220
0.0
230
1.0
  0
LINE
  5
216
100
AcDbEntity
  8
0
 62
     7
 48
0.0625
100
AcDbLine
 10
233.7939
 20
185.323624
 30
0.0
 11
231.2939
 21
185.323624
 31
0.0
210
0.0
220
0.0
230
1.0
  0
LINE
  5
217
100
AcDbEntity
  8
0
 62
     7
100
AcDbLine
 10
231.2939
 20
185.323624
 30
0.0
 11
231.2939
 21
116.323624
 31
0.0
210
0.0
220
0.0
230
1.0
  0
LINE
  5
218
100
AcDbEntity
  8
0
 62
     7
 48
0.041354
100
AcDbLine
 10
229.646027
 20
185.185165
 30
0.0
 11
231.2939
 21
185.32933
 31
0.0
210
0.0
220
0.0
230
1.0
  0
LINE
  5
219
100
AcDbEntity
  8
0
 62
     7
100
AcDbLine
 10
229.646027
 20
185.185165
 30
0.0
 11
229.646027
 21
116.462082
 31
0.0
210
0.0
220
0.0
230
1.0
  0
LINE
  5
21A
100
AcDbEntity
  8
0
 62
     7
 48
0.000143
100
AcDbLine
 10
231.2939
 20
185.323624
 30
0.0
 11
231.2939
 21
185.32933
 31
0.0
210
0.0
220
0.0
230
1.0
  0
LINE
  5
21B
100
AcDbEntity
  8
0
 62
     7
 48
0.023248
100
AcDbLine
 10
228.716095
 20
116.462082
 30
0.0
 11
229.646027
 21
116.462082
 31
0.0
210
0.0
220
0.0
230
1.0
  0
ELLIPSE
  5
21C
100
AcDbEntity
  8
0
 62
     7
100
AcDbEllipse
 10
229.776764
 20
116.462082
 30
0.0
 11
-0.1307373046875
 21
-1.494293212890625
 31
0.0
210
0.0
220
0.0
230
1.0
 40
0.705758
 41
4.7740564346313477
 42
6.2831854820251465
  0
LINE
  5
21D
100
AcDbEntity
  8
0
 62
     7
 48
0.029719
100
AcDbLine
 10
231.228134
 20
114.829376
 30
0.0
 11
230.0439
 21
114.932983
 31
0.0
210
0.0
220
0.0
230
1.0
  0
LINE
  5
21E
100
AcDbEntity
  8
0
 62
     7
 48
0.01875
100
AcDbLine
 10
231.2939
 20
114.823624
 30
0.0
 11
232.0439
 21
114.823624
 31
0.0
210
0.0
220
0.0
230
1.0
  0
LINE
  5
21F
100
AcDbEntity
  8
0
 62
     7
 48
0.049761
100
AcDbLine
 10
229.646027
 20
114.967789
 30
0.0
 11
227.663162
 21
115.141273
 31
0.0
210
0.0
220
0.0
230
1.0
  0
LINE
  5
220
100
AcDbEntity
  8
0
 62
     7
 48
0.023248
100
AcDbLine
 10
228.716095
 20
185.185165
 30
0.0
 11
229.646027
 21
185.185165
 31
0.0
210
0.0
220
0.0
230
1.0
  0
ELLIPSE
  5
221
100
AcDbEntity
  8
0
 62
     7
100
AcDbEllipse
 10
229.776764
 20
185.185165
 30
0.0
 11
0.1307373046875
 21
-1.494293212890625
 31
0.0
210
0.0
220
0.0
230
1.0
 40
0.086827
 41
3.1415927410125732
 42
4.7047929763793945
  0
POLYLINE
  5
222
100
AcDbEntity
  8
0
 62
     7
100
AcDb2dPolyline
 66
     1
 10
0.0
 20
0.0
 30
0.0
 71
     8
  0
VERTEX
  5
223
100
AcDbEntity
  8
0
100
AcDbVertex
100
AcDb2dVertex
 10
231.2939
 20
186.823624
 30
0.0
  0
VERTEX
  5
224
100
AcDbEntity
  8
0
100
AcDbVertex
100
AcDb2dVertex
 10
231.292892
 20
186.823395
 30
0.0
  0
VERTEX
  5
225
100
AcDbEntity
  8
0
100
AcDbVertex
100
AcDb2dVertex
 10
231.291595
 20
186.822556
 30
0.0
  0
VERTEX
  5
226
100
AcDbEntity
  8
0
100
AcDbVertex
100
AcDb2dVertex
 10
231.289124
 20
186.819046
 30
0.0
  0
VERTEX
  5
227
100
AcDbEntity
  8
0
100
AcDbVertex
100
AcDb2dVertex
 10
231.282394
 20
186.794037
 30
0.0
  0
VERTEX
  5
228
100
AcDbEntity
  8
0
100
AcDbVertex
100
AcDb2dVertex
 10
231.269485
 20
186.601852
 30
0.0
  0
VERTEX
  5
229
100
AcDbEntity
  8
0
100
AcDbVertex
100
AcDb2dVertex
 10
231.267639
 20
186.24794
 30
0.0
  0
VERTEX
  5
22A
100
AcDbEntity
  8
0
100
AcDbVertex
100
AcDb2dVertex
 10
231.293777
 20
185.329315
 30
0.0
  0
SEQEND
  5
22B
100
AcDbEntity
  8
0
  0
ARC
  5
22C
100
AcDbEntity
  8
0
 62
     7
100
AcDbCircle
 10
227.7939
 20
185.011688
 30
0.0
 40
1.5
210
0.0
220
0.0
230
1.0
100
AcDbArc
 50
149.765393
 51
180.000005
  0
LINE
  5
22D
100
AcDbEntity
  8
0
 62
     7
 48
0.0025
100
AcDbLine
 10
225.393906
 20
130.473618
 30
0.0
 11
225.2939
 21
130.473618
 31
0.0
210
0.0
220
0.0
230
1.0
  0
LINE
  5
22E
100
AcDbEntity
  8
0
 62
     7
 48
0.013975
100
AcDbLine
 10
225.0439
 20
130.973618
 30
0.0
 11
225.2939
 21
130.473618
 31
0.0
210
0.0
220
0.0
230
1.0
  0
LINE
  5
22F
100
AcDbEntity
  8
0
 62
     7
 48
0.021782
100
AcDbLine
 10
225.0439
 20
130.973618
 30
0.0
 11
224.172638
 21
130.973618
 31
0.0
210
0.0
220
0.0
230
1.0
  0
LINE
  5
230
100
AcDbEntity
  8
0
 62
     7
 48
0.025893
100
AcDbLine
 10
224.172638
 20
129.937881
 30
0.0
 11
224.172638
 21
130.973618
 31
0.0
210
0.0
220
0.0
230
1.0
  0
LINE
  5
231
100
AcDbEntity
  8
0
 62
     7
 48
0.053215
100
AcDbLine
 10
226.293884
 20
129.761108
 30
0.0
 11
224.172638
 21
129.937881
 31
0.0
210
0.0
220
0.0
230
1.0
  0
LINE
  5
232
100
AcDbEntity
  8
0
 62
     7
 48
0.0075
100
AcDbLine
 10
226.2939
 20
130.473618
 30
0.0
 11
226.143906
 21
130.213821
 31
0.0
210
0.0
220
0.0
230
1.0
  0
LINE
  5
233
100
AcDbEntity
  8
0
 62
     7
 48
0.0075
100
AcDbLine
 10
226.143906
 20
130.213821
 30
0.0
 11
225.993896
 21
130.473618
 31
0.0
210
0.0
220
0.0
230
1.0
  0
LINE
  5
234
100
AcDbEntity
  8
0
 62
     7
 48
0.0075
100
AcDbLine
 10
225.993896
 20
130.473618
 30
0.0
 11
225.843903
 21
130.213821
 31
0.0
210
0.0
220
0.0
230
1.0
  0
LINE
  5
235
100
AcDbEntity
  8
0
 62
     7
 48
0.0075
100
AcDbLine
 10
225.843903
 20
130.213821
 30
0.0
 11
225.693893
 21
130.473618
 31
0.0
210
0.0
220
0.0
230
1.0
  0
LINE
  5
236
100
AcDbEntity
  8
0
 62
     7
 48
0.0075
100
AcDbLine
 10
225.693893
 20
130.473618
 30
0.0
 11
225.5439
 21
130.213821
 31
0.0
210
0.0
220
0.0
230
1.0
  0
LINE
  5
237
100
AcDbEntity
  8
0
 62
     7
 48
0.0075
100
AcDbLine
 10
225.5439
 20
130.213821
 30
0.0
 11
225.393906
 21
130.473618
 31
0.0
210
0.0
220
0.0
230
1.0
  0
LINE
  5
238
100
AcDbEntity
  8
0
 62
     7
 48
0.009468
100
AcDbLine
 10
224.172638
 20
130.973618
 30
0.0
 11
223.7939
 21
130.973618
 31
0.0
210
0.0
220
0.0
230
1.0
  0
LINE
  5
239
100
AcDbEntity
  8
0
 62
     7
 48
0.025499
100
AcDbLine
 10
223.7939
 20
129.953659
 30
0.0
 11
223.7939
 21
130.973618
 31
0.0
210
0.0
220
0.0
230
1.0
  0
LINE
  5
23A
100
AcDbEntity
  8
0
 62
     7
 48
0.009477
100
AcDbLine
 10
223.7939
 20
129.953659
 30
0.0
 11
224.172638
 21
129.937881
 31
0.0
210
0.0
220
0.0
230
1.0
  0
ARC
  5
23B
100
AcDbEntity
  8
0
 62
     7
100
AcDbCircle
 10
224.0439
 20
129.953659
 30
0.0
 40
0.25
210
0.0
220
0.0
230
1.0
100
AcDbArc
 50
180.000005
 51
265.236353
  0
ELLIPSE
  5
23C
100
AcDbEntity
  8
0
 62
     7
100
AcDbEllipse
 10
224.233261
 20
129.937881
 30
0.0
 11
-0.0207672119140625
 21
-0.2491302490234375
 31
0.0
210
0.0
220
0.0
230
1.0
 40
0.241747
 41
4.7325320243835449
 42
6.2831854820251465
  0
LINE
  5
23D
100
AcDbEntity
  8
0
 62
     7
 48
0.004751
100
AcDbLine
 10
224.023132
 20
129.704529
 30
0.0
 11
224.212509
 21
129.688736
 31
0.0
210
0.0
220
0.0
230
1.0
  0
LINE
  5
23E
100
AcDbEntity
  8
0
 62
     7
 48
0.052215
100
AcDbLine
 10
226.293884
 20
129.515289
 30
0.0
 11
224.212509
 21
129.688736
 31
0.0
210
0.0
220
0.0
230
1.0
  0
LINE
  5
23F
100
AcDbEntity
  8
0
 62
     7
 48
0.0525
100
AcDbLine
 10
240.39389
 20
180.023621
 30
0.0
 11
238.2939
 21
180.023621
 31
0.0
210
0.0
220
0.0
230
1.0
  0
LINE
  5
240
100
AcDbEntity
  8
0
 62
     7
 48
0.0525
100
AcDbLine
 10
240.39389
 20
177.023621
 30
0.0
 11
238.2939
 21
177.023621
 31
0.0
210
0.0
220
0.0
230
1.0
  0
LINE
  5
241
100
AcDbEntity
  8
0
 62
     7
 48
0.23375
100
AcDbLine
 10
306.543884
 20
162.823624
 30
0.0
 11
315.89389
 21
162.823624
 31
0.0
210
0.0
220
0.0
230
1.0
  0
LINE
  5
242
100
AcDbEntity
  8
0
 62
     7
 48
0.0125
100
AcDbLine
 10
306.543884
 20
162.823624
 30
0.0
 11
306.543884
 21
162.323624
 31
0.0
210
0.0
220
0.0
230
1.0
  0
LINE
  5
243
100
AcDbEntity
  8
0
 62
     7
 48
0.23375
100
AcDbLine
 10
306.543884
 20
162.323624
 30
0.0
 11
315.89389
 21
162.323624
 31
0.0
210
0.0
220
0.0
230
1.0
  0
LINE
  5
244
100
AcDbEntity
  8
0
 62
     7
 48
0.0125
100
AcDbLine
 10
315.89389
 20
162.323624
 30
0.0
 11
315.89389
 21
162.823624
 31
0.0
210
0.0
220
0.0
230
1.0
  0
LINE
  5
245
100
AcDbEntity
  8
0
 62
     7
 48
0.0125
100
AcDbLine
 10
306.543884
 20
128.573624
 30
0.0
 11
306.543884
 21
128.073624
 31
0.0
210
0.0
220
0.0
230
1.0
  0
LINE
  5
246
100
AcDbEntity
  8
0
 62
     7
100
AcDbLine
 10
306.543884
 20
128.573624
 30
0.0
 11
306.543884
 21
162.323624
 31
0.0
210
0.0
220
0.0
230
1.0
  0
ARC
  5
247
100
AcDbEntity
  8
0
 62
     7
100
AcDbCircle
 10
315.89389
 20
162.573624
 30
0.0
 40
0.25
210
0.0
220
0.0
230
1.0
100
AcDbArc
 50
0.0
 51
90.000003
  0
LINE
  5
248
100
AcDbEntity
  8
0
 62
     7
 48
0.23375
100
AcDbLine
 10
306.543884
 20
128.573624
 30
0.0
 11
315.89389
 21
128.573624
 31
0.0
210
0.0
220
0.0
230
1.0
  0
LINE
  5
249
100
AcDbEntity
  8
0
 62
     7
100
AcDbLine
 10
315.89389
 20
128.573624
 30
0.0
 11
315.89389
 21
162.323624
 31
0.0
210
0.0
220
0.0
230
1.0
  0
LINE
  5
24A
100
AcDbEntity
  8
0
 62
     7
 48
0.00625
100
AcDbLine
 10
316.14389
 20
162.323624
 30
0.0
 11
315.89389
 21
162.323624
 31
0.0
210
0.0
220
0.0
230
1.0
  0
LINE
  5
24B
100
AcDbEntity
  8
0
 62
     7
 48
0.00625
100
AcDbLine
 10
316.14389
 20
162.323624
 30
0.0
 11
316.14389
 21
162.573624
 31
0.0
210
0.0
220
0.0
230
1.0
  0
LINE
  5
24C
100
AcDbEntity
  8
0
 62
     7
 48
0.23375
100
AcDbLine
 10
306.543884
 20
128.073624
 30
0.0
 11
315.89389
 21
128.073624
 31
0.0
210
0.0
220
0.0
230
1.0
  0
LINE
  5
24D
100
AcDbEntity
  8
0
 62
     7
 48
0.0125
100
AcDbLine
 10
315.89389
 20
128.073624
 30
0.0
 11
315.89389
 21
128.573624
 31
0.0
210
0.0
220
0.0
230
1.0
  0
LINE
  5
24E
100
AcDbEntity
  8
0
 62
     7
100
AcDbLine
 10
316.14389
 20
128.573624
 30
0.0
 11
316.14389
 21
162.323624
 31
0.0
210
0.0
220
0.0
230
1.0
  0
LINE
  5
24F
100
AcDbEntity
  8
0
 62
     7
 48
0.00625
100
AcDbLine
 10
316.14389
 20
128.323624
 30
0.0
 11
316.14389
 21
128.573624
 31
0.0
210
0.0
220
0.0
230
1.0
  0
LINE
  5
250
100
AcDbEntity
  8
0
 62
     7
 48
0.037394
100
AcDbLine
 10
317.048126
 20
156.323624
 30
0.0
 11
318.543884
 21
156.323624
 31
0.0
210
0.0
220
0.0
230
1.0
  0
LINE
  5
251
100
AcDbEntity
  8
0
 62
     7
 48
0.0375
100
AcDbLine
 10
320.443909
 20
156.323624
 30
0.0
 11
321.943909
 21
156.323624
 31
0.0
210
0.0
220
0.0
230
1.0
  0
ARC
  5
252
100
AcDbEntity
  8
0
 62
     7
100
AcDbCircle
 10
321.193909
 20
158.073624
 30
0.0
 40
4.5
210
0.0
220
0.0
230
1.0
100
AcDbArc
 50
180.000005
 51
233.921793
  0
LINE
  5
253
100
AcDbEntity
  8
0
 62
     7
 48
0.00625
100
AcDbLine
 10
316.14389
 20
128.573624
 30
0.0
 11
315.89389
 21
128.573624
 31
0.0
210
0.0
220
0.0
230
1.0
  0
ARC
  5
254
100
AcDbEntity
  8
0
 62
     7
100
AcDbCircle
 10
315.89389
 20
128.323624
 30
0.0
 40
0.25
210
0.0
220
0.0
230
1.0
100
AcDbArc
 50
270.000001
 51
0.00001
  0
LINE
  5
255
100
AcDbEntity
  8
0
 62
     7
 48
0.1375
100
AcDbLine
 10
316.14389
 20
128.823624
 30
0.0
 11
321.64389
 21
128.823624
 31
0.0
210
0.0
220
0.0
230
1.0
  0
LINE
  5
256
100
AcDbEntity
  8
0
 62
     7
 48
0.00375
100
AcDbLine
 10
321.793884
 20
128.823624
 30
0.0
 11
321.64389
 21
128.823624
 31
0.0
210
0.0
220
0.0
230
1.0
  0
LINE
  5
257
100
AcDbEntity
  8
0
 62
     7
 48
0.0175
100
AcDbLine
 10
322.493896
 20
128.823624
 30
0.0
 11
321.793884
 21
128.823624
 31
0.0
210
0.0
220
0.0
230
1.0
  0
LINE
  5
258
100
AcDbEntity
  8
0
 62
     7
 48
0.00375
100
AcDbLine
 10
322.493896
 20
128.823624
 30
0.0
 11
322.64389
 21
128.823624
 31
0.0
210
0.0
220
0.0
230
1.0
  0
LINE
  5
259
100
AcDbEntity
  8
0
 62
     7
 48
0.0125
100
AcDbLine
 10
322.64389
 20
128.823624
 30
0.0
 11
323.14389
 21
128.823624
 31
0.0
210
0.0
220
0.0
230
1.0
  0
LINE
  5
25A
100
AcDbEntity
  8
0
 62
     7
 48
0.0125
100
AcDbLine
 10
323.64389
 20
128.823624
 30
0.0
 11
323.14389
 21
128.823624
 31
0.0
210
0.0
220
0.0
230
1.0
  0
LINE
  5
25B
100
AcDbEntity
  8
0
 62
     7
 48
0.06
100
AcDbLine
 10
318.543884
 20
131.948624
 30
0.0
 11
316.14389
 21
131.948624
 31
0.0
210
0.0
220
0.0
230
1.0
  0
LINE
  5
25C
100
AcDbEntity
  8
0
 62
     7
 48
0.0275
100
AcDbLine
 10
323.14389
 20
129.92363
 30
0.0
 11
323.14389
 21
128.823624
 31
0.0
210
0.0
220
0.0
230
1.0
  0
LINE
  5
25D
100
AcDbEntity
  8
0
 62
     7
 48
0.06
100
AcDbLine
 10
316.14389
 20
132.573624
 30
0.0
 11
318.543884
 21
132.573624
 31
0.0
210
0.0
220
0.0
230
1.0
  0
LINE
  5
25E
100
AcDbEntity
  8
0
 62
     7
 48
0.00625
100
AcDbLine
 10
316.693909
 20
158.073624
 30
0.0
 11
316.693909
 21
158.323624
 31
0.0
210
0.0
220
0.0
230
1.0
  0
LINE
  5
25F
100
AcDbEntity
  8
0
 62
     7
 48
0.01375
100
AcDbLine
 10
316.14389
 20
158.323624
 30
0.0
 11
316.693909
 21
158.323624
 31
0.0
210
0.0
220
0.0
230
1.0
  0
LINE
  5
260
100
AcDbEntity
  8
0
 62
     7
 48
0.1225
100
AcDbLine
 10
321.043884
 20
160.073624
 30
0.0
 11
316.14389
 21
160.073624
 31
0.0
210
0.0
220
0.0
230
1.0
  0
ARC
  5
261
100
AcDbEntity
  8
0
 62
     7
100
AcDbCircle
 10
321.043884
 20
159.073624
 30
0.0
 40
1.0
210
0.0
220
0.0
230
1.0
100
AcDbArc
 50
0.0
 51
90.000003
  0
LINE
  5
262
100
AcDbEntity
  8
0
 62
     7
 48
0.00375
100
AcDbLine
 10
322.043884
 20
158.92363
 30
0.0
 11
322.043884
 21
159.073624
 31
0.0
210
0.0
220
0.0
230
1.0
  0
LINE
  5
263
100
AcDbEntity
  8
0
 62
     7
 48
0.06875
100
AcDbLine
 10
321.64389
 20
131.573624
 30
0.0
 11
321.64389
 21
128.823624
 31
0.0
210
0.0
220
0.0
230
1.0
  0
LINE
  5
264
100
AcDbEntity
  8
0
 62
     7
 48
0.06875
100
AcDbLine
 10
321.793884
 20
131.573624
 30
0.0
 11
321.793884
 21
128.823624
 31
0.0
210
0.0
220
0.0
230
1.0
  0
LINE
  5
265
100
AcDbEntity
  8
0
 62
     7
 48
0.00375
100
AcDbLine
 10
321.64389
 20
131.573624
 30
0.0
 11
321.793884
 21
131.573624
 31
0.0
210
0.0
220
0.0
230
1.0
  0
LINE
  5
266
100
AcDbEntity
  8
0
 62
     7
 48
0.06875
100
AcDbLine
 10
322.493896
 20
128.823624
 30
0.0
 11
322.493896
 21
131.573624
 31
0.0
210
0.0
220
0.0
230
1.0
  0
ARC
  5
267
100
AcDbEntity
  8
0
 62
     7
100
AcDbCircle
 10
322.14389
 20
131.573624
 30
0.0
 40
0.35
210
0.0
220
0.0
230
1.0
100
AcDbArc
 50
0.00001
 51
180.000001
  0
LINE
  5
268
100
AcDbEntity
  8
0
 62
     7
 48
0.06875
100
AcDbLine
 10
322.64389
 20
128.823624
 30
0.0
 11
322.64389
 21
131.573624
 31
0.0
210
0.0
220
0.0
230
1.0
  0
LINE
  5
269
100
AcDbEntity
  8
0
 62
     7
 48
0.00375
100
AcDbLine
 10
322.64389
 20
131.573624
 30
0.0
 11
322.493896
 21
131.573624
 31
0.0
210
0.0
220
0.0
230
1.0
  0
LINE
  5
26A
100
AcDbEntity
  8
0
 62
     7
 48
0.025
100
AcDbLine
 10
323.64389
 20
129.823624
 30
0.0
 11
323.64389
 21
128.823624
 31
0.0
210
0.0
220
0.0
230
1.0
  0
ARC
  5
26B
100
AcDbEntity
  8
0
 62
     7
100
AcDbCircle
 10
322.14389
 20
131.573624
 30
0.0
 40
0.5
210
0.0
220
0.0
230
1.0
100
AcDbArc
 50
0.00001
 51
180.000001
  0
ARC
  5
26C
100
AcDbEntity
  8
0
 62
     7
100
AcDbCircle
 10
321.193909
 20
158.073624
 30
0.0
 40
0.75
210
0.0
220
0.0
230
1.0
100
AcDbArc
 50
35.407878
 51
0.00001
  0
CIRCLE
  5
26D
100
AcDbEntity
  8
0
 62
     7
100
AcDbCircle
 10
321.193909
 20
158.073624
 30
0.0
 40
0.6
210
0.0
220
0.0
230
1.0
  0
ARC
  5
26E
100
AcDbEntity
  8
0
 62
     7
100
AcDbCircle
 10
321.193909
 20
158.073624
 30
0.0
 40
0.75
210
0.0
220
0.0
230
1.0
100
AcDbArc
 50
144.594066
 51
180.000005
  0
LINE
  5
26F
100
AcDbEntity
  8
0
 62
     7
 48
0.04375
100
AcDbLine
 10
320.443909
 20
158.073624
 30
0.0
 11
320.443909
 21
156.323624
 31
0.0
210
0.0
220
0.0
230
1.0
  0
ARC
  5
270
100
AcDbEntity
  8
0
 62
     7
100
AcDbCircle
 10
321.193909
 20
156.323624
 30
0.0
 40
0.75
210
0.0
220
0.0
230
1.0
100
AcDbArc
 50
180.000005
 51
0.00001
  0
LINE
  5
271
100
AcDbEntity
  8
0
 62
     7
 48
0.04375
100
AcDbLine
 10
321.943909
 20
156.323624
 30
0.0
 11
321.943909
 21
158.073624
 31
0.0
210
0.0
220
0.0
230
1.0
  0
ARC
  5
272
100
AcDbEntity
  8
0
 62
     7
100
AcDbCircle
 10
321.193909
 20
158.073624
 30
0.0
 40
0.75
210
0.0
220
0.0
230
1.0
100
AcDbArc
 50
0.0
 51
35.405931
  0
LINE
  5
273
100
AcDbEntity
  8
0
 62
     7
 48
0.01227
100
AcDbLine
 10
322.943909
 20
159.823624
 30
0.0
 11
323.434692
 21
159.823624
 31
0.0
210
0.0
220
0.0
230
1.0
  0
ARC
  5
274
100
AcDbEntity
  8
0
 62
     7
100
AcDbCircle
 10
323.434692
 20
158.323624
 30
0.0
 40
1.5
210
0.0
220
0.0
230
1.0
100
AcDbArc
 50
11.578421
 51
90.000003
  0
LINE
  5
275
100
AcDbEntity
  8
0
 62
     7
100
AcDbLine
 10
326.14389
 20
129.823624
 30
0.0
 11
326.14389
 21
152.573624
 31
0.0
210
0.0
220
0.0
230
1.0
  0
LINE
  5
276
100
AcDbEntity
  8
0
 62
     7
 48
0.154419
100
AcDbLine
 10
324.904175
 20
158.624695
 30
0.0
 11
326.14389
 21
152.573624
 31
0.0
210
0.0
220
0.0
230
1.0
  0
LINE
  5
277
100
AcDbEntity
  8
0
 62
     7
 48
0.00625
100
AcDbLine
 10
325.89389
 20
129.823624
 30
0.0
 11
326.14389
 21
129.823624
 31
0.0
210
0.0
220
0.0
230
1.0
  0
LINE
  5
278
100
AcDbEntity
  8
0
 62
     7
 48
0.006282
100
AcDbLine
 10
325.89389
 20
152.548279
 30
0.0
 11
326.14389
 21
152.573624
 31
0.0
210
0.0
220
0.0
230
1.0
  0
LINE
  5
279
100
AcDbEntity
  8
0
 62
     7
100
AcDbLine
 10
325.89389
 20
129.823624
 30
0.0
 11
325.89389
 21
152.548279
 31
0.0
210
0.0
220
0.0
230
1.0
  0
LINE
  5
27A
100
AcDbEntity
  8
0
 62
     7
 48
0.006251
100
AcDbLine
 10
324.904175
 20
158.624695
 30
0.0
 11
324.659241
 21
158.574509
 31
0.0
210
0.0
220
0.0
230
1.0
  0
LINE
  5
27B
100
AcDbEntity
  8
0
 62
     7
 48
0.153785
100
AcDbLine
 10
324.659241
 20
158.574509
 30
0.0
 11
325.89389
 21
152.548279
 31
0.0
210
0.0
220
0.0
230
1.0
  0
LINE
  5
27C
100
AcDbEntity
  8
0
 62
     7
 48
0.00625
100
AcDbLine
 10
323.434692
 20
159.823624
 30
0.0
 11
323.434692
 21
159.573624
 31
0.0
210
0.0
220
0.0
230
1.0
  0
ARC
  5
27D
100
AcDbEntity
  8
0
 62
     7
100
AcDbCircle
 10
323.434692
 20
158.323624
 30
0.0
 40
1.25
210
0.0
220
0.0
230
1.0
100
AcDbArc
 50
11.578421
 51
90.000003
  0
LINE
  5
27E
100
AcDbEntity
  8
0
 62
     7
 48
0.01852
100
AcDbLine
 10
322.693909
 20
159.573624
 30
0.0
 11
323.434692
 21
159.573624
 31
0.0
210
0.0
220
0.0
230
1.0
  0
LINE
  5
27F
100
AcDbEntity
  8
0
 62
     7
 48
0.008839
100
AcDbLine
 10
322.693909
 20
159.573624
 30
0.0
 11
322.943909
 21
159.823624
 31
0.0
210
0.0
220
0.0
230
1.0
  0
LINE
  5
280
100
AcDbEntity
  8
0
 62
     7
 48
0.030848
100
AcDbLine
 10
322.693909
 20
159.573624
 30
0.0
 11
321.821411
 21
158.701111
 31
0.0
210
0.0
220
0.0
230
1.0
  0
ARC
  5
281
100
AcDbEntity
  8
0
 62
     7
100
AcDbCircle
 10
321.92746
 20
158.595047
 30
0.0
 40
0.15
210
0.0
220
0.0
230
1.0
100
AcDbArc
 50
135.0
 51
215.405931
  0
ARC
  5
282
100
AcDbEntity
  8
0
 62
     7
100
AcDbCircle
 10
320.460327
 20
158.595047
 30
0.0
 40
0.15
210
0.0
220
0.0
230
1.0
100
AcDbArc
 50
324.594057
 51
45.0
  0
LINE
  5
283
100
AcDbEntity
  8
0
 62
     7
 48
0.039687
100
AcDbLine
 10
320.566406
 20
158.701111
 30
0.0
 11
319.443909
 21
159.823624
 31
0.0
210
0.0
220
0.0
230
1.0
  0
LINE
  5
284
100
AcDbEntity
  8
0
 62
     7
 48
0.003751
100
AcDbLine
 10
319.443909
 20
159.823624
 30
0.0
 11
319.293884
 21
159.823624
 31
0.0
210
0.0
220
0.0
230
1.0
  0
ARC
  5
285
100
AcDbEntity
  8
0
 62
     7
100
AcDbCircle
 10
319.293884
 20
159.073624
 30
0.0
 40
0.75
210
0.0
220
0.0
230
1.0
100
AcDbArc
 50
90.000003
 51
180.000005
  0
ARC
  5
286
100
AcDbEntity
  8
0
 62
     7
100
AcDbCircle
 10
322.14389
 20
131.573624
 30
0.0
 40
0.6
210
0.0
220
0.0
230
1.0
100
AcDbArc
 50
0.00001
 51
180.000001
  0
LINE
  5
287
100
AcDbEntity
  8
0
 62
     7
 48
0.03125
100
AcDbLine
 10
322.743896
 20
131.573624
 30
0.0
 11
322.743896
 21
130.323624
 31
0.0
210
0.0
220
0.0
230
1.0
  0
LINE
  5
288
100
AcDbEntity
  8
0
 62
     7
 48
0.06625
100
AcDbLine
 10
323.243896
 20
129.823624
 30
0.0
 11
325.89389
 21
129.823624
 31
0.0
210
0.0
220
0.0
230
1.0
  0
LINE
  5
289
100
AcDbEntity
  8
0
 62
     7
 48
0.017678
100
AcDbLine
 10
323.243896
 20
129.823624
 30
0.0
 11
322.743896
 21
130.323624
 31
0.0
210
0.0
220
0.0
230
1.0
  0
LINE
  5
28A
100
AcDbEntity
  8
0
 62
     7
 48
0.01875
100
AcDbLine
 10
321.543884
 20
130.823624
 30
0.0
 11
321.543884
 21
131.573624
 31
0.0
210
0.0
220
0.0
230
1.0
  0
LINE
  5
28B
100
AcDbEntity
  8
0
 62
     7
 48
0.008839
100
AcDbLine
 10
321.543884
 20
130.823624
 30
0.0
 11
321.293884
 21
130.573624
 31
0.0
210
0.0
220
0.0
230
1.0
  0
LINE
  5
28C
100
AcDbEntity
  8
0
 62
     7
100
AcDbLine
 10
318.543884
 20
131.573624
 30
0.0
 11
318.543884
 21
159.073624
 31
0.0
210
0.0
220
0.0
230
1.0
  0
LINE
  5
28D
100
AcDbEntity
  8
0
 62
     7
 48
0.04375
100
AcDbLine
 10
319.543884
 20
130.573624
 30
0.0
 11
321.293884
 21
130.573624
 31
0.0
210
0.0
220
0.0
230
1.0
  0
ARC
  5
28E
100
AcDbEntity
  8
0
 62
     7
100
AcDbCircle
 10
319.543884
 20
131.573624
 30
0.0
 40
1.0
210
0.0
220
0.0
230
1.0
100
AcDbArc
 50
180.000005
 51
270.000001
  0
LINE
  5
28F
100
AcDbEntity
  8
0
 62
     7
 48
0.00625
100
AcDbLine
 10
305.543884
 20
128.573624
 30
0.0
 11
305.543884
 21
128.323624
 31
0.0
210
0.0
220
0.0
230
1.0
  0
LINE
  5
290
100
AcDbEntity
  8
0
 62
     7
100
AcDbLine
 10
305.543884
 20
162.323624
 30
0.0
 11
305.543884
 21
128.573624
 31
0.0
210
0.0
220
0.0
230
1.0
  0
LINE
  5
291
100
AcDbEntity
  8
0
 62
     7
 48
0.00625
100
AcDbLine
 10
305.543884
 20
162.573624
 30
0.0
 11
305.543884
 21
162.323624
 31
0.0
210
0.0
220
0.0
230
1.0
  0
LINE
  5
292
100
AcDbEntity
  8
0
 62
     7
 48
0.0125
100
AcDbLine
 10
306.543884
 20
128.573624
 30
0.0
 11
306.543884
 21
128.073624
 31
0.0
210
0.0
220
0.0
230
1.0
  0
LINE
  5
293
100
AcDbEntity
  8
0
 62
     7
100
AcDbLine
 10
306.543884
 20
128.573624
 30
0.0
 11
306.543884
 21
162.323624
 31
0.0
210
0.0
220
0.0
230
1.0
  0
LINE
  5
294
100
AcDbEntity
  8
0
 62
     7
 48
0.0125
100
AcDbLine
 10
306.543884
 20
162.823624
 30
0.0
 11
306.543884
 21
162.323624
 31
0.0
210
0.0
220
0.0
230
1.0
  0
ARC
  5
295
100
AcDbEntity
  8
0
 62
     7
100
AcDbCircle
 10
305.793884
 20
162.573624
 30
0.0
 40
0.25
210
0.0
220
0.0
230
1.0
100
AcDbArc
 50
90.000003
 51
180.000005
  0
ARC
  5
296
100
AcDbEntity
  8
0
 62
     7
100
AcDbCircle
 10
305.793884
 20
128.323624
 30
0.0
 40
0.25
210
0.0
220
0.0
230
1.0
100
AcDbArc
 50
180.000005
 51
270.000001
  0
LINE
  5
297
100
AcDbEntity
  8
0
 62
     7
 48
0.0125
100
AcDbLine
 10
305.793884
 20
128.573624
 30
0.0
 11
305.793884
 21
128.073624
 31
0.0
210
0.0
220
0.0
230
1.0
  0
LINE
  5
298
100
AcDbEntity
  8
0
 62
     7
 48
0.00625
100
AcDbLine
 10
305.543884
 20
128.573624
 30
0.0
 11
305.793884
 21
128.573624
 31
0.0
210
0.0
220
0.0
230
1.0
  0
LINE
  5
299
100
AcDbEntity
  8
0
 62
     7
100
AcDbLine
 10
305.793884
 20
162.323624
 30
0.0
 11
305.793884
 21
128.573624
 31
0.0
210
0.0
220
0.0
230
1.0
  0
LINE
  5
29A
100
AcDbEntity
  8
0
 62
     7
 48
0.00625
100
AcDbLine
 10
305.543884
 20
162.323624
 30
0.0
 11
305.793884
 21
162.323624
 31
0.0
210
0.0
220
0.0
230
1.0
  0
LINE
  5
29B
100
AcDbEntity
  8
0
 62
     7
 48
0.0125
100
AcDbLine
 10
305.793884
 20
162.823624
 30
0.0
 11
305.793884
 21
162.323624
 31
0.0
210
0.0
220
0.0
230
1.0
  0
LINE
  5
29C
100
AcDbEntity
  8
0
 62
     7
 48
0.0375
100
AcDbLine
 10
305.293884
 20
131.573624
 30
0.0
 11
305.293884
 21
130.073624
 31
0.0
210
0.0
220
0.0
230
1.0
  0
LINE
  5
29D
100
AcDbEntity
  8
0
 62
     7
 48
0.0375
100
AcDbLine
 10
305.293884
 20
130.073624
 30
0.0
 11
305.293884
 21
128.573624
 31
0.0
210
0.0
220
0.0
230
1.0
  0
LINE
  5
29E
100
AcDbEntity
  8
0
 62
     7
 48
0.0375
100
AcDbLine
 10
305.293884
 20
162.323624
 30
0.0
 11
305.293884
 21
160.823624
 31
0.0
210
0.0
220
0.0
230
1.0
  0
LINE
  5
29F
100
AcDbEntity
  8
0
 62
     7
 48
0.0375
100
AcDbLine
 10
305.293884
 20
160.823624
 30
0.0
 11
305.293884
 21
159.323624
 31
0.0
210
0.0
220
0.0
230
1.0
  0
LINE
  5
2A0
100
AcDbEntity
  8
0
 62
     7
 48
0.01875
100
AcDbLine
 10
306.543884
 20
162.823624
 30
0.0
 11
305.793884
 21
162.823624
 31
0.0
210
0.0
220
0.0
230
1.0
  0
LINE
  5
2A1
100
AcDbEntity
  8
0
 62
     7
 48
0.01875
100
AcDbLine
 10
306.543884
 20
162.323624
 30
0.0
 11
305.793884
 21
162.323624
 31
0.0
210
0.0
220
0.0
230
1.0
  0
LINE
  5
2A2
100
AcDbEntity
  8
0
 62
     7
 48
0.01875
100
AcDbLine
 10
306.543884
 20
128.573624
 30
0.0
 11
305.793884
 21
128.573624
 31
0.0
210
0.0
220
0.0
230
1.0
  0
LINE
  5
2A3
100
AcDbEntity
  8
0
 62
     7
 48
0.01875
100
AcDbLine
 10
306.543884
 20
128.073624
 30
0.0
 11
305.793884
 21
128.073624
 31
0.0
210
0.0
220
0.0
230
1.0
  0
LINE
  5
2A4
100
AcDbEntity
  8
0
 62
     7
 48
0.00625
100
AcDbLine
 10
305.543884
 20
128.573624
 30
0.0
 11
305.293884
 21
128.573624
 31
0.0
210
0.0
220
0.0
230
1.0
  0
LINE
  5
2A5
100
AcDbEntity
  8
0
 62
     7
 48
0.00625
100
AcDbLine
 10
305.543884
 20
128.573624
 30
0.0
 11
305.293884
 21
128.573624
 31
0.0
210
0.0
220
0.0
230
1.0
  0
LINE
  5
2A6
100
AcDbEntity
  8
0
 62
     7
 48
0.00625
100
AcDbLine
 10
305.543884
 20
131.573624
 30
0.0
 11
305.293884
 21
131.573624
 31
0.0
210
0.0
220
0.0
230
1.0
  0
LINE
  5
2A7
100
AcDbEntity
  8
0
 62
     7
 48
0.00625
100
AcDbLine
 10
305.543884
 20
159.323624
 30
0.0
 11
305.293884
 21
159.323624
 31
0.0
210
0.0
220
0.0
230
1.0
  0
LINE
  5
2A8
100
AcDbEntity
  8
0
 62
     7
 48
0.00625
100
AcDbLine
 10
305.543884
 20
162.323624
 30
0.0
 11
305.293884
 21
162.323624
 31
0.0
210
0.0
220
0.0
230
1.0
  0
LINE
  5
2A9
100
AcDbEntity
  8
0
 62
     7
 48
0.00625
100
AcDbLine
 10
305.543884
 20
159.073624
 30
0.0
 11
305.293884
 21
159.073624
 31
0.0
210
0.0
220
0.0
230
1.0
  0
LINE
  5
2AA
100
AcDbEntity
  8
0
 62
     7
 48
0.00625
100
AcDbLine
 10
305.543884
 20
131.823624
 30
0.0
 11
305.293884
 21
131.823624
 31
0.0
210
0.0
220
0.0
230
1.0
  0
LINE
  5
2AB
100
AcDbEntity
  8
0
 62
     7
 48
0.025
100
AcDbLine
 10
316.543884
 20
172.073624
 30
0.0
 11
315.543884
 21
172.073624
 31
0.0
210
0.0
220
0.0
230
1.0
  0
LINE
  5
2AC
100
AcDbEntity
  8
0
 62
     7
 48
0.105
100
AcDbLine
 10
316.543884
 20
172.073624
 30
0.0
 11
316.543884
 21
176.273621
 31
0.0
210
0.0
220
0.0
230
1.0
  0
LINE
  5
2AD
100
AcDbEntity
  8
0
 62
     7
 48
0.116251
100
AcDbLine
 10
321.193909
 20
176.273621
 30
0.0
 11
316.543884
 21
176.273621
 31
0.0
210
0.0
220
0.0
230
1.0
  0
LINE
  5
2AE
100
AcDbEntity
  8
0
 62
     7
 48
0.10125
100
AcDbLine
 10
321.193909
 20
176.273621
 30
0.0
 11
321.193909
 21
180.323624
 31
0.0
210
0.0
220
0.0
230
1.0
  0
LINE
  5
2AF
100
AcDbEntity
  8
0
 62
     7
 48
0.089999
100
AcDbLine
 10
324.793884
 20
180.323624
 30
0.0
 11
321.193909
 21
180.323624
 31
0.0
210
0.0
220
0.0
230
1.0
  0
LINE
  5
2B0
100
AcDbEntity
  8
0
 62
     7
 48
0.23125
100
AcDbLine
 10
315.543884
 20
180.92363
 30
0.0
 11
324.793884
 21
180.92363
 31
0.0
210
0.0
220
0.0
230
1.0
  0
ARC
  5
2B1
100
AcDbEntity
  8
0
 62
     7
100
AcDbCircle
 10
319.443909
 20
172.573624
 30
0.0
 40
0.5
210
0.0
220
0.0
230
1.0
100
AcDbArc
 50
270.000001
 51
0.00001
  0
LINE
  5
2B2
100
AcDbEntity
  8
0
 62
     7
 48
0.0925
100
AcDbLine
 10
319.943909
 20
176.273621
 30
0.0
 11
319.943909
 21
172.573624
 31
0.0
210
0.0
220
0.0
230
1.0
  0
LINE
  5
2B3
100
AcDbEntity
  8
0
 62
     7
 48
0.072501
100
AcDbLine
 10
319.443909
 20
172.073624
 30
0.0
 11
316.543884
 21
172.073624
 31
0.0
210
0.0
220
0.0
230
1.0
  0
ARC
  5
2B4
100
AcDbEntity
  8
0
 62
     7
100
AcDbCircle
 10
324.293884
 20
176.773621
 30
0.0
 40
0.5
210
0.0
220
0.0
230
1.0
100
AcDbArc
 50
270.000001
 51
0.00001
  0
LINE
  5
2B5
100
AcDbEntity
  8
0
 62
     7
 48
0.077499
100
AcDbLine
 10
324.293884
 20
176.273621
 30
0.0
 11
321.193909
 21
176.273621
 31
0.0
210
0.0
220
0.0
230
1.0
  0
LINE
  5
2B6
100
AcDbEntity
  8
0
 62
     7
 48
0.0125
100
AcDbLine
 10
315.543884
 20
183.773621
 30
0.0
 11
315.543884
 21
184.273621
 31
0.0
210
0.0
220
0.0
230
1.0
  0
LINE
  5
2B7
100
AcDbEntity
  8
0
 62
     7
 48
0.35125
100
AcDbLine
 10
315.543884
 20
183.773621
 30
0.0
 11
315.543884
 21
169.723618
 31
0.0
210
0.0
220
0.0
230
1.0
  0
LINE
  5
2B8
100
AcDbEntity
  8
0
 62
     7
 48
0.00625
100
AcDbLine
 10
315.543884
 20
169.473618
 30
0.0
 11
315.543884
 21
169.723618
 31
0.0
210
0.0
220
0.0
230
1.0
  0
LINE
  5
2B9
100
AcDbEntity
  8
0
 62
     7
 48
0.01875
100
AcDbLine
 10
305.293884
 20
183.773621
 30
0.0
 11
305.293884
 21
184.523621
 31
0.0
210
0.0
220
0.0
230
1.0
  0
LINE
  5
2BA
100
AcDbEntity
  8
0
 62
     7
 48
0.47625
100
AcDbLine
 10
305.293884
 20
183.773621
 30
0.0
 11
305.293884
 21
164.723618
 31
0.0
210
0.0
220
0.0
230
1.0
  0
LINE
  5
2BB
100
AcDbEntity
  8
0
 62
     7
 48
0.01875
100
AcDbLine
 10
305.293884
 20
163.973618
 30
0.0
 11
305.293884
 21
164.723618
 31
0.0
210
0.0
220
0.0
230
1.0
  0
LINE
  5
2BC
100
AcDbEntity
  8
0
 62
     7
 48
0.125
100
AcDbLine
 10
306.543884
 20
169.723618
 30
0.0
 11
306.543884
 21
164.723618
 31
0.0
210
0.0
220
0.0
230
1.0
  0
LINE
  5
2BD
100
AcDbEntity
  8
0
 62
     7
 48
0.01875
100
AcDbLine
 10
306.543884
 20
163.973618
 30
0.0
 11
306.543884
 21
164.723618
 31
0.0
210
0.0
220
0.0
230
1.0
  0
LINE
  5
2BE
100
AcDbEntity
  8
0
 62
     7
 48
0.075
100
AcDbLine
 10
315.293884
 20
164.473618
 30
0.0
 11
315.293884
 21
167.473618
 31
0.0
210
0.0
220
0.0
230
1.0
  0
LINE
  5
2BF
100
AcDbEntity
  8
0
 62
     7
 48
0.21875
100
AcDbLine
 10
315.293884
 20
167.473618
 30
0.0
 11
306.543884
 21
167.473618
 31
0.0
210
0.0
220
0.0
230
1.0
  0
LINE
  5
2C0
100
AcDbEntity
  8
0
 62
     7
 48
0.21875
100
AcDbLine
 10
315.293884
 20
164.473618
 30
0.0
 11
306.543884
 21
164.473618
 31
0.0
210
0.0
220
0.0
230
1.0
  0
LINE
  5
2C1
100
AcDbEntity
  8
0
 62
     7
 48
0.04375
100
AcDbLine
 10
315.293884
 20
167.473618
 30
0.0
 11
315.293884
 21
169.223618
 31
0.0
210
0.0
220
0.0
230
1.0
  0
LINE
  5
2C2
100
AcDbEntity
  8
0
 62
     7
 48
0.21875
100
AcDbLine
 10
315.293884
 20
169.223618
 30
0.0
 11
306.543884
 21
169.223618
 31
0.0
210
0.0
220
0.0
230
1.0
  0
LINE
  5
2C3
100
AcDbEntity
  8
0
 62
     7
 48
0.00625
100
AcDbLine
 10
315.293884
 20
164.473618
 30
0.0
 11
315.543884
 21
164.473618
 31
0.0
210
0.0
220
0.0
230
1.0
  0
LINE
  5
2C4
100
AcDbEntity
  8
0
 62
     7
 48
0.075
100
AcDbLine
 10
315.543884
 20
164.473618
 30
0.0
 11
315.543884
 21
167.473618
 31
0.0
210
0.0
220
0.0
230
1.0
  0
LINE
  5
2C5
100
AcDbEntity
  8
0
 62
     7
 48
0.00625
100
AcDbLine
 10
315.293884
 20
167.473618
 30
0.0
 11
315.543884
 21
167.473618
 31
0.0
210
0.0
220
0.0
230
1.0
  0
LINE
  5
2C6
100
AcDbEntity
  8
0
 62
     7
 48
0.05
100
AcDbLine
 10
315.543884
 20
167.473618
 30
0.0
 11
315.543884
 21
169.473618
 31
0.0
210
0.0
220
0.0
230
1.0
  0
LINE
  5
2C7
100
AcDbEntity
  8
0
 62
     7
 48
0.00625
100
AcDbLine
 10
315.543884
 20
164.223618
 30
0.0
 11
315.543884
 21
164.473618
 31
0.0
210
0.0
220
0.0
230
1.0
  0
ARC
  5
2C8
100
AcDbEntity
  8
0
 62
     7
100
AcDbCircle
 10
315.293884
 20
164.223618
 30
0.0
 40
0.25
210
0.0
220
0.0
230
1.0
100
AcDbArc
 50
270.000001
 51
0.00001
  0
LINE
  5
2C9
100
AcDbEntity
  8
0
 62
     7
 48
0.0125
100
AcDbLine
 10
315.293884
 20
163.973618
 30
0.0
 11
315.293884
 21
164.473618
 31
0.0
210
0.0
220
0.0
230
1.0
  0
LINE
  5
2CA
100
AcDbEntity
  8
0
 62
     7
 48
0.073251
100
AcDbLine
 10
315.543884
 20
169.473618
 30
0.0
 11
318.193909
 21
170.723618
 31
0.0
210
0.0
220
0.0
230
1.0
  0
LINE
  5
2CB
100
AcDbEntity
  8
0
 62
     7
 48
0.000625
100
AcDbLine
 10
324.793884
 20
184.248611
 30
0.0
 11
324.793884
 21
184.273621
 31
0.0
210
0.0
220
0.0
230
1.0
  0
LINE
  5
2CC
100
AcDbEntity
  8
0
 62
     7
 48
0.21875
100
AcDbLine
 10
315.293884
 20
169.723618
 30
0.0
 11
306.543884
 21
169.723618
 31
0.0
210
0.0
220
0.0
230
1.0
  0
LINE
  5
2CD
100
AcDbEntity
  8
0
 62
     7
 48
0.0125
100
AcDbLine
 10
315.293884
 20
169.223618
 30
0.0
 11
315.293884
 21
169.723618
 31
0.0
210
0.0
220
0.0
230
1.0
  0
LINE
  5
2CE
100
AcDbEntity
  8
0
 62
     7
 48
0.21875
100
AcDbLine
 10
315.293884
 20
163.973618
 30
0.0
 11
306.543884
 21
163.973618
 31
0.0
210
0.0
220
0.0
230
1.0
  0
LINE
  5
2CF
100
AcDbEntity
  8
0
 62
     7
 48
0.03125
100
AcDbLine
 10
305.293884
 20
164.723618
 30
0.0
 11
306.543884
 21
164.723618
 31
0.0
210
0.0
220
0.0
230
1.0
  0
LINE
  5
2D0
100
AcDbEntity
  8
0
 62
     7
 48
0.03125
100
AcDbLine
 10
305.293884
 20
163.973618
 30
0.0
 11
306.543884
 21
163.973618
 31
0.0
210
0.0
220
0.0
230
1.0
  0
LINE
  5
2D1
100
AcDbEntity
  8
0
 62
     7
 48
0.25
100
AcDbLine
 10
305.293884
 20
183.773621
 30
0.0
 11
315.293884
 21
183.773621
 31
0.0
210
0.0
220
0.0
230
1.0
  0
LINE
  5
2D2
100
AcDbEntity
  8
0
 62
     7
 48
0.35125
100
AcDbLine
 10
315.293884
 20
183.773621
 30
0.0
 11
315.293884
 21
169.723618
 31
0.0
210
0.0
220
0.0
230
1.0
  0
LINE
  5
2D3
100
AcDbEntity
  8
0
 62
     7
 48
0.25
100
AcDbLine
 10
305.293884
 20
184.523621
 30
0.0
 11
315.293884
 21
184.523621
 31
0.0
210
0.0
220
0.0
230
1.0
  0
LINE
  5
2D4
100
AcDbEntity
  8
0
 62
     7
 48
0.01875
100
AcDbLine
 10
315.293884
 20
183.773621
 30
0.0
 11
315.293884
 21
184.523621
 31
0.0
210
0.0
220
0.0
230
1.0
  0
LINE
  5
2D5
100
AcDbEntity
  8
0
 62
     7
 48
0.23125
100
AcDbLine
 10
324.793884
 20
183.023621
 30
0.0
 11
315.543884
 21
183.023621
 31
0.0
210
0.0
220
0.0
230
1.0
  0
LINE
  5
2D6
100
AcDbEntity
  8
0
 62
     7
 48
0.23125
100
AcDbLine
 10
324.793884
 20
182.523621
 30
0.0
 11
315.543884
 21
182.523621
 31
0.0
210
0.0
220
0.0
230
1.0
  0
LINE
  5
2D7
100
AcDbEntity
  8
0
 62
     7
 48
0.035001
100
AcDbLine
 10
315.543884
 20
171.973618
 30
0.0
 11
316.943909
 21
171.973618
 31
0.0
210
0.0
220
0.0
230
1.0
  0
ARC
  5
2D8
100
AcDbEntity
  8
0
 62
     7
100
AcDbCircle
 10
315.293884
 20
169.473618
 30
0.0
 40
0.25
210
0.0
220
0.0
230
1.0
100
AcDbArc
 50
270.000001
 51
0.00001
  0
LINE
  5
2D9
100
AcDbEntity
  8
0
 62
     7
 48
0.00625
100
AcDbLine
 10
315.293884
 20
169.723618
 30
0.0
 11
315.543884
 21
169.723618
 31
0.0
210
0.0
220
0.0
230
1.0
  0
LINE
  5
2DA
100
AcDbEntity
  8
0
 62
     7
 48
0.00625
100
AcDbLine
 10
315.293884
 20
183.773621
 30
0.0
 11
315.543884
 21
183.773621
 31
0.0
210
0.0
220
0.0
230
1.0
  0
ARC
  5
2DB
100
AcDbEntity
  8
0
 62
     7
100
AcDbCircle
 10
315.293884
 20
184.273621
 30
0.0
 40
0.25
210
0.0
220
0.0
230
1.0
100
AcDbArc
 50
0.0
 51
90.000003
  0
LINE
  5
2DC
100
AcDbEntity
  8
0
 62
     7
 48
0.0025
100
AcDbLine
 10
316.943909
 20
172.073624
 30
0.0
 11
316.943909
 21
171.973618
 31
0.0
210
0.0
220
0.0
230
1.0
  0
LINE
  5
2DD
100
AcDbEntity
  8
0
 62
     7
 48
0.03375
100
AcDbLine
 10
318.193909
 20
172.073624
 30
0.0
 11
318.193909
 21
170.723618
 31
0.0
210
0.0
220
0.0
230
1.0
  0
LINE
  5
2DE
100
AcDbEntity
  8
0
 62
     7
 48
0.23125
100
AcDbLine
 10
315.543884
 20
181.273621
 30
0.0
 11
324.793884
 21
181.273621
 31
0.0
210
0.0
220
0.0
230
1.0
  0
LINE
  5
2DF
100
AcDbEntity
  8
0
 62
     7
 48
0.23125
100
AcDbLine
 10
315.543884
 20
184.273621
 30
0.0
 11
324.793884
 21
184.273621
 31
0.0
210
0.0
220
0.0
230
1.0
  0
LINE
  5
2E0
100
AcDbEntity
  8
0
 62
     7
 48
0.23125
100
AcDbLine
 10
315.543884
 20
181.273621
 30
0.0
 11
324.793884
 21
181.273621
 31
0.0
210
0.0
220
0.0
230
1.0
  0
LINE
  5
2E1
100
AcDbEntity
  8
0
 62
     7
 48
0.0125
100
AcDbLine
 10
324.793884
 20
184.248627
 30
0.0
 11
325.293884
 21
184.248627
 31
0.0
210
0.0
220
0.0
230
1.0
  0
LINE
  5
2E2
100
AcDbEntity
  8
0
 62
     7
 48
0.0125
100
AcDbLine
 10
324.793884
 20
183.748627
 30
0.0
 11
324.793884
 21
184.248627
 31
0.0
210
0.0
220
0.0
230
1.0
  0
LINE
  5
2E3
100
AcDbEntity
  8
0
 62
     7
 48
0.0125
100
AcDbLine
 10
324.793884
 20
183.748627
 30
0.0
 11
325.293884
 21
183.748627
 31
0.0
210
0.0
220
0.0
230
1.0
  0
LINE
  5
2E4
100
AcDbEntity
  8
0
 62
     7
 48
0.0125
100
AcDbLine
 10
325.293884
 20
183.748627
 30
0.0
 11
325.293884
 21
184.248627
 31
0.0
210
0.0
220
0.0
230
1.0
  0
LINE
  5
2E5
100
AcDbEntity
  8
0
 62
     7
 48
0.29375
100
AcDbLine
 10
324.793884
 20
183.748627
 30
0.0
 11
324.793884
 21
171.998627
 31
0.0
210
0.0
220
0.0
230
1.0
  0
LINE
  5
2E6
100
AcDbEntity
  8
0
 62
     7
 48
0.0125
100
AcDbLine
 10
324.793884
 20
171.998627
 30
0.0
 11
325.293884
 21
171.998627
 31
0.0
210
0.0
220
0.0
230
1.0
  0
LINE
  5
2E7
100
AcDbEntity
  8
0
 62
     7
 48
0.29375
100
AcDbLine
 10
325.293884
 20
183.748627
 30
0.0
 11
325.293884
 21
171.998627
 31
0.0
210
0.0
220
0.0
230
1.0
  0
LINE
  5
2E8
100
AcDbEntity
  8
0
 62
     7
 48
0.0125
100
AcDbLine
 10
324.793884
 20
171.498627
 30
0.0
 11
324.793884
 21
171.998627
 31
0.0
210
0.0
220
0.0
230
1.0
  0
LINE
  5
2E9
100
AcDbEntity
  8
0
 62
     7
 48
0.0125
100
AcDbLine
 10
324.793884
 20
171.498627
 30
0.0
 11
325.293884
 21
171.498627
 31
0.0
210
0.0
220
0.0
230
1.0
  0
LINE
  5
2EA
100
AcDbEntity
  8
0
 62
     7
 48
0.0125
100
AcDbLine
 10
325.293884
 20
171.498627
 30
0.0
 11
325.293884
 21
171.998627
 31
0.0
210
0.0
220
0.0
230
1.0
  0
LINE
  5
2EB
100
AcDbEntity
  8
0
 62
     7
 48
0.017244
100
AcDbLine
 10
325.293884
 20
184.098633
 30
0.0
 11
325.293884
 21
183.408859
 31
0.0
210
0.0
220
0.0
230
1.0
  0
LINE
  5
2EC
100
AcDbEntity
  8
0
 62
     7
 48
0.049006
100
AcDbLine
 10
325.293884
 20
183.408859
 30
0.0
 11
325.293884
 21
181.448624
 31
0.0
210
0.0
220
0.0
230
1.0
  0
LINE
  5
2ED
100
AcDbEntity
  8
0
 62
     7
 48
0.017244
100
AcDbLine
 10
326.043884
 20
184.098633
 30
0.0
 11
326.043884
 21
183.408859
 31
0.0
210
0.0
220
0.0
230
1.0
  0
LINE
  5
2EE
100
AcDbEntity
  8
0
 62
     7
 48
0.049006
100
AcDbLine
 10
326.043884
 20
183.408859
 30
0.0
 11
326.043884
 21
181.448624
 31
0.0
210
0.0
220
0.0
230
1.0
  0
LINE
  5
2EF
100
AcDbEntity
  8
0
 62
     7
 48
0.013991
100
AcDbLine
 10
326.293884
 20
183.848633
 30
0.0
 11
326.293884
 21
183.289001
 31
0.0
210
0.0
220
0.0
230
1.0
  0
LINE
  5
2F0
100
AcDbEntity
  8
0
 62
     7
 48
0.039759
100
AcDbLine
 10
326.293884
 20
183.289001
 30
0.0
 11
326.293884
 21
181.698624
 31
0.0
210
0.0
220
0.0
230
1.0
  0
LINE
  5
2F1
100
AcDbEntity
  8
0
 62
     7
 48
0.01875
100
AcDbLine
 10
326.043884
 20
184.098633
 30
0.0
 11
325.293884
 21
184.098633
 31
0.0
210
0.0
220
0.0
230
1.0
  0
LINE
  5
2F2
100
AcDbEntity
  8
0
 62
     7
 48
0.01875
100
AcDbLine
 10
326.043884
 20
181.448624
 30
0.0
 11
325.293884
 21
181.448624
 31
0.0
210
0.0
220
0.0
230
1.0
  0
ARC
  5
2F3
100
AcDbEntity
  8
0
 62
     7
100
AcDbCircle
 10
326.043884
 20
183.848633
 30
0.0
 40
0.25
210
0.0
220
0.0
230
1.0
100
AcDbArc
 50
360.0
 51
90.000003
  0
ARC
  5
2F4
100
AcDbEntity
  8
0
 62
     7
100
AcDbCircle
 10
326.043884
 20
181.698624
 30
0.0
 40
0.25
210
0.0
220
0.0
230
1.0
100
AcDbArc
 50
269.999997
 51
0.0
  0
LINE
  5
2F5
100
AcDbEntity
  8
0
 62
     7
 48
0.003125
100
AcDbLine
 10
305.793884
 20
125.355949
 30
0.0
 11
305.793884
 21
125.480949
 31
0.0
210
0.0
220
0.0
230
1.0
  0
LINE
  5
2F6
100
AcDbEntity
  8
0
 62
     7
 48
0.003125
100
AcDbLine
 10
305.793884
 20
125.230949
 30
0.0
 11
305.793884
 21
125.355949
 31
0.0
210
0.0
220
0.0
230
1.0
  0
LINE
  5
2F7
100
AcDbEntity
  8
0
 62
     7
 48
0.1
100
AcDbLine
 10
311.293884
 20
124.105949
 30
0.0
 11
307.293884
 21
124.105949
 31
0.0
210
0.0
220
0.0
230
1.0
  0
LINE
  5
2F8
100
AcDbEntity
  8
0
 62
     7
 48
0.0375
100
AcDbLine
 10
305.793884
 20
124.105949
 30
0.0
 11
307.293884
 21
124.105949
 31
0.0
210
0.0
220
0.0
230
1.0
  0
ARC
  5
2F9
100
AcDbEntity
  8
0
 62
     7
100
AcDbCircle
 10
311.293884
 20
123.605949
 30
0.0
 40
0.5
210
0.0
220
0.0
230
1.0
100
AcDbArc
 50
0.0
 51
90.000003
  0
LINE
  5
2FA
100
AcDbEntity
  8
0
 62
     7
 48
0.125
100
AcDbLine
 10
311.793884
 20
123.605949
 30
0.0
 11
311.793884
 21
118.605949
 31
0.0
210
0.0
220
0.0
230
1.0
  0
ARC
  5
2FB
100
AcDbEntity
  8
0
 62
     7
100
AcDbCircle
 10
311.293884
 20
118.605949
 30
0.0
 40
0.5
210
0.0
220
0.0
230
1.0
100
AcDbArc
 50
270.000001
 51
0.00001
  0
LINE
  5
2FC
100
AcDbEntity
  8
0
 62
     7
 48
0.1
100
AcDbLine
 10
307.293884
 20
118.105949
 30
0.0
 11
311.293884
 21
118.105949
 31
0.0
210
0.0
220
0.0
230
1.0
  0
LINE
  5
2FD
100
AcDbEntity
  8
0
 62
     7
 48
0.03125
100
AcDbLine
 10
308.043884
 20
118.855949
 30
0.0
 11
309.293884
 21
118.855949
 31
0.0
210
0.0
220
0.0
230
1.0
  0
LINE
  5
2FE
100
AcDbEntity
  8
0
 62
     7
 48
0.1125
100
AcDbLine
 10
309.293884
 20
123.355949
 30
0.0
 11
309.293884
 21
118.855949
 31
0.0
210
0.0
220
0.0
230
1.0
  0
LINE
  5
2FF
100
AcDbEntity
  8
0
 62
     7
 48
0.03125
100
AcDbLine
 10
308.043884
 20
123.355949
 30
0.0
 11
309.293884
 21
123.355949
 31
0.0
210
0.0
220
0.0
230
1.0
  0
LINE
  5
300
100
AcDbEntity
  8
0
 62
     7
 48
0.026517
100
AcDbLine
 10
307.293884
 20
124.105949
 30
0.0
 11
308.043884
 21
123.355949
 31
0.0
210
0.0
220
0.0
230
1.0
  0
LINE
  5
301
100
AcDbEntity
  8
0
 62
     7
 48
0.15
100
AcDbLine
 10
305.793884
 20
124.105949
 30
0.0
 11
305.793884
 21
118.105949
 31
0.0
210
0.0
220
0.0
230
1.0
  0
LINE
  5
302
100
AcDbEntity
  8
0
 62
     7
 48
0.0375
100
AcDbLine
 10
305.793884
 20
118.105949
 30
0.0
 11
307.293884
 21
118.105949
 31
0.0
210
0.0
220
0.0
230
1.0
  0
LINE
  5
303
100
AcDbEntity
  8
0
 62
     7
 48
0.026517
100
AcDbLine
 10
307.293884
 20
118.105949
 30
0.0
 11
308.043884
 21
118.855949
 31
0.0
210
0.0
220
0.0
230
1.0
  0
LINE
  5
304
100
AcDbEntity
  8
0
 62
     7
 48
0.010001
100
AcDbLine
 10
309.293884
 20
123.105949
 30
0.0
 11
309.693909
 21
123.105949
 31
0.0
210
0.0
220
0.0
230
1.0
  0
LINE
  5
305
100
AcDbEntity
  8
0
 62
     7
 48
0.0125
100
AcDbLine
 10
309.293884
 20
122.605949
 30
0.0
 11
309.293884
 21
123.105949
 31
0.0
210
0.0
220
0.0
230
1.0
  0
LINE
  5
306
100
AcDbEntity
  8
0
 62
     7
 48
0.0125
100
AcDbLine
 10
309.693909
 20
122.605949
 30
0.0
 11
309.693909
 21
123.105949
 31
0.0
210
0.0
220
0.0
230
1.0
  0
LINE
  5
307
100
AcDbEntity
  8
0
 62
     7
 48
0.010001
100
AcDbLine
 10
309.293884
 20
122.605949
 30
0.0
 11
309.693909
 21
122.605949
 31
0.0
210
0.0
220
0.0
230
1.0
  0
LINE
  5
308
100
AcDbEntity
  8
0
 62
     7
 48
0.075
100
AcDbLine
 10
309.293884
 20
119.605949
 30
0.0
 11
309.293884
 21
122.605949
 31
0.0
210
0.0
220
0.0
230
1.0
  0
LINE
  5
309
100
AcDbEntity
  8
0
 62
     7
 48
0.010001
100
AcDbLine
 10
309.293884
 20
119.605949
 30
0.0
 11
309.693909
 21
119.605949
 31
0.0
210
0.0
220
0.0
230
1.0
  0
LINE
  5
30A
100
AcDbEntity
  8
0
 62
     7
 48
0.075
100
AcDbLine
 10
309.693909
 20
119.605949
 30
0.0
 11
309.693909
 21
122.605949
 31
0.0
210
0.0
220
0.0
230
1.0
  0
LINE
  5
30B
100
AcDbEntity
  8
0
 62
     7
 48
0.0125
100
AcDbLine
 10
309.293884
 20
119.105949
 30
0.0
 11
309.293884
 21
119.605949
 31
0.0
210
0.0
220
0.0
230
1.0
  0
LINE
  5
30C
100
AcDbEntity
  8
0
 62
     7
 48
0.010001
100
AcDbLine
 10
309.293884
 20
119.105949
 30
0.0
 11
309.693909
 21
119.105949
 31
0.0
210
0.0
220
0.0
230
1.0
  0
LINE
  5
30D
100
AcDbEntity
  8
0
 62
     7
 48
0.0125
100
AcDbLine
 10
309.693909
 20
119.105949
 30
0.0
 11
309.693909
 21
119.605949
 31
0.0
210
0.0
220
0.0
230
1.0
  0
LINE
  5
30E
100
AcDbEntity
  8
0
 62
     7
 48
0.013991
100
AcDbLine
 10
311.193909
 20
122.180954
 30
0.0
 11
311.193909
 21
121.62133
 31
0.0
210
0.0
220
0.0
230
1.0
  0
LINE
  5
30F
100
AcDbEntity
  8
0
 62
     7
 48
0.017244
100
AcDbLine
 10
310.943909
 20
122.430954
 30
0.0
 11
310.943909
 21
121.741188
 31
0.0
210
0.0
220
0.0
230
1.0
  0
LINE
  5
310
100
AcDbEntity
  8
0
 62
     7
 48
0.039759
100
AcDbLine
 10
311.193909
 20
121.62133
 30
0.0
 11
311.193909
 21
120.030952
 31
0.0
210
0.0
220
0.0
230
1.0
  0
LINE
  5
311
100
AcDbEntity
  8
0
 62
     7
 48
0.049006
100
AcDbLine
 10
310.943909
 20
121.741188
 30
0.0
 11
310.943909
 21
119.780952
 31
0.0
210
0.0
220
0.0
230
1.0
  0
LINE
  5
312
100
AcDbEntity
  8
0
 62
     7
 48
0.017244
100
AcDbLine
 10
310.193909
 20
122.430954
 30
0.0
 11
310.193909
 21
121.741188
 31
0.0
210
0.0
220
0.0
230
1.0
  0
LINE
  5
313
100
AcDbEntity
  8
0
 62
     7
 48
0.049006
100
AcDbLine
 10
310.193909
 20
121.741188
 30
0.0
 11
310.193909
 21
119.780952
 31
0.0
210
0.0
220
0.0
230
1.0
  0
ARC
  5
314
100
AcDbEntity
  8
0
 62
     7
100
AcDbCircle
 10
310.943909
 20
122.180954
 30
0.0
 40
0.25
210
0.0
220
0.0
230
1.0
100
AcDbArc
 50
360.0
 51
90.000003
  0
ARC
  5
315
100
AcDbEntity
  8
0
 62
     7
100
AcDbCircle
 10
310.943909
 20
120.030952
 30
0.0
 40
0.25
210
0.0
220
0.0
230
1.0
100
AcDbArc
 50
269.999997
 51
0.0
  0
LINE
  5
316
100
AcDbEntity
  8
0
 62
     7
 48
0.01875
100
AcDbLine
 10
310.943909
 20
122.430954
 30
0.0
 11
310.193909
 21
122.430954
 31
0.0
210
0.0
220
0.0
230
1.0
  0
LINE
  5
317
100
AcDbEntity
  8
0
 62
     7
 48
0.01875
100
AcDbLine
 10
310.943909
 20
119.780952
 30
0.0
 11
310.193909
 21
119.780952
 31
0.0
210
0.0
220
0.0
230
1.0
  0
LINE
  5
318
100
AcDbEntity
  8
0
 62
     7
 48
0.0125
100
AcDbLine
 10
310.193909
 20
119.780952
 30
0.0
 11
309.693909
 21
119.780952
 31
0.0
210
0.0
220
0.0
230
1.0
  0
LINE
  5
319
100
AcDbEntity
  8
0
 62
     7
 48
0.06625
100
AcDbLine
 10
310.193909
 20
122.430954
 30
0.0
 11
310.193909
 21
119.780952
 31
0.0
210
0.0
220
0.0
230
1.0
  0
LINE
  5
31A
100
AcDbEntity
  8
0
 62
     7
 48
0.0125
100
AcDbLine
 10
310.193909
 20
122.430954
 30
0.0
 11
309.693909
 21
122.430954
 31
0.0
210
0.0
220
0.0
230
1.0
  0
LINE
  5
31B
100
AcDbEntity
  8
0
 62
     7
 48
0.06625
100
AcDbLine
 10
309.693909
 20
122.430954
 30
0.0
 11
309.693909
 21
119.780952
 31
0.0
210
0.0
220
0.0
230
1.0
  0
LINE
  5
31C
100
AcDbEntity
  8
0
 62
     7
 48
0.0125
100
AcDbLine
 10
305.293884
 20
127.605949
 30
0.0
 11
305.793884
 21
127.605949
 31
0.0
210
0.0
220
0.0
230
1.0
  0
LINE
  5
31D
100
AcDbEntity
  8
0
 62
     7
 48
0.0125
100
AcDbLine
 10
305.793884
 20
127.105949
 30
0.0
 11
305.793884
 21
127.605949
 31
0.0
210
0.0
220
0.0
230
1.0
  0
LINE
  5
31E
100
AcDbEntity
  8
0
 62
     7
 48
0.0125
100
AcDbLine
 10
305.293884
 20
127.105949
 30
0.0
 11
305.293884
 21
127.605949
 31
0.0
210
0.0
220
0.0
230
1.0
  0
LINE
  5
31F
100
AcDbEntity
  8
0
 62
     7
 48
0.0125
100
AcDbLine
 10
305.293884
 20
127.105949
 30
0.0
 11
305.793884
 21
127.105949
 31
0.0
210
0.0
220
0.0
230
1.0
  0
LINE
  5
320
100
AcDbEntity
  8
0
 62
     7
 48
0.0125
100
AcDbLine
 10
305.293884
 20
117.105949
 30
0.0
 11
305.793884
 21
117.105949
 31
0.0
210
0.0
220
0.0
230
1.0
  0
LINE
  5
321
100
AcDbEntity
  8
0
 62
     7
 48
0.2375
100
AcDbLine
 10
305.793884
 20
127.105949
 30
0.0
 11
305.793884
 21
117.605949
 31
0.0
210
0.0
220
0.0
230
1.0
  0
LINE
  5
322
100
AcDbEntity
  8
0
 62
     7
 48
0.2375
100
AcDbLine
 10
305.293884
 20
127.105949
 30
0.0
 11
305.293884
 21
117.605949
 31
0.0
210
0.0
220
0.0
230
1.0
  0
LINE
  5
323
100
AcDbEntity
  8
0
 62
     7
 48
0.0125
100
AcDbLine
 10
305.293884
 20
117.605949
 30
0.0
 11
305.793884
 21
117.605949
 31
0.0
210
0.0
220
0.0
230
1.0
  0
LINE
  5
324
100
AcDbEntity
  8
0
 62
     7
 48
0.0125
100
AcDbLine
 10
305.793884
 20
117.105949
 30
0.0
 11
305.793884
 21
117.605949
 31
0.0
210
0.0
220
0.0
230
1.0
  0
LINE
  5
325
100
AcDbEntity
  8
0
 62
     7
 48
0.0125
100
AcDbLine
 10
305.293884
 20
117.105949
 30
0.0
 11
305.293884
 21
117.605949
 31
0.0
210
0.0
220
0.0
230
1.0
  0
LINE
  5
326
100
AcDbEntity
  8
0
 62
     7
 48
0.013014
100
AcDbLine
 10
306.043884
 20
126.605949
 30
0.0
 11
306.043884
 21
126.085373
 31
0.0
210
0.0
220
0.0
230
1.0
  0
LINE
  5
327
100
AcDbEntity
  8
0
 62
     7
 48
0.036986
100
AcDbLine
 10
306.043884
 20
126.085373
 30
0.0
 11
306.043884
 21
124.605949
 31
0.0
210
0.0
220
0.0
230
1.0
  0
LINE
  5
328
100
AcDbEntity
  8
0
 62
     7
 48
0.00625
100
AcDbLine
 10
306.043884
 20
126.605949
 30
0.0
 11
305.793884
 21
126.605949
 31
0.0
210
0.0
220
0.0
230
1.0
  0
LINE
  5
329
100
AcDbEntity
  8
0
 62
     7
 48
0.00625
100
AcDbLine
 10
306.043884
 20
124.605949
 30
0.0
 11
305.793884
 21
124.605949
 31
0.0
210
0.0
220
0.0
230
1.0
  0
LINE
  5
32A
100
AcDbEntity
  8
0
 62
     7
 48
0.00625
100
AcDbLine
 10
306.293884
 20
125.773621
 30
0.0
 11
306.043884
 21
125.773621
 31
0.0
210
0.0
220
0.0
230
1.0
  0
LINE
  5
32B
100
AcDbEntity
  8
0
 62
     7
 48
0.0375
100
AcDbLine
 10
306.293884
 20
124.273621
 30
0.0
 11
306.293884
 21
125.773621
 31
0.0
210
0.0
220
0.0
230
1.0
  0
LINE
  5
32C
100
AcDbEntity
  8
0
 62
     7
 48
0.012501
100
AcDbLine
 10
306.293884
 20
124.273621
 30
0.0
 11
305.793854
 21
124.273621
 31
0.0
210
0.0
220
0.0
230
1.0
  0
LINE
  5
32D
100
AcDbEntity
  8
0
 62
     7
 48
0.004191
100
AcDbLine
 10
306.293884
 20
124.105988
 30
0.0
 11
306.293884
 21
124.273621
 31
0.0
210
0.0
220
0.0
230
1.0
  0
LINE
  5
32E
100
AcDbEntity
  8
0
 62
     7
 48
0.006509
100
AcDbLine
 10
306.293884
 20
125.773621
 30
0.0
 11
306.043884
 21
125.846359
 31
0.0
210
0.0
220
0.0
230
1.0
  0
LINE
  5
32F
100
AcDbEntity
  8
0
 62
     7
 48
0.0125
100
AcDbLine
 10
305.793884
 20
118.105957
 30
0.0
 11
305.793884
 21
117.605949
 31
0.0
210
0.0
220
0.0
230
1.0
  0
LINE
  5
330
100
AcDbEntity
  8
0
 62
     7
 48
0.0125
100
AcDbLine
 10
305.793884
 20
117.105949
 30
0.0
 11
305.793884
 21
117.605949
 31
0.0
210
0.0
220
0.0
230
1.0
  0
LINE
  5
331
100
AcDbEntity
  8
0
 62
     7
 48
0.0125
100
AcDbLine
 10
305.793884
 20
127.105949
 30
0.0
 11
305.793884
 21
127.605949
 31
0.0
210
0.0
220
0.0
230
1.0
  0
LINE
  5
332
100
AcDbEntity
  8
0
 62
     7
 48
0.0125
100
AcDbLine
 10
305.793884
 20
127.105949
 30
0.0
 11
305.793884
 21
126.605957
 31
0.0
210
0.0
220
0.0
230
1.0
  0
LINE
  5
333
100
AcDbEntity
  8
0
 62
     7
 48
0.0125
100
AcDbLine
 10
305.793884
 20
124.605957
 30
0.0
 11
305.793884
 21
124.105949
 31
0.0
210
0.0
220
0.0
230
1.0
  0
ENDSEC
  0
SECTION
  2
OBJECTS
  0
DICTIONARY
  5
19
100
AcDbDictionary
  3
ACAD_GROUP
350
1A
  3
ACAD_MLINESTYLE
350
1B
  0
DICTIONARY
  5
1A
102
{ACAD_REACTORS
330
19
102
}
100
AcDbDictionary
  0
DICTIONARY
  5
1B
102
{ACAD_REACTORS
330
19
102
}
100
AcDbDictionary
  3
STANDARD
350
1C
  0
MLINESTYLE
  5
1C
102
{ACAD_REACTORS
330
1B
102
}
100
AcDbMlineStyle
  2
STANDARD
 70
     0
  3

 62
     0
 51
90.0
 52
90.0
 71
     2
 49
0.5
 62
   256
  6
BYLAYER
 49
-0.5
 62
   256
  6
BYLAYER
  0
ENDSEC
  0
EOF
