  0
SECTION
  2
HEADER
  9
$ACADVER
  1
AC1015
  9
$ACADMAINTVER
 70
    10
  9
$DWGCODEPAGE
  3
ANSI_932
  9
$INSBASE
 10
0.0
 20
0.0
 30
0.0
  9
$EXTMIN
 10
50.24516326874413
 20
116.3846610008864
 30
0.0
  9
$EXTMAX
 10
683.93216013977
 20
406.4462780279136
 30
0.0
  9
$LIMMIN
 10
0.0
 20
0.0
  9
$LIMMAX
 10
420.0
 20
297.0
  9
$ORTHOMODE
 70
     0
  9
$REGENMODE
 70
     1
  9
$FILLMODE
 70
     1
  9
$QTEXTMODE
 70
     0
  9
$MIRRTEXT
 70
     1
  9
$LTSCALE
 40
1.0
  9
$ATTMODE
 70
     1
  9
$TEXTSIZE
 40
0.0
  9
$TRACEWID
 40
1.0
  9
$TEXTSTYLE
  7
STANDARD
  9
$CLAYER
  8
0
  9
$CELTYPE
  6
BYLAYER
  9
$CECOLOR
 62
   256
  9
$CELTSCALE
 40
1.0
  9
$DISPSILH
 70
     0
  9
$DIMSCALE
 40
1.0
  9
$DIMASZ
 40
2.5
  9
$DIMEXO
 40
0.625
  9
$DIMDLI
 40
3.75
  9
$DIMRND
 40
0.0
  9
$DIMDLE
 40
0.0
  9
$DIMEXE
 40
1.25
  9
$DIMTP
 40
0.0
  9
$DIMTM
 40
0.0
  9
$DIMTXT
 40
2.5
  9
$DIMCEN
 40
2.5
  9
$DIMTSZ
 40
0.0
  9
$DIMTOL
 70
     0
  9
$DIMLIM
 70
     0
  9
$DIMTIH
 70
     0
  9
$DIMTOH
 70
     0
  9
$DIMSE1
 70
     0
  9
$DIMSE2
 70
     0
  9
$DIMTAD
 70
     1
  9
$DIMZIN
 70
     8
  9
$DIMBLK
  1

  9
$DIMASO
 70
     1
  9
$DIMSHO
 70
     1
  9
$DIMPOST
  1

  9
$DIMAPOST
  1

  9
$DIMALT
 70
     0
  9
$DIMALTD
 70
     3
  9
$DIMALTF
 40
0.03937
  9
$DIMLFAC
 40
1.0
  9
$DIMTOFL
 70
     1
  9
$DIMTVP
 40
0.0
  9
$DIMTIX
 70
     0
  9
$DIMSOXD
 70
     0
  9
$DIMSAH
 70
     0
  9
$DIMBLK1
  1

  9
$DIMBLK2
  1

  9
$DIMSTYLE
  2
STANDARD
  9
$DIMCLRD
 70
     0
  9
$DIMCLRE
 70
     0
  9
$DIMCLRT
 70
     0
  9
$DIMTFAC
 40
1.0
  9
$DIMGAP
 40
0.625
  9
$DIMJUST
 70
     0
  9
$DIMSD1
 70
     0
  9
$DIMSD2
 70
     0
  9
$DIMTOLJ
 70
     0
  9
$DIMTZIN
 70
     8
  9
$DIMALTZ
 70
     0
  9
$DIMALTTZ
 70
     0
  9
$DIMUPT
 70
     0
  9
$DIMDEC
 70
     2
  9
$DIMTDEC
 70
     2
  9
$DIMALTU
 70
     2
  9
$DIMALTTD
 70
     3
  9
$DIMTXSTY
  7
STANDARD
  9
$DIMAUNIT
 70
     0
  9
$DIMADEC
 70
     0
  9
$DIMALTRND
 40
0.0
  9
$DIMAZIN
 70
     0
  9
$DIMDSEP
 70
    46
  9
$DIMATFIT
 70
     3
  9
$DIMFRAC
 70
     0
  9
$DIMLDRBLK
  1

  9
$DIMLUNIT
 70
     2
  9
$DIMLWD
 70
    -2
  9
$DIMLWE
 70
    -2
  9
$DIMTMOVE
 70
     0
  9
$LUNITS
 70
     2
  9
$LUPREC
 70
     4
  9
$SKETCHINC
 40
1.0
  9
$FILLETRAD
 40
2.5
  9
$AUNITS
 70
     0
  9
$AUPREC
 70
     0
  9
$MENU
  1
.
  9
$ELEVATION
 40
0.0
  9
$PELEVATION
 40
0.0
  9
$THICKNESS
 40
0.0
  9
$LIMCHECK
 70
     0
  9
$CHAMFERA
 40
2.5
  9
$CHAMFERB
 40
2.5
  9
$CHAMFERC
 40
0.0
  9
$CHAMFERD
 40
0.0
  9
$SKPOLY
 70
     0
  9
$TDCREATE
 40
2312275.082375972
  9
$TDUCREATE
 40
2312274.707375972
  9
$TDUPDATE
 40
2456493.788790243
  9
$TDUUPDATE
 40
2456493.413790243
  9
$TDINDWG
 40
0.1789879745
  9
$TDUSRTIMER
 40
0.1789865278
  9
$USRTIMER
 70
     1
  9
$ANGBASE
 50
0.0
  9
$ANGDIR
 70
     0
  9
$PDMODE
 70
     0
  9
$PDSIZE
 40
0.0
  9
$PLINEWID
 40
0.0
  9
$SPLFRAME
 70
     0
  9
$SPLINETYPE
 70
     6
  9
$SPLINESEGS
 70
     8
  9
$HANDSEED
  5
5BE2
  9
$SURFTAB1
 70
     6
  9
$SURFTAB2
 70
     6
  9
$SURFTYPE
 70
     6
  9
$SURFU
 70
     6
  9
$SURFV
 70
     6
  9
$UCSBASE
  2

  9
$UCSNAME
  2

  9
$UCSORG
 10
0.0
 20
0.0
 30
0.0
  9
$UCSXDIR
 10
1.0
 20
0.0
 30
0.0
  9
$UCSYDIR
 10
0.0
 20
1.0
 30
0.0
  9
$UCSORTHOREF
  2

  9
$UCSORTHOVIEW
 70
     0
  9
$UCSORGTOP
 10
0.0
 20
0.0
 30
0.0
  9
$UCSORGBOTTOM
 10
0.0
 20
0.0
 30
0.0
  9
$UCSORGLEFT
 10
0.0
 20
0.0
 30
0.0
  9
$UCSORGRIGHT
 10
0.0
 20
0.0
 30
0.0
  9
$UCSORGFRONT
 10
0.0
 20
0.0
 30
0.0
  9
$UCSORGBACK
 10
0.0
 20
0.0
 30
0.0
  9
$PUCSBASE
  2

  9
$PUCSNAME
  2

  9
$PUCSORG
 10
0.0
 20
0.0
 30
0.0
  9
$PUCSXDIR
 10
1.0
 20
0.0
 30
0.0
  9
$PUCSYDIR
 10
0.0
 20
1.0
 30
0.0
  9
$PUCSORTHOREF
  2

  9
$PUCSORTHOVIEW
 70
     0
  9
$PUCSORGTOP
 10
0.0
 20
0.0
 30
0.0
  9
$PUCSORGBOTTOM
 10
0.0
 20
0.0
 30
0.0
  9
$PUCSORGLEFT
 10
0.0
 20
0.0
 30
0.0
  9
$PUCSORGRIGHT
 10
0.0
 20
0.0
 30
0.0
  9
$PUCSORGFRONT
 10
0.0
 20
0.0
 30
0.0
  9
$PUCSORGBACK
 10
0.0
 20
0.0
 30
0.0
  9
$USERI1
 70
     0
  9
$USERI2
 70
     0
  9
$USERI3
 70
     0
  9
$USERI4
 70
     0
  9
$USERI5
 70
     0
  9
$USERR1
 40
0.0
  9
$USERR2
 40
0.0
  9
$USERR3
 40
0.0
  9
$USERR4
 40
0.0
  9
$USERR5
 40
0.0
  9
$WORLDVIEW
 70
     1
  9
$SHADEDGE
 70
     3
  9
$SHADEDIF
 70
    70
  9
$TILEMODE
 70
     1
  9
$MAXACTVP
 70
    48
  9
$PINSBASE
 10
0.0
 20
0.0
 30
0.0
  9
$PLIMCHECK
 70
     0
  9
$PEXTMIN
 10
0.0
 20
0.0
 30
0.0
  9
$PEXTMAX
 10
401.4999999999998
 20
275.0
 30
2.0
  9
$PLIMMIN
 10
0.0
 20
0.0
  9
$PLIMMAX
 10
420.0
 20
297.0
  9
$UNITMODE
 70
     0
  9
$VISRETAIN
 70
     0
  9
$PLINEGEN
 70
     0
  9
$PSLTSCALE
 70
     1
  9
$TREEDEPTH
 70
  3020
  9
$CMLSTYLE
  2
STANDARD
  9
$CMLJUST
 70
     0
  9
$CMLSCALE
 40
20.0
  9
$PROXYGRAPHICS
 70
     1
  9
$MEASUREMENT
 70
     1
  9
$CELWEIGHT
370
    -1
  9
$ENDCAPS
280
     0
  9
$JOINSTYLE
280
     0
  9
$LWDISPLAY
290
     0
  9
$INSUNITS
 70
     0
  9
$HYPERLINKBASE
  1

  9
$STYLESHEET
  1

  9
$XEDIT
290
     1
  9
$CEPSNTYPE
380
     0
  9
$PSTYLEMODE
290
     1
  9
$FINGERPRINTGUID
  2
{E57296EC-9BC3-4C47-85D0-48506B00FEEE}
  9
$VERSIONGUID
  2
{D4873BEA-72C9-4C25-BF08-B249664020E0}
  9
$EXTNAMES
290
     1
  9
$PSVPSCALE
 40
0.0
  9
$OLESTARTUP
290
     0
  0
ENDSEC
  0
SECTION
  2
CLASSES
  0
CLASS
  1
LWPOLYLINE
  2
AcDbPolyline
  3
AutoCAD 2000
 90
    32768
280
     0
281
     1
  0
CLASS
  1
IMAGE
  2
AcDbRasterImage
  3
ISM
 90
    32895
280
     0
281
     1
  0
CLASS
  1
OLE2FRAME
  2
AcDbOle2Frame
  3
AutoCAD 2000
 90
    32768
280
     0
281
     1
  0
CLASS
  1
HATCH
  2
AcDbHatch
  3
AutoCAD 2000
 90
    32768
280
     0
281
     1
  0
CLASS
  1
DICTIONARYVAR
  2
AcDbDictionaryVar
  3
AutoCAD 2000
 90
    32768
280
     0
281
     0
  0
CLASS
  1
RASTERVARIABLES
  2
AcDbRasterVariables
  3
ISM
 90
    32768
280
     0
281
     0
  0
CLASS
  1
IMAGEDEF
  2
AcDbRasterImageDef
  3
ISM
 90
    32768
280
     0
281
     0
  0
CLASS
  1
IMAGEDEF_REACTOR
  2
AcDbRasterImageDefReactor
  3
ISM
 90
    32769
280
     0
281
     0
  0
CLASS
  1
IDBUFFER
  2
AcDbIdBuffer
  3
AutoCAD 2000
 90
    32768
280
     0
281
     0
  0
CLASS
  1
SPATIAL_FILTER
  2
AcDbSpatialFilter
  3
AutoCAD 2000
 90
    32768
280
     0
281
     0
  0
CLASS
  1
XRECORD
  2
AcDbXrecord
  3
AutoCAD 2000
 90
    32768
280
     0
281
     0
  0
CLASS
  1
SORTENTSTABLE
  2
AcDbSortentsTable
  3
AutoCAD 2000
 90
    32768
280
     0
281
     0
  0
CLASS
  1
LAYER_INDEX
  2
AcDbLayerIndex
  3
AutoCAD 2000
 90
    32768
280
     0
281
     0
  0
CLASS
  1
SPATIAL_INDEX
  2
AcDbSpatialIndex
  3
AutoCAD 2000
 90
    32768
280
     0
281
     0
  0
CLASS
  1
OBJECT_PTR
  2
CAseDLPNTableRecord
  3
"ASE-LPNTableRecord"
 90
    32769
280
     0
281
     0
  0
CLASS
  1
LAYOUT
  2
AcDbLayout
  3
AutoCAD 2000
 90
        0
280
     0
281
     0
  0
CLASS
  1
PLOTSETTINGS
  2
AcDbPlotSettings
  3
AutoCAD 2000
 90
    32768
280
     0
281
     0
  0
CLASS
  1
ACDBDICTIONARYWDFLT
  2
AcDbDictionaryWithDefault
  3
AutoCAD 2000
 90
        0
280
     0
281
     0
  0
CLASS
  1
ACDBPLACEHOLDER
  2
AcDbPlaceHolder
  3
AutoCAD 2000
 90
        0
280
     0
281
     0
  0
CLASS
  1
VBA_PROJECT
  2
AcDbVbaProject
  3
"acadvba"
 90
    32768
280
     0
281
     0
  0
CLASS
  1
WIPEOUT
  2
AcDbWipeout
  3
WipeOut|AutoCAD Express Tool|expresstools@autodesk.com
 90
    32895
280
     0
281
     1
  0
CLASS
  1
WIPEOUTVARIABLES
  2
AcDbWipeoutVariables
  3
WipeOut|AutoCAD Express Tool|expresstools@autodesk.com
 90
    32768
280
     0
281
     0
  0
CLASS
  1
RTEXT
  2
RText
  3
RText|AutoCAD Express Tool|expresstools@autodesk.com
 90
    32768
280
     0
281
     1
  0
CLASS
  1
ARCALIGNEDTEXT
  2
AcDbArcAlignedText
  3
ATEXT|AutoCAD Express Tool|expresstools@autodesk.com
 90
    32768
280
     0
281
     1
  0
ENDSEC
  0
SECTION
  2
TABLES
  0
TABLE
  2
VPORT
  5
7
330
0
100
AcDbSymbolTable
 70
     5
  0
VPORT
  5
5BE1
330
7
100
AcDbSymbolTableRecord
100
AcDbViewportTableRecord
  2
*Active
 70
     0
 10
0.0
 20
0.0
 11
1.0
 21
1.0
 12
383.5980411514006
 22
262.7271231875032
 13
0.0
 23
0.0
 14
1.0
 24
1.0
 15
0.0
 25
0.0
 16
0.0
 26
0.0
 36
1.0
 17
0.0
 27
0.0
 37
0.0
 40
467.1096642072797
 41
1.781954887218045
 42
50.0
 43
0.0
 44
0.0
 50
0.0
 51
0.0
 71
     0
 72
   100
 73
     1
 74
     1
 75
     0
 76
     0
 77
     0
 78
     0
281
     0
 65
     1
110
0.0
120
0.0
130
0.0
111
1.0
121
0.0
131
0.0
112
0.0
122
1.0
132
0.0
 79
     0
146
0.0
  0
ENDTAB
  0
TABLE
  2
LTYPE
  5
4
330
0
100
AcDbSymbolTable
 70
     2
  0
LTYPE
  5
11
330
4
100
AcDbSymbolTableRecord
100
AcDbLinetypeTableRecord
  2
BYBLOCK
 70
     0
  3

 72
    65
 73
     0
 40
0.0
  0
LTYPE
  5
12
330
4
100
AcDbSymbolTableRecord
100
AcDbLinetypeTableRecord
  2
BYLAYER
 70
     0
  3

 72
    65
 73
     0
 40
0.0
  0
LTYPE
  5
13
330
4
100
AcDbSymbolTableRecord
100
AcDbLinetypeTableRecord
  2
CONTINUOUS
 70
     0
  3
Solid line
 72
    65
 73
     0
 40
0.0
  0
LTYPE
  5
59FC
330
4
100
AcDbSymbolTableRecord
100
AcDbLinetypeTableRecord
  2
DASHED
 70
     0
  3
Dashed __ __ __ __ __ __ __ __ __ __ __ __ __ _
 72
    65
 73
     2
 40
19.04999999999996
 49
12.7
 74
     0
 49
-6.349999999999997
 74
     0
  0
ENDTAB
  0
TABLE
  2
LAYER
  5
2
330
0
100
AcDbSymbolTable
 70
     1
  0
LAYER
  5
14
330
2
100
AcDbSymbolTableRecord
100
AcDbLayerTableRecord
  2
0
 70
     0
 62
     7
  6
CONTINUOUS
370
    -3
390
59EB
  0
ENDTAB
  0
TABLE
  2
STYLE
  5
3
330
0
100
AcDbSymbolTable
 70
     2
  0
STYLE
  5
17
330
3
100
AcDbSymbolTableRecord
100
AcDbTextStyleTableRecord
  2
STANDARD
 70
     0
 40
0.0
 41
1.0
 50
0.0
 71
     0
 42
0.0
  3
txt
  4

  0
STYLE
  5
59FB
330
3
100
AcDbSymbolTableRecord
100
AcDbTextStyleTableRecord
  2

 70
     1
 40
0.0
 41
1.0
 50
0.0
 71
     0
 42
0.2
  3
ltypeshp.shx
  4

  0
ENDTAB
  0
TABLE
  2
VIEW
  5
5
330
0
100
AcDbSymbolTable
 70
     0
  0
ENDTAB
  0
TABLE
  2
UCS
  5
6
330
0
100
AcDbSymbolTable
 70
     0
  0
ENDTAB
  0
TABLE
  2
APPID
  5
8
330
0
100
AcDbSymbolTable
 70
     1
  0
APPID
  5
16
330
8
100
AcDbSymbolTableRecord
100
AcDbRegAppTableRecord
  2
ACAD
 70
     0
  0
ENDTAB
  0
TABLE
  2
DIMSTYLE
  5
9
330
0
100
AcDbSymbolTable
 70
     1
100
AcDbDimStyleTable
 71
     1
340
18
  0
DIMSTYLE
105
18
330
9
100
AcDbSymbolTableRecord
100
AcDbDimStyleTableRecord
  2
STANDARD
 70
     0
340
17
  0
ENDTAB
  0
TABLE
  2
BLOCK_RECORD
  5
1
330
0
100
AcDbSymbolTable
 70
     0
  0
BLOCK_RECORD
  5
A
330
1
100
AcDbSymbolTableRecord
100
AcDbBlockTableRecord
  2
*MODEL_SPACE
340
59EE
  0
BLOCK_RECORD
  5
B
330
1
100
AcDbSymbolTableRecord
100
AcDbBlockTableRecord
  2
*PAPER_SPACE
340
59EF
  0
ENDTAB
  0
ENDSEC
  0
SECTION
  2
BLOCKS
  0
BLOCK
  5
D
330
A
100
AcDbEntity
  8
0
100
AcDbBlockBegin
  2
*MODEL_SPACE
 70
     0
 10
0.0
 20
0.0
 30
0.0
  3
*MODEL_SPACE
  1

  0
ENDBLK
  5
E
330
A
100
AcDbEntity
  8
0
100
AcDbBlockEnd
  0
BLOCK
  5
F
330
B
100
AcDbEntity
 67
     1
  8
0
100
AcDbBlockBegin
  2
*PAPER_SPACE
 70
     0
 10
0.0
 20
0.0
 30
0.0
  3
*PAPER_SPACE
  1

  0
ENDBLK
  5
10
330
B
100
AcDbEntity
 67
     1
  8
0
100
AcDbBlockEnd
  0
ENDSEC
  0
SECTION
  2
ENTITIES
  0
LINE
  5
26AA
330
A
100
AcDbEntity
  8
0
 62
     7
100
AcDbLine
 10
60.45938107638223
 20
405.4107439277141
 30
0.0
 11
338.4594409236173
 21
405.4107439277141
 31
0.0
  0
LINE
  5
26AB
330
A
100
AcDbEntity
  8
0
 62
     7
100
AcDbLine
 10
343.4594420000063
 20
122.4106830040897
 30
0.0
 11
343.4594420000063
 21
400.410742851325
 31
0.0
  0
ARC
  5
26AC
330
A
100
AcDbEntity
  8
0
 62
     7
100
AcDbCircle
 10
60.45938107638223
 20
400.410742851325
 30
0.0
 40
5.000001076389123
100
AcDbArc
 50
90.00000300000001
 51
180.000005
  0
ELLIPSE
  5
26B2
330
A
100
AcDbEntity
  8
0
 62
     7
100
AcDbEllipse
 10
279.1534901563641
 20
244.5665633015363
 30
0.0
 11
50.39850938483539
 21
-50.3983567969119
 31
0.0
210
0.0
220
0.0
230
1.0
 40
0.174027
 41
6.110885143280026
 42
6.455485343933105
  0
ARC
  5
26B4
330
A
100
AcDbEntity
  8
0
 62
     7
100
AcDbCircle
 10
322.3019974452788
 20
201.4181460126409
 30
0.0
 40
3.007442647435569
100
AcDbArc
 50
269.9999969999999
 51
0.0
  0
LINE
  5
26B6
330
A
100
AcDbEntity
  8
0
 62
     7
100
AcDbLine
 10
74.31683805958477
 20
193.4106982888151
 30
0.0
 11
327.3019985216679
 21
193.4106982888151
 31
0.0
  0
LINE
  5
26B7
330
A
100
AcDbEntity
  8
0
 62
     7
100
AcDbLine
 10
79.31683913597389
 20
198.4106993652044
 30
0.0
 11
322.3019974452788
 21
198.4106993652044
 31
0.0
  0
ELLIPSE
  5
26B8
330
A
100
AcDbEntity
  8
0
 62
     7
100
AcDbEllipse
 10
122.4652244248624
 20
244.5666533015556
 30
0.0
 11
-50.39837205570425
 21
-50.39847886725065
 31
0.0
210
0.0
220
0.0
230
1.0
 40
0.174027
 41
6.110885143280026
 42
6.455485343933105
  0
ARC
  5
26BA
330
A
100
AcDbEntity
  8
0
 62
     7
100
AcDbCircle
 10
79.31683913597389
 20
201.4181460126409
 30
0.0
 40
3.007442647435569
100
AcDbArc
 50
180.000005
 51
270.000001
  0
LINE
  5
26BB
330
A
100
AcDbEntity
  8
0
 62
     7
100
AcDbLine
 10
76.30939048853704
 20
201.4181460126409
 30
0.0
 11
76.30939048853704
 21
382.9032930823601
 31
0.0
  0
LINE
  5
26BD
330
A
100
AcDbEntity
  8
0
 62
     7
100
AcDbLine
 10
71.30938941214792
 20
387.9032941587491
 30
0.0
 11
71.30938941214792
 21
196.4181449362518
 31
0.0
  0
ELLIPSE
  5
26BE
330
A
100
AcDbEntity
  8
0
 62
     7
100
AcDbEllipse
 10
122.4650104248163
 20
339.755211793537
 30
0.0
 11
50.39817369140376
 21
-50.39802110348027
 31
0.0
210
0.0
220
0.0
230
1.0
 40
0.1740269999999999
 41
2.969291687011718
 42
3.313893318176268
  0
ARC
  5
26C0
330
A
100
AcDbEntity
  8
0
 62
     7
100
AcDbCircle
 10
79.31683913597389
 20
382.9032930823601
 30
0.0
 40
3.007442647435569
100
AcDbArc
 50
90.00000300000001
 51
180.000005
  0
LINE
  5
26C2
330
A
100
AcDbEntity
  8
0
 62
     7
100
AcDbLine
 10
74.31683805958477
 20
390.9107408061856
 30
0.0
 11
327.3019985216679
 21
390.9107408061856
 31
0.0
  0
LINE
  5
26C3
330
A
100
AcDbEntity
  8
0
 62
     7
100
AcDbLine
 10
322.3019974452788
 20
385.9107397297963
 30
0.0
 11
79.31683913597389
 21
385.9107397297963
 31
0.0
  0
ARC
  5
26C4
330
A
100
AcDbEntity
  8
0
 62
     7
100
AcDbCircle
 10
328.3094447385487
 20
175.7106824783953
 30
0.0
 40
2.000000430555648
100
AcDbArc
 50
0.0
 51
90.00000300000001
  0
LINE
  5
26C5
330
A
100
AcDbEntity
  8
0
 62
     7
100
AcDbLine
 10
330.3094451691045
 20
175.7106824783953
 30
0.0
 11
330.3094451691045
 21
123.1296931588764
 31
0.0
  0
LINE
  5
26CB
330
A
100
AcDbEntity
  8
0
 62
     7
100
AcDbLine
 10
71.30938941214792
 20
175.7106824783953
 30
0.0
 11
71.30938941214792
 21
123.1296931588764
 31
0.0
  0
ARC
  5
26CC
330
A
100
AcDbEntity
  8
0
 62
     7
100
AcDbCircle
 10
73.30938984270358
 20
175.7106824783953
 30
0.0
 40
2.000000430555648
100
AcDbArc
 50
90.00000300000001
 51
180.000005
  0
LINE
  5
26CD
330
A
100
AcDbEntity
  8
0
 62
     7
100
AcDbLine
 10
328.3094447385487
 20
177.7106829089509
 30
0.0
 11
73.30938984270358
 21
177.7106829089509
 31
0.0
  0
ARC
  5
26CE
330
A
100
AcDbEntity
  8
0
 62
     7
100
AcDbCircle
 10
329.1094329107683
 20
180.6107075332614
 30
0.0
 40
1.200000258333389
100
AcDbArc
 50
270.000001
 51
0.00001
  0
LINE
  5
26CF
330
A
100
AcDbEntity
  8
0
 62
     7
100
AcDbLine
 10
329.1094329107683
 20
179.4106952749258
 30
0.0
 11
72.50938767048087
 21
179.4106952749258
 31
0.0
  0
ARC
  5
26D0
330
A
100
AcDbEntity
  8
0
 62
     7
100
AcDbCircle
 10
72.50938767048087
 20
180.6107075332614
 30
0.0
 40
1.200000258333389
100
AcDbArc
 50
180.000005
 51
270.000001
  0
LINE
  5
26D1
330
A
100
AcDbEntity
  8
0
 62
     7
 48
0.1075
100
AcDbLine
 10
71.30938941214792
 20
189.2106853846459
 30
0.0
 11
71.30938941214792
 21
180.6107075332614
 31
0.0
  0
ARC
  5
26D2
330
A
100
AcDbEntity
  8
0
 62
     7
100
AcDbCircle
 10
72.50938767048087
 20
189.2106853846459
 30
0.0
 40
1.200000258333389
100
AcDbArc
 50
90.00000300000001
 51
180.000005
  0
LINE
  5
26D3
330
A
100
AcDbEntity
  8
0
 62
     7
100
AcDbLine
 10
72.50938767048087
 20
190.4106976429819
 30
0.0
 11
329.1094329107683
 21
190.4106976429819
 31
0.0
  0
ARC
  5
26D4
330
A
100
AcDbEntity
  8
0
 62
     7
100
AcDbCircle
 10
329.1094329107683
 20
189.2106853846459
 30
0.0
 40
1.200000258333389
100
AcDbArc
 50
0.0
 51
90.00000300000001
  0
LINE
  5
26D5
330
A
100
AcDbEntity
  8
0
 62
     7
 48
0.1075
100
AcDbLine
 10
330.3094451691045
 20
180.6107075332614
 30
0.0
 11
330.3094451691045
 21
189.2106853846459
 31
0.0
  0
ELLIPSE
  5
26D6
330
A
100
AcDbEntity
  8
0
 62
     7
100
AcDbEllipse
 10
279.153582156384
 20
339.7547857934453
 30
0.0
 11
-50.39837205570425
 21
-50.39847886725065
 31
0.0
210
0.0
220
0.0
230
1.0
 40
0.174027
 41
2.969292163848876
 42
3.31389260292053
  0
LINE
  5
26D7
330
A
100
AcDbEntity
  8
0
 62
     7
100
AcDbLine
 10
330.3094451691045
 20
387.9032941587491
 30
0.0
 11
330.3094451691045
 21
196.4181449362518
 31
0.0
  0
LINE
  5
26DB
330
A
100
AcDbEntity
  8
0
 62
     7
 48
0.0523
100
AcDbLine
 10
72.10938558436932
 20
118.9456702581495
 30
0.0
 11
72.10938558436932
 21
123.1296931588764
 31
0.0
  0
LINE
  5
26DC
330
A
100
AcDbEntity
  8
0
 62
     7
 48
0.0004
100
AcDbLine
 10
72.10938558436932
 20
118.913642251254
 30
0.0
 11
72.10938558436932
 21
118.9456702581495
 31
0.0
  0
LINE
  5
26E3
330
A
100
AcDbEntity
  8
0
 62
     7
100
AcDbLine
 10
55.4593799999931
 20
400.410742851325
 30
0.0
 11
55.4593799999931
 21
122.4106830040897
 31
0.0
  0
LINE
  5
26E4
330
A
100
AcDbEntity
  8
0
 62
     7
100
AcDbLine
 10
343.4594420000063
 20
400.410742851325
 30
0.0
 11
343.4594420000063
 21
122.4106830040897
 31
0.0
  0
LINE
  5
26E5
330
A
100
AcDbEntity
  8
0
 62
     7
 48
0.000237
100
AcDbLine
 10
60.45938107638223
 20
117.4106819277006
 30
0.0
 11
60.4403850722928
 21
117.410711927707
 31
0.0
  0
ARC
  5
26E6
330
A
100
AcDbEntity
  8
0
 62
     7
100
AcDbCircle
 10
60.45938107638223
 20
122.4106830040897
 30
0.0
 40
5.000001076389123
100
AcDbArc
 50
180.217618
 51
269.7823879999999
  0
LINE
  5
26E7
330
A
100
AcDbEntity
  8
0
 62
     7
 48
0.000237
100
AcDbLine
 10
55.4593799999931
 20
122.4106830040897
 30
0.0
 11
55.459412
 21
122.391685
 31
0.0
  0
LINE
  5
26EA
330
A
100
AcDbEntity
  8
0
 62
     7
 48
0.000237
100
AcDbLine
 10
55.4593799999931
 20
400.410742851325
 30
0.0
 11
55.459412
 21
400.4297248554115
 31
0.0
  0
ARC
  5
26F2
330
A
100
AcDbEntity
  8
0
 62
     7
100
AcDbCircle
 10
60.45938107638223
 20
400.410742851325
 30
0.0
 40
5.000001076389123
100
AcDbArc
 50
90.217612
 51
179.782382
  0
LINE
  5
26F3
330
A
100
AcDbEntity
  8
0
 62
     7
 48
0.000237
100
AcDbLine
 10
60.45938107638223
 20
405.4107439277141
 30
0.0
 11
60.4403850722928
 21
405.4107439277141
 31
0.0
  0
LINE
  5
26F4
330
A
100
AcDbEntity
  8
0
 62
     7
100
AcDbLine
 10
338.4594409236173
 20
405.4107439277141
 30
0.0
 11
60.45938107638223
 21
405.4107439277141
 31
0.0
  0
LINE
  5
26F5
330
A
100
AcDbEntity
  8
0
 62
     7
 48
0.000238
100
AcDbLine
 10
338.4594409236173
 20
405.4107439277141
 30
0.0
 11
338.4784549277105
 21
405.4107439277141
 31
0.0
  0
ARC
  5
26F6
330
A
100
AcDbEntity
  8
0
 62
     7
100
AcDbCircle
 10
338.4594409236173
 20
400.410742851325
 30
0.0
 40
5.000001076389123
100
AcDbArc
 50
0.2176139999999999
 51
89.782386
  0
LINE
  5
26F7
330
A
100
AcDbEntity
  8
0
 62
     7
 48
0.000237
100
AcDbLine
 10
343.4594420000063
 20
400.410742851325
 30
0.0
 11
343.4594119999998
 21
400.4297248554115
 31
0.0
  0
LINE
  5
2702
330
A
100
AcDbEntity
  8
0
 62
     7
 48
0.000237
100
AcDbLine
 10
343.4594420000063
 20
122.4106830040897
 30
0.0
 11
343.4594119999998
 21
122.391685
 31
0.0
  0
ARC
  5
2705
330
A
100
AcDbEntity
  8
0
 62
     7
100
AcDbCircle
 10
338.4594409236173
 20
122.4106830040897
 30
0.0
 40
5.000001076389123
100
AcDbArc
 50
270.217614
 51
359.7823859999998
  0
LINE
  5
2706
330
A
100
AcDbEntity
  8
0
 62
     7
 48
0.000238
100
AcDbLine
 10
338.4594409236173
 20
117.4106819277006
 30
0.0
 11
338.4784549277105
 21
117.410711927707
 31
0.0
  0
LINE
  5
270C
330
A
100
AcDbEntity
  8
0
 62
     7
 48
0.0523
100
AcDbLine
 10
329.5094589968852
 20
123.1296931588764
 30
0.0
 11
329.5094589968852
 21
118.9456702581495
 31
0.0
  0
LINE
  5
270D
330
A
100
AcDbEntity
  8
0
 62
     7
 48
0.0004
100
AcDbLine
 10
329.5094589968852
 20
118.913642251254
 30
0.0
 11
329.5094589968852
 21
118.9456702581495
 31
0.0
  0
LINE
  5
2718
330
A
100
AcDbEntity
  8
0
 62
     7
 48
0.0025
100
AcDbLine
 10
72.10938558436932
 20
123.1296931588764
 30
0.0
 11
71.30938941214792
 21
123.1296931588764
 31
0.0
  0
LINE
  5
271A
330
A
100
AcDbEntity
  8
0
 62
     7
 48
0.01
100
AcDbLine
 10
71.30938941214792
 20
118.913642251254
 30
0.0
 11
72.10938558436932
 21
118.913642251254
 31
0.0
  0
LINE
  5
271B
330
A
100
AcDbEntity
  8
0
 62
     7
 48
0.005
100
AcDbLine
 10
72.10937758436762
 20
120.0856545035626
 30
0.0
 11
72.50937967047915
 21
120.0856545035626
 31
0.0
  0
LINE
  5
2736
330
A
100
AcDbEntity
  8
0
 62
     7
 48
0.062262
100
AcDbLine
 10
71.30938941214792
 20
117.4106819277006
 30
0.0
 11
71.30938941214792
 21
123.1296931588764
 31
0.0
  0
LINE
  5
2737
330
A
100
AcDbEntity
  8
0
 62
     7
 48
0.0025
100
AcDbLine
 10
330.3094451691045
 20
123.1296931588764
 30
0.0
 11
329.5094589968852
 21
123.1296931588764
 31
0.0
  0
LINE
  5
2739
330
A
100
AcDbEntity
  8
0
 62
     7
 48
0.01
100
AcDbLine
 10
329.5094589968852
 20
118.913642251254
 30
0.0
 11
330.3094451691045
 21
118.913642251254
 31
0.0
  0
LINE
  5
273A
330
A
100
AcDbEntity
  8
0
 62
     7
 48
0.005
100
AcDbLine
 10
329.1094329107683
 20
120.0856545035626
 30
0.0
 11
329.5094269968781
 21
120.0856545035626
 31
0.0
  0
LINE
  5
273E
330
A
100
AcDbEntity
  8
0
 62
     7
 48
0.062262
100
AcDbLine
 10
330.3094451691045
 20
123.1296931588764
 30
0.0
 11
330.3094451691045
 21
117.4106819277006
 31
0.0
  0
ARC
  5
2740
330
A
100
AcDbEntity
  8
0
 62
     7
100
AcDbCircle
 10
322.3019974452788
 20
382.9032930823601
 30
0.0
 40
3.007442647435569
100
AcDbArc
 50
0.0
 51
90.00000300000001
  0
LINE
  5
2741
330
A
100
AcDbEntity
  8
0
 62
     7
100
AcDbLine
 10
325.3094440927152
 20
382.9032930823601
 30
0.0
 11
325.3094440927152
 21
201.4181460126409
 31
0.0
  0
ARC
  5
2744
330
A
100
AcDbEntity
  8
0
 62
     7
100
AcDbCircle
 10
328.3094447385487
 20
175.7106824783953
 30
0.0
 40
1.800000387500084
100
AcDbArc
 50
0.0
 51
90.00000300000001
  0
LINE
  5
2745
330
A
100
AcDbEntity
  8
0
 62
     7
100
AcDbLine
 10
328.3094447385487
 20
177.5107008658991
 30
0.0
 11
215.459414444445
 21
177.5107008658991
 31
0.0
  0
LINE
  5
2746
330
A
100
AcDbEntity
  8
0
 62
     7
 48
0.025441
100
AcDbLine
 10
215.459414444445
 20
177.5107008658991
 30
0.0
 11
215.459414444445
 21
175.4753924277425
 31
0.0
  0
LWPOLYLINE
  5
2747
330
A
100
AcDbEntity
  8
0
 62
     7
100
AcDbPolyline
 90
        6
 70
     0
 43
0.0
 10
214.3849522131366
 20
174.5107002200656
 10
214.7931543010138
 20
174.5811962352418
 10
215.1035183678286
 20
174.7539562724332
 10
215.3361244179033
 20
175.0217783300894
 10
215.4515424427504
 20
175.3568304022188
 10
215.459414444445
 20
175.4753924277425
  0
LINE
  5
274F
330
A
100
AcDbEntity
  8
0
 62
     7
 48
0.373138
100
AcDbLine
 10
214.3849522131366
 20
174.5107002200658
 30
0.0
 11
184.5338717868626
 21
174.5107002200658
 31
0.0
  0
LWPOLYLINE
  5
2750
330
A
100
AcDbEntity
  8
0
 62
     7
100
AcDbPolyline
 90
        6
 70
     0
 43
0.0
 10
184.5338717868626
 20
174.5107002200656
 10
184.1256536989825
 20
174.5811962352418
 10
183.8153196321746
 20
174.7539562724332
 10
183.5827135820996
 20
175.0217783300894
 10
183.4672815572496
 20
175.3568304022188
 10
183.4594075555543
 20
175.4753924277425
  0
LINE
  5
2758
330
A
100
AcDbEntity
  8
0
 62
     7
 48
0.025441
100
AcDbLine
 10
183.4594075555543
 20
177.5107008658991
 30
0.0
 11
183.4594075555543
 21
175.4753924277425
 31
0.0
  0
LINE
  5
2759
330
A
100
AcDbEntity
  8
0
 62
     7
100
AcDbLine
 10
183.4594075555543
 20
177.5107008658991
 30
0.0
 11
73.30938984270358
 21
177.5107008658991
 31
0.0
  0
ARC
  5
275A
330
A
100
AcDbEntity
  8
0
 62
     7
100
AcDbCircle
 10
73.30938984270358
 20
175.7106824783953
 30
0.0
 40
1.800000387500084
100
AcDbArc
 50
90.00000300000001
 51
180.000005
  0
LINE
  5
275B
330
A
100
AcDbEntity
  8
0
 62
     7
100
AcDbLine
 10
71.50938745520304
 20
175.7106824783953
 30
0.0
 11
71.50938745520304
 21
123.5296872449865
 31
0.0
  0
LINE
  5
275C
330
A
100
AcDbEntity
  8
0
 62
     7
 48
0.0125
100
AcDbLine
 10
71.50938745520304
 20
123.5296872449865
 30
0.0
 11
72.50938767048087
 21
123.5296872449865
 31
0.0
  0
LINE
  5
2760
330
A
100
AcDbEntity
  8
0
 62
     7
 48
0.0125
100
AcDbLine
 10
330.1094331260462
 20
123.5296872449865
 30
0.0
 11
329.1094329107683
 21
123.5296872449865
 31
0.0
  0
LINE
  5
2761
330
A
100
AcDbEntity
  8
0
 62
     7
100
AcDbLine
 10
330.1094331260462
 20
175.7106824783953
 30
0.0
 11
330.1094331260462
 21
123.5296872449865
 31
0.0
  0
LINE
  5
2763
330
A
100
AcDbEntity
  8
0
 62
     7
 48
0.0625
100
AcDbLine
 10
329.1094329107683
 20
118.1296920824874
 30
0.0
 11
329.1094329107683
 21
123.5296872449865
 31
0.0
  0
LINE
  5
2764
330
A
100
AcDbEntity
  8
0
 62
     7
 48
0.00005
100
AcDbLine
 10
326.6094323725738
 20
118.1296920824874
 30
0.0
 11
326.6094323725738
 21
118.1336900833481
 31
0.0
  0
LINE
  5
2765
330
A
100
AcDbEntity
  8
0
 62
     7
 48
0.0625
100
AcDbLine
 10
72.50938767048087
 20
118.1296920824874
 30
0.0
 11
72.50938767048087
 21
123.5296872449865
 31
0.0
  0
LINE
  5
2766
330
A
100
AcDbEntity
  8
0
 62
     7
 48
0.00005
100
AcDbLine
 10
75.00938820867545
 20
118.1336900833481
 30
0.0
 11
75.00938820867545
 21
118.1296920824874
 31
0.0
  0
LINE
  5
2767
330
A
100
AcDbEntity
  8
0
 62
     7
 48
0.019958
100
AcDbLine
 10
75.00938820867545
 20
119.7303384270712
 30
0.0
 11
75.00938820867545
 21
118.1336900833481
 31
0.0
  0
LINE
  5
2768
330
A
100
AcDbEntity
  8
0
 62
     7
100
AcDbLine
 10
75.00938820867545
 20
119.7303384270712
 30
0.0
 11
326.6094323725738
 21
119.7303384270712
 31
0.0
  0
LINE
  5
2769
330
A
100
AcDbEntity
  8
0
 62
     7
 48
0.019958
100
AcDbLine
 10
326.6094323725738
 20
118.1336900833481
 30
0.0
 11
326.6094323725738
 21
119.7303384270712
 31
0.0
  0
LINE
  5
276C
330
A
100
AcDbEntity
  8
0
 62
     7
 48
0.04001
100
AcDbLine
 10
215.459414444445
 20
177.5107008658991
 30
0.0
 11
212.2586097553829
 21
177.5107008658991
 31
0.0
  0
LINE
  5
276D
330
A
100
AcDbEntity
  8
0
 62
     7
 48
0.04001
100
AcDbLine
 10
186.660214244617
 20
177.5107008658991
 30
0.0
 11
183.4594075555543
 21
177.5107008658991
 31
0.0
  0
ELLIPSE
  5
276F
330
A
100
AcDbEntity
  8
0
 62
     7
100
AcDbEllipse
 10
189.3135048158115
 20
174.9557683158789
 30
0.0
 11
2.000000430555648
 21
0.0
 31
0.0
210
0.0
220
0.0
230
1.0
 40
0.087489
 41
1.570794224739073
 42
2.677943468093872
  0
LINE
  5
2770
330
A
100
AcDbEntity
  8
0
 62
     7
 48
0.253648
100
AcDbLine
 10
189.3135048158115
 20
175.1307263535435
 30
0.0
 11
209.6053191841884
 21
175.1307263535435
 31
0.0
  0
ELLIPSE
  5
2771
330
A
100
AcDbEntity
  8
0
 62
     7
100
AcDbEllipse
 10
209.6053191841884
 20
174.9557683158789
 30
0.0
 11
2.000000430555648
 21
0.0
 31
0.0
210
0.0
220
0.0
230
1.0
 40
0.087489
 41
0.4636473059654236
 42
1.570794343948364
  0
LINE
  5
2773
330
A
100
AcDbEntity
  8
0
 62
     7
 48
0.00559
100
AcDbLine
 10
212.6594258416697
 20
177.5107008658991
 30
0.0
 11
212.8594078847211
 21
177.1107067797892
 31
0.0
  0
LINE
  5
2774
330
A
100
AcDbEntity
  8
0
 62
     7
 48
0.00559
100
AcDbLine
 10
213.0594199277795
 20
177.5107008658991
 30
0.0
 11
212.8594078847211
 21
177.1107067797892
 31
0.0
  0
LINE
  5
2775
330
A
100
AcDbEntity
  8
0
 62
     7
 48
0.00559
100
AcDbLine
 10
213.0594199277795
 20
177.5107008658991
 30
0.0
 11
213.2594019708309
 21
177.1107067797892
 31
0.0
  0
LINE
  5
2776
330
A
100
AcDbEntity
  8
0
 62
     7
 48
0.00559
100
AcDbLine
 10
213.4594140138893
 20
177.5107008658991
 30
0.0
 11
213.2594019708309
 21
177.1107067797892
 31
0.0
  0
LINE
  5
2777
330
A
100
AcDbEntity
  8
0
 62
     7
 48
0.00559
100
AcDbLine
 10
213.4594140138893
 20
177.5107008658991
 30
0.0
 11
213.6594260569475
 21
177.1107067797892
 31
0.0
  0
LINE
  5
2778
330
A
100
AcDbEntity
  8
0
 62
     7
 48
0.00559
100
AcDbLine
 10
213.8594080999991
 20
177.5107008658991
 30
0.0
 11
213.6594260569475
 21
177.1107067797892
 31
0.0
  0
LINE
  5
2779
330
A
100
AcDbEntity
  8
0
 62
     7
 48
0.00559
100
AcDbLine
 10
213.8594080999991
 20
177.5107008658991
 30
0.0
 11
214.0594201430574
 21
177.1107067797892
 31
0.0
  0
LINE
  5
277A
330
A
100
AcDbEntity
  8
0
 62
     7
 48
0.00559
100
AcDbLine
 10
214.259402186109
 20
177.5107008658991
 30
0.0
 11
214.0594201430574
 21
177.1107067797892
 31
0.0
  0
LINE
  5
277B
330
A
100
AcDbEntity
  8
0
 62
     7
 48
0.00559
100
AcDbLine
 10
214.259402186109
 20
177.5107008658991
 30
0.0
 11
214.4594142291669
 21
177.1107067797892
 31
0.0
  0
LINE
  5
277C
330
A
100
AcDbEntity
  8
0
 62
     7
 48
0.00559
100
AcDbLine
 10
214.6594262722254
 20
177.5107008658991
 30
0.0
 11
214.4594142291669
 21
177.1107067797892
 31
0.0
  0
LINE
  5
277D
330
A
100
AcDbEntity
  8
0
 62
     7
 48
0.00559
100
AcDbLine
 10
214.6594262722254
 20
177.5107008658991
 30
0.0
 11
214.8594083152767
 21
177.1107067797892
 31
0.0
  0
LINE
  5
277E
330
A
100
AcDbEntity
  8
0
 62
     7
 48
0.00559
100
AcDbLine
 10
215.0594203583351
 20
177.5107008658991
 30
0.0
 11
214.8594083152767
 21
177.1107067797892
 31
0.0
  0
LINE
  5
277F
330
A
100
AcDbEntity
  8
0
 62
     7
 48
0.00559
100
AcDbLine
 10
215.0594203583351
 20
177.5107008658991
 30
0.0
 11
215.2594024013867
 21
177.1107067797892
 31
0.0
  0
LINE
  5
2780
330
A
100
AcDbEntity
  8
0
 62
     7
 48
0.00559
100
AcDbLine
 10
215.459414444445
 20
177.5107008658991
 30
0.0
 11
215.2594024013867
 21
177.1107067797892
 31
0.0
  0
LINE
  5
2782
330
A
100
AcDbEntity
  8
0
 62
     7
 48
0.017776
100
AcDbLine
 10
212.2886077618401
 20
177.4523208533312
 30
0.0
 11
212.2886077618401
 21
176.0302025471808
 31
0.0
  0
LINE
  5
2783
330
A
100
AcDbEntity
  8
0
 62
     7
 48
0.004774
100
AcDbLine
 10
212.4594137986114
 20
177.1107067797892
 30
0.0
 11
212.2886077618401
 21
177.4523208533312
 31
0.0
  0
LINE
  5
2784
330
A
100
AcDbEntity
  8
0
 62
     7
 48
0.00559
100
AcDbLine
 10
212.6594258416697
 20
177.5107008658991
 30
0.0
 11
212.4594137986114
 21
177.1107067797892
 31
0.0
  0
LINE
  5
2786
330
A
100
AcDbEntity
  8
0
 62
     7
 48
0.34
100
AcDbLine
 10
213.0594199277795
 20
177.5107008658991
 30
0.0
 11
185.8594020722199
 21
177.5107008658991
 31
0.0
  0
LINE
  5
2787
330
A
100
AcDbEntity
  8
0
 62
     7
 48
0.00559
100
AcDbLine
 10
185.8594020722199
 20
177.5107008658991
 30
0.0
 11
186.0594141152781
 21
177.1107067797892
 31
0.0
  0
LINE
  5
2788
330
A
100
AcDbEntity
  8
0
 62
     7
 48
0.35
100
AcDbLine
 10
213.4594140138893
 20
177.5107008658991
 30
0.0
 11
185.4594079861101
 21
177.5107008658991
 31
0.0
  0
LINE
  5
2789
330
A
100
AcDbEntity
  8
0
 62
     7
 48
0.00559
100
AcDbLine
 10
185.4594079861101
 20
177.5107008658991
 30
0.0
 11
185.6594060291651
 21
177.1107067797892
 31
0.0
  0
LINE
  5
278A
330
A
100
AcDbEntity
  8
0
 62
     7
 48
0.36
100
AcDbLine
 10
213.8594080999991
 20
177.5107008658991
 30
0.0
 11
185.0594139000005
 21
177.5107008658991
 31
0.0
  0
LINE
  5
278B
330
A
100
AcDbEntity
  8
0
 62
     7
 48
0.00559
100
AcDbLine
 10
185.0594139000005
 20
177.5107008658991
 30
0.0
 11
185.2594119430554
 21
177.1107067797892
 31
0.0
  0
LINE
  5
278C
330
A
100
AcDbEntity
  8
0
 62
     7
 48
0.37
100
AcDbLine
 10
214.259402186109
 20
177.5107008658991
 30
0.0
 11
184.6594058138876
 21
177.5107008658991
 31
0.0
  0
LINE
  5
278D
330
A
100
AcDbEntity
  8
0
 62
     7
 48
0.00559
100
AcDbLine
 10
184.6594058138876
 20
177.5107008658991
 30
0.0
 11
184.8594018569423
 21
177.1107067797892
 31
0.0
  0
LINE
  5
278E
330
A
100
AcDbEntity
  8
0
 62
     7
 48
0.38
100
AcDbLine
 10
214.6594262722254
 20
177.5107008658991
 30
0.0
 11
184.2594117277776
 21
177.5107008658991
 31
0.0
  0
LINE
  5
278F
330
A
100
AcDbEntity
  8
0
 62
     7
 48
0.00559
100
AcDbLine
 10
184.2594117277776
 20
177.5107008658991
 30
0.0
 11
184.4594077708324
 21
177.1107067797892
 31
0.0
  0
LINE
  5
2791
330
A
100
AcDbEntity
  8
0
 62
     7
 48
0.00559
100
AcDbLine
 10
183.8594016416641
 20
177.5107008658991
 30
0.0
 11
184.0594136847225
 21
177.1107067797892
 31
0.0
  0
LINE
  5
2792
330
A
100
AcDbEntity
  8
0
 62
     7
 48
0.00082
100
AcDbLine
 10
212.2586097553829
 20
177.5107008658991
 30
0.0
 11
212.2886077618401
 21
177.4523208533312
 31
0.0
  0
LINE
  5
2795
330
A
100
AcDbEntity
  8
0
 62
     7
 48
0.033166
100
AcDbLine
 10
209.6053191841884
 20
177.5107008658991
 30
0.0
 11
212.2586097553829
 21
177.5107008658991
 31
0.0
  0
LINE
  5
2796
330
A
100
AcDbEntity
  8
0
 62
     7
 48
0.004774
100
AcDbLine
 10
186.4594082013881
 20
177.1107067797892
 30
0.0
 11
186.6302302381621
 21
177.4523208533312
 31
0.0
  0
LINE
  5
2797
330
A
100
AcDbEntity
  8
0
 62
     7
 48
0.00082
100
AcDbLine
 10
186.660214244617
 20
177.5107008658991
 30
0.0
 11
186.6302302381621
 21
177.4523208533312
 31
0.0
  0
LINE
  5
2799
330
A
100
AcDbEntity
  8
0
 62
     7
 48
0.00559
100
AcDbLine
 10
186.2594121583333
 20
177.5107008658991
 30
0.0
 11
186.4594082013881
 21
177.1107067797892
 31
0.0
  0
LINE
  5
279D
330
A
100
AcDbEntity
  8
0
 62
     7
 48
0.033166
100
AcDbLine
 10
186.660214244617
 20
177.5107008658991
 30
0.0
 11
189.3135048158115
 21
177.5107008658991
 31
0.0
  0
LINE
  5
279F
330
A
100
AcDbEntity
  8
0
 62
     7
 48
0.017776
100
AcDbLine
 10
186.6302302381621
 20
177.4523208533312
 30
0.0
 11
186.6302302381621
 21
176.0302025471808
 31
0.0
  0
LINE
  5
27A0
330
A
100
AcDbEntity
  8
0
 62
     7
 48
0.00559
100
AcDbLine
 10
183.8594016416641
 20
177.5107008658991
 30
0.0
 11
183.6594055986095
 21
177.1107067797892
 31
0.0
  0
LINE
  5
27A1
330
A
100
AcDbEntity
  8
0
 62
     7
 48
0.00559
100
AcDbLine
 10
184.2594117277776
 20
177.5107008658991
 30
0.0
 11
184.0594136847225
 21
177.1107067797892
 31
0.0
  0
LINE
  5
27A2
330
A
100
AcDbEntity
  8
0
 62
     7
 48
0.00559
100
AcDbLine
 10
184.6594058138876
 20
177.5107008658991
 30
0.0
 11
184.4594077708324
 21
177.1107067797892
 31
0.0
  0
LINE
  5
27A3
330
A
100
AcDbEntity
  8
0
 62
     7
 48
0.00559
100
AcDbLine
 10
185.0594139000005
 20
177.5107008658991
 30
0.0
 11
184.8594018569423
 21
177.1107067797892
 31
0.0
  0
LINE
  5
27A4
330
A
100
AcDbEntity
  8
0
 62
     7
 48
0.00559
100
AcDbLine
 10
185.4594079861101
 20
177.5107008658991
 30
0.0
 11
185.2594119430554
 21
177.1107067797892
 31
0.0
  0
LINE
  5
27A5
330
A
100
AcDbEntity
  8
0
 62
     7
 48
0.00559
100
AcDbLine
 10
185.8594020722199
 20
177.5107008658991
 30
0.0
 11
185.6594060291651
 21
177.1107067797892
 31
0.0
  0
LINE
  5
27A6
330
A
100
AcDbEntity
  8
0
 62
     7
 48
0.00559
100
AcDbLine
 10
186.2594121583333
 20
177.5107008658991
 30
0.0
 11
186.0594141152781
 21
177.1107067797892
 31
0.0
  0
ELLIPSE
  5
27A7
330
A
100
AcDbEntity
  8
0
 62
     7
100
AcDbEllipse
 10
187.5246564307122
 20
176.0302025471808
 30
0.0
 11
-0.1723633183559923
 21
0.985046598777393
 31
0.0
210
0.0
220
0.0
230
0.9999999999999996
 40
0.8917010000000001
 41
1.416016817092893
 42
2.947825908660888
  0
ELLIPSE
  5
27AA
330
A
100
AcDbEntity
  8
0
 62
     7
100
AcDbEllipse
 10
211.3941675692876
 20
176.0302025471808
 30
0.0
 11
0.1723633183559923
 21
0.985046598777393
 31
0.0
210
0.0
220
0.0
230
0.9999999999999996
 40
0.8917010000000001
 41
3.335359334945678
 42
4.86716842651367
  0
LINE
  5
27AB
330
A
100
AcDbEntity
  8
0
 62
     7
 48
0.00559
100
AcDbLine
 10
183.4594075555543
 20
177.5107008658991
 30
0.0
 11
183.6594055986095
 21
177.1107067797892
 31
0.0
  0
LINE
  5
27AD
330
A
100
AcDbEntity
  8
0
 62
     7
 48
0.03125
100
AcDbLine
 10
72.50938767048087
 20
118.1296920824874
 30
0.0
 11
75.00938820867545
 21
118.1296920824874
 31
0.0
  0
LINE
  5
27AE
330
A
100
AcDbEntity
  8
0
 62
     7
 48
0.03125
100
AcDbLine
 10
326.6094323725738
 20
118.1296920824874
 30
0.0
 11
329.1094329107683
 21
118.1296920824874
 31
0.0
  0
LINE
  5
27AF
330
A
100
AcDbEntity
  8
0
 62
     7
 48
0.005
100
AcDbLine
 10
329.5094589968852
 20
121.2296987498495
 30
0.0
 11
329.1094329107683
 21
121.2296987498495
 31
0.0
  0
LINE
  5
27B1
330
A
100
AcDbEntity
  8
0
 62
     7
 48
0.005
100
AcDbLine
 10
72.50938767048087
 20
121.2296987498495
 30
0.0
 11
72.10937758436762
 21
121.2296987498495
 31
0.0
  0
LINE
  5
280A
330
A
100
AcDbEntity
  8
0
 62
     7
 48
0.206875
100
AcDbLine
 10
323.1094316191014
 20
127.1106823649611
 30
0.0
 11
323.1094316191013
 21
168.2106808638114
 31
0.0
  0
ARC
  5
280D
330
A
100
AcDbEntity
  8
0
 62
     7
100
AcDbCircle
 10
321.1094311885458
 20
168.2106808638114
 30
0.0
 40
2.000000430555648
100
AcDbArc
 50
0.0
 51
90.00000300000001
  0
ARC
  5
281C
330
A
100
AcDbEntity
  8
0
 62
     7
100
AcDbCircle
 10
80.50938939270348
 20
168.2106808638114
 30
0.0
 40
2.000000430555648
100
AcDbArc
 50
90.00000300000001
 51
180.000005
  0
LINE
  5
2821
330
A
100
AcDbEntity
  8
0
 62
     7
 48
0.206875
100
AcDbLine
 10
78.50938896214781
 20
168.2106806892783
 30
0.0
 11
78.50938896214781
 21
127.1106820158951
 31
0.0
  0
ARC
  5
2824
330
A
100
AcDbEntity
  8
0
 62
     7
100
AcDbCircle
 10
80.50938939270348
 20
127.1106820158951
 30
0.0
 40
2.000000430555648
100
AcDbArc
 50
180.000005
 51
270.000001
  0
LINE
  5
2828
330
A
100
AcDbEntity
  8
0
 62
     7
100
AcDbLine
 10
321.1094312234523
 20
125.1106815853395
 30
0.0
 11
80.50938939270348
 21
125.1106815853395
 31
0.0
  0
ARC
  5
282C
330
A
100
AcDbEntity
  8
0
 62
     7
100
AcDbCircle
 10
321.1094311885458
 20
127.1106820158951
 30
0.0
 40
2.000000430555648
100
AcDbArc
 50
270.000001
 51
0.00001
  0
LINE
  5
282E
330
A
100
AcDbEntity
  8
0
 62
     7
100
AcDbLine
 10
80.50938939270348
 20
170.210681294367
 30
0.0
 11
321.1094310838258
 21
170.210681294367
 31
0.0
  0
ARC
  5
2838
330
A
100
AcDbEntity
  8
0
 62
     7
100
AcDbCircle
 10
321.1094311885458
 20
168.2106808638114
 30
0.0
 40
2.000000430555648
100
AcDbArc
 50
0.0
 51
90.00000300000001
  0
ARC
  5
283B
330
A
100
AcDbEntity
  8
0
 62
     7
100
AcDbCircle
 10
80.30939134964834
 20
381.9107388686851
 30
0.0
 40
1.500000322916735
100
AcDbArc
 50
90.00000300000001
 51
180.000005
  0
LINE
  5
283C
330
A
100
AcDbEntity
  8
0
 62
     7
100
AcDbLine
 10
78.80939102673162
 20
381.9107388686851
 30
0.0
 11
78.80939102673162
 21
202.4107002263157
 31
0.0
  0
ARC
  5
283D
330
A
100
AcDbEntity
  8
0
 62
     7
100
AcDbCircle
 10
80.30939134964834
 20
202.4107002263157
 30
0.0
 40
1.500000322916735
100
AcDbArc
 50
180.000005
 51
270.000001
  0
LINE
  5
283E
330
A
100
AcDbEntity
  8
0
 62
     7
100
AcDbLine
 10
321.309443231604
 20
200.910699903399
 30
0.0
 11
80.30939134964834
 21
200.910699903399
 31
0.0
  0
ARC
  5
283F
330
A
100
AcDbEntity
  8
0
 62
     7
100
AcDbCircle
 10
321.309443231604
 20
202.4107002263157
 30
0.0
 40
1.500000322916735
100
AcDbArc
 50
270.000001
 51
0.00001
  0
LINE
  5
2840
330
A
100
AcDbEntity
  8
0
 62
     7
100
AcDbLine
 10
322.8094435545206
 20
202.4107002263157
 30
0.0
 11
322.8094435545206
 21
381.9107388686851
 31
0.0
  0
ARC
  5
2841
330
A
100
AcDbEntity
  8
0
 62
     7
100
AcDbCircle
 10
321.309443231604
 20
381.9107388686851
 30
0.0
 40
1.500000322916735
100
AcDbArc
 50
0.00001
 51
89.99999200000003
  0
LINE
  5
2842
330
A
100
AcDbEntity
  8
0
 62
     7
100
AcDbLine
 10
80.30939134964834
 20
383.4107391916018
 30
0.0
 11
321.309443231604
 21
383.4107391916018
 31
0.0
  0
ARC
  5
2843
330
A
100
AcDbEntity
  8
0
  6
DASHED
 62
     4
100
AcDbCircle
 10
346.2594626027887
 20
240.7840604872474
 30
0.0
 40
2.000000430555648
100
AcDbArc
 50
0.0
 51
90.00000300000001
  0
LINE
  5
2844
330
A
100
AcDbEntity
  8
0
  6
DASHED
 62
     4
100
AcDbLine
 10
348.2594630333443
 20
240.7840604872474
 30
0.0
 11
348.2594630333443
 21
180.784047570578
 31
0.0
  0
ARC
  5
2845
330
A
100
AcDbEntity
  8
0
  6
DASHED
 62
     4
100
AcDbCircle
 10
346.2594626027887
 20
180.784047570578
 30
0.0
 40
2.000000430555648
100
AcDbArc
 50
270.000001
 51
0.00001
  0
LINE
  5
2846
330
A
100
AcDbEntity
  8
0
 62
     4
 48
0.035
100
AcDbLine
 10
343.4594420000063
 20
242.7840609178032
 30
0.0
 11
346.2594626027887
 21
242.7840609178032
 31
0.0
  0
LINE
  5
2847
330
A
100
AcDbEntity
  8
0
 62
     4
 48
0.035
100
AcDbLine
 10
343.4594420000063
 20
178.7840471400223
 30
0.0
 11
346.2594626027887
 21
178.7840471400223
 31
0.0
  0
LINE
  5
2848
330
A
100
AcDbEntity
  8
0
  6
DASHED
 62
     4
 48
0.035
100
AcDbLine
 10
55.45936599999009
 20
242.6649508921614
 30
0.0
 11
52.65937739721472
 21
242.6649508921614
 31
0.0
  0
ARC
  5
2849
330
A
100
AcDbEntity
  8
0
  6
DASHED
 62
     4
100
AcDbCircle
 10
52.65937739721472
 20
240.6649504616058
 30
0.0
 40
2.000000430555648
100
AcDbArc
 50
90.00000300000001
 51
180.000005
  0
LINE
  5
284A
330
A
100
AcDbEntity
  8
0
  6
DASHED
 62
     4
 48
0.035
100
AcDbLine
 10
55.45936599999009
 20
178.6649371143806
 30
0.0
 11
52.65937739721472
 21
178.6649371143806
 31
0.0
  0
LINE
  5
284B
330
A
100
AcDbEntity
  8
0
  6
DASHED
 62
     4
100
AcDbLine
 10
50.65937696665911
 20
240.6649504616058
 30
0.0
 11
50.65937696665911
 21
180.6649375449362
 31
0.0
  0
ARC
  5
284C
330
A
100
AcDbEntity
  8
0
  6
DASHED
 62
     4
100
AcDbCircle
 10
52.65937739721472
 20
180.6649375449362
 30
0.0
 40
2.000000430555648
100
AcDbArc
 50
180.000005
 51
270.000001
  0
LINE
  5
389A
330
A
100
AcDbEntity
  8
0
 62
     7
 48
0.02
100
AcDbLine
 10
463.0730237501528
 20
386.4107398374353
 30
0.0
 11
464.6730000945921
 21
386.4107398374353
 31
0.0
  0
LINE
  5
389B
330
A
100
AcDbEntity
  8
0
 62
     7
 48
0.125
100
AcDbLine
 10
463.0730237501528
 20
396.4107419902136
 30
0.0
 11
463.0730237501528
 21
386.4107398374353
 31
0.0
  0
LINE
  5
389C
330
A
100
AcDbEntity
  8
0
 62
     7
 48
0.02
100
AcDbLine
 10
463.0730237501528
 20
396.4107419902136
 30
0.0
 11
464.6730000945921
 21
396.4107419902136
 31
0.0
  0
LINE
  5
389D
330
A
100
AcDbEntity
  8
0
 62
     7
 48
0.125
100
AcDbLine
 10
464.6730000945921
 20
396.4107419902136
 30
0.0
 11
464.6730000945921
 21
386.4107398374353
 31
0.0
  0
LINE
  5
389F
330
A
100
AcDbEntity
  8
0
 62
     7
 48
0.02
100
AcDbLine
 10
463.0730237501528
 20
126.410683865201
 30
0.0
 11
464.6730000945921
 21
126.410683865201
 31
0.0
  0
LINE
  5
38A0
330
A
100
AcDbEntity
  8
0
 62
     7
 48
0.125
100
AcDbLine
 10
463.0730237501528
 20
136.4106860179792
 30
0.0
 11
463.0730237501528
 21
126.410683865201
 31
0.0
  0
LINE
  5
38A1
330
A
100
AcDbEntity
  8
0
 62
     7
 48
0.02
100
AcDbLine
 10
463.0730237501528
 20
136.4106860179792
 30
0.0
 11
464.6730000945921
 21
136.4106860179792
 31
0.0
  0
LINE
  5
38A2
330
A
100
AcDbEntity
  8
0
 62
     7
 48
0.125
100
AcDbLine
 10
464.6730000945921
 20
136.4106860179792
 30
0.0
 11
464.6730000945921
 21
126.410683865201
 31
0.0
  0
LINE
  5
38A3
330
A
100
AcDbEntity
  8
0
 62
     7
 48
0.02
100
AcDbLine
 10
463.0730237501528
 20
146.4106881707575
 30
0.0
 11
464.6730000945921
 21
146.4106881707575
 31
0.0
  0
LINE
  5
38A4
330
A
100
AcDbEntity
  8
0
 62
     7
 48
0.125
100
AcDbLine
 10
463.0730237501528
 20
156.4106903235358
 30
0.0
 11
463.0730237501528
 21
146.4106881707575
 31
0.0
  0
LINE
  5
38A5
330
A
100
AcDbEntity
  8
0
 62
     7
 48
0.02
100
AcDbLine
 10
463.0730237501528
 20
156.4106903235358
 30
0.0
 11
464.6730000945921
 21
156.4106903235358
 31
0.0
  0
LINE
  5
38A6
330
A
100
AcDbEntity
  8
0
 62
     7
 48
0.125
100
AcDbLine
 10
464.6730000945921
 20
156.4106903235358
 30
0.0
 11
464.6730000945921
 21
146.4106881707575
 31
0.0
  0
LINE
  5
38A7
330
A
100
AcDbEntity
  8
0
 62
     7
 48
0.02
100
AcDbLine
 10
463.0730237501528
 20
166.4106924763139
 30
0.0
 11
464.6730000945921
 21
166.4106924763139
 31
0.0
  0
LINE
  5
38A8
330
A
100
AcDbEntity
  8
0
 62
     7
 48
0.125
100
AcDbLine
 10
463.0730237501528
 20
176.4106946290921
 30
0.0
 11
463.0730237501528
 21
166.4106924763139
 31
0.0
  0
LINE
  5
38A9
330
A
100
AcDbEntity
  8
0
 62
     7
 48
0.02
100
AcDbLine
 10
463.0730237501528
 20
176.4106946290921
 30
0.0
 11
464.6730000945921
 21
176.4106946290921
 31
0.0
  0
LINE
  5
38AA
330
A
100
AcDbEntity
  8
0
 62
     7
 48
0.125
100
AcDbLine
 10
464.6730000945921
 20
176.4106946290921
 30
0.0
 11
464.6730000945921
 21
166.4106924763139
 31
0.0
  0
LINE
  5
38AB
330
A
100
AcDbEntity
  8
0
 62
     7
 48
0.02
100
AcDbLine
 10
463.0730237501528
 20
186.4106967818705
 30
0.0
 11
464.6730000945921
 21
186.4106967818705
 31
0.0
  0
LINE
  5
38AC
330
A
100
AcDbEntity
  8
0
 62
     7
 48
0.125
100
AcDbLine
 10
463.0730237501528
 20
196.4106989346488
 30
0.0
 11
463.0730237501528
 21
186.4106967818705
 31
0.0
  0
LINE
  5
38AD
330
A
100
AcDbEntity
  8
0
 62
     7
 48
0.02
100
AcDbLine
 10
463.0730237501528
 20
196.4106989346488
 30
0.0
 11
464.6730000945921
 21
196.4106989346488
 31
0.0
  0
LINE
  5
38AE
330
A
100
AcDbEntity
  8
0
 62
     7
 48
0.125
100
AcDbLine
 10
464.6730000945921
 20
196.4106989346488
 30
0.0
 11
464.6730000945921
 21
186.4106967818705
 31
0.0
  0
LINE
  5
38AF
330
A
100
AcDbEntity
  8
0
 62
     7
 48
0.02
100
AcDbLine
 10
463.0730237501528
 20
206.4107010874271
 30
0.0
 11
464.6730000945921
 21
206.4107010874271
 31
0.0
  0
LINE
  5
38B0
330
A
100
AcDbEntity
  8
0
 62
     7
 48
0.125
100
AcDbLine
 10
463.0730237501528
 20
216.410703240205
 30
0.0
 11
463.0730237501528
 21
206.4107010874271
 31
0.0
  0
LINE
  5
38B1
330
A
100
AcDbEntity
  8
0
 62
     7
 48
0.02
100
AcDbLine
 10
463.0730237501528
 20
216.410703240205
 30
0.0
 11
464.6730000945921
 21
216.410703240205
 31
0.0
  0
LINE
  5
38B2
330
A
100
AcDbEntity
  8
0
 62
     7
 48
0.125
100
AcDbLine
 10
464.6730000945921
 20
216.410703240205
 30
0.0
 11
464.6730000945921
 21
206.4107010874271
 31
0.0
  0
LINE
  5
38B3
330
A
100
AcDbEntity
  8
0
 62
     7
 48
0.02
100
AcDbLine
 10
463.0730237501528
 20
226.4107053929834
 30
0.0
 11
464.6730000945921
 21
226.4107053929834
 31
0.0
  0
LINE
  5
38B4
330
A
100
AcDbEntity
  8
0
 62
     7
 48
0.125
100
AcDbLine
 10
463.0730237501528
 20
236.4107075457618
 30
0.0
 11
463.0730237501528
 21
226.4107053929834
 31
0.0
  0
LINE
  5
38B5
330
A
100
AcDbEntity
  8
0
 62
     7
 48
0.02
100
AcDbLine
 10
463.0730237501528
 20
236.4107075457618
 30
0.0
 11
464.6730000945921
 21
236.4107075457618
 31
0.0
  0
LINE
  5
38B6
330
A
100
AcDbEntity
  8
0
 62
     7
 48
0.125
100
AcDbLine
 10
464.6730000945921
 20
236.4107075457618
 30
0.0
 11
464.6730000945921
 21
226.4107053929834
 31
0.0
  0
LINE
  5
38B7
330
A
100
AcDbEntity
  8
0
 62
     7
 48
0.02
100
AcDbLine
 10
463.0730237501528
 20
246.4107096985399
 30
0.0
 11
464.6730000945921
 21
246.4107096985399
 31
0.0
  0
LINE
  5
38B8
330
A
100
AcDbEntity
  8
0
 62
     7
 48
0.125
100
AcDbLine
 10
463.0730237501528
 20
256.4107118513183
 30
0.0
 11
463.0730237501528
 21
246.4107096985399
 31
0.0
  0
LINE
  5
38B9
330
A
100
AcDbEntity
  8
0
 62
     7
 48
0.02
100
AcDbLine
 10
463.0730237501528
 20
256.4107118513183
 30
0.0
 11
464.6730000945921
 21
256.4107118513183
 31
0.0
  0
LINE
  5
38BA
330
A
100
AcDbEntity
  8
0
 62
     7
 48
0.125
100
AcDbLine
 10
464.6730000945921
 20
256.4107118513183
 30
0.0
 11
464.6730000945921
 21
246.4107096985399
 31
0.0
  0
LINE
  5
38BB
330
A
100
AcDbEntity
  8
0
 62
     7
 48
0.02
100
AcDbLine
 10
463.0730237501528
 20
266.4107140040964
 30
0.0
 11
464.6730000945921
 21
266.4107140040964
 31
0.0
  0
LINE
  5
38BC
330
A
100
AcDbEntity
  8
0
 62
     7
 48
0.125
100
AcDbLine
 10
463.0730237501528
 20
276.4107161568745
 30
0.0
 11
463.0730237501528
 21
266.4107140040964
 31
0.0
  0
LINE
  5
38BD
330
A
100
AcDbEntity
  8
0
 62
     7
 48
0.02
100
AcDbLine
 10
463.0730237501528
 20
276.4107161568745
 30
0.0
 11
464.6730000945921
 21
276.4107161568745
 31
0.0
  0
LINE
  5
38BE
330
A
100
AcDbEntity
  8
0
 62
     7
 48
0.125
100
AcDbLine
 10
464.6730000945921
 20
276.4107161568745
 30
0.0
 11
464.6730000945921
 21
266.4107140040964
 31
0.0
  0
LINE
  5
38BF
330
A
100
AcDbEntity
  8
0
 62
     7
 48
0.02
100
AcDbLine
 10
463.0730237501528
 20
286.410718309653
 30
0.0
 11
464.6730000945921
 21
286.410718309653
 31
0.0
  0
LINE
  5
38C0
330
A
100
AcDbEntity
  8
0
 62
     7
 48
0.125
100
AcDbLine
 10
463.0730237501528
 20
296.4107204624312
 30
0.0
 11
463.0730237501528
 21
286.410718309653
 31
0.0
  0
LINE
  5
38C1
330
A
100
AcDbEntity
  8
0
 62
     7
 48
0.02
100
AcDbLine
 10
463.0730237501528
 20
296.4107204624312
 30
0.0
 11
464.6730000945921
 21
296.4107204624312
 31
0.0
  0
LINE
  5
38C2
330
A
100
AcDbEntity
  8
0
 62
     7
 48
0.125
100
AcDbLine
 10
464.6730000945921
 20
296.4107204624312
 30
0.0
 11
464.6730000945921
 21
286.410718309653
 31
0.0
  0
LINE
  5
38C3
330
A
100
AcDbEntity
  8
0
 62
     7
 48
0.02
100
AcDbLine
 10
463.0730237501528
 20
306.4107226152094
 30
0.0
 11
464.6730000945921
 21
306.4107226152094
 31
0.0
  0
LINE
  5
38C4
330
A
100
AcDbEntity
  8
0
 62
     7
 48
0.125
100
AcDbLine
 10
463.0730237501528
 20
316.4107247679876
 30
0.0
 11
463.0730237501528
 21
306.4107226152094
 31
0.0
  0
LINE
  5
38C5
330
A
100
AcDbEntity
  8
0
 62
     7
 48
0.02
100
AcDbLine
 10
463.0730237501528
 20
316.4107247679876
 30
0.0
 11
464.6730000945921
 21
316.4107247679876
 31
0.0
  0
LINE
  5
38C6
330
A
100
AcDbEntity
  8
0
 62
     7
 48
0.125
100
AcDbLine
 10
464.6730000945921
 20
316.4107247679876
 30
0.0
 11
464.6730000945921
 21
306.4107226152094
 31
0.0
  0
LINE
  5
38C7
330
A
100
AcDbEntity
  8
0
 62
     7
 48
0.02
100
AcDbLine
 10
463.0730237501528
 20
326.4107269207658
 30
0.0
 11
464.6730000945921
 21
326.4107269207658
 31
0.0
  0
LINE
  5
38C8
330
A
100
AcDbEntity
  8
0
 62
     7
 48
0.125
100
AcDbLine
 10
463.0730237501528
 20
336.4107290735441
 30
0.0
 11
463.0730237501528
 21
326.4107269207658
 31
0.0
  0
LINE
  5
38C9
330
A
100
AcDbEntity
  8
0
 62
     7
 48
0.02
100
AcDbLine
 10
463.0730237501528
 20
336.4107290735441
 30
0.0
 11
464.6730000945921
 21
336.4107290735441
 31
0.0
  0
LINE
  5
38CA
330
A
100
AcDbEntity
  8
0
 62
     7
 48
0.125
100
AcDbLine
 10
464.6730000945921
 20
336.4107290735441
 30
0.0
 11
464.6730000945921
 21
326.4107269207658
 31
0.0
  0
LINE
  5
38CB
330
A
100
AcDbEntity
  8
0
 62
     7
 48
0.02
100
AcDbLine
 10
463.0730237501528
 20
346.4107312263223
 30
0.0
 11
464.6730000945921
 21
346.4107312263223
 31
0.0
  0
LINE
  5
38CC
330
A
100
AcDbEntity
  8
0
 62
     7
 48
0.125
100
AcDbLine
 10
463.0730237501528
 20
356.4107333791006
 30
0.0
 11
463.0730237501528
 21
346.4107312263223
 31
0.0
  0
LINE
  5
38CD
330
A
100
AcDbEntity
  8
0
 62
     7
 48
0.02
100
AcDbLine
 10
463.0730237501528
 20
356.4107333791006
 30
0.0
 11
464.6730000945921
 21
356.4107333791006
 31
0.0
  0
LINE
  5
38CE
330
A
100
AcDbEntity
  8
0
 62
     7
 48
0.125
100
AcDbLine
 10
464.6730000945921
 20
356.4107333791006
 30
0.0
 11
464.6730000945921
 21
346.4107312263223
 31
0.0
  0
LINE
  5
38CF
330
A
100
AcDbEntity
  8
0
 62
     7
 48
0.02
100
AcDbLine
 10
463.0730237501528
 20
366.4107355318789
 30
0.0
 11
464.6730000945921
 21
366.4107355318789
 31
0.0
  0
LINE
  5
38D0
330
A
100
AcDbEntity
  8
0
 62
     7
 48
0.125
100
AcDbLine
 10
463.0730237501528
 20
376.4107376846571
 30
0.0
 11
463.0730237501528
 21
366.4107355318789
 31
0.0
  0
LINE
  5
38D1
330
A
100
AcDbEntity
  8
0
 62
     7
 48
0.02
100
AcDbLine
 10
463.0730237501528
 20
376.4107376846571
 30
0.0
 11
464.6730000945921
 21
376.4107376846571
 31
0.0
  0
LINE
  5
38D2
330
A
100
AcDbEntity
  8
0
 62
     7
 48
0.125
100
AcDbLine
 10
464.6730000945921
 20
376.4107376846571
 30
0.0
 11
464.6730000945921
 21
366.4107355318789
 31
0.0
  0
LINE
  5
38D5
330
A
100
AcDbEntity
  8
0
 62
     7
100
AcDbLine
 10
466.4729884820896
 20
400.2107308082668
 30
0.0
 11
618.6730332473772
 21
400.2107308082668
 31
0.0
  0
ARC
  5
38D7
330
A
100
AcDbEntity
  8
0
 62
     7
100
AcDbCircle
 10
482.0733338404972
 20
325.410726705488
 30
0.0
 40
1.200000258333389
100
AcDbArc
 50
90.00000300000001
 51
270.000001
  0
ARC
  5
38D8
330
A
100
AcDbEntity
  8
0
 62
     7
100
AcDbCircle
 10
519.6733179349378
 20
325.410726705488
 30
0.0
 40
1.200000258333389
100
AcDbArc
 50
270.000001
 51
89.99999200000003
  0
ARC
  5
38D9
330
A
100
AcDbEntity
  8
0
 62
     7
100
AcDbCircle
 10
482.0733338404972
 20
307.4107228304872
 30
0.0
 40
1.200000258333389
100
AcDbArc
 50
90.00000300000001
 51
270.000001
  0
ARC
  5
38DA
330
A
100
AcDbEntity
  8
0
 62
     7
100
AcDbCircle
 10
519.6733179349378
 20
307.4107228304872
 30
0.0
 40
1.200000258333389
100
AcDbArc
 50
270.000001
 51
89.99999200000003
  0
ARC
  5
38DB
330
A
100
AcDbEntity
  8
0
 62
     7
100
AcDbCircle
 10
519.6733179349378
 20
244.4107092679844
 30
0.0
 40
1.200000258333389
100
AcDbArc
 50
270.000001
 51
89.99999200000003
  0
ARC
  5
38DC
330
A
100
AcDbEntity
  8
0
 62
     7
100
AcDbCircle
 10
482.0733338404972
 20
244.4107092679844
 30
0.0
 40
1.200000258333389
100
AcDbArc
 50
90.00000300000001
 51
270.000001
  0
ARC
  5
38DD
330
A
100
AcDbEntity
  8
0
 62
     7
100
AcDbCircle
 10
582.2730014112591
 20
137.6106982763147
 30
0.0
 40
1.200000258333389
100
AcDbArc
 50
270.000001
 51
89.99999200000003
  0
ARC
  5
38DE
330
A
100
AcDbEntity
  8
0
 62
     7
100
AcDbCircle
 10
544.6730173168181
 20
137.6106982763147
 30
0.0
 40
1.200000258333389
100
AcDbArc
 50
90.00000300000001
 51
270.000001
  0
ARC
  5
38DF
330
A
100
AcDbEntity
  8
0
 62
     7
100
AcDbCircle
 10
544.6730173168181
 20
388.410740267991
 30
0.0
 40
1.200000258333389
100
AcDbArc
 50
90.00000300000001
 51
270.000001
  0
ARC
  5
38E0
330
A
100
AcDbEntity
  8
0
 62
     7
100
AcDbCircle
 10
582.2730014112591
 20
388.410740267991
 30
0.0
 40
1.200000258333389
100
AcDbArc
 50
270.000001
 51
89.99999200000003
  0
ARC
  5
38E1
330
A
100
AcDbEntity
  8
0
 62
     7
100
AcDbCircle
 10
582.2730014112591
 20
181.4106957054814
 30
0.0
 40
1.200000258333389
100
AcDbArc
 50
270.000001
 51
89.99999200000003
  0
ARC
  5
38E2
330
A
100
AcDbEntity
  8
0
 62
     7
100
AcDbCircle
 10
544.6730173168181
 20
181.4106957054814
 30
0.0
 40
1.200000258333389
100
AcDbArc
 50
90.00000300000001
 51
270.000001
  0
ARC
  5
38E3
330
A
100
AcDbEntity
  8
0
 62
     7
100
AcDbCircle
 10
544.6730173168181
 20
187.4106969971483
 30
0.0
 40
1.200000258333389
100
AcDbArc
 50
90.00000300000001
 51
270.000001
  0
ARC
  5
38E4
330
A
100
AcDbEntity
  8
0
 62
     7
100
AcDbCircle
 10
582.2730014112591
 20
187.4106969971483
 30
0.0
 40
1.200000258333389
100
AcDbArc
 50
270.000001
 51
89.99999200000003
  0
ARC
  5
38E5
330
A
100
AcDbEntity
  8
0
 62
     7
100
AcDbCircle
 10
544.6730173168181
 20
193.4106982888151
 30
0.0
 40
1.200000258333389
100
AcDbArc
 50
90.00000300000001
 51
270.000001
  0
ARC
  5
38E6
330
A
100
AcDbEntity
  8
0
 62
     7
100
AcDbCircle
 10
582.2730014112591
 20
193.4106982888151
 30
0.0
 40
1.200000258333389
100
AcDbArc
 50
270.000001
 51
89.99999200000003
  0
ARC
  5
38E7
330
A
100
AcDbEntity
  8
0
 62
     7
100
AcDbCircle
 10
544.6730173168181
 20
199.4106995804821
 30
0.0
 40
1.200000258333389
100
AcDbArc
 50
90.00000300000001
 51
270.000001
  0
ARC
  5
38E8
330
A
100
AcDbEntity
  8
0
 62
     7
100
AcDbCircle
 10
582.2730014112591
 20
199.4106995804821
 30
0.0
 40
1.200000258333389
100
AcDbArc
 50
270.000001
 51
89.99999200000003
  0
ARC
  5
38E9
330
A
100
AcDbEntity
  8
0
 62
     7
100
AcDbCircle
 10
544.6730173168181
 20
244.4107092679844
 30
0.0
 40
1.200000258333389
100
AcDbArc
 50
90.00000300000001
 51
270.000001
  0
ARC
  5
38EA
330
A
100
AcDbEntity
  8
0
 62
     7
100
AcDbCircle
 10
582.2730014112591
 20
244.4107092679844
 30
0.0
 40
1.200000258333389
100
AcDbArc
 50
270.000001
 51
89.99999200000003
  0
ARC
  5
38EB
330
A
100
AcDbEntity
  8
0
 62
     7
100
AcDbCircle
 10
544.6730173168181
 20
307.4107228304872
 30
0.0
 40
1.200000258333389
100
AcDbArc
 50
90.00000300000001
 51
270.000001
  0
ARC
  5
38EC
330
A
100
AcDbEntity
  8
0
 62
     7
100
AcDbCircle
 10
582.2730014112591
 20
307.4107228304872
 30
0.0
 40
1.200000258333389
100
AcDbArc
 50
270.000001
 51
89.99999200000003
  0
ARC
  5
38ED
330
A
100
AcDbEntity
  8
0
 62
     7
100
AcDbCircle
 10
544.6730173168181
 20
370.4107363929902
 30
0.0
 40
1.200000258333389
100
AcDbArc
 50
90.00000300000001
 51
270.000001
  0
ARC
  5
38EE
330
A
100
AcDbEntity
  8
0
 62
     7
100
AcDbCircle
 10
582.2730014112591
 20
370.4107363929902
 30
0.0
 40
1.200000258333389
100
AcDbArc
 50
270.000001
 51
89.99999200000003
  0
ARC
  5
38EF
330
A
100
AcDbEntity
  8
0
 62
     7
100
AcDbCircle
 10
544.6730173168181
 20
325.410726705488
 30
0.0
 40
1.200000258333389
100
AcDbArc
 50
90.00000300000001
 51
270.000001
  0
ARC
  5
38F0
330
A
100
AcDbEntity
  8
0
 62
     7
100
AcDbCircle
 10
582.2730014112591
 20
325.410726705488
 30
0.0
 40
1.200000258333389
100
AcDbArc
 50
270.000001
 51
89.99999200000003
  0
ARC
  5
38F1
330
A
100
AcDbEntity
  8
0
 62
     7
100
AcDbCircle
 10
544.6730173168181
 20
262.4107131429851
 30
0.0
 40
1.200000258333389
100
AcDbArc
 50
90.00000300000001
 51
270.000001
  0
ARC
  5
38F2
330
A
100
AcDbEntity
  8
0
 62
     7
100
AcDbCircle
 10
582.2730014112591
 20
262.4107131429851
 30
0.0
 40
1.200000258333389
100
AcDbArc
 50
270.000001
 51
89.99999200000003
  0
ARC
  5
38F3
330
A
100
AcDbEntity
  8
0
 62
     7
100
AcDbCircle
 10
544.6730173168181
 20
382.410738976324
 30
0.0
 40
1.200000258333389
100
AcDbArc
 50
90.00000300000001
 51
270.000001
  0
ARC
  5
38F4
330
A
100
AcDbEntity
  8
0
 62
     7
100
AcDbCircle
 10
582.2730014112591
 20
382.410738976324
 30
0.0
 40
1.200000258333389
100
AcDbArc
 50
270.000001
 51
89.99999200000003
  0
ARC
  5
38F5
330
A
100
AcDbEntity
  8
0
 62
     7
100
AcDbCircle
 10
544.6730173168181
 20
319.4107254138211
 30
0.0
 40
1.200000258333389
100
AcDbArc
 50
90.00000300000001
 51
270.000001
  0
ARC
  5
38F6
330
A
100
AcDbEntity
  8
0
 62
     7
100
AcDbCircle
 10
582.2730014112591
 20
319.4107254138211
 30
0.0
 40
1.200000258333389
100
AcDbArc
 50
270.000001
 51
89.99999200000003
  0
ARC
  5
38F7
330
A
100
AcDbEntity
  8
0
 62
     7
100
AcDbCircle
 10
544.6730173168181
 20
256.4107118513183
 30
0.0
 40
1.200000258333389
100
AcDbArc
 50
90.00000300000001
 51
270.000001
  0
ARC
  5
38F8
330
A
100
AcDbEntity
  8
0
 62
     7
100
AcDbCircle
 10
582.2730014112591
 20
256.4107118513183
 30
0.0
 40
1.200000258333389
100
AcDbArc
 50
270.000001
 51
89.99999200000003
  0
ARC
  5
38F9
330
A
100
AcDbEntity
  8
0
 62
     7
100
AcDbCircle
 10
544.6730173168181
 20
376.4107376846571
 30
0.0
 40
1.200000258333389
100
AcDbArc
 50
90.00000300000001
 51
270.000001
  0
ARC
  5
38FA
330
A
100
AcDbEntity
  8
0
 62
     7
100
AcDbCircle
 10
582.2730014112591
 20
376.4107376846571
 30
0.0
 40
1.200000258333389
100
AcDbArc
 50
270.000001
 51
89.99999200000003
  0
ARC
  5
38FB
330
A
100
AcDbEntity
  8
0
 62
     7
100
AcDbCircle
 10
544.6730173168181
 20
313.4107241221542
 30
0.0
 40
1.200000258333389
100
AcDbArc
 50
90.00000300000001
 51
270.000001
  0
ARC
  5
38FC
330
A
100
AcDbEntity
  8
0
 62
     7
100
AcDbCircle
 10
582.2730014112591
 20
313.4107241221542
 30
0.0
 40
1.200000258333389
100
AcDbArc
 50
270.000001
 51
89.99999200000003
  0
ARC
  5
38FD
330
A
100
AcDbEntity
  8
0
 62
     7
100
AcDbCircle
 10
544.6730173168181
 20
250.4107105596514
 30
0.0
 40
1.200000258333389
100
AcDbArc
 50
90.00000300000001
 51
270.000001
  0
ARC
  5
38FE
330
A
100
AcDbEntity
  8
0
 62
     7
100
AcDbCircle
 10
582.2730014112591
 20
250.4107105596514
 30
0.0
 40
1.200000258333389
100
AcDbArc
 50
270.000001
 51
89.99999200000003
  0
ARC
  5
38FF
330
A
100
AcDbEntity
  8
0
 62
     7
100
AcDbCircle
 10
544.6730173168181
 20
143.610699567982
 30
0.0
 40
1.200000258333389
100
AcDbArc
 50
90.00000300000001
 51
270.000001
  0
ARC
  5
3900
330
A
100
AcDbEntity
  8
0
 62
     7
100
AcDbCircle
 10
582.2730014112591
 20
143.610699567982
 30
0.0
 40
1.200000258333389
100
AcDbArc
 50
270.000001
 51
89.99999200000003
  0
ARC
  5
3901
330
A
100
AcDbEntity
  8
0
 62
     7
100
AcDbCircle
 10
544.6730173168181
 20
149.610700859649
 30
0.0
 40
1.200000258333389
100
AcDbArc
 50
90.00000300000001
 51
270.000001
  0
ARC
  5
3902
330
A
100
AcDbEntity
  8
0
 62
     7
100
AcDbCircle
 10
582.2730014112591
 20
149.610700859649
 30
0.0
 40
1.200000258333389
100
AcDbArc
 50
270.000001
 51
89.99999200000003
  0
ARC
  5
3903
330
A
100
AcDbEntity
  8
0
 62
     7
100
AcDbCircle
 10
482.0733338404972
 20
250.4107105596514
 30
0.0
 40
1.200000258333389
100
AcDbArc
 50
90.00000300000001
 51
270.000001
  0
ARC
  5
3904
330
A
100
AcDbEntity
  8
0
 62
     7
100
AcDbCircle
 10
519.6733179349378
 20
250.4107105596514
 30
0.0
 40
1.200000258333389
100
AcDbArc
 50
270.000001
 51
89.99999200000003
  0
ARC
  5
3905
330
A
100
AcDbEntity
  8
0
 62
     7
100
AcDbCircle
 10
482.0733338404972
 20
256.4107118513183
 30
0.0
 40
1.200000258333389
100
AcDbArc
 50
90.00000300000001
 51
270.000001
  0
ARC
  5
3906
330
A
100
AcDbEntity
  8
0
 62
     7
100
AcDbCircle
 10
519.6733179349378
 20
256.4107118513183
 30
0.0
 40
1.200000258333389
100
AcDbArc
 50
270.000001
 51
89.99999200000003
  0
ARC
  5
3907
330
A
100
AcDbEntity
  8
0
 62
     7
100
AcDbCircle
 10
482.0733338404972
 20
262.4107131429851
 30
0.0
 40
1.200000258333389
100
AcDbArc
 50
90.00000300000001
 51
270.000001
  0
ARC
  5
3908
330
A
100
AcDbEntity
  8
0
 62
     7
100
AcDbCircle
 10
519.6733179349378
 20
262.4107131429851
 30
0.0
 40
1.200000258333389
100
AcDbArc
 50
270.000001
 51
89.99999200000003
  0
ARC
  5
3909
330
A
100
AcDbEntity
  8
0
 62
     7
100
AcDbCircle
 10
482.0733338404972
 20
319.4107254138211
 30
0.0
 40
1.200000258333389
100
AcDbArc
 50
90.00000300000001
 51
270.000001
  0
ARC
  5
390A
330
A
100
AcDbEntity
  8
0
 62
     7
100
AcDbCircle
 10
519.6733179349378
 20
319.4107254138211
 30
0.0
 40
1.200000258333389
100
AcDbArc
 50
270.000001
 51
89.99999200000003
  0
ARC
  5
390B
330
A
100
AcDbEntity
  8
0
 62
     7
100
AcDbCircle
 10
482.0733338404972
 20
313.4107241221542
 30
0.0
 40
1.200000258333389
100
AcDbArc
 50
90.00000300000001
 51
270.000001
  0
ARC
  5
390C
330
A
100
AcDbEntity
  8
0
 62
     7
100
AcDbCircle
 10
519.6733179349378
 20
313.4107241221542
 30
0.0
 40
1.200000258333389
100
AcDbArc
 50
270.000001
 51
89.99999200000003
  0
LINE
  5
3913
330
A
100
AcDbEntity
  8
0
 62
     7
 48
0.47
100
AcDbLine
 10
482.0733338404972
 20
314.6107363804901
 30
0.0
 11
519.6733179349378
 21
314.6107363804901
 31
0.0
  0
LINE
  5
3914
330
A
100
AcDbEntity
  8
0
 62
     7
 48
0.47
100
AcDbLine
 10
519.6733179349378
 20
312.2107118638181
 30
0.0
 11
482.0733338404972
 21
312.2107118638181
 31
0.0
  0
LINE
  5
3915
330
A
100
AcDbEntity
  8
0
 62
     7
 48
0.47
100
AcDbLine
 10
482.0733338404972
 20
320.6107376721571
 30
0.0
 11
519.6733179349378
 21
320.6107376721571
 31
0.0
  0
LINE
  5
3916
330
A
100
AcDbEntity
  8
0
 62
     7
 48
0.47
100
AcDbLine
 10
519.6733179349378
 20
318.2107131554853
 30
0.0
 11
482.0733338404972
 21
318.2107131554853
 31
0.0
  0
LINE
  5
3917
330
A
100
AcDbEntity
  8
0
 62
     7
 48
0.47
100
AcDbLine
 10
482.0733338404972
 20
263.6107254013211
 30
0.0
 11
519.6733179349378
 21
263.6107254013211
 31
0.0
  0
LINE
  5
3918
330
A
100
AcDbEntity
  8
0
 62
     7
 48
0.47
100
AcDbLine
 10
519.6733179349378
 20
261.2107008846493
 30
0.0
 11
482.0733338404972
 21
261.2107008846493
 31
0.0
  0
LINE
  5
3919
330
A
100
AcDbEntity
  8
0
 62
     7
 48
0.47
100
AcDbLine
 10
482.0733338404972
 20
257.610724109654
 30
0.0
 11
519.6733179349378
 21
257.610724109654
 31
0.0
  0
LINE
  5
391A
330
A
100
AcDbEntity
  8
0
 62
     7
 48
0.47
100
AcDbLine
 10
519.6733179349378
 20
255.2106995929823
 30
0.0
 11
482.0733338404972
 21
255.2106995929823
 31
0.0
  0
LINE
  5
391B
330
A
100
AcDbEntity
  8
0
 62
     7
 48
0.47
100
AcDbLine
 10
482.0733338404972
 20
251.6107228179871
 30
0.0
 11
519.6733179349378
 21
251.6107228179871
 31
0.0
  0
LINE
  5
391C
330
A
100
AcDbEntity
  8
0
 62
     7
 48
0.47
100
AcDbLine
 10
519.6733179349378
 20
249.2106983013154
 30
0.0
 11
482.0733338404972
 21
249.2106983013154
 31
0.0
  0
LINE
  5
391D
330
A
100
AcDbEntity
  8
0
 62
     7
 48
0.47
100
AcDbLine
 10
544.6730173168181
 20
150.8106831179786
 30
0.0
 11
582.2730014112591
 21
150.8106831179786
 31
0.0
  0
LINE
  5
391E
330
A
100
AcDbEntity
  8
0
 62
     7
 48
0.47
100
AcDbLine
 10
582.2730014112591
 20
148.4106886013131
 30
0.0
 11
544.6730173168181
 21
148.4106886013131
 31
0.0
  0
LINE
  5
391F
330
A
100
AcDbEntity
  8
0
 62
     7
 48
0.47
100
AcDbLine
 10
544.6730173168181
 20
144.8106818263118
 30
0.0
 11
582.2730014112591
 21
144.8106818263118
 31
0.0
  0
LINE
  5
3920
330
A
100
AcDbEntity
  8
0
 62
     7
 48
0.47
100
AcDbLine
 10
582.2730014112591
 20
142.4106873096462
 30
0.0
 11
544.6730173168181
 21
142.4106873096462
 31
0.0
  0
LINE
  5
3921
330
A
100
AcDbEntity
  8
0
 62
     7
 48
0.47
100
AcDbLine
 10
544.6730173168181
 20
251.6107228179871
 30
0.0
 11
582.2730014112591
 21
251.6107228179871
 31
0.0
  0
LINE
  5
3922
330
A
100
AcDbEntity
  8
0
 62
     7
 48
0.47
100
AcDbLine
 10
582.2730014112591
 20
249.2106983013154
 30
0.0
 11
544.6730173168181
 21
249.2106983013154
 31
0.0
  0
LINE
  5
3923
330
A
100
AcDbEntity
  8
0
 62
     7
 48
0.47
100
AcDbLine
 10
544.6730173168181
 20
314.6107363804901
 30
0.0
 11
582.2730014112591
 21
314.6107363804901
 31
0.0
  0
LINE
  5
3924
330
A
100
AcDbEntity
  8
0
 62
     7
 48
0.47
100
AcDbLine
 10
582.2730014112591
 20
312.2107118638181
 30
0.0
 11
544.6730173168181
 21
312.2107118638181
 31
0.0
  0
LINE
  5
3925
330
A
100
AcDbEntity
  8
0
 62
     7
 48
0.47
100
AcDbLine
 10
544.6730173168181
 20
377.6107499429931
 30
0.0
 11
582.2730014112591
 21
377.6107499429931
 31
0.0
  0
LINE
  5
3926
330
A
100
AcDbEntity
  8
0
 62
     7
 48
0.47
100
AcDbLine
 10
582.2730014112591
 20
375.2107254263211
 30
0.0
 11
544.6730173168181
 21
375.2107254263211
 31
0.0
  0
LINE
  5
3927
330
A
100
AcDbEntity
  8
0
 62
     7
 48
0.47
100
AcDbLine
 10
544.6730173168181
 20
257.610724109654
 30
0.0
 11
582.2730014112591
 21
257.610724109654
 31
0.0
  0
LINE
  5
3928
330
A
100
AcDbEntity
  8
0
 62
     7
 48
0.47
100
AcDbLine
 10
582.2730014112591
 20
255.2106995929823
 30
0.0
 11
544.6730173168181
 21
255.2106995929823
 31
0.0
  0
LINE
  5
3929
330
A
100
AcDbEntity
  8
0
 62
     7
 48
0.47
100
AcDbLine
 10
544.6730173168181
 20
320.6107376721571
 30
0.0
 11
582.2730014112591
 21
320.6107376721571
 31
0.0
  0
LINE
  5
392A
330
A
100
AcDbEntity
  8
0
 62
     7
 48
0.47
100
AcDbLine
 10
582.2730014112591
 20
318.2107131554853
 30
0.0
 11
544.6730173168181
 21
318.2107131554853
 31
0.0
  0
LINE
  5
392B
330
A
100
AcDbEntity
  8
0
 62
     7
 48
0.47
100
AcDbLine
 10
544.6730173168181
 20
383.61075123466
 30
0.0
 11
582.2730014112591
 21
383.61075123466
 31
0.0
  0
LINE
  5
392C
330
A
100
AcDbEntity
  8
0
 62
     7
 48
0.47
100
AcDbLine
 10
582.2730014112591
 20
381.2107267179882
 30
0.0
 11
544.6730173168181
 21
381.2107267179882
 31
0.0
  0
LINE
  5
392D
330
A
100
AcDbEntity
  8
0
 62
     7
 48
0.47
100
AcDbLine
 10
544.6730173168181
 20
263.6107254013211
 30
0.0
 11
582.2730014112591
 21
263.6107254013211
 31
0.0
  0
LINE
  5
392E
330
A
100
AcDbEntity
  8
0
 62
     7
 48
0.47
100
AcDbLine
 10
582.2730014112591
 20
261.2107008846493
 30
0.0
 11
544.6730173168181
 21
261.2107008846493
 31
0.0
  0
LINE
  5
392F
330
A
100
AcDbEntity
  8
0
 62
     7
 48
0.47
100
AcDbLine
 10
544.6730173168181
 20
326.610738963824
 30
0.0
 11
582.2730014112591
 21
326.610738963824
 31
0.0
  0
LINE
  5
3930
330
A
100
AcDbEntity
  8
0
 62
     7
 48
0.47
100
AcDbLine
 10
582.2730014112591
 20
324.2107144471521
 30
0.0
 11
544.6730173168181
 21
324.2107144471521
 31
0.0
  0
LINE
  5
3931
330
A
100
AcDbEntity
  8
0
 62
     7
 48
0.47
100
AcDbLine
 10
544.6730173168181
 20
371.6107486513261
 30
0.0
 11
582.2730014112591
 21
371.6107486513261
 31
0.0
  0
LINE
  5
3932
330
A
100
AcDbEntity
  8
0
 62
     7
 48
0.47
100
AcDbLine
 10
582.2730014112591
 20
369.2107241346543
 30
0.0
 11
544.6730173168181
 21
369.2107241346543
 31
0.0
  0
LINE
  5
3933
330
A
100
AcDbEntity
  8
0
 62
     7
 48
0.47
100
AcDbLine
 10
544.6730173168181
 20
308.6107350888232
 30
0.0
 11
582.2730014112591
 21
308.6107350888232
 31
0.0
  0
LINE
  5
3934
330
A
100
AcDbEntity
  8
0
 62
     7
 48
0.47
100
AcDbLine
 10
582.2730014112591
 20
306.2107105721513
 30
0.0
 11
544.6730173168181
 21
306.2107105721513
 31
0.0
  0
LINE
  5
3935
330
A
100
AcDbEntity
  8
0
 62
     7
 48
0.47
100
AcDbLine
 10
544.6730173168181
 20
245.6107215263203
 30
0.0
 11
582.2730014112591
 21
245.6107215263203
 31
0.0
  0
LINE
  5
3936
330
A
100
AcDbEntity
  8
0
 62
     7
 48
0.47
100
AcDbLine
 10
582.2730014112591
 20
243.2106970096483
 30
0.0
 11
544.6730173168181
 21
243.2106970096483
 31
0.0
  0
LINE
  5
3937
330
A
100
AcDbEntity
  8
0
 62
     7
 48
0.47
100
AcDbLine
 10
544.6730173168181
 20
200.6107118388178
 30
0.0
 11
582.2730014112591
 21
200.6107118388178
 31
0.0
  0
LINE
  5
3938
330
A
100
AcDbEntity
  8
0
 62
     7
 48
0.47
100
AcDbLine
 10
582.2730014112591
 20
198.2106873221461
 30
0.0
 11
544.6730173168181
 21
198.2106873221461
 31
0.0
  0
LINE
  5
3939
330
A
100
AcDbEntity
  8
0
 62
     7
 48
0.47
100
AcDbLine
 10
544.6730173168181
 20
194.6107105471506
 30
0.0
 11
582.2730014112591
 21
194.6107105471506
 31
0.0
  0
LINE
  5
393A
330
A
100
AcDbEntity
  8
0
 62
     7
 48
0.47
100
AcDbLine
 10
582.2730014112591
 20
192.2106860304791
 30
0.0
 11
544.6730173168181
 21
192.2106860304791
 31
0.0
  0
LINE
  5
393B
330
A
100
AcDbEntity
  8
0
 62
     7
 48
0.47
100
AcDbLine
 10
544.6730173168181
 20
188.610709255484
 30
0.0
 11
582.2730014112591
 21
188.610709255484
 31
0.0
  0
LINE
  5
393C
330
A
100
AcDbEntity
  8
0
 62
     7
 48
0.47
100
AcDbLine
 10
582.2730014112591
 20
186.2106847388124
 30
0.0
 11
544.6730173168181
 21
186.2106847388124
 31
0.0
  0
LINE
  5
393D
330
A
100
AcDbEntity
  8
0
 62
     7
 48
0.47
100
AcDbLine
 10
544.6730173168181
 20
182.6107079638171
 30
0.0
 11
582.2730014112591
 21
182.6107079638171
 31
0.0
  0
LINE
  5
393E
330
A
100
AcDbEntity
  8
0
 62
     7
 48
0.47
100
AcDbLine
 10
582.2730014112591
 20
180.2106834471454
 30
0.0
 11
544.6730173168181
 21
180.2106834471454
 31
0.0
  0
LINE
  5
393F
330
A
100
AcDbEntity
  8
0
 62
     7
 48
0.47
100
AcDbLine
 10
544.6730173168181
 20
389.6107525263272
 30
0.0
 11
582.2730014112591
 21
389.6107525263272
 31
0.0
  0
LINE
  5
3940
330
A
100
AcDbEntity
  8
0
 62
     7
 48
0.47
100
AcDbLine
 10
582.2730014112591
 20
387.2107280096551
 30
0.0
 11
544.6730173168181
 21
387.2107280096551
 31
0.0
  0
LINE
  5
3941
330
A
100
AcDbEntity
  8
0
 62
     7
 48
0.47
100
AcDbLine
 10
544.6730173168181
 20
138.8106805346445
 30
0.0
 11
582.2730014112591
 21
138.8106805346445
 31
0.0
  0
LINE
  5
3942
330
A
100
AcDbEntity
  8
0
 62
     7
 48
0.47
100
AcDbLine
 10
582.2730014112591
 20
136.4106860179792
 30
0.0
 11
544.6730173168181
 21
136.4106860179792
 31
0.0
  0
LINE
  5
3943
330
A
100
AcDbEntity
  8
0
 62
     7
 48
0.47
100
AcDbLine
 10
482.0733338404972
 20
245.6107215263203
 30
0.0
 11
519.6733179349378
 21
245.6107215263203
 31
0.0
  0
LINE
  5
3944
330
A
100
AcDbEntity
  8
0
 62
     7
 48
0.47
100
AcDbLine
 10
519.6733179349378
 20
243.2106970096483
 30
0.0
 11
482.0733338404972
 21
243.2106970096483
 31
0.0
  0
LINE
  5
3945
330
A
100
AcDbEntity
  8
0
 62
     7
 48
0.47
100
AcDbLine
 10
482.0733338404972
 20
308.6107350888232
 30
0.0
 11
519.6733179349378
 21
308.6107350888232
 31
0.0
  0
LINE
  5
3946
330
A
100
AcDbEntity
  8
0
 62
     7
 48
0.47
100
AcDbLine
 10
519.6733179349378
 20
306.2107105721513
 30
0.0
 11
482.0733338404972
 21
306.2107105721513
 31
0.0
  0
LINE
  5
3947
330
A
100
AcDbEntity
  8
0
 62
     7
 48
0.47
100
AcDbLine
 10
482.0733338404972
 20
326.610738963824
 30
0.0
 11
519.6733179349378
 21
326.610738963824
 31
0.0
  0
LINE
  5
3948
330
A
100
AcDbEntity
  8
0
 62
     7
 48
0.47
100
AcDbLine
 10
519.6733179349378
 20
324.2107144471521
 30
0.0
 11
482.0733338404972
 21
324.2107144471521
 31
0.0
  0
LINE
  5
3949
330
A
100
AcDbEntity
  8
0
 62
     7
100
AcDbLine
 10
466.4729884820896
 20
122.6106810471449
 30
0.0
 11
617.6730330320992
 21
122.6106810471449
 31
0.0
  0
LINE
  5
394A
330
A
100
AcDbEntity
  8
0
 62
     7
 48
0.169875
100
AcDbLine
 10
627.4730231418193
 20
393.3757073368381
 30
0.0
 11
627.4730231418193
 21
379.7857384112197
 31
0.0
  0
LINE
  5
394B
330
A
100
AcDbEntity
  8
0
 62
     7
 48
0.027081
100
AcDbLine
 10
627.4730231418193
 20
393.1566512896801
 30
0.0
 11
629.1873175108687
 21
394.4813595748606
 31
0.0
  0
ARC
  5
394C
330
A
100
AcDbEntity
  8
0
 62
     7
100
AcDbCircle
 10
629.493043576685
 20
394.08572948969
 30
0.0
 40
0.5000001076389125
100
AcDbArc
 50
0.0
 51
127.695303
  0
LINE
  5
394D
330
A
100
AcDbEntity
  8
0
 62
     7
 48
0.17
100
AcDbLine
 10
629.993043684324
 20
394.08572948969
 30
0.0
 11
629.993043684324
 21
380.4857505619168
 31
0.0
  0
ARC
  5
394E
330
A
100
AcDbEntity
  8
0
 62
     7
100
AcDbCircle
 10
629.493043576685
 20
380.4857505619168
 30
0.0
 40
0.5000001076389125
100
AcDbArc
 50
232.3046799999999
 51
0.00001
  0
LINE
  5
394F
330
A
100
AcDbEntity
  8
0
 62
     7
 48
0.027081
100
AcDbLine
 10
629.1873175108687
 20
380.0900904767402
 30
0.0
 11
627.4730231418193
 21
381.4148287619268
 31
0.0
  0
LINE
  5
3956
330
A
100
AcDbEntity
  8
0
 62
     7
 48
0.000187
100
AcDbLine
 10
544.6580033135854
 20
136.4106860179792
 30
0.0
 11
544.6729573168048
 21
136.4106860179792
 31
0.0
  0
LINE
  5
3957
330
A
100
AcDbEntity
  8
0
 62
     7
 48
0.000186
100
AcDbLine
 10
582.2729394112457
 20
136.4106860179792
 30
0.0
 11
582.2878334144522
 21
136.4106860179792
 31
0.0
  0
LINE
  5
395C
330
A
100
AcDbEntity
  8
0
 62
     7
 48
0.00625
100
AcDbLine
 10
618.6730332473772
 20
123.1106811547838
 30
0.0
 11
618.6730332473772
 21
122.6106810471449
 31
0.0
  0
LINE
  5
395E
330
A
100
AcDbEntity
  8
0
 62
     7
100
AcDbLine
 10
618.6730332473772
 20
400.2107308082668
 30
0.0
 11
618.6730332473772
 21
123.1106811547838
 31
0.0
  0
LINE
  5
395F
330
A
100
AcDbEntity
  8
0
 62
     7
 48
0.0125
100
AcDbLine
 10
617.6730330320992
 20
123.1106811547838
 30
0.0
 11
618.6730332473772
 21
123.1106811547838
 31
0.0
  0
LINE
  5
3964
330
A
100
AcDbEntity
  8
0
 62
     7
 48
0.0125
100
AcDbLine
 10
617.6730330320992
 20
122.6106810471449
 30
0.0
 11
618.6730332473772
 21
122.6106810471449
 31
0.0
  0
LINE
  5
3965
330
A
100
AcDbEntity
  8
0
 62
     7
 48
0.00625
100
AcDbLine
 10
617.6730330320992
 20
123.1106811547838
 30
0.0
 11
617.6730330320992
 21
122.6106810471449
 31
0.0
  0
LINE
  5
3966
330
A
100
AcDbEntity
  8
0
 62
     7
 48
0.0975
100
AcDbLine
 10
626.4730229265413
 20
377.5757459354577
 30
0.0
 11
618.6730332473772
 21
377.5757459354577
 31
0.0
  0
LINE
  5
396B
330
A
100
AcDbEntity
  8
0
 62
     7
 48
0.0975
100
AcDbLine
 10
618.6730332473772
 20
395.5757198104521
 30
0.0
 11
626.4730229265413
 21
395.5757198104521
 31
0.0
  0
LINE
  5
3971
330
A
100
AcDbEntity
  8
0
 62
     7
 48
0.0625
100
AcDbLine
 10
618.6730332473772
 20
179.742695346398
 30
0.0
 11
623.6730343237662
 21
179.742695346398
 31
0.0
  0
LINE
  5
3977
330
A
100
AcDbEntity
  8
0
 62
     7
 48
0.0625
100
AcDbLine
 10
618.6730332473772
 20
242.742708908901
 30
0.0
 11
623.6730343237662
 21
242.742708908901
 31
0.0
  0
LINE
  5
397D
330
A
100
AcDbEntity
  8
0
 62
     7
 48
0.0625
100
AcDbLine
 10
618.6730332473772
 20
305.7427224714038
 30
0.0
 11
623.6730343237662
 21
305.7427224714038
 31
0.0
  0
LINE
  5
3983
330
A
100
AcDbEntity
  8
0
 62
     7
 48
0.0625
100
AcDbLine
 10
618.6730332473772
 20
368.7427360339067
 30
0.0
 11
623.6730343237662
 21
368.7427360339067
 31
0.0
  0
ARC
  5
3989
330
A
100
AcDbEntity
  8
0
 62
     7
100
AcDbCircle
 10
626.4730229265413
 20
378.5757461507353
 30
0.0
 40
1.000000215277824
100
AcDbArc
 50
270.000001
 51
0.00001
  0
LINE
  5
398C
330
A
100
AcDbEntity
  8
0
 62
     7
 48
0.2
100
AcDbLine
 10
627.4730231418193
 20
378.5757461507353
 30
0.0
 11
627.4730231418193
 21
394.5757195951741
 31
0.0
  0
ARC
  5
398D
330
A
100
AcDbEntity
  8
0
 62
     7
100
AcDbCircle
 10
626.4730229265413
 20
394.5757195951741
 30
0.0
 40
1.000000215277824
100
AcDbArc
 50
0.0
 51
90.00000300000001
  0
LINE
  5
399E
330
A
100
AcDbEntity
  8
0
 62
     7
 48
0.125
100
AcDbLine
 10
618.6730332473772
 20
216.1227091782066
 30
0.0
 11
628.6730354001554
 21
216.1227091782066
 31
0.0
  0
LINE
  5
399F
330
A
100
AcDbEntity
  8
0
 62
     7
 48
0.125
100
AcDbLine
 10
618.6730332473772
 20
223.1227106851514
 30
0.0
 11
628.6730354001554
 21
223.1227106851514
 31
0.0
  0
LINE
  5
39A6
330
A
100
AcDbEntity
  8
0
 62
     7
 48
0.11875
100
AcDbLine
 10
618.6730332473772
 20
206.6227071330672
 30
0.0
 11
628.1730352925166
 21
206.6227071330672
 31
0.0
  0
LINE
  5
39A7
330
A
100
AcDbEntity
  8
0
 62
     7
 48
0.11875
100
AcDbLine
 10
618.6730332473772
 20
198.6227054108447
 30
0.0
 11
628.1730352925166
 21
198.6227054108447
 31
0.0
  0
LINE
  5
39A8
330
A
100
AcDbEntity
  8
0
 62
     7
 48
0.11875
100
AcDbLine
 10
618.6730332473772
 20
206.6227071330672
 30
0.0
 11
628.1730352925166
 21
206.6227071330672
 31
0.0
  0
LINE
  5
39B1
330
A
100
AcDbEntity
  8
0
 62
     7
 48
0.118748
100
AcDbLine
 10
618.6730332473772
 20
206.6227071330672
 30
0.0
 11
628.1729132924899
 21
206.6227071330672
 31
0.0
  0
LINE
  5
39B2
330
A
100
AcDbEntity
  8
0
 62
     7
 48
0.118748
100
AcDbLine
 10
618.6730332473772
 20
206.6227071330672
 30
0.0
 11
628.1728532924772
 21
206.6227071330672
 31
0.0
  0
LINE
  5
39B7
330
A
100
AcDbEntity
  8
0
 62
     7
 48
0.05875
100
AcDbLine
 10
466.4729884820896
 20
400.410742851325
 30
0.0
 11
466.4729884820896
 21
405.1107558631334
 31
0.0
  0
LINE
  5
39B8
330
A
100
AcDbEntity
  8
0
 62
     7
 48
0.008385
100
AcDbLine
 10
465.8730123529282
 20
405.4107439277141
 30
0.0
 11
466.4729884820896
 21
405.1107558631334
 31
0.0
  0
LINE
  5
39B9
330
A
100
AcDbEntity
  8
0
 62
     7
 48
0.05875
100
AcDbLine
 10
466.4729884820896
 20
400.410742851325
 30
0.0
 11
466.4729884820896
 21
405.1107558631334
 31
0.0
  0
LINE
  5
39BA
330
A
100
AcDbEntity
  8
0
 62
     7
100
AcDbLine
 10
466.4729884820896
 20
400.410742851325
 30
0.0
 11
466.4729884820896
 21
242.7840309177966
 31
0.0
  0
LINE
  5
39BB
330
A
100
AcDbEntity
  8
0
 62
     7
100
AcDbLine
 10
466.4729884820896
 20
178.7840471400223
 30
0.0
 11
466.4729884820896
 21
117.7106859922848
 31
0.0
  0
LINE
  5
39BC
330
A
100
AcDbEntity
  8
0
 62
     7
 48
0.0625
100
AcDbLine
 10
465.8730123529282
 20
400.410742851325
 30
0.0
 11
465.8730123529282
 21
405.4107439277141
 31
0.0
  0
LINE
  5
39BF
330
A
100
AcDbEntity
  8
0
 62
     7
 48
0.002502
100
AcDbLine
 10
466.4729884820896
 20
400.2105468082273
 30
0.0
 11
466.4729884820896
 21
400.410742851325
 31
0.0
  0
LINE
  5
39C1
330
A
100
AcDbEntity
  8
0
 62
     7
100
AcDbLine
 10
465.8730123529282
 20
400.410742851325
 30
0.0
 11
465.8730123529282
 21
242.7840309177966
 31
0.0
  0
LINE
  5
39C2
330
A
100
AcDbEntity
  8
0
 62
     7
100
AcDbLine
 10
465.8730123529282
 20
178.7840471400223
 30
0.0
 11
465.8730123529282
 21
117.4106819277006
 31
0.0
  0
LINE
  5
39C6
330
A
100
AcDbEntity
  8
0
 62
     7
 48
0.008385
100
AcDbLine
 10
465.8730123529282
 20
117.4106819277006
 30
0.0
 11
466.4729884820896
 21
117.7106859922849
 31
0.0
  0
LINE
  5
39C7
330
A
100
AcDbEntity
  8
0
 62
     7
 48
0.125
100
AcDbLine
 10
463.0730237501528
 20
396.4107419902136
 30
0.0
 11
463.0730237501528
 21
386.4107398374353
 31
0.0
  0
LINE
  5
39C8
330
A
100
AcDbEntity
  8
0
 62
     7
 48
0.125
100
AcDbLine
 10
463.0730237501528
 20
376.4107376846571
 30
0.0
 11
463.0730237501528
 21
366.4107355318789
 31
0.0
  0
LINE
  5
39C9
330
A
100
AcDbEntity
  8
0
 62
     7
 48
0.125
100
AcDbLine
 10
463.0730237501528
 20
356.4107333791006
 30
0.0
 11
463.0730237501528
 21
346.4107312263223
 31
0.0
  0
LINE
  5
39CA
330
A
100
AcDbEntity
  8
0
 62
     7
 48
0.125
100
AcDbLine
 10
463.0730237501528
 20
336.4107290735441
 30
0.0
 11
463.0730237501528
 21
326.4107269207658
 31
0.0
  0
LINE
  5
39CB
330
A
100
AcDbEntity
  8
0
 62
     7
 48
0.125
100
AcDbLine
 10
463.0730237501528
 20
316.4107247679876
 30
0.0
 11
463.0730237501528
 21
306.4107226152094
 31
0.0
  0
LINE
  5
39CC
330
A
100
AcDbEntity
  8
0
 62
     7
 48
0.125
100
AcDbLine
 10
463.0730237501528
 20
296.4107204624312
 30
0.0
 11
463.0730237501528
 21
286.410718309653
 31
0.0
  0
LINE
  5
39CD
330
A
100
AcDbEntity
  8
0
 62
     7
 48
0.125
100
AcDbLine
 10
463.0730237501528
 20
276.4107161568745
 30
0.0
 11
463.0730237501528
 21
266.4107140040964
 31
0.0
  0
LINE
  5
39CE
330
A
100
AcDbEntity
  8
0
 62
     7
 48
0.125
100
AcDbLine
 10
463.0730237501528
 20
256.4107118513183
 30
0.0
 11
463.0730237501528
 21
246.4107096985399
 31
0.0
  0
LINE
  5
39CF
330
A
100
AcDbEntity
  8
0
 62
     7
 48
0.125
100
AcDbLine
 10
463.0730237501528
 20
236.4107075457618
 30
0.0
 11
463.0730237501528
 21
226.4107053929834
 31
0.0
  0
LINE
  5
39D0
330
A
100
AcDbEntity
  8
0
 62
     7
 48
0.125
100
AcDbLine
 10
463.0730237501528
 20
216.410703240205
 30
0.0
 11
463.0730237501528
 21
206.4107010874271
 31
0.0
  0
LINE
  5
39D1
330
A
100
AcDbEntity
  8
0
 62
     7
 48
0.125
100
AcDbLine
 10
463.0730237501528
 20
196.4106989346488
 30
0.0
 11
463.0730237501528
 21
186.4106967818705
 31
0.0
  0
LINE
  5
39D2
330
A
100
AcDbEntity
  8
0
 62
     7
 48
0.125
100
AcDbLine
 10
463.0730237501528
 20
176.4106946290921
 30
0.0
 11
463.0730237501528
 21
166.4106924763139
 31
0.0
  0
LINE
  5
39D3
330
A
100
AcDbEntity
  8
0
 62
     7
 48
0.125
100
AcDbLine
 10
463.0730237501528
 20
156.4106903235358
 30
0.0
 11
463.0730237501528
 21
146.4106881707575
 31
0.0
  0
LINE
  5
39D4
330
A
100
AcDbEntity
  8
0
 62
     7
 48
0.125
100
AcDbLine
 10
463.0730237501528
 20
136.4106860179792
 30
0.0
 11
463.0730237501528
 21
126.410683865201
 31
0.0
  0
LINE
  5
39D5
330
A
100
AcDbEntity
  8
0
 62
     7
 48
0.05
100
AcDbLine
 10
465.8730123529282
 20
117.4106819277006
 30
0.0
 11
461.8730114918167
 21
117.4106819277006
 31
0.0
  0
LINE
  5
39D6
330
A
100
AcDbEntity
  8
0
 62
     7
 48
0.05
100
AcDbLine
 10
465.8730123529282
 20
405.4107439277141
 30
0.0
 11
461.8730114918167
 21
405.4107439277141
 31
0.0
  0
LINE
  5
39D7
330
A
100
AcDbEntity
  8
0
 62
     7
 48
0.02
100
AcDbLine
 10
463.0730237501528
 20
396.4107419902136
 30
0.0
 11
464.6730000945921
 21
396.4107419902136
 31
0.0
  0
LINE
  5
39D9
330
A
100
AcDbEntity
  8
0
 62
     7
100
AcDbLine
 10
461.8730114918168
 20
117.4106819277007
 30
0.0
 11
461.8730114918167
 21
400.410742851325
 31
0.0
  0
LINE
  5
39DB
330
A
100
AcDbEntity
  8
0
 62
     7
 48
0.125
100
AcDbLine
 10
464.6730000945921
 20
386.4107398374353
 30
0.0
 11
464.6730000945921
 21
396.4107419902136
 31
0.0
  0
LINE
  5
39DC
330
A
100
AcDbEntity
  8
0
 62
     7
 48
0.02
100
AcDbLine
 10
464.6730000945921
 20
386.4107398374353
 30
0.0
 11
463.0730237501528
 21
386.4107398374353
 31
0.0
  0
LINE
  5
39DD
330
A
100
AcDbEntity
  8
0
 62
     7
 48
0.125
100
AcDbLine
 10
464.6730000945921
 20
366.4107355318789
 30
0.0
 11
464.6730000945921
 21
376.4107376846571
 31
0.0
  0
LINE
  5
39DE
330
A
100
AcDbEntity
  8
0
 62
     7
 48
0.02
100
AcDbLine
 10
464.6730000945921
 20
366.4107355318789
 30
0.0
 11
463.0730237501528
 21
366.4107355318789
 31
0.0
  0
LINE
  5
39DF
330
A
100
AcDbEntity
  8
0
 62
     7
 48
0.02
100
AcDbLine
 10
463.0730237501528
 20
376.4107376846571
 30
0.0
 11
464.6730000945921
 21
376.4107376846571
 31
0.0
  0
LINE
  5
39E0
330
A
100
AcDbEntity
  8
0
 62
     7
 48
0.125
100
AcDbLine
 10
464.6730000945921
 20
346.4107312263223
 30
0.0
 11
464.6730000945921
 21
356.4107333791006
 31
0.0
  0
LINE
  5
39E1
330
A
100
AcDbEntity
  8
0
 62
     7
 48
0.02
100
AcDbLine
 10
464.6730000945921
 20
346.4107312263223
 30
0.0
 11
463.0730237501528
 21
346.4107312263223
 31
0.0
  0
LINE
  5
39E2
330
A
100
AcDbEntity
  8
0
 62
     7
 48
0.02
100
AcDbLine
 10
463.0730237501528
 20
356.4107333791006
 30
0.0
 11
464.6730000945921
 21
356.4107333791006
 31
0.0
  0
LINE
  5
39E3
330
A
100
AcDbEntity
  8
0
 62
     7
 48
0.125
100
AcDbLine
 10
464.6730000945921
 20
326.4107269207658
 30
0.0
 11
464.6730000945921
 21
336.4107290735441
 31
0.0
  0
LINE
  5
39E4
330
A
100
AcDbEntity
  8
0
 62
     7
 48
0.02
100
AcDbLine
 10
464.6730000945921
 20
326.4107269207658
 30
0.0
 11
463.0730237501528
 21
326.4107269207658
 31
0.0
  0
LINE
  5
39E5
330
A
100
AcDbEntity
  8
0
 62
     7
 48
0.02
100
AcDbLine
 10
463.0730237501528
 20
336.4107290735441
 30
0.0
 11
464.6730000945921
 21
336.4107290735441
 31
0.0
  0
LINE
  5
39E6
330
A
100
AcDbEntity
  8
0
 62
     7
 48
0.125
100
AcDbLine
 10
464.6730000945921
 20
306.4107226152094
 30
0.0
 11
464.6730000945921
 21
316.4107247679876
 31
0.0
  0
LINE
  5
39E7
330
A
100
AcDbEntity
  8
0
 62
     7
 48
0.02
100
AcDbLine
 10
464.6730000945921
 20
306.4107226152094
 30
0.0
 11
463.0730237501528
 21
306.4107226152094
 31
0.0
  0
LINE
  5
39E8
330
A
100
AcDbEntity
  8
0
 62
     7
 48
0.02
100
AcDbLine
 10
463.0730237501528
 20
316.4107247679876
 30
0.0
 11
464.6730000945921
 21
316.4107247679876
 31
0.0
  0
LINE
  5
39E9
330
A
100
AcDbEntity
  8
0
 62
     7
 48
0.125
100
AcDbLine
 10
464.6730000945921
 20
286.410718309653
 30
0.0
 11
464.6730000945921
 21
296.4107204624312
 31
0.0
  0
LINE
  5
39EA
330
A
100
AcDbEntity
  8
0
 62
     7
 48
0.02
100
AcDbLine
 10
464.6730000945921
 20
286.410718309653
 30
0.0
 11
463.0730237501528
 21
286.410718309653
 31
0.0
  0
LINE
  5
39EB
330
A
100
AcDbEntity
  8
0
 62
     7
 48
0.02
100
AcDbLine
 10
463.0730237501528
 20
296.4107204624312
 30
0.0
 11
464.6730000945921
 21
296.4107204624312
 31
0.0
  0
LINE
  5
39EC
330
A
100
AcDbEntity
  8
0
 62
     7
 48
0.125
100
AcDbLine
 10
464.6730000945921
 20
266.4107140040964
 30
0.0
 11
464.6730000945921
 21
276.4107161568745
 31
0.0
  0
LINE
  5
39ED
330
A
100
AcDbEntity
  8
0
 62
     7
 48
0.02
100
AcDbLine
 10
464.6730000945921
 20
266.4107140040964
 30
0.0
 11
463.0730237501528
 21
266.4107140040964
 31
0.0
  0
LINE
  5
39EE
330
A
100
AcDbEntity
  8
0
 62
     7
 48
0.02
100
AcDbLine
 10
463.0730237501528
 20
276.4107161568745
 30
0.0
 11
464.6730000945921
 21
276.4107161568745
 31
0.0
  0
LINE
  5
39EF
330
A
100
AcDbEntity
  8
0
 62
     7
 48
0.125
100
AcDbLine
 10
464.6730000945921
 20
246.4107096985399
 30
0.0
 11
464.6730000945921
 21
256.4107118513183
 31
0.0
  0
LINE
  5
39F0
330
A
100
AcDbEntity
  8
0
 62
     7
 48
0.02
100
AcDbLine
 10
464.6730000945921
 20
246.4107096985399
 30
0.0
 11
463.0730237501528
 21
246.4107096985399
 31
0.0
  0
LINE
  5
39F1
330
A
100
AcDbEntity
  8
0
 62
     7
 48
0.02
100
AcDbLine
 10
463.0730237501528
 20
256.4107118513183
 30
0.0
 11
464.6730000945921
 21
256.4107118513183
 31
0.0
  0
LINE
  5
39F2
330
A
100
AcDbEntity
  8
0
 62
     7
 48
0.125
100
AcDbLine
 10
464.6730000945921
 20
226.4107053929834
 30
0.0
 11
464.6730000945921
 21
236.4107075457618
 31
0.0
  0
LINE
  5
39F3
330
A
100
AcDbEntity
  8
0
 62
     7
 48
0.02
100
AcDbLine
 10
464.6730000945921
 20
226.4107053929834
 30
0.0
 11
463.0730237501528
 21
226.4107053929834
 31
0.0
  0
LINE
  5
39F4
330
A
100
AcDbEntity
  8
0
 62
     7
 48
0.02
100
AcDbLine
 10
463.0730237501528
 20
236.4107075457618
 30
0.0
 11
464.6730000945921
 21
236.4107075457618
 31
0.0
  0
LINE
  5
39F5
330
A
100
AcDbEntity
  8
0
 62
     7
 48
0.125
100
AcDbLine
 10
464.6730000945921
 20
206.4107010874271
 30
0.0
 11
464.6730000945921
 21
216.410703240205
 31
0.0
  0
LINE
  5
39F6
330
A
100
AcDbEntity
  8
0
 62
     7
 48
0.02
100
AcDbLine
 10
464.6730000945921
 20
206.4107010874271
 30
0.0
 11
463.0730237501528
 21
206.4107010874271
 31
0.0
  0
LINE
  5
39F7
330
A
100
AcDbEntity
  8
0
 62
     7
 48
0.02
100
AcDbLine
 10
463.0730237501528
 20
216.410703240205
 30
0.0
 11
464.6730000945921
 21
216.410703240205
 31
0.0
  0
LINE
  5
39F8
330
A
100
AcDbEntity
  8
0
 62
     7
 48
0.125
100
AcDbLine
 10
464.6730000945921
 20
186.4106967818705
 30
0.0
 11
464.6730000945921
 21
196.4106989346488
 31
0.0
  0
LINE
  5
39F9
330
A
100
AcDbEntity
  8
0
 62
     7
 48
0.02
100
AcDbLine
 10
464.6730000945921
 20
186.4106967818705
 30
0.0
 11
463.0730237501528
 21
186.4106967818705
 31
0.0
  0
LINE
  5
39FA
330
A
100
AcDbEntity
  8
0
 62
     7
 48
0.02
100
AcDbLine
 10
463.0730237501528
 20
196.4106989346488
 30
0.0
 11
464.6730000945921
 21
196.4106989346488
 31
0.0
  0
LINE
  5
39FB
330
A
100
AcDbEntity
  8
0
 62
     7
 48
0.125
100
AcDbLine
 10
464.6730000945921
 20
166.4106924763139
 30
0.0
 11
464.6730000945921
 21
176.4106946290921
 31
0.0
  0
LINE
  5
39FC
330
A
100
AcDbEntity
  8
0
 62
     7
 48
0.02
100
AcDbLine
 10
464.6730000945921
 20
166.4106924763139
 30
0.0
 11
463.0730237501528
 21
166.4106924763139
 31
0.0
  0
LINE
  5
39FD
330
A
100
AcDbEntity
  8
0
 62
     7
 48
0.02
100
AcDbLine
 10
463.0730237501528
 20
176.4106946290921
 30
0.0
 11
464.6730000945921
 21
176.4106946290921
 31
0.0
  0
LINE
  5
39FE
330
A
100
AcDbEntity
  8
0
 62
     7
 48
0.125
100
AcDbLine
 10
464.6730000945921
 20
146.4106881707575
 30
0.0
 11
464.6730000945921
 21
156.4106903235358
 31
0.0
  0
LINE
  5
39FF
330
A
100
AcDbEntity
  8
0
 62
     7
 48
0.02
100
AcDbLine
 10
464.6730000945921
 20
146.4106881707575
 30
0.0
 11
463.0730237501528
 21
146.4106881707575
 31
0.0
  0
LINE
  5
3A00
330
A
100
AcDbEntity
  8
0
 62
     7
 48
0.02
100
AcDbLine
 10
463.0730237501528
 20
156.4106903235358
 30
0.0
 11
464.6730000945921
 21
156.4106903235358
 31
0.0
  0
LINE
  5
3A01
330
A
100
AcDbEntity
  8
0
 62
     7
 48
0.125
100
AcDbLine
 10
464.6730000945921
 20
126.410683865201
 30
0.0
 11
464.6730000945921
 21
136.4106860179792
 31
0.0
  0
LINE
  5
3A02
330
A
100
AcDbEntity
  8
0
 62
     7
 48
0.02
100
AcDbLine
 10
464.6730000945921
 20
126.410683865201
 30
0.0
 11
463.0730237501528
 21
126.410683865201
 31
0.0
  0
LINE
  5
3A03
330
A
100
AcDbEntity
  8
0
 62
     7
 48
0.02
100
AcDbLine
 10
463.0730237501528
 20
136.4106860179792
 30
0.0
 11
464.6730000945921
 21
136.4106860179792
 31
0.0
  0
LINE
  5
3A05
330
A
100
AcDbEntity
  8
0
 62
     7
 48
0.0625
100
AcDbLine
 10
461.8730114918167
 20
405.4107439277141
 30
0.0
 11
461.8730114918167
 21
400.410742851325
 31
0.0
  0
LINE
  5
3A06
330
A
100
AcDbEntity
  8
0
 62
     7
 48
0.07775
100
AcDbLine
 10
618.6729732473637
 20
399.0607665607051
 30
0.0
 11
624.8930045863987
 21
399.0607665607051
 31
0.0
  0
LINE
  5
3A0A
330
A
100
AcDbEntity
  8
0
 62
     7
 48
0.031064
100
AcDbLine
 10
625.8930048016766
 20
395.5756598104392
 30
0.0
 11
625.8930048016766
 21
398.0607663454274
 31
0.0
  0
ARC
  5
3A0B
330
A
100
AcDbEntity
  8
0
 62
     7
100
AcDbCircle
 10
624.8930045863987
 20
398.0607663454274
 30
0.0
 40
1.000000215277824
100
AcDbArc
 50
0.0
 51
90.00000300000001
  0
LINE
  5
3A11
330
A
100
AcDbEntity
  8
0
 62
     7
100
AcDbLine
 10
441.072989014034
 20
123.1296931588764
 30
0.0
 11
441.072989014034
 21
399.6917486965416
 31
0.0
  0
LINE
  5
3A15
330
A
100
AcDbEntity
  8
0
 62
     7
100
AcDbLine
 10
462.073023534875
 20
400.410742851325
 30
0.0
 11
462.073023534875
 21
117.4106819277007
 31
0.0
  0
LINE
  5
3A17
330
A
100
AcDbEntity
  8
0
 62
     7
 48
0.0625
100
AcDbLine
 10
462.073023534875
 20
400.410742851325
 30
0.0
 11
462.073023534875
 21
405.4107439277141
 31
0.0
  0
LINE
  5
3A18
330
A
100
AcDbEntity
  8
0
 62
     7
 48
0.1
100
AcDbLine
 10
462.073023534875
 20
405.4107439277141
 30
0.0
 11
454.0729918126458
 21
405.4107439277141
 31
0.0
  0
LINE
  5
3A25
330
A
100
AcDbEntity
  8
0
 62
     7
 48
0.087285
100
AcDbLine
 10
447.1163563150366
 20
404.8021017966869
 30
0.0
 11
454.0725958125603
 21
405.4107439277141
 31
0.0
  0
LINE
  5
3A31
330
A
100
AcDbEntity
  8
0
 62
     7
 48
0.087285
100
AcDbLine
 10
447.1163563150366
 20
118.0193100587245
 30
0.0
 11
454.0725958125603
 21
117.410711927707
 31
0.0
  0
LINE
  5
3A3D
330
A
100
AcDbEntity
  8
0
 62
     7
 48
0.1
100
AcDbLine
 10
462.073023534875
 20
117.4106819277006
 30
0.0
 11
454.0729918126458
 21
117.4106819277006
 31
0.0
  0
LINE
  5
3A3E
330
A
100
AcDbEntity
  8
0
 62
     7
 48
0.01856
100
AcDbLine
 10
445.6372299966138
 20
404.6727077688315
 30
0.0
 11
447.1163563150366
 21
404.8021017966869
 31
0.0
  0
LINE
  5
3A44
330
A
100
AcDbEntity
  8
0
 62
     7
 48
0.01856
100
AcDbLine
 10
445.6372299966138
 20
118.1487200865839
 30
0.0
 11
447.1163563150366
 21
118.0193100587245
 31
0.0
  0
ARC
  5
3A46
330
A
100
AcDbEntity
  8
0
 62
     7
100
AcDbCircle
 10
446.0729900904232
 20
123.1296931588764
 30
0.0
 40
5.000001076389123
100
AcDbArc
 50
180.000005
 51
265.0000019999999
  0
ARC
  5
3A48
330
A
100
AcDbEntity
  8
0
 62
     7
100
AcDbCircle
 10
446.0729900904232
 20
399.6917486965416
 30
0.0
 40
5.000001076389123
100
AcDbArc
 50
95.00000099999999
 51
180.000005
  0
LINE
  5
3A49
330
A
100
AcDbEntity
  8
0
 62
     7
 48
0.013873
100
AcDbLine
 10
435.0914197263348
 20
175.0340163327239
 30
0.0
 11
433.9858294883262
 21
175.1307263535435
 31
0.0
  0
LINE
  5
3A4A
330
A
100
AcDbEntity
  8
0
 62
     7
 48
0.075055
100
AcDbLine
 10
435.0914197263348
 20
175.0340163327239
 30
0.0
 11
441.072989014034
 21
174.5107002200658
 31
0.0
  0
LINE
  5
3A4B
330
A
100
AcDbEntity
  8
0
 62
     7
 48
0.007071
100
AcDbLine
 10
435.472981808477
 20
177.5107008658991
 30
0.0
 11
435.8730058945933
 21
177.1107067797892
 31
0.0
  0
LINE
  5
3A4C
330
A
100
AcDbEntity
  8
0
 62
     7
 48
0.007071
100
AcDbLine
 10
436.2729999807029
 20
177.5107008658991
 30
0.0
 11
435.8730058945933
 21
177.1107067797892
 31
0.0
  0
LINE
  5
3A4D
330
A
100
AcDbEntity
  8
0
 62
     7
 48
0.007071
100
AcDbLine
 10
436.2729999807029
 20
177.5107008658991
 30
0.0
 11
436.6729940668131
 21
177.1107067797892
 31
0.0
  0
LINE
  5
3A4E
330
A
100
AcDbEntity
  8
0
 62
     7
 48
0.007071
100
AcDbLine
 10
437.0729881529227
 20
177.5107008658991
 30
0.0
 11
436.6729940668131
 21
177.1107067797892
 31
0.0
  0
LINE
  5
3A4F
330
A
100
AcDbEntity
  8
0
 62
     7
 48
0.007071
100
AcDbLine
 10
437.0729881529227
 20
177.5107008658991
 30
0.0
 11
437.4729822390326
 21
177.1107067797892
 31
0.0
  0
LINE
  5
3A50
330
A
100
AcDbEntity
  8
0
 62
     7
 48
0.007071
100
AcDbLine
 10
437.873006325149
 20
177.5107008658991
 30
0.0
 11
437.4729822390326
 21
177.1107067797892
 31
0.0
  0
LINE
  5
3A51
330
A
100
AcDbEntity
  8
0
 62
     7
 48
0.007071
100
AcDbLine
 10
437.873006325149
 20
177.5107008658991
 30
0.0
 11
438.2730004112587
 21
177.1107067797892
 31
0.0
  0
LINE
  5
3A52
330
A
100
AcDbEntity
  8
0
 62
     7
 48
0.007071
100
AcDbLine
 10
438.6729944973686
 20
177.5107008658991
 30
0.0
 11
438.2730004112587
 21
177.1107067797892
 31
0.0
  0
LINE
  5
3A53
330
A
100
AcDbEntity
  8
0
 62
     7
 48
0.007071
100
AcDbLine
 10
438.6729944973686
 20
177.5107008658991
 30
0.0
 11
439.0729885834783
 21
177.1107067797892
 31
0.0
  0
LINE
  5
3A54
330
A
100
AcDbEntity
  8
0
 62
     7
 48
0.007071
100
AcDbLine
 10
439.4729826695884
 20
177.5107008658991
 30
0.0
 11
439.0729885834783
 21
177.1107067797892
 31
0.0
  0
LINE
  5
3A55
330
A
100
AcDbEntity
  8
0
 62
     7
 48
0.007071
100
AcDbLine
 10
439.4729826695884
 20
177.5107008658991
 30
0.0
 11
439.8730067557046
 21
177.1107067797892
 31
0.0
  0
LINE
  5
3A56
330
A
100
AcDbEntity
  8
0
 62
     7
 48
0.007071
100
AcDbLine
 10
440.2730008418139
 20
177.5107008658991
 30
0.0
 11
439.8730067557046
 21
177.1107067797892
 31
0.0
  0
LINE
  5
3A57
330
A
100
AcDbEntity
  8
0
 62
     7
 48
0.007071
100
AcDbLine
 10
440.2730008418139
 20
177.5107008658991
 30
0.0
 11
440.6729949279243
 21
177.1107067797892
 31
0.0
  0
LINE
  5
3A58
330
A
100
AcDbEntity
  8
0
 62
     7
 48
0.007071
100
AcDbLine
 10
441.072989014034
 20
177.5107008658991
 30
0.0
 11
440.6729949279243
 21
177.1107067797892
 31
0.0
  0
LINE
  5
3A5B
330
A
100
AcDbEntity
  8
0
 62
     7
 48
0.006039
100
AcDbLine
 10
435.0729877223669
 20
177.1107067797892
 30
0.0
 11
434.7313436488186
 21
177.4523208533312
 31
0.0
  0
LINE
  5
3A5C
330
A
100
AcDbEntity
  8
0
 62
     7
 48
0.007071
100
AcDbLine
 10
435.472981808477
 20
177.5107008658991
 30
0.0
 11
435.0729877223669
 21
177.1107067797892
 31
0.0
  0
LINE
  5
3A5D
330
A
100
AcDbEntity
  8
0
 62
     7
 48
0.001032
100
AcDbLine
 10
434.6729936362573
 20
177.5107008658991
 30
0.0
 11
434.7313436488186
 21
177.4523208533312
 31
0.0
  0
LINE
  5
3A5F
330
A
100
AcDbEntity
  8
0
 62
     7
 48
0.017297
100
AcDbLine
 10
433.0729872918112
 20
177.5107008658991
 30
0.0
 11
433.0729872918112
 21
176.1269425680064
 31
0.0
  0
LINE
  5
3A60
330
A
100
AcDbEntity
  8
0
 62
     7
 48
0.02
100
AcDbLine
 10
433.0729872918112
 20
177.5107008658991
 30
0.0
 11
434.6729936362573
 21
177.5107008658991
 31
0.0
  0
ARC
  5
3A61
330
A
100
AcDbEntity
  8
0
 62
     7
100
AcDbCircle
 10
434.0729875070891
 20
176.1269425680064
 30
0.0
 40
1.000000215277824
100
AcDbArc
 50
180.000005
 51
265.0000019999999
  0
LINE
  5
3A7B
330
A
100
AcDbEntity
  8
0
 62
     7
 48
0.00625
100
AcDbLine
 10
441.072989014034
 20
170.210681294367
 30
0.0
 11
440.572988906395
 21
170.210681294367
 31
0.0
  0
LINE
  5
3A7E
330
A
100
AcDbEntity
  8
0
 62
     7
 48
0.0125
100
AcDbLine
 10
439.0729885834783
 20
127.1106820158951
 30
0.0
 11
439.0729885834783
 21
126.1106818006173
 31
0.0
  0
LINE
  5
3A7F
330
A
100
AcDbEntity
  8
0
 62
     7
100
AcDbLine
 10
439.0729885834783
 20
127.1106820158951
 30
0.0
 11
439.0729885834783
 21
168.2106808638114
 31
0.0
  0
LINE
  5
3A80
330
A
100
AcDbEntity
  8
0
 62
     7
 48
0.0125
100
AcDbLine
 10
439.0729885834783
 20
169.2106810790891
 30
0.0
 11
439.0729885834783
 21
168.2106808638114
 31
0.0
  0
LINE
  5
3A81
330
A
100
AcDbEntity
  8
0
 62
     7
 48
0.022535
100
AcDbLine
 10
439.0729885834783
 20
126.1106818006173
 30
0.0
 11
440.572988906395
 21
125.1106815853395
 31
0.0
  0
LINE
  5
3A84
330
A
100
AcDbEntity
  8
0
 62
     7
 48
0.022535
100
AcDbLine
 10
439.0729885834783
 20
169.2106810790891
 30
0.0
 11
440.572988906395
 21
170.210681294367
 31
0.0
  0
LINE
  5
3A86
330
A
100
AcDbEntity
  8
0
 62
     7
 48
0.00625
100
AcDbLine
 10
441.072989014034
 20
125.1106815853395
 30
0.0
 11
440.572988906395
 21
125.1106815853395
 31
0.0
  0
LINE
  5
3A87
330
A
100
AcDbEntity
  8
0
 62
     7
 48
0.038608
100
AcDbLine
 10
627.4729011417932
 20
379.7107263950714
 30
0.0
 11
630.5615238067048
 21
379.7107263950714
 31
0.0
  0
LINE
  5
3A88
330
A
100
AcDbEntity
  8
0
 62
     7
 48
0.058357
100
AcDbLine
 10
630.5615238067048
 20
396.7107300547944
 30
0.0
 11
625.8929448016632
 21
396.7107300547944
 31
0.0
  0
LINE
  5
3A89
330
A
100
AcDbEntity
  8
0
 62
     7
 48
0.05591
100
AcDbLine
 10
633.5615244525382
 20
381.7379488314875
 30
0.0
 11
633.5615244525381
 21
394.6835076183785
 31
0.0
  0
ARC
  5
3A8A
330
A
100
AcDbEntity
  8
0
 62
     7
100
AcDbCircle
 10
633.0615243448992
 20
381.7379488314875
 30
0.0
 40
0.5000001076389125
100
AcDbArc
 50
242.300523
 51
0.00001
  0
LINE
  5
3A8B
330
A
100
AcDbEntity
  8
0
 62
     7
 48
0.017896
100
AcDbLine
 10
631.5615240219827
 20
381.9607268794464
 30
0.0
 11
632.8291042948647
 21
381.2952607361866
 31
0.0
  0
LINE
  5
3A8C
330
A
100
AcDbEntity
  8
0
 62
     7
 48
0.030778
100
AcDbLine
 10
630.5615238067048
 20
379.7107263950714
 30
0.0
 11
631.5615240219827
 21
381.9607268794464
 31
0.0
  0
LINE
  5
3A8D
330
A
100
AcDbEntity
  8
0
 62
     7
 48
0.044608
100
AcDbLine
 10
633.5615244525382
 20
386.2107277943773
 30
0.0
 11
629.9929216842972
 21
386.2107277943773
 31
0.0
  0
LINE
  5
3A8E
330
A
100
AcDbEntity
  8
0
 62
     7
 48
0.030778
100
AcDbLine
 10
631.5615240219827
 20
394.4607295704193
 30
0.0
 11
630.5615238067048
 21
396.7107300547944
 31
0.0
  0
LINE
  5
3A8F
330
A
100
AcDbEntity
  8
0
 62
     7
 48
0.017896
100
AcDbLine
 10
632.8291042948647
 20
395.1261957136795
 30
0.0
 11
631.5615240219827
 21
394.4607295704193
 31
0.0
  0
ARC
  5
3A90
330
A
100
AcDbEntity
  8
0
 62
     7
100
AcDbCircle
 10
633.0615243448992
 20
394.6835076183785
 30
0.0
 40
0.5000001076389125
100
AcDbArc
 50
0.0
 51
117.6994719999999
  0
LINE
  5
3A92
330
A
100
AcDbEntity
  8
0
 62
     7
 48
0.044608
100
AcDbLine
 10
633.5615244525382
 20
390.2107286554886
 30
0.0
 11
629.9929216842972
 21
390.2107286554886
 31
0.0
  0
ARC
  5
3E3C
330
A
100
AcDbEntity
  8
0
  6
DASHED
 62
     4
100
AcDbCircle
 10
518.8730237626527
 20
180.784047570578
 30
0.0
 40
2.000000430555648
100
AcDbArc
 50
270.000001
 51
0.00001
  0
LINE
  5
3E3D
330
A
100
AcDbEntity
  8
0
  6
DASHED
 62
     4
100
AcDbLine
 10
467.8730127834836
 20
178.7840471400223
 30
0.0
 11
518.8730237626527
 21
178.7840471400223
 31
0.0
  0
LINE
  5
3E3E
330
A
100
AcDbEntity
  8
0
  6
DASHED
 62
     4
100
AcDbLine
 10
520.8730241932085
 20
180.784047570578
 30
0.0
 11
520.8730241932085
 21
240.7840604872474
 31
0.0
  0
ARC
  5
3E3F
330
A
100
AcDbEntity
  8
0
  6
DASHED
 62
     4
100
AcDbCircle
 10
518.8730237626527
 20
240.7840604872474
 30
0.0
 40
2.000000430555648
100
AcDbArc
 50
0.0
 51
90.00000300000001
  0
LINE
  5
3E40
330
A
100
AcDbEntity
  8
0
  6
DASHED
 62
     4
100
AcDbLine
 10
518.8730237626527
 20
242.7840609178032
 30
0.0
 11
467.8730127834836
 21
242.7840609178032
 31
0.0
  0
LINE
  5
3E41
330
A
100
AcDbEntity
  8
0
  6
DASHED
 62
     4
 48
0.1375
100
AcDbLine
 10
494.873018595985
 20
181.7840477858559
 30
0.0
 11
483.8730162279288
 21
181.7840477858559
 31
0.0
  0
ARC
  5
3E42
330
A
100
AcDbEntity
  8
0
  6
DASHED
 62
     4
100
AcDbCircle
 10
483.8730162279288
 20
187.7840490775228
 30
0.0
 40
6.000001291666947
100
AcDbArc
 50
4.411725999999998
 51
270.000001
  0
ARC
  5
3E43
330
A
100
AcDbEntity
  8
0
  6
DASHED
 62
     4
100
AcDbCircle
 10
490.3537316230829
 20
188.2840491851617
 30
0.0
 40
0.5000001076389125
100
AcDbArc
 50
184.41172
 51
270.000001
  0
LINE
  5
3E44
330
A
100
AcDbEntity
  8
0
  6
DASHED
 62
     4
 48
0.036095
100
AcDbLine
 10
490.3537316230829
 20
187.7840490775228
 30
0.0
 11
493.2413662447264
 21
187.7840490775228
 31
0.0
  0
ARC
  5
3E45
330
A
100
AcDbEntity
  8
0
  6
DASHED
 62
     4
100
AcDbCircle
 10
493.2413662447264
 20
188.2840491851617
 30
0.0
 40
0.5000001076389125
100
AcDbArc
 50
270.000001
 51
340.632408
  0
LINE
  5
3E46
330
A
100
AcDbEntity
  8
0
  6
DASHED
 62
     4
 48
0.264223
100
AcDbLine
 10
503.4102524338614
 20
215.7045870881941
 30
0.0
 11
510.4201419429351
 21
235.6462733811961
 31
0.0
  0
LINE
  5
3E47
330
A
100
AcDbEntity
  8
0
  6
DASHED
 62
     4
 48
0.270925
100
AcDbLine
 10
493.7130463462686
 20
188.1182171494615
 30
0.0
 11
500.9007918936305
 21
208.5656695513436
 31
0.0
  0
ARC
  5
3E48
330
A
100
AcDbEntity
  8
0
  6
DASHED
 62
     4
100
AcDbCircle
 10
512.8730224709859
 20
234.7840591955805
 30
0.0
 40
2.600000559722344
100
AcDbArc
 50
340.632408
 51
160.632371
  0
LINE
  5
3E49
330
A
100
AcDbEntity
  8
0
  6
DASHED
 62
     4
 48
0.308776
100
AcDbLine
 10
505.8951169687976
 20
207.093349234386
 30
0.0
 11
497.7032192052643
 21
183.7891442175084
 31
0.0
  0
LINE
  5
3E4A
330
A
100
AcDbEntity
  8
0
  6
DASHED
 62
     4
 48
0.260366
100
AcDbLine
 10
515.3259049990366
 20
233.9218150099585
 30
0.0
 11
508.4183095119847
 21
214.2712987796389
 31
0.0
  0
ARC
  5
3E4B
330
A
100
AcDbEntity
  8
0
  6
DASHED
 62
     4
100
AcDbCircle
 10
494.873018595985
 20
184.7840484316893
 30
0.0
 40
3.000000645833473
100
AcDbArc
 50
270.000001
 51
340.632408
  0
LINE
  5
3E4C
330
A
100
AcDbEntity
  8
0
 62
     7
 48
0.025
100
AcDbLine
 10
465.8730123529282
 20
242.7840609178032
 30
0.0
 11
465.8730123529282
 21
240.7840604872474
 31
0.0
  0
LINE
  5
3E4D
330
A
100
AcDbEntity
  8
0
  6
DASHED
 62
     4
 48
0.025
100
AcDbLine
 10
465.8730123529282
 20
240.7840604872474
 30
0.0
 11
467.8730127834836
 21
240.7840604872474
 31
0.0
  0
LINE
  5
3E4E
330
A
100
AcDbEntity
  8
0
  6
DASHED
 62
     4
 48
0.025
100
AcDbLine
 10
467.8730127834836
 20
240.7840604872474
 30
0.0
 11
467.8730127834836
 21
242.7840609178032
 31
0.0
  0
LINE
  5
3E4F
330
A
100
AcDbEntity
  8
0
  6
DASHED
 62
     4
 48
0.025
100
AcDbLine
 10
465.8730123529282
 20
242.7840609178032
 30
0.0
 11
467.8730127834836
 21
242.7840609178032
 31
0.0
  0
LINE
  5
3E50
330
A
100
AcDbEntity
  8
0
  6
DASHED
 62
     4
100
AcDbLine
 10
467.8730127834836
 20
180.784047570578
 30
0.0
 11
467.8730127834836
 21
240.7840604872474
 31
0.0
  0
LINE
  5
3E51
330
A
100
AcDbEntity
  8
0
  6
DASHED
 62
     4
 48
0.025
100
AcDbLine
 10
467.8730127834836
 20
178.7840471400223
 30
0.0
 11
467.8730127834836
 21
180.784047570578
 31
0.0
  0
LINE
  5
3E52
330
A
100
AcDbEntity
  8
0
  6
DASHED
 62
     4
100
AcDbLine
 10
465.8730123529282
 20
240.7840604872474
 30
0.0
 11
465.8730123529282
 21
180.784047570578
 31
0.0
  0
LINE
  5
3E53
330
A
100
AcDbEntity
  8
0
  6
DASHED
 62
     4
 48
0.025
100
AcDbLine
 10
465.8730123529282
 20
180.784047570578
 30
0.0
 11
467.8730127834836
 21
180.784047570578
 31
0.0
  0
LINE
  5
3E54
330
A
100
AcDbEntity
  8
0
  6
DASHED
 62
     4
 48
0.025
100
AcDbLine
 10
465.8730123529282
 20
180.784047570578
 30
0.0
 11
465.8730123529282
 21
178.7840471400223
 31
0.0
  0
LINE
  5
3E55
330
A
100
AcDbEntity
  8
0
  6
DASHED
 62
     4
 48
0.025
100
AcDbLine
 10
465.8730123529282
 20
178.7840471400223
 30
0.0
 11
467.8730127834836
 21
178.7840471400223
 31
0.0
  0
LINE
  5
3E56
330
A
100
AcDbEntity
  8
0
  6
DASHED
 62
     4
 48
0.048353
100
AcDbLine
 10
501.3230319845296
 20
209.4765897474447
 30
0.0
 11
504.6730087057048
 21
207.5424453310665
 31
0.0
  0
LINE
  5
3E57
330
A
100
AcDbEntity
  8
0
  6
DASHED
 62
     4
 48
0.014434
100
AcDbLine
 10
500.3230317692517
 20
208.8992276231513
 30
0.0
 11
501.3230319845296
 21
209.4765897474447
 31
0.0
  0
LINE
  5
3E58
330
A
100
AcDbEntity
  8
0
  6
DASHED
 62
     4
 48
0.062787
100
AcDbLine
 10
500.3230317692517
 20
208.8992276231513
 30
0.0
 11
504.6730087057048
 21
206.3877510824864
 31
0.0
  0
LINE
  5
3E59
330
A
100
AcDbEntity
  8
0
  6
DASHED
 62
     4
 48
0.014434
100
AcDbLine
 10
504.6730087057048
 20
206.3877510824864
 30
0.0
 11
504.6730087057048
 21
207.5424453310665
 31
0.0
  0
LINE
  5
3E5A
330
A
100
AcDbEntity
  8
0
  6
DASHED
 62
     4
 48
0.048353
100
AcDbLine
 10
501.3230319845296
 20
213.3448145801874
 30
0.0
 11
501.3230319845296
 21
209.4765897474447
 31
0.0
  0
LINE
  5
3E5B
330
A
100
AcDbEntity
  8
0
  6
DASHED
 62
     4
 48
0.014434
100
AcDbLine
 10
500.3230317692517
 20
213.9221767044807
 30
0.0
 11
501.3230319845296
 21
213.3448145801874
 31
0.0
  0
LINE
  5
3E5C
330
A
100
AcDbEntity
  8
0
  6
DASHED
 62
     4
 48
0.062787
100
AcDbLine
 10
500.3230317692517
 20
213.9221767044807
 30
0.0
 11
500.3230317692517
 21
208.8992276231513
 31
0.0
  0
LINE
  5
3E5D
330
A
100
AcDbEntity
  8
0
  6
DASHED
 62
     4
 48
0.048353
100
AcDbLine
 10
504.6730087057048
 20
215.278958996566
 30
0.0
 11
501.3230319845296
 21
213.3448145801874
 31
0.0
  0
LINE
  5
3E5E
330
A
100
AcDbEntity
  8
0
  6
DASHED
 62
     4
 48
0.014434
100
AcDbLine
 10
504.6730087057048
 20
216.4336532451459
 30
0.0
 11
504.6730087057048
 21
215.278958996566
 31
0.0
  0
LINE
  5
3E5F
330
A
100
AcDbEntity
  8
0
  6
DASHED
 62
     4
 48
0.062787
100
AcDbLine
 10
504.6730087057048
 20
216.4336532451459
 30
0.0
 11
500.3230317692517
 21
213.9221767044807
 31
0.0
  0
LINE
  5
3E60
330
A
100
AcDbEntity
  8
0
  6
DASHED
 62
     4
 48
0.048353
100
AcDbLine
 10
508.0229854268806
 20
213.3448145801874
 30
0.0
 11
504.6730087057048
 21
215.278958996566
 31
0.0
  0
LINE
  5
3E61
330
A
100
AcDbEntity
  8
0
  6
DASHED
 62
     4
 48
0.014434
100
AcDbLine
 10
509.0229856421585
 20
213.9221767044807
 30
0.0
 11
508.0229854268806
 21
213.3448145801874
 31
0.0
  0
LINE
  5
3E62
330
A
100
AcDbEntity
  8
0
  6
DASHED
 62
     4
 48
0.062787
100
AcDbLine
 10
509.0229856421585
 20
213.9221767044807
 30
0.0
 11
504.6730087057048
 21
216.4336532451459
 31
0.0
  0
LINE
  5
3E63
330
A
100
AcDbEntity
  8
0
  6
DASHED
 62
     4
 48
0.048353
100
AcDbLine
 10
508.0229854268806
 20
209.4765897474447
 30
0.0
 11
508.0229854268806
 21
213.3448145801874
 31
0.0
  0
LINE
  5
3E64
330
A
100
AcDbEntity
  8
0
  6
DASHED
 62
     4
 48
0.014434
100
AcDbLine
 10
509.0229856421585
 20
208.8992276231513
 30
0.0
 11
508.0229854268806
 21
209.4765897474447
 31
0.0
  0
LINE
  5
3E65
330
A
100
AcDbEntity
  8
0
  6
DASHED
 62
     4
 48
0.062787
100
AcDbLine
 10
509.0229856421585
 20
208.8992276231513
 30
0.0
 11
509.0229856421585
 21
213.9221767044807
 31
0.0
  0
LINE
  5
3E66
330
A
100
AcDbEntity
  8
0
  6
DASHED
 62
     4
 48
0.048353
100
AcDbLine
 10
504.6730087057048
 20
207.5424453310665
 30
0.0
 11
508.0229854268806
 21
209.4765897474447
 31
0.0
  0
LINE
  5
3E67
330
A
100
AcDbEntity
  8
0
  6
DASHED
 62
     4
 48
0.062787
100
AcDbLine
 10
504.6730087057048
 20
206.3877510824864
 30
0.0
 11
509.0229856421585
 21
208.8992276231513
 31
0.0
  0
LINE
  5
3E68
330
A
100
AcDbEntity
  8
0
  6
DASHED
 62
     4
 48
0.01375
100
AcDbLine
 10
505.2729848348666
 20
212.8106964652038
 30
0.0
 11
505.2729848348666
 21
213.9107027020106
 31
0.0
  0
ARC
  5
3E69
330
A
100
AcDbEntity
  8
0
  6
DASHED
 62
     4
100
AcDbCircle
 10
506.0730330070993
 20
212.8106964652038
 30
0.0
 40
0.8000001722222599
100
AcDbArc
 50
180.000005
 51
270.000001
  0
LINE
  5
3E6A
330
A
100
AcDbEntity
  8
0
  6
DASHED
 62
     4
 48
0.01375
100
AcDbLine
 10
506.0730330070993
 20
212.0107082929842
 30
0.0
 11
507.1730092438996
 21
212.0107082929842
 31
0.0
  0
LINE
  5
3E6B
330
A
100
AcDbEntity
  8
0
  6
DASHED
 62
     4
 48
0.015
100
AcDbLine
 10
507.1730092438996
 20
210.8106960346481
 30
0.0
 11
507.1730092438996
 21
212.0107082929842
 31
0.0
  0
LINE
  5
3E6C
330
A
100
AcDbEntity
  8
0
  6
DASHED
 62
     4
 48
0.01375
100
AcDbLine
 10
507.1730092438996
 20
210.8106960346481
 30
0.0
 11
506.0730330070993
 21
210.8106960346481
 31
0.0
  0
ARC
  5
3E6D
330
A
100
AcDbEntity
  8
0
  6
DASHED
 62
     4
100
AcDbCircle
 10
506.0730330070993
 20
210.0107078624285
 30
0.0
 40
0.8000001722222599
100
AcDbArc
 50
90.00000300000001
 51
180.000005
  0
LINE
  5
3E6E
330
A
100
AcDbEntity
  8
0
  6
DASHED
 62
     4
 48
0.01375
100
AcDbLine
 10
505.2729848348666
 20
208.9107016256216
 30
0.0
 11
505.2729848348666
 21
210.0107078624285
 31
0.0
  0
LINE
  5
3E6F
330
A
100
AcDbEntity
  8
0
  6
DASHED
 62
     4
 48
0.014999
100
AcDbLine
 10
505.2729848348666
 20
208.9107016256216
 30
0.0
 11
504.0730325765436
 21
208.9107016256216
 31
0.0
  0
LINE
  5
3E70
330
A
100
AcDbEntity
  8
0
  6
DASHED
 62
     4
 48
0.01375
100
AcDbLine
 10
504.0730325765436
 20
210.0107078624285
 30
0.0
 11
504.0730325765436
 21
208.9107016256216
 31
0.0
  0
ARC
  5
3E71
330
A
100
AcDbEntity
  8
0
  6
DASHED
 62
     4
100
AcDbCircle
 10
503.2729844043109
 20
210.0107078624285
 30
0.0
 40
0.8000001722222599
100
AcDbArc
 50
0.0
 51
90.00000300000001
  0
LINE
  5
3E72
330
A
100
AcDbEntity
  8
0
  6
DASHED
 62
     4
 48
0.01375
100
AcDbLine
 10
503.2729844043109
 20
210.8106960346481
 30
0.0
 11
502.1730081675106
 21
210.8106960346481
 31
0.0
  0
LINE
  5
3E73
330
A
100
AcDbEntity
  8
0
  6
DASHED
 62
     4
 48
0.015
100
AcDbLine
 10
502.1730081675106
 20
212.0107082929842
 30
0.0
 11
502.1730081675106
 21
210.8106960346481
 31
0.0
  0
LINE
  5
3E74
330
A
100
AcDbEntity
  8
0
  6
DASHED
 62
     4
 48
0.01375
100
AcDbLine
 10
502.1730081675106
 20
212.0107082929842
 30
0.0
 11
503.2729844043109
 21
212.0107082929842
 31
0.0
  0
ARC
  5
3E75
330
A
100
AcDbEntity
  8
0
  6
DASHED
 62
     4
100
AcDbCircle
 10
503.2729844043109
 20
212.8106964652038
 30
0.0
 40
0.8000001722222599
100
AcDbArc
 50
270.000001
 51
0.00001
  0
LINE
  5
3E76
330
A
100
AcDbEntity
  8
0
  6
DASHED
 62
     4
 48
0.01375
100
AcDbLine
 10
504.0730325765436
 20
213.9107027020106
 30
0.0
 11
504.0730325765436
 21
212.8106964652038
 31
0.0
  0
LINE
  5
3E77
330
A
100
AcDbEntity
  8
0
  6
DASHED
 62
     4
 48
0.014999
100
AcDbLine
 10
504.0730325765436
 20
213.9107027020106
 30
0.0
 11
505.2729848348666
 21
213.9107027020106
 31
0.0
  0
LINE
  5
5A02
330
A
100
AcDbEntity
  8
0
 62
     7
 48
0.05625
100
AcDbLine
 10
628.1730352925166
 20
162.3426996005655
 30
0.0
 11
623.6730343237662
 21
162.3426996005655
 31
0.0
  0
LINE
  5
5A03
330
A
100
AcDbEntity
  8
0
 62
     7
 48
0.05625
100
AcDbLine
 10
628.1730352925166
 20
177.2426948082033
 30
0.0
 11
623.6730343237662
 21
177.2426948082033
 31
0.0
  0
LINE
  5
5A04
330
A
100
AcDbEntity
  8
0
 62
     7
 48
0.118748
100
AcDbLine
 10
618.6730332473772
 20
143.6226935705643
 30
0.0
 11
628.1728532924772
 21
143.6226935705643
 31
0.0
  0
LINE
  5
5A05
330
A
100
AcDbEntity
  8
0
 62
     7
 48
0.118748
100
AcDbLine
 10
618.6730332473772
 20
143.6226935705643
 30
0.0
 11
628.1729132924899
 21
143.6226935705643
 31
0.0
  0
LINE
  5
5A06
330
A
100
AcDbEntity
  8
0
 62
     7
 48
0.11875
100
AcDbLine
 10
618.6730332473772
 20
143.6226935705643
 30
0.0
 11
628.1730352925166
 21
143.6226935705643
 31
0.0
  0
LINE
  5
5A07
330
A
100
AcDbEntity
  8
0
 62
     7
 48
0.11875
100
AcDbLine
 10
618.6730332473772
 20
135.6226918483417
 30
0.0
 11
628.1730352925166
 21
135.6226918483417
 31
0.0
  0
LINE
  5
5A08
330
A
100
AcDbEntity
  8
0
 62
     7
 48
0.11875
100
AcDbLine
 10
618.6730332473772
 20
143.6226935705643
 30
0.0
 11
628.1730352925166
 21
143.6226935705643
 31
0.0
  0
LINE
  5
5A0A
330
A
100
AcDbEntity
  8
0
 62
     7
 48
0.125
100
AcDbLine
 10
618.6730332473772
 20
160.1226971226485
 30
0.0
 11
628.6730354001554
 21
160.1226971226485
 31
0.0
  0
LINE
  5
5A0B
330
A
100
AcDbEntity
  8
0
 62
     7
 48
0.125
100
AcDbLine
 10
618.6730332473772
 20
153.1226956157036
 30
0.0
 11
628.6730354001554
 21
153.1226956157036
 31
0.0
  0
LINE
  5
5A0E
330
A
100
AcDbEntity
  8
0
 62
     7
 48
0.19875
100
AcDbLine
 10
623.6730343237662
 20
160.1226971226485
 30
0.0
 11
623.6730343237662
 21
179.742695346398
 31
0.0
  0
LINE
  5
5A0F
330
A
100
AcDbEntity
  8
0
 62
     7
 48
0.0625
100
AcDbLine
 10
618.6730332473772
 20
179.742695346398
 30
0.0
 11
623.6730343237662
 21
179.742695346398
 31
0.0
  0
LINE
  5
5A10
330
A
100
AcDbEntity
  8
0
 62
     7
 48
0.225895
100
AcDbLine
 10
661.6730425043236
 20
135.7226978698705
 30
0.0
 11
661.6730425043236
 21
183.6227021816773
 31
0.0
  0
LINE
  5
5A11
330
A
100
AcDbEntity
  8
0
 62
     7
 48
0.019522
100
AcDbLine
 10
634.1730365841835
 20
160.6226972302874
 30
0.0
 11
634.1730365841835
 21
152.6226955080646
 31
0.0
  0
LINE
  5
5A12
330
A
100
AcDbEntity
  8
0
 62
     7
 48
0.232145
100
AcDbLine
 10
683.7730232619584
 20
135.2226977622317
 30
0.0
 11
683.7730232619584
 21
172.487231784458
 31
0.0
  0
LINE
  5
5A14
330
A
100
AcDbEntity
  8
0
 62
     7
 48
0.1
100
AcDbLine
 10
628.6730354001554
 20
160.6226972302874
 30
0.0
 11
628.6730354001554
 21
152.6226955080646
 31
0.0
  0
LINE
  5
5A15
330
A
100
AcDbEntity
  8
0
 62
     7
 48
0.1125
100
AcDbLine
 10
633.6730364765444
 20
152.1226954004259
 30
0.0
 11
633.6730364765444
 21
161.1226973379261
 31
0.0
  0
LINE
  5
5A16
330
A
100
AcDbEntity
  8
0
 62
     7
 48
0.34375
100
AcDbLine
 10
633.6730364765444
 20
152.1226954004259
 30
0.0
 11
661.6730425043236
 21
152.1226954004259
 31
0.0
  0
LINE
  5
5A17
330
A
100
AcDbEntity
  8
0
 62
     7
 48
0.3875
100
AcDbLine
 10
630.1730357230723
 20
133.6226914177861
 30
0.0
 11
661.1730423966847
 21
133.6226914177861
 31
0.0
  0
LINE
  5
5A18
330
A
100
AcDbEntity
  8
0
 62
     7
 48
0.021339
100
AcDbLine
 10
628.1730352925166
 20
135.1226917407028
 30
0.0
 11
629.3801275523767
 21
133.9155674808351
 31
0.0
  0
LINE
  5
5A19
330
A
100
AcDbEntity
  8
0
 62
     7
 48
0.001289
100
AcDbLine
 10
629.3801275523767
 20
133.9155674808351
 30
0.0
 11
629.4530655680786
 21
133.8426934651473
 31
0.0
  0
LINE
  5
5A1A
330
A
100
AcDbEntity
  8
0
 62
     7
 48
0.002121
100
AcDbLine
 10
629.5730595939105
 20
133.7226974393149
 30
0.0
 11
629.4530655680786
 21
133.8426934651473
 31
0.0
  0
LINE
  5
5A1B
330
A
100
AcDbEntity
  8
0
 62
     7
 48
0.001768
100
AcDbLine
 10
629.6730356154332
 20
133.6226914177861
 30
0.0
 11
629.5730595939105
 21
133.7226974393149
 31
0.0
  0
LINE
  5
5A1C
330
A
100
AcDbEntity
  8
0
 62
     7
 48
0.00625
100
AcDbLine
 10
630.1730357230723
 20
133.6226914177861
 30
0.0
 11
629.6730356154332
 21
133.6226914177861
 31
0.0
  0
LINE
  5
5A1D
330
A
100
AcDbEntity
  8
0
 62
     7
 48
0.21875
100
AcDbLine
 10
628.1730352925166
 20
152.6226955080646
 30
0.0
 11
628.1730352925166
 21
135.1226917407028
 31
0.0
  0
LINE
  5
5A1E
330
A
100
AcDbEntity
  8
0
 62
     7
 48
0.0175
100
AcDbLine
 10
635.5730608855776
 20
153.6226957233425
 30
0.0
 11
634.1730365841835
 21
153.6226957233425
 31
0.0
  0
LINE
  5
5A1F
330
A
100
AcDbEntity
  8
0
 62
     7
 48
0.006252
100
AcDbLine
 10
628.1730352925166
 20
153.1228176157295
 30
0.0
 11
628.1730352925166
 21
152.6226955080646
 31
0.0
  0
LINE
  5
5A20
330
A
100
AcDbEntity
  8
0
 62
     7
 48
0.00625
100
AcDbLine
 10
628.1730352925166
 20
152.6226955080646
 30
0.0
 11
628.6730354001554
 21
152.6226955080646
 31
0.0
  0
LINE
  5
5A21
330
A
100
AcDbEntity
  8
0
 62
     7
 48
0.008839
100
AcDbLine
 10
634.1730365841835
 20
152.6226955080646
 30
0.0
 11
633.6730364765444
 21
152.1226954004259
 31
0.0
  0
ARC
  5
5A23
330
A
100
AcDbEntity
  8
0
 62
     7
100
AcDbCircle
 10
635.5730608855776
 20
154.2227018525103
 30
0.0
 40
0.6000001291666948
100
AcDbArc
 50
269.9999969999999
 51
0.0
  0
LINE
  5
5A24
330
A
100
AcDbEntity
  8
0
 62
     7
 48
0.044382
100
AcDbLine
 10
636.1730610147443
 20
159.0226908858415
 30
0.0
 11
636.1730370147391
 21
154.2227018525103
 31
0.0
  0
LINE
  5
5A25
330
A
100
AcDbEntity
  8
0
 62
     7
 48
0.225
100
AcDbLine
 10
661.6730425043236
 20
134.1226915254249
 30
0.0
 11
661.6730425043236
 21
152.1226954004259
 31
0.0
  0
ARC
  5
5A26
330
A
100
AcDbEntity
  8
0
 62
     7
100
AcDbCircle
 10
683.2730231543195
 20
135.2226977622317
 30
0.0
 40
0.5000001076389125
100
AcDbArc
 50
269.9999969999999
 51
0.0
  0
ARC
  5
5A27
330
A
100
AcDbEntity
  8
0
 62
     7
100
AcDbCircle
 10
662.6730427196015
 20
135.7226978698705
 30
0.0
 40
1.000000215277824
100
AcDbArc
 50
180.000005
 51
270.000001
  0
LINE
  5
5A28
330
A
100
AcDbEntity
  8
0
 62
     7
 48
0.21875
100
AcDbLine
 10
683.2730231281394
 20
134.7226976545923
 30
0.0
 11
662.6730427196015
 21
134.7226976545925
 31
0.0
  0
LINE
  5
5A29
330
A
100
AcDbEntity
  8
0
 62
     7
 48
0.038625
100
AcDbLine
 10
661.1829903988259
 20
133.6226914177861
 30
0.0
 11
664.2730190640405
 21
133.6226914177861
 31
0.0
  0
ARC
  5
5A2A
330
A
100
AcDbEntity
  8
0
 62
     7
100
AcDbCircle
 10
664.2730190640405
 20
134.1226915254249
 30
0.0
 40
0.5000001076389125
100
AcDbArc
 50
270.000001
 51
0.00001
  0
LINE
  5
5A2B
330
A
100
AcDbEntity
  8
0
 62
     7
 48
0.007499
100
AcDbLine
 10
664.7730191716792
 20
134.1226915254249
 30
0.0
 11
664.7730191716792
 21
134.7225756545664
 31
0.0
  0
ARC
  5
5A2C
330
A
100
AcDbEntity
  8
0
 62
     7
100
AcDbCircle
 10
661.1730423966847
 20
134.1226915254249
 30
0.0
 40
0.5000001076389125
100
AcDbArc
 50
270.000001
 51
0.00001
  0
LINE
  5
5A2D
330
A
100
AcDbEntity
  8
0
 62
     7
 48
0.23125
100
AcDbLine
 10
661.6730425043236
 20
153.7942657602777
 30
0.0
 11
683.7730232619584
 21
153.7942657602777
 31
0.0
  0
LINE
  5
5A2E
330
A
100
AcDbEntity
  8
0
 62
     7
 48
0.03875
100
AcDbLine
 10
669.1930641232172
 20
183.6227021816773
 30
0.0
 11
629.6730356154332
 21
183.6227021816773
 31
0.0
  0
LINE
  5
5A2F
330
A
100
AcDbEntity
  8
0
 62
     7
 48
0.34375
100
AcDbLine
 10
661.6730425043236
 20
161.1226973379261
 30
0.0
 11
633.6730364765444
 21
161.1226973379261
 31
0.0
  0
LINE
  5
5A30
330
A
100
AcDbEntity
  8
0
 62
     7
 48
0.26875
100
AcDbLine
 10
628.1730352925166
 20
182.1227018587606
 30
0.0
 11
628.1730352925166
 21
160.6226972302874
 31
0.0
  0
LINE
  5
5A31
330
A
100
AcDbEntity
  8
0
 62
     7
 48
0.0175
100
AcDbLine
 10
635.5730608855776
 20
159.6226970150095
 30
0.0
 11
634.1730365841835
 21
159.6226970150095
 31
0.0
  0
LINE
  5
5A32
330
A
100
AcDbEntity
  8
0
 62
     7
 48
0.006252
100
AcDbLine
 10
628.1730352925166
 20
160.6226972302874
 30
0.0
 11
628.1730352925166
 21
160.1225451226157
 31
0.0
  0
LINE
  5
5A33
330
A
100
AcDbEntity
  8
0
 62
     7
 48
0.00625
100
AcDbLine
 10
628.1730352925166
 20
160.6226972302874
 30
0.0
 11
628.6730354001554
 21
160.6226972302874
 31
0.0
  0
LINE
  5
5A34
330
A
100
AcDbEntity
  8
0
 62
     7
 48
0.008839
100
AcDbLine
 10
634.1730365841835
 20
160.6226972302874
 30
0.0
 11
633.6730364765444
 21
161.1226973379261
 31
0.0
  0
ARC
  5
5A35
330
A
100
AcDbEntity
  8
0
 62
     7
100
AcDbCircle
 10
635.5730608855776
 20
159.0226908858415
 30
0.0
 40
0.6000001291666948
100
AcDbArc
 50
0.0
 51
90.00000300000001
  0
LINE
  5
5A36
330
A
100
AcDbEntity
  8
0
 62
     7
 48
0.021339
100
AcDbLine
 10
628.1730352925166
 20
182.1227018587606
 30
0.0
 11
629.6730356154332
 21
183.6227021816773
 31
0.0
  0
LINE
  5
5A37
330
A
100
AcDbEntity
  8
0
 62
     7
 48
0.01875
100
AcDbLine
 10
663.6730429348792
 20
181.7227077726504
 30
0.0
 11
663.6730429348792
 21
167.722704758761
 31
0.0
  0
ARC
  5
5A38
330
A
100
AcDbEntity
  8
0
 62
     7
100
AcDbCircle
 10
677.2628278604577
 20
179.2227072344561
 30
0.0
 40
3.000000645833473
100
AcDbArc
 50
29.48037299999999
 51
90.00000300000001
  0
LINE
  5
5A39
330
A
100
AcDbEntity
  8
0
 62
     7
 48
0.155781
100
AcDbLine
 10
665.6204313541085
 20
177.3684588352776
 30
0.0
 11
681.7572226561694
 21
177.3684588352774
 31
0.0
  0
LINE
  5
5A3A
330
A
100
AcDbEntity
  8
0
 62
     7
 48
0.181908
100
AcDbLine
 10
683.7730232619581
 20
172.0769536961339
 30
0.0
 11
665.6204313541085
 21
172.0769536961339
 31
0.0
  0
LINE
  5
5A3B
330
A
100
AcDbEntity
  8
0
 62
     7
 48
0.23125
100
AcDbLine
 10
661.6730425043236
 20
159.451126978074
 30
0.0
 11
683.7730232619584
 21
159.451126978074
 31
0.0
  0
ARC
  5
5A3C
330
A
100
AcDbEntity
  8
0
 62
     7
100
AcDbCircle
 10
663.1730428272406
 20
167.722704758761
 30
0.0
 40
0.5000001076389125
100
AcDbArc
 50
270.000001
 51
0.00001
  0
LINE
  5
5A3D
330
A
100
AcDbEntity
  8
0
 62
     7
 48
0.01875
100
AcDbLine
 10
661.6730425043236
 20
167.2227046511221
 30
0.0
 11
663.1730428272406
 21
167.2227046511221
 31
0.0
  0
LINE
  5
5A3E
330
A
100
AcDbEntity
  8
0
 62
     7
 48
0.044383
100
AcDbLine
 10
665.6730673654401
 20
177.1227007823714
 30
0.0
 11
665.673043365435
 21
172.322681749034
 31
0.0
  0
LINE
  5
5A3F
330
A
100
AcDbEntity
  8
0
 62
     7
 48
0.0175
100
AcDbLine
 10
665.0730672362733
 20
171.7227056198723
 30
0.0
 11
663.6730429348792
 21
171.7227056198723
 31
0.0
  0
LINE
  5
5A40
330
A
100
AcDbEntity
  8
0
 62
     7
 48
0.0175
100
AcDbLine
 10
665.0730672362733
 20
177.7227069115392
 30
0.0
 11
663.6730429348792
 21
177.7227069115392
 31
0.0
  0
ARC
  5
5A41
330
A
100
AcDbEntity
  8
0
 62
     7
100
AcDbCircle
 10
665.0730672362733
 20
172.322681749034
 30
0.0
 40
0.6000001291666948
100
AcDbArc
 50
269.9999969999999
 51
0.0
  0
ARC
  5
5A42
330
A
100
AcDbEntity
  8
0
 62
     7
100
AcDbCircle
 10
665.0730672362733
 20
177.1227007823714
 30
0.0
 40
0.6000001291666948
100
AcDbArc
 50
0.0
 51
90.00000300000001
  0
LINE
  5
5A43
330
A
100
AcDbEntity
  8
0
 62
     7
 48
0.044291
100
AcDbLine
 10
681.6181147980545
 20
177.6145228882495
 30
0.0
 11
679.8744024226719
 21
180.6990875522878
 31
0.0
  0
LINE
  5
5A44
330
A
100
AcDbEntity
  8
0
 62
     7
 48
0.037991
100
AcDbLine
 10
683.1138431200514
 20
174.9687703186779
 30
0.0
 11
681.6181147980545
 21
177.6145228882495
 31
0.0
  0
LINE
  5
5A45
330
A
100
AcDbEntity
  8
0
 62
     7
 48
0.000301
100
AcDbLine
 10
683.1256831225999
 20
174.947834314171
 30
0.0
 11
683.1138431200514
 21
174.9687703186779
 31
0.0
  0
ARC
  5
5A46
330
A
100
AcDbEntity
  8
0
 62
     7
100
AcDbCircle
 10
678.7730221855691
 20
172.487231784458
 30
0.0
 40
5.000001076389123
100
AcDbArc
 50
0.0
 51
29.48037299999999
  0
LINE
  5
5A47
330
A
100
AcDbEntity
  8
0
 62
     7
 48
0.137372
100
AcDbLine
 10
677.262827703378
 20
182.2227078802893
 30
0.0
 11
661.6730425043236
 21
182.2227078802893
 31
0.0
  0
LINE
  5
5A48
330
A
100
AcDbEntity
  8
0
 62
     7
 48
0.006
100
AcDbLine
 10
666.6930635850227
 20
182.7026879836185
 30
0.0
 11
666.6930635850227
 21
182.2227078802893
 31
0.0
  0
LINE
  5
5A49
330
A
100
AcDbEntity
  8
0
 62
     7
 48
0.006
100
AcDbLine
 10
666.5930275634869
 20
182.7026879836185
 30
0.0
 11
666.5930275634869
 21
182.2227078802893
 31
0.0
  0
LINE
  5
5A4A
330
A
100
AcDbEntity
  8
0
 62
     7
 48
0.00125
100
AcDbLine
 10
666.5930275634869
 20
182.7026879836185
 30
0.0
 11
666.6930635850227
 21
182.7026879836185
 31
0.0
  0
ARC
  5
5A4B
330
A
100
AcDbEntity
  8
0
 62
     7
100
AcDbCircle
 10
663.1730428272406
 20
181.7227077726504
 30
0.0
 40
0.5000001076389125
100
AcDbArc
 50
0.0
 51
90.00000300000001
  0
ARC
  5
5A4C
330
A
100
AcDbEntity
  8
0
 62
     7
100
AcDbCircle
 10
666.0930274558482
 20
183.1227020740383
 30
0.0
 40
0.5000001076389125
100
AcDbArc
 50
0.0
 51
90.00000300000001
  0
LINE
  5
5A4D
330
A
100
AcDbEntity
  8
0
 62
     7
 48
0.01125
100
AcDbLine
 10
666.5930275634869
 20
183.1227020740383
 30
0.0
 11
666.5930275634869
 21
182.2227078802893
 31
0.0
  0
LINE
  5
5A4E
330
A
100
AcDbEntity
  8
0
 62
     7
 48
0.006
100
AcDbLine
 10
669.7930402523788
 20
182.7026879836185
 30
0.0
 11
669.7930402523788
 21
182.2227078802893
 31
0.0
  0
LINE
  5
5A4F
330
A
100
AcDbEntity
  8
0
 62
     7
 48
0.006
100
AcDbLine
 10
669.6930642308561
 20
182.7026879836185
 30
0.0
 11
669.6930642308561
 21
182.2227078802893
 31
0.0
  0
LINE
  5
5A50
330
A
100
AcDbEntity
  8
0
 62
     7
 48
0.00125
100
AcDbLine
 10
669.6930642308561
 20
182.7026879836185
 30
0.0
 11
669.7930402523788
 21
182.7026879836185
 31
0.0
  0
ARC
  5
5A51
330
A
100
AcDbEntity
  8
0
 62
     7
100
AcDbCircle
 10
669.1930641232172
 20
183.1227020740383
 30
0.0
 40
0.5000001076389125
100
AcDbArc
 50
0.0
 51
90.00000300000001
  0
LINE
  5
5A52
330
A
100
AcDbEntity
  8
0
 62
     7
 48
0.011251
100
AcDbLine
 10
669.6930642308561
 20
183.1227020740383
 30
0.0
 11
669.6930642308561
 21
182.2225858802634
 31
0.0
  0
LINE
  5
5A55
330
A
100
AcDbEntity
  8
0
 62
     7
 48
0.118748
100
AcDbLine
 10
618.6730332473772
 20
269.62272069557
 30
0.0
 11
628.1728532924772
 21
269.62272069557
 31
0.0
  0
LINE
  5
5A56
330
A
100
AcDbEntity
  8
0
 62
     7
 48
0.118748
100
AcDbLine
 10
618.6730332473772
 20
269.62272069557
 30
0.0
 11
628.1729132924899
 21
269.62272069557
 31
0.0
  0
LINE
  5
5A57
330
A
100
AcDbEntity
  8
0
 62
     7
 48
0.11875
100
AcDbLine
 10
618.6730332473772
 20
269.62272069557
 30
0.0
 11
628.1730352925166
 21
269.62272069557
 31
0.0
  0
LINE
  5
5A58
330
A
100
AcDbEntity
  8
0
 62
     7
 48
0.11875
100
AcDbLine
 10
618.6730332473772
 20
261.6227189733475
 30
0.0
 11
628.1730352925166
 21
261.6227189733475
 31
0.0
  0
LINE
  5
5A59
330
A
100
AcDbEntity
  8
0
 62
     7
 48
0.11875
100
AcDbLine
 10
618.6730332473772
 20
269.62272069557
 30
0.0
 11
628.1730352925166
 21
269.62272069557
 31
0.0
  0
LINE
  5
5A5B
330
A
100
AcDbEntity
  8
0
 62
     7
 48
0.125
100
AcDbLine
 10
618.6730332473772
 20
286.1227242476541
 30
0.0
 11
628.6730354001554
 21
286.1227242476541
 31
0.0
  0
LINE
  5
5A5C
330
A
100
AcDbEntity
  8
0
 62
     7
 48
0.125
100
AcDbLine
 10
618.6730332473772
 20
279.1227227407094
 30
0.0
 11
628.6730354001554
 21
279.1227227407094
 31
0.0
  0
LINE
  5
5A60
330
A
100
AcDbEntity
  8
0
 62
     7
 48
0.0625
100
AcDbLine
 10
618.6730332473772
 20
305.7427224714038
 30
0.0
 11
623.6730343237662
 21
305.7427224714038
 31
0.0
  0
LINE
  5
5AA6
330
A
100
AcDbEntity
  8
0
 62
     7
 48
0.125
100
AcDbLine
 10
618.6730332473772
 20
342.1227363032123
 30
0.0
 11
628.6730354001554
 21
342.1227363032123
 31
0.0
  0
LINE
  5
5AA7
330
A
100
AcDbEntity
  8
0
 62
     7
 48
0.125
100
AcDbLine
 10
618.6730332473772
 20
349.1227378101571
 30
0.0
 11
628.6730354001554
 21
349.1227378101571
 31
0.0
  0
LINE
  5
5AA9
330
A
100
AcDbEntity
  8
0
 62
     7
 48
0.11875
100
AcDbLine
 10
618.6730332473772
 20
332.622734258073
 30
0.0
 11
628.1730352925166
 21
332.622734258073
 31
0.0
  0
LINE
  5
5AAA
330
A
100
AcDbEntity
  8
0
 62
     7
 48
0.11875
100
AcDbLine
 10
618.6730332473772
 20
324.6227325358505
 30
0.0
 11
628.1730352925166
 21
324.6227325358505
 31
0.0
  0
LINE
  5
5AAB
330
A
100
AcDbEntity
  8
0
 62
     7
 48
0.11875
100
AcDbLine
 10
618.6730332473772
 20
332.622734258073
 30
0.0
 11
628.1730352925166
 21
332.622734258073
 31
0.0
  0
LINE
  5
5AAC
330
A
100
AcDbEntity
  8
0
 62
     7
 48
0.118748
100
AcDbLine
 10
618.6730332473772
 20
332.622734258073
 30
0.0
 11
628.1729132924899
 21
332.622734258073
 31
0.0
  0
LINE
  5
5AAD
330
A
100
AcDbEntity
  8
0
 62
     7
 48
0.118748
100
AcDbLine
 10
618.6730332473772
 20
332.622734258073
 30
0.0
 11
628.1728532924772
 21
332.622734258073
 31
0.0
  0
LINE
  5
5AB1
330
A
100
AcDbEntity
  8
0
 62
     7
 48
0.0625
100
AcDbLine
 10
618.6730332473772
 20
368.7427360339067
 30
0.0
 11
623.6730343237662
 21
368.7427360339067
 31
0.0
  0
LINE
  5
5AB2
330
A
100
AcDbEntity
  8
0
 62
     7
 48
0.0625
100
AcDbLine
 10
618.6730332473772
 20
368.7427360339067
 30
0.0
 11
623.6730343237662
 21
368.7427360339067
 31
0.0
  0
LINE
  5
5B00
330
A
100
AcDbEntity
  8
0
100
AcDbLine
 10
60.45938107638223
 20
117.4106819277006
 30
0.0
 11
338.4594409236173
 21
117.4106819277006
 31
0.0
  0
LINE
  5
5B12
330
A
100
AcDbEntity
  8
0
 62
     7
 48
0.137372
100
AcDbLine
 10
677.262827703378
 20
245.2227214427923
 30
0.0
 11
661.6730425043236
 21
245.2227214427923
 31
0.0
  0
LINE
  5
5B13
330
A
100
AcDbEntity
  8
0
 62
     7
 48
0.01875
100
AcDbLine
 10
661.6730425043236
 20
230.222718213625
 30
0.0
 11
663.1730428272406
 21
230.222718213625
 31
0.0
  0
LINE
  5
5B14
330
A
100
AcDbEntity
  8
0
 62
     7
 48
0.23125
100
AcDbLine
 10
661.6730425043236
 20
222.451140540577
 30
0.0
 11
683.7730232619584
 21
222.451140540577
 31
0.0
  0
LINE
  5
5B15
330
A
100
AcDbEntity
  8
0
 62
     7
 48
0.03875
100
AcDbLine
 10
669.1930641232172
 20
246.6227157441803
 30
0.0
 11
629.6730356154332
 21
246.6227157441803
 31
0.0
  0
LINE
  5
5B16
330
A
100
AcDbEntity
  8
0
 62
     7
 48
0.23125
100
AcDbLine
 10
661.6730425043236
 20
216.7942793227807
 30
0.0
 11
683.7730232619584
 21
216.7942793227807
 31
0.0
  0
LINE
  5
5B17
330
A
100
AcDbEntity
  8
0
 62
     7
 48
0.038625
100
AcDbLine
 10
661.1829903988259
 20
196.6227049802891
 30
0.0
 11
664.2730190640405
 21
196.6227049802891
 31
0.0
  0
ARC
  5
5B18
330
A
100
AcDbEntity
  8
0
 62
     7
100
AcDbCircle
 10
662.6730427196015
 20
198.7227114323735
 30
0.0
 40
1.000000215277824
100
AcDbArc
 50
180.000005
 51
270.000001
  0
LINE
  5
5B19
330
A
100
AcDbEntity
  8
0
 62
     7
 48
0.225
100
AcDbLine
 10
661.6730425043236
 20
197.122705087928
 30
0.0
 11
661.6730425043236
 21
215.1227089629288
 31
0.0
  0
LINE
  5
5B1A
330
A
100
AcDbEntity
  8
0
 62
     7
 48
0.21875
100
AcDbLine
 10
628.1730352925166
 20
215.6227090705676
 30
0.0
 11
628.1730352925166
 21
198.1227053032058
 31
0.0
  0
LINE
  5
5B1B
330
A
100
AcDbEntity
  8
0
 62
     7
 48
0.225895
100
AcDbLine
 10
661.6730425043236
 20
198.7227114323735
 30
0.0
 11
661.6730425043236
 21
246.6227157441803
 31
0.0
  0
LINE
  5
5B1C
330
A
100
AcDbEntity
  8
0
 62
     7
 48
0.3875
100
AcDbLine
 10
630.1730357230723
 20
196.6227049802891
 30
0.0
 11
661.1730423966847
 21
196.6227049802891
 31
0.0
  0
LINE
  5
5B1D
330
A
100
AcDbEntity
  8
0
 62
     7
 48
0.021339
100
AcDbLine
 10
628.1730352925166
 20
198.1227053032058
 30
0.0
 11
629.3801275523767
 21
196.9155810433381
 31
0.0
  0
LINE
  5
5B1E
330
A
100
AcDbEntity
  8
0
 62
     7
 48
0.00625
100
AcDbLine
 10
630.1730357230723
 20
196.6227049802891
 30
0.0
 11
629.6730356154332
 21
196.6227049802891
 31
0.0
  0
LINE
  5
5B1F
330
A
100
AcDbEntity
  8
0
 62
     7
 48
0.001768
100
AcDbLine
 10
629.6730356154332
 20
196.6227049802891
 30
0.0
 11
629.5730595939105
 21
196.7227110018179
 31
0.0
  0
LINE
  5
5B20
330
A
100
AcDbEntity
  8
0
 62
     7
 48
0.002121
100
AcDbLine
 10
629.5730595939105
 20
196.7227110018179
 30
0.0
 11
629.4530655680786
 21
196.8427070276503
 31
0.0
  0
LINE
  5
5B21
330
A
100
AcDbEntity
  8
0
 62
     7
 48
0.001289
100
AcDbLine
 10
629.3801275523767
 20
196.9155810433381
 30
0.0
 11
629.4530655680786
 21
196.8427070276503
 31
0.0
  0
ARC
  5
5B22
330
A
100
AcDbEntity
  8
0
 62
     7
100
AcDbCircle
 10
661.1730423966847
 20
197.122705087928
 30
0.0
 40
0.5000001076389125
100
AcDbArc
 50
270.000001
 51
0.00001
  0
LINE
  5
5B23
330
A
100
AcDbEntity
  8
0
 62
     7
 48
0.26875
100
AcDbLine
 10
628.1730352925166
 20
245.1227154212635
 30
0.0
 11
628.1730352925166
 21
223.6227107927903
 31
0.0
  0
ARC
  5
5B24
330
A
100
AcDbEntity
  8
0
 62
     7
100
AcDbCircle
 10
635.5730608855776
 20
222.0227044483445
 30
0.0
 40
0.6000001291666948
100
AcDbArc
 50
0.0
 51
90.00000300000001
  0
LINE
  5
5B25
330
A
100
AcDbEntity
  8
0
 62
     7
 48
0.34375
100
AcDbLine
 10
661.6730425043236
 20
224.1227109004291
 30
0.0
 11
633.6730364765444
 21
224.1227109004291
 31
0.0
  0
ARC
  5
5B26
330
A
100
AcDbEntity
  8
0
 62
     7
100
AcDbCircle
 10
635.5730608855776
 20
217.2227154150133
 30
0.0
 40
0.6000001291666948
100
AcDbArc
 50
269.9999969999999
 51
0.0
  0
LINE
  5
5B27
330
A
100
AcDbEntity
  8
0
 62
     7
 48
0.34375
100
AcDbLine
 10
633.6730364765444
 20
215.1227089629288
 30
0.0
 11
661.6730425043236
 21
215.1227089629288
 31
0.0
  0
LINE
  5
5B28
330
A
100
AcDbEntity
  8
0
 62
     7
 48
0.1125
100
AcDbLine
 10
633.6730364765444
 20
215.1227089629288
 30
0.0
 11
633.6730364765444
 21
224.1227109004291
 31
0.0
  0
LINE
  5
5B29
330
A
100
AcDbEntity
  8
0
 62
     7
 48
0.019522
100
AcDbLine
 10
634.1730365841835
 20
223.6227107927903
 30
0.0
 11
634.1730365841835
 21
215.6227090705676
 31
0.0
  0
LINE
  5
5B2A
330
A
100
AcDbEntity
  8
0
 62
     7
 48
0.1
100
AcDbLine
 10
628.6730354001554
 20
223.6227107927903
 30
0.0
 11
628.6730354001554
 21
215.6227090705676
 31
0.0
  0
LINE
  5
5B2B
330
A
100
AcDbEntity
  8
0
 62
     7
 48
0.00625
100
AcDbLine
 10
628.1730352925166
 20
215.6227090705676
 30
0.0
 11
628.6730354001554
 21
215.6227090705676
 31
0.0
  0
LINE
  5
5B2C
330
A
100
AcDbEntity
  8
0
 62
     7
 48
0.006252
100
AcDbLine
 10
628.1730352925166
 20
216.1228311782325
 30
0.0
 11
628.1730352925166
 21
215.6227090705676
 31
0.0
  0
LINE
  5
5B2D
330
A
100
AcDbEntity
  8
0
 62
     7
 48
0.008839
100
AcDbLine
 10
634.1730365841835
 20
215.6227090705676
 30
0.0
 11
633.6730364765444
 21
215.1227089629288
 31
0.0
  0
LINE
  5
5B2E
330
A
100
AcDbEntity
  8
0
 62
     7
 48
0.0175
100
AcDbLine
 10
635.5730608855776
 20
216.6227092858455
 30
0.0
 11
634.1730365841835
 21
216.6227092858455
 31
0.0
  0
LINE
  5
5B2F
330
A
100
AcDbEntity
  8
0
 62
     7
 48
0.00625
100
AcDbLine
 10
628.1730352925166
 20
223.6227107927903
 30
0.0
 11
628.6730354001554
 21
223.6227107927903
 31
0.0
  0
LINE
  5
5B30
330
A
100
AcDbEntity
  8
0
 62
     7
 48
0.006252
100
AcDbLine
 10
628.1730352925166
 20
223.6227107927903
 30
0.0
 11
628.1730352925166
 21
223.1225586851186
 31
0.0
  0
LINE
  5
5B31
330
A
100
AcDbEntity
  8
0
 62
     7
 48
0.008839
100
AcDbLine
 10
634.1730365841835
 20
223.6227107927903
 30
0.0
 11
633.6730364765444
 21
224.1227109004291
 31
0.0
  0
LINE
  5
5B32
330
A
100
AcDbEntity
  8
0
 62
     7
 48
0.0175
100
AcDbLine
 10
635.5730608855776
 20
222.6227105775124
 30
0.0
 11
634.1730365841835
 21
222.6227105775124
 31
0.0
  0
LINE
  5
5B33
330
A
100
AcDbEntity
  8
0
 62
     7
 48
0.044382
100
AcDbLine
 10
636.1730610147443
 20
222.0227044483445
 30
0.0
 11
636.1730370147391
 21
217.2227154150133
 31
0.0
  0
LINE
  5
5B34
330
A
100
AcDbEntity
  8
0
 62
     7
 48
0.021339
100
AcDbLine
 10
628.1730352925166
 20
245.1227154212635
 30
0.0
 11
629.6730356154332
 21
246.6227157441803
 31
0.0
  0
LINE
  5
5B35
330
A
100
AcDbEntity
  8
0
 62
     7
 48
0.232145
100
AcDbLine
 10
683.7730232619584
 20
198.2227113247347
 30
0.0
 11
683.7730232619584
 21
235.487245346961
 31
0.0
  0
LINE
  5
5B36
330
A
100
AcDbEntity
  8
0
 62
     7
 48
0.21875
100
AcDbLine
 10
683.2730231281394
 20
197.7227112170954
 30
0.0
 11
662.6730427196015
 21
197.7227112170955
 31
0.0
  0
LINE
  5
5B37
330
A
100
AcDbEntity
  8
0
 62
     7
 48
0.007499
100
AcDbLine
 10
664.7730191716792
 20
197.122705087928
 30
0.0
 11
664.7730191716792
 21
197.7225892170695
 31
0.0
  0
ARC
  5
5B38
330
A
100
AcDbEntity
  8
0
 62
     7
100
AcDbCircle
 10
664.2730190640405
 20
197.122705087928
 30
0.0
 40
0.5000001076389125
100
AcDbArc
 50
270.000001
 51
0.00001
  0
ARC
  5
5B39
330
A
100
AcDbEntity
  8
0
 62
     7
100
AcDbCircle
 10
683.2730231543195
 20
198.2227113247347
 30
0.0
 40
0.5000001076389125
100
AcDbArc
 50
269.9999969999999
 51
0.0
  0
LINE
  5
5B3A
330
A
100
AcDbEntity
  8
0
 62
     7
 48
0.01875
100
AcDbLine
 10
663.6730429348792
 20
244.7227213351534
 30
0.0
 11
663.6730429348792
 21
230.722718321264
 31
0.0
  0
ARC
  5
5B3B
330
A
100
AcDbEntity
  8
0
 62
     7
100
AcDbCircle
 10
663.1730428272406
 20
230.722718321264
 30
0.0
 40
0.5000001076389125
100
AcDbArc
 50
270.000001
 51
0.00001
  0
LINE
  5
5B3C
330
A
100
AcDbEntity
  8
0
 62
     7
 48
0.181908
100
AcDbLine
 10
683.7730232619581
 20
235.0769672586369
 30
0.0
 11
665.6204313541085
 21
235.0769672586369
 31
0.0
  0
LINE
  5
5B3D
330
A
100
AcDbEntity
  8
0
 62
     7
 48
0.155781
100
AcDbLine
 10
665.6204313541085
 20
240.3684723977806
 30
0.0
 11
681.7572226561694
 21
240.3684723977804
 31
0.0
  0
ARC
  5
5B3E
330
A
100
AcDbEntity
  8
0
 62
     7
100
AcDbCircle
 10
665.0730672362733
 20
240.1227143448744
 30
0.0
 40
0.6000001291666948
100
AcDbArc
 50
0.0
 51
90.00000300000001
  0
ARC
  5
5B3F
330
A
100
AcDbEntity
  8
0
 62
     7
100
AcDbCircle
 10
665.0730672362733
 20
235.322695311537
 30
0.0
 40
0.6000001291666948
100
AcDbArc
 50
269.9999969999999
 51
0.0
  0
LINE
  5
5B40
330
A
100
AcDbEntity
  8
0
 62
     7
 48
0.0175
100
AcDbLine
 10
665.0730672362733
 20
240.7227204740422
 30
0.0
 11
663.6730429348792
 21
240.7227204740422
 31
0.0
  0
LINE
  5
5B41
330
A
100
AcDbEntity
  8
0
 62
     7
 48
0.0175
100
AcDbLine
 10
665.0730672362733
 20
234.7227191823753
 30
0.0
 11
663.6730429348792
 21
234.7227191823753
 31
0.0
  0
LINE
  5
5B42
330
A
100
AcDbEntity
  8
0
 62
     7
 48
0.044383
100
AcDbLine
 10
665.6730673654401
 20
240.1227143448744
 30
0.0
 11
665.673043365435
 21
235.322695311537
 31
0.0
  0
ARC
  5
5B43
330
A
100
AcDbEntity
  8
0
 62
     7
100
AcDbCircle
 10
669.1930641232172
 20
246.1227156365414
 30
0.0
 40
0.5000001076389125
100
AcDbArc
 50
0.0
 51
90.00000300000001
  0
LINE
  5
5B44
330
A
100
AcDbEntity
  8
0
 62
     7
 48
0.01125
100
AcDbLine
 10
666.5930275634869
 20
246.1227156365414
 30
0.0
 11
666.5930275634869
 21
245.2227214427923
 31
0.0
  0
ARC
  5
5B45
330
A
100
AcDbEntity
  8
0
 62
     7
100
AcDbCircle
 10
666.0930274558482
 20
246.1227156365414
 30
0.0
 40
0.5000001076389125
100
AcDbArc
 50
0.0
 51
90.00000300000001
  0
ARC
  5
5B46
330
A
100
AcDbEntity
  8
0
 62
     7
100
AcDbCircle
 10
663.1730428272406
 20
244.7227213351534
 30
0.0
 40
0.5000001076389125
100
AcDbArc
 50
0.0
 51
90.00000300000001
  0
LINE
  5
5B47
330
A
100
AcDbEntity
  8
0
 62
     7
 48
0.00125
100
AcDbLine
 10
666.5930275634869
 20
245.7027015461215
 30
0.0
 11
666.6930635850227
 21
245.7027015461215
 31
0.0
  0
LINE
  5
5B48
330
A
100
AcDbEntity
  8
0
 62
     7
 48
0.006
100
AcDbLine
 10
666.5930275634869
 20
245.7027015461215
 30
0.0
 11
666.5930275634869
 21
245.2227214427923
 31
0.0
  0
LINE
  5
5B49
330
A
100
AcDbEntity
  8
0
 62
     7
 48
0.006
100
AcDbLine
 10
666.6930635850227
 20
245.7027015461215
 30
0.0
 11
666.6930635850227
 21
245.2227214427923
 31
0.0
  0
LINE
  5
5B4A
330
A
100
AcDbEntity
  8
0
 62
     7
 48
0.011251
100
AcDbLine
 10
669.6930642308561
 20
246.1227156365414
 30
0.0
 11
669.6930642308561
 21
245.2225994427664
 31
0.0
  0
LINE
  5
5B4B
330
A
100
AcDbEntity
  8
0
 62
     7
 48
0.00125
100
AcDbLine
 10
669.6930642308561
 20
245.7027015461215
 30
0.0
 11
669.7930402523788
 21
245.7027015461215
 31
0.0
  0
LINE
  5
5B4C
330
A
100
AcDbEntity
  8
0
 62
     7
 48
0.006
100
AcDbLine
 10
669.6930642308561
 20
245.7027015461215
 30
0.0
 11
669.6930642308561
 21
245.2227214427923
 31
0.0
  0
LINE
  5
5B4D
330
A
100
AcDbEntity
  8
0
 62
     7
 48
0.006
100
AcDbLine
 10
669.7930402523788
 20
245.7027015461215
 30
0.0
 11
669.7930402523788
 21
245.2227214427923
 31
0.0
  0
LINE
  5
5B4E
330
A
100
AcDbEntity
  8
0
 62
     7
 48
0.044291
100
AcDbLine
 10
681.6181147980545
 20
240.6145364507525
 30
0.0
 11
679.8744024226719
 21
243.6991011147908
 31
0.0
  0
LINE
  5
5B4F
330
A
100
AcDbEntity
  8
0
 62
     7
 48
0.037991
100
AcDbLine
 10
683.1138431200514
 20
237.9687838811809
 30
0.0
 11
681.6181147980545
 21
240.6145364507525
 31
0.0
  0
ARC
  5
5B50
330
A
100
AcDbEntity
  8
0
 62
     7
100
AcDbCircle
 10
678.7730221855691
 20
235.487245346961
 30
0.0
 40
5.000001076389123
100
AcDbArc
 50
0.0
 51
29.48037299999999
  0
LINE
  5
5B51
330
A
100
AcDbEntity
  8
0
 62
     7
 48
0.000301
100
AcDbLine
 10
683.1256831225999
 20
237.9478478766739
 30
0.0
 11
683.1138431200514
 21
237.9687838811809
 31
0.0
  0
ARC
  5
5B52
330
A
100
AcDbEntity
  8
0
 62
     7
100
AcDbCircle
 10
677.2628278604577
 20
242.222720796959
 30
0.0
 40
3.000000645833473
100
AcDbArc
 50
29.48037299999999
 51
90.00000300000001
  0
LINE
  5
5B53
330
A
100
AcDbEntity
  8
0
 62
     7
 48
0.19875
100
AcDbLine
 10
623.6730343237662
 20
223.1227106851514
 30
0.0
 11
623.6730343237662
 21
242.742708908901
 31
0.0
  0
LINE
  5
5B54
330
A
100
AcDbEntity
  8
0
 62
     7
 48
0.05625
100
AcDbLine
 10
628.1730352925166
 20
225.3427131630685
 30
0.0
 11
623.6730343237662
 21
225.3427131630685
 31
0.0
  0
LINE
  5
5B55
330
A
100
AcDbEntity
  8
0
 62
     7
 48
0.05625
100
AcDbLine
 10
628.1730352925166
 20
240.2427083707062
 30
0.0
 11
623.6730343237662
 21
240.2427083707062
 31
0.0
  0
LINE
  5
5B56
330
A
100
AcDbEntity
  8
0
 62
     7
 48
0.232145
100
AcDbLine
 10
683.7730232619584
 20
261.2227248872375
 30
0.0
 11
683.7730232619584
 21
298.4872589094637
 31
0.0
  0
LINE
  5
5B57
330
A
100
AcDbEntity
  8
0
 62
     7
 48
0.225895
100
AcDbLine
 10
661.6730425043236
 20
261.7227249948764
 30
0.0
 11
661.6730425043236
 21
309.6227293066831
 31
0.0
  0
LINE
  5
5B58
330
A
100
AcDbEntity
  8
0
 62
     7
 48
0.21875
100
AcDbLine
 10
628.1730352925166
 20
278.6227226330704
 30
0.0
 11
628.1730352925166
 21
261.1227188657086
 31
0.0
  0
LINE
  5
5B59
330
A
100
AcDbEntity
  8
0
 62
     7
 48
0.225
100
AcDbLine
 10
661.6730425043236
 20
260.1227186504307
 30
0.0
 11
661.6730425043236
 21
278.1227225254316
 31
0.0
  0
ARC
  5
5B5A
330
A
100
AcDbEntity
  8
0
 62
     7
100
AcDbCircle
 10
662.6730427196015
 20
261.7227249948764
 30
0.0
 40
1.000000215277824
100
AcDbArc
 50
180.000005
 51
270.000001
  0
LINE
  5
5B5B
330
A
100
AcDbEntity
  8
0
 62
     7
 48
0.038625
100
AcDbLine
 10
661.1829903988259
 20
259.6227185427919
 30
0.0
 11
664.2730190640405
 21
259.6227185427919
 31
0.0
  0
LINE
  5
5B5C
330
A
100
AcDbEntity
  8
0
 62
     7
 48
0.3875
100
AcDbLine
 10
630.1730357230723
 20
259.6227185427919
 30
0.0
 11
661.1730423966847
 21
259.6227185427919
 31
0.0
  0
LINE
  5
5B5D
330
A
100
AcDbEntity
  8
0
 62
     7
 48
0.021339
100
AcDbLine
 10
628.1730352925166
 20
261.1227188657086
 30
0.0
 11
629.3801275523767
 21
259.9155946058409
 31
0.0
  0
LINE
  5
5B5E
330
A
100
AcDbEntity
  8
0
 62
     7
 48
0.001289
100
AcDbLine
 10
629.3801275523767
 20
259.9155946058409
 30
0.0
 11
629.4530655680786
 21
259.8427205901531
 31
0.0
  0
LINE
  5
5B5F
330
A
100
AcDbEntity
  8
0
 62
     7
 48
0.002121
100
AcDbLine
 10
629.5730595939105
 20
259.7227245643207
 30
0.0
 11
629.4530655680786
 21
259.8427205901531
 31
0.0
  0
LINE
  5
5B60
330
A
100
AcDbEntity
  8
0
 62
     7
 48
0.001768
100
AcDbLine
 10
629.6730356154332
 20
259.6227185427919
 30
0.0
 11
629.5730595939105
 21
259.7227245643207
 31
0.0
  0
LINE
  5
5B61
330
A
100
AcDbEntity
  8
0
 62
     7
 48
0.00625
100
AcDbLine
 10
630.1730357230723
 20
259.6227185427919
 30
0.0
 11
629.6730356154332
 21
259.6227185427919
 31
0.0
  0
ARC
  5
5B62
330
A
100
AcDbEntity
  8
0
 62
     7
100
AcDbCircle
 10
661.1730423966847
 20
260.1227186504307
 30
0.0
 40
0.5000001076389125
100
AcDbArc
 50
270.000001
 51
0.00001
  0
LINE
  5
5B63
330
A
100
AcDbEntity
  8
0
 62
     7
 48
0.21875
100
AcDbLine
 10
683.2730231281394
 20
260.7227247795981
 30
0.0
 11
662.6730427196015
 21
260.7227247795983
 31
0.0
  0
ARC
  5
5B64
330
A
100
AcDbEntity
  8
0
 62
     7
100
AcDbCircle
 10
664.2730190640405
 20
260.1227186504307
 30
0.0
 40
0.5000001076389125
100
AcDbArc
 50
270.000001
 51
0.00001
  0
LINE
  5
5B65
330
A
100
AcDbEntity
  8
0
 62
     7
 48
0.007499
100
AcDbLine
 10
664.7730191716792
 20
260.1227186504307
 30
0.0
 11
664.7730191716792
 21
260.7226027795722
 31
0.0
  0
ARC
  5
5B66
330
A
100
AcDbEntity
  8
0
 62
     7
100
AcDbCircle
 10
683.2730231543195
 20
261.2227248872375
 30
0.0
 40
0.5000001076389125
100
AcDbArc
 50
269.9999969999999
 51
0.0
  0
LINE
  5
5B67
330
A
100
AcDbEntity
  8
0
 62
     7
 48
0.23125
100
AcDbLine
 10
661.6730425043236
 20
279.7942928852835
 30
0.0
 11
683.7730232619584
 21
279.7942928852835
 31
0.0
  0
LINE
  5
5B68
330
A
100
AcDbEntity
  8
0
 62
     7
 48
0.03875
100
AcDbLine
 10
669.1930641232172
 20
309.6227293066831
 30
0.0
 11
629.6730356154332
 21
309.6227293066831
 31
0.0
  0
LINE
  5
5B69
330
A
100
AcDbEntity
  8
0
 62
     7
 48
0.23125
100
AcDbLine
 10
661.6730425043236
 20
285.4511541030798
 30
0.0
 11
683.7730232619584
 21
285.4511541030798
 31
0.0
  0
LINE
  5
5B6A
330
A
100
AcDbEntity
  8
0
 62
     7
 48
0.01875
100
AcDbLine
 10
661.6730425043236
 20
293.2227317761278
 30
0.0
 11
663.1730428272406
 21
293.2227317761278
 31
0.0
  0
LINE
  5
5B6B
330
A
100
AcDbEntity
  8
0
 62
     7
 48
0.137372
100
AcDbLine
 10
677.262827703378
 20
308.2227350052951
 30
0.0
 11
661.6730425043236
 21
308.2227350052951
 31
0.0
  0
LINE
  5
5B6C
330
A
100
AcDbEntity
  8
0
 62
     7
 48
0.19875
100
AcDbLine
 10
623.6730343237662
 20
286.1227242476542
 30
0.0
 11
623.6730343237662
 21
305.7427224714038
 31
0.0
  0
LINE
  5
5B6D
330
A
100
AcDbEntity
  8
0
 62
     7
 48
0.26875
100
AcDbLine
 10
628.1730352925166
 20
308.1227289837663
 30
0.0
 11
628.1730352925166
 21
286.6227243552931
 31
0.0
  0
LINE
  5
5B6E
330
A
100
AcDbEntity
  8
0
 62
     7
 48
0.34375
100
AcDbLine
 10
633.6730364765444
 20
278.1227225254316
 30
0.0
 11
661.6730425043236
 21
278.1227225254316
 31
0.0
  0
ARC
  5
5B6F
330
A
100
AcDbEntity
  8
0
 62
     7
100
AcDbCircle
 10
635.5730608855776
 20
280.222728977516
 30
0.0
 40
0.6000001291666948
100
AcDbArc
 50
269.9999969999999
 51
0.0
  0
LINE
  5
5B70
330
A
100
AcDbEntity
  8
0
 62
     7
 48
0.34375
100
AcDbLine
 10
661.6730425043236
 20
287.1227244629319
 30
0.0
 11
633.6730364765444
 21
287.1227244629319
 31
0.0
  0
ARC
  5
5B71
330
A
100
AcDbEntity
  8
0
 62
     7
100
AcDbCircle
 10
635.5730608855776
 20
285.0227180108473
 30
0.0
 40
0.6000001291666948
100
AcDbArc
 50
0.0
 51
90.00000300000001
  0
LINE
  5
5B72
330
A
100
AcDbEntity
  8
0
 62
     7
 48
0.1
100
AcDbLine
 10
628.6730354001554
 20
286.6227243552931
 30
0.0
 11
628.6730354001554
 21
278.6227226330704
 31
0.0
  0
LINE
  5
5B73
330
A
100
AcDbEntity
  8
0
 62
     7
 48
0.019522
100
AcDbLine
 10
634.1730365841835
 20
286.6227243552931
 30
0.0
 11
634.1730365841835
 21
278.6227226330704
 31
0.0
  0
LINE
  5
5B74
330
A
100
AcDbEntity
  8
0
 62
     7
 48
0.1125
100
AcDbLine
 10
633.6730364765444
 20
278.1227225254316
 30
0.0
 11
633.6730364765444
 21
287.1227244629319
 31
0.0
  0
LINE
  5
5B75
330
A
100
AcDbEntity
  8
0
 62
     7
 48
0.006252
100
AcDbLine
 10
628.1730352925166
 20
279.1228447407353
 30
0.0
 11
628.1730352925166
 21
278.6227226330704
 31
0.0
  0
LINE
  5
5B76
330
A
100
AcDbEntity
  8
0
 62
     7
 48
0.00625
100
AcDbLine
 10
628.1730352925166
 20
278.6227226330704
 30
0.0
 11
628.6730354001554
 21
278.6227226330704
 31
0.0
  0
LINE
  5
5B77
330
A
100
AcDbEntity
  8
0
 62
     7
 48
0.0175
100
AcDbLine
 10
635.5730608855776
 20
279.6227228483484
 30
0.0
 11
634.1730365841835
 21
279.6227228483484
 31
0.0
  0
LINE
  5
5B78
330
A
100
AcDbEntity
  8
0
 62
     7
 48
0.008839
100
AcDbLine
 10
634.1730365841835
 20
278.6227226330704
 30
0.0
 11
633.6730364765444
 21
278.1227225254316
 31
0.0
  0
LINE
  5
5B79
330
A
100
AcDbEntity
  8
0
 62
     7
 48
0.05625
100
AcDbLine
 10
628.1730352925166
 20
288.3427267255713
 30
0.0
 11
623.6730343237662
 21
288.3427267255713
 31
0.0
  0
LINE
  5
5B7A
330
A
100
AcDbEntity
  8
0
 62
     7
 48
0.006252
100
AcDbLine
 10
628.1730352925166
 20
286.6227243552931
 30
0.0
 11
628.1730352925166
 21
286.1225722476215
 31
0.0
  0
LINE
  5
5B7B
330
A
100
AcDbEntity
  8
0
 62
     7
 48
0.00625
100
AcDbLine
 10
628.1730352925166
 20
286.6227243552931
 30
0.0
 11
628.6730354001554
 21
286.6227243552931
 31
0.0
  0
LINE
  5
5B7C
330
A
100
AcDbEntity
  8
0
 62
     7
 48
0.0175
100
AcDbLine
 10
635.5730608855776
 20
285.6227241400152
 30
0.0
 11
634.1730365841835
 21
285.6227241400152
 31
0.0
  0
LINE
  5
5B7D
330
A
100
AcDbEntity
  8
0
 62
     7
 48
0.008839
100
AcDbLine
 10
634.1730365841835
 20
286.6227243552931
 30
0.0
 11
633.6730364765444
 21
287.1227244629319
 31
0.0
  0
LINE
  5
5B7E
330
A
100
AcDbEntity
  8
0
 62
     7
 48
0.044382
100
AcDbLine
 10
636.1730610147443
 20
285.0227180108473
 30
0.0
 11
636.1730370147391
 21
280.222728977516
 31
0.0
  0
LINE
  5
5B7F
330
A
100
AcDbEntity
  8
0
 62
     7
 48
0.05625
100
AcDbLine
 10
628.1730352925166
 20
303.242721933209
 30
0.0
 11
623.6730343237662
 21
303.242721933209
 31
0.0
  0
LINE
  5
5B80
330
A
100
AcDbEntity
  8
0
 62
     7
 48
0.021339
100
AcDbLine
 10
628.1730352925166
 20
308.1227289837663
 30
0.0
 11
629.6730356154332
 21
309.6227293066831
 31
0.0
  0
ARC
  5
5B81
330
A
100
AcDbEntity
  8
0
 62
     7
100
AcDbCircle
 10
665.0730672362733
 20
298.3227088740397
 30
0.0
 40
0.6000001291666948
100
AcDbArc
 50
269.9999969999999
 51
0.0
  0
LINE
  5
5B82
330
A
100
AcDbEntity
  8
0
 62
     7
 48
0.01875
100
AcDbLine
 10
663.6730429348792
 20
307.7227348976563
 30
0.0
 11
663.6730429348792
 21
293.7227318837668
 31
0.0
  0
LINE
  5
5B83
330
A
100
AcDbEntity
  8
0
 62
     7
 48
0.0175
100
AcDbLine
 10
665.0730672362733
 20
297.7227327448781
 30
0.0
 11
663.6730429348792
 21
297.7227327448781
 31
0.0
  0
ARC
  5
5B84
330
A
100
AcDbEntity
  8
0
 62
     7
100
AcDbCircle
 10
663.1730428272406
 20
293.7227318837668
 30
0.0
 40
0.5000001076389125
100
AcDbArc
 50
270.000001
 51
0.00001
  0
LINE
  5
5B85
330
A
100
AcDbEntity
  8
0
 62
     7
 48
0.155781
100
AcDbLine
 10
665.6204313541085
 20
303.3684859602834
 30
0.0
 11
681.7572226561694
 21
303.3684859602832
 31
0.0
  0
LINE
  5
5B86
330
A
100
AcDbEntity
  8
0
 62
     7
 48
0.181908
100
AcDbLine
 10
683.7730232619581
 20
298.0769808211397
 30
0.0
 11
665.6204313541085
 21
298.0769808211397
 31
0.0
  0
LINE
  5
5B87
330
A
100
AcDbEntity
  8
0
 62
     7
 48
0.044383
100
AcDbLine
 10
665.6730673654401
 20
303.1227279073772
 30
0.0
 11
665.673043365435
 21
298.3227088740397
 31
0.0
  0
LINE
  5
5B88
330
A
100
AcDbEntity
  8
0
 62
     7
 48
0.0175
100
AcDbLine
 10
665.0730672362733
 20
303.722734036545
 30
0.0
 11
663.6730429348792
 21
303.722734036545
 31
0.0
  0
ARC
  5
5B89
330
A
100
AcDbEntity
  8
0
 62
     7
100
AcDbCircle
 10
665.0730672362733
 20
303.1227279073772
 30
0.0
 40
0.6000001291666948
100
AcDbArc
 50
0.0
 51
90.00000300000001
  0
ARC
  5
5B8A
330
A
100
AcDbEntity
  8
0
 62
     7
100
AcDbCircle
 10
669.1930641232172
 20
309.1227291990442
 30
0.0
 40
0.5000001076389125
100
AcDbArc
 50
0.0
 51
90.00000300000001
  0
LINE
  5
5B8B
330
A
100
AcDbEntity
  8
0
 62
     7
 48
0.006
100
AcDbLine
 10
666.6930635850227
 20
308.7027151086243
 30
0.0
 11
666.6930635850227
 21
308.2227350052951
 31
0.0
  0
LINE
  5
5B8C
330
A
100
AcDbEntity
  8
0
 62
     7
 48
0.006
100
AcDbLine
 10
666.5930275634869
 20
308.7027151086243
 30
0.0
 11
666.5930275634869
 21
308.2227350052951
 31
0.0
  0
LINE
  5
5B8D
330
A
100
AcDbEntity
  8
0
 62
     7
 48
0.00125
100
AcDbLine
 10
666.5930275634869
 20
308.7027151086243
 30
0.0
 11
666.6930635850227
 21
308.7027151086243
 31
0.0
  0
ARC
  5
5B8E
330
A
100
AcDbEntity
  8
0
 62
     7
100
AcDbCircle
 10
663.1730428272406
 20
307.7227348976563
 30
0.0
 40
0.5000001076389125
100
AcDbArc
 50
0.0
 51
90.00000300000001
  0
ARC
  5
5B8F
330
A
100
AcDbEntity
  8
0
 62
     7
100
AcDbCircle
 10
666.0930274558482
 20
309.1227291990442
 30
0.0
 40
0.5000001076389125
100
AcDbArc
 50
0.0
 51
90.00000300000001
  0
LINE
  5
5B90
330
A
100
AcDbEntity
  8
0
 62
     7
 48
0.01125
100
AcDbLine
 10
666.5930275634869
 20
309.1227291990442
 30
0.0
 11
666.5930275634869
 21
308.2227350052951
 31
0.0
  0
LINE
  5
5B91
330
A
100
AcDbEntity
  8
0
 62
     7
 48
0.006
100
AcDbLine
 10
669.7930402523788
 20
308.7027151086243
 30
0.0
 11
669.7930402523788
 21
308.2227350052951
 31
0.0
  0
LINE
  5
5B92
330
A
100
AcDbEntity
  8
0
 62
     7
 48
0.006
100
AcDbLine
 10
669.6930642308561
 20
308.7027151086243
 30
0.0
 11
669.6930642308561
 21
308.2227350052951
 31
0.0
  0
LINE
  5
5B93
330
A
100
AcDbEntity
  8
0
 62
     7
 48
0.00125
100
AcDbLine
 10
669.6930642308561
 20
308.7027151086243
 30
0.0
 11
669.7930402523788
 21
308.7027151086243
 31
0.0
  0
LINE
  5
5B94
330
A
100
AcDbEntity
  8
0
 62
     7
 48
0.011251
100
AcDbLine
 10
669.6930642308561
 20
309.1227291990442
 30
0.0
 11
669.6930642308561
 21
308.2226130052692
 31
0.0
  0
LINE
  5
5B95
330
A
100
AcDbEntity
  8
0
 62
     7
 48
0.044291
100
AcDbLine
 10
681.6181147980545
 20
303.6145500132553
 30
0.0
 11
679.8744024226719
 21
306.6991146772936
 31
0.0
  0
LINE
  5
5B96
330
A
100
AcDbEntity
  8
0
 62
     7
 48
0.037991
100
AcDbLine
 10
683.1138431200514
 20
300.9687974436836
 30
0.0
 11
681.6181147980545
 21
303.6145500132553
 31
0.0
  0
LINE
  5
5B97
330
A
100
AcDbEntity
  8
0
 62
     7
 48
0.000301
100
AcDbLine
 10
683.1256831225999
 20
300.9478614391767
 30
0.0
 11
683.1138431200514
 21
300.9687974436836
 31
0.0
  0
ARC
  5
5B98
330
A
100
AcDbEntity
  8
0
 62
     7
100
AcDbCircle
 10
678.7730221855691
 20
298.4872589094637
 30
0.0
 40
5.000001076389123
100
AcDbArc
 50
0.0
 51
29.48037299999999
  0
ARC
  5
5B99
330
A
100
AcDbEntity
  8
0
 62
     7
100
AcDbCircle
 10
677.2628278604577
 20
305.2227343594619
 30
0.0
 40
3.000000645833473
100
AcDbArc
 50
29.48037299999999
 51
90.00000300000001
  0
LINE
  5
5B9A
330
A
100
AcDbEntity
  8
0
 62
     7
 48
0.137372
100
AcDbLine
 10
677.262827703378
 20
371.2227485677981
 30
0.0
 11
661.6730425043236
 21
371.2227485677981
 31
0.0
  0
LINE
  5
5B9B
330
A
100
AcDbEntity
  8
0
 62
     7
 48
0.01875
100
AcDbLine
 10
661.6730425043236
 20
356.2227453386308
 30
0.0
 11
663.1730428272406
 21
356.2227453386308
 31
0.0
  0
LINE
  5
5B9C
330
A
100
AcDbEntity
  8
0
 62
     7
 48
0.23125
100
AcDbLine
 10
661.6730425043236
 20
348.4511676655829
 30
0.0
 11
683.7730232619584
 21
348.4511676655829
 31
0.0
  0
LINE
  5
5B9D
330
A
100
AcDbEntity
  8
0
 62
     7
 48
0.03875
100
AcDbLine
 10
669.1930641232172
 20
372.6227428691861
 30
0.0
 11
629.6730356154332
 21
372.6227428691861
 31
0.0
  0
LINE
  5
5B9E
330
A
100
AcDbEntity
  8
0
 62
     7
 48
0.23125
100
AcDbLine
 10
661.6730425043236
 20
342.7943064477866
 30
0.0
 11
683.7730232619584
 21
342.7943064477866
 31
0.0
  0
LINE
  5
5B9F
330
A
100
AcDbEntity
  8
0
 62
     7
 48
0.038625
100
AcDbLine
 10
661.1829903988259
 20
322.6227321052949
 30
0.0
 11
664.2730190640405
 21
322.6227321052949
 31
0.0
  0
ARC
  5
5BA0
330
A
100
AcDbEntity
  8
0
 62
     7
100
AcDbCircle
 10
662.6730427196015
 20
324.7227385573793
 30
0.0
 40
1.000000215277824
100
AcDbArc
 50
180.000005
 51
270.000001
  0
LINE
  5
5BA1
330
A
100
AcDbEntity
  8
0
 62
     7
 48
0.225
100
AcDbLine
 10
661.6730425043236
 20
323.1227322129337
 30
0.0
 11
661.6730425043236
 21
341.1227360879347
 31
0.0
  0
LINE
  5
5BA2
330
A
100
AcDbEntity
  8
0
 62
     7
 48
0.21875
100
AcDbLine
 10
628.1730352925166
 20
341.6227361955734
 30
0.0
 11
628.1730352925166
 21
324.1227324282116
 31
0.0
  0
LINE
  5
5BA3
330
A
100
AcDbEntity
  8
0
 62
     7
 48
0.225895
100
AcDbLine
 10
661.6730425043236
 20
324.7227385573793
 30
0.0
 11
661.6730425043236
 21
372.6227428691861
 31
0.0
  0
LINE
  5
5BA4
330
A
100
AcDbEntity
  8
0
 62
     7
 48
0.3875
100
AcDbLine
 10
630.1730357230723
 20
322.6227321052949
 30
0.0
 11
661.1730423966847
 21
322.6227321052949
 31
0.0
  0
LINE
  5
5BA5
330
A
100
AcDbEntity
  8
0
 62
     7
 48
0.021339
100
AcDbLine
 10
628.1730352925166
 20
324.1227324282116
 30
0.0
 11
629.3801275523767
 21
322.9156081683439
 31
0.0
  0
LINE
  5
5BA6
330
A
100
AcDbEntity
  8
0
 62
     7
 48
0.00625
100
AcDbLine
 10
630.1730357230723
 20
322.6227321052949
 30
0.0
 11
629.6730356154332
 21
322.6227321052949
 31
0.0
  0
LINE
  5
5BA7
330
A
100
AcDbEntity
  8
0
 62
     7
 48
0.001768
100
AcDbLine
 10
629.6730356154332
 20
322.6227321052949
 30
0.0
 11
629.5730595939105
 21
322.7227381268237
 31
0.0
  0
LINE
  5
5BA8
330
A
100
AcDbEntity
  8
0
 62
     7
 48
0.002121
100
AcDbLine
 10
629.5730595939105
 20
322.7227381268237
 30
0.0
 11
629.4530655680786
 21
322.8427341526562
 31
0.0
  0
LINE
  5
5BA9
330
A
100
AcDbEntity
  8
0
 62
     7
 48
0.001289
100
AcDbLine
 10
629.3801275523767
 20
322.9156081683439
 30
0.0
 11
629.4530655680786
 21
322.8427341526562
 31
0.0
  0
ARC
  5
5BAA
330
A
100
AcDbEntity
  8
0
 62
     7
100
AcDbCircle
 10
661.1730423966847
 20
323.1227322129337
 30
0.0
 40
0.5000001076389125
100
AcDbArc
 50
270.000001
 51
0.00001
  0
LINE
  5
5BAB
330
A
100
AcDbEntity
  8
0
 62
     7
 48
0.26875
100
AcDbLine
 10
628.1730352925166
 20
371.1227425462693
 30
0.0
 11
628.1730352925166
 21
349.6227379177962
 31
0.0
  0
ARC
  5
5BAC
330
A
100
AcDbEntity
  8
0
 62
     7
100
AcDbCircle
 10
635.5730608855776
 20
348.0227315733503
 30
0.0
 40
0.6000001291666948
100
AcDbArc
 50
0.0
 51
90.00000300000001
  0
LINE
  5
5BAD
330
A
100
AcDbEntity
  8
0
 62
     7
 48
0.34375
100
AcDbLine
 10
661.6730425043236
 20
350.1227380254349
 30
0.0
 11
633.6730364765444
 21
350.1227380254349
 31
0.0
  0
ARC
  5
5BAE
330
A
100
AcDbEntity
  8
0
 62
     7
100
AcDbCircle
 10
635.5730608855776
 20
343.2227425400191
 30
0.0
 40
0.6000001291666948
100
AcDbArc
 50
269.9999969999999
 51
0.0
  0
LINE
  5
5BAF
330
A
100
AcDbEntity
  8
0
 62
     7
 48
0.34375
100
AcDbLine
 10
633.6730364765444
 20
341.1227360879347
 30
0.0
 11
661.6730425043236
 21
341.1227360879347
 31
0.0
  0
LINE
  5
5BB0
330
A
100
AcDbEntity
  8
0
 62
     7
 48
0.1125
100
AcDbLine
 10
633.6730364765444
 20
341.1227360879347
 30
0.0
 11
633.6730364765444
 21
350.1227380254349
 31
0.0
  0
LINE
  5
5BB1
330
A
100
AcDbEntity
  8
0
 62
     7
 48
0.019522
100
AcDbLine
 10
634.1730365841835
 20
349.6227379177962
 30
0.0
 11
634.1730365841835
 21
341.6227361955734
 31
0.0
  0
LINE
  5
5BB2
330
A
100
AcDbEntity
  8
0
 62
     7
 48
0.1
100
AcDbLine
 10
628.6730354001554
 20
349.6227379177962
 30
0.0
 11
628.6730354001554
 21
341.6227361955734
 31
0.0
  0
LINE
  5
5BB3
330
A
100
AcDbEntity
  8
0
 62
     7
 48
0.00625
100
AcDbLine
 10
628.1730352925166
 20
341.6227361955734
 30
0.0
 11
628.6730354001554
 21
341.6227361955734
 31
0.0
  0
LINE
  5
5BB4
330
A
100
AcDbEntity
  8
0
 62
     7
 48
0.006252
100
AcDbLine
 10
628.1730352925166
 20
342.1228583032383
 30
0.0
 11
628.1730352925166
 21
341.6227361955734
 31
0.0
  0
LINE
  5
5BB5
330
A
100
AcDbEntity
  8
0
 62
     7
 48
0.008839
100
AcDbLine
 10
634.1730365841835
 20
341.6227361955734
 30
0.0
 11
633.6730364765444
 21
341.1227360879347
 31
0.0
  0
LINE
  5
5BB6
330
A
100
AcDbEntity
  8
0
 62
     7
 48
0.0175
100
AcDbLine
 10
635.5730608855776
 20
342.6227364108514
 30
0.0
 11
634.1730365841835
 21
342.6227364108514
 31
0.0
  0
LINE
  5
5BB7
330
A
100
AcDbEntity
  8
0
 62
     7
 48
0.00625
100
AcDbLine
 10
628.1730352925166
 20
349.6227379177962
 30
0.0
 11
628.6730354001554
 21
349.6227379177962
 31
0.0
  0
LINE
  5
5BB8
330
A
100
AcDbEntity
  8
0
 62
     7
 48
0.006252
100
AcDbLine
 10
628.1730352925166
 20
349.6227379177962
 30
0.0
 11
628.1730352925166
 21
349.1225858101245
 31
0.0
  0
LINE
  5
5BB9
330
A
100
AcDbEntity
  8
0
 62
     7
 48
0.008839
100
AcDbLine
 10
634.1730365841835
 20
349.6227379177962
 30
0.0
 11
633.6730364765444
 21
350.1227380254349
 31
0.0
  0
LINE
  5
5BBA
330
A
100
AcDbEntity
  8
0
 62
     7
 48
0.0175
100
AcDbLine
 10
635.5730608855776
 20
348.6227377025183
 30
0.0
 11
634.1730365841835
 21
348.6227377025183
 31
0.0
  0
LINE
  5
5BBB
330
A
100
AcDbEntity
  8
0
 62
     7
 48
0.044382
100
AcDbLine
 10
636.1730610147443
 20
348.0227315733503
 30
0.0
 11
636.1730370147391
 21
343.2227425400191
 31
0.0
  0
LINE
  5
5BBC
330
A
100
AcDbEntity
  8
0
 62
     7
 48
0.021339
100
AcDbLine
 10
628.1730352925166
 20
371.1227425462693
 30
0.0
 11
629.6730356154332
 21
372.6227428691861
 31
0.0
  0
LINE
  5
5BBD
330
A
100
AcDbEntity
  8
0
 62
     7
 48
0.232145
100
AcDbLine
 10
683.7730232619584
 20
324.2227384497405
 30
0.0
 11
683.7730232619584
 21
361.4872724719667
 31
0.0
  0
LINE
  5
5BBE
330
A
100
AcDbEntity
  8
0
 62
     7
 48
0.21875
100
AcDbLine
 10
683.2730231281394
 20
323.7227383421012
 30
0.0
 11
662.6730427196015
 21
323.7227383421013
 31
0.0
  0
LINE
  5
5BBF
330
A
100
AcDbEntity
  8
0
 62
     7
 48
0.007499
100
AcDbLine
 10
664.7730191716792
 20
323.1227322129337
 30
0.0
 11
664.7730191716792
 21
323.7226163420753
 31
0.0
  0
ARC
  5
5BC0
330
A
100
AcDbEntity
  8
0
 62
     7
100
AcDbCircle
 10
664.2730190640405
 20
323.1227322129337
 30
0.0
 40
0.5000001076389125
100
AcDbArc
 50
270.000001
 51
0.00001
  0
ARC
  5
5BC1
330
A
100
AcDbEntity
  8
0
 62
     7
100
AcDbCircle
 10
683.2730231543195
 20
324.2227384497405
 30
0.0
 40
0.5000001076389125
100
AcDbArc
 50
269.9999969999999
 51
0.0
  0
LINE
  5
5BC2
330
A
100
AcDbEntity
  8
0
 62
     7
 48
0.044383
100
AcDbLine
 10
665.6730673654401
 20
366.1227414698803
 30
0.0
 11
665.673043365435
 21
361.3227224365427
 31
0.0
  0
LINE
  5
5BC3
330
A
100
AcDbEntity
  8
0
 62
     7
 48
0.01875
100
AcDbLine
 10
663.6730429348792
 20
370.7227484601593
 30
0.0
 11
663.6730429348792
 21
356.7227454462698
 31
0.0
  0
LINE
  5
5BC4
330
A
100
AcDbEntity
  8
0
 62
     7
 48
0.181908
100
AcDbLine
 10
683.7730232619581
 20
361.0769943836428
 30
0.0
 11
665.6204313541085
 21
361.0769943836428
 31
0.0
  0
ARC
  5
5BC5
330
A
100
AcDbEntity
  8
0
 62
     7
100
AcDbCircle
 10
663.1730428272406
 20
356.7227454462698
 30
0.0
 40
0.5000001076389125
100
AcDbArc
 50
270.000001
 51
0.00001
  0
LINE
  5
5BC6
330
A
100
AcDbEntity
  8
0
 62
     7
 48
0.0175
100
AcDbLine
 10
665.0730672362733
 20
360.7227463073811
 30
0.0
 11
663.6730429348792
 21
360.7227463073811
 31
0.0
  0
ARC
  5
5BC7
330
A
100
AcDbEntity
  8
0
 62
     7
100
AcDbCircle
 10
665.0730672362733
 20
361.3227224365427
 30
0.0
 40
0.6000001291666948
100
AcDbArc
 50
269.9999969999999
 51
0.0
  0
LINE
  5
5BC8
330
A
100
AcDbEntity
  8
0
 62
     7
 48
0.155781
100
AcDbLine
 10
665.6204313541085
 20
366.3684995227864
 30
0.0
 11
681.7572226561694
 21
366.3684995227863
 31
0.0
  0
ARC
  5
5BC9
330
A
100
AcDbEntity
  8
0
 62
     7
100
AcDbCircle
 10
665.0730672362733
 20
366.1227414698803
 30
0.0
 40
0.6000001291666948
100
AcDbArc
 50
0.0
 51
90.00000300000001
  0
LINE
  5
5BCA
330
A
100
AcDbEntity
  8
0
 62
     7
 48
0.0175
100
AcDbLine
 10
665.0730672362733
 20
366.722747599048
 30
0.0
 11
663.6730429348792
 21
366.722747599048
 31
0.0
  0
ARC
  5
5BCB
330
A
100
AcDbEntity
  8
0
 62
     7
100
AcDbCircle
 10
669.1930641232172
 20
372.1227427615472
 30
0.0
 40
0.5000001076389125
100
AcDbArc
 50
0.0
 51
90.00000300000001
  0
LINE
  5
5BCC
330
A
100
AcDbEntity
  8
0
 62
     7
 48
0.01125
100
AcDbLine
 10
666.5930275634869
 20
372.1227427615472
 30
0.0
 11
666.5930275634869
 21
371.2227485677981
 31
0.0
  0
ARC
  5
5BCD
330
A
100
AcDbEntity
  8
0
 62
     7
100
AcDbCircle
 10
666.0930274558482
 20
372.1227427615472
 30
0.0
 40
0.5000001076389125
100
AcDbArc
 50
0.0
 51
90.00000300000001
  0
ARC
  5
5BCE
330
A
100
AcDbEntity
  8
0
 62
     7
100
AcDbCircle
 10
663.1730428272406
 20
370.7227484601593
 30
0.0
 40
0.5000001076389125
100
AcDbArc
 50
0.0
 51
90.00000300000001
  0
LINE
  5
5BCF
330
A
100
AcDbEntity
  8
0
 62
     7
 48
0.00125
100
AcDbLine
 10
666.5930275634869
 20
371.7027286711273
 30
0.0
 11
666.6930635850227
 21
371.7027286711273
 31
0.0
  0
LINE
  5
5BD0
330
A
100
AcDbEntity
  8
0
 62
     7
 48
0.006
100
AcDbLine
 10
666.5930275634869
 20
371.7027286711273
 30
0.0
 11
666.5930275634869
 21
371.2227485677981
 31
0.0
  0
LINE
  5
5BD1
330
A
100
AcDbEntity
  8
0
 62
     7
 48
0.006
100
AcDbLine
 10
666.6930635850227
 20
371.7027286711273
 30
0.0
 11
666.6930635850227
 21
371.2227485677981
 31
0.0
  0
LINE
  5
5BD2
330
A
100
AcDbEntity
  8
0
 62
     7
 48
0.011251
100
AcDbLine
 10
669.6930642308561
 20
372.1227427615472
 30
0.0
 11
669.6930642308561
 21
371.2226265677721
 31
0.0
  0
LINE
  5
5BD3
330
A
100
AcDbEntity
  8
0
 62
     7
 48
0.00125
100
AcDbLine
 10
669.6930642308561
 20
371.7027286711273
 30
0.0
 11
669.7930402523788
 21
371.7027286711273
 31
0.0
  0
LINE
  5
5BD4
330
A
100
AcDbEntity
  8
0
 62
     7
 48
0.006
100
AcDbLine
 10
669.6930642308561
 20
371.7027286711273
 30
0.0
 11
669.6930642308561
 21
371.2227485677981
 31
0.0
  0
LINE
  5
5BD5
330
A
100
AcDbEntity
  8
0
 62
     7
 48
0.006
100
AcDbLine
 10
669.7930402523788
 20
371.7027286711273
 30
0.0
 11
669.7930402523788
 21
371.2227485677981
 31
0.0
  0
LINE
  5
5BD6
330
A
100
AcDbEntity
  8
0
 62
     7
 48
0.044291
100
AcDbLine
 10
681.6181147980545
 20
366.6145635757583
 30
0.0
 11
679.8744024226719
 21
369.6991282397966
 31
0.0
  0
LINE
  5
5BD7
330
A
100
AcDbEntity
  8
0
 62
     7
 48
0.037991
100
AcDbLine
 10
683.1138431200514
 20
363.9688110061866
 30
0.0
 11
681.6181147980545
 21
366.6145635757583
 31
0.0
  0
ARC
  5
5BD8
330
A
100
AcDbEntity
  8
0
 62
     7
100
AcDbCircle
 10
678.7730221855691
 20
361.4872724719667
 30
0.0
 40
5.000001076389123
100
AcDbArc
 50
0.0
 51
29.48037299999999
  0
LINE
  5
5BD9
330
A
100
AcDbEntity
  8
0
 62
     7
 48
0.000301
100
AcDbLine
 10
683.1256831225999
 20
363.9478750016797
 30
0.0
 11
683.1138431200514
 21
363.9688110061866
 31
0.0
  0
ARC
  5
5BDA
330
A
100
AcDbEntity
  8
0
 62
     7
100
AcDbCircle
 10
677.2628278604577
 20
368.2227479219649
 30
0.0
 40
3.000000645833473
100
AcDbArc
 50
29.48037299999999
 51
90.00000300000001
  0
LINE
  5
5BDB
330
A
100
AcDbEntity
  8
0
 62
     7
 48
0.19875
100
AcDbLine
 10
623.6730343237662
 20
349.1227378101573
 30
0.0
 11
623.6730343237662
 21
368.7427360339067
 31
0.0
  0
LINE
  5
5BDC
330
A
100
AcDbEntity
  8
0
 62
     7
 48
0.05625
100
AcDbLine
 10
628.1730352925166
 20
351.3427402880743
 30
0.0
 11
623.6730343237662
 21
351.3427402880743
 31
0.0
  0
LINE
  5
5BDD
330
A
100
AcDbEntity
  8
0
 62
     7
 48
0.05625
100
AcDbLine
 10
628.1730352925166
 20
366.242735495712
 30
0.0
 11
623.6730343237662
 21
366.242735495712
 31
0.0
  0
VIEWPORT
  5
59E5
330
B
100
AcDbEntity
 67
     1
  8
0
 62
     0
100
AcDbViewport
 10
0.0
 20
0.0
 30
0.0
 40
1000.0
 41
1000.0
 68
     1
 69
     1
 12
0.0
 22
0.0
 13
0.0
 23
0.0
 14
1.0
 24
1.0
 15
1.0
 25
1.0
 16
0.0
 26
0.0
 36
1.0
 17
0.0
 27
0.0
 37
0.0
 42
50.0
 43
0.0
 44
0.0
 45
1000.0
 50
0.0
 51
0.0
 72
   100
 90
    32800
  1

281
     0
 71
     1
 74
     0
110
0.0
120
0.0
130
0.0
111
1.0
121
0.0
131
0.0
112
0.0
122
1.0
132
0.0
 79
     0
146
0.0
  0
ENDSEC
  0
SECTION
  2
OBJECTS
  0
DICTIONARY
  5
19
330
0
100
AcDbDictionary
281
     1
  3
ACAD_GROUP
350
1A
  3
ACAD_LAYOUT
350
59EC
  3
ACAD_MLINESTYLE
350
1B
  3
ACAD_PLOTSETTINGS
350
59ED
  3
ACAD_PLOTSTYLENAME
350
59EA
  0
DICTIONARY
  5
1A
102
{ACAD_REACTORS
330
19
102
}
330
19
100
AcDbDictionary
281
     1
  0
DICTIONARY
  5
59EC
102
{ACAD_REACTORS
330
19
102
}
330
19
100
AcDbDictionary
281
     1
  3
Model
350
59EE
  3
ﾚｲｱｳﾄ1
350
59EF
  0
DICTIONARY
  5
1B
102
{ACAD_REACTORS
330
19
102
}
330
19
100
AcDbDictionary
281
     1
  3
STANDARD
350
1C
  0
DICTIONARY
  5
59ED
102
{ACAD_REACTORS
330
19
102
}
330
19
100
AcDbDictionary
281
     1
  0
ACDBDICTIONARYWDFLT
  5
59EA
102
{ACAD_REACTORS
330
19
102
}
330
19
100
AcDbDictionary
281
     1
  3
Normal
350
59EB
100
AcDbDictionaryWithDefault
340
59EB
  0
LAYOUT
  5
59EE
102
{ACAD_REACTORS
330
59EC
102
}
330
59EC
100
AcDbPlotSettings
  1

  2
Canon iR-ADV C5030/5035 LIPSLX
  4

  6

 40
0.0
 41
0.0
 42
0.0
 43
0.0
 44
0.0
 45
0.0
 46
0.0
 47
0.0
 48
0.0
 49
0.0
140
0.0
141
0.0
142
1.0
143
1.0
 70
  1712
 72
     0
 73
     0
 74
     0
  7

 75
     0
147
1.0
148
0.0
149
0.0
100
AcDbLayout
  1
Model
 70
     1
 71
     0
 10
0.0
 20
0.0
 11
12.0
 21
9.0
 12
0.0
 22
0.0
 32
0.0
 14
0.0
 24
0.0
 34
0.0
 15
0.0
 25
0.0
 35
0.0
146
0.0
 13
0.0
 23
0.0
 33
0.0
 16
1.0
 26
0.0
 36
0.0
 17
0.0
 27
1.0
 37
0.0
 76
     0
330
A
  0
LAYOUT
  5
59EF
102
{ACAD_REACTORS
330
59EC
102
}
330
59EC
100
AcDbPlotSettings
  1

  2
Canon iR-ADV C5030/5035 LIPSLX
  4

  6

 40
0.0
 41
0.0
 42
0.0
 43
0.0
 44
0.0
 45
0.0
 46
0.0
 47
0.0
 48
0.0
 49
0.0
140
0.0
141
0.0
142
1.0
143
1.0
 70
   688
 72
     0
 73
     0
 74
     5
  7

 75
    16
147
1.0
148
0.0
149
0.0
100
AcDbLayout
  1
ﾚｲｱｳﾄ1
 70
     1
 71
     1
 10
0.0
 20
0.0
 11
420.0
 21
297.0
 12
0.0
 22
0.0
 32
0.0
 14
0.0
 24
0.0
 34
0.0
 15
401.4999999999998
 25
275.0
 35
2.0
146
0.0
 13
0.0
 23
0.0
 33
0.0
 16
1.0
 26
0.0
 36
0.0
 17
0.0
 27
1.0
 37
0.0
 76
     0
330
B
331
59E5
  0
MLINESTYLE
  5
1C
102
{ACAD_REACTORS
330
1B
102
}
330
1B
100
AcDbMlineStyle
  2
STANDARD
 70
     0
  3

 62
     0
 51
90.0
 52
90.0
 71
     2
 49
0.5
 62
   256
  6
BYLAYER
 49
-0.5
 62
   256
  6
BYLAYER
  0
ACDBPLACEHOLDER
  5
59EB
102
{ACAD_REACTORS
330
59EA
102
}
330
59EA
  0
ENDSEC
  0
EOF
