  0
SECTION
  2
HEADER
  9
$ACADVER
  1
AC1014
  9
$ACADMAINTVER
 70
     0
  9
$DWGCODEPAGE
  3
ANSI_1252
  9
$INSBASE
 10
0.0
 20
0.0
 30
0.0
  9
$EXTMIN
 10
0.0
 20
0.0
 30
0.0
  9
$EXTMAX
 10
280.908813
 20
129.0
 30
2.0
  9
$LIMMIN
 10
0.0
 20
0.0
  9
$LIMMAX
 10
420.0
 20
297.0
  9
$ORTHOMODE
 70
     0
  9
$REGENMODE
 70
     1
  9
$FILLMODE
 70
     1
  9
$QTEXTMODE
 70
     0
  9
$MIRRTEXT
 70
     1
  9
$DRAGMODE
 70
     2
  9
$LTSCALE
 40
1.0
  9
$OSMODE
 70
     0
  9
$ATTMODE
 70
     1
  9
$TEXTSIZE
 40
2.5
  9
$TRACEWID
 40
1.0
  9
$TEXTSTYLE
  7
STANDARD
  9
$CLAYER
  8
0
  9
$CELTYPE
  6
BYLAYER
  9
$CECOLOR
 62
   256
  9
$CELTSCALE
 40
1.0
  9
$DELOBJ
 70
     1
  9
$DISPSILH
 70
     0
  9
$DIMSCALE
 40
1.0
  9
$DIMASZ
 40
2.5
  9
$DIMEXO
 40
0.625
  9
$DIMDLI
 40
3.75
  9
$DIMRND
 40
0.0
  9
$DIMDLE
 40
0.0
  9
$DIMEXE
 40
1.25
  9
$DIMTP
 40
0.0
  9
$DIMTM
 40
0.0
  9
$DIMTXT
 40
2.5
  9
$DIMCEN
 40
2.5
  9
$DIMTSZ
 40
0.0
  9
$DIMTOL
 70
     0
  9
$DIMLIM
 70
     0
  9
$DIMTIH
 70
     0
  9
$DIMTOH
 70
     0
  9
$DIMSE1
 70
     0
  9
$DIMSE2
 70
     0
  9
$DIMTAD
 70
     1
  9
$DIMZIN
 70
     8
  9
$DIMBLK
  1

  9
$DIMASO
 70
     1
  9
$DIMSHO
 70
     1
  9
$DIMPOST
  1

  9
$DIMAPOST
  1

  9
$DIMALT
 70
     0
  9
$DIMALTD
 70
     3
  9
$DIMALTF
 40
0.03937
  9
$DIMLFAC
 40
1.0
  9
$DIMTOFL
 70
     1
  9
$DIMTVP
 40
0.0
  9
$DIMTIX
 70
     0
  9
$DIMSOXD
 70
     0
  9
$DIMSAH
 70
     0
  9
$DIMBLK1
  1

  9
$DIMBLK2
  1

  9
$DIMSTYLE
  2

  9
$DIMCLRD
 70
     0
  9
$DIMCLRE
 70
     0
  9
$DIMCLRT
 70
     0
  9
$DIMTFAC
 40
1.0
  9
$DIMGAP
 40
0.625
  9
$DIMJUST
 70
     0
  9
$DIMSD1
 70
     0
  9
$DIMSD2
 70
     0
  9
$DIMTOLJ
 70
     0
  9
$DIMTZIN
 70
     8
  9
$DIMALTZ
 70
     0
  9
$DIMALTTZ
 70
     0
  9
$DIMFIT
 70
     0
  9
$DIMUPT
 70
     0
  9
$DIMUNIT
 70
     2
  9
$DIMDEC
 70
     2
  9
$DIMTDEC
 70
     2
  9
$DIMALTU
 70
     2
  9
$DIMALTTD
 70
     3
  9
$DIMTXSTY
  7
STANDARD
  9
$DIMAUNIT
 70
     0
  9
$LUNITS
 70
     2
  9
$LUPREC
 70
     4
  9
$SKETCHINC
 40
1.0
  9
$FILLETRAD
 40
2.5
  9
$AUNITS
 70
     0
  9
$AUPREC
 70
     0
  9
$MENU
  1
.
  9
$ELEVATION
 40
0.0
  9
$PELEVATION
 40
0.0
  9
$THICKNESS
 40
0.0
  9
$LIMCHECK
 70
     0
  9
$BLIPMODE
 70
     1
  9
$CHAMFERA
 40
2.5
  9
$CHAMFERB
 40
2.5
  9
$CHAMFERC
 40
0.0
  9
$CHAMFERD
 40
0.0
  9
$SKPOLY
 70
     0
  9
$TDCREATE
 40
0.000000000
  9
$TDUPDATE
 40
0.000000000
  9
$TDINDWG
 40
0.0000000000
  9
$TDUSRTIMER
 40
0.0000000000
  9
$USRTIMER
 70
     1
  9
$ANGBASE
 50
0.0
  9
$ANGDIR
 70
     0
  9
$PDMODE
 70
     0
  9
$PDSIZE
 40
0.0
  9
$PLINEWID
 40
0.0
  9
$COORDS
 70
     0
  9
$SPLFRAME
 70
     0
  9
$SPLINETYPE
 70
     6
  9
$SPLINESEGS
 70
     8
  9
$ATTDIA
 70
     0
  9
$ATTREQ
 70
     1
  9
$HANDLING
 70
     1
  9
$HANDSEED
  5
65F
  9
$SURFTAB1
 70
     6
  9
$SURFTAB2
 70
     6
  9
$SURFTYPE
 70
     6
  9
$SURFU
 70
     6
  9
$SURFV
 70
     6
  9
$UCSNAME
  2

  9
$UCSORG
 10
0.0
 20
0.0
 30
0.0
  9
$UCSXDIR
 10
1.0
 20
0.0
 30
0.0
  9
$UCSYDIR
 10
0.0
 20
1.0
 30
0.0
  9
$PUCSNAME
  2

  9
$PUCSORG
 10
0.0
 20
0.0
 30
0.0
  9
$PUCSXDIR
 10
1.0
 20
0.0
 30
0.0
  9
$PUCSYDIR
 10
0.0
 20
1.0
 30
0.0
  9
$USERI1
 70
     0
  9
$USERI2
 70
     0
  9
$USERI3
 70
     0
  9
$USERI4
 70
     0
  9
$USERI5
 70
     0
  9
$USERR1
 40
0.0
  9
$USERR2
 40
0.0
  9
$USERR3
 40
0.0
  9
$USERR4
 40
0.0
  9
$USERR5
 40
0.0
  9
$WORLDVIEW
 70
     1
  9
$SHADEDGE
 70
     3
  9
$SHADEDIF
 70
    70
  9
$TILEMODE
 70
     1
  9
$MAXACTVP
 70
    48
  9
$PINSBASE
 10
0.0
 20
0.0
 30
0.0
  9
$PLIMCHECK
 70
     0
  9
$PEXTMIN
 10
0.0
 20
0.0
 30
0.0
  9
$PEXTMAX
 10
280.908813
 20
129.0
 30
2.0
  9
$PLIMMIN
 10
0.0
 20
0.0
  9
$PLIMMAX
 10
420.0
 20
297.0
  9
$UNITMODE
 70
     0
  9
$VISRETAIN
 70
     0
  9
$PLINEGEN
 70
     0
  9
$PSLTSCALE
 70
     1
  9
$TREEDEPTH
 70
  3020
  9
$PICKSTYLE
 70
     1
  9
$CMLSTYLE
  2
STANDARD
  9
$CMLJUST
 70
     0
  9
$CMLSCALE
 40
20.0
  9
$PROXYGRAPHICS
 70
     1
  9
$MEASUREMENT
 70
     1
  0
ENDSEC
  0
SECTION
  2
CLASSES
  0
CLASS
  1
LWPOLYLINE
  2
AcDbPolyline
  3
"AutoCAD"
 90
        0
280
     0
281
     1
  0
CLASS
  1
IMAGE
  2
AcDbRasterImage
  3
ISM
 90
      127
280
     0
281
     1
  0
CLASS
  1
OLE2FRAME
  2
AcDbOle2Frame
  3
""
 90
        0
280
     0
281
     1
  0
CLASS
  1
HATCH
  2
AcDbHatch
  3
"ACAD_SEDONA"
 90
        0
280
     0
281
     1
  0
CLASS
  1
DICTIONARYVAR
  2
AcDbDictionaryVar
  3
"AutoCAD"
 90
        0
280
     0
281
     0
  0
CLASS
  1
RASTERVARIABLES
  2
AcDbRasterVariables
  3
ISM
 90
        0
280
     0
281
     0
  0
CLASS
  1
IMAGEDEF
  2
AcDbRasterImageDef
  3
ISM
 90
        0
280
     0
281
     0
  0
CLASS
  1
IMAGEDEF_REACTOR
  2
AcDbRasterImageDefReactor
  3
ISM
 90
        1
280
     0
281
     0
  0
CLASS
  1
IDBUFFER
  2
AcDbIdBuffer
  3
"Acad"
 90
        0
280
     0
281
     0
  0
CLASS
  1
SPATIAL_FILTER
  2
AcDbSpatialFilter
  3
"Acad"
 90
        0
280
     0
281
     0
  0
CLASS
  1
XRECORD
  2
AcDbXrecord
  3
"<Built In>"
 90
        0
280
     0
281
     0
  0
CLASS
  1
SORTENTSTABLE
  2
AcDbSortentsTable
  3
"AutoCAD"
 90
        0
280
     0
281
     0
  0
CLASS
  1
LAYER_INDEX
  2
AcDbLayerIndex
  3
"Acad"
 90
        0
280
     0
281
     0
  0
CLASS
  1
SPATIAL_INDEX
  2
AcDbSpatialIndex
  3
"Acad"
 90
        0
280
     0
281
     0
  0
CLASS
  1
OBJECT_PTR
  2
CAseDLPNTableRecord
  3
"ASE-LPNTableRecord"
 90
        1
280
     0
281
     0
  0
CLASS
  1
LAYOUT
  2
AcDbLayout
  3
"AutoCAD 2000"
 90
        0
280
     0
281
     0
  0
CLASS
  1
PLOTSETTINGS
  2
AcDbPlotSettings
  3
"AutoCAD 2000"
 90
        0
280
     0
281
     0
  0
CLASS
  1
ACDBDICTIONARYWDFLT
  2
AcDbDictionaryWithDefault
  3
"AutoCAD 2000"
 90
        0
280
     0
281
     0
  0
CLASS
  1
ACDBPLACEHOLDER
  2
AcDbPlaceHolder
  3
"AutoCAD 2000"
 90
        0
280
     0
281
     0
  0
CLASS
  1
VBA_PROJECT
  2
AcDbVbaProject
  3
"acadvba"
 90
        0
280
     0
281
     0
  0
CLASS
  1
WIPEOUT
  2
AcDbWipeout
  3
WipeOut|AutoCAD Express Tool|expresstools@autodesk.com
 90
      127
280
     0
281
     1
  0
CLASS
  1
WIPEOUTVARIABLES
  2
AcDbWipeoutVariables
  3
WipeOut|AutoCAD Express Tool|expresstools@autodesk.com
 90
        0
280
     0
281
     0
  0
CLASS
  1
RTEXT
  2
RText
  3
RText|AutoCAD Express Tool|expresstools@autodesk.com
 90
        0
280
     0
281
     1
  0
CLASS
  1
ARCALIGNEDTEXT
  2
AcDbArcAlignedText
  3
ATEXT|AutoCAD Express Tool|expresstools@autodesk.com
 90
        0
280
     0
281
     1
  0
ENDSEC
  0
SECTION
  2
TABLES
  0
TABLE
  2
VPORT
  5
7
100
AcDbSymbolTable
 70
     1
  0
VPORT
  5
15
100
AcDbSymbolTableRecord
100
AcDbViewportTableRecord
  2
*ACTIVE
 70
     0
 10
0.0
 20
0.0
 11
1.0
 21
1.0
 12
6.591288
 22
4.579184
 13
0.0
 23
0.0
 14
1.0
 24
1.0
 15
0.0
 25
0.0
 16
0.0
 26
0.0
 36
1.0
 17
0.0
 27
0.0
 37
0.0
 40
9.158369
 41
0.688564
 42
50.0
 43
0.0
 44
0.0
 50
0.0
 51
0.0
 71
     0
 72
   100
 73
     1
 74
     1
 75
     0
 76
     0
 77
     0
 78
     0
  0
ENDTAB
  0
TABLE
  2
LTYPE
  5
4
100
AcDbSymbolTable
 70
     3
  0
LTYPE
  5
11
100
AcDbSymbolTableRecord
100
AcDbLinetypeTableRecord
  2
BYBLOCK
 70
    64
  3

 72
    65
 73
     0
 40
0.0
  0
LTYPE
  5
12
100
AcDbSymbolTableRecord
100
AcDbLinetypeTableRecord
  2
BYLAYER
 70
    64
  3

 72
    65
 73
     0
 40
0.0
  0
LTYPE
  5
13
100
AcDbSymbolTableRecord
100
AcDbLinetypeTableRecord
  2
CONTINUOUS
 70
    64
  3
Solid line
 72
    65
 73
     0
 40
0.0
  0
ENDTAB
  0
TABLE
  2
LAYER
  5
2
100
AcDbSymbolTable
 70
     1
  0
LAYER
  5
14
100
AcDbSymbolTableRecord
100
AcDbLayerTableRecord
  2
0
 70
     0
 62
     7
  6
CONTINUOUS
  0
ENDTAB
  0
TABLE
  2
STYLE
  5
3
100
AcDbSymbolTable
 70
     1
  0
STYLE
  5
17
100
AcDbSymbolTableRecord
100
AcDbTextStyleTableRecord
  2
STANDARD
 70
     0
 40
0.0
 41
1.0
 50
0.0
 71
     0
 42
0.0
  3
txt
  4

  0
ENDTAB
  0
TABLE
  2
VIEW
  5
5
100
AcDbSymbolTable
 70
     0
  0
ENDTAB
  0
TABLE
  2
UCS
  5
6
100
AcDbSymbolTable
 70
     0
  0
ENDTAB
  0
TABLE
  2
APPID
  5
8
100
AcDbSymbolTable
 70
     1
  0
APPID
  5
16
100
AcDbSymbolTableRecord
100
AcDbRegAppTableRecord
  2
ACAD
 70
     0
  0
ENDTAB
  0
TABLE
  2
DIMSTYLE
  5
9
100
AcDbSymbolTable
 70
     1
  0
DIMSTYLE
105
18
100
AcDbSymbolTableRecord
100
AcDbDimStyleTableRecord
  2
STANDARD
 70
     0
  3

  4

  5

  6

  7

 40
1.0
 41
0.18
 42
0.0625
 43
0.38
 44
0.18
 45
0.0
 46
0.0
 47
0.0
 48
0.0
 71
     0
 72
     0
 73
     1
 74
     1
 75
     0
 76
     0
 77
     0
 78
     0
140
0.18
141
0.09
142
0.0
143
25.4
144
1.0
145
0.0
146
1.0
147
0.09
170
     0
171
     2
172
     0
173
     0
174
     0
175
     0
176
     0
177
     0
178
     0
270
     2
271
     4
272
     4
273
     2
274
     2
275
     0
280
     0
281
     0
282
     0
283
     1
284
     0
285
     0
286
     0
287
     3
288
     0
340
17
  0
ENDTAB
  0
TABLE
  2
BLOCK_RECORD
  5
1
100
AcDbSymbolTable
 70
     0
  0
BLOCK_RECORD
  5
A
100
AcDbSymbolTableRecord
100
AcDbBlockTableRecord
  2
*MODEL_SPACE
  0
BLOCK_RECORD
  5
B
100
AcDbSymbolTableRecord
100
AcDbBlockTableRecord
  2
*PAPER_SPACE
  0
ENDTAB
  0
ENDSEC
  0
SECTION
  2
BLOCKS
  0
BLOCK
  5
D
100
AcDbEntity
  8
0
100
AcDbBlockBegin
  2
*MODEL_SPACE
 70
     0
 10
0.0
 20
0.0
 30
0.0
  3
*MODEL_SPACE
  1

  0
ENDBLK
  5
E
100
AcDbEntity
  8
0
100
AcDbBlockEnd
  0
BLOCK
  5
F
100
AcDbEntity
 67
     1
  8
0
100
AcDbBlockBegin
  2
*PAPER_SPACE
 70
     0
 10
0.0
 20
0.0
 30
0.0
  3
*PAPER_SPACE
  1

  0
ENDBLK
  5
10
100
AcDbEntity
 67
     1
  8
0
100
AcDbBlockEnd
  0
ENDSEC
  0
SECTION
  2
ENTITIES
  0
VIEWPORT
  5
65E
100
AcDbEntity
 67
     1
  8
0
 62
     0
 48
0.0
100
AcDbViewport
 10
0.0
 20
0.0
 30
0.0
 40
1000.0
 41
1000.0
 68
     1
 69
     1
1001
ACAD
1000
MVIEW
1002
{
1070
    16
1010
0.0
1020
0.0
1030
0.0
1010
0.0
1020
0.0
1030
1.0
1040
0.0
1040
1000.0
1040
0.0
1040
0.0
1040
50.0
1040
0.0
1040
0.0
1070
     0
1070
   100
1070
     1
1070
     1
1070
     0
1070
     0
1070
     0
1070
     0
1040
0.0
1040
0.0
1040
0.0
1040
1.0
1040
1.0
1040
1.0
1040
1.0
1070
     0
1002
{
1002
}
1002
}
  0
LINE
  5
1D
100
AcDbEntity
  8
0
 62
     7
 48
0.004995
100
AcDbLine
 10
62.193172
 20
109.59404
 30
0.0
 11
62.193172
 21
109.793854
 31
0.0
210
0.0
220
0.0
230
1.0
  0
LINE
  5
1E
100
AcDbEntity
  8
0
 62
     7
100
AcDbLine
 10
62.193172
 20
109.793854
 30
0.0
 11
17.693409
 21
109.793854
 31
0.0
210
0.0
220
0.0
230
1.0
  0
LINE
  5
1F
100
AcDbEntity
  8
0
 62
     7
 48
0.004995
100
AcDbLine
 10
17.693409
 20
109.793854
 30
0.0
 11
17.693409
 21
109.59404
 31
0.0
210
0.0
220
0.0
230
1.0
  0
LINE
  5
20
100
AcDbEntity
  8
0
 62
     7
100
AcDbLine
 10
17.693409
 20
109.59404
 30
0.0
 11
62.193172
 21
109.59404
 31
0.0
210
0.0
220
0.0
230
1.0
  0
POLYLINE
  5
21
100
AcDbEntity
  8
0
 62
     7
100
AcDb2dPolyline
 66
     1
 10
0.0
 20
0.0
 30
0.0
 70
     1
 71
     4
  0
VERTEX
  5
22
100
AcDbEntity
  8
0
100
AcDbVertex
100
AcDb2dVertex
 10
17.693409
 20
109.59404
 30
0.0
  0
VERTEX
  5
23
100
AcDbEntity
  8
0
100
AcDbVertex
100
AcDb2dVertex
 10
17.693409
 20
109.793854
 30
0.0
  0
VERTEX
  5
24
100
AcDbEntity
  8
0
100
AcDbVertex
100
AcDb2dVertex
 10
62.193172
 20
109.793854
 30
0.0
  0
VERTEX
  5
25
100
AcDbEntity
  8
0
100
AcDbVertex
100
AcDb2dVertex
 10
62.193172
 20
109.59404
 30
0.0
  0
SEQEND
  5
26
100
AcDbEntity
  8
0
  0
LINE
  5
27
100
AcDbEntity
  8
0
 62
     7
100
AcDbLine
 10
63.091198
 20
81.0
 30
0.0
 11
17.091198
 21
81.0
 31
0.0
210
0.0
220
0.0
230
1.0
  0
LINE
  5
28
100
AcDbEntity
  8
0
 62
     7
100
AcDbLine
 10
16.091198
 20
82.0
 30
0.0
 11
16.091198
 21
128.0
 31
0.0
210
0.0
220
0.0
230
1.0
  0
LINE
  5
29
100
AcDbEntity
  8
0
 62
     7
100
AcDbLine
 10
17.091198
 20
129.0
 30
0.0
 11
63.091198
 21
129.0
 31
0.0
210
0.0
220
0.0
230
1.0
  0
LINE
  5
2A
100
AcDbEntity
  8
0
 62
     7
100
AcDbLine
 10
64.091202
 20
128.0
 30
0.0
 11
64.091202
 21
82.0
 31
0.0
210
0.0
220
0.0
230
1.0
  0
LINE
  5
2B
100
AcDbEntity
  8
0
 62
     7
100
AcDbLine
 10
62.541203
 20
128.449997
 30
0.0
 11
17.641201
 21
128.449997
 31
0.0
210
0.0
220
0.0
230
1.0
  0
LINE
  5
2C
100
AcDbEntity
  8
0
 62
     7
100
AcDbLine
 10
16.691196
 20
127.5
 30
0.0
 11
16.691196
 21
92.149994
 31
0.0
210
0.0
220
0.0
230
1.0
  0
LINE
  5
2D
100
AcDbEntity
  8
0
 62
     7
100
AcDbLine
 10
17.641201
 20
81.549988
 30
0.0
 11
62.541203
 21
81.549988
 31
0.0
210
0.0
220
0.0
230
1.0
  0
LINE
  5
2E
100
AcDbEntity
  8
0
 62
     7
 48
0.24125
100
AcDbLine
 10
63.491199
 20
82.5
 30
0.0
 11
63.491199
 21
92.149994
 31
0.0
210
0.0
220
0.0
230
1.0
  0
LINE
  5
2F
100
AcDbEntity
  8
0
 62
     7
 48
0.24125
100
AcDbLine
 10
16.691196
 20
92.149994
 30
0.0
 11
16.691196
 21
82.5
 31
0.0
210
0.0
220
0.0
230
1.0
  0
LINE
  5
30
100
AcDbEntity
  8
0
 62
     7
100
AcDbLine
 10
63.491199
 20
92.149994
 30
0.0
 11
63.491199
 21
127.5
 31
0.0
210
0.0
220
0.0
230
1.0
  0
LINE
  5
31
100
AcDbEntity
  8
0
 62
     7
 48
0.065428
100
AcDbLine
 10
31.742977
 20
100.129807
 30
0.0
 11
32.197437
 21
102.707153
 31
0.0
210
0.0
220
0.0
230
1.0
  0
LINE
  5
32
100
AcDbEntity
  8
0
 62
     7
 48
0.068894
100
AcDbLine
 10
43.706905
 20
104.129807
 30
0.0
 11
44.185444
 21
106.843704
 31
0.0
210
0.0
220
0.0
230
1.0
  0
LINE
  5
33
100
AcDbEntity
  8
0
 62
     7
 48
0.024055
100
AcDbLine
 10
25.384144
 20
117.088669
 30
0.0
 11
24.64706
 21
116.470184
 31
0.0
210
0.0
220
0.0
230
1.0
  0
LINE
  5
34
100
AcDbEntity
  8
0
 62
     7
 48
0.083879
100
AcDbLine
 10
30.681614
 20
123.099991
 30
0.0
 11
27.32645
 21
123.099991
 31
0.0
210
0.0
220
0.0
230
1.0
  0
LINE
  5
35
100
AcDbEntity
  8
0
 62
     7
 48
0.090813
100
AcDbLine
 10
26.158207
 20
118.129807
 30
0.0
 11
26.78899
 21
121.707153
 31
0.0
210
0.0
220
0.0
230
1.0
  0
LINE
  5
36
100
AcDbEntity
  8
0
 62
     7
 48
0.085736
100
AcDbLine
 10
27.018803
 20
121.899994
 30
0.0
 11
30.448254
 21
121.899994
 31
0.0
210
0.0
220
0.0
230
1.0
  0
LINE
  5
37
100
AcDbEntity
  8
0
 62
     7
 48
0.028409
100
AcDbLine
 10
26.78899
 20
121.707153
 30
0.0
 11
26.058552
 21
122.577652
 31
0.0
210
0.0
220
0.0
230
1.0
  0
LINE
  5
38
100
AcDbEntity
  8
0
 62
     7
 48
0.018978
100
AcDbLine
 10
39.11031
 20
118.092834
 30
0.0
 11
39.598255
 21
117.511322
 31
0.0
210
0.0
220
0.0
230
1.0
  0
LINE
  5
39
100
AcDbEntity
  8
0
 62
     7
 48
0.024055
100
AcDbLine
 10
39.598255
 20
117.511322
 30
0.0
 11
40.335339
 21
118.129807
 31
0.0
210
0.0
220
0.0
230
1.0
  0
LINE
  5
3A
100
AcDbEntity
  8
0
 62
     7
 48
0.024055
100
AcDbLine
 10
34.521122
 20
117.511322
 30
0.0
 11
35.258205
 21
118.129807
 31
0.0
210
0.0
220
0.0
230
1.0
  0
LINE
  5
3B
100
AcDbEntity
  8
0
 62
     7
 48
0.024055
100
AcDbLine
 10
30.498257
 20
117.511322
 30
0.0
 11
31.23534
 21
118.129807
 31
0.0
210
0.0
220
0.0
230
1.0
  0
LINE
  5
3C
100
AcDbEntity
  8
0
 62
     7
 48
0.018978
100
AcDbLine
 10
30.010311
 20
118.092834
 30
0.0
 11
30.498257
 21
117.511322
 31
0.0
210
0.0
220
0.0
230
1.0
  0
LINE
  5
3D
100
AcDbEntity
  8
0
 62
     7
 48
0.018978
100
AcDbLine
 10
34.033176
 20
118.092834
 30
0.0
 11
34.521122
 21
117.511322
 31
0.0
210
0.0
220
0.0
230
1.0
  0
LINE
  5
3E
100
AcDbEntity
  8
0
 62
     7
 48
0.018978
100
AcDbLine
 10
39.368443
 20
117.318481
 30
0.0
 11
38.880497
 21
117.899994
 31
0.0
210
0.0
220
0.0
230
1.0
  0
LINE
  5
3F
100
AcDbEntity
  8
0
 62
     7
 48
0.089351
100
AcDbLine
 10
43.753796
 20
121.612564
 30
0.0
 11
43.133175
 21
118.092834
 31
0.0
210
0.0
220
0.0
230
1.0
  0
LINE
  5
40
100
AcDbEntity
  8
0
 62
     7
 48
0.024055
100
AcDbLine
 10
43.62112
 20
117.511322
 30
0.0
 11
44.358204
 21
118.129807
 31
0.0
210
0.0
220
0.0
230
1.0
  0
LINE
  5
41
100
AcDbEntity
  8
0
 62
     7
 48
0.090813
100
AcDbLine
 10
44.358204
 20
118.129807
 30
0.0
 11
44.988987
 21
121.707153
 31
0.0
210
0.0
220
0.0
230
1.0
  0
LINE
  5
42
100
AcDbEntity
  8
0
 62
     7
 48
0.018978
100
AcDbLine
 10
43.133175
 20
118.092834
 30
0.0
 11
43.62112
 21
117.511322
 31
0.0
210
0.0
220
0.0
230
1.0
  0
LINE
  5
43
100
AcDbEntity
  8
0
 62
     7
 48
0.024055
100
AcDbLine
 10
38.631351
 20
116.699997
 30
0.0
 11
39.368443
 21
117.318481
 31
0.0
210
0.0
220
0.0
230
1.0
  0
LINE
  5
44
100
AcDbEntity
  8
0
 62
     7
 48
0.028409
100
AcDbLine
 10
26.288364
 20
122.770493
 30
0.0
 11
27.018803
 21
121.899994
 31
0.0
210
0.0
220
0.0
230
1.0
  0
LINE
  5
45
100
AcDbEntity
  8
0
 62
     7
 48
0.090813
100
AcDbLine
 10
30.641094
 20
121.670181
 30
0.0
 11
30.010311
 21
118.092834
 31
0.0
210
0.0
220
0.0
230
1.0
  0
LINE
  5
46
100
AcDbEntity
  8
0
 62
     7
 48
0.034234
100
AcDbLine
 10
31.690075
 20
122.550385
 30
0.0
 11
30.641094
 21
121.670181
 31
0.0
210
0.0
220
0.0
230
1.0
  0
LINE
  5
47
100
AcDbEntity
  8
0
 62
     7
 48
0.090419
100
AcDbLine
 10
31.23534
 20
118.129807
 30
0.0
 11
31.863384
 21
121.69162
 31
0.0
210
0.0
220
0.0
230
1.0
  0
LINE
  5
48
100
AcDbEntity
  8
0
 62
     7
 48
0.034234
100
AcDbLine
 10
30.448254
 20
121.899994
 30
0.0
 11
31.497242
 21
122.780197
 31
0.0
210
0.0
220
0.0
230
1.0
  0
LINE
  5
49
100
AcDbEntity
  8
0
 62
     7
 48
0.089351
100
AcDbLine
 10
34.653797
 20
121.612564
 30
0.0
 11
34.033176
 21
118.092834
 31
0.0
210
0.0
220
0.0
230
1.0
  0
LINE
  5
4A
100
AcDbEntity
  8
0
 62
     7
 48
0.090419
100
AcDbLine
 10
40.335339
 20
118.129807
 30
0.0
 11
40.963383
 21
121.69162
 31
0.0
210
0.0
220
0.0
230
1.0
  0
LINE
  5
4B
100
AcDbEntity
  8
0
 62
     7
 48
0.090813
100
AcDbLine
 10
35.258205
 20
118.129807
 30
0.0
 11
35.888988
 21
121.707153
 31
0.0
210
0.0
220
0.0
230
1.0
  0
LINE
  5
4C
100
AcDbEntity
  8
0
 62
     7
 48
0.090813
100
AcDbLine
 10
39.741093
 20
121.670181
 30
0.0
 11
39.11031
 21
118.092834
 31
0.0
210
0.0
220
0.0
230
1.0
  0
LINE
  5
4D
100
AcDbEntity
  8
0
 62
     7
 48
0.028409
100
AcDbLine
 10
35.388363
 20
122.770493
 30
0.0
 11
36.118801
 21
121.899994
 31
0.0
210
0.0
220
0.0
230
1.0
  0
LINE
  5
4E
100
AcDbEntity
  8
0
 62
     7
 48
0.085736
100
AcDbLine
 10
36.118801
 20
121.899994
 30
0.0
 11
39.548252
 21
121.899994
 31
0.0
210
0.0
220
0.0
230
1.0
  0
LINE
  5
4F
100
AcDbEntity
  8
0
 62
     7
 48
0.034234
100
AcDbLine
 10
39.548252
 20
121.899994
 30
0.0
 11
40.59724
 21
122.780197
 31
0.0
210
0.0
220
0.0
230
1.0
  0
LINE
  5
50
100
AcDbEntity
  8
0
 62
     7
 48
0.083879
100
AcDbLine
 10
39.781612
 20
123.099991
 30
0.0
 11
36.426456
 21
123.099991
 31
0.0
210
0.0
220
0.0
230
1.0
  0
LINE
  5
51
100
AcDbEntity
  8
0
 62
     7
 48
0.028409
100
AcDbLine
 10
44.988987
 20
121.707153
 30
0.0
 11
44.258556
 21
122.577652
 31
0.0
210
0.0
220
0.0
230
1.0
  0
LINE
  5
52
100
AcDbEntity
  8
0
 62
     7
 48
0.028409
100
AcDbLine
 10
35.888988
 20
121.707153
 30
0.0
 11
35.15855
 21
122.577652
 31
0.0
210
0.0
220
0.0
230
1.0
  0
LINE
  5
53
100
AcDbEntity
  8
0
 62
     7
 48
0.034234
100
AcDbLine
 10
40.790073
 20
122.550385
 30
0.0
 11
39.741093
 21
121.670181
 31
0.0
210
0.0
220
0.0
230
1.0
  0
LINE
  5
54
100
AcDbEntity
  8
0
 62
     7
 48
0.018978
100
AcDbLine
 10
25.613956
 20
117.281509
 30
0.0
 11
26.101902
 21
116.699997
 31
0.0
210
0.0
220
0.0
230
1.0
  0
LINE
  5
55
100
AcDbEntity
  8
0
 62
     7
 48
0.090419
100
AcDbLine
 10
33.747059
 20
116.470184
 30
0.0
 11
33.119015
 21
112.908371
 31
0.0
210
0.0
220
0.0
230
1.0
  0
LINE
  5
56
100
AcDbEntity
  8
0
 62
     7
 48
0.090813
100
AcDbLine
 10
34.341305
 20
112.92981
 30
0.0
 11
34.972088
 21
116.507156
 31
0.0
210
0.0
220
0.0
230
1.0
  0
LINE
  5
57
100
AcDbEntity
  8
0
 62
     7
 48
0.090814
100
AcDbLine
 10
29.724194
 20
116.470184
 30
0.0
 11
29.09341
 21
112.892822
 31
0.0
210
0.0
220
0.0
230
1.0
  0
LINE
  5
58
100
AcDbEntity
  8
0
 62
     7
 48
0.089351
100
AcDbLine
 10
30.328602
 20
112.987427
 30
0.0
 11
30.949223
 21
116.507156
 31
0.0
210
0.0
220
0.0
230
1.0
  0
LINE
  5
59
100
AcDbEntity
  8
0
 62
     7
 48
0.085736
100
AcDbLine
 10
29.780499
 20
117.899994
 30
0.0
 11
26.35104
 21
117.899994
 31
0.0
210
0.0
220
0.0
230
1.0
  0
LINE
  5
5A
100
AcDbEntity
  8
0
 62
     7
 48
0.085736
100
AcDbLine
 10
26.101902
 20
116.699997
 30
0.0
 11
29.531353
 21
116.699997
 31
0.0
210
0.0
220
0.0
230
1.0
  0
LINE
  5
5B
100
AcDbEntity
  8
0
 62
     7
 48
0.024055
100
AcDbLine
 10
26.35104
 20
117.899994
 30
0.0
 11
25.613956
 21
117.281509
 31
0.0
210
0.0
220
0.0
230
1.0
  0
LINE
  5
5C
100
AcDbEntity
  8
0
 62
     7
 48
0.024055
100
AcDbLine
 10
30.461277
 20
117.088669
 30
0.0
 11
29.724194
 21
116.470184
 31
0.0
210
0.0
220
0.0
230
1.0
  0
LINE
  5
5D
100
AcDbEntity
  8
0
 62
     7
 48
0.024055
100
AcDbLine
 10
35.451046
 20
117.899994
 30
0.0
 11
34.713955
 21
117.281509
 31
0.0
210
0.0
220
0.0
230
1.0
  0
LINE
  5
5E
100
AcDbEntity
  8
0
 62
     7
 48
0.085736
100
AcDbLine
 10
35.2019
 20
116.699997
 30
0.0
 11
38.631351
 21
116.699997
 31
0.0
210
0.0
220
0.0
230
1.0
  0
LINE
  5
5F
100
AcDbEntity
  8
0
 62
     7
 48
0.018978
100
AcDbLine
 10
34.713955
 20
117.281509
 30
0.0
 11
35.2019
 21
116.699997
 31
0.0
210
0.0
220
0.0
230
1.0
  0
LINE
  5
60
100
AcDbEntity
  8
0
 62
     7
 48
0.085736
100
AcDbLine
 10
38.880497
 20
117.899994
 30
0.0
 11
35.451046
 21
117.899994
 31
0.0
210
0.0
220
0.0
230
1.0
  0
LINE
  5
61
100
AcDbEntity
  8
0
 62
     7
 48
0.018978
100
AcDbLine
 10
34.972088
 20
116.507156
 30
0.0
 11
34.484142
 21
117.088669
 31
0.0
210
0.0
220
0.0
230
1.0
  0
LINE
  5
62
100
AcDbEntity
  8
0
 62
     7
 48
0.018978
100
AcDbLine
 10
30.949223
 20
116.507156
 30
0.0
 11
30.461277
 21
117.088669
 31
0.0
210
0.0
220
0.0
230
1.0
  0
LINE
  5
63
100
AcDbEntity
  8
0
 62
     7
 48
0.024055
100
AcDbLine
 10
34.484142
 20
117.088669
 30
0.0
 11
33.747059
 21
116.470184
 31
0.0
210
0.0
220
0.0
230
1.0
  0
LINE
  5
64
100
AcDbEntity
  8
0
 62
     7
 48
0.085736
100
AcDbLine
 10
28.863598
 20
112.699997
 30
0.0
 11
25.434147
 21
112.699997
 31
0.0
210
0.0
220
0.0
230
1.0
  0
LINE
  5
65
100
AcDbEntity
  8
0
 62
     7
 48
0.024055
100
AcDbLine
 10
25.421124
 20
117.511322
 30
0.0
 11
26.158207
 21
118.129807
 31
0.0
210
0.0
220
0.0
230
1.0
  0
LINE
  5
66
100
AcDbEntity
  8
0
 62
     7
 48
0.018978
100
AcDbLine
 10
25.872089
 20
116.507156
 30
0.0
 11
25.384144
 21
117.088669
 31
0.0
210
0.0
220
0.0
230
1.0
  0
LINE
  5
67
100
AcDbEntity
  8
0
 62
     7
 48
0.085736
100
AcDbLine
 10
37.963596
 20
112.699997
 30
0.0
 11
34.534145
 21
112.699997
 31
0.0
210
0.0
220
0.0
230
1.0
  0
LINE
  5
68
100
AcDbEntity
  8
0
 62
     7
 48
0.090813
100
AcDbLine
 10
25.241306
 20
112.92981
 30
0.0
 11
25.872089
 21
116.507156
 31
0.0
210
0.0
220
0.0
230
1.0
  0
LINE
  5
69
100
AcDbEntity
  8
0
 62
     7
 48
0.028409
100
AcDbLine
 10
29.594036
 20
111.829498
 30
0.0
 11
28.863598
 21
112.699997
 31
0.0
210
0.0
220
0.0
230
1.0
  0
LINE
  5
6A
100
AcDbEntity
  8
0
 62
     7
 48
0.024055
100
AcDbLine
 10
29.531353
 20
116.699997
 30
0.0
 11
30.268444
 21
117.318481
 31
0.0
210
0.0
220
0.0
230
1.0
  0
LINE
  5
6B
100
AcDbEntity
  8
0
 62
     7
 48
0.018978
100
AcDbLine
 10
30.268444
 20
117.318481
 30
0.0
 11
29.780499
 21
117.899994
 31
0.0
210
0.0
220
0.0
230
1.0
  0
LINE
  5
6C
100
AcDbEntity
  8
0
 62
     7
 48
0.090419
100
AcDbLine
 10
42.847057
 20
116.470184
 30
0.0
 11
42.219013
 21
112.908371
 31
0.0
210
0.0
220
0.0
230
1.0
  0
LINE
  5
6D
100
AcDbEntity
  8
0
 62
     7
 48
0.034234
100
AcDbLine
 10
34.534145
 20
112.699997
 30
0.0
 11
33.485157
 21
111.819794
 31
0.0
210
0.0
220
0.0
230
1.0
  0
LINE
  5
6E
100
AcDbEntity
  8
0
 62
     7
 48
0.028409
100
AcDbLine
 10
38.694035
 20
111.829498
 30
0.0
 11
37.963596
 21
112.699997
 31
0.0
210
0.0
220
0.0
230
1.0
  0
LINE
  5
6F
100
AcDbEntity
  8
0
 62
     7
 48
0.034234
100
AcDbLine
 10
33.292324
 20
112.049606
 30
0.0
 11
34.341305
 21
112.92981
 31
0.0
210
0.0
220
0.0
230
1.0
  0
LINE
  5
70
100
AcDbEntity
  8
0
 62
     7
 48
0.034234
100
AcDbLine
 10
42.392323
 20
112.049606
 30
0.0
 11
43.441303
 21
112.92981
 31
0.0
210
0.0
220
0.0
230
1.0
  0
LINE
  5
71
100
AcDbEntity
  8
0
 62
     7
 48
0.024055
100
AcDbLine
 10
43.584141
 20
117.088669
 30
0.0
 11
42.847057
 21
116.470184
 31
0.0
210
0.0
220
0.0
230
1.0
  0
LINE
  5
72
100
AcDbEntity
  8
0
 62
     7
 48
0.034234
100
AcDbLine
 10
43.634144
 20
112.699997
 30
0.0
 11
42.585163
 21
111.819794
 31
0.0
210
0.0
220
0.0
230
1.0
  0
LINE
  5
73
100
AcDbEntity
  8
0
 62
     7
 48
0.018978
100
AcDbLine
 10
44.072094
 20
116.507156
 30
0.0
 11
43.584141
 21
117.088669
 31
0.0
210
0.0
220
0.0
230
1.0
  0
LINE
  5
74
100
AcDbEntity
  8
0
 62
     7
 48
0.018978
100
AcDbLine
 10
43.813961
 20
117.281509
 30
0.0
 11
44.301907
 21
116.699997
 31
0.0
210
0.0
220
0.0
230
1.0
  0
LINE
  5
75
100
AcDbEntity
  8
0
 62
     7
 48
0.024055
100
AcDbLine
 10
44.551044
 20
117.899994
 30
0.0
 11
43.813961
 21
117.281509
 31
0.0
210
0.0
220
0.0
230
1.0
  0
LINE
  5
76
100
AcDbEntity
  8
0
 62
     7
 48
0.090813
100
AcDbLine
 10
43.441303
 20
112.92981
 30
0.0
 11
44.072094
 21
116.507156
 31
0.0
210
0.0
220
0.0
230
1.0
  0
LINE
  5
77
100
AcDbEntity
  8
0
 62
     7
 48
0.028409
100
AcDbLine
 10
29.09341
 20
112.892822
 30
0.0
 11
29.823849
 21
112.022324
 31
0.0
210
0.0
220
0.0
230
1.0
  0
LINE
  5
78
100
AcDbEntity
  8
0
 62
     7
 48
0.083879
100
AcDbLine
 10
25.200787
 20
111.5
 30
0.0
 11
28.555943
 21
111.5
 31
0.0
210
0.0
220
0.0
230
1.0
  0
LINE
  5
79
100
AcDbEntity
  8
0
 62
     7
 48
0.089351
100
AcDbLine
 10
25.553799
 20
121.612564
 30
0.0
 11
24.933178
 21
118.092834
 31
0.0
210
0.0
220
0.0
230
1.0
  0
LINE
  5
7A
100
AcDbEntity
  8
0
 62
     7
 48
0.018978
100
AcDbLine
 10
24.933178
 20
118.092834
 30
0.0
 11
25.421124
 21
117.511322
 31
0.0
210
0.0
220
0.0
230
1.0
  0
LINE
  5
7B
100
AcDbEntity
  8
0
 62
     7
 48
0.090419
100
AcDbLine
 10
24.64706
 20
116.470184
 30
0.0
 11
24.019016
 21
112.908371
 31
0.0
210
0.0
220
0.0
230
1.0
  0
LINE
  5
7C
100
AcDbEntity
  8
0
 62
     7
 48
0.034234
100
AcDbLine
 10
24.192326
 20
112.049606
 30
0.0
 11
25.241306
 21
112.92981
 31
0.0
210
0.0
220
0.0
230
1.0
  0
LINE
  5
7D
100
AcDbEntity
  8
0
 62
     7
 48
0.034234
100
AcDbLine
 10
25.434147
 20
112.699997
 30
0.0
 11
24.385159
 21
111.819794
 31
0.0
210
0.0
220
0.0
230
1.0
  0
LINE
  5
7E
100
AcDbEntity
  8
0
 62
     7
 48
0.083879
100
AcDbLine
 10
34.300785
 20
111.5
 30
0.0
 11
37.655949
 21
111.5
 31
0.0
210
0.0
220
0.0
230
1.0
  0
LINE
  5
7F
100
AcDbEntity
  8
0
 62
     7
 48
0.028409
100
AcDbLine
 10
44.488369
 20
122.770493
 30
0.0
 11
45.218807
 21
121.899994
 31
0.0
210
0.0
220
0.0
230
1.0
  0
LINE
  5
80
100
AcDbEntity
  8
0
 62
     7
 48
0.065668
100
AcDbLine
 10
31.583279
 20
98.899994
 30
0.0
 11
34.210011
 21
98.899994
 31
0.0
210
0.0
220
0.0
230
1.0
  0
LINE
  5
81
100
AcDbEntity
  8
0
 62
     7
 48
0.065428
100
AcDbLine
 10
39.142979
 20
100.129807
 30
0.0
 11
39.597439
 21
102.707153
 31
0.0
210
0.0
220
0.0
230
1.0
  0
LINE
  5
82
100
AcDbEntity
  8
0
 62
     7
 48
0.067279
100
AcDbLine
 10
35.588741
 20
100.056885
 30
0.0
 11
36.056057
 21
102.707153
 31
0.0
210
0.0
220
0.0
230
1.0
  0
LINE
  5
83
100
AcDbEntity
  8
0
 62
     7
 48
0.067279
100
AcDbLine
 10
42.988743
 20
100.056885
 30
0.0
 11
43.456059
 21
102.707153
 31
0.0
210
0.0
220
0.0
230
1.0
  0
LINE
  5
84
100
AcDbEntity
  8
0
 62
     7
 48
0.068894
100
AcDbLine
 10
38.575489
 20
102.670181
 30
0.0
 11
38.096958
 21
99.956284
 31
0.0
210
0.0
220
0.0
230
1.0
  0
LINE
  5
85
100
AcDbEntity
  8
0
 62
     7
 48
0.060351
100
AcDbLine
 10
41.749844
 20
99.899994
 30
0.0
 11
39.335819
 21
99.899994
 31
0.0
210
0.0
220
0.0
230
1.0
  0
LINE
  5
86
100
AcDbEntity
  8
0
 62
     7
 48
0.065428
100
AcDbLine
 10
35.034107
 20
102.670181
 30
0.0
 11
34.579655
 21
100.092834
 31
0.0
210
0.0
220
0.0
230
1.0
  0
LINE
  5
87
100
AcDbEntity
  8
0
 62
     7
 48
0.068894
100
AcDbLine
 10
31.175488
 20
102.670181
 30
0.0
 11
30.696957
 21
99.956284
 31
0.0
210
0.0
220
0.0
230
1.0
  0
LINE
  5
88
100
AcDbEntity
  8
0
 62
     7
 48
0.060351
100
AcDbLine
 10
34.349842
 20
99.899994
 30
0.0
 11
31.935818
 21
99.899994
 31
0.0
210
0.0
220
0.0
230
1.0
  0
LINE
  5
89
100
AcDbEntity
  8
0
 62
     7
 48
0.065428
100
AcDbLine
 10
42.434109
 20
102.670181
 30
0.0
 11
41.979656
 21
100.092834
 31
0.0
210
0.0
220
0.0
230
1.0
  0
LINE
  5
8A
100
AcDbEntity
  8
0
 62
     7
 48
0.067279
100
AcDbLine
 10
31.893658
 20
106.743103
 30
0.0
 11
31.426342
 21
104.092834
 31
0.0
210
0.0
220
0.0
230
1.0
  0
LINE
  5
8B
100
AcDbEntity
  8
0
 62
     7
 48
0.015714
100
AcDbLine
 10
31.426342
 20
104.092834
 30
0.0
 11
31.830379
 21
103.611313
 31
0.0
210
0.0
220
0.0
230
1.0
  0
LINE
  5
8C
100
AcDbEntity
  8
0
 62
     7
 48
0.065428
100
AcDbLine
 10
43.139416
 20
106.670181
 30
0.0
 11
42.684963
 21
104.092834
 31
0.0
210
0.0
220
0.0
230
1.0
  0
LINE
  5
8D
100
AcDbEntity
  8
0
 62
     7
 48
0.065428
100
AcDbLine
 10
35.739422
 20
106.670181
 30
0.0
 11
35.284962
 21
104.092834
 31
0.0
210
0.0
220
0.0
230
1.0
  0
LINE
  5
8E
100
AcDbEntity
  8
0
 62
     7
 48
0.015714
100
AcDbLine
 10
35.284962
 20
104.092834
 30
0.0
 11
35.688999
 21
103.611313
 31
0.0
210
0.0
220
0.0
230
1.0
  0
LINE
  5
8F
100
AcDbEntity
  8
0
 62
     7
 48
0.060351
100
AcDbLine
 10
32.42725
 20
102.899994
 30
0.0
 11
34.841274
 21
102.899994
 31
0.0
210
0.0
220
0.0
230
1.0
  0
LINE
  5
90
100
AcDbEntity
  8
0
 62
     7
 48
0.060351
100
AcDbLine
 10
35.055149
 20
103.899994
 30
0.0
 11
32.641125
 21
103.899994
 31
0.0
210
0.0
220
0.0
230
1.0
  0
LINE
  5
91
100
AcDbEntity
  8
0
 62
     7
 48
0.020166
100
AcDbLine
 10
31.830379
 20
103.611313
 30
0.0
 11
32.448284
 21
104.129807
 31
0.0
210
0.0
220
0.0
230
1.0
  0
LINE
  5
92
100
AcDbEntity
  8
0
 62
     7
 48
0.020166
100
AcDbLine
 10
34.841274
 20
102.899994
 30
0.0
 11
35.459187
 21
103.418488
 31
0.0
210
0.0
220
0.0
230
1.0
  0
LINE
  5
93
100
AcDbEntity
  8
0
 62
     7
 48
0.065428
100
AcDbLine
 10
32.448284
 20
104.129807
 30
0.0
 11
32.902744
 21
106.707153
 31
0.0
210
0.0
220
0.0
230
1.0
  0
LINE
  5
94
100
AcDbEntity
  8
0
 62
     7
 48
0.015714
100
AcDbLine
 10
32.023212
 20
103.3815
 30
0.0
 11
32.42725
 21
102.899994
 31
0.0
210
0.0
220
0.0
230
1.0
  0
LINE
  5
95
100
AcDbEntity
  8
0
 62
     7
 48
0.020166
100
AcDbLine
 10
32.641125
 20
103.899994
 30
0.0
 11
32.023212
 21
103.3815
 31
0.0
210
0.0
220
0.0
230
1.0
  0
LINE
  5
96
100
AcDbEntity
  8
0
 62
     7
 48
0.015714
100
AcDbLine
 10
35.459187
 20
103.418488
 30
0.0
 11
35.055149
 21
103.899994
 31
0.0
210
0.0
220
0.0
230
1.0
  0
LINE
  5
97
100
AcDbEntity
  8
0
 62
     7
 48
0.020166
100
AcDbLine
 10
39.230381
 20
103.611313
 30
0.0
 11
39.848286
 21
104.129807
 31
0.0
210
0.0
220
0.0
230
1.0
  0
LINE
  5
98
100
AcDbEntity
  8
0
 62
     7
 48
0.065428
100
AcDbLine
 10
39.848286
 20
104.129807
 30
0.0
 11
40.302746
 21
106.707153
 31
0.0
210
0.0
220
0.0
230
1.0
  0
LINE
  5
99
100
AcDbEntity
  8
0
 62
     7
 48
0.015714
100
AcDbLine
 10
38.826344
 20
104.092834
 30
0.0
 11
39.230381
 21
103.611313
 31
0.0
210
0.0
220
0.0
230
1.0
  0
LINE
  5
9A
100
AcDbEntity
  8
0
 62
     7
 48
0.067279
100
AcDbLine
 10
39.293659
 20
106.743103
 30
0.0
 11
38.826344
 21
104.092834
 31
0.0
210
0.0
220
0.0
230
1.0
  0
LINE
  5
9B
100
AcDbEntity
  8
0
 62
     7
 48
0.068894
100
AcDbLine
 10
36.306911
 20
104.129807
 30
0.0
 11
36.785442
 21
106.843704
 31
0.0
210
0.0
220
0.0
230
1.0
  0
LINE
  5
9C
100
AcDbEntity
  8
0
 62
     7
 48
0.015714
100
AcDbLine
 10
43.456059
 20
102.707153
 30
0.0
 11
43.052021
 21
103.188675
 31
0.0
210
0.0
220
0.0
230
1.0
  0
LINE
  5
9D
100
AcDbEntity
  8
0
 62
     7
 48
0.015714
100
AcDbLine
 10
39.423214
 20
103.3815
 30
0.0
 11
39.827251
 21
102.899994
 31
0.0
210
0.0
220
0.0
230
1.0
  0
LINE
  5
9E
100
AcDbEntity
  8
0
 62
     7
 48
0.060351
100
AcDbLine
 10
39.827251
 20
102.899994
 30
0.0
 11
42.241276
 21
102.899994
 31
0.0
210
0.0
220
0.0
230
1.0
  0
LINE
  5
9F
100
AcDbEntity
  8
0
 62
     7
 48
0.020166
100
AcDbLine
 10
42.241276
 20
102.899994
 30
0.0
 11
42.859188
 21
103.418488
 31
0.0
210
0.0
220
0.0
230
1.0
  0
LINE
  5
A0
100
AcDbEntity
  8
0
 62
     7
 48
0.015714
100
AcDbLine
 10
36.056057
 20
102.707153
 30
0.0
 11
35.65202
 21
103.188675
 31
0.0
210
0.0
220
0.0
230
1.0
  0
LINE
  5
A1
100
AcDbEntity
  8
0
 62
     7
 48
0.015714
100
AcDbLine
 10
42.859188
 20
103.418488
 30
0.0
 11
42.455151
 21
103.899994
 31
0.0
210
0.0
220
0.0
230
1.0
  0
LINE
  5
A2
100
AcDbEntity
  8
0
 62
     7
 48
0.020166
100
AcDbLine
 10
40.041126
 20
103.899994
 30
0.0
 11
39.423214
 21
103.3815
 31
0.0
210
0.0
220
0.0
230
1.0
  0
LINE
  5
A3
100
AcDbEntity
  8
0
 62
     7
 48
0.060351
100
AcDbLine
 10
42.455151
 20
103.899994
 30
0.0
 11
40.041126
 21
103.899994
 31
0.0
210
0.0
220
0.0
230
1.0
  0
LINE
  5
A4
100
AcDbEntity
  8
0
 62
     7
 48
0.020166
100
AcDbLine
 10
43.089001
 20
103.611313
 30
0.0
 11
43.706905
 21
104.129807
 31
0.0
210
0.0
220
0.0
230
1.0
  0
LINE
  5
A5
100
AcDbEntity
  8
0
 62
     7
 48
0.015714
100
AcDbLine
 10
42.684963
 20
104.092834
 30
0.0
 11
43.089001
 21
103.611313
 31
0.0
210
0.0
220
0.0
230
1.0
  0
LINE
  5
A6
100
AcDbEntity
  8
0
 62
     7
 48
0.020166
100
AcDbLine
 10
35.688999
 20
103.611313
 30
0.0
 11
36.306911
 21
104.129807
 31
0.0
210
0.0
220
0.0
230
1.0
  0
LINE
  5
A7
100
AcDbEntity
  8
0
 62
     7
 48
0.015714
100
AcDbLine
 10
32.197437
 20
102.707153
 30
0.0
 11
31.7934
 21
103.188675
 31
0.0
210
0.0
220
0.0
230
1.0
  0
LINE
  5
A8
100
AcDbEntity
  8
0
 62
     7
 48
0.065668
100
AcDbLine
 10
35.899113
 20
107.899994
 30
0.0
 11
33.272388
 21
107.899994
 31
0.0
210
0.0
220
0.0
230
1.0
  0
LINE
  5
A9
100
AcDbEntity
  8
0
 62
     7
 48
0.030544
100
AcDbLine
 10
36.675335
 20
107.455505
 30
0.0
 11
35.739422
 21
106.670181
 31
0.0
210
0.0
220
0.0
230
1.0
  0
LINE
  5
AA
100
AcDbEntity
  8
0
 62
     7
 48
0.030544
100
AcDbLine
 10
35.546581
 20
106.899994
 30
0.0
 11
36.482494
 21
107.685318
 31
0.0
210
0.0
220
0.0
230
1.0
  0
LINE
  5
AB
100
AcDbEntity
  8
0
 62
     7
 48
0.060351
100
AcDbLine
 10
33.132557
 20
106.899994
 30
0.0
 11
35.546581
 21
106.899994
 31
0.0
210
0.0
220
0.0
230
1.0
  0
LINE
  5
AC
100
AcDbEntity
  8
0
 62
     7
 48
0.030544
100
AcDbLine
 10
44.075329
 20
107.455505
 30
0.0
 11
43.139416
 21
106.670181
 31
0.0
210
0.0
220
0.0
230
1.0
  0
LINE
  5
AD
100
AcDbEntity
  8
0
 62
     7
 48
0.065668
100
AcDbLine
 10
43.299114
 20
107.899994
 30
0.0
 11
40.67239
 21
107.899994
 31
0.0
210
0.0
220
0.0
230
1.0
  0
LINE
  5
AE
100
AcDbEntity
  8
0
 62
     7
 48
0.060351
100
AcDbLine
 10
40.532558
 20
106.899994
 30
0.0
 11
42.946583
 21
106.899994
 31
0.0
210
0.0
220
0.0
230
1.0
  0
LINE
  5
AF
100
AcDbEntity
  8
0
 62
     7
 48
0.030544
100
AcDbLine
 10
42.946583
 20
106.899994
 30
0.0
 11
43.882496
 21
107.685318
 31
0.0
210
0.0
220
0.0
230
1.0
  0
LINE
  5
B0
100
AcDbEntity
  8
0
 62
     7
 48
0.024891
100
AcDbLine
 10
40.302746
 20
106.707153
 30
0.0
 11
39.662754
 21
107.469864
 31
0.0
210
0.0
220
0.0
230
1.0
  0
LINE
  5
B1
100
AcDbEntity
  8
0
 62
     7
 48
0.024891
100
AcDbLine
 10
39.892574
 20
107.662704
 30
0.0
 11
40.532558
 21
106.899994
 31
0.0
210
0.0
220
0.0
230
1.0
  0
LINE
  5
B2
100
AcDbEntity
  8
0
 62
     7
 48
0.024891
100
AcDbLine
 10
32.902744
 20
106.707153
 30
0.0
 11
32.26276
 21
107.469864
 31
0.0
210
0.0
220
0.0
230
1.0
  0
LINE
  5
B3
100
AcDbEntity
  8
0
 62
     7
 48
0.024891
100
AcDbLine
 10
32.492573
 20
107.662704
 30
0.0
 11
33.132557
 21
106.899994
 31
0.0
210
0.0
220
0.0
230
1.0
  0
LINE
  5
B4
100
AcDbEntity
  8
0
 62
     7
 48
0.028409
100
AcDbLine
 10
38.193409
 20
112.892822
 30
0.0
 11
38.923847
 21
112.022324
 31
0.0
210
0.0
220
0.0
230
1.0
  0
LINE
  5
B5
100
AcDbEntity
  8
0
 62
     7
 48
0.090814
100
AcDbLine
 10
38.824192
 20
116.470184
 30
0.0
 11
38.193409
 21
112.892822
 31
0.0
210
0.0
220
0.0
230
1.0
  0
LINE
  5
B6
100
AcDbEntity
  8
0
 62
     7
 48
0.089351
100
AcDbLine
 10
39.4286
 20
112.987427
 30
0.0
 11
40.049221
 21
116.507156
 31
0.0
210
0.0
220
0.0
230
1.0
  0
LINE
  5
B7
100
AcDbEntity
  8
0
 62
     7
 48
0.018978
100
AcDbLine
 10
40.049221
 20
116.507156
 30
0.0
 11
39.561275
 21
117.088669
 31
0.0
210
0.0
220
0.0
230
1.0
  0
LINE
  5
B8
100
AcDbEntity
  8
0
 62
     7
 48
0.024055
100
AcDbLine
 10
39.561275
 20
117.088669
 30
0.0
 11
38.824192
 21
116.470184
 31
0.0
210
0.0
220
0.0
230
1.0
  0
LINE
  5
B9
100
AcDbEntity
  8
0
 62
     7
 48
0.015714
100
AcDbLine
 10
39.597439
 20
102.707153
 30
0.0
 11
39.193401
 21
103.188675
 31
0.0
210
0.0
220
0.0
230
1.0
  0
LINE
  5
BA
100
AcDbEntity
  8
0
 62
     7
 48
0.020166
100
AcDbLine
 10
43.052021
 20
103.188675
 30
0.0
 11
42.434109
 21
102.670181
 31
0.0
210
0.0
220
0.0
230
1.0
  0
LINE
  5
BB
100
AcDbEntity
  8
0
 62
     7
 48
0.020166
100
AcDbLine
 10
35.65202
 20
103.188675
 30
0.0
 11
35.034107
 21
102.670181
 31
0.0
210
0.0
220
0.0
230
1.0
  0
LINE
  5
BC
100
AcDbEntity
  8
0
 62
     7
 48
0.020166
100
AcDbLine
 10
39.193401
 20
103.188675
 30
0.0
 11
38.575489
 21
102.670181
 31
0.0
210
0.0
220
0.0
230
1.0
  0
LINE
  5
BD
100
AcDbEntity
  8
0
 62
     7
 48
0.020166
100
AcDbLine
 10
31.7934
 20
103.188675
 30
0.0
 11
31.175488
 21
102.670181
 31
0.0
210
0.0
220
0.0
230
1.0
  0
LINE
  5
BE
100
AcDbEntity
  8
0
 62
     7
 48
0.030544
100
AcDbLine
 10
38.207066
 20
99.344482
 30
0.0
 11
39.142979
 21
100.129807
 31
0.0
210
0.0
220
0.0
230
1.0
  0
LINE
  5
BF
100
AcDbEntity
  8
0
 62
     7
 48
0.030544
100
AcDbLine
 10
30.807064
 20
99.344482
 30
0.0
 11
31.742977
 21
100.129807
 31
0.0
210
0.0
220
0.0
230
1.0
  0
LINE
  5
C0
100
AcDbEntity
  8
0
 62
     7
 48
0.024891
100
AcDbLine
 10
41.979656
 20
100.092834
 30
0.0
 11
42.61964
 21
99.330124
 31
0.0
210
0.0
220
0.0
230
1.0
  0
LINE
  5
C1
100
AcDbEntity
  8
0
 62
     7
 48
0.024891
100
AcDbLine
 10
34.579655
 20
100.092834
 30
0.0
 11
35.219639
 21
99.330124
 31
0.0
210
0.0
220
0.0
230
1.0
  0
LINE
  5
C2
100
AcDbEntity
  8
0
 62
     7
 48
0.024891
100
AcDbLine
 10
34.989826
 20
99.137283
 30
0.0
 11
34.349842
 21
99.899994
 31
0.0
210
0.0
220
0.0
230
1.0
  0
LINE
  5
C3
100
AcDbEntity
  8
0
 62
     7
 48
0.024891
100
AcDbLine
 10
42.389828
 20
99.137283
 30
0.0
 11
41.749844
 21
99.899994
 31
0.0
210
0.0
220
0.0
230
1.0
  0
LINE
  5
C4
100
AcDbEntity
  8
0
 62
     7
 48
0.030544
100
AcDbLine
 10
31.935818
 20
99.899994
 30
0.0
 11
30.999905
 21
99.11467
 31
0.0
210
0.0
220
0.0
230
1.0
  0
LINE
  5
C5
100
AcDbEntity
  8
0
 62
     7
 48
0.030544
100
AcDbLine
 10
39.335819
 20
99.899994
 30
0.0
 11
38.399906
 21
99.11467
 31
0.0
210
0.0
220
0.0
230
1.0
  0
LINE
  5
C6
100
AcDbEntity
  8
0
 62
     7
 48
0.065668
100
AcDbLine
 10
38.98328
 20
98.899994
 30
0.0
 11
41.610012
 21
98.899994
 31
0.0
210
0.0
220
0.0
230
1.0
  0
LINE
  5
C7
100
AcDbEntity
  8
0
 62
     7
 48
0.065428
100
AcDbLine
 10
57.234112
 20
102.670181
 30
0.0
 11
56.779652
 21
100.092834
 31
0.0
210
0.0
220
0.0
230
1.0
  0
LINE
  5
C8
100
AcDbEntity
  8
0
 62
     7
 48
0.065428
100
AcDbLine
 10
49.83411
 20
102.670181
 30
0.0
 11
49.379658
 21
100.092834
 31
0.0
210
0.0
220
0.0
230
1.0
  0
LINE
  5
C9
100
AcDbEntity
  8
0
 62
     7
 48
0.065428
100
AcDbLine
 10
46.54298
 20
100.129807
 30
0.0
 11
46.997433
 21
102.707153
 31
0.0
210
0.0
220
0.0
230
1.0
  0
LINE
  5
CA
100
AcDbEntity
  8
0
 62
     7
 48
0.060351
100
AcDbLine
 10
54.627247
 20
102.899994
 30
0.0
 11
57.041271
 21
102.899994
 31
0.0
210
0.0
220
0.0
230
1.0
  0
LINE
  5
CB
100
AcDbEntity
  8
0
 62
     7
 48
0.065428
100
AcDbLine
 10
53.942982
 20
100.129807
 30
0.0
 11
54.397434
 21
102.707153
 31
0.0
210
0.0
220
0.0
230
1.0
  0
LINE
  5
CC
100
AcDbEntity
  8
0
 62
     7
 48
0.020166
100
AcDbLine
 10
57.041271
 20
102.899994
 30
0.0
 11
57.659184
 21
103.418488
 31
0.0
210
0.0
220
0.0
230
1.0
  0
LINE
  5
CD
100
AcDbEntity
  8
0
 62
     7
 48
0.015714
100
AcDbLine
 10
57.659184
 20
103.418488
 30
0.0
 11
57.255146
 21
103.899994
 31
0.0
210
0.0
220
0.0
230
1.0
  0
LINE
  5
CE
100
AcDbEntity
  8
0
 62
     7
 48
0.020166
100
AcDbLine
 10
54.841122
 20
103.899994
 30
0.0
 11
54.223217
 21
103.3815
 31
0.0
210
0.0
220
0.0
230
1.0
  0
LINE
  5
CF
100
AcDbEntity
  8
0
 62
     7
 48
0.020166
100
AcDbLine
 10
47.441128
 20
103.899994
 30
0.0
 11
46.823215
 21
103.3815
 31
0.0
210
0.0
220
0.0
230
1.0
  0
LINE
  5
D0
100
AcDbEntity
  8
0
 62
     7
 48
0.015714
100
AcDbLine
 10
50.259182
 20
103.418488
 30
0.0
 11
49.855152
 21
103.899994
 31
0.0
210
0.0
220
0.0
230
1.0
  0
LINE
  5
D1
100
AcDbEntity
  8
0
 62
     7
 48
0.024891
100
AcDbLine
 10
47.702747
 20
106.707153
 30
0.0
 11
47.062756
 21
107.469864
 31
0.0
210
0.0
220
0.0
230
1.0
  0
LINE
  5
D2
100
AcDbEntity
  8
0
 62
     7
 48
0.065428
100
AcDbLine
 10
57.939419
 20
106.670181
 30
0.0
 11
57.484959
 21
104.092834
 31
0.0
210
0.0
220
0.0
230
1.0
  0
LINE
  5
D3
100
AcDbEntity
  8
0
 62
     7
 48
0.065428
100
AcDbLine
 10
54.648289
 20
104.129807
 30
0.0
 11
55.102741
 21
106.707153
 31
0.0
210
0.0
220
0.0
230
1.0
  0
LINE
  5
D4
100
AcDbEntity
  8
0
 62
     7
 48
0.020166
100
AcDbLine
 10
54.030376
 20
103.611313
 30
0.0
 11
54.648289
 21
104.129807
 31
0.0
210
0.0
220
0.0
230
1.0
  0
LINE
  5
D5
100
AcDbEntity
  8
0
 62
     7
 48
0.068894
100
AcDbLine
 10
58.506908
 20
104.129807
 30
0.0
 11
58.985447
 21
106.843704
 31
0.0
210
0.0
220
0.0
230
1.0
  0
LINE
  5
D6
100
AcDbEntity
  8
0
 62
     7
 48
0.060351
100
AcDbLine
 10
57.255146
 20
103.899994
 30
0.0
 11
54.841122
 21
103.899994
 31
0.0
210
0.0
220
0.0
230
1.0
  0
LINE
  5
D7
100
AcDbEntity
  8
0
 62
     7
 48
0.065668
100
AcDbLine
 10
58.099117
 20
107.899994
 30
0.0
 11
55.472385
 21
107.899994
 31
0.0
210
0.0
220
0.0
230
1.0
  0
LINE
  5
D8
100
AcDbEntity
  8
0
 62
     7
 48
0.060351
100
AcDbLine
 10
55.332554
 20
106.899994
 30
0.0
 11
57.746586
 21
106.899994
 31
0.0
210
0.0
220
0.0
230
1.0
  0
LINE
  5
D9
100
AcDbEntity
  8
0
 62
     7
 48
0.030544
100
AcDbLine
 10
57.746586
 20
106.899994
 30
0.0
 11
58.682499
 21
107.685318
 31
0.0
210
0.0
220
0.0
230
1.0
  0
LINE
  5
DA
100
AcDbEntity
  8
0
 62
     7
 48
0.024891
100
AcDbLine
 10
55.102741
 20
106.707153
 30
0.0
 11
54.462757
 21
107.469864
 31
0.0
210
0.0
220
0.0
230
1.0
  0
LINE
  5
DB
100
AcDbEntity
  8
0
 62
     7
 48
0.030544
100
AcDbLine
 10
58.875332
 20
107.455505
 30
0.0
 11
57.939419
 21
106.670181
 31
0.0
210
0.0
220
0.0
230
1.0
  0
LINE
  5
DC
100
AcDbEntity
  8
0
 62
     7
 48
0.015714
100
AcDbLine
 10
53.626339
 20
104.092834
 30
0.0
 11
54.030376
 21
103.611313
 31
0.0
210
0.0
220
0.0
230
1.0
  0
LINE
  5
DD
100
AcDbEntity
  8
0
 62
     7
 48
0.067279
100
AcDbLine
 10
54.093655
 20
106.743103
 30
0.0
 11
53.626339
 21
104.092834
 31
0.0
210
0.0
220
0.0
230
1.0
  0
LINE
  5
DE
100
AcDbEntity
  8
0
 62
     7
 48
0.020166
100
AcDbLine
 10
57.888996
 20
103.611313
 30
0.0
 11
58.506908
 21
104.129807
 31
0.0
210
0.0
220
0.0
230
1.0
  0
LINE
  5
DF
100
AcDbEntity
  8
0
 62
     7
 48
0.060351
100
AcDbLine
 10
49.855152
 20
103.899994
 30
0.0
 11
47.441128
 21
103.899994
 31
0.0
210
0.0
220
0.0
230
1.0
  0
LINE
  5
E0
100
AcDbEntity
  8
0
 62
     7
 48
0.015714
100
AcDbLine
 10
50.084965
 20
104.092834
 30
0.0
 11
50.488995
 21
103.611313
 31
0.0
210
0.0
220
0.0
230
1.0
  0
LINE
  5
E1
100
AcDbEntity
  8
0
 62
     7
 48
0.020166
100
AcDbLine
 10
50.488995
 20
103.611313
 30
0.0
 11
51.106907
 21
104.129807
 31
0.0
210
0.0
220
0.0
230
1.0
  0
LINE
  5
E2
100
AcDbEntity
  8
0
 62
     7
 48
0.024891
100
AcDbLine
 10
47.292568
 20
107.662704
 30
0.0
 11
47.93256
 21
106.899994
 31
0.0
210
0.0
220
0.0
230
1.0
  0
LINE
  5
E3
100
AcDbEntity
  8
0
 62
     7
 48
0.030544
100
AcDbLine
 10
50.346584
 20
106.899994
 30
0.0
 11
51.282497
 21
107.685318
 31
0.0
210
0.0
220
0.0
230
1.0
  0
LINE
  5
E4
100
AcDbEntity
  8
0
 62
     7
 48
0.030544
100
AcDbLine
 10
51.47533
 20
107.455505
 30
0.0
 11
50.539417
 21
106.670181
 31
0.0
210
0.0
220
0.0
230
1.0
  0
LINE
  5
E5
100
AcDbEntity
  8
0
 62
     7
 48
0.024891
100
AcDbLine
 10
54.69257
 20
107.662704
 30
0.0
 11
55.332554
 21
106.899994
 31
0.0
210
0.0
220
0.0
230
1.0
  0
LINE
  5
E6
100
AcDbEntity
  8
0
 62
     7
 48
0.065668
100
AcDbLine
 10
50.699116
 20
107.899994
 30
0.0
 11
48.072384
 21
107.899994
 31
0.0
210
0.0
220
0.0
230
1.0
  0
LINE
  5
E7
100
AcDbEntity
  8
0
 62
     7
 48
0.060351
100
AcDbLine
 10
47.93256
 20
106.899994
 30
0.0
 11
50.346584
 21
106.899994
 31
0.0
210
0.0
220
0.0
230
1.0
  0
LINE
  5
E8
100
AcDbEntity
  8
0
 62
     7
 48
0.068894
100
AcDbLine
 10
51.106907
 20
104.129807
 30
0.0
 11
51.585445
 21
106.843704
 31
0.0
210
0.0
220
0.0
230
1.0
  0
LINE
  5
E9
100
AcDbEntity
  8
0
 62
     7
 48
0.065428
100
AcDbLine
 10
50.539417
 20
106.670181
 30
0.0
 11
50.084965
 21
104.092834
 31
0.0
210
0.0
220
0.0
230
1.0
  0
LINE
  5
EA
100
AcDbEntity
  8
0
 62
     7
 48
0.065428
100
AcDbLine
 10
47.248287
 20
104.129807
 30
0.0
 11
47.702747
 21
106.707153
 31
0.0
210
0.0
220
0.0
230
1.0
  0
LINE
  5
EB
100
AcDbEntity
  8
0
 62
     7
 48
0.015714
100
AcDbLine
 10
57.484959
 20
104.092834
 30
0.0
 11
57.888996
 21
103.611313
 31
0.0
210
0.0
220
0.0
230
1.0
  0
LINE
  5
EC
100
AcDbEntity
  8
0
 62
     7
 48
0.060351
100
AcDbLine
 10
47.227253
 20
102.899994
 30
0.0
 11
49.641277
 21
102.899994
 31
0.0
210
0.0
220
0.0
230
1.0
  0
LINE
  5
ED
100
AcDbEntity
  8
0
 62
     7
 48
0.015714
100
AcDbLine
 10
46.823215
 20
103.3815
 30
0.0
 11
47.227253
 21
102.899994
 31
0.0
210
0.0
220
0.0
230
1.0
  0
LINE
  5
EE
100
AcDbEntity
  8
0
 62
     7
 48
0.015714
100
AcDbLine
 10
54.223217
 20
103.3815
 30
0.0
 11
54.627247
 21
102.899994
 31
0.0
210
0.0
220
0.0
230
1.0
  0
LINE
  5
EF
100
AcDbEntity
  8
0
 62
     7
 48
0.020166
100
AcDbLine
 10
49.641277
 20
102.899994
 30
0.0
 11
50.259182
 21
103.418488
 31
0.0
210
0.0
220
0.0
230
1.0
  0
LINE
  5
F0
100
AcDbEntity
  8
0
 62
     7
 48
0.020166
100
AcDbLine
 10
46.630375
 20
103.611313
 30
0.0
 11
47.248287
 21
104.129807
 31
0.0
210
0.0
220
0.0
230
1.0
  0
LINE
  5
F1
100
AcDbEntity
  8
0
 62
     7
 48
0.067279
100
AcDbLine
 10
46.693653
 20
106.743103
 30
0.0
 11
46.226337
 21
104.092834
 31
0.0
210
0.0
220
0.0
230
1.0
  0
LINE
  5
F2
100
AcDbEntity
  8
0
 62
     7
 48
0.015714
100
AcDbLine
 10
58.256054
 20
102.707153
 30
0.0
 11
57.852024
 21
103.188675
 31
0.0
210
0.0
220
0.0
230
1.0
  0
LINE
  5
F3
100
AcDbEntity
  8
0
 62
     7
 48
0.015714
100
AcDbLine
 10
50.85606
 20
102.707153
 30
0.0
 11
50.452023
 21
103.188675
 31
0.0
210
0.0
220
0.0
230
1.0
  0
LINE
  5
F4
100
AcDbEntity
  8
0
 62
     7
 48
0.015714
100
AcDbLine
 10
46.997433
 20
102.707153
 30
0.0
 11
46.593403
 21
103.188675
 31
0.0
210
0.0
220
0.0
230
1.0
  0
LINE
  5
F5
100
AcDbEntity
  8
0
 62
     7
 48
0.015714
100
AcDbLine
 10
54.397434
 20
102.707153
 30
0.0
 11
53.993397
 21
103.188675
 31
0.0
210
0.0
220
0.0
230
1.0
  0
LINE
  5
F6
100
AcDbEntity
  8
0
 62
     7
 48
0.020166
100
AcDbLine
 10
57.852024
 20
103.188675
 30
0.0
 11
57.234112
 21
102.670181
 31
0.0
210
0.0
220
0.0
230
1.0
  0
LINE
  5
F7
100
AcDbEntity
  8
0
 62
     7
 48
0.020166
100
AcDbLine
 10
50.452023
 20
103.188675
 30
0.0
 11
49.83411
 21
102.670181
 31
0.0
210
0.0
220
0.0
230
1.0
  0
LINE
  5
F8
100
AcDbEntity
  8
0
 62
     7
 48
0.020166
100
AcDbLine
 10
46.593403
 20
103.188675
 30
0.0
 11
45.975491
 21
102.670181
 31
0.0
210
0.0
220
0.0
230
1.0
  0
LINE
  5
F9
100
AcDbEntity
  8
0
 62
     7
 48
0.020166
100
AcDbLine
 10
53.993397
 20
103.188675
 30
0.0
 11
53.375492
 21
102.670181
 31
0.0
210
0.0
220
0.0
230
1.0
  0
LINE
  5
FA
100
AcDbEntity
  8
0
 62
     7
 48
0.083879
100
AcDbLine
 10
52.500782
 20
111.5
 30
0.0
 11
55.855946
 21
111.5
 31
0.0
210
0.0
220
0.0
230
1.0
  0
LINE
  5
FB
100
AcDbEntity
  8
0
 62
     7
 48
0.083879
100
AcDbLine
 10
43.400784
 20
111.5
 30
0.0
 11
46.755947
 21
111.5
 31
0.0
210
0.0
220
0.0
230
1.0
  0
LINE
  5
FC
100
AcDbEntity
  8
0
 62
     7
 48
0.034234
100
AcDbLine
 10
52.734142
 20
112.699997
 30
0.0
 11
51.685162
 21
111.819794
 31
0.0
210
0.0
220
0.0
230
1.0
  0
LINE
  5
FD
100
AcDbEntity
  8
0
 62
     7
 48
0.024055
100
AcDbLine
 10
57.798252
 20
117.511322
 30
0.0
 11
58.535343
 21
118.129807
 31
0.0
210
0.0
220
0.0
230
1.0
  0
LINE
  5
FE
100
AcDbEntity
  8
0
 62
     7
 48
0.034234
100
AcDbLine
 10
57.748257
 20
121.899994
 30
0.0
 11
58.797237
 21
122.780197
 31
0.0
210
0.0
220
0.0
230
1.0
  0
LINE
  5
FF
100
AcDbEntity
  8
0
 62
     7
 48
0.034234
100
AcDbLine
 10
58.990078
 20
122.550385
 30
0.0
 11
57.94109
 21
121.670181
 31
0.0
210
0.0
220
0.0
230
1.0
  0
LINE
  5
100
100
AcDbEntity
  8
0
 62
     7
 48
0.090419
100
AcDbLine
 10
58.535343
 20
118.129807
 30
0.0
 11
59.16338
 21
121.69162
 31
0.0
210
0.0
220
0.0
230
1.0
  0
LINE
  5
101
100
AcDbEntity
  8
0
 62
     7
 48
0.034234
100
AcDbLine
 10
48.648258
 20
121.899994
 30
0.0
 11
49.697239
 21
122.780197
 31
0.0
210
0.0
220
0.0
230
1.0
  0
LINE
  5
102
100
AcDbEntity
  8
0
 62
     7
 48
0.034234
100
AcDbLine
 10
49.890072
 20
122.550385
 30
0.0
 11
48.841091
 21
121.670181
 31
0.0
210
0.0
220
0.0
230
1.0
  0
LINE
  5
103
100
AcDbEntity
  8
0
 62
     7
 48
0.024055
100
AcDbLine
 10
56.831356
 20
116.699997
 30
0.0
 11
57.568439
 21
117.318481
 31
0.0
210
0.0
220
0.0
230
1.0
  0
LINE
  5
104
100
AcDbEntity
  8
0
 62
     7
 48
0.018978
100
AcDbLine
 10
57.568439
 20
117.318481
 30
0.0
 11
57.080494
 21
117.899994
 31
0.0
210
0.0
220
0.0
230
1.0
  0
LINE
  5
105
100
AcDbEntity
  8
0
 62
     7
 48
0.090419
100
AcDbLine
 10
49.435337
 20
118.129807
 30
0.0
 11
50.063381
 21
121.69162
 31
0.0
210
0.0
220
0.0
230
1.0
  0
LINE
  5
106
100
AcDbEntity
  8
0
 62
     7
 48
0.089351
100
AcDbLine
 10
52.853802
 20
121.612564
 30
0.0
 11
52.233173
 21
118.092834
 31
0.0
210
0.0
220
0.0
230
1.0
  0
LINE
  5
107
100
AcDbEntity
  8
0
 62
     7
 48
0.090813
100
AcDbLine
 10
53.45821
 20
118.129807
 30
0.0
 11
54.088993
 21
121.707153
 31
0.0
210
0.0
220
0.0
230
1.0
  0
LINE
  5
108
100
AcDbEntity
  8
0
 62
     7
 48
0.085736
100
AcDbLine
 10
54.318806
 20
121.899994
 30
0.0
 11
57.748257
 21
121.899994
 31
0.0
210
0.0
220
0.0
230
1.0
  0
LINE
  5
109
100
AcDbEntity
  8
0
 62
     7
 48
0.018978
100
AcDbLine
 10
57.310307
 20
118.092834
 30
0.0
 11
57.798252
 21
117.511322
 31
0.0
210
0.0
220
0.0
230
1.0
  0
LINE
  5
10A
100
AcDbEntity
  8
0
 62
     7
 48
0.090813
100
AcDbLine
 10
57.94109
 20
121.670181
 30
0.0
 11
57.310307
 21
118.092834
 31
0.0
210
0.0
220
0.0
230
1.0
  0
LINE
  5
10B
100
AcDbEntity
  8
0
 62
     7
 48
0.083879
100
AcDbLine
 10
57.981617
 20
123.099991
 30
0.0
 11
54.626453
 21
123.099991
 31
0.0
210
0.0
220
0.0
230
1.0
  0
LINE
  5
10C
100
AcDbEntity
  8
0
 62
     7
 48
0.028409
100
AcDbLine
 10
53.588367
 20
122.770493
 30
0.0
 11
54.318806
 21
121.899994
 31
0.0
210
0.0
220
0.0
230
1.0
  0
LINE
  5
10D
100
AcDbEntity
  8
0
 62
     7
 48
0.028409
100
AcDbLine
 10
54.088993
 20
121.707153
 30
0.0
 11
53.358555
 21
122.577652
 31
0.0
210
0.0
220
0.0
230
1.0
  0
LINE
  5
10E
100
AcDbEntity
  8
0
 62
     7
 48
0.089351
100
AcDbLine
 10
57.628597
 20
112.987427
 30
0.0
 11
58.249226
 21
116.507156
 31
0.0
210
0.0
220
0.0
230
1.0
  0
LINE
  5
10F
100
AcDbEntity
  8
0
 62
     7
 48
0.018978
100
AcDbLine
 10
58.249226
 20
116.507156
 30
0.0
 11
57.76128
 21
117.088669
 31
0.0
210
0.0
220
0.0
230
1.0
  0
LINE
  5
110
100
AcDbEntity
  8
0
 62
     7
 48
0.024055
100
AcDbLine
 10
57.76128
 20
117.088669
 30
0.0
 11
57.024189
 21
116.470184
 31
0.0
210
0.0
220
0.0
230
1.0
  0
LINE
  5
111
100
AcDbEntity
  8
0
 62
     7
 48
0.085736
100
AcDbLine
 10
47.063595
 20
112.699997
 30
0.0
 11
43.634144
 21
112.699997
 31
0.0
210
0.0
220
0.0
230
1.0
  0
LINE
  5
112
100
AcDbEntity
  8
0
 62
     7
 48
0.085736
100
AcDbLine
 10
44.301907
 20
116.699997
 30
0.0
 11
47.731358
 21
116.699997
 31
0.0
210
0.0
220
0.0
230
1.0
  0
LINE
  5
113
100
AcDbEntity
  8
0
 62
     7
 48
0.090813
100
AcDbLine
 10
48.841091
 20
121.670181
 30
0.0
 11
48.210308
 21
118.092834
 31
0.0
210
0.0
220
0.0
230
1.0
  0
LINE
  5
114
100
AcDbEntity
  8
0
 62
     7
 48
0.085736
100
AcDbLine
 10
47.980495
 20
117.899994
 30
0.0
 11
44.551044
 21
117.899994
 31
0.0
210
0.0
220
0.0
230
1.0
  0
LINE
  5
115
100
AcDbEntity
  8
0
 62
     7
 48
0.085736
100
AcDbLine
 10
45.218807
 20
121.899994
 30
0.0
 11
48.648258
 21
121.899994
 31
0.0
210
0.0
220
0.0
230
1.0
  0
LINE
  5
116
100
AcDbEntity
  8
0
 62
     7
 48
0.083879
100
AcDbLine
 10
48.881611
 20
123.099991
 30
0.0
 11
45.526455
 21
123.099991
 31
0.0
210
0.0
220
0.0
230
1.0
  0
LINE
  5
117
100
AcDbEntity
  8
0
 62
     7
 48
0.018978
100
AcDbLine
 10
49.149227
 20
116.507156
 30
0.0
 11
48.661274
 21
117.088669
 31
0.0
210
0.0
220
0.0
230
1.0
  0
LINE
  5
118
100
AcDbEntity
  8
0
 62
     7
 48
0.024055
100
AcDbLine
 10
48.661274
 20
117.088669
 30
0.0
 11
47.924191
 21
116.470184
 31
0.0
210
0.0
220
0.0
230
1.0
  0
LINE
  5
119
100
AcDbEntity
  8
0
 62
     7
 48
0.018978
100
AcDbLine
 10
48.210308
 20
118.092834
 30
0.0
 11
48.698254
 21
117.511322
 31
0.0
210
0.0
220
0.0
230
1.0
  0
LINE
  5
11A
100
AcDbEntity
  8
0
 62
     7
 48
0.024055
100
AcDbLine
 10
52.721119
 20
117.511322
 30
0.0
 11
53.45821
 21
118.129807
 31
0.0
210
0.0
220
0.0
230
1.0
  0
LINE
  5
11B
100
AcDbEntity
  8
0
 62
     7
 48
0.018978
100
AcDbLine
 10
52.233173
 20
118.092834
 30
0.0
 11
52.721119
 21
117.511322
 31
0.0
210
0.0
220
0.0
230
1.0
  0
LINE
  5
11C
100
AcDbEntity
  8
0
 62
     7
 48
0.085736
100
AcDbLine
 10
56.163593
 20
112.699997
 30
0.0
 11
52.734142
 21
112.699997
 31
0.0
210
0.0
220
0.0
230
1.0
  0
LINE
  5
11D
100
AcDbEntity
  8
0
 62
     7
 48
0.090419
100
AcDbLine
 10
51.947056
 20
116.470184
 30
0.0
 11
51.319012
 21
112.908371
 31
0.0
210
0.0
220
0.0
230
1.0
  0
LINE
  5
11E
100
AcDbEntity
  8
0
 62
     7
 48
0.034234
100
AcDbLine
 10
51.492321
 20
112.049606
 30
0.0
 11
52.541309
 21
112.92981
 31
0.0
210
0.0
220
0.0
230
1.0
  0
LINE
  5
11F
100
AcDbEntity
  8
0
 62
     7
 48
0.090813
100
AcDbLine
 10
52.541309
 20
112.92981
 30
0.0
 11
53.172092
 21
116.507156
 31
0.0
210
0.0
220
0.0
230
1.0
  0
LINE
  5
120
100
AcDbEntity
  8
0
 62
     7
 48
0.085736
100
AcDbLine
 10
53.401905
 20
116.699997
 30
0.0
 11
56.831356
 21
116.699997
 31
0.0
210
0.0
220
0.0
230
1.0
  0
LINE
  5
121
100
AcDbEntity
  8
0
 62
     7
 48
0.090814
100
AcDbLine
 10
57.024189
 20
116.470184
 30
0.0
 11
56.393406
 21
112.892822
 31
0.0
210
0.0
220
0.0
230
1.0
  0
LINE
  5
122
100
AcDbEntity
  8
0
 62
     7
 48
0.028409
100
AcDbLine
 10
56.393406
 20
112.892822
 30
0.0
 11
57.123844
 21
112.022324
 31
0.0
210
0.0
220
0.0
230
1.0
  0
LINE
  5
123
100
AcDbEntity
  8
0
 62
     7
 48
0.018978
100
AcDbLine
 10
53.172092
 20
116.507156
 30
0.0
 11
52.684147
 21
117.088669
 31
0.0
210
0.0
220
0.0
230
1.0
  0
LINE
  5
124
100
AcDbEntity
  8
0
 62
     7
 48
0.024055
100
AcDbLine
 10
52.684147
 20
117.088669
 30
0.0
 11
51.947056
 21
116.470184
 31
0.0
210
0.0
220
0.0
230
1.0
  0
LINE
  5
125
100
AcDbEntity
  8
0
 62
     7
 48
0.018978
100
AcDbLine
 10
52.91396
 20
117.281509
 30
0.0
 11
53.401905
 21
116.699997
 31
0.0
210
0.0
220
0.0
230
1.0
  0
LINE
  5
126
100
AcDbEntity
  8
0
 62
     7
 48
0.024055
100
AcDbLine
 10
48.698254
 20
117.511322
 30
0.0
 11
49.435337
 21
118.129807
 31
0.0
210
0.0
220
0.0
230
1.0
  0
LINE
  5
127
100
AcDbEntity
  8
0
 62
     7
 48
0.024055
100
AcDbLine
 10
47.731358
 20
116.699997
 30
0.0
 11
48.468441
 21
117.318481
 31
0.0
210
0.0
220
0.0
230
1.0
  0
LINE
  5
128
100
AcDbEntity
  8
0
 62
     7
 48
0.018978
100
AcDbLine
 10
48.468441
 20
117.318481
 30
0.0
 11
47.980495
 21
117.899994
 31
0.0
210
0.0
220
0.0
230
1.0
  0
LINE
  5
129
100
AcDbEntity
  8
0
 62
     7
 48
0.089351
100
AcDbLine
 10
48.528599
 20
112.987427
 30
0.0
 11
49.149227
 21
116.507156
 31
0.0
210
0.0
220
0.0
230
1.0
  0
LINE
  5
12A
100
AcDbEntity
  8
0
 62
     7
 48
0.028409
100
AcDbLine
 10
47.293407
 20
112.892822
 30
0.0
 11
48.023846
 21
112.022324
 31
0.0
210
0.0
220
0.0
230
1.0
  0
LINE
  5
12B
100
AcDbEntity
  8
0
 62
     7
 48
0.090814
100
AcDbLine
 10
47.924191
 20
116.470184
 30
0.0
 11
47.293407
 21
112.892822
 31
0.0
210
0.0
220
0.0
230
1.0
  0
LINE
  5
12C
100
AcDbEntity
  8
0
 62
     7
 48
0.024055
100
AcDbLine
 10
53.651043
 20
117.899994
 30
0.0
 11
52.91396
 21
117.281509
 31
0.0
210
0.0
220
0.0
230
1.0
  0
LINE
  5
12D
100
AcDbEntity
  8
0
 62
     7
 48
0.085736
100
AcDbLine
 10
57.080494
 20
117.899994
 30
0.0
 11
53.651043
 21
117.899994
 31
0.0
210
0.0
220
0.0
230
1.0
  0
LINE
  5
12E
100
AcDbEntity
  8
0
 62
     7
 48
0.028409
100
AcDbLine
 10
56.894032
 20
111.829498
 30
0.0
 11
56.163593
 21
112.699997
 31
0.0
210
0.0
220
0.0
230
1.0
  0
LINE
  5
12F
100
AcDbEntity
  8
0
 62
     7
 48
0.028409
100
AcDbLine
 10
47.794033
 20
111.829498
 30
0.0
 11
47.063595
 21
112.699997
 31
0.0
210
0.0
220
0.0
230
1.0
  0
LINE
  5
130
100
AcDbEntity
  8
0
 62
     7
 48
0.015714
100
AcDbLine
 10
46.226337
 20
104.092834
 30
0.0
 11
46.630375
 21
103.611313
 31
0.0
210
0.0
220
0.0
230
1.0
  0
LINE
  5
131
100
AcDbEntity
  8
0
 62
     7
 48
0.067279
100
AcDbLine
 10
57.788746
 20
100.056885
 30
0.0
 11
58.256054
 21
102.707153
 31
0.0
210
0.0
220
0.0
230
1.0
  0
LINE
  5
132
100
AcDbEntity
  8
0
 62
     7
 48
0.067279
100
AcDbLine
 10
50.388744
 20
100.056885
 30
0.0
 11
50.85606
 21
102.707153
 31
0.0
210
0.0
220
0.0
230
1.0
  0
LINE
  5
133
100
AcDbEntity
  8
0
 62
     7
 48
0.068894
100
AcDbLine
 10
53.375492
 20
102.670181
 30
0.0
 11
52.896954
 21
99.956284
 31
0.0
210
0.0
220
0.0
230
1.0
  0
LINE
  5
134
100
AcDbEntity
  8
0
 62
     7
 48
0.060351
100
AcDbLine
 10
49.149837
 20
99.899994
 30
0.0
 11
46.735813
 21
99.899994
 31
0.0
210
0.0
220
0.0
230
1.0
  0
LINE
  5
135
100
AcDbEntity
  8
0
 62
     7
 48
0.068894
100
AcDbLine
 10
45.975491
 20
102.670181
 30
0.0
 11
45.496952
 21
99.956284
 31
0.0
210
0.0
220
0.0
230
1.0
  0
LINE
  5
136
100
AcDbEntity
  8
0
 62
     7
 48
0.060351
100
AcDbLine
 10
56.549839
 20
99.899994
 30
0.0
 11
54.135815
 21
99.899994
 31
0.0
210
0.0
220
0.0
230
1.0
  0
LINE
  5
137
100
AcDbEntity
  8
0
 62
     7
 48
0.030544
100
AcDbLine
 10
53.007069
 20
99.344482
 30
0.0
 11
53.942982
 21
100.129807
 31
0.0
210
0.0
220
0.0
230
1.0
  0
LINE
  5
138
100
AcDbEntity
  8
0
 62
     7
 48
0.030544
100
AcDbLine
 10
45.607067
 20
99.344482
 30
0.0
 11
46.54298
 21
100.129807
 31
0.0
210
0.0
220
0.0
230
1.0
  0
LINE
  5
139
100
AcDbEntity
  8
0
 62
     7
 48
0.024891
100
AcDbLine
 10
49.379658
 20
100.092834
 30
0.0
 11
50.019642
 21
99.330124
 31
0.0
210
0.0
220
0.0
230
1.0
  0
LINE
  5
13A
100
AcDbEntity
  8
0
 62
     7
 48
0.024891
100
AcDbLine
 10
56.779652
 20
100.092834
 30
0.0
 11
57.419643
 21
99.330124
 31
0.0
210
0.0
220
0.0
230
1.0
  0
LINE
  5
13B
100
AcDbEntity
  8
0
 62
     7
 48
0.024891
100
AcDbLine
 10
57.189831
 20
99.137283
 30
0.0
 11
56.549839
 21
99.899994
 31
0.0
210
0.0
220
0.0
230
1.0
  0
LINE
  5
13C
100
AcDbEntity
  8
0
 62
     7
 48
0.030544
100
AcDbLine
 10
54.135815
 20
99.899994
 30
0.0
 11
53.199902
 21
99.11467
 31
0.0
210
0.0
220
0.0
230
1.0
  0
LINE
  5
13D
100
AcDbEntity
  8
0
 62
     7
 48
0.030544
100
AcDbLine
 10
46.735813
 20
99.899994
 30
0.0
 11
45.7999
 21
99.11467
 31
0.0
210
0.0
220
0.0
230
1.0
  0
LINE
  5
13E
100
AcDbEntity
  8
0
 62
     7
 48
0.024891
100
AcDbLine
 10
49.789829
 20
99.137283
 30
0.0
 11
49.149837
 21
99.899994
 31
0.0
210
0.0
220
0.0
230
1.0
  0
LINE
  5
13F
100
AcDbEntity
  8
0
 62
     7
 48
0.065668
100
AcDbLine
 10
46.383282
 20
98.899994
 30
0.0
 11
49.010014
 21
98.899994
 31
0.0
210
0.0
220
0.0
230
1.0
  0
LINE
  5
140
100
AcDbEntity
  8
0
 62
     7
 48
0.065668
100
AcDbLine
 10
53.783283
 20
98.899994
 30
0.0
 11
56.410015
 21
98.899994
 31
0.0
210
0.0
220
0.0
230
1.0
  0
LINE
  5
141
100
AcDbEntity
  8
0
 62
     7
100
AcDbLine
 10
16.841091
 20
124.800095
 30
0.0
 11
63.341076
 21
124.800095
 31
0.0
210
0.0
220
0.0
230
1.0
  0
LINE
  5
142
100
AcDbEntity
  8
0
 62
     7
 48
0.01221
100
AcDbLine
 10
174.806641
 20
96.564804
 30
0.0
 11
174.806641
 21
96.076385
 31
0.0
210
0.0
220
0.0
230
1.0
  0
LINE
  5
143
100
AcDbEntity
  8
0
 62
     7
 48
0.012211
100
AcDbLine
 10
174.806641
 20
95.693237
 30
0.0
 11
174.806641
 21
95.204803
 31
0.0
210
0.0
220
0.0
230
1.0
  0
LINE
  5
144
100
AcDbEntity
  8
0
 62
     7
 48
0.009579
100
AcDbLine
 10
174.806641
 20
96.076385
 30
0.0
 11
174.806641
 21
95.693237
 31
0.0
210
0.0
220
0.0
230
1.0
  0
LINE
  5
145
100
AcDbEntity
  8
0
 62
     7
 48
0.21
100
AcDbLine
 10
165.906647
 20
97.064804
 30
0.0
 11
174.306641
 21
97.064804
 31
0.0
210
0.0
220
0.0
230
1.0
  0
LINE
  5
146
100
AcDbEntity
  8
0
 62
     7
 48
0.2225
100
AcDbLine
 10
165.406647
 20
94.704803
 30
0.0
 11
174.306641
 21
94.704803
 31
0.0
210
0.0
220
0.0
230
1.0
  0
LINE
  5
147
100
AcDbEntity
  8
0
 62
     7
 48
0.004152
100
AcDbLine
 10
174.806641
 20
99.458817
 30
0.0
 11
174.806641
 21
99.292725
 31
0.0
210
0.0
220
0.0
230
1.0
  0
LINE
  5
148
100
AcDbEntity
  8
0
 62
     7
 48
0.004152
100
AcDbLine
 10
174.806641
 20
98.264908
 30
0.0
 11
174.806641
 21
98.098816
 31
0.0
210
0.0
220
0.0
230
1.0
  0
LINE
  5
149
100
AcDbEntity
  8
0
 62
     7
 48
0.025695
100
AcDbLine
 10
174.806641
 20
99.292725
 30
0.0
 11
174.806641
 21
98.264908
 31
0.0
210
0.0
220
0.0
230
1.0
  0
LINE
  5
14A
100
AcDbEntity
  8
0
 62
     7
 48
0.011477
100
AcDbLine
 10
173.847549
 20
99.958817
 30
0.0
 11
174.306641
 21
99.958817
 31
0.0
210
0.0
220
0.0
230
1.0
  0
LINE
  5
14B
100
AcDbEntity
  8
0
 62
     7
 48
0.2225
100
AcDbLine
 10
165.406647
 20
97.598816
 30
0.0
 11
174.306641
 21
97.598816
 31
0.0
210
0.0
220
0.0
230
1.0
  0
LINE
  5
14C
100
AcDbEntity
  8
0
 62
     7
 48
0.198523
100
AcDbLine
 10
165.906647
 20
99.958817
 30
0.0
 11
173.847549
 21
99.958817
 31
0.0
210
0.0
220
0.0
230
1.0
  0
LINE
  5
14D
100
AcDbEntity
  8
0
 62
     7
 48
0.000173
100
AcDbLine
 10
174.806641
 20
104.328003
 30
0.0
 11
174.806641
 21
104.321075
 31
0.0
210
0.0
220
0.0
230
1.0
  0
LINE
  5
14E
100
AcDbEntity
  8
0
 62
     7
 48
0.000173
100
AcDbLine
 10
174.806641
 20
102.97493
 30
0.0
 11
174.806641
 21
102.968002
 31
0.0
210
0.0
220
0.0
230
1.0
  0
LINE
  5
14F
100
AcDbEntity
  8
0
 62
     7
 48
0.033654
100
AcDbLine
 10
174.806641
 20
104.321075
 30
0.0
 11
174.806641
 21
102.97493
 31
0.0
210
0.0
220
0.0
230
1.0
  0
LINE
  5
150
100
AcDbEntity
  8
0
 62
     7
 48
0.2225
100
AcDbLine
 10
165.406647
 20
104.828003
 30
0.0
 11
174.306641
 21
104.828003
 31
0.0
210
0.0
220
0.0
230
1.0
  0
LINE
  5
151
100
AcDbEntity
  8
0
 62
     7
 48
0.2225
100
AcDbLine
 10
165.406647
 20
102.468002
 30
0.0
 11
174.306641
 21
102.468002
 31
0.0
210
0.0
220
0.0
230
1.0
  0
LINE
  5
152
100
AcDbEntity
  8
0
 62
     7
 48
0.21
100
AcDbLine
 10
165.906647
 20
115.679993
 30
0.0
 11
174.306641
 21
115.679993
 31
0.0
210
0.0
220
0.0
230
1.0
  0
LINE
  5
153
100
AcDbEntity
  8
0
 62
     7
 48
0.034
100
AcDbLine
 10
174.806641
 20
115.179993
 30
0.0
 11
174.806641
 21
113.819992
 31
0.0
210
0.0
220
0.0
230
1.0
  0
LINE
  5
154
100
AcDbEntity
  8
0
 62
     7
 48
0.21
100
AcDbLine
 10
165.906647
 20
111.811905
 30
0.0
 11
174.306641
 21
111.811905
 31
0.0
210
0.0
220
0.0
230
1.0
  0
LINE
  5
155
100
AcDbEntity
  8
0
 62
     7
 48
0.034
100
AcDbLine
 10
174.806641
 20
113.671906
 30
0.0
 11
174.806641
 21
112.311905
 31
0.0
210
0.0
220
0.0
230
1.0
  0
LINE
  5
156
100
AcDbEntity
  8
0
 62
     7
 48
0.21
100
AcDbLine
 10
165.906647
 20
114.171906
 30
0.0
 11
174.306641
 21
114.171906
 31
0.0
210
0.0
220
0.0
230
1.0
  0
LINE
  5
157
100
AcDbEntity
  8
0
 62
     7
 48
0.0125
100
AcDbLine
 10
165.406647
 20
114.171906
 30
0.0
 11
165.906647
 21
114.171906
 31
0.0
210
0.0
220
0.0
230
1.0
  0
LINE
  5
158
100
AcDbEntity
  8
0
 62
     7
 48
0.2225
100
AcDbLine
 10
165.406647
 20
107.766434
 30
0.0
 11
174.306641
 21
107.766434
 31
0.0
210
0.0
220
0.0
230
1.0
  0
LINE
  5
159
100
AcDbEntity
  8
0
 62
     7
 48
0.21
100
AcDbLine
 10
165.906647
 20
110.126434
 30
0.0
 11
174.306641
 21
110.126434
 31
0.0
210
0.0
220
0.0
230
1.0
  0
LINE
  5
15A
100
AcDbEntity
  8
0
 62
     7
 48
0.015661
100
AcDbLine
 10
174.806641
 20
109.626434
 30
0.0
 11
174.806641
 21
109.0
 31
0.0
210
0.0
220
0.0
230
1.0
  0
LINE
  5
15B
100
AcDbEntity
  8
0
 62
     7
 48
0.018339
100
AcDbLine
 10
174.806641
 20
109.0
 30
0.0
 11
174.806641
 21
108.266434
 31
0.0
210
0.0
220
0.0
230
1.0
  0
LINE
  5
15C
100
AcDbEntity
  8
0
 62
     7
 48
0.0125
100
AcDbLine
 10
165.406647
 20
110.126434
 30
0.0
 11
165.906647
 21
110.126434
 31
0.0
210
0.0
220
0.0
230
1.0
  0
LINE
  5
15D
100
AcDbEntity
  8
0
 62
     7
 48
0.15
100
AcDbLine
 10
178.106644
 20
108.0
 30
0.0
 11
178.106644
 21
102.0
 31
0.0
210
0.0
220
0.0
230
1.0
  0
LINE
  5
15E
100
AcDbEntity
  8
0
 62
     7
 48
0.0575
100
AcDbLine
 10
174.806641
 20
109.0
 30
0.0
 11
177.106644
 21
109.0
 31
0.0
210
0.0
220
0.0
230
1.0
  0
LINE
  5
15F
100
AcDbEntity
  8
0
 62
     7
 48
0.0775
100
AcDbLine
 10
174.006638
 20
101.0
 30
0.0
 11
177.106644
 21
101.0
 31
0.0
210
0.0
220
0.0
230
1.0
  0
LINE
  5
160
100
AcDbEntity
  8
0
 62
     7
 48
0.0125
100
AcDbLine
 10
174.006638
 20
100.5
 30
0.0
 11
174.006638
 21
101.0
 31
0.0
210
0.0
220
0.0
230
1.0
  0
LINE
  5
161
100
AcDbEntity
  8
0
 62
     7
 48
0.0075
100
AcDbLine
 10
165.106644
 20
120.0
 30
0.0
 11
165.406647
 21
120.0
 31
0.0
210
0.0
220
0.0
230
1.0
  0
LINE
  5
162
100
AcDbEntity
  8
0
 62
     7
 48
0.100422
100
AcDbLine
 10
165.406647
 20
120.0
 30
0.0
 11
165.406647
 21
115.983124
 31
0.0
210
0.0
220
0.0
230
1.0
  0
LINE
  5
163
100
AcDbEntity
  8
0
 62
     7
 48
0.0125
100
AcDbLine
 10
165.406647
 20
115.983124
 30
0.0
 11
165.906647
 21
115.983124
 31
0.0
210
0.0
220
0.0
230
1.0
  0
LINE
  5
164
100
AcDbEntity
  8
0
 62
     7
 48
0.007043
100
AcDbLine
 10
165.906647
 20
115.701401
 30
0.0
 11
165.906647
 21
115.983124
 31
0.0
210
0.0
220
0.0
230
1.0
  0
LINE
  5
165
100
AcDbEntity
  8
0
 62
     7
 48
0.038237
100
AcDbLine
 10
165.906647
 20
114.171906
 30
0.0
 11
165.906647
 21
115.701401
 31
0.0
210
0.0
220
0.0
230
1.0
  0
LINE
  5
166
100
AcDbEntity
  8
0
 62
     7
 48
0.0125
100
AcDbLine
 10
165.406647
 20
107.103058
 30
0.0
 11
165.906647
 21
107.103058
 31
0.0
210
0.0
220
0.0
230
1.0
  0
LINE
  5
167
100
AcDbEntity
  8
0
 62
     7
 48
0.0925
100
AcDbLine
 10
165.406647
 20
93.699997
 30
0.0
 11
165.406647
 21
90.0
 31
0.0
210
0.0
220
0.0
230
1.0
  0
LINE
  5
168
100
AcDbEntity
  8
0
 62
     7
 48
0.0075
100
AcDbLine
 10
165.106644
 20
90.0
 30
0.0
 11
165.406647
 21
90.0
 31
0.0
210
0.0
220
0.0
230
1.0
  0
LINE
  5
169
100
AcDbEntity
  8
0
 62
     7
 48
0.013516
100
AcDbLine
 10
165.906647
 20
95.223511
 30
0.0
 11
165.906647
 21
95.764145
 31
0.0
210
0.0
220
0.0
230
1.0
  0
LINE
  5
16A
100
AcDbEntity
  8
0
 62
     7
 48
0.02512
100
AcDbLine
 10
165.906647
 20
93.699997
 30
0.0
 11
165.906647
 21
94.704803
 31
0.0
210
0.0
220
0.0
230
1.0
  0
LINE
  5
16B
100
AcDbEntity
  8
0
 62
     7
 48
0.0125
100
AcDbLine
 10
165.406647
 20
93.699997
 30
0.0
 11
165.906647
 21
93.699997
 31
0.0
210
0.0
220
0.0
230
1.0
  0
LINE
  5
16C
100
AcDbEntity
  8
0
 62
     7
 48
0.038088
100
AcDbLine
 10
165.406647
 20
95.223511
 30
0.0
 11
165.406647
 21
93.699997
 31
0.0
210
0.0
220
0.0
230
1.0
  0
LINE
  5
16D
100
AcDbEntity
  8
0
 62
     7
 48
0.013516
100
AcDbLine
 10
165.406647
 20
95.764145
 30
0.0
 11
165.406647
 21
95.223511
 31
0.0
210
0.0
220
0.0
230
1.0
  0
LINE
  5
16E
100
AcDbEntity
  8
0
 62
     7
 48
0.0125
100
AcDbLine
 10
165.406647
 20
95.764145
 30
0.0
 11
165.906647
 21
95.764145
 31
0.0
210
0.0
220
0.0
230
1.0
  0
LINE
  5
16F
100
AcDbEntity
  8
0
 62
     7
 48
0.0125
100
AcDbLine
 10
165.406647
 20
95.223511
 30
0.0
 11
165.906647
 21
95.223511
 31
0.0
210
0.0
220
0.0
230
1.0
  0
LINE
  5
170
100
AcDbEntity
  8
0
 62
     7
 48
0.045867
100
AcDbLine
 10
165.906647
 20
95.764145
 30
0.0
 11
165.906647
 21
97.598816
 31
0.0
210
0.0
220
0.0
230
1.0
  0
LINE
  5
171
100
AcDbEntity
  8
0
 62
     7
 48
0.022741
100
AcDbLine
 10
165.406647
 20
100.76062
 30
0.0
 11
165.406647
 21
99.850983
 31
0.0
210
0.0
220
0.0
230
1.0
  0
LINE
  5
172
100
AcDbEntity
  8
0
 62
     7
 48
0.022741
100
AcDbLine
 10
165.906647
 20
99.850983
 30
0.0
 11
165.906647
 21
100.76062
 31
0.0
210
0.0
220
0.0
230
1.0
  0
LINE
  5
173
100
AcDbEntity
  8
0
 62
     7
 48
0.0125
100
AcDbLine
 10
165.406647
 20
100.76062
 30
0.0
 11
165.906647
 21
100.76062
 31
0.0
210
0.0
220
0.0
230
1.0
  0
LINE
  5
174
100
AcDbEntity
  8
0
 62
     7
 48
0.0125
100
AcDbLine
 10
165.406647
 20
99.850983
 30
0.0
 11
165.906647
 21
99.850983
 31
0.0
210
0.0
220
0.0
230
1.0
  0
LINE
  5
175
100
AcDbEntity
  8
0
 62
     7
 48
0.102171
100
AcDbLine
 10
165.406647
 20
99.850983
 30
0.0
 11
165.406647
 21
95.764145
 31
0.0
210
0.0
220
0.0
230
1.0
  0
LINE
  5
176
100
AcDbEntity
  8
0
 62
     7
 48
0.0125
100
AcDbLine
 10
165.406647
 20
112.777802
 30
0.0
 11
165.906647
 21
112.777802
 31
0.0
210
0.0
220
0.0
230
1.0
  0
LINE
  5
177
100
AcDbEntity
  8
0
 62
     7
 48
0.024746
100
AcDbLine
 10
165.906647
 20
106.113235
 30
0.0
 11
165.906647
 21
107.103058
 31
0.0
210
0.0
220
0.0
230
1.0
  0
LINE
  5
178
100
AcDbEntity
  8
0
 62
     7
 48
0.012808
100
AcDbLine
 10
165.906647
 20
105.600906
 30
0.0
 11
165.906647
 21
106.113235
 31
0.0
210
0.0
220
0.0
230
1.0
  0
LINE
  5
179
100
AcDbEntity
  8
0
 62
     7
 48
0.037387
100
AcDbLine
 10
165.406647
 20
102.256119
 30
0.0
 11
165.406647
 21
100.76062
 31
0.0
210
0.0
220
0.0
230
1.0
  0
LINE
  5
17A
100
AcDbEntity
  8
0
 62
     7
 48
0.0125
100
AcDbLine
 10
165.406647
 20
106.113235
 30
0.0
 11
165.906647
 21
106.113235
 31
0.0
210
0.0
220
0.0
230
1.0
  0
LINE
  5
17B
100
AcDbEntity
  8
0
 62
     7
 48
0.024746
100
AcDbLine
 10
165.406647
 20
106.113235
 30
0.0
 11
165.406647
 21
107.103058
 31
0.0
210
0.0
220
0.0
230
1.0
  0
LINE
  5
17C
100
AcDbEntity
  8
0
 62
     7
 48
0.012808
100
AcDbLine
 10
165.406647
 20
105.600906
 30
0.0
 11
165.406647
 21
106.113235
 31
0.0
210
0.0
220
0.0
230
1.0
  0
LINE
  5
17D
100
AcDbEntity
  8
0
 62
     7
 48
0.0125
100
AcDbLine
 10
165.406647
 20
105.600906
 30
0.0
 11
165.906647
 21
105.600906
 31
0.0
210
0.0
220
0.0
230
1.0
  0
LINE
  5
17E
100
AcDbEntity
  8
0
 62
     7
 48
0.122975
100
AcDbLine
 10
165.406647
 20
107.103058
 30
0.0
 11
165.406647
 21
112.022049
 31
0.0
210
0.0
220
0.0
230
1.0
  0
LINE
  5
17F
100
AcDbEntity
  8
0
 62
     7
 48
0.04739
100
AcDbLine
 10
165.906647
 20
110.126434
 30
0.0
 11
165.906647
 21
112.022049
 31
0.0
210
0.0
220
0.0
230
1.0
  0
LINE
  5
180
100
AcDbEntity
  8
0
 62
     7
 48
0.0125
100
AcDbLine
 10
165.406647
 20
112.022049
 30
0.0
 11
165.906647
 21
112.022049
 31
0.0
210
0.0
220
0.0
230
1.0
  0
LINE
  5
181
100
AcDbEntity
  8
0
 62
     7
 48
0.018894
100
AcDbLine
 10
165.906647
 20
112.022049
 30
0.0
 11
165.906647
 21
112.777802
 31
0.0
210
0.0
220
0.0
230
1.0
  0
LINE
  5
182
100
AcDbEntity
  8
0
 62
     7
 48
0.018894
100
AcDbLine
 10
165.406647
 20
112.777802
 30
0.0
 11
165.406647
 21
112.022049
 31
0.0
210
0.0
220
0.0
230
1.0
  0
LINE
  5
183
100
AcDbEntity
  8
0
 62
     7
 48
0.07309
100
AcDbLine
 10
165.406647
 20
115.701401
 30
0.0
 11
165.406647
 21
112.777802
 31
0.0
210
0.0
220
0.0
230
1.0
  0
LINE
  5
184
100
AcDbEntity
  8
0
 62
     7
 48
0.0125
100
AcDbLine
 10
165.406647
 20
115.701401
 30
0.0
 11
165.906647
 21
115.701401
 31
0.0
210
0.0
220
0.0
230
1.0
  0
LINE
  5
185
100
AcDbEntity
  8
0
 62
     7
 48
0.007043
100
AcDbLine
 10
165.406647
 20
115.983124
 30
0.0
 11
165.406647
 21
115.701401
 31
0.0
210
0.0
220
0.0
230
1.0
  0
LINE
  5
186
100
AcDbEntity
  8
0
 62
     7
 48
0.1775
100
AcDbLine
 10
165.906647
 20
101.127014
 30
0.0
 11
173.006638
 21
101.127014
 31
0.0
210
0.0
220
0.0
230
1.0
  0
LINE
  5
187
100
AcDbEntity
  8
0
 62
     7
 48
0.037387
100
AcDbLine
 10
165.906647
 20
100.76062
 30
0.0
 11
165.906647
 21
102.256119
 31
0.0
210
0.0
220
0.0
230
1.0
  0
LINE
  5
188
100
AcDbEntity
  8
0
 62
     7
 48
0.08362
100
AcDbLine
 10
165.406647
 20
105.600906
 30
0.0
 11
165.406647
 21
102.256119
 31
0.0
210
0.0
220
0.0
230
1.0
  0
LINE
  5
189
100
AcDbEntity
  8
0
 62
     7
 48
0.0125
100
AcDbLine
 10
165.406647
 20
102.256119
 30
0.0
 11
165.906647
 21
102.256119
 31
0.0
210
0.0
220
0.0
230
1.0
  0
LINE
  5
18A
100
AcDbEntity
  8
0
 62
     7
 48
0.416553
100
AcDbLine
 10
103.906647
 20
99.25
 30
0.0
 11
103.906647
 21
82.58786
 31
0.0
210
0.0
220
0.0
230
1.0
  0
LINE
  5
18B
100
AcDbEntity
  8
0
 62
     7
100
AcDbLine
 10
103.906647
 20
127.41214
 30
0.0
 11
103.906647
 21
103.75
 31
0.0
210
0.0
220
0.0
230
1.0
  0
LINE
  5
18C
100
AcDbEntity
  8
0
 62
     7
 48
0.037449
100
AcDbLine
 10
105.906647
 20
81.0
 30
0.0
 11
105.906647
 21
82.49794
 31
0.0
210
0.0
220
0.0
230
1.0
  0
LINE
  5
18D
100
AcDbEntity
  8
0
 62
     7
100
AcDbLine
 10
105.906647
 20
83.599991
 30
0.0
 11
105.906647
 21
126.399994
 31
0.0
210
0.0
220
0.0
230
1.0
  0
LINE
  5
18E
100
AcDbEntity
  8
0
 62
     7
100
AcDbLine
 10
160.20665
 20
125.399994
 30
0.0
 11
160.20665
 21
84.599991
 31
0.0
210
0.0
220
0.0
230
1.0
  0
LINE
  5
18F
100
AcDbEntity
  8
0
 62
     7
100
AcDbLine
 10
126.506638
 20
125.399994
 30
0.0
 11
126.506638
 21
84.599991
 31
0.0
210
0.0
220
0.0
230
1.0
  0
LINE
  5
190
100
AcDbEntity
  8
0
 62
     7
100
AcDbLine
 10
160.20665
 20
84.599991
 30
0.0
 11
126.506638
 21
84.599991
 31
0.0
210
0.0
220
0.0
230
1.0
  0
LINE
  5
191
100
AcDbEntity
  8
0
 62
     7
 48
0.04
100
AcDbLine
 10
123.906647
 20
99.799988
 30
0.0
 11
125.506638
 21
99.799988
 31
0.0
210
0.0
220
0.0
230
1.0
  0
LINE
  5
192
100
AcDbEntity
  8
0
 62
     7
 48
0.04
100
AcDbLine
 10
123.906647
 20
110.199997
 30
0.0
 11
125.506638
 21
110.199997
 31
0.0
210
0.0
220
0.0
230
1.0
  0
LINE
  5
193
100
AcDbEntity
  8
0
 62
     7
 48
0.26
100
AcDbLine
 10
125.506638
 20
110.199997
 30
0.0
 11
125.506638
 21
99.799988
 31
0.0
210
0.0
220
0.0
230
1.0
  0
LINE
  5
194
100
AcDbEntity
  8
0
 62
     7
 48
0.04
100
AcDbLine
 10
122.306641
 20
99.799988
 30
0.0
 11
123.906647
 21
99.799988
 31
0.0
210
0.0
220
0.0
230
1.0
  0
LINE
  5
195
100
AcDbEntity
  8
0
 62
     7
 48
0.04
100
AcDbLine
 10
122.306641
 20
110.199997
 30
0.0
 11
123.906647
 21
110.199997
 31
0.0
210
0.0
220
0.0
230
1.0
  0
LINE
  5
196
100
AcDbEntity
  8
0
 62
     7
 48
0.26
100
AcDbLine
 10
123.906647
 20
110.199997
 30
0.0
 11
123.906647
 21
99.799988
 31
0.0
210
0.0
220
0.0
230
1.0
  0
LINE
  5
197
100
AcDbEntity
  8
0
 62
     7
 48
0.26
100
AcDbLine
 10
122.306641
 20
110.199997
 30
0.0
 11
122.306641
 21
99.799988
 31
0.0
210
0.0
220
0.0
230
1.0
  0
LINE
  5
198
100
AcDbEntity
  8
0
 62
     7
 48
0.04
100
AcDbLine
 10
120.70665
 20
99.799988
 30
0.0
 11
122.306641
 21
99.799988
 31
0.0
210
0.0
220
0.0
230
1.0
  0
LINE
  5
199
100
AcDbEntity
  8
0
 62
     7
 48
0.04
100
AcDbLine
 10
120.70665
 20
110.199997
 30
0.0
 11
122.306641
 21
110.199997
 31
0.0
210
0.0
220
0.0
230
1.0
  0
LINE
  5
19A
100
AcDbEntity
  8
0
 62
     7
 48
0.26
100
AcDbLine
 10
120.70665
 20
110.199997
 30
0.0
 11
120.70665
 21
99.799988
 31
0.0
210
0.0
220
0.0
230
1.0
  0
LINE
  5
19B
100
AcDbEntity
  8
0
 62
     7
 48
0.04
100
AcDbLine
 10
119.106644
 20
99.799988
 30
0.0
 11
120.70665
 21
99.799988
 31
0.0
210
0.0
220
0.0
230
1.0
  0
LINE
  5
19C
100
AcDbEntity
  8
0
 62
     7
 48
0.04
100
AcDbLine
 10
115.906647
 20
99.799988
 30
0.0
 11
117.506638
 21
99.799988
 31
0.0
210
0.0
220
0.0
230
1.0
  0
LINE
  5
19D
100
AcDbEntity
  8
0
 62
     7
 48
0.26
100
AcDbLine
 10
115.906647
 20
99.799988
 30
0.0
 11
115.906647
 21
110.199997
 31
0.0
210
0.0
220
0.0
230
1.0
  0
LINE
  5
19E
100
AcDbEntity
  8
0
 62
     7
 48
0.04
100
AcDbLine
 10
117.506638
 20
99.799988
 30
0.0
 11
119.106644
 21
99.799988
 31
0.0
210
0.0
220
0.0
230
1.0
  0
LINE
  5
19F
100
AcDbEntity
  8
0
 62
     7
 48
0.04
100
AcDbLine
 10
115.906647
 20
110.199997
 30
0.0
 11
117.506638
 21
110.199997
 31
0.0
210
0.0
220
0.0
230
1.0
  0
LINE
  5
1A0
100
AcDbEntity
  8
0
 62
     7
 48
0.04
100
AcDbLine
 10
119.106644
 20
110.199997
 30
0.0
 11
120.70665
 21
110.199997
 31
0.0
210
0.0
220
0.0
230
1.0
  0
LINE
  5
1A1
100
AcDbEntity
  8
0
 62
     7
 48
0.04
100
AcDbLine
 10
117.506638
 20
110.199997
 30
0.0
 11
119.106644
 21
110.199997
 31
0.0
210
0.0
220
0.0
230
1.0
  0
LINE
  5
1A2
100
AcDbEntity
  8
0
 62
     7
 48
0.26
100
AcDbLine
 10
119.106644
 20
99.799988
 30
0.0
 11
119.106644
 21
110.199997
 31
0.0
210
0.0
220
0.0
230
1.0
  0
LINE
  5
1A3
100
AcDbEntity
  8
0
 62
     7
 48
0.26
100
AcDbLine
 10
117.506638
 20
110.199997
 30
0.0
 11
117.506638
 21
99.799988
 31
0.0
210
0.0
220
0.0
230
1.0
  0
LINE
  5
1A4
100
AcDbEntity
  8
0
 62
     7
100
AcDbLine
 10
160.20665
 20
125.399994
 30
0.0
 11
126.506638
 21
125.399994
 31
0.0
210
0.0
220
0.0
230
1.0
  0
LINE
  5
1A5
100
AcDbEntity
  8
0
 62
     7
100
AcDbLine
 10
165.106644
 20
126.399994
 30
0.0
 11
165.106644
 21
83.599991
 31
0.0
210
0.0
220
0.0
230
1.0
  0
LINE
  5
1A6
100
AcDbEntity
  8
0
 62
     7
100
AcDbLine
 10
164.106644
 20
127.399994
 30
0.0
 11
105.906647
 21
127.399994
 31
0.0
210
0.0
220
0.0
230
1.0
  0
LINE
  5
1A7
100
AcDbEntity
  8
0
 62
     7
 48
0.025
100
AcDbLine
 10
105.906647
 20
126.399994
 30
0.0
 11
105.906647
 21
127.399994
 31
0.0
210
0.0
220
0.0
230
1.0
  0
LINE
  5
1A8
100
AcDbEntity
  8
0
 62
     7
 48
0.025
100
AcDbLine
 10
105.906647
 20
82.599991
 30
0.0
 11
105.906647
 21
83.599991
 31
0.0
210
0.0
220
0.0
230
1.0
  0
LINE
  5
1A9
100
AcDbEntity
  8
0
 62
     7
 48
0.002551
100
AcDbLine
 10
105.906647
 20
82.49794
 30
0.0
 11
105.906647
 21
82.599991
 31
0.0
210
0.0
220
0.0
230
1.0
  0
LINE
  5
1AA
100
AcDbEntity
  8
0
 62
     7
100
AcDbLine
 10
164.106644
 20
82.599991
 30
0.0
 11
105.906647
 21
82.599991
 31
0.0
210
0.0
220
0.0
230
1.0
  0
LINE
  5
1AB
100
AcDbEntity
  8
0
 62
     7
 48
0.1125
100
AcDbLine
 10
103.906647
 20
103.75
 30
0.0
 11
103.906647
 21
99.25
 31
0.0
210
0.0
220
0.0
230
1.0
  0
LINE
  5
1AC
100
AcDbEntity
  8
0
 62
     7
 48
0.029959
100
AcDbLine
 10
103.906647
 20
81.389496
 30
0.0
 11
103.906647
 21
82.58786
 31
0.0
210
0.0
220
0.0
230
1.0
  0
LINE
  5
1AD
100
AcDbEntity
  8
0
 62
     7
 48
0.042951
100
AcDbLine
 10
105.906647
 20
81.0
 30
0.0
 11
104.190948
 21
81.089905
 31
0.0
210
0.0
220
0.0
230
1.0
  0
LINE
  5
1AE
100
AcDbEntity
  8
0
 62
     7
 48
0.042951
100
AcDbLine
 10
105.906647
 20
129.0
 30
0.0
 11
104.190948
 21
128.91008
 31
0.0
210
0.0
220
0.0
230
1.0
  0
LINE
  5
1AF
100
AcDbEntity
  8
0
 62
     7
 48
0.037449
100
AcDbLine
 10
105.906647
 20
127.502045
 30
0.0
 11
105.906647
 21
129.0
 31
0.0
210
0.0
220
0.0
230
1.0
  0
LINE
  5
1B0
100
AcDbEntity
  8
0
 62
     7
 48
0.029959
100
AcDbLine
 10
103.906647
 20
127.41214
 30
0.0
 11
103.906647
 21
128.610489
 31
0.0
210
0.0
220
0.0
230
1.0
  0
LINE
  5
1B1
100
AcDbEntity
  8
0
 62
     7
 48
0.002551
100
AcDbLine
 10
105.906647
 20
127.399994
 30
0.0
 11
105.906647
 21
127.502045
 31
0.0
210
0.0
220
0.0
230
1.0
  0
LINE
  5
1B2
100
AcDbEntity
  8
0
 62
     7
 48
0.1125
100
AcDbLine
 10
103.906647
 20
103.75
 30
0.0
 11
103.906647
 21
99.25
 31
0.0
210
0.0
220
0.0
230
1.0
  0
LINE
  5
1B3
100
AcDbEntity
  8
0
 62
     7
 48
0.0625
100
AcDbLine
 10
103.506638
 20
86.099991
 30
0.0
 11
103.506638
 21
88.599991
 31
0.0
210
0.0
220
0.0
230
1.0
  0
LINE
  5
1B4
100
AcDbEntity
  8
0
 62
     7
 48
0.01
100
AcDbLine
 10
103.906647
 20
86.099991
 30
0.0
 11
103.506638
 21
86.099991
 31
0.0
210
0.0
220
0.0
230
1.0
  0
LINE
  5
1B5
100
AcDbEntity
  8
0
 62
     7
 48
0.01
100
AcDbLine
 10
103.906647
 20
91.099991
 30
0.0
 11
103.506638
 21
91.099991
 31
0.0
210
0.0
220
0.0
230
1.0
  0
LINE
  5
1B6
100
AcDbEntity
  8
0
 62
     7
 48
0.0625
100
AcDbLine
 10
103.506638
 20
88.599991
 30
0.0
 11
103.506638
 21
91.099991
 31
0.0
210
0.0
220
0.0
230
1.0
  0
LINE
  5
1B7
100
AcDbEntity
  8
0
 62
     7
 48
0.0725
100
AcDbLine
 10
103.106644
 20
100.049988
 30
0.0
 11
103.106644
 21
102.949997
 31
0.0
210
0.0
220
0.0
230
1.0
  0
LINE
  5
1B8
100
AcDbEntity
  8
0
 62
     7
 48
0.0125
100
AcDbLine
 10
165.406647
 20
114.171906
 30
0.0
 11
165.906647
 21
114.171906
 31
0.0
210
0.0
220
0.0
230
1.0
  0
LINE
  5
1B9
100
AcDbEntity
  8
0
 62
     7
 48
0.21
100
AcDbLine
 10
165.906647
 20
114.171906
 30
0.0
 11
174.306641
 21
114.171906
 31
0.0
210
0.0
220
0.0
230
1.0
  0
LINE
  5
1BA
100
AcDbEntity
  8
0
 62
     7
 48
0.034
100
AcDbLine
 10
174.806641
 20
113.671906
 30
0.0
 11
174.806641
 21
112.311905
 31
0.0
210
0.0
220
0.0
230
1.0
  0
LINE
  5
1BB
100
AcDbEntity
  8
0
 62
     7
 48
0.21
100
AcDbLine
 10
165.906647
 20
111.811905
 30
0.0
 11
174.306641
 21
111.811905
 31
0.0
210
0.0
220
0.0
230
1.0
  0
LINE
  5
1BC
100
AcDbEntity
  8
0
 62
     7
 48
0.0125
100
AcDbLine
 10
165.406647
 20
110.126434
 30
0.0
 11
165.906647
 21
110.126434
 31
0.0
210
0.0
220
0.0
230
1.0
  0
LINE
  5
1BD
100
AcDbEntity
  8
0
 62
     7
 48
0.018339
100
AcDbLine
 10
174.806641
 20
109.0
 30
0.0
 11
174.806641
 21
108.266434
 31
0.0
210
0.0
220
0.0
230
1.0
  0
LINE
  5
1BE
100
AcDbEntity
  8
0
 62
     7
 48
0.015661
100
AcDbLine
 10
174.806641
 20
109.626434
 30
0.0
 11
174.806641
 21
109.0
 31
0.0
210
0.0
220
0.0
230
1.0
  0
LINE
  5
1BF
100
AcDbEntity
  8
0
 62
     7
 48
0.21
100
AcDbLine
 10
165.906647
 20
110.126434
 30
0.0
 11
174.306641
 21
110.126434
 31
0.0
210
0.0
220
0.0
230
1.0
  0
LINE
  5
1C0
100
AcDbEntity
  8
0
 62
     7
 48
0.2225
100
AcDbLine
 10
165.406647
 20
107.766434
 30
0.0
 11
174.306641
 21
107.766434
 31
0.0
210
0.0
220
0.0
230
1.0
  0
LINE
  5
1C1
100
AcDbEntity
  8
0
 62
     7
 48
0.198523
100
AcDbLine
 10
165.906647
 20
99.958817
 30
0.0
 11
173.847549
 21
99.958817
 31
0.0
210
0.0
220
0.0
230
1.0
  0
LINE
  5
1C2
100
AcDbEntity
  8
0
 62
     7
 48
0.2225
100
AcDbLine
 10
165.406647
 20
97.598816
 30
0.0
 11
174.306641
 21
97.598816
 31
0.0
210
0.0
220
0.0
230
1.0
  0
LINE
  5
1C3
100
AcDbEntity
  8
0
 62
     7
 48
0.011477
100
AcDbLine
 10
173.847549
 20
99.958817
 30
0.0
 11
174.306641
 21
99.958817
 31
0.0
210
0.0
220
0.0
230
1.0
  0
LINE
  5
1C4
100
AcDbEntity
  8
0
 62
     7
 48
0.025695
100
AcDbLine
 10
174.806641
 20
99.292725
 30
0.0
 11
174.806641
 21
98.264908
 31
0.0
210
0.0
220
0.0
230
1.0
  0
LINE
  5
1C5
100
AcDbEntity
  8
0
 62
     7
 48
0.004152
100
AcDbLine
 10
174.806641
 20
98.264908
 30
0.0
 11
174.806641
 21
98.098816
 31
0.0
210
0.0
220
0.0
230
1.0
  0
LINE
  5
1C6
100
AcDbEntity
  8
0
 62
     7
 48
0.004152
100
AcDbLine
 10
174.806641
 20
99.458817
 30
0.0
 11
174.806641
 21
99.292725
 31
0.0
210
0.0
220
0.0
230
1.0
  0
LINE
  5
1C7
100
AcDbEntity
  8
0
 62
     7
 48
0.2225
100
AcDbLine
 10
165.406647
 20
94.704803
 30
0.0
 11
174.306641
 21
94.704803
 31
0.0
210
0.0
220
0.0
230
1.0
  0
LINE
  5
1C8
100
AcDbEntity
  8
0
 62
     7
 48
0.21
100
AcDbLine
 10
165.906647
 20
97.064804
 30
0.0
 11
174.306641
 21
97.064804
 31
0.0
210
0.0
220
0.0
230
1.0
  0
LINE
  5
1C9
100
AcDbEntity
  8
0
 62
     7
 48
0.009579
100
AcDbLine
 10
174.806641
 20
96.076385
 30
0.0
 11
174.806641
 21
95.693237
 31
0.0
210
0.0
220
0.0
230
1.0
  0
LINE
  5
1CA
100
AcDbEntity
  8
0
 62
     7
 48
0.012211
100
AcDbLine
 10
174.806641
 20
95.693237
 30
0.0
 11
174.806641
 21
95.204803
 31
0.0
210
0.0
220
0.0
230
1.0
  0
LINE
  5
1CB
100
AcDbEntity
  8
0
 62
     7
 48
0.01221
100
AcDbLine
 10
174.806641
 20
96.564804
 30
0.0
 11
174.806641
 21
96.076385
 31
0.0
210
0.0
220
0.0
230
1.0
  0
LINE
  5
1CC
100
AcDbEntity
  8
0
 62
     7
 48
0.2225
100
AcDbLine
 10
165.406647
 20
102.468002
 30
0.0
 11
174.306641
 21
102.468002
 31
0.0
210
0.0
220
0.0
230
1.0
  0
LINE
  5
1CD
100
AcDbEntity
  8
0
 62
     7
 48
0.2225
100
AcDbLine
 10
165.406647
 20
104.828003
 30
0.0
 11
174.306641
 21
104.828003
 31
0.0
210
0.0
220
0.0
230
1.0
  0
LINE
  5
1CE
100
AcDbEntity
  8
0
 62
     7
 48
0.033654
100
AcDbLine
 10
174.806641
 20
104.321075
 30
0.0
 11
174.806641
 21
102.97493
 31
0.0
210
0.0
220
0.0
230
1.0
  0
LINE
  5
1CF
100
AcDbEntity
  8
0
 62
     7
 48
0.000173
100
AcDbLine
 10
174.806641
 20
102.97493
 30
0.0
 11
174.806641
 21
102.968002
 31
0.0
210
0.0
220
0.0
230
1.0
  0
LINE
  5
1D0
100
AcDbEntity
  8
0
 62
     7
 48
0.000173
100
AcDbLine
 10
174.806641
 20
104.328003
 30
0.0
 11
174.806641
 21
104.321075
 31
0.0
210
0.0
220
0.0
230
1.0
  0
LINE
  5
1D1
100
AcDbEntity
  8
0
 62
     7
 48
0.02
100
AcDbLine
 10
241.408798
 20
85.899994
 30
0.0
 11
241.408798
 21
86.699997
 31
0.0
210
0.0
220
0.0
230
1.0
  0
LINE
  5
1D2
100
AcDbEntity
  8
0
 62
     7
 48
0.01875
100
AcDbLine
 10
240.158798
 20
85.399994
 30
0.0
 11
240.908798
 21
85.399994
 31
0.0
210
0.0
220
0.0
230
1.0
  0
LINE
  5
1D3
100
AcDbEntity
  8
0
 62
     7
 48
0.026932
100
AcDbLine
 10
244.631516
 20
84.399994
 30
0.0
 11
245.708786
 21
84.399994
 31
0.0
210
0.0
220
0.0
230
1.0
  0
LINE
  5
1D4
100
AcDbEntity
  8
0
 62
     7
 48
0.21875
100
AcDbLine
 10
245.708786
 20
84.399994
 30
0.0
 11
254.458786
 21
84.399994
 31
0.0
210
0.0
220
0.0
230
1.0
  0
LINE
  5
1D5
100
AcDbEntity
  8
0
 62
     7
 48
0.09
100
AcDbLine
 10
267.029907
 20
99.850983
 30
0.0
 11
263.755249
 21
101.346481
 31
0.0
210
0.0
220
0.0
230
1.0
  0
LINE
  5
1D6
100
AcDbEntity
  8
0
 62
     7
 48
0.015
100
AcDbLine
 10
259.458801
 20
84.399994
 30
0.0
 11
259.458801
 21
85.0
 31
0.0
210
0.0
220
0.0
230
1.0
  0
LINE
  5
1D7
100
AcDbEntity
  8
0
 62
     7
 48
0.015
100
AcDbLine
 10
254.458786
 20
85.0
 30
0.0
 11
254.458786
 21
84.399994
 31
0.0
210
0.0
220
0.0
230
1.0
  0
LINE
  5
1D8
100
AcDbEntity
  8
0
 62
     7
 48
0.093285
100
AcDbLine
 10
260.815857
 20
106.059692
 30
0.0
 11
264.509277
 21
106.590729
 31
0.0
210
0.0
220
0.0
230
1.0
  0
LINE
  5
1D9
100
AcDbEntity
  8
0
 62
     7
 48
0.093284
100
AcDbLine
 10
260.958191
 20
105.06987
 30
0.0
 11
264.65155
 21
105.600906
 31
0.0
210
0.0
220
0.0
230
1.0
  0
LINE
  5
1DA
100
AcDbEntity
  8
0
 62
     7
 48
0.025
100
AcDbLine
 10
264.65155
 20
105.600906
 30
0.0
 11
264.509277
 21
106.590729
 31
0.0
210
0.0
220
0.0
230
1.0
  0
LINE
  5
1DB
100
AcDbEntity
  8
0
 62
     7
 48
0.025
100
AcDbLine
 10
265.171326
 20
112.777802
 30
0.0
 11
265.826172
 21
112.022049
 31
0.0
210
0.0
220
0.0
230
1.0
  0
LINE
  5
1DC
100
AcDbEntity
  8
0
 62
     7
 48
0.09
100
AcDbLine
 10
262.450623
 20
110.420288
 30
0.0
 11
265.171326
 21
112.777802
 31
0.0
210
0.0
220
0.0
230
1.0
  0
LINE
  5
1DD
100
AcDbEntity
  8
0
 62
     7
 48
0.09
100
AcDbLine
 10
265.826172
 20
112.022049
 30
0.0
 11
263.105469
 21
109.664551
 31
0.0
210
0.0
220
0.0
230
1.0
  0
LINE
  5
1DE
100
AcDbEntity
  8
0
 62
     7
 48
0.025
100
AcDbLine
 10
263.755249
 20
101.346481
 30
0.0
 11
264.170654
 21
102.256119
 31
0.0
210
0.0
220
0.0
230
1.0
  0
LINE
  5
1DF
100
AcDbEntity
  8
0
 62
     7
 48
0.125
100
AcDbLine
 10
254.458786
 20
85.0
 30
0.0
 11
259.458801
 21
85.0
 31
0.0
210
0.0
220
0.0
230
1.0
  0
LINE
  5
1E0
100
AcDbEntity
  8
0
 62
     7
 48
0.093284
100
AcDbLine
 10
260.285522
 20
107.221024
 30
0.0
 11
263.105469
 21
109.664551
 31
0.0
210
0.0
220
0.0
230
1.0
  0
LINE
  5
1E1
100
AcDbEntity
  8
0
 62
     7
 48
0.025
100
AcDbLine
 10
263.105469
 20
109.664551
 30
0.0
 11
262.450623
 21
110.420288
 31
0.0
210
0.0
220
0.0
230
1.0
  0
LINE
  5
1E2
100
AcDbEntity
  8
0
 62
     7
 48
0.09
100
AcDbLine
 10
262.6474
 20
95.223511
 30
0.0
 11
260.701111
 21
98.252014
 31
0.0
210
0.0
220
0.0
230
1.0
  0
LINE
  5
1E3
100
AcDbEntity
  8
0
 62
     7
 48
0.025
100
AcDbLine
 10
263.488647
 20
95.764145
 30
0.0
 11
262.6474
 21
95.223511
 31
0.0
210
0.0
220
0.0
230
1.0
  0
LINE
  5
1E4
100
AcDbEntity
  8
0
 62
     7
 48
0.09
100
AcDbLine
 10
261.542358
 20
98.792664
 30
0.0
 11
263.488647
 21
95.764145
 31
0.0
210
0.0
220
0.0
230
1.0
  0
LINE
  5
1E5
100
AcDbEntity
  8
0
 62
     7
 48
0.093284
100
AcDbLine
 10
260.361084
 20
102.896545
 30
0.0
 11
263.755249
 21
101.346481
 31
0.0
210
0.0
220
0.0
230
1.0
  0
LINE
  5
1E6
100
AcDbEntity
  8
0
 62
     7
 48
0.015675
100
AcDbLine
 10
255.958786
 20
100.5
 30
0.0
 11
255.958786
 21
101.127014
 31
0.0
210
0.0
220
0.0
230
1.0
  0
LINE
  5
1E7
100
AcDbEntity
  8
0
 62
     7
 48
0.025
100
AcDbLine
 10
260.701111
 20
98.252014
 30
0.0
 11
261.542358
 21
98.792664
 31
0.0
210
0.0
220
0.0
230
1.0
  0
LINE
  5
1E8
100
AcDbEntity
  8
0
 62
     7
 48
0.015675
100
AcDbLine
 10
257.958801
 20
100.5
 30
0.0
 11
257.958801
 21
101.127014
 31
0.0
210
0.0
220
0.0
230
1.0
  0
LINE
  5
1E9
100
AcDbEntity
  8
0
 62
     7
 48
0.05835
100
AcDbLine
 10
256.458801
 20
99.633972
 30
0.0
 11
256.458801
 21
97.299988
 31
0.0
210
0.0
220
0.0
230
1.0
  0
LINE
  5
1EA
100
AcDbEntity
  8
0
 62
     7
 48
0.05835
100
AcDbLine
 10
257.458801
 20
97.299988
 30
0.0
 11
257.458801
 21
99.633972
 31
0.0
210
0.0
220
0.0
230
1.0
  0
LINE
  5
1EB
100
AcDbEntity
  8
0
 62
     7
 48
0.025
100
AcDbLine
 10
259.607849
 20
112.247223
 30
0.0
 11
258.648376
 21
112.528961
 31
0.0
210
0.0
220
0.0
230
1.0
  0
LINE
  5
1EC
100
AcDbEntity
  8
0
 62
     7
 48
0.093284
100
AcDbLine
 10
258.556641
 20
108.666992
 30
0.0
 11
259.607849
 21
112.247223
 31
0.0
210
0.0
220
0.0
230
1.0
  0
LINE
  5
1ED
100
AcDbEntity
  8
0
 62
     7
 48
0.09
100
AcDbLine
 10
258.648376
 20
112.528961
 30
0.0
 11
259.662598
 21
115.983124
 31
0.0
210
0.0
220
0.0
230
1.0
  0
LINE
  5
1EE
100
AcDbEntity
  8
0
 62
     7
 48
0.09
100
AcDbLine
 10
260.622131
 20
115.701401
 30
0.0
 11
259.607849
 21
112.247223
 31
0.0
210
0.0
220
0.0
230
1.0
  0
LINE
  5
1EF
100
AcDbEntity
  8
0
 62
     7
 48
0.093285
100
AcDbLine
 10
257.597107
 20
108.94873
 30
0.0
 11
258.648376
 21
112.528961
 31
0.0
210
0.0
220
0.0
230
1.0
  0
LINE
  5
1F0
100
AcDbEntity
  8
0
 62
     7
 48
0.025001
100
AcDbLine
 10
259.662598
 20
115.983124
 30
0.0
 11
260.622131
 21
115.701401
 31
0.0
210
0.0
220
0.0
230
1.0
  0
LINE
  5
1F1
100
AcDbEntity
  8
0
 62
     7
 48
0.093284
100
AcDbLine
 10
258.683777
 20
101.391052
 30
0.0
 11
260.701111
 21
98.252014
 31
0.0
210
0.0
220
0.0
230
1.0
  0
LINE
  5
1F2
100
AcDbEntity
  8
0
 62
     7
 48
0.093284
100
AcDbLine
 10
259.525024
 20
101.931686
 30
0.0
 11
261.542358
 21
98.792664
 31
0.0
210
0.0
220
0.0
230
1.0
  0
LINE
  5
1F3
100
AcDbEntity
  8
0
 62
     7
 48
0.093285
100
AcDbLine
 10
259.630615
 20
107.976761
 30
0.0
 11
262.450623
 21
110.420288
 31
0.0
210
0.0
220
0.0
230
1.0
  0
LINE
  5
1F4
100
AcDbEntity
  8
0
 62
     7
 48
0.093284
100
AcDbLine
 10
260.776489
 20
103.806183
 30
0.0
 11
264.170654
 21
102.256119
 31
0.0
210
0.0
220
0.0
230
1.0
  0
LINE
  5
1F5
100
AcDbEntity
  8
0
 62
     7
 48
0.21875
100
AcDbLine
 10
259.458801
 20
84.399994
 30
0.0
 11
268.208801
 21
84.399994
 31
0.0
210
0.0
220
0.0
230
1.0
  0
LINE
  5
1F6
100
AcDbEntity
  8
0
 62
     7
 48
0.04226
100
AcDbLine
 10
265.826172
 20
112.022049
 30
0.0
 11
267.103699
 21
113.129013
 31
0.0
210
0.0
220
0.0
230
1.0
  0
LINE
  5
1F7
100
AcDbEntity
  8
0
 62
     7
 48
0.04226
100
AcDbLine
 10
265.171326
 20
112.777802
 30
0.0
 11
266.448853
 21
113.884766
 31
0.0
210
0.0
220
0.0
230
1.0
  0
LINE
  5
1F8
100
AcDbEntity
  8
0
 62
     7
 48
0.042259
100
AcDbLine
 10
262.6474
 20
95.223511
 30
0.0
 11
263.561279
 21
93.801468
 31
0.0
210
0.0
220
0.0
230
1.0
  0
LINE
  5
1F9
100
AcDbEntity
  8
0
 62
     7
 48
0.042259
100
AcDbLine
 10
263.488647
 20
95.764145
 30
0.0
 11
264.402527
 21
94.342102
 31
0.0
210
0.0
220
0.0
230
1.0
  0
LINE
  5
1FA
100
AcDbEntity
  8
0
 62
     7
 48
0.04226
100
AcDbLine
 10
267.029907
 20
99.850983
 30
0.0
 11
268.567566
 21
99.148773
 31
0.0
210
0.0
220
0.0
230
1.0
  0
LINE
  5
1FB
100
AcDbEntity
  8
0
 62
     7
 48
0.04226
100
AcDbLine
 10
267.445313
 20
100.76062
 30
0.0
 11
268.982971
 21
100.058411
 31
0.0
210
0.0
220
0.0
230
1.0
  0
LINE
  5
1FC
100
AcDbEntity
  8
0
 62
     7
 48
0.242156
100
AcDbLine
 10
271.208801
 20
97.086243
 30
0.0
 11
271.208801
 21
87.399994
 31
0.0
210
0.0
220
0.0
230
1.0
  0
LINE
  5
1FD
100
AcDbEntity
  8
0
 62
     7
 48
0.242156
100
AcDbLine
 10
271.208801
 20
122.599991
 30
0.0
 11
271.208801
 21
112.913742
 31
0.0
210
0.0
220
0.0
230
1.0
  0
LINE
  5
1FE
100
AcDbEntity
  8
0
 62
     7
 48
0.042261
100
AcDbLine
 10
268.214905
 20
106.113235
 30
0.0
 11
269.888123
 21
106.353806
 31
0.0
210
0.0
220
0.0
230
1.0
  0
LINE
  5
1FF
100
AcDbEntity
  8
0
 62
     7
 48
0.02693
100
AcDbLine
 10
268.208801
 20
84.399994
 30
0.0
 11
269.286011
 21
84.399994
 31
0.0
210
0.0
220
0.0
230
1.0
  0
LINE
  5
200
100
AcDbEntity
  8
0
 62
     7
 48
0.042259
100
AcDbLine
 10
268.072632
 20
107.103058
 30
0.0
 11
269.745789
 21
107.343628
 31
0.0
210
0.0
220
0.0
230
1.0
  0
LINE
  5
201
100
AcDbEntity
  8
0
 62
     7
 48
0.04226
100
AcDbLine
 10
259.662598
 20
115.983124
 30
0.0
 11
260.138855
 21
117.605042
 31
0.0
210
0.0
220
0.0
230
1.0
  0
LINE
  5
202
100
AcDbEntity
  8
0
 62
     7
 48
0.04226
100
AcDbLine
 10
254.254929
 20
115.983124
 30
0.0
 11
253.778671
 21
117.605042
 31
0.0
210
0.0
220
0.0
230
1.0
  0
LINE
  5
203
100
AcDbEntity
  8
0
 62
     7
 48
0.042259
100
AcDbLine
 10
260.622131
 20
115.701401
 30
0.0
 11
261.098328
 21
117.323303
 31
0.0
210
0.0
220
0.0
230
1.0
  0
LINE
  5
204
100
AcDbEntity
  8
0
 62
     7
 48
0.042259
100
AcDbLine
 10
245.702621
 20
106.113235
 30
0.0
 11
244.029465
 21
106.353806
 31
0.0
210
0.0
220
0.0
230
1.0
  0
LINE
  5
205
100
AcDbEntity
  8
0
 62
     7
 48
0.042261
100
AcDbLine
 10
245.844955
 20
107.103058
 30
0.0
 11
244.171738
 21
107.343628
 31
0.0
210
0.0
220
0.0
230
1.0
  0
LINE
  5
206
100
AcDbEntity
  8
0
 62
     7
 48
0.04226
100
AcDbLine
 10
253.295456
 20
115.701401
 30
0.0
 11
252.819199
 21
117.323303
 31
0.0
210
0.0
220
0.0
230
1.0
  0
LINE
  5
207
100
AcDbEntity
  8
0
 62
     7
 48
0.09
100
AcDbLine
 10
248.746201
 20
112.777802
 30
0.0
 11
251.466904
 21
110.420288
 31
0.0
210
0.0
220
0.0
230
1.0
  0
LINE
  5
208
100
AcDbEntity
  8
0
 62
     7
 48
0.093285
100
AcDbLine
 10
253.632065
 20
107.221024
 30
0.0
 11
250.812057
 21
109.664551
 31
0.0
210
0.0
220
0.0
230
1.0
  0
LINE
  5
209
100
AcDbEntity
  8
0
 62
     7
 48
0.093284
100
AcDbLine
 10
253.101669
 20
106.059692
 30
0.0
 11
249.40831
 21
106.590729
 31
0.0
210
0.0
220
0.0
230
1.0
  0
LINE
  5
20A
100
AcDbEntity
  8
0
 62
     7
 48
0.024999
100
AcDbLine
 10
253.295456
 20
115.701401
 30
0.0
 11
254.254929
 21
115.983124
 31
0.0
210
0.0
220
0.0
230
1.0
  0
LINE
  5
20B
100
AcDbEntity
  8
0
 62
     7
 48
0.09
100
AcDbLine
 10
254.309677
 20
112.247223
 30
0.0
 11
253.295456
 21
115.701401
 31
0.0
210
0.0
220
0.0
230
1.0
  0
LINE
  5
20C
100
AcDbEntity
  8
0
 62
     7
 48
0.025
100
AcDbLine
 10
251.466904
 20
110.420288
 30
0.0
 11
250.812057
 21
109.664551
 31
0.0
210
0.0
220
0.0
230
1.0
  0
LINE
  5
20D
100
AcDbEntity
  8
0
 62
     7
 48
0.025
100
AcDbLine
 10
255.26915
 20
112.528961
 30
0.0
 11
254.309677
 21
112.247223
 31
0.0
210
0.0
220
0.0
230
1.0
  0
LINE
  5
20E
100
AcDbEntity
  8
0
 62
     7
 48
0.093285
100
AcDbLine
 10
256.320435
 20
108.94873
 30
0.0
 11
255.26915
 21
112.528961
 31
0.0
210
0.0
220
0.0
230
1.0
  0
LINE
  5
20F
100
AcDbEntity
  8
0
 62
     7
 48
0.093285
100
AcDbLine
 10
255.360947
 20
108.666992
 30
0.0
 11
254.309677
 21
112.247223
 31
0.0
210
0.0
220
0.0
230
1.0
  0
LINE
  5
210
100
AcDbEntity
  8
0
 62
     7
 48
0.093285
100
AcDbLine
 10
254.286911
 20
107.976761
 30
0.0
 11
251.466904
 21
110.420288
 31
0.0
210
0.0
220
0.0
230
1.0
  0
LINE
  5
211
100
AcDbEntity
  8
0
 62
     7
 48
0.09
100
AcDbLine
 10
254.254929
 20
115.983124
 30
0.0
 11
255.26915
 21
112.528961
 31
0.0
210
0.0
220
0.0
230
1.0
  0
LINE
  5
212
100
AcDbEntity
  8
0
 62
     7
 48
0.025
100
AcDbLine
 10
248.091354
 20
112.022049
 30
0.0
 11
248.746201
 21
112.777802
 31
0.0
210
0.0
220
0.0
230
1.0
  0
LINE
  5
213
100
AcDbEntity
  8
0
 62
     7
 48
0.09
100
AcDbLine
 10
250.812057
 20
109.664551
 30
0.0
 11
248.091354
 21
112.022049
 31
0.0
210
0.0
220
0.0
230
1.0
  0
LINE
  5
214
100
AcDbEntity
  8
0
 62
     7
 48
0.042259
100
AcDbLine
 10
248.746201
 20
112.777802
 30
0.0
 11
247.468735
 21
113.884766
 31
0.0
210
0.0
220
0.0
230
1.0
  0
LINE
  5
215
100
AcDbEntity
  8
0
 62
     7
 48
0.042259
100
AcDbLine
 10
248.091354
 20
112.022049
 30
0.0
 11
246.813889
 21
113.129013
 31
0.0
210
0.0
220
0.0
230
1.0
  0
LINE
  5
216
100
AcDbEntity
  8
0
 62
     7
 48
0.09
100
AcDbLine
 10
245.844955
 20
107.103058
 30
0.0
 11
249.40831
 21
106.590729
 31
0.0
210
0.0
220
0.0
230
1.0
  0
LINE
  5
217
100
AcDbEntity
  8
0
 62
     7
 48
0.04226
100
AcDbLine
 10
257.458801
 20
93.699997
 30
0.0
 11
257.458801
 21
92.009613
 31
0.0
210
0.0
220
0.0
230
1.0
  0
LINE
  5
218
100
AcDbEntity
  8
0
 62
     7
 48
0.04226
100
AcDbLine
 10
256.458801
 20
92.009613
 30
0.0
 11
256.458801
 21
93.699997
 31
0.0
210
0.0
220
0.0
230
1.0
  0
LINE
  5
219
100
AcDbEntity
  8
0
 62
     7
 48
0.042259
100
AcDbLine
 10
250.428879
 20
95.764145
 30
0.0
 11
249.514999
 21
94.342102
 31
0.0
210
0.0
220
0.0
230
1.0
  0
LINE
  5
21A
100
AcDbEntity
  8
0
 62
     7
 48
0.042259
100
AcDbLine
 10
251.270126
 20
95.223511
 30
0.0
 11
250.356247
 21
93.801468
 31
0.0
210
0.0
220
0.0
230
1.0
  0
LINE
  5
21B
100
AcDbEntity
  8
0
 62
     7
 48
0.025
100
AcDbLine
 10
251.270126
 20
95.223511
 30
0.0
 11
250.428879
 21
95.764145
 31
0.0
210
0.0
220
0.0
230
1.0
  0
LINE
  5
21C
100
AcDbEntity
  8
0
 62
     7
 48
0.090001
100
AcDbLine
 10
250.428879
 20
95.764145
 30
0.0
 11
252.375229
 21
98.792664
 31
0.0
210
0.0
220
0.0
230
1.0
  0
LINE
  5
21D
100
AcDbEntity
  8
0
 62
     7
 48
0.09
100
AcDbLine
 10
257.458801
 20
97.299988
 30
0.0
 11
257.458801
 21
93.699997
 31
0.0
210
0.0
220
0.0
230
1.0
  0
LINE
  5
21E
100
AcDbEntity
  8
0
 62
     7
 48
0.093284
100
AcDbLine
 10
255.23381
 20
101.391052
 30
0.0
 11
253.216476
 21
98.252014
 31
0.0
210
0.0
220
0.0
230
1.0
  0
LINE
  5
21F
100
AcDbEntity
  8
0
 62
     7
 48
0.093284
100
AcDbLine
 10
254.392563
 20
101.931686
 30
0.0
 11
252.375229
 21
98.792664
 31
0.0
210
0.0
220
0.0
230
1.0
  0
LINE
  5
220
100
AcDbEntity
  8
0
 62
     7
 48
0.025
100
AcDbLine
 10
256.458801
 20
97.299988
 30
0.0
 11
257.458801
 21
97.299988
 31
0.0
210
0.0
220
0.0
230
1.0
  0
LINE
  5
221
100
AcDbEntity
  8
0
 62
     7
 48
0.09
100
AcDbLine
 10
256.458801
 20
93.699997
 30
0.0
 11
256.458801
 21
97.299988
 31
0.0
210
0.0
220
0.0
230
1.0
  0
LINE
  5
222
100
AcDbEntity
  8
0
 62
     7
 48
0.025
100
AcDbLine
 10
252.375229
 20
98.792664
 30
0.0
 11
253.216476
 21
98.252014
 31
0.0
210
0.0
220
0.0
230
1.0
  0
LINE
  5
223
100
AcDbEntity
  8
0
 62
     7
 48
0.09
100
AcDbLine
 10
253.216476
 20
98.252014
 30
0.0
 11
251.270126
 21
95.223511
 31
0.0
210
0.0
220
0.0
230
1.0
  0
LINE
  5
224
100
AcDbEntity
  8
0
 62
     7
 48
0.025
100
AcDbLine
 10
257.458801
 20
93.699997
 30
0.0
 11
256.458801
 21
93.699997
 31
0.0
210
0.0
220
0.0
230
1.0
  0
LINE
  5
225
100
AcDbEntity
  8
0
 62
     7
 48
0.090001
100
AcDbLine
 10
250.162338
 20
101.346481
 30
0.0
 11
246.887619
 21
99.850983
 31
0.0
210
0.0
220
0.0
230
1.0
  0
LINE
  5
226
100
AcDbEntity
  8
0
 62
     7
 48
0.025
100
AcDbLine
 10
246.887619
 20
99.850983
 30
0.0
 11
246.472214
 21
100.76062
 31
0.0
210
0.0
220
0.0
230
1.0
  0
LINE
  5
227
100
AcDbEntity
  8
0
 62
     7
 48
0.09
100
AcDbLine
 10
246.472214
 20
100.76062
 30
0.0
 11
249.746872
 21
102.256119
 31
0.0
210
0.0
220
0.0
230
1.0
  0
LINE
  5
228
100
AcDbEntity
  8
0
 62
     7
 48
0.025
100
AcDbLine
 10
267.445313
 20
100.76062
 30
0.0
 11
267.029907
 21
99.850983
 31
0.0
210
0.0
220
0.0
230
1.0
  0
LINE
  5
229
100
AcDbEntity
  8
0
 62
     7
 48
0.093285
100
AcDbLine
 10
252.959396
 20
105.06987
 30
0.0
 11
249.265976
 21
105.600906
 31
0.0
210
0.0
220
0.0
230
1.0
  0
LINE
  5
22A
100
AcDbEntity
  8
0
 62
     7
 48
0.093285
100
AcDbLine
 10
253.141098
 20
103.806183
 30
0.0
 11
249.746872
 21
102.256119
 31
0.0
210
0.0
220
0.0
230
1.0
  0
LINE
  5
22B
100
AcDbEntity
  8
0
 62
     7
 48
0.025001
100
AcDbLine
 10
249.746872
 20
102.256119
 30
0.0
 11
250.162338
 21
101.346481
 31
0.0
210
0.0
220
0.0
230
1.0
  0
LINE
  5
22C
100
AcDbEntity
  8
0
 62
     7
 48
0.093284
100
AcDbLine
 10
253.556503
 20
102.896545
 30
0.0
 11
250.162338
 21
101.346481
 31
0.0
210
0.0
220
0.0
230
1.0
  0
LINE
  5
22D
100
AcDbEntity
  8
0
 62
     7
 48
0.09
100
AcDbLine
 10
264.170654
 20
102.256119
 30
0.0
 11
267.445313
 21
100.76062
 31
0.0
210
0.0
220
0.0
230
1.0
  0
LINE
  5
22E
100
AcDbEntity
  8
0
 62
     7
 48
0.042259
100
AcDbLine
 10
246.887619
 20
99.850983
 30
0.0
 11
245.350021
 21
99.148773
 31
0.0
210
0.0
220
0.0
230
1.0
  0
LINE
  5
22F
100
AcDbEntity
  8
0
 62
     7
 48
0.09
100
AcDbLine
 10
249.265976
 20
105.600906
 30
0.0
 11
245.702621
 21
106.113235
 31
0.0
210
0.0
220
0.0
230
1.0
  0
LINE
  5
230
100
AcDbEntity
  8
0
 62
     7
 48
0.025
100
AcDbLine
 10
245.702621
 20
106.113235
 30
0.0
 11
245.844955
 21
107.103058
 31
0.0
210
0.0
220
0.0
230
1.0
  0
LINE
  5
231
100
AcDbEntity
  8
0
 62
     7
 48
0.025
100
AcDbLine
 10
249.40831
 20
106.590729
 30
0.0
 11
249.265976
 21
105.600906
 31
0.0
210
0.0
220
0.0
230
1.0
  0
LINE
  5
232
100
AcDbEntity
  8
0
 62
     7
 48
0.042259
100
AcDbLine
 10
246.472214
 20
100.76062
 30
0.0
 11
244.934616
 21
100.058411
 31
0.0
210
0.0
220
0.0
230
1.0
  0
LINE
  5
233
100
AcDbEntity
  8
0
 62
     7
 48
0.242156
100
AcDbLine
 10
242.708786
 20
122.599991
 30
0.0
 11
242.708786
 21
112.913742
 31
0.0
210
0.0
220
0.0
230
1.0
  0
LINE
  5
234
100
AcDbEntity
  8
0
 62
     7
 48
0.242156
100
AcDbLine
 10
242.708786
 20
87.399994
 30
0.0
 11
242.708786
 21
97.086243
 31
0.0
210
0.0
220
0.0
230
1.0
  0
LINE
  5
235
100
AcDbEntity
  8
0
 62
     7
 48
0.026932
100
AcDbLine
 10
245.708786
 20
125.599991
 30
0.0
 11
244.631516
 21
125.599991
 31
0.0
210
0.0
220
0.0
230
1.0
  0
LINE
  5
236
100
AcDbEntity
  8
0
 62
     7
 48
0.025
100
AcDbLine
 10
268.072632
 20
107.103058
 30
0.0
 11
268.214905
 21
106.113235
 31
0.0
210
0.0
220
0.0
230
1.0
  0
LINE
  5
237
100
AcDbEntity
  8
0
 62
     7
 48
0.09
100
AcDbLine
 10
268.214905
 20
106.113235
 30
0.0
 11
264.65155
 21
105.600906
 31
0.0
210
0.0
220
0.0
230
1.0
  0
LINE
  5
238
100
AcDbEntity
  8
0
 62
     7
 48
0.09
100
AcDbLine
 10
264.509277
 20
106.590729
 30
0.0
 11
268.072632
 21
107.103058
 31
0.0
210
0.0
220
0.0
230
1.0
  0
LINE
  5
239
100
AcDbEntity
  8
0
 62
     7
 48
0.125
100
AcDbLine
 10
254.458786
 20
125.0
 30
0.0
 11
259.458801
 21
125.0
 31
0.0
210
0.0
220
0.0
230
1.0
  0
LINE
  5
23A
100
AcDbEntity
  8
0
 62
     7
 48
0.015
100
AcDbLine
 10
254.458786
 20
125.599991
 30
0.0
 11
254.458786
 21
125.0
 31
0.0
210
0.0
220
0.0
230
1.0
  0
LINE
  5
23B
100
AcDbEntity
  8
0
 62
     7
 48
0.015
100
AcDbLine
 10
259.458801
 20
125.0
 30
0.0
 11
259.458801
 21
125.599991
 31
0.0
210
0.0
220
0.0
230
1.0
  0
LINE
  5
23C
100
AcDbEntity
  8
0
 62
     7
 48
0.02693
100
AcDbLine
 10
269.286011
 20
125.599991
 30
0.0
 11
268.208801
 21
125.599991
 31
0.0
210
0.0
220
0.0
230
1.0
  0
LINE
  5
23D
100
AcDbEntity
  8
0
 62
     7
 48
0.21875
100
AcDbLine
 10
268.208801
 20
125.599991
 30
0.0
 11
259.458801
 21
125.599991
 31
0.0
210
0.0
220
0.0
230
1.0
  0
LINE
  5
23E
100
AcDbEntity
  8
0
 62
     7
 48
0.21875
100
AcDbLine
 10
254.458786
 20
125.599991
 30
0.0
 11
245.708786
 21
125.599991
 31
0.0
210
0.0
220
0.0
230
1.0
  0
LINE
  5
23F
100
AcDbEntity
  8
0
 62
     7
 48
0.247403
100
AcDbLine
 10
242.608749
 20
112.939606
 30
0.0
 11
242.608749
 21
122.835739
 31
0.0
210
0.0
220
0.0
230
1.0
  0
LINE
  5
240
100
AcDbEntity
  8
0
 62
     7
 48
0.09875
100
AcDbLine
 10
249.458786
 20
125.73587
 30
0.0
 11
245.508774
 21
125.73587
 31
0.0
210
0.0
220
0.0
230
1.0
  0
LINE
  5
241
100
AcDbEntity
  8
0
 62
     7
 48
0.09875
100
AcDbLine
 10
245.508774
 20
84.264114
 30
0.0
 11
249.458786
 21
84.264114
 31
0.0
210
0.0
220
0.0
230
1.0
  0
LINE
  5
242
100
AcDbEntity
  8
0
 62
     7
 48
0.247403
100
AcDbLine
 10
242.608749
 20
87.164246
 30
0.0
 11
242.608749
 21
97.060379
 31
0.0
210
0.0
220
0.0
230
1.0
  0
LINE
  5
243
100
AcDbEntity
  8
0
 62
     7
 48
0.000626
100
AcDbLine
 10
249.458786
 20
84.225555
 30
0.0
 11
249.458786
 21
84.25061
 31
0.0
210
0.0
220
0.0
230
1.0
  0
LINE
  5
244
100
AcDbEntity
  8
0
 62
     7
 48
0.000338
100
AcDbLine
 10
249.458786
 20
125.73587
 30
0.0
 11
249.458786
 21
125.749374
 31
0.0
210
0.0
220
0.0
230
1.0
  0
LINE
  5
245
100
AcDbEntity
  8
0
 62
     7
 48
0.000626
100
AcDbLine
 10
249.458786
 20
125.749374
 30
0.0
 11
249.458786
 21
125.774429
 31
0.0
210
0.0
220
0.0
230
1.0
  0
LINE
  5
246
100
AcDbEntity
  8
0
 62
     7
 48
0.000338
100
AcDbLine
 10
249.458786
 20
84.25061
 30
0.0
 11
249.458786
 21
84.264114
 31
0.0
210
0.0
220
0.0
230
1.0
  0
LINE
  5
247
100
AcDbEntity
  8
0
 62
     7
 48
0.059999
100
AcDbLine
 10
249.458786
 20
125.749374
 30
0.0
 11
251.858749
 21
125.749374
 31
0.0
210
0.0
220
0.0
230
1.0
  0
LINE
  5
248
100
AcDbEntity
  8
0
 62
     7
 48
0.059999
100
AcDbLine
 10
251.858749
 20
84.25061
 30
0.0
 11
249.458786
 21
84.25061
 31
0.0
210
0.0
220
0.0
230
1.0
  0
LINE
  5
249
100
AcDbEntity
  8
0
 62
     7
 48
0.003735
100
AcDbLine
 10
251.858749
 20
125.599991
 30
0.0
 11
251.858749
 21
125.749374
 31
0.0
210
0.0
220
0.0
230
1.0
  0
LINE
  5
24A
100
AcDbEntity
  8
0
 62
     7
 48
0.000016
100
AcDbLine
 10
251.858749
 20
125.749374
 30
0.0
 11
251.858749
 21
125.75
 31
0.0
210
0.0
220
0.0
230
1.0
  0
LINE
  5
24B
100
AcDbEntity
  8
0
 62
     7
 48
0.255001
100
AcDbLine
 10
251.858749
 20
125.75
 30
0.0
 11
262.058777
 21
125.75
 31
0.0
210
0.0
220
0.0
230
1.0
  0
LINE
  5
24C
100
AcDbEntity
  8
0
 62
     7
 48
0.255001
100
AcDbLine
 10
262.058777
 20
84.25
 30
0.0
 11
251.858749
 21
84.25
 31
0.0
210
0.0
220
0.0
230
1.0
  0
LINE
  5
24D
100
AcDbEntity
  8
0
 62
     7
 48
0.375
100
AcDbLine
 10
264.458801
 20
125.774429
 30
0.0
 11
249.458786
 21
125.774429
 31
0.0
210
0.0
220
0.0
230
1.0
  0
LINE
  5
24E
100
AcDbEntity
  8
0
 62
     7
 48
0.375
100
AcDbLine
 10
249.458786
 20
84.225555
 30
0.0
 11
264.458801
 21
84.225555
 31
0.0
210
0.0
220
0.0
230
1.0
  0
LINE
  5
24F
100
AcDbEntity
  8
0
 62
     7
100
AcDbLine
 10
235.558762
 20
82.599991
 30
0.0
 11
278.358765
 21
82.599991
 31
0.0
210
0.0
220
0.0
230
1.0
  0
LINE
  5
250
100
AcDbEntity
  8
0
 62
     7
 48
0.000016
100
AcDbLine
 10
262.058777
 20
125.75
 30
0.0
 11
262.058777
 21
125.749374
 31
0.0
210
0.0
220
0.0
230
1.0
  0
LINE
  5
251
100
AcDbEntity
  8
0
 62
     7
 48
0.000338
100
AcDbLine
 10
264.458801
 20
84.264114
 30
0.0
 11
264.458801
 21
84.25061
 31
0.0
210
0.0
220
0.0
230
1.0
  0
LINE
  5
252
100
AcDbEntity
  8
0
 62
     7
 48
0.000626
100
AcDbLine
 10
264.458801
 20
84.25061
 30
0.0
 11
264.458801
 21
84.225555
 31
0.0
210
0.0
220
0.0
230
1.0
  0
LINE
  5
253
100
AcDbEntity
  8
0
 62
     7
 48
0.247403
100
AcDbLine
 10
271.308777
 20
97.060379
 30
0.0
 11
271.308777
 21
87.164246
 31
0.0
210
0.0
220
0.0
230
1.0
  0
LINE
  5
254
100
AcDbEntity
  8
0
 62
     7
 48
0.247403
100
AcDbLine
 10
271.308777
 20
122.835739
 30
0.0
 11
271.308777
 21
112.939606
 31
0.0
210
0.0
220
0.0
230
1.0
  0
LINE
  5
255
100
AcDbEntity
  8
0
 62
     7
100
AcDbLine
 10
279.358765
 20
83.599991
 30
0.0
 11
279.358765
 21
126.399994
 31
0.0
210
0.0
220
0.0
230
1.0
  0
LINE
  5
256
100
AcDbEntity
  8
0
 62
     7
 48
0.09875
100
AcDbLine
 10
264.458801
 20
84.264114
 30
0.0
 11
268.408813
 21
84.264114
 31
0.0
210
0.0
220
0.0
230
1.0
  0
LINE
  5
257
100
AcDbEntity
  8
0
 62
     7
 48
0.000626
100
AcDbLine
 10
264.458801
 20
125.774429
 30
0.0
 11
264.458801
 21
125.749374
 31
0.0
210
0.0
220
0.0
230
1.0
  0
LINE
  5
258
100
AcDbEntity
  8
0
 62
     7
 48
0.000338
100
AcDbLine
 10
264.458801
 20
125.749374
 30
0.0
 11
264.458801
 21
125.73587
 31
0.0
210
0.0
220
0.0
230
1.0
  0
LINE
  5
259
100
AcDbEntity
  8
0
 62
     7
 48
0.09875
100
AcDbLine
 10
268.408813
 20
125.73587
 30
0.0
 11
264.458801
 21
125.73587
 31
0.0
210
0.0
220
0.0
230
1.0
  0
LINE
  5
25A
100
AcDbEntity
  8
0
 62
     7
 48
0.060001
100
AcDbLine
 10
264.458801
 20
84.25061
 30
0.0
 11
262.058777
 21
84.25061
 31
0.0
210
0.0
220
0.0
230
1.0
  0
LINE
  5
25B
100
AcDbEntity
  8
0
 62
     7
 48
0.060001
100
AcDbLine
 10
262.058777
 20
125.749374
 30
0.0
 11
264.458801
 21
125.749374
 31
0.0
210
0.0
220
0.0
230
1.0
  0
LINE
  5
25C
100
AcDbEntity
  8
0
 62
     7
100
AcDbLine
 10
233.008774
 20
82.49794
 30
0.0
 11
233.008774
 21
127.502045
 31
0.0
210
0.0
220
0.0
230
1.0
  0
LINE
  5
25D
100
AcDbEntity
  8
0
 62
     7
100
AcDbLine
 10
234.558762
 20
126.399994
 30
0.0
 11
234.558762
 21
83.599991
 31
0.0
210
0.0
220
0.0
230
1.0
  0
LINE
  5
25E
100
AcDbEntity
  8
0
 62
     7
 48
0.02
100
AcDbLine
 10
241.408798
 20
85.899994
 30
0.0
 11
241.408798
 21
86.699997
 31
0.0
210
0.0
220
0.0
230
1.0
  0
LINE
  5
25F
100
AcDbEntity
  8
0
 62
     7
 48
0.02
100
AcDbLine
 10
239.658798
 20
86.699997
 30
0.0
 11
239.658798
 21
85.899994
 31
0.0
210
0.0
220
0.0
230
1.0
  0
LINE
  5
260
100
AcDbEntity
  8
0
 62
     7
 48
0.01875
100
AcDbLine
 10
240.158798
 20
85.399994
 30
0.0
 11
240.908798
 21
85.399994
 31
0.0
210
0.0
220
0.0
230
1.0
  0
LINE
  5
261
100
AcDbEntity
  8
0
 62
     7
 48
0.000015
100
AcDbLine
 10
251.858749
 20
84.25
 30
0.0
 11
251.858749
 21
84.25061
 31
0.0
210
0.0
220
0.0
230
1.0
  0
LINE
  5
262
100
AcDbEntity
  8
0
 62
     7
 48
0.000015
100
AcDbLine
 10
262.058777
 20
84.25
 30
0.0
 11
262.058777
 21
84.25061
 31
0.0
210
0.0
220
0.0
230
1.0
  0
LINE
  5
263
100
AcDbEntity
  8
0
 62
     7
 48
0.125
100
AcDbLine
 10
259.458801
 20
84.849991
 30
0.0
 11
254.458786
 21
84.849991
 31
0.0
210
0.0
220
0.0
230
1.0
  0
LINE
  5
264
100
AcDbEntity
  8
0
 62
     7
 48
0.003735
100
AcDbLine
 10
251.858749
 20
84.25061
 30
0.0
 11
251.858749
 21
84.399994
 31
0.0
210
0.0
220
0.0
230
1.0
  0
LINE
  5
265
100
AcDbEntity
  8
0
 62
     7
 48
0.003735
100
AcDbLine
 10
262.058777
 20
125.749374
 30
0.0
 11
262.058777
 21
125.599991
 31
0.0
210
0.0
220
0.0
230
1.0
  0
LINE
  5
266
100
AcDbEntity
  8
0
 62
     7
 48
0.003735
100
AcDbLine
 10
262.058777
 20
84.25061
 30
0.0
 11
262.058777
 21
84.399994
 31
0.0
210
0.0
220
0.0
230
1.0
  0
LINE
  5
267
100
AcDbEntity
  8
0
 62
     7
 48
0.125
100
AcDbLine
 10
259.458801
 20
125.149994
 30
0.0
 11
254.458786
 21
125.149994
 31
0.0
210
0.0
220
0.0
230
1.0
  0
LINE
  5
268
100
AcDbEntity
  8
0
 62
     7
 48
0.01875
100
AcDbLine
 10
240.908798
 20
87.199997
 30
0.0
 11
240.158798
 21
87.199997
 31
0.0
210
0.0
220
0.0
230
1.0
  0
LINE
  5
269
100
AcDbEntity
  8
0
 62
     7
100
AcDbLine
 10
278.358765
 20
127.399994
 30
0.0
 11
235.558762
 21
127.399994
 31
0.0
210
0.0
220
0.0
230
1.0
  0
LINE
  5
26A
100
AcDbEntity
  8
0
 62
     7
100
AcDbLine
 10
234.506699
 20
129.0
 30
0.0
 11
279.410828
 21
129.0
 31
0.0
210
0.0
220
0.0
230
1.0
  0
LINE
  5
26B
100
AcDbEntity
  8
0
 62
     7
100
AcDbLine
 10
279.410828
 20
81.0
 30
0.0
 11
234.506699
 21
81.0
 31
0.0
210
0.0
220
0.0
230
1.0
  0
LINE
  5
26C
100
AcDbEntity
  8
0
 62
     7
100
AcDbLine
 10
280.908813
 20
127.502045
 30
0.0
 11
280.908813
 21
82.49794
 31
0.0
210
0.0
220
0.0
230
1.0
  0
ARC
  5
26D
100
AcDbEntity
  8
0
 62
     7
100
AcDbCircle
 10
43.299114
 20
107.0
 30
0.0
 40
0.9
210
0.0
220
0.0
230
1.0
100
AcDbArc
 50
350.000012
 51
30.405932
  0
ARC
  5
26E
100
AcDbEntity
  8
0
 62
     7
100
AcDbCircle
 10
27.32645
 20
121.299988
 30
0.0
 40
1.8
210
0.0
220
0.0
230
1.0
100
AcDbArc
 50
90.000003
 51
125.21981
  0
ARC
  5
26F
100
AcDbEntity
  8
0
 62
     7
100
AcDbCircle
 10
27.32645
 20
121.299988
 30
0.0
 40
1.8
210
0.0
220
0.0
230
1.0
100
AcDbArc
 50
134.780191
 51
169.999993
  0
ARC
  5
270
100
AcDbEntity
  8
0
 62
     7
100
AcDbCircle
 10
30.681614
 20
121.899994
 30
0.0
 40
1.2
210
0.0
220
0.0
230
1.0
100
AcDbArc
 50
47.180754
 51
90.000003
  0
ARC
  5
271
100
AcDbEntity
  8
0
 62
     7
100
AcDbCircle
 10
30.681614
 20
121.899994
 30
0.0
 40
1.2
210
0.0
220
0.0
230
1.0
100
AcDbArc
 50
350.000012
 51
32.819245
  0
ARC
  5
272
100
AcDbEntity
  8
0
 62
     7
100
AcDbCircle
 10
36.426456
 20
121.299988
 30
0.0
 40
1.8
210
0.0
220
0.0
230
1.0
100
AcDbArc
 50
134.780191
 51
169.999993
  0
ARC
  5
273
100
AcDbEntity
  8
0
 62
     7
100
AcDbCircle
 10
39.781612
 20
121.899994
 30
0.0
 40
1.2
210
0.0
220
0.0
230
1.0
100
AcDbArc
 50
47.180754
 51
90.000003
  0
ARC
  5
274
100
AcDbEntity
  8
0
 62
     7
100
AcDbCircle
 10
36.426456
 20
121.299988
 30
0.0
 40
1.8
210
0.0
220
0.0
230
1.0
100
AcDbArc
 50
90.000003
 51
125.21981
  0
ARC
  5
275
100
AcDbEntity
  8
0
 62
     7
100
AcDbCircle
 10
39.781612
 20
121.899994
 30
0.0
 40
1.2
210
0.0
220
0.0
230
1.0
100
AcDbArc
 50
350.000012
 51
32.819245
  0
ARC
  5
276
100
AcDbEntity
  8
0
 62
     7
100
AcDbCircle
 10
45.526455
 20
121.299988
 30
0.0
 40
1.8
210
0.0
220
0.0
230
1.0
100
AcDbArc
 50
134.780191
 51
169.999993
  0
ARC
  5
277
100
AcDbEntity
  8
0
 62
     7
100
AcDbCircle
 10
28.555943
 20
113.299988
 30
0.0
 40
1.8
210
0.0
220
0.0
230
1.0
100
AcDbArc
 50
314.780196
 51
350.000012
  0
ARC
  5
278
100
AcDbEntity
  8
0
 62
     7
100
AcDbCircle
 10
43.400784
 20
112.699997
 30
0.0
 40
1.2
210
0.0
220
0.0
230
1.0
100
AcDbArc
 50
169.999993
 51
212.81924
  0
ARC
  5
279
100
AcDbEntity
  8
0
 62
     7
100
AcDbCircle
 10
34.300785
 20
112.699997
 30
0.0
 40
1.2
210
0.0
220
0.0
230
1.0
100
AcDbArc
 50
169.999993
 51
212.81924
  0
ARC
  5
27A
100
AcDbEntity
  8
0
 62
     7
100
AcDbCircle
 10
28.555943
 20
113.299988
 30
0.0
 40
1.8
210
0.0
220
0.0
230
1.0
100
AcDbArc
 50
270.000001
 51
305.219815
  0
ARC
  5
27B
100
AcDbEntity
  8
0
 62
     7
100
AcDbCircle
 10
37.655949
 20
113.299988
 30
0.0
 40
1.8
210
0.0
220
0.0
230
1.0
100
AcDbArc
 50
270.000001
 51
305.219815
  0
ARC
  5
27C
100
AcDbEntity
  8
0
 62
     7
100
AcDbCircle
 10
25.200787
 20
112.699997
 30
0.0
 40
1.2
210
0.0
220
0.0
230
1.0
100
AcDbArc
 50
227.180752
 51
270.000001
  0
ARC
  5
27D
100
AcDbEntity
  8
0
 62
     7
100
AcDbCircle
 10
25.200787
 20
112.699997
 30
0.0
 40
1.2
210
0.0
220
0.0
230
1.0
100
AcDbArc
 50
169.999993
 51
212.81924
  0
ARC
  5
27E
100
AcDbEntity
  8
0
 62
     7
100
AcDbCircle
 10
43.400784
 20
112.699997
 30
0.0
 40
1.2
210
0.0
220
0.0
230
1.0
100
AcDbArc
 50
227.180752
 51
270.000001
  0
ARC
  5
27F
100
AcDbEntity
  8
0
 62
     7
100
AcDbCircle
 10
34.300785
 20
112.699997
 30
0.0
 40
1.2
210
0.0
220
0.0
230
1.0
100
AcDbArc
 50
227.180752
 51
270.000001
  0
ARC
  5
280
100
AcDbEntity
  8
0
 62
     7
100
AcDbCircle
 10
31.583279
 20
99.799988
 30
0.0
 40
0.9
210
0.0
220
0.0
230
1.0
100
AcDbArc
 50
229.594079
 51
270.000001
  0
ARC
  5
281
100
AcDbEntity
  8
0
 62
     7
100
AcDbCircle
 10
34.210011
 20
100.299988
 30
0.0
 40
1.4
210
0.0
220
0.0
230
1.0
100
AcDbArc
 50
270.000001
 51
303.849352
  0
ARC
  5
282
100
AcDbEntity
  8
0
 62
     7
100
AcDbCircle
 10
45.526455
 20
121.299988
 30
0.0
 40
1.8
210
0.0
220
0.0
230
1.0
100
AcDbArc
 50
90.000003
 51
125.21981
  0
ARC
  5
283
100
AcDbEntity
  8
0
 62
     7
100
AcDbCircle
 10
35.899113
 20
107.0
 30
0.0
 40
0.9
210
0.0
220
0.0
230
1.0
100
AcDbArc
 50
350.000012
 51
30.405932
  0
ARC
  5
284
100
AcDbEntity
  8
0
 62
     7
100
AcDbCircle
 10
43.299114
 20
107.0
 30
0.0
 40
0.9
210
0.0
220
0.0
230
1.0
100
AcDbArc
 50
49.594069
 51
90.000003
  0
ARC
  5
285
100
AcDbEntity
  8
0
 62
     7
100
AcDbCircle
 10
40.67239
 20
106.5
 30
0.0
 40
1.4
210
0.0
220
0.0
230
1.0
100
AcDbArc
 50
90.000003
 51
123.849361
  0
ARC
  5
286
100
AcDbEntity
  8
0
 62
     7
100
AcDbCircle
 10
35.899113
 20
107.0
 30
0.0
 40
0.9
210
0.0
220
0.0
230
1.0
100
AcDbArc
 50
49.594069
 51
90.000003
  0
ARC
  5
287
100
AcDbEntity
  8
0
 62
     7
100
AcDbCircle
 10
40.67239
 20
106.5
 30
0.0
 40
1.4
210
0.0
220
0.0
230
1.0
100
AcDbArc
 50
136.150641
 51
169.999993
  0
ARC
  5
288
100
AcDbEntity
  8
0
 62
     7
100
AcDbCircle
 10
33.272388
 20
106.5
 30
0.0
 40
1.4
210
0.0
220
0.0
230
1.0
100
AcDbArc
 50
90.000003
 51
123.849361
  0
ARC
  5
289
100
AcDbEntity
  8
0
 62
     7
100
AcDbCircle
 10
33.272388
 20
106.5
 30
0.0
 40
1.4
210
0.0
220
0.0
230
1.0
100
AcDbArc
 50
136.150641
 51
169.999993
  0
ARC
  5
28A
100
AcDbEntity
  8
0
 62
     7
100
AcDbCircle
 10
37.655949
 20
113.299988
 30
0.0
 40
1.8
210
0.0
220
0.0
230
1.0
100
AcDbArc
 50
314.780196
 51
350.000012
  0
ARC
  5
28B
100
AcDbEntity
  8
0
 62
     7
100
AcDbCircle
 10
31.583279
 20
99.799988
 30
0.0
 40
0.9
210
0.0
220
0.0
230
1.0
100
AcDbArc
 50
169.999993
 51
210.405932
  0
ARC
  5
28C
100
AcDbEntity
  8
0
 62
     7
100
AcDbCircle
 10
38.98328
 20
99.799988
 30
0.0
 40
0.9
210
0.0
220
0.0
230
1.0
100
AcDbArc
 50
169.999993
 51
210.405932
  0
ARC
  5
28D
100
AcDbEntity
  8
0
 62
     7
100
AcDbCircle
 10
41.610012
 20
100.299988
 30
0.0
 40
1.4
210
0.0
220
0.0
230
1.0
100
AcDbArc
 50
316.150631
 51
350.000012
  0
ARC
  5
28E
100
AcDbEntity
  8
0
 62
     7
100
AcDbCircle
 10
34.210011
 20
100.299988
 30
0.0
 40
1.4
210
0.0
220
0.0
230
1.0
100
AcDbArc
 50
316.150631
 51
350.000012
  0
ARC
  5
28F
100
AcDbEntity
  8
0
 62
     7
100
AcDbCircle
 10
41.610012
 20
100.299988
 30
0.0
 40
1.4
210
0.0
220
0.0
230
1.0
100
AcDbArc
 50
270.000001
 51
303.849352
  0
ARC
  5
290
100
AcDbEntity
  8
0
 62
     7
100
AcDbCircle
 10
38.98328
 20
99.799988
 30
0.0
 40
0.9
210
0.0
220
0.0
230
1.0
100
AcDbArc
 50
229.594079
 51
270.000001
  0
ARC
  5
291
100
AcDbEntity
  8
0
 62
     7
100
AcDbCircle
 10
48.072384
 20
106.5
 30
0.0
 40
1.4
210
0.0
220
0.0
230
1.0
100
AcDbArc
 50
136.150641
 51
169.999993
  0
ARC
  5
292
100
AcDbEntity
  8
0
 62
     7
100
AcDbCircle
 10
58.099117
 20
107.0
 30
0.0
 40
0.9
210
0.0
220
0.0
230
1.0
100
AcDbArc
 50
49.594069
 51
90.000003
  0
ARC
  5
293
100
AcDbEntity
  8
0
 62
     7
100
AcDbCircle
 10
58.099117
 20
107.0
 30
0.0
 40
0.9
210
0.0
220
0.0
230
1.0
100
AcDbArc
 50
350.000012
 51
30.405932
  0
ARC
  5
294
100
AcDbEntity
  8
0
 62
     7
100
AcDbCircle
 10
50.699116
 20
107.0
 30
0.0
 40
0.9
210
0.0
220
0.0
230
1.0
100
AcDbArc
 50
350.000012
 51
30.405932
  0
ARC
  5
295
100
AcDbEntity
  8
0
 62
     7
100
AcDbCircle
 10
55.472385
 20
106.5
 30
0.0
 40
1.4
210
0.0
220
0.0
230
1.0
100
AcDbArc
 50
90.000003
 51
123.849361
  0
ARC
  5
296
100
AcDbEntity
  8
0
 62
     7
100
AcDbCircle
 10
55.472385
 20
106.5
 30
0.0
 40
1.4
210
0.0
220
0.0
230
1.0
100
AcDbArc
 50
136.150641
 51
169.999993
  0
ARC
  5
297
100
AcDbEntity
  8
0
 62
     7
100
AcDbCircle
 10
48.072384
 20
106.5
 30
0.0
 40
1.4
210
0.0
220
0.0
230
1.0
100
AcDbArc
 50
90.000003
 51
123.849361
  0
ARC
  5
298
100
AcDbEntity
  8
0
 62
     7
100
AcDbCircle
 10
50.699116
 20
107.0
 30
0.0
 40
0.9
210
0.0
220
0.0
230
1.0
100
AcDbArc
 50
49.594069
 51
90.000003
  0
ARC
  5
299
100
AcDbEntity
  8
0
 62
     7
100
AcDbCircle
 10
55.855946
 20
113.299988
 30
0.0
 40
1.8
210
0.0
220
0.0
230
1.0
100
AcDbArc
 50
270.000001
 51
305.219815
  0
ARC
  5
29A
100
AcDbEntity
  8
0
 62
     7
100
AcDbCircle
 10
52.500782
 20
112.699997
 30
0.0
 40
1.2
210
0.0
220
0.0
230
1.0
100
AcDbArc
 50
227.180752
 51
270.000001
  0
ARC
  5
29B
100
AcDbEntity
  8
0
 62
     7
100
AcDbCircle
 10
46.755947
 20
113.299988
 30
0.0
 40
1.8
210
0.0
220
0.0
230
1.0
100
AcDbArc
 50
270.000001
 51
305.219815
  0
ARC
  5
29C
100
AcDbEntity
  8
0
 62
     7
100
AcDbCircle
 10
57.981617
 20
121.899994
 30
0.0
 40
1.2
210
0.0
220
0.0
230
1.0
100
AcDbArc
 50
47.180754
 51
90.000003
  0
ARC
  5
29D
100
AcDbEntity
  8
0
 62
     7
100
AcDbCircle
 10
57.981617
 20
121.899994
 30
0.0
 40
1.2
210
0.0
220
0.0
230
1.0
100
AcDbArc
 50
350.000012
 51
32.819245
  0
ARC
  5
29E
100
AcDbEntity
  8
0
 62
     7
100
AcDbCircle
 10
48.881611
 20
121.899994
 30
0.0
 40
1.2
210
0.0
220
0.0
230
1.0
100
AcDbArc
 50
350.000012
 51
32.819245
  0
ARC
  5
29F
100
AcDbEntity
  8
0
 62
     7
100
AcDbCircle
 10
48.881611
 20
121.899994
 30
0.0
 40
1.2
210
0.0
220
0.0
230
1.0
100
AcDbArc
 50
47.180754
 51
90.000003
  0
ARC
  5
2A0
100
AcDbEntity
  8
0
 62
     7
100
AcDbCircle
 10
54.626453
 20
121.299988
 30
0.0
 40
1.8
210
0.0
220
0.0
230
1.0
100
AcDbArc
 50
134.780191
 51
169.999993
  0
ARC
  5
2A1
100
AcDbEntity
  8
0
 62
     7
100
AcDbCircle
 10
54.626453
 20
121.299988
 30
0.0
 40
1.8
210
0.0
220
0.0
230
1.0
100
AcDbArc
 50
90.000003
 51
125.21981
  0
ARC
  5
2A2
100
AcDbEntity
  8
0
 62
     7
100
AcDbCircle
 10
55.855946
 20
113.299988
 30
0.0
 40
1.8
210
0.0
220
0.0
230
1.0
100
AcDbArc
 50
314.780196
 51
350.000012
  0
ARC
  5
2A3
100
AcDbEntity
  8
0
 62
     7
100
AcDbCircle
 10
52.500782
 20
112.699997
 30
0.0
 40
1.2
210
0.0
220
0.0
230
1.0
100
AcDbArc
 50
169.999993
 51
212.81924
  0
ARC
  5
2A4
100
AcDbEntity
  8
0
 62
     7
100
AcDbCircle
 10
46.755947
 20
113.299988
 30
0.0
 40
1.8
210
0.0
220
0.0
230
1.0
100
AcDbArc
 50
314.780196
 51
350.000012
  0
ARC
  5
2A5
100
AcDbEntity
  8
0
 62
     7
100
AcDbCircle
 10
53.783283
 20
99.799988
 30
0.0
 40
0.9
210
0.0
220
0.0
230
1.0
100
AcDbArc
 50
169.999993
 51
210.405932
  0
ARC
  5
2A6
100
AcDbEntity
  8
0
 62
     7
100
AcDbCircle
 10
46.383282
 20
99.799988
 30
0.0
 40
0.9
210
0.0
220
0.0
230
1.0
100
AcDbArc
 50
169.999993
 51
210.405932
  0
ARC
  5
2A7
100
AcDbEntity
  8
0
 62
     7
100
AcDbCircle
 10
49.010014
 20
100.299988
 30
0.0
 40
1.4
210
0.0
220
0.0
230
1.0
100
AcDbArc
 50
316.150631
 51
350.000012
  0
ARC
  5
2A8
100
AcDbEntity
  8
0
 62
     7
100
AcDbCircle
 10
56.410015
 20
100.299988
 30
0.0
 40
1.4
210
0.0
220
0.0
230
1.0
100
AcDbArc
 50
316.150631
 51
350.000012
  0
ARC
  5
2A9
100
AcDbEntity
  8
0
 62
     7
100
AcDbCircle
 10
53.783283
 20
99.799988
 30
0.0
 40
0.9
210
0.0
220
0.0
230
1.0
100
AcDbArc
 50
229.594079
 51
270.000001
  0
ARC
  5
2AA
100
AcDbEntity
  8
0
 62
     7
100
AcDbCircle
 10
46.383282
 20
99.799988
 30
0.0
 40
0.9
210
0.0
220
0.0
230
1.0
100
AcDbArc
 50
229.594079
 51
270.000001
  0
ARC
  5
2AB
100
AcDbEntity
  8
0
 62
     7
100
AcDbCircle
 10
49.010014
 20
100.299988
 30
0.0
 40
1.4
210
0.0
220
0.0
230
1.0
100
AcDbArc
 50
270.000001
 51
303.849352
  0
ARC
  5
2AC
100
AcDbEntity
  8
0
 62
     7
100
AcDbCircle
 10
56.410015
 20
100.299988
 30
0.0
 40
1.4
210
0.0
220
0.0
230
1.0
100
AcDbArc
 50
270.000001
 51
303.849352
  0
ARC
  5
2AD
100
AcDbEntity
  8
0
 62
     7
100
AcDbCircle
 10
174.306641
 20
96.564804
 30
0.0
 40
0.5
210
0.0
220
0.0
230
1.0
100
AcDbArc
 50
0.0
 51
90.000003
  0
ARC
  5
2AE
100
AcDbEntity
  8
0
 62
     7
100
AcDbCircle
 10
174.306641
 20
95.204803
 30
0.0
 40
0.5
210
0.0
220
0.0
230
1.0
100
AcDbArc
 50
270.000001
 51
360.0
  0
ARC
  5
2AF
100
AcDbEntity
  8
0
 62
     7
100
AcDbCircle
 10
174.306641
 20
99.458817
 30
0.0
 40
0.5
210
0.0
220
0.0
230
1.0
100
AcDbArc
 50
0.0
 51
90.000003
  0
ARC
  5
2B0
100
AcDbEntity
  8
0
 62
     7
100
AcDbCircle
 10
174.306641
 20
98.098816
 30
0.0
 40
0.5
210
0.0
220
0.0
230
1.0
100
AcDbArc
 50
270.000001
 51
360.0
  0
ARC
  5
2B1
100
AcDbEntity
  8
0
 62
     7
100
AcDbCircle
 10
174.306641
 20
104.328003
 30
0.0
 40
0.5
210
0.0
220
0.0
230
1.0
100
AcDbArc
 50
0.0
 51
90.000003
  0
ARC
  5
2B2
100
AcDbEntity
  8
0
 62
     7
100
AcDbCircle
 10
174.306641
 20
102.968002
 30
0.0
 40
0.5
210
0.0
220
0.0
230
1.0
100
AcDbArc
 50
270.000001
 51
360.0
  0
ARC
  5
2B3
100
AcDbEntity
  8
0
 62
     7
100
AcDbCircle
 10
174.306641
 20
115.179993
 30
0.0
 40
0.5
210
0.0
220
0.0
230
1.0
100
AcDbArc
 50
0.0
 51
90.000003
  0
ARC
  5
2B4
100
AcDbEntity
  8
0
 62
     7
100
AcDbCircle
 10
174.306641
 20
113.819992
 30
0.0
 40
0.5
210
0.0
220
0.0
230
1.0
100
AcDbArc
 50
351.483666
 51
360.0
  0
ARC
  5
2B5
100
AcDbEntity
  8
0
 62
     7
100
AcDbCircle
 10
174.306641
 20
112.311905
 30
0.0
 40
0.5
210
0.0
220
0.0
230
1.0
100
AcDbArc
 50
270.000001
 51
360.0
  0
ARC
  5
2B6
100
AcDbEntity
  8
0
 62
     7
100
AcDbCircle
 10
174.306641
 20
113.671906
 30
0.0
 40
0.5
210
0.0
220
0.0
230
1.0
100
AcDbArc
 50
0.0
 51
8.516339
  0
ARC
  5
2B7
100
AcDbEntity
  8
0
 62
     7
100
AcDbCircle
 10
174.306641
 20
113.671906
 30
0.0
 40
0.5
210
0.0
220
0.0
230
1.0
100
AcDbArc
 50
8.516339
 51
90.000003
  0
ARC
  5
2B8
100
AcDbEntity
  8
0
 62
     7
100
AcDbCircle
 10
174.306641
 20
108.266434
 30
0.0
 40
0.5
210
0.0
220
0.0
230
1.0
100
AcDbArc
 50
270.000001
 51
360.0
  0
ARC
  5
2B9
100
AcDbEntity
  8
0
 62
     7
100
AcDbCircle
 10
174.306641
 20
109.626434
 30
0.0
 40
0.5
210
0.0
220
0.0
230
1.0
100
AcDbArc
 50
0.0
 51
90.000003
  0
ARC
  5
2BA
100
AcDbEntity
  8
0
 62
     7
100
AcDbCircle
 10
173.006638
 20
100.5
 30
0.0
 40
1.0
210
0.0
220
0.0
230
1.0
100
AcDbArc
 50
327.236195
 51
360.0
  0
ARC
  5
2BB
100
AcDbEntity
  8
0
 62
     7
100
AcDbCircle
 10
177.106644
 20
108.0
 30
0.0
 40
1.0
210
0.0
220
0.0
230
1.0
100
AcDbArc
 50
0.0
 51
90.000003
  0
ARC
  5
2BC
100
AcDbEntity
  8
0
 62
     7
100
AcDbCircle
 10
177.106644
 20
102.0
 30
0.0
 40
1.0
210
0.0
220
0.0
230
1.0
100
AcDbArc
 50
270.000001
 51
360.0
  0
ARC
  5
2BD
100
AcDbEntity
  8
0
 62
     7
100
AcDbCircle
 10
164.106644
 20
126.399994
 30
0.0
 40
1.0
210
0.0
220
0.0
230
1.0
100
AcDbArc
 50
0.0
 51
90.000003
  0
ARC
  5
2BE
100
AcDbEntity
  8
0
 62
     7
100
AcDbCircle
 10
164.106644
 20
83.599991
 30
0.0
 40
1.0
210
0.0
220
0.0
230
1.0
100
AcDbArc
 50
270.000001
 51
360.0
  0
ARC
  5
2BF
100
AcDbEntity
  8
0
 62
     7
100
AcDbCircle
 10
103.906647
 20
100.049988
 30
0.0
 40
0.8
210
0.0
220
0.0
230
1.0
100
AcDbArc
 50
180.000005
 51
270.000001
  0
ARC
  5
2C0
100
AcDbEntity
  8
0
 62
     7
100
AcDbCircle
 10
103.906647
 20
102.949997
 30
0.0
 40
0.8
210
0.0
220
0.0
230
1.0
100
AcDbArc
 50
90.000003
 51
180.000005
  0
ARC
  5
2C1
100
AcDbEntity
  8
0
 62
     7
100
AcDbCircle
 10
174.306641
 20
113.671906
 30
0.0
 40
0.5
210
0.0
220
0.0
230
1.0
100
AcDbArc
 50
8.516339
 51
90.000003
  0
ARC
  5
2C2
100
AcDbEntity
  8
0
 62
     7
100
AcDbCircle
 10
174.306641
 20
113.671906
 30
0.0
 40
0.5
210
0.0
220
0.0
230
1.0
100
AcDbArc
 50
0.0
 51
8.516339
  0
ARC
  5
2C3
100
AcDbEntity
  8
0
 62
     7
100
AcDbCircle
 10
174.306641
 20
112.311905
 30
0.0
 40
0.5
210
0.0
220
0.0
230
1.0
100
AcDbArc
 50
270.000001
 51
360.0
  0
ARC
  5
2C4
100
AcDbEntity
  8
0
 62
     7
100
AcDbCircle
 10
174.306641
 20
109.626434
 30
0.0
 40
0.5
210
0.0
220
0.0
230
1.0
100
AcDbArc
 50
0.0
 51
90.000003
  0
ARC
  5
2C5
100
AcDbEntity
  8
0
 62
     7
100
AcDbCircle
 10
174.306641
 20
108.266434
 30
0.0
 40
0.5
210
0.0
220
0.0
230
1.0
100
AcDbArc
 50
270.000001
 51
360.0
  0
ARC
  5
2C6
100
AcDbEntity
  8
0
 62
     7
100
AcDbCircle
 10
174.306641
 20
98.098816
 30
0.0
 40
0.5
210
0.0
220
0.0
230
1.0
100
AcDbArc
 50
270.000001
 51
360.0
  0
ARC
  5
2C7
100
AcDbEntity
  8
0
 62
     7
100
AcDbCircle
 10
174.306641
 20
99.458817
 30
0.0
 40
0.5
210
0.0
220
0.0
230
1.0
100
AcDbArc
 50
0.0
 51
90.000003
  0
ARC
  5
2C8
100
AcDbEntity
  8
0
 62
     7
100
AcDbCircle
 10
174.306641
 20
95.204803
 30
0.0
 40
0.5
210
0.0
220
0.0
230
1.0
100
AcDbArc
 50
270.000001
 51
360.0
  0
ARC
  5
2C9
100
AcDbEntity
  8
0
 62
     7
100
AcDbCircle
 10
174.306641
 20
96.564804
 30
0.0
 40
0.5
210
0.0
220
0.0
230
1.0
100
AcDbArc
 50
0.0
 51
90.000003
  0
ARC
  5
2CA
100
AcDbEntity
  8
0
 62
     7
100
AcDbCircle
 10
174.306641
 20
102.968002
 30
0.0
 40
0.5
210
0.0
220
0.0
230
1.0
100
AcDbArc
 50
270.000001
 51
360.0
  0
ARC
  5
2CB
100
AcDbEntity
  8
0
 62
     7
100
AcDbCircle
 10
174.306641
 20
104.328003
 30
0.0
 40
0.5
210
0.0
220
0.0
230
1.0
100
AcDbArc
 50
0.0
 51
90.000003
  0
ARC
  5
2CC
100
AcDbEntity
  8
0
 62
     7
100
AcDbCircle
 10
247.555466
 20
103.647995
 30
0.0
 40
1.6
210
0.0
220
0.0
230
1.0
100
AcDbArc
 50
0.0
 51
98.181818
  0
ARC
  5
2CD
100
AcDbEntity
  8
0
 62
     7
100
AcDbCircle
 10
247.555466
 20
103.647995
 30
0.0
 40
1.6
210
0.0
220
0.0
230
1.0
100
AcDbArc
 50
98.181818
 51
360.0
  0
ARC
  5
2CE
100
AcDbEntity
  8
0
 62
     7
100
AcDbCircle
 10
249.77916
 20
98.778809
 30
0.0
 40
1.6
210
0.0
220
0.0
230
1.0
100
AcDbArc
 50
0.0
 51
130.909086
  0
ARC
  5
2CF
100
AcDbEntity
  8
0
 62
     7
100
AcDbCircle
 10
249.77916
 20
98.778809
 30
0.0
 40
1.6
210
0.0
220
0.0
230
1.0
100
AcDbArc
 50
130.909086
 51
360.0
  0
ARC
  5
2D0
100
AcDbEntity
  8
0
 62
     7
100
AcDbCircle
 10
254.282333
 20
95.884811
 30
0.0
 40
1.6
210
0.0
220
0.0
230
1.0
100
AcDbArc
 50
0.0
 51
163.63636
  0
ARC
  5
2D1
100
AcDbEntity
  8
0
 62
     7
100
AcDbCircle
 10
254.282333
 20
95.884811
 30
0.0
 40
1.6
210
0.0
220
0.0
230
1.0
100
AcDbArc
 50
163.63636
 51
360.0
  0
ARC
  5
2D2
100
AcDbEntity
  8
0
 62
     7
100
AcDbCircle
 10
248.317245
 20
108.946442
 30
0.0
 40
1.6
210
0.0
220
0.0
230
1.0
100
AcDbArc
 50
0.0
 51
65.454543
  0
ARC
  5
2D3
100
AcDbEntity
  8
0
 62
     7
100
AcDbCircle
 10
248.317245
 20
108.946442
 30
0.0
 40
1.6
210
0.0
220
0.0
230
1.0
100
AcDbArc
 50
65.454543
 51
360.0
  0
ARC
  5
2D4
100
AcDbEntity
  8
0
 62
     7
100
AcDbCircle
 10
251.822678
 20
112.991898
 30
0.0
 40
1.6
210
0.0
220
0.0
230
1.0
100
AcDbArc
 50
0.0
 51
32.727271
  0
ARC
  5
2D5
100
AcDbEntity
  8
0
 62
     7
100
AcDbCircle
 10
251.822678
 20
112.991898
 30
0.0
 40
1.6
210
0.0
220
0.0
230
1.0
100
AcDbArc
 50
32.727271
 51
360.0
  0
ARC
  5
2D6
100
AcDbEntity
  8
0
 62
     7
100
AcDbCircle
 10
266.362061
 20
103.647995
 30
0.0
 40
1.6
210
0.0
220
0.0
230
1.0
100
AcDbArc
 50
0.0
 51
261.818172
  0
ARC
  5
2D7
100
AcDbEntity
  8
0
 62
     7
100
AcDbCircle
 10
266.362061
 20
103.647995
 30
0.0
 40
1.6
210
0.0
220
0.0
230
1.0
100
AcDbArc
 50
261.818172
 51
360.0
  0
ARC
  5
2D8
100
AcDbEntity
  8
0
 62
     7
100
AcDbCircle
 10
265.600281
 20
108.946442
 30
0.0
 40
1.6
210
0.0
220
0.0
230
1.0
100
AcDbArc
 50
0.0
 51
294.54546
  0
ARC
  5
2D9
100
AcDbEntity
  8
0
 62
     7
100
AcDbCircle
 10
265.600281
 20
108.946442
 30
0.0
 40
1.6
210
0.0
220
0.0
230
1.0
100
AcDbArc
 50
294.54546
 51
360.0
  0
ARC
  5
2DA
100
AcDbEntity
  8
0
 62
     7
100
AcDbCircle
 10
262.094849
 20
112.991898
 30
0.0
 40
1.6
210
0.0
220
0.0
230
1.0
100
AcDbArc
 50
327.272721
 51
360.0
  0
ARC
  5
2DB
100
AcDbEntity
  8
0
 62
     7
100
AcDbCircle
 10
262.094849
 20
112.991898
 30
0.0
 40
1.6
210
0.0
220
0.0
230
1.0
100
AcDbArc
 50
0.0
 51
327.272721
  0
ARC
  5
2DC
100
AcDbEntity
  8
0
 62
     7
100
AcDbCircle
 10
259.635254
 20
95.884811
 30
0.0
 40
1.6
210
0.0
220
0.0
230
1.0
100
AcDbArc
 50
196.363636
 51
360.0
  0
ARC
  5
2DD
100
AcDbEntity
  8
0
 62
     7
100
AcDbCircle
 10
259.635254
 20
95.884811
 30
0.0
 40
1.6
210
0.0
220
0.0
230
1.0
100
AcDbArc
 50
0.0
 51
196.363636
  0
ARC
  5
2DE
100
AcDbEntity
  8
0
 62
     7
100
AcDbCircle
 10
264.138428
 20
98.778809
 30
0.0
 40
1.6
210
0.0
220
0.0
230
1.0
100
AcDbArc
 50
229.090909
 51
360.0
  0
ARC
  5
2DF
100
AcDbEntity
  8
0
 62
     7
100
AcDbCircle
 10
264.138428
 20
98.778809
 30
0.0
 40
1.6
210
0.0
220
0.0
230
1.0
100
AcDbArc
 50
0.0
 51
229.090909
  0
ARC
  5
2E0
100
AcDbEntity
  8
0
 62
     7
100
AcDbCircle
 10
245.708786
 20
87.399994
 30
0.0
 40
3.0
210
0.0
220
0.0
230
1.0
100
AcDbArc
 50
180.000005
 51
270.000001
  0
ARC
  5
2E1
100
AcDbEntity
  8
0
 62
     7
100
AcDbCircle
 10
264.138428
 20
98.778809
 30
0.0
 40
1.6
210
0.0
220
0.0
230
1.0
100
AcDbArc
 50
229.090909
 51
360.0
  0
ARC
  5
2E2
100
AcDbEntity
  8
0
 62
     7
100
AcDbCircle
 10
259.635254
 20
95.884811
 30
0.0
 40
1.6
210
0.0
220
0.0
230
1.0
100
AcDbArc
 50
196.363636
 51
360.0
  0
ARC
  5
2E3
100
AcDbEntity
  8
0
 62
     7
100
AcDbCircle
 10
262.094849
 20
112.991898
 30
0.0
 40
1.6
210
0.0
220
0.0
230
1.0
100
AcDbArc
 50
327.272721
 51
360.0
  0
ARC
  5
2E4
100
AcDbEntity
  8
0
 62
     7
100
AcDbCircle
 10
264.138428
 20
98.778809
 30
0.0
 40
1.6
210
0.0
220
0.0
230
1.0
100
AcDbArc
 50
0.0
 51
229.090909
  0
ARC
  5
2E5
100
AcDbEntity
  8
0
 62
     7
100
AcDbCircle
 10
265.600281
 20
108.946442
 30
0.0
 40
1.6
210
0.0
220
0.0
230
1.0
100
AcDbArc
 50
0.0
 51
294.54546
  0
ARC
  5
2E6
100
AcDbEntity
  8
0
 62
     7
100
AcDbCircle
 10
265.600281
 20
108.946442
 30
0.0
 40
1.6
210
0.0
220
0.0
230
1.0
100
AcDbArc
 50
294.54546
 51
360.0
  0
ARC
  5
2E7
100
AcDbEntity
  8
0
 62
     7
100
AcDbCircle
 10
266.362061
 20
103.647995
 30
0.0
 40
1.6
210
0.0
220
0.0
230
1.0
100
AcDbArc
 50
0.0
 51
261.818172
  0
ARC
  5
2E8
100
AcDbEntity
  8
0
 62
     7
100
AcDbCircle
 10
256.958801
 20
105.0
 30
0.0
 40
13.0
210
0.0
220
0.0
230
1.0
100
AcDbArc
 50
304.931499
 51
333.250313
  0
ARC
  5
2E9
100
AcDbEntity
  8
0
 62
     7
100
AcDbCircle
 10
256.958801
 20
105.0
 30
0.0
 40
13.0
210
0.0
220
0.0
230
1.0
100
AcDbArc
 50
10.386045
 51
38.704862
  0
ARC
  5
2EA
100
AcDbEntity
  8
0
 62
     7
100
AcDbCircle
 10
256.958801
 20
105.0
 30
0.0
 40
16.299999
210
0.0
220
0.0
230
1.0
100
AcDbArc
 50
330.954358
 51
29.045653
  0
ARC
  5
2EB
100
AcDbEntity
  8
0
 62
     7
100
AcDbCircle
 10
256.958801
 20
105.0
 30
0.0
 40
13.0
210
0.0
220
0.0
230
1.0
100
AcDbArc
 50
337.658761
 51
5.977591
  0
ARC
  5
2EC
100
AcDbEntity
  8
0
 62
     7
100
AcDbCircle
 10
268.208801
 20
87.399994
 30
0.0
 40
3.0
210
0.0
220
0.0
230
1.0
100
AcDbArc
 50
270.000001
 51
360.0
  0
ARC
  5
2ED
100
AcDbEntity
  8
0
 62
     7
100
AcDbCircle
 10
268.208801
 20
122.599991
 30
0.0
 40
3.0
210
0.0
220
0.0
230
1.0
100
AcDbArc
 50
0.0
 51
90.000003
  0
ARC
  5
2EE
100
AcDbEntity
  8
0
 62
     7
100
AcDbCircle
 10
256.958801
 20
105.0
 30
0.0
 40
13.0
210
0.0
220
0.0
230
1.0
100
AcDbArc
 50
43.113319
 51
71.432134
  0
ARC
  5
2EF
100
AcDbEntity
  8
0
 62
     7
100
AcDbCircle
 10
256.958801
 20
105.0
 30
0.0
 40
13.0
210
0.0
220
0.0
230
1.0
100
AcDbArc
 50
75.84059
 51
104.159407
  0
ARC
  5
2F0
100
AcDbEntity
  8
0
 62
     7
100
AcDbCircle
 10
256.958801
 20
105.0
 30
0.0
 40
13.0
210
0.0
220
0.0
230
1.0
100
AcDbArc
 50
141.29514
 51
169.613951
  0
ARC
  5
2F1
100
AcDbEntity
  8
0
 62
     7
100
AcDbCircle
 10
256.958801
 20
105.0
 30
0.0
 40
13.0
210
0.0
220
0.0
230
1.0
100
AcDbArc
 50
108.567865
 51
136.886676
  0
ARC
  5
2F2
100
AcDbEntity
  8
0
 62
     7
100
AcDbCircle
 10
256.958801
 20
105.0
 30
0.0
 40
13.0
210
0.0
220
0.0
230
1.0
100
AcDbArc
 50
174.022415
 51
202.341225
  0
ARC
  5
2F3
100
AcDbEntity
  8
0
 62
     7
100
AcDbCircle
 10
262.094849
 20
112.991898
 30
0.0
 40
1.6
210
0.0
220
0.0
230
1.0
100
AcDbArc
 50
0.0
 51
327.272721
  0
ARC
  5
2F4
100
AcDbEntity
  8
0
 62
     7
100
AcDbCircle
 10
251.822678
 20
112.991898
 30
0.0
 40
1.6
210
0.0
220
0.0
230
1.0
100
AcDbArc
 50
0.0
 51
32.727271
  0
ARC
  5
2F5
100
AcDbEntity
  8
0
 62
     7
100
AcDbCircle
 10
251.822678
 20
112.991898
 30
0.0
 40
1.6
210
0.0
220
0.0
230
1.0
100
AcDbArc
 50
32.727271
 51
360.0
  0
ARC
  5
2F6
100
AcDbEntity
  8
0
 62
     7
100
AcDbCircle
 10
256.958801
 20
105.0
 30
0.0
 40
4.0
210
0.0
220
0.0
230
1.0
100
AcDbArc
 50
80.81712
 51
99.182877
  0
ARC
  5
2F7
100
AcDbEntity
  8
0
 62
     7
100
AcDbCircle
 10
256.958801
 20
105.0
 30
0.0
 40
4.0
210
0.0
220
0.0
230
1.0
100
AcDbArc
 50
99.182877
 51
113.544396
  0
ARC
  5
2F8
100
AcDbEntity
  8
0
 62
     7
100
AcDbCircle
 10
256.958801
 20
105.0
 30
0.0
 40
4.0
210
0.0
220
0.0
230
1.0
100
AcDbArc
 50
113.544396
 51
131.910158
  0
ARC
  5
2F9
100
AcDbEntity
  8
0
 62
     7
100
AcDbCircle
 10
256.958801
 20
105.0
 30
0.0
 40
4.0
210
0.0
220
0.0
230
1.0
100
AcDbArc
 50
131.910158
 51
146.271671
  0
ARC
  5
2FA
100
AcDbEntity
  8
0
 62
     7
100
AcDbCircle
 10
248.317245
 20
108.946442
 30
0.0
 40
1.6
210
0.0
220
0.0
230
1.0
100
AcDbArc
 50
0.0
 51
65.454543
  0
ARC
  5
2FB
100
AcDbEntity
  8
0
 62
     7
100
AcDbCircle
 10
248.317245
 20
108.946442
 30
0.0
 40
1.6
210
0.0
220
0.0
230
1.0
100
AcDbArc
 50
65.454543
 51
360.0
  0
ARC
  5
2FC
100
AcDbEntity
  8
0
 62
     7
100
AcDbCircle
 10
256.958801
 20
105.0
 30
0.0
 40
4.0
210
0.0
220
0.0
230
1.0
100
AcDbArc
 50
146.271671
 51
164.63742
  0
ARC
  5
2FD
100
AcDbEntity
  8
0
 62
     7
100
AcDbCircle
 10
259.635254
 20
95.884811
 30
0.0
 40
1.6
210
0.0
220
0.0
230
1.0
100
AcDbArc
 50
0.0
 51
196.363636
  0
ARC
  5
2FE
100
AcDbEntity
  8
0
 62
     7
100
AcDbCircle
 10
256.958801
 20
105.0
 30
0.0
 40
13.0
210
0.0
220
0.0
230
1.0
100
AcDbArc
 50
239.476952
 51
267.795762
  0
ARC
  5
2FF
100
AcDbEntity
  8
0
 62
     7
100
AcDbCircle
 10
256.958801
 20
105.0
 30
0.0
 40
13.0
210
0.0
220
0.0
230
1.0
100
AcDbArc
 50
272.204239
 51
300.523051
  0
ARC
  5
300
100
AcDbEntity
  8
0
 62
     7
100
AcDbCircle
 10
254.282333
 20
95.884811
 30
0.0
 40
1.6
210
0.0
220
0.0
230
1.0
100
AcDbArc
 50
0.0
 51
163.63636
  0
ARC
  5
301
100
AcDbEntity
  8
0
 62
     7
100
AcDbCircle
 10
254.282333
 20
95.884811
 30
0.0
 40
1.6
210
0.0
220
0.0
230
1.0
100
AcDbArc
 50
163.63636
 51
360.0
  0
ARC
  5
302
100
AcDbEntity
  8
0
 62
     7
100
AcDbCircle
 10
249.77916
 20
98.778809
 30
0.0
 40
1.6
210
0.0
220
0.0
230
1.0
100
AcDbArc
 50
0.0
 51
130.909086
  0
ARC
  5
303
100
AcDbEntity
  8
0
 62
     7
100
AcDbCircle
 10
249.77916
 20
98.778809
 30
0.0
 40
1.6
210
0.0
220
0.0
230
1.0
100
AcDbArc
 50
130.909086
 51
360.0
  0
ARC
  5
304
100
AcDbEntity
  8
0
 62
     7
100
AcDbCircle
 10
247.555466
 20
103.647995
 30
0.0
 40
1.6
210
0.0
220
0.0
230
1.0
100
AcDbArc
 50
0.0
 51
98.181818
  0
ARC
  5
305
100
AcDbEntity
  8
0
 62
     7
100
AcDbCircle
 10
266.362061
 20
103.647995
 30
0.0
 40
1.6
210
0.0
220
0.0
230
1.0
100
AcDbArc
 50
261.818172
 51
360.0
  0
ARC
  5
306
100
AcDbEntity
  8
0
 62
     7
100
AcDbCircle
 10
256.958801
 20
105.0
 30
0.0
 40
4.0
210
0.0
220
0.0
230
1.0
100
AcDbArc
 50
211.726205
 51
230.091969
  0
ARC
  5
307
100
AcDbEntity
  8
0
 62
     7
100
AcDbCircle
 10
256.958801
 20
105.0
 30
0.0
 40
4.0
210
0.0
220
0.0
230
1.0
100
AcDbArc
 50
230.091969
 51
244.453481
  0
ARC
  5
308
100
AcDbEntity
  8
0
 62
     7
100
AcDbCircle
 10
256.958801
 20
105.0
 30
0.0
 40
13.0
210
0.0
220
0.0
230
1.0
100
AcDbArc
 50
206.749676
 51
235.068501
  0
ARC
  5
309
100
AcDbEntity
  8
0
 62
     7
100
AcDbCircle
 10
256.958801
 20
105.0
 30
0.0
 40
4.0
210
0.0
220
0.0
230
1.0
100
AcDbArc
 50
164.63742
 51
178.998931
  0
ARC
  5
30A
100
AcDbEntity
  8
0
 62
     7
100
AcDbCircle
 10
245.708786
 20
122.599991
 30
0.0
 40
3.0
210
0.0
220
0.0
230
1.0
100
AcDbArc
 50
90.000003
 51
180.000005
  0
ARC
  5
30B
100
AcDbEntity
  8
0
 62
     7
100
AcDbCircle
 10
256.958801
 20
105.0
 30
0.0
 40
4.0
210
0.0
220
0.0
230
1.0
100
AcDbArc
 50
197.364697
 51
211.726205
  0
ARC
  5
30C
100
AcDbEntity
  8
0
 62
     7
100
AcDbCircle
 10
256.958801
 20
105.0
 30
0.0
 40
4.0
210
0.0
220
0.0
230
1.0
100
AcDbArc
 50
244.453481
 51
255.522486
  0
ARC
  5
30D
100
AcDbEntity
  8
0
 62
     7
100
AcDbCircle
 10
256.958801
 20
105.0
 30
0.0
 40
4.0
210
0.0
220
0.0
230
1.0
100
AcDbArc
 50
284.477516
 51
295.546519
  0
ARC
  5
30E
100
AcDbEntity
  8
0
 62
     7
100
AcDbCircle
 10
256.958801
 20
105.0
 30
0.0
 40
4.0
210
0.0
220
0.0
230
1.0
100
AcDbArc
 50
309.908031
 51
328.273782
  0
ARC
  5
30F
100
AcDbEntity
  8
0
 62
     7
100
AcDbCircle
 10
256.958801
 20
105.0
 30
0.0
 40
4.0
210
0.0
220
0.0
230
1.0
100
AcDbArc
 50
1.001062
 51
15.362574
  0
ARC
  5
310
100
AcDbEntity
  8
0
 62
     7
100
AcDbCircle
 10
256.958801
 20
105.0
 30
0.0
 40
4.0
210
0.0
220
0.0
230
1.0
100
AcDbArc
 50
342.635293
 51
360.0
  0
ARC
  5
311
100
AcDbEntity
  8
0
 62
     7
100
AcDbCircle
 10
256.958801
 20
105.0
 30
0.0
 40
4.0
210
0.0
220
0.0
230
1.0
100
AcDbArc
 50
0.0
 51
1.001062
  0
ARC
  5
312
100
AcDbEntity
  8
0
 62
     7
100
AcDbCircle
 10
256.958801
 20
105.0
 30
0.0
 40
4.0
210
0.0
220
0.0
230
1.0
100
AcDbArc
 50
328.273782
 51
342.635293
  0
ARC
  5
313
100
AcDbEntity
  8
0
 62
     7
100
AcDbCircle
 10
256.958801
 20
105.0
 30
0.0
 40
4.0
210
0.0
220
0.0
230
1.0
100
AcDbArc
 50
295.546519
 51
309.908031
  0
ARC
  5
314
100
AcDbEntity
  8
0
 62
     7
100
AcDbCircle
 10
256.958801
 20
105.0
 30
0.0
 40
4.0
210
0.0
220
0.0
230
1.0
100
AcDbArc
 50
270.000001
 51
284.477516
  0
ARC
  5
315
100
AcDbEntity
  8
0
 62
     7
100
AcDbCircle
 10
256.958801
 20
105.0
 30
0.0
 40
4.0
210
0.0
220
0.0
230
1.0
100
AcDbArc
 50
255.522486
 51
270.000001
  0
ARC
  5
316
100
AcDbEntity
  8
0
 62
     7
100
AcDbCircle
 10
256.958801
 20
105.0
 30
0.0
 40
4.0
210
0.0
220
0.0
230
1.0
100
AcDbArc
 50
15.362574
 51
33.728331
  0
ARC
  5
317
100
AcDbEntity
  8
0
 62
     7
100
AcDbCircle
 10
247.555466
 20
103.647995
 30
0.0
 40
1.6
210
0.0
220
0.0
230
1.0
100
AcDbArc
 50
98.181818
 51
360.0
  0
ARC
  5
318
100
AcDbEntity
  8
0
 62
     7
100
AcDbCircle
 10
256.958801
 20
100.5
 30
0.0
 40
1.0
210
0.0
220
0.0
230
1.0
100
AcDbArc
 50
180.000005
 51
240.000006
  0
ARC
  5
319
100
AcDbEntity
  8
0
 62
     7
100
AcDbCircle
 10
256.958801
 20
100.5
 30
0.0
 40
1.0
210
0.0
220
0.0
230
1.0
100
AcDbArc
 50
240.000006
 51
299.999994
  0
ARC
  5
31A
100
AcDbEntity
  8
0
 62
     7
100
AcDbCircle
 10
256.958801
 20
100.5
 30
0.0
 40
1.0
210
0.0
220
0.0
230
1.0
100
AcDbArc
 50
299.999994
 51
360.0
  0
ARC
  5
31B
100
AcDbEntity
  8
0
 62
     7
100
AcDbCircle
 10
256.958801
 20
105.0
 30
0.0
 40
4.0
210
0.0
220
0.0
230
1.0
100
AcDbArc
 50
178.998931
 51
197.364697
  0
ARC
  5
31C
100
AcDbEntity
  8
0
 62
     7
100
AcDbCircle
 10
256.958801
 20
105.0
 30
0.0
 40
4.0
210
0.0
220
0.0
230
1.0
100
AcDbArc
 50
48.089846
 51
66.455609
  0
ARC
  5
31D
100
AcDbEntity
  8
0
 62
     7
100
AcDbCircle
 10
256.958801
 20
105.0
 30
0.0
 40
4.0
210
0.0
220
0.0
230
1.0
100
AcDbArc
 50
66.455609
 51
80.81712
  0
ARC
  5
31E
100
AcDbEntity
  8
0
 62
     7
100
AcDbCircle
 10
256.958801
 20
105.0
 30
0.0
 40
4.0
210
0.0
220
0.0
230
1.0
100
AcDbArc
 50
33.728331
 51
48.089846
  0
ARC
  5
31F
100
AcDbEntity
  8
0
 62
     7
100
AcDbCircle
 10
256.958801
 20
105.0
 30
0.0
 40
16.299999
210
0.0
220
0.0
230
1.0
100
AcDbArc
 50
150.954353
 51
209.045658
  0
ARC
  5
320
100
AcDbEntity
  8
0
 62
     7
100
AcDbCircle
 10
256.958801
 20
105.0
 30
0.0
 40
16.4
210
0.0
220
0.0
230
1.0
100
AcDbArc
 50
151.044975
 51
208.955022
  0
ARC
  5
321
100
AcDbEntity
  8
0
 62
     7
100
AcDbCircle
 10
256.958801
 20
105.0
 30
0.0
 40
16.4
210
0.0
220
0.0
230
1.0
100
AcDbArc
 50
331.044981
 51
28.955024
  0
ARC
  5
322
100
AcDbEntity
  8
0
 62
     7
100
AcDbCircle
 10
278.358765
 20
83.599991
 30
0.0
 40
1.0
210
0.0
220
0.0
230
1.0
100
AcDbArc
 50
270.000001
 51
360.0
  0
ARC
  5
323
100
AcDbEntity
  8
0
 62
     7
100
AcDbCircle
 10
235.558762
 20
83.599991
 30
0.0
 40
1.0
210
0.0
220
0.0
230
1.0
100
AcDbArc
 50
180.000005
 51
270.000001
  0
ARC
  5
324
100
AcDbEntity
  8
0
 62
     7
100
AcDbCircle
 10
240.908798
 20
85.899994
 30
0.0
 40
0.5
210
0.0
220
0.0
230
1.0
100
AcDbArc
 50
270.000001
 51
360.0
  0
ARC
  5
325
100
AcDbEntity
  8
0
 62
     7
100
AcDbCircle
 10
240.158798
 20
85.899994
 30
0.0
 40
0.5
210
0.0
220
0.0
230
1.0
100
AcDbArc
 50
180.000005
 51
270.000001
  0
ARC
  5
326
100
AcDbEntity
  8
0
 62
     7
100
AcDbCircle
 10
235.558762
 20
126.399994
 30
0.0
 40
1.0
210
0.0
220
0.0
230
1.0
100
AcDbArc
 50
90.000003
 51
180.000005
  0
ARC
  5
327
100
AcDbEntity
  8
0
 62
     7
100
AcDbCircle
 10
278.358765
 20
126.399994
 30
0.0
 40
1.0
210
0.0
220
0.0
230
1.0
100
AcDbArc
 50
0.0
 51
90.000003
  0
ARC
  5
328
100
AcDbEntity
  8
0
 62
     7
100
AcDbCircle
 10
240.908798
 20
86.699997
 30
0.0
 40
0.5
210
0.0
220
0.0
230
1.0
100
AcDbArc
 50
0.0
 51
90.000003
  0
ARC
  5
329
100
AcDbEntity
  8
0
 62
     7
100
AcDbCircle
 10
240.158798
 20
86.699997
 30
0.0
 40
0.5
210
0.0
220
0.0
230
1.0
100
AcDbArc
 50
90.000003
 51
180.000005
  0
CIRCLE
  5
32A
100
AcDbEntity
  8
0
 62
     7
100
AcDbCircle
 10
55.691196
 20
96.0
 30
0.0
 40
0.75
210
0.0
220
0.0
230
1.0
  0
CIRCLE
  5
32B
100
AcDbEntity
  8
0
 62
     7
100
AcDbCircle
 10
50.491199
 20
96.0
 30
0.0
 40
0.75
210
0.0
220
0.0
230
1.0
  0
CIRCLE
  5
32C
100
AcDbEntity
  8
0
 62
     7
100
AcDbCircle
 10
45.291203
 20
96.0
 30
0.0
 40
0.75
210
0.0
220
0.0
230
1.0
  0
CIRCLE
  5
32D
100
AcDbEntity
  8
0
 62
     7
100
AcDbCircle
 10
40.091198
 20
96.0
 30
0.0
 40
0.75
210
0.0
220
0.0
230
1.0
  0
CIRCLE
  5
32E
100
AcDbEntity
  8
0
 62
     7
100
AcDbCircle
 10
34.891201
 20
96.0
 30
0.0
 40
0.75
210
0.0
220
0.0
230
1.0
  0
CIRCLE
  5
32F
100
AcDbEntity
  8
0
 62
     7
100
AcDbCircle
 10
29.691196
 20
96.0
 30
0.0
 40
0.75
210
0.0
220
0.0
230
1.0
  0
CIRCLE
  5
330
100
AcDbEntity
  8
0
 62
     7
100
AcDbCircle
 10
24.491199
 20
96.0
 30
0.0
 40
0.75
210
0.0
220
0.0
230
1.0
  0
CIRCLE
  5
331
100
AcDbEntity
  8
0
 62
     7
100
AcDbCircle
 10
44.141201
 20
99.399994
 30
0.0
 40
0.5
210
0.0
220
0.0
230
1.0
  0
CIRCLE
  5
332
100
AcDbEntity
  8
0
 62
     7
100
AcDbCircle
 10
31.641201
 20
112.099991
 30
0.0
 40
0.6
210
0.0
220
0.0
230
1.0
  0
CIRCLE
  5
333
100
AcDbEntity
  8
0
 62
     7
100
AcDbCircle
 10
40.741199
 20
112.099991
 30
0.0
 40
0.6
210
0.0
220
0.0
230
1.0
  0
CIRCLE
  5
334
100
AcDbEntity
  8
0
 62
     7
100
AcDbCircle
 10
36.741199
 20
99.399994
 30
0.0
 40
0.5
210
0.0
220
0.0
230
1.0
  0
CIRCLE
  5
335
100
AcDbEntity
  8
0
 62
     7
100
AcDbCircle
 10
58.941196
 20
112.099991
 30
0.0
 40
0.6
210
0.0
220
0.0
230
1.0
  0
CIRCLE
  5
336
100
AcDbEntity
  8
0
 62
     7
100
AcDbCircle
 10
49.841198
 20
112.099991
 30
0.0
 40
0.6
210
0.0
220
0.0
230
1.0
  0
CIRCLE
  5
337
100
AcDbEntity
  8
0
 62
     7
100
AcDbCircle
 10
58.941196
 20
99.399994
 30
0.0
 40
0.5
210
0.0
220
0.0
230
1.0
  0
CIRCLE
  5
338
100
AcDbEntity
  8
0
 62
     7
100
AcDbCircle
 10
51.541203
 20
99.399994
 30
0.0
 40
0.5
210
0.0
220
0.0
230
1.0
  0
CIRCLE
  5
339
100
AcDbEntity
  8
0
 62
     7
100
AcDbCircle
 10
247.555466
 20
103.647995
 30
0.0
 40
0.6
210
0.0
220
0.0
230
1.0
  0
CIRCLE
  5
33A
100
AcDbEntity
  8
0
 62
     7
100
AcDbCircle
 10
247.555466
 20
103.647995
 30
0.0
 40
1.18
210
0.0
220
0.0
230
1.0
  0
CIRCLE
  5
33B
100
AcDbEntity
  8
0
 62
     7
100
AcDbCircle
 10
249.77916
 20
98.778809
 30
0.0
 40
0.6
210
0.0
220
0.0
230
1.0
  0
CIRCLE
  5
33C
100
AcDbEntity
  8
0
 62
     7
100
AcDbCircle
 10
249.77916
 20
98.778809
 30
0.0
 40
1.18
210
0.0
220
0.0
230
1.0
  0
CIRCLE
  5
33D
100
AcDbEntity
  8
0
 62
     7
100
AcDbCircle
 10
254.282333
 20
95.884811
 30
0.0
 40
0.6
210
0.0
220
0.0
230
1.0
  0
CIRCLE
  5
33E
100
AcDbEntity
  8
0
 62
     7
100
AcDbCircle
 10
254.282333
 20
95.884811
 30
0.0
 40
1.18
210
0.0
220
0.0
230
1.0
  0
CIRCLE
  5
33F
100
AcDbEntity
  8
0
 62
     7
100
AcDbCircle
 10
248.317245
 20
108.946442
 30
0.0
 40
0.6
210
0.0
220
0.0
230
1.0
  0
CIRCLE
  5
340
100
AcDbEntity
  8
0
 62
     7
100
AcDbCircle
 10
248.317245
 20
108.946442
 30
0.0
 40
1.18
210
0.0
220
0.0
230
1.0
  0
CIRCLE
  5
341
100
AcDbEntity
  8
0
 62
     7
100
AcDbCircle
 10
256.958801
 20
114.5
 30
0.0
 40
0.6
210
0.0
220
0.0
230
1.0
  0
CIRCLE
  5
342
100
AcDbEntity
  8
0
 62
     7
100
AcDbCircle
 10
256.958801
 20
114.5
 30
0.0
 40
1.18
210
0.0
220
0.0
230
1.0
  0
CIRCLE
  5
343
100
AcDbEntity
  8
0
 62
     7
100
AcDbCircle
 10
256.958801
 20
114.5
 30
0.0
 40
1.6
210
0.0
220
0.0
230
1.0
  0
CIRCLE
  5
344
100
AcDbEntity
  8
0
 62
     7
100
AcDbCircle
 10
251.822678
 20
112.991898
 30
0.0
 40
0.6
210
0.0
220
0.0
230
1.0
  0
CIRCLE
  5
345
100
AcDbEntity
  8
0
 62
     7
100
AcDbCircle
 10
251.822678
 20
112.991898
 30
0.0
 40
1.18
210
0.0
220
0.0
230
1.0
  0
CIRCLE
  5
346
100
AcDbEntity
  8
0
 62
     7
100
AcDbCircle
 10
266.362061
 20
103.647995
 30
0.0
 40
0.6
210
0.0
220
0.0
230
1.0
  0
CIRCLE
  5
347
100
AcDbEntity
  8
0
 62
     7
100
AcDbCircle
 10
266.362061
 20
103.647995
 30
0.0
 40
1.18
210
0.0
220
0.0
230
1.0
  0
CIRCLE
  5
348
100
AcDbEntity
  8
0
 62
     7
100
AcDbCircle
 10
265.600281
 20
108.946442
 30
0.0
 40
0.6
210
0.0
220
0.0
230
1.0
  0
CIRCLE
  5
349
100
AcDbEntity
  8
0
 62
     7
100
AcDbCircle
 10
265.600281
 20
108.946442
 30
0.0
 40
1.18
210
0.0
220
0.0
230
1.0
  0
CIRCLE
  5
34A
100
AcDbEntity
  8
0
 62
     7
100
AcDbCircle
 10
262.094849
 20
112.991898
 30
0.0
 40
0.6
210
0.0
220
0.0
230
1.0
  0
CIRCLE
  5
34B
100
AcDbEntity
  8
0
 62
     7
100
AcDbCircle
 10
262.094849
 20
112.991898
 30
0.0
 40
1.18
210
0.0
220
0.0
230
1.0
  0
CIRCLE
  5
34C
100
AcDbEntity
  8
0
 62
     7
100
AcDbCircle
 10
259.635254
 20
95.884811
 30
0.0
 40
0.6
210
0.0
220
0.0
230
1.0
  0
CIRCLE
  5
34D
100
AcDbEntity
  8
0
 62
     7
100
AcDbCircle
 10
259.635254
 20
95.884811
 30
0.0
 40
1.18
210
0.0
220
0.0
230
1.0
  0
CIRCLE
  5
34E
100
AcDbEntity
  8
0
 62
     7
100
AcDbCircle
 10
264.138428
 20
98.778809
 30
0.0
 40
0.6
210
0.0
220
0.0
230
1.0
  0
CIRCLE
  5
34F
100
AcDbEntity
  8
0
 62
     7
100
AcDbCircle
 10
264.138428
 20
98.778809
 30
0.0
 40
1.18
210
0.0
220
0.0
230
1.0
  0
CIRCLE
  5
350
100
AcDbEntity
  8
0
 62
     7
100
AcDbCircle
 10
256.958801
 20
114.5
 30
0.0
 40
1.6
210
0.0
220
0.0
230
1.0
  0
CIRCLE
  5
351
100
AcDbEntity
  8
0
 62
     7
100
AcDbCircle
 10
256.958801
 20
105.0
 30
0.0
 40
15.0
210
0.0
220
0.0
230
1.0
  0
ARC
  5
352
100
AcDbEntity
  8
0
 62
     7
100
AcDbCircle
 10
28.266933
 20
83.85228
 30
0.0
 40
0.82638
210
0.0
220
0.0
230
1.0
100
AcDbArc
 50
324.402704
 51
359.42152
  0
ARC
  5
353
100
AcDbEntity
  8
0
 62
     7
100
AcDbCircle
 10
28.285282
 20
83.854691
 30
0.0
 40
0.812965
210
0.0
220
0.0
230
1.0
100
AcDbArc
 50
288.713297
 51
323.51109
  0
LINE
  5
354
100
AcDbEntity
  8
0
 62
     7
 48
0.006401
100
AcDbLine
 10
28.546108
 20
83.084702
 30
0.0
 11
28.293316
 21
83.043976
 31
0.0
210
0.0
220
0.0
230
1.0
  0
LINE
  5
355
100
AcDbEntity
  8
0
 62
     7
 48
0.005532
100
AcDbLine
 10
28.293316
 20
83.043976
 30
0.0
 11
28.072048
 21
83.043976
 31
0.0
210
0.0
220
0.0
230
1.0
  0
LINE
  5
356
100
AcDbEntity
  8
0
 62
     7
 48
0.015168
100
AcDbLine
 10
28.072048
 20
83.043976
 30
0.0
 11
27.465343
 21
83.043976
 31
0.0
210
0.0
220
0.0
230
1.0
  0
LINE
  5
357
100
AcDbEntity
  8
0
 62
     7
 48
0.022662
100
AcDbLine
 10
27.465343
 20
83.043976
 30
0.0
 11
26.558865
 21
83.043976
 31
0.0
210
0.0
220
0.0
230
1.0
  0
LINE
  5
358
100
AcDbEntity
  8
0
 62
     7
 48
0.028015
100
AcDbLine
 10
26.558865
 20
83.043976
 30
0.0
 11
25.438251
 21
83.043976
 31
0.0
210
0.0
220
0.0
230
1.0
  0
LINE
  5
359
100
AcDbEntity
  8
0
 62
     7
 48
0.031227
100
AcDbLine
 10
25.438251
 20
83.043976
 30
0.0
 11
24.189159
 21
83.043976
 31
0.0
210
0.0
220
0.0
230
1.0
  0
LINE
  5
35A
100
AcDbEntity
  8
0
 62
     7
 48
0.032298
100
AcDbLine
 10
24.189159
 20
83.043976
 30
0.0
 11
22.897243
 21
83.043976
 31
0.0
210
0.0
220
0.0
230
1.0
  0
LINE
  5
35B
100
AcDbEntity
  8
0
 62
     7
 48
0.031227
100
AcDbLine
 10
22.897243
 20
83.043976
 30
0.0
 11
21.648151
 21
83.043976
 31
0.0
210
0.0
220
0.0
230
1.0
  0
LINE
  5
35C
100
AcDbEntity
  8
0
 62
     7
 48
0.028015
100
AcDbLine
 10
21.648151
 20
83.043976
 30
0.0
 11
20.527538
 21
83.043976
 31
0.0
210
0.0
220
0.0
230
1.0
  0
LINE
  5
35D
100
AcDbEntity
  8
0
 62
     7
 48
0.022662
100
AcDbLine
 10
20.527538
 20
83.043976
 30
0.0
 11
19.621059
 21
83.043976
 31
0.0
210
0.0
220
0.0
230
1.0
  0
LINE
  5
35E
100
AcDbEntity
  8
0
 62
     7
 48
0.015168
100
AcDbLine
 10
19.621059
 20
83.043976
 30
0.0
 11
19.014355
 21
83.043976
 31
0.0
210
0.0
220
0.0
230
1.0
  0
LINE
  5
35F
100
AcDbEntity
  8
0
 62
     7
 48
0.005532
100
AcDbLine
 10
19.014355
 20
83.043976
 30
0.0
 11
18.793087
 21
83.043976
 31
0.0
210
0.0
220
0.0
230
1.0
  0
LINE
  5
360
100
AcDbEntity
  8
0
 62
     7
 48
0.006401
100
AcDbLine
 10
18.793087
 20
83.043976
 30
0.0
 11
18.540295
 21
83.084702
 31
0.0
210
0.0
220
0.0
230
1.0
  0
ARC
  5
361
100
AcDbEntity
  8
0
 62
     7
100
AcDbCircle
 10
18.805576
 20
83.860809
 30
0.0
 40
0.820185
210
0.0
220
0.0
230
1.0
100
AcDbArc
 50
216.646881
 51
251.128735
  0
ARC
  5
362
100
AcDbEntity
  8
0
 62
     7
100
AcDbCircle
 10
18.792103
 20
83.843338
 30
0.0
 40
0.798969
210
0.0
220
0.0
230
1.0
100
AcDbArc
 50
179.957275
 51
216.218489
  0
LINE
  5
363
100
AcDbEntity
  8
0
 62
     7
 48
0.00135
100
AcDbLine
 10
17.993137
 20
83.843933
 30
0.0
 11
17.993137
 21
83.897949
 31
0.0
210
0.0
220
0.0
230
1.0
  0
LINE
  5
364
100
AcDbEntity
  8
0
 62
     7
 48
0.010005
100
AcDbLine
 10
17.993137
 20
83.897949
 30
0.0
 11
17.993137
 21
84.298157
 31
0.0
210
0.0
220
0.0
230
1.0
  0
LINE
  5
365
100
AcDbEntity
  8
0
 62
     7
 48
0.017974
100
AcDbLine
 10
17.993137
 20
84.298157
 30
0.0
 11
17.993137
 21
85.017136
 31
0.0
210
0.0
220
0.0
230
1.0
  0
LINE
  5
366
100
AcDbEntity
  8
0
 62
     7
 48
0.023818
100
AcDbLine
 10
17.993137
 20
85.017136
 30
0.0
 11
17.993137
 21
85.969864
 31
0.0
210
0.0
220
0.0
230
1.0
  0
LINE
  5
367
100
AcDbEntity
  8
0
 62
     7
 48
0.027537
100
AcDbLine
 10
17.993137
 20
85.969864
 30
0.0
 11
17.993137
 21
87.07135
 31
0.0
210
0.0
220
0.0
230
1.0
  0
LINE
  5
368
100
AcDbEntity
  8
0
 62
     7
 48
0.029131
100
AcDbLine
 10
17.993137
 20
87.07135
 30
0.0
 11
17.993137
 21
88.236588
 31
0.0
210
0.0
220
0.0
230
1.0
  0
LINE
  5
369
100
AcDbEntity
  8
0
 62
     7
 48
0.0286
100
AcDbLine
 10
17.993137
 20
88.236588
 30
0.0
 11
17.993137
 21
89.380585
 31
0.0
210
0.0
220
0.0
230
1.0
  0
LINE
  5
36A
100
AcDbEntity
  8
0
 62
     7
 48
0.025943
100
AcDbLine
 10
17.993137
 20
89.380585
 30
0.0
 11
17.993137
 21
90.418304
 31
0.0
210
0.0
220
0.0
230
1.0
  0
LINE
  5
36B
100
AcDbEntity
  8
0
 62
     7
 48
0.021162
100
AcDbLine
 10
17.993137
 20
90.418304
 30
0.0
 11
17.993137
 21
91.264786
 31
0.0
210
0.0
220
0.0
230
1.0
  0
LINE
  5
36C
100
AcDbEntity
  8
0
 62
     7
 48
0.014256
100
AcDbLine
 10
17.993137
 20
91.264786
 30
0.0
 11
17.993137
 21
91.835007
 31
0.0
210
0.0
220
0.0
230
1.0
  0
LINE
  5
36D
100
AcDbEntity
  8
0
 62
     7
 48
0.005224
100
AcDbLine
 10
17.993137
 20
91.835007
 30
0.0
 11
17.993137
 21
92.043976
 31
0.0
210
0.0
220
0.0
230
1.0
  0
LINE
  5
36E
100
AcDbEntity
  8
0
 62
     7
 48
0.006402
100
AcDbLine
 10
17.993137
 20
92.043976
 30
0.0
 11
18.033932
 21
92.296768
 31
0.0
210
0.0
220
0.0
230
1.0
  0
ARC
  5
36F
100
AcDbEntity
  8
0
 62
     7
100
AcDbCircle
 10
18.810528
 20
92.030838
 30
0.0
 40
0.820868
210
0.0
220
0.0
230
1.0
100
AcDbArc
 50
126.63467
 51
161.096868
  0
ARC
  5
370
100
AcDbEntity
  8
0
 62
     7
100
AcDbCircle
 10
18.792828
 20
92.044846
 30
0.0
 40
0.799085
210
0.0
220
0.0
230
1.0
100
AcDbArc
 50
89.981308
 51
126.215762
  0
LINE
  5
371
100
AcDbEntity
  8
0
 62
     7
 48
0.001427
100
AcDbLine
 10
18.793087
 20
92.843933
 30
0.0
 11
18.850185
 21
92.843933
 31
0.0
210
0.0
220
0.0
230
1.0
  0
LINE
  5
372
100
AcDbEntity
  8
0
 62
     7
 48
0.010617
100
AcDbLine
 10
18.850185
 20
92.843933
 30
0.0
 11
19.274883
 21
92.843933
 31
0.0
210
0.0
220
0.0
230
1.0
  0
LINE
  5
373
100
AcDbEntity
  8
0
 62
     7
 48
0.019182
100
AcDbLine
 10
19.274883
 20
92.843933
 30
0.0
 11
20.042179
 21
92.843933
 31
0.0
210
0.0
220
0.0
230
1.0
  0
LINE
  5
374
100
AcDbEntity
  8
0
 62
     7
 48
0.025606
100
AcDbLine
 10
20.042179
 20
92.843933
 30
0.0
 11
21.066433
 21
92.843933
 31
0.0
210
0.0
220
0.0
230
1.0
  0
LINE
  5
375
100
AcDbEntity
  8
0
 62
     7
 48
0.029889
100
AcDbLine
 10
21.066433
 20
92.843933
 30
0.0
 11
22.26199
 21
92.843933
 31
0.0
210
0.0
220
0.0
230
1.0
  0
LINE
  5
376
100
AcDbEntity
  8
0
 62
     7
 48
0.03203
100
AcDbLine
 10
22.26199
 20
92.843933
 30
0.0
 11
23.543201
 21
92.843933
 31
0.0
210
0.0
220
0.0
230
1.0
  0
LINE
  5
377
100
AcDbEntity
  8
0
 62
     7
 48
0.03203
100
AcDbLine
 10
23.543201
 20
92.843933
 30
0.0
 11
24.824413
 21
92.843933
 31
0.0
210
0.0
220
0.0
230
1.0
  0
LINE
  5
378
100
AcDbEntity
  8
0
 62
     7
 48
0.029889
100
AcDbLine
 10
24.824413
 20
92.843933
 30
0.0
 11
26.01997
 21
92.843933
 31
0.0
210
0.0
220
0.0
230
1.0
  0
LINE
  5
379
100
AcDbEntity
  8
0
 62
     7
 48
0.025606
100
AcDbLine
 10
26.01997
 20
92.843933
 30
0.0
 11
27.044224
 21
92.843933
 31
0.0
210
0.0
220
0.0
230
1.0
  0
LINE
  5
37A
100
AcDbEntity
  8
0
 62
     7
 48
0.019182
100
AcDbLine
 10
27.044224
 20
92.843933
 30
0.0
 11
27.81152
 21
92.843933
 31
0.0
210
0.0
220
0.0
230
1.0
  0
LINE
  5
37B
100
AcDbEntity
  8
0
 62
     7
 48
0.010617
100
AcDbLine
 10
27.81152
 20
92.843933
 30
0.0
 11
28.236217
 21
92.843933
 31
0.0
210
0.0
220
0.0
230
1.0
  0
LINE
  5
37C
100
AcDbEntity
  8
0
 62
     7
 48
0.001427
100
AcDbLine
 10
28.236217
 20
92.843933
 30
0.0
 11
28.293316
 21
92.843933
 31
0.0
210
0.0
220
0.0
230
1.0
  0
ARC
  5
37D
100
AcDbEntity
  8
0
 62
     7
100
AcDbCircle
 10
28.284855
 20
92.018173
 30
0.0
 40
0.825804
210
0.0
220
0.0
230
1.0
100
AcDbArc
 50
54.389738
 51
89.413194
  0
ARC
  5
37E
100
AcDbEntity
  8
0
 62
     7
100
AcDbCircle
 10
28.281963
 20
92.035278
 30
0.0
 40
0.813674
210
0.0
220
0.0
230
1.0
100
AcDbArc
 50
18.745931
 51
53.522528
  0
LINE
  5
37F
100
AcDbEntity
  8
0
 62
     7
 48
0.006402
100
AcDbLine
 10
29.052471
 20
92.296768
 30
0.0
 11
29.093266
 21
92.043976
 31
0.0
210
0.0
220
0.0
230
1.0
  0
LINE
  5
380
100
AcDbEntity
  8
0
 62
     7
 48
0.005224
100
AcDbLine
 10
29.093266
 20
92.043976
 30
0.0
 11
29.093266
 21
91.835007
 31
0.0
210
0.0
220
0.0
230
1.0
  0
LINE
  5
381
100
AcDbEntity
  8
0
 62
     7
 48
0.014256
100
AcDbLine
 10
29.093266
 20
91.835007
 30
0.0
 11
29.093266
 21
91.264786
 31
0.0
210
0.0
220
0.0
230
1.0
  0
LINE
  5
382
100
AcDbEntity
  8
0
 62
     7
 48
0.021162
100
AcDbLine
 10
29.093266
 20
91.264786
 30
0.0
 11
29.093266
 21
90.418304
 31
0.0
210
0.0
220
0.0
230
1.0
  0
LINE
  5
383
100
AcDbEntity
  8
0
 62
     7
 48
0.025943
100
AcDbLine
 10
29.093266
 20
90.418304
 30
0.0
 11
29.093266
 21
89.380585
 31
0.0
210
0.0
220
0.0
230
1.0
  0
LINE
  5
384
100
AcDbEntity
  8
0
 62
     7
 48
0.0286
100
AcDbLine
 10
29.093266
 20
89.380585
 30
0.0
 11
29.093266
 21
88.236588
 31
0.0
210
0.0
220
0.0
230
1.0
  0
LINE
  5
385
100
AcDbEntity
  8
0
 62
     7
 48
0.029131
100
AcDbLine
 10
29.093266
 20
88.236588
 30
0.0
 11
29.093266
 21
87.07135
 31
0.0
210
0.0
220
0.0
230
1.0
  0
LINE
  5
386
100
AcDbEntity
  8
0
 62
     7
 48
0.027537
100
AcDbLine
 10
29.093266
 20
87.07135
 30
0.0
 11
29.093266
 21
85.969864
 31
0.0
210
0.0
220
0.0
230
1.0
  0
LINE
  5
387
100
AcDbEntity
  8
0
 62
     7
 48
0.023818
100
AcDbLine
 10
29.093266
 20
85.969864
 30
0.0
 11
29.093266
 21
85.017136
 31
0.0
210
0.0
220
0.0
230
1.0
  0
LINE
  5
388
100
AcDbEntity
  8
0
 62
     7
 48
0.017974
100
AcDbLine
 10
29.093266
 20
85.017136
 30
0.0
 11
29.093266
 21
84.298157
 31
0.0
210
0.0
220
0.0
230
1.0
  0
LINE
  5
389
100
AcDbEntity
  8
0
 62
     7
 48
0.010005
100
AcDbLine
 10
29.093266
 20
84.298157
 30
0.0
 11
29.093266
 21
83.897949
 31
0.0
210
0.0
220
0.0
230
1.0
  0
LINE
  5
38A
100
AcDbEntity
  8
0
 62
     7
 48
0.00135
100
AcDbLine
 10
29.093266
 20
83.897949
 30
0.0
 11
29.093266
 21
83.843933
 31
0.0
210
0.0
220
0.0
230
1.0
  0
LINE
  5
38B
100
AcDbEntity
  8
0
 62
     7
 48
0.005532
100
AcDbLine
 10
28.293316
 20
93.043747
 30
0.0
 11
28.072048
 21
93.043747
 31
0.0
210
0.0
220
0.0
230
1.0
  0
LINE
  5
38C
100
AcDbEntity
  8
0
 62
     7
 48
0.015168
100
AcDbLine
 10
28.072048
 20
93.043747
 30
0.0
 11
27.465343
 21
93.043747
 31
0.0
210
0.0
220
0.0
230
1.0
  0
LINE
  5
38D
100
AcDbEntity
  8
0
 62
     7
 48
0.022662
100
AcDbLine
 10
27.465343
 20
93.043747
 30
0.0
 11
26.558865
 21
93.043747
 31
0.0
210
0.0
220
0.0
230
1.0
  0
LINE
  5
38E
100
AcDbEntity
  8
0
 62
     7
 48
0.028015
100
AcDbLine
 10
26.558865
 20
93.043747
 30
0.0
 11
25.438251
 21
93.043747
 31
0.0
210
0.0
220
0.0
230
1.0
  0
LINE
  5
38F
100
AcDbEntity
  8
0
 62
     7
 48
0.031227
100
AcDbLine
 10
25.438251
 20
93.043747
 30
0.0
 11
24.189159
 21
93.043747
 31
0.0
210
0.0
220
0.0
230
1.0
  0
LINE
  5
390
100
AcDbEntity
  8
0
 62
     7
 48
0.032298
100
AcDbLine
 10
24.189159
 20
93.043747
 30
0.0
 11
22.897243
 21
93.043747
 31
0.0
210
0.0
220
0.0
230
1.0
  0
LINE
  5
391
100
AcDbEntity
  8
0
 62
     7
 48
0.031227
100
AcDbLine
 10
22.897243
 20
93.043747
 30
0.0
 11
21.648151
 21
93.043747
 31
0.0
210
0.0
220
0.0
230
1.0
  0
LINE
  5
392
100
AcDbEntity
  8
0
 62
     7
 48
0.028015
100
AcDbLine
 10
21.648151
 20
93.043747
 30
0.0
 11
20.527538
 21
93.043747
 31
0.0
210
0.0
220
0.0
230
1.0
  0
LINE
  5
393
100
AcDbEntity
  8
0
 62
     7
 48
0.022662
100
AcDbLine
 10
20.527538
 20
93.043747
 30
0.0
 11
19.621059
 21
93.043747
 31
0.0
210
0.0
220
0.0
230
1.0
  0
LINE
  5
394
100
AcDbEntity
  8
0
 62
     7
 48
0.015168
100
AcDbLine
 10
19.621059
 20
93.043747
 30
0.0
 11
19.014355
 21
93.043747
 31
0.0
210
0.0
220
0.0
230
1.0
  0
LINE
  5
395
100
AcDbEntity
  8
0
 62
     7
 48
0.005532
100
AcDbLine
 10
19.014355
 20
93.043747
 30
0.0
 11
18.793087
 21
93.043747
 31
0.0
210
0.0
220
0.0
230
1.0
  0
LINE
  5
396
100
AcDbEntity
  8
0
 62
     7
 48
0.008003
100
AcDbLine
 10
18.793087
 20
93.043747
 30
0.0
 11
18.477047
 21
92.992752
 31
0.0
210
0.0
220
0.0
230
1.0
  0
ARC
  5
397
100
AcDbEntity
  8
0
 62
     7
100
AcDbCircle
 10
18.80933
 20
92.022385
 30
0.0
 40
1.025676
210
0.0
220
0.0
230
1.0
100
AcDbArc
 50
108.902646
 51
143.372611
  0
ARC
  5
398
100
AcDbEntity
  8
0
 62
     7
100
AcDbCircle
 10
18.792149
 20
92.044327
 30
0.0
 40
0.998829
210
0.0
220
0.0
230
1.0
100
AcDbArc
 50
143.79443
 51
180.020086
  0
LINE
  5
399
100
AcDbEntity
  8
0
 62
     7
 48
0.00135
100
AcDbLine
 10
17.793316
 20
92.043976
 30
0.0
 11
17.793316
 21
91.98996
 31
0.0
210
0.0
220
0.0
230
1.0
  0
LINE
  5
39A
100
AcDbEntity
  8
0
 62
     7
 48
0.010005
100
AcDbLine
 10
17.793316
 20
91.98996
 30
0.0
 11
17.793316
 21
91.589752
 31
0.0
210
0.0
220
0.0
230
1.0
  0
LINE
  5
39B
100
AcDbEntity
  8
0
 62
     7
 48
0.017974
100
AcDbLine
 10
17.793316
 20
91.589752
 30
0.0
 11
17.793316
 21
90.870773
 31
0.0
210
0.0
220
0.0
230
1.0
  0
LINE
  5
39C
100
AcDbEntity
  8
0
 62
     7
 48
0.023818
100
AcDbLine
 10
17.793316
 20
90.870773
 30
0.0
 11
17.793316
 21
89.918045
 31
0.0
210
0.0
220
0.0
230
1.0
  0
LINE
  5
39D
100
AcDbEntity
  8
0
 62
     7
 48
0.027537
100
AcDbLine
 10
17.793316
 20
89.918045
 30
0.0
 11
17.793316
 21
88.816559
 31
0.0
210
0.0
220
0.0
230
1.0
  0
LINE
  5
39E
100
AcDbEntity
  8
0
 62
     7
 48
0.029131
100
AcDbLine
 10
17.793316
 20
88.816559
 30
0.0
 11
17.793316
 21
87.651321
 31
0.0
210
0.0
220
0.0
230
1.0
  0
LINE
  5
39F
100
AcDbEntity
  8
0
 62
     7
 48
0.0286
100
AcDbLine
 10
17.793316
 20
87.651321
 30
0.0
 11
17.793316
 21
86.507324
 31
0.0
210
0.0
220
0.0
230
1.0
  0
LINE
  5
3A0
100
AcDbEntity
  8
0
 62
     7
 48
0.025943
100
AcDbLine
 10
17.793316
 20
86.507324
 30
0.0
 11
17.793316
 21
85.469604
 31
0.0
210
0.0
220
0.0
230
1.0
  0
LINE
  5
3A1
100
AcDbEntity
  8
0
 62
     7
 48
0.021162
100
AcDbLine
 10
17.793316
 20
85.469604
 30
0.0
 11
17.793316
 21
84.623123
 31
0.0
210
0.0
220
0.0
230
1.0
  0
LINE
  5
3A2
100
AcDbEntity
  8
0
 62
     7
 48
0.014256
100
AcDbLine
 10
17.793316
 20
84.623123
 30
0.0
 11
17.793316
 21
84.052902
 31
0.0
210
0.0
220
0.0
230
1.0
  0
LINE
  5
3A3
100
AcDbEntity
  8
0
 62
     7
 48
0.005224
100
AcDbLine
 10
17.793316
 20
84.052902
 30
0.0
 11
17.793316
 21
83.843933
 31
0.0
210
0.0
220
0.0
230
1.0
  0
LINE
  5
3A4
100
AcDbEntity
  8
0
 62
     7
 48
0.008006
100
AcDbLine
 10
17.793316
 20
83.843933
 30
0.0
 11
17.84428
 21
83.527756
 31
0.0
210
0.0
220
0.0
230
1.0
  0
ARC
  5
3A5
100
AcDbEntity
  8
0
 62
     7
100
AcDbCircle
 10
18.814037
 20
83.859512
 30
0.0
 40
1.024935
210
0.0
220
0.0
230
1.0
100
AcDbArc
 50
198.885615
 51
233.375679
  0
ARC
  5
3A6
100
AcDbEntity
  8
0
 62
     7
100
AcDbCircle
 10
18.792492
 20
83.843109
 30
0.0
 40
0.998941
210
0.0
220
0.0
230
1.0
100
AcDbArc
 50
233.806174
 51
270.034288
  0
LINE
  5
3A7
100
AcDbEntity
  8
0
 62
     7
 48
0.001427
100
AcDbLine
 10
18.793087
 20
82.844162
 30
0.0
 11
18.850185
 21
82.844162
 31
0.0
210
0.0
220
0.0
230
1.0
  0
LINE
  5
3A8
100
AcDbEntity
  8
0
 62
     7
 48
0.010617
100
AcDbLine
 10
18.850185
 20
82.844162
 30
0.0
 11
19.274883
 21
82.844162
 31
0.0
210
0.0
220
0.0
230
1.0
  0
LINE
  5
3A9
100
AcDbEntity
  8
0
 62
     7
 48
0.019182
100
AcDbLine
 10
19.274883
 20
82.844162
 30
0.0
 11
20.042179
 21
82.844162
 31
0.0
210
0.0
220
0.0
230
1.0
  0
LINE
  5
3AA
100
AcDbEntity
  8
0
 62
     7
 48
0.025606
100
AcDbLine
 10
20.042179
 20
82.844162
 30
0.0
 11
21.066433
 21
82.844162
 31
0.0
210
0.0
220
0.0
230
1.0
  0
LINE
  5
3AB
100
AcDbEntity
  8
0
 62
     7
 48
0.029889
100
AcDbLine
 10
21.066433
 20
82.844162
 30
0.0
 11
22.26199
 21
82.844162
 31
0.0
210
0.0
220
0.0
230
1.0
  0
LINE
  5
3AC
100
AcDbEntity
  8
0
 62
     7
 48
0.03203
100
AcDbLine
 10
22.26199
 20
82.844162
 30
0.0
 11
23.543201
 21
82.844162
 31
0.0
210
0.0
220
0.0
230
1.0
  0
LINE
  5
3AD
100
AcDbEntity
  8
0
 62
     7
 48
0.03203
100
AcDbLine
 10
23.543201
 20
82.844162
 30
0.0
 11
24.824413
 21
82.844162
 31
0.0
210
0.0
220
0.0
230
1.0
  0
LINE
  5
3AE
100
AcDbEntity
  8
0
 62
     7
 48
0.029889
100
AcDbLine
 10
24.824413
 20
82.844162
 30
0.0
 11
26.01997
 21
82.844162
 31
0.0
210
0.0
220
0.0
230
1.0
  0
LINE
  5
3AF
100
AcDbEntity
  8
0
 62
     7
 48
0.025606
100
AcDbLine
 10
26.01997
 20
82.844162
 30
0.0
 11
27.044224
 21
82.844162
 31
0.0
210
0.0
220
0.0
230
1.0
  0
LINE
  5
3B0
100
AcDbEntity
  8
0
 62
     7
 48
0.019182
100
AcDbLine
 10
27.044224
 20
82.844162
 30
0.0
 11
27.81152
 21
82.844162
 31
0.0
210
0.0
220
0.0
230
1.0
  0
LINE
  5
3B1
100
AcDbEntity
  8
0
 62
     7
 48
0.010617
100
AcDbLine
 10
27.81152
 20
82.844162
 30
0.0
 11
28.236217
 21
82.844162
 31
0.0
210
0.0
220
0.0
230
1.0
  0
LINE
  5
3B2
100
AcDbEntity
  8
0
 62
     7
 48
0.001427
100
AcDbLine
 10
28.236217
 20
82.844162
 30
0.0
 11
28.293316
 21
82.844162
 31
0.0
210
0.0
220
0.0
230
1.0
  0
ARC
  5
3B3
100
AcDbEntity
  8
0
 62
     7
100
AcDbCircle
 10
28.282833
 20
83.876572
 30
0.0
 40
1.032467
210
0.0
220
0.0
230
1.0
100
AcDbArc
 50
270.58166
 51
305.586406
  0
ARC
  5
3B4
100
AcDbEntity
  8
0
 62
     7
100
AcDbCircle
 10
28.279911
 20
83.854111
 30
0.0
 40
1.01602
210
0.0
220
0.0
230
1.0
100
AcDbArc
 50
306.457339
 51
341.263736
  0
LINE
  5
3B5
100
AcDbEntity
  8
0
 62
     7
 48
0.008007
100
AcDbLine
 10
29.242092
 20
83.527756
 30
0.0
 11
29.293087
 21
83.843933
 31
0.0
210
0.0
220
0.0
230
1.0
  0
LINE
  5
3B6
100
AcDbEntity
  8
0
 62
     7
 48
0.005224
100
AcDbLine
 10
29.293087
 20
83.843933
 30
0.0
 11
29.293087
 21
84.052902
 31
0.0
210
0.0
220
0.0
230
1.0
  0
LINE
  5
3B7
100
AcDbEntity
  8
0
 62
     7
 48
0.014256
100
AcDbLine
 10
29.293087
 20
84.052902
 30
0.0
 11
29.293087
 21
84.623123
 31
0.0
210
0.0
220
0.0
230
1.0
  0
LINE
  5
3B8
100
AcDbEntity
  8
0
 62
     7
 48
0.021162
100
AcDbLine
 10
29.293087
 20
84.623123
 30
0.0
 11
29.293087
 21
85.469604
 31
0.0
210
0.0
220
0.0
230
1.0
  0
LINE
  5
3B9
100
AcDbEntity
  8
0
 62
     7
 48
0.025943
100
AcDbLine
 10
29.293087
 20
85.469604
 30
0.0
 11
29.293087
 21
86.507324
 31
0.0
210
0.0
220
0.0
230
1.0
  0
LINE
  5
3BA
100
AcDbEntity
  8
0
 62
     7
 48
0.0286
100
AcDbLine
 10
29.293087
 20
86.507324
 30
0.0
 11
29.293087
 21
87.651321
 31
0.0
210
0.0
220
0.0
230
1.0
  0
LINE
  5
3BB
100
AcDbEntity
  8
0
 62
     7
 48
0.029131
100
AcDbLine
 10
29.293087
 20
87.651321
 30
0.0
 11
29.293087
 21
88.816559
 31
0.0
210
0.0
220
0.0
230
1.0
  0
LINE
  5
3BC
100
AcDbEntity
  8
0
 62
     7
 48
0.027537
100
AcDbLine
 10
29.293087
 20
88.816559
 30
0.0
 11
29.293087
 21
89.918045
 31
0.0
210
0.0
220
0.0
230
1.0
  0
LINE
  5
3BD
100
AcDbEntity
  8
0
 62
     7
 48
0.023818
100
AcDbLine
 10
29.293087
 20
89.918045
 30
0.0
 11
29.293087
 21
90.870773
 31
0.0
210
0.0
220
0.0
230
1.0
  0
LINE
  5
3BE
100
AcDbEntity
  8
0
 62
     7
 48
0.017974
100
AcDbLine
 10
29.293087
 20
90.870773
 30
0.0
 11
29.293087
 21
91.589752
 31
0.0
210
0.0
220
0.0
230
1.0
  0
LINE
  5
3BF
100
AcDbEntity
  8
0
 62
     7
 48
0.010005
100
AcDbLine
 10
29.293087
 20
91.589752
 30
0.0
 11
29.293087
 21
91.98996
 31
0.0
210
0.0
220
0.0
230
1.0
  0
LINE
  5
3C0
100
AcDbEntity
  8
0
 62
     7
 48
0.00135
100
AcDbLine
 10
29.293087
 20
91.98996
 30
0.0
 11
29.293087
 21
92.043976
 31
0.0
210
0.0
220
0.0
230
1.0
  0
ARC
  5
3C1
100
AcDbEntity
  8
0
 62
     7
100
AcDbCircle
 10
28.261181
 20
92.033386
 30
0.0
 40
1.031955
210
0.0
220
0.0
230
1.0
100
AcDbArc
 50
0.588301
 51
35.614576
  0
ARC
  5
3C2
100
AcDbEntity
  8
0
 62
     7
100
AcDbCircle
 10
28.282276
 20
92.029617
 30
0.0
 40
1.017119
210
0.0
220
0.0
230
1.0
100
AcDbArc
 50
36.478857
 51
71.249563
  0
LINE
  5
3C3
100
AcDbEntity
  8
0
 62
     7
 48
0.008
100
AcDbLine
 10
28.609226
 20
92.992752
 30
0.0
 11
28.293316
 21
93.043747
 31
0.0
210
0.0
220
0.0
230
1.0
  0
ARC
  5
3C4
100
AcDbEntity
  8
0
 62
     7
100
AcDbCircle
 10
28.267506
 20
98.151993
 30
0.0
 40
0.825804
210
0.0
220
0.0
230
1.0
100
AcDbArc
 50
324.389726
 51
359.413187
  0
ARC
  5
3C5
100
AcDbEntity
  8
0
 62
     7
100
AcDbCircle
 10
28.284618
 20
98.154892
 30
0.0
 40
0.813674
210
0.0
220
0.0
230
1.0
100
AcDbArc
 50
288.74592
 51
323.522537
  0
LINE
  5
3C6
100
AcDbEntity
  8
0
 62
     7
 48
0.006402
100
AcDbLine
 10
28.546108
 20
97.384384
 30
0.0
 11
28.293316
 21
97.343582
 31
0.0
210
0.0
220
0.0
230
1.0
  0
LINE
  5
3C7
100
AcDbEntity
  8
0
 62
     7
 48
0.004673
100
AcDbLine
 10
28.293316
 20
97.343582
 30
0.0
 11
28.106388
 21
97.343582
 31
0.0
210
0.0
220
0.0
230
1.0
  0
LINE
  5
3C8
100
AcDbEntity
  8
0
 62
     7
 48
0.01292
100
AcDbLine
 10
28.106388
 20
97.343582
 30
0.0
 11
27.589596
 21
97.343582
 31
0.0
210
0.0
220
0.0
230
1.0
  0
LINE
  5
3C9
100
AcDbEntity
  8
0
 62
     7
 48
0.019517
100
AcDbLine
 10
27.589596
 20
97.343582
 30
0.0
 11
26.808903
 21
97.343582
 31
0.0
210
0.0
220
0.0
230
1.0
  0
LINE
  5
3CA
100
AcDbEntity
  8
0
 62
     7
 48
0.024465
100
AcDbLine
 10
26.808903
 20
97.343582
 30
0.0
 11
25.830296
 21
97.343582
 31
0.0
210
0.0
220
0.0
230
1.0
  0
LINE
  5
3CB
100
AcDbEntity
  8
0
 62
     7
 48
0.027764
100
AcDbLine
 10
25.830296
 20
97.343582
 30
0.0
 11
24.719738
 21
97.343582
 31
0.0
210
0.0
220
0.0
230
1.0
  0
LINE
  5
3CC
100
AcDbEntity
  8
0
 62
     7
 48
0.029413
100
AcDbLine
 10
24.719738
 20
97.343582
 30
0.0
 11
23.543201
 21
97.343582
 31
0.0
210
0.0
220
0.0
230
1.0
  0
LINE
  5
3CD
100
AcDbEntity
  8
0
 62
     7
 48
0.029413
100
AcDbLine
 10
23.543201
 20
97.343582
 30
0.0
 11
22.366665
 21
97.343582
 31
0.0
210
0.0
220
0.0
230
1.0
  0
LINE
  5
3CE
100
AcDbEntity
  8
0
 62
     7
 48
0.027764
100
AcDbLine
 10
22.366665
 20
97.343582
 30
0.0
 11
21.256107
 21
97.343582
 31
0.0
210
0.0
220
0.0
230
1.0
  0
LINE
  5
3CF
100
AcDbEntity
  8
0
 62
     7
 48
0.024465
100
AcDbLine
 10
21.256107
 20
97.343582
 30
0.0
 11
20.2775
 21
97.343582
 31
0.0
210
0.0
220
0.0
230
1.0
  0
LINE
  5
3D0
100
AcDbEntity
  8
0
 62
     7
 48
0.019517
100
AcDbLine
 10
20.2775
 20
97.343582
 30
0.0
 11
19.496807
 21
97.343582
 31
0.0
210
0.0
220
0.0
230
1.0
  0
LINE
  5
3D1
100
AcDbEntity
  8
0
 62
     7
 48
0.01292
100
AcDbLine
 10
19.496807
 20
97.343582
 30
0.0
 11
18.980015
 21
97.343582
 31
0.0
210
0.0
220
0.0
230
1.0
  0
LINE
  5
3D2
100
AcDbEntity
  8
0
 62
     7
 48
0.004673
100
AcDbLine
 10
18.980015
 20
97.343582
 30
0.0
 11
18.793087
 21
97.343582
 31
0.0
210
0.0
220
0.0
230
1.0
  0
LINE
  5
3D3
100
AcDbEntity
  8
0
 62
     7
 48
0.006402
100
AcDbLine
 10
18.793087
 20
97.343582
 30
0.0
 11
18.540295
 21
97.384384
 31
0.0
210
0.0
220
0.0
230
1.0
  0
ARC
  5
3D4
100
AcDbEntity
  8
0
 62
     7
100
AcDbCircle
 10
18.806232
 20
98.16098
 30
0.0
 40
0.820868
210
0.0
220
0.0
230
1.0
100
AcDbArc
 50
216.634667
 51
251.096877
  0
ARC
  5
3D5
100
AcDbEntity
  8
0
 62
     7
100
AcDbCircle
 10
18.792217
 20
98.14328
 30
0.0
 40
0.799085
210
0.0
220
0.0
230
1.0
100
AcDbArc
 50
179.981318
 51
216.215758
  0
LINE
  5
3D6
100
AcDbEntity
  8
0
 62
     7
 48
0.001222
100
AcDbLine
 10
17.993137
 20
98.143539
 30
0.0
 11
17.993137
 21
98.192413
 31
0.0
210
0.0
220
0.0
230
1.0
  0
LINE
  5
3D7
100
AcDbEntity
  8
0
 62
     7
 48
0.008877
100
AcDbLine
 10
17.993137
 20
98.192413
 30
0.0
 11
17.993137
 21
98.547501
 31
0.0
210
0.0
220
0.0
230
1.0
  0
LINE
  5
3D8
100
AcDbEntity
  8
0
 62
     7
 48
0.01546
100
AcDbLine
 10
17.993137
 20
98.547501
 30
0.0
 11
17.993137
 21
99.165894
 31
0.0
210
0.0
220
0.0
230
1.0
  0
LINE
  5
3D9
100
AcDbEntity
  8
0
 62
     7
 48
0.019649
100
AcDbLine
 10
17.993137
 20
99.165894
 30
0.0
 11
17.993137
 21
99.951859
 31
0.0
210
0.0
220
0.0
230
1.0
  0
LINE
  5
3DA
100
AcDbEntity
  8
0
 62
     7
 48
0.021445
100
AcDbLine
 10
17.993137
 20
99.951859
 30
0.0
 11
17.993137
 21
100.809647
 31
0.0
210
0.0
220
0.0
230
1.0
  0
LINE
  5
3DB
100
AcDbEntity
  8
0
 62
     7
 48
0.020846
100
AcDbLine
 10
17.993137
 20
100.809647
 30
0.0
 11
17.993137
 21
101.643478
 31
0.0
210
0.0
220
0.0
230
1.0
  0
LINE
  5
3DC
100
AcDbEntity
  8
0
 62
     7
 48
0.017854
100
AcDbLine
 10
17.993137
 20
101.643478
 30
0.0
 11
17.993137
 21
102.357635
 31
0.0
210
0.0
220
0.0
230
1.0
  0
LINE
  5
3DD
100
AcDbEntity
  8
0
 62
     7
 48
0.012468
100
AcDbLine
 10
17.993137
 20
102.357635
 30
0.0
 11
17.993137
 21
102.856339
 31
0.0
210
0.0
220
0.0
230
1.0
  0
LINE
  5
3DE
100
AcDbEntity
  8
0
 62
     7
 48
0.004688
100
AcDbLine
 10
17.993137
 20
102.856339
 30
0.0
 11
17.993137
 21
103.043854
 31
0.0
210
0.0
220
0.0
230
1.0
  0
LINE
  5
3DF
100
AcDbEntity
  8
0
 62
     7
 48
0.006402
100
AcDbLine
 10
17.993137
 20
103.043854
 30
0.0
 11
18.033932
 21
103.296646
 31
0.0
210
0.0
220
0.0
230
1.0
  0
ARC
  5
3E0
100
AcDbEntity
  8
0
 62
     7
100
AcDbCircle
 10
18.810528
 20
103.030716
 30
0.0
 40
0.820868
210
0.0
220
0.0
230
1.0
100
AcDbArc
 50
126.63467
 51
161.096868
  0
ARC
  5
3E1
100
AcDbEntity
  8
0
 62
     7
100
AcDbCircle
 10
18.792828
 20
103.044724
 30
0.0
 40
0.799085
210
0.0
220
0.0
230
1.0
100
AcDbArc
 50
89.981308
 51
126.215762
  0
LINE
  5
3E2
100
AcDbEntity
  8
0
 62
     7
 48
0.001203
100
AcDbLine
 10
18.793087
 20
103.843811
 30
0.0
 11
18.84119
 21
103.843811
 31
0.0
210
0.0
220
0.0
230
1.0
  0
LINE
  5
3E3
100
AcDbEntity
  8
0
 62
     7
 48
0.009003
100
AcDbLine
 10
18.84119
 20
103.843811
 30
0.0
 11
19.201298
 21
103.843811
 31
0.0
210
0.0
220
0.0
230
1.0
  0
LINE
  5
3E4
100
AcDbEntity
  8
0
 62
     7
 48
0.016425
100
AcDbLine
 10
19.201298
 20
103.843811
 30
0.0
 11
19.858288
 21
103.843811
 31
0.0
210
0.0
220
0.0
230
1.0
  0
LINE
  5
3E5
100
AcDbEntity
  8
0
 62
     7
 48
0.022198
100
AcDbLine
 10
19.858288
 20
103.843811
 30
0.0
 11
20.746189
 21
103.843811
 31
0.0
210
0.0
220
0.0
230
1.0
  0
LINE
  5
3E6
100
AcDbEntity
  8
0
 62
     7
 48
0.026321
100
AcDbLine
 10
20.746189
 20
103.843811
 30
0.0
 11
21.799023
 21
103.843811
 31
0.0
210
0.0
220
0.0
230
1.0
  0
LINE
  5
3E7
100
AcDbEntity
  8
0
 62
     7
 48
0.028795
100
AcDbLine
 10
21.799023
 20
103.843811
 30
0.0
 11
22.950809
 21
103.843811
 31
0.0
210
0.0
220
0.0
230
1.0
  0
LINE
  5
3E8
100
AcDbEntity
  8
0
 62
     7
 48
0.02962
100
AcDbLine
 10
22.950809
 20
103.843811
 30
0.0
 11
24.135593
 21
103.843811
 31
0.0
210
0.0
220
0.0
230
1.0
  0
LINE
  5
3E9
100
AcDbEntity
  8
0
 62
     7
 48
0.028795
100
AcDbLine
 10
24.135593
 20
103.843811
 30
0.0
 11
25.28738
 21
103.843811
 31
0.0
210
0.0
220
0.0
230
1.0
  0
LINE
  5
3EA
100
AcDbEntity
  8
0
 62
     7
 48
0.026321
100
AcDbLine
 10
25.28738
 20
103.843811
 30
0.0
 11
26.340214
 21
103.843811
 31
0.0
210
0.0
220
0.0
230
1.0
  0
LINE
  5
3EB
100
AcDbEntity
  8
0
 62
     7
 48
0.022198
100
AcDbLine
 10
26.340214
 20
103.843811
 30
0.0
 11
27.228115
 21
103.843811
 31
0.0
210
0.0
220
0.0
230
1.0
  0
LINE
  5
3EC
100
AcDbEntity
  8
0
 62
     7
 48
0.016425
100
AcDbLine
 10
27.228115
 20
103.843811
 30
0.0
 11
27.885105
 21
103.843811
 31
0.0
210
0.0
220
0.0
230
1.0
  0
LINE
  5
3ED
100
AcDbEntity
  8
0
 62
     7
 48
0.009003
100
AcDbLine
 10
27.885105
 20
103.843811
 30
0.0
 11
28.245213
 21
103.843811
 31
0.0
210
0.0
220
0.0
230
1.0
  0
LINE
  5
3EE
100
AcDbEntity
  8
0
 62
     7
 48
0.001203
100
AcDbLine
 10
28.245213
 20
103.843811
 30
0.0
 11
28.293316
 21
103.843811
 31
0.0
210
0.0
220
0.0
230
1.0
  0
ARC
  5
3EF
100
AcDbEntity
  8
0
 62
     7
100
AcDbCircle
 10
28.284855
 20
103.018051
 30
0.0
 40
0.825804
210
0.0
220
0.0
230
1.0
100
AcDbArc
 50
54.389738
 51
89.413194
  0
ARC
  5
3F0
100
AcDbEntity
  8
0
 62
     7
100
AcDbCircle
 10
28.281963
 20
103.035156
 30
0.0
 40
0.813674
210
0.0
220
0.0
230
1.0
100
AcDbArc
 50
18.745931
 51
53.522528
  0
LINE
  5
3F1
100
AcDbEntity
  8
0
 62
     7
 48
0.006402
100
AcDbLine
 10
29.052471
 20
103.296646
 30
0.0
 11
29.093266
 21
103.043854
 31
0.0
210
0.0
220
0.0
230
1.0
  0
LINE
  5
3F2
100
AcDbEntity
  8
0
 62
     7
 48
0.004688
100
AcDbLine
 10
29.093266
 20
103.043854
 30
0.0
 11
29.093266
 21
102.856339
 31
0.0
210
0.0
220
0.0
230
1.0
  0
LINE
  5
3F3
100
AcDbEntity
  8
0
 62
     7
 48
0.012468
100
AcDbLine
 10
29.093266
 20
102.856339
 30
0.0
 11
29.093266
 21
102.357635
 31
0.0
210
0.0
220
0.0
230
1.0
  0
LINE
  5
3F4
100
AcDbEntity
  8
0
 62
     7
 48
0.017854
100
AcDbLine
 10
29.093266
 20
102.357635
 30
0.0
 11
29.093266
 21
101.643478
 31
0.0
210
0.0
220
0.0
230
1.0
  0
LINE
  5
3F5
100
AcDbEntity
  8
0
 62
     7
 48
0.020846
100
AcDbLine
 10
29.093266
 20
101.643478
 30
0.0
 11
29.093266
 21
100.809647
 31
0.0
210
0.0
220
0.0
230
1.0
  0
LINE
  5
3F6
100
AcDbEntity
  8
0
 62
     7
 48
0.021445
100
AcDbLine
 10
29.093266
 20
100.809647
 30
0.0
 11
29.093266
 21
99.951859
 31
0.0
210
0.0
220
0.0
230
1.0
  0
LINE
  5
3F7
100
AcDbEntity
  8
0
 62
     7
 48
0.019649
100
AcDbLine
 10
29.093266
 20
99.951859
 30
0.0
 11
29.093266
 21
99.165894
 31
0.0
210
0.0
220
0.0
230
1.0
  0
LINE
  5
3F8
100
AcDbEntity
  8
0
 62
     7
 48
0.01546
100
AcDbLine
 10
29.093266
 20
99.165894
 30
0.0
 11
29.093266
 21
98.547501
 31
0.0
210
0.0
220
0.0
230
1.0
  0
LINE
  5
3F9
100
AcDbEntity
  8
0
 62
     7
 48
0.008877
100
AcDbLine
 10
29.093266
 20
98.547501
 30
0.0
 11
29.093266
 21
98.192413
 31
0.0
210
0.0
220
0.0
230
1.0
  0
LINE
  5
3FA
100
AcDbEntity
  8
0
 62
     7
 48
0.001222
100
AcDbLine
 10
29.093266
 20
98.192413
 30
0.0
 11
29.093266
 21
98.143539
 31
0.0
210
0.0
220
0.0
230
1.0
  0
LINE
  5
3FB
100
AcDbEntity
  8
0
 62
     7
 48
0.004673
100
AcDbLine
 10
28.293316
 20
104.044312
 30
0.0
 11
28.106388
 21
104.044312
 31
0.0
210
0.0
220
0.0
230
1.0
  0
LINE
  5
3FC
100
AcDbEntity
  8
0
 62
     7
 48
0.01292
100
AcDbLine
 10
28.106388
 20
104.044312
 30
0.0
 11
27.589596
 21
104.044312
 31
0.0
210
0.0
220
0.0
230
1.0
  0
LINE
  5
3FD
100
AcDbEntity
  8
0
 62
     7
 48
0.019517
100
AcDbLine
 10
27.589596
 20
104.044312
 30
0.0
 11
26.808903
 21
104.044312
 31
0.0
210
0.0
220
0.0
230
1.0
  0
LINE
  5
3FE
100
AcDbEntity
  8
0
 62
     7
 48
0.024465
100
AcDbLine
 10
26.808903
 20
104.044312
 30
0.0
 11
25.830296
 21
104.044312
 31
0.0
210
0.0
220
0.0
230
1.0
  0
LINE
  5
3FF
100
AcDbEntity
  8
0
 62
     7
 48
0.027764
100
AcDbLine
 10
25.830296
 20
104.044312
 30
0.0
 11
24.719738
 21
104.044312
 31
0.0
210
0.0
220
0.0
230
1.0
  0
LINE
  5
400
100
AcDbEntity
  8
0
 62
     7
 48
0.029413
100
AcDbLine
 10
24.719738
 20
104.044312
 30
0.0
 11
23.543201
 21
104.044312
 31
0.0
210
0.0
220
0.0
230
1.0
  0
LINE
  5
401
100
AcDbEntity
  8
0
 62
     7
 48
0.029413
100
AcDbLine
 10
23.543201
 20
104.044312
 30
0.0
 11
22.366665
 21
104.044312
 31
0.0
210
0.0
220
0.0
230
1.0
  0
LINE
  5
402
100
AcDbEntity
  8
0
 62
     7
 48
0.027764
100
AcDbLine
 10
22.366665
 20
104.044312
 30
0.0
 11
21.256107
 21
104.044312
 31
0.0
210
0.0
220
0.0
230
1.0
  0
LINE
  5
403
100
AcDbEntity
  8
0
 62
     7
 48
0.024465
100
AcDbLine
 10
21.256107
 20
104.044312
 30
0.0
 11
20.2775
 21
104.044312
 31
0.0
210
0.0
220
0.0
230
1.0
  0
LINE
  5
404
100
AcDbEntity
  8
0
 62
     7
 48
0.019517
100
AcDbLine
 10
20.2775
 20
104.044312
 30
0.0
 11
19.496807
 21
104.044312
 31
0.0
210
0.0
220
0.0
230
1.0
  0
LINE
  5
405
100
AcDbEntity
  8
0
 62
     7
 48
0.01292
100
AcDbLine
 10
19.496807
 20
104.044312
 30
0.0
 11
18.980015
 21
104.044312
 31
0.0
210
0.0
220
0.0
230
1.0
  0
LINE
  5
406
100
AcDbEntity
  8
0
 62
     7
 48
0.004673
100
AcDbLine
 10
18.980015
 20
104.044312
 30
0.0
 11
18.793087
 21
104.044312
 31
0.0
210
0.0
220
0.0
230
1.0
  0
LINE
  5
407
100
AcDbEntity
  8
0
 62
     7
 48
0.006705
100
AcDbLine
 10
18.793087
 20
104.044312
 30
0.0
 11
18.527279
 21
104.008591
 31
0.0
210
0.0
220
0.0
230
1.0
  0
ARC
  5
408
100
AcDbEntity
  8
0
 62
     7
100
AcDbCircle
 10
18.803478
 20
103.028061
 30
0.0
 40
1.018682
210
0.0
220
0.0
230
1.0
100
AcDbArc
 50
105.732032
 51
134.766258
  0
ARC
  5
409
100
AcDbEntity
  8
0
 62
     7
100
AcDbCircle
 10
18.798748
 20
103.040726
 30
0.0
 40
1.006377
210
0.0
220
0.0
230
1.0
100
AcDbArc
 50
135.082713
 51
164.489711
  0
LINE
  5
40A
100
AcDbEntity
  8
0
 62
     7
 48
0.006709
100
AcDbLine
 10
17.829021
 20
103.309845
 30
0.0
 11
17.793316
 21
103.043854
 31
0.0
210
0.0
220
0.0
230
1.0
  0
LINE
  5
40B
100
AcDbEntity
  8
0
 62
     7
 48
0.004687
100
AcDbLine
 10
17.793316
 20
103.043854
 30
0.0
 11
17.793316
 21
102.856369
 31
0.0
210
0.0
220
0.0
230
1.0
  0
LINE
  5
40C
100
AcDbEntity
  8
0
 62
     7
 48
0.012466
100
AcDbLine
 10
17.793316
 20
102.856369
 30
0.0
 11
17.793316
 21
102.357727
 31
0.0
210
0.0
220
0.0
230
1.0
  0
LINE
  5
40D
100
AcDbEntity
  8
0
 62
     7
 48
0.017851
100
AcDbLine
 10
17.793316
 20
102.357727
 30
0.0
 11
17.793316
 21
101.643677
 31
0.0
210
0.0
220
0.0
230
1.0
  0
LINE
  5
40E
100
AcDbEntity
  8
0
 62
     7
 48
0.020843
100
AcDbLine
 10
17.793316
 20
101.643677
 30
0.0
 11
17.793316
 21
100.809952
 31
0.0
210
0.0
220
0.0
230
1.0
  0
LINE
  5
40F
100
AcDbEntity
  8
0
 62
     7
 48
0.021441
100
AcDbLine
 10
17.793316
 20
100.809952
 30
0.0
 11
17.793316
 21
99.952301
 31
0.0
210
0.0
220
0.0
230
1.0
  0
LINE
  5
410
100
AcDbEntity
  8
0
 62
     7
 48
0.019646
100
AcDbLine
 10
17.793316
 20
99.952301
 30
0.0
 11
17.793316
 21
99.166443
 31
0.0
210
0.0
220
0.0
230
1.0
  0
LINE
  5
411
100
AcDbEntity
  8
0
 62
     7
 48
0.015458
100
AcDbLine
 10
17.793316
 20
99.166443
 30
0.0
 11
17.793316
 21
98.548126
 31
0.0
210
0.0
220
0.0
230
1.0
  0
LINE
  5
412
100
AcDbEntity
  8
0
 62
     7
 48
0.008876
100
AcDbLine
 10
17.793316
 20
98.548126
 30
0.0
 11
17.793316
 21
98.1931
 31
0.0
210
0.0
220
0.0
230
1.0
  0
LINE
  5
413
100
AcDbEntity
  8
0
 62
     7
 48
0.001222
100
AcDbLine
 10
17.793316
 20
98.1931
 30
0.0
 11
17.793316
 21
98.144226
 31
0.0
210
0.0
220
0.0
230
1.0
  0
ARC
  5
414
100
AcDbEntity
  8
0
 62
     7
100
AcDbCircle
 10
18.820713
 20
98.15097
 30
0.0
 40
1.027418
210
0.0
220
0.0
230
1.0
100
AcDbArc
 50
180.375788
 51
209.871646
  0
ARC
  5
415
100
AcDbEntity
  8
0
 62
     7
100
AcDbCircle
 10
18.806622
 20
98.156815
 30
0.0
 40
1.018182
210
0.0
220
0.0
230
1.0
100
AcDbArc
 50
210.551648
 51
239.407609
  0
ARC
  5
416
100
AcDbEntity
  8
0
 62
     7
100
AcDbCircle
 10
18.790997
 20
98.136642
 30
0.0
 40
0.992878
210
0.0
220
0.0
230
1.0
100
AcDbArc
 50
239.591505
 51
270.120485
  0
LINE
  5
417
100
AcDbEntity
  8
0
 62
     7
 48
0.001203
100
AcDbLine
 10
18.793087
 20
97.143768
 30
0.0
 11
18.84119
 21
97.143768
 31
0.0
210
0.0
220
0.0
230
1.0
  0
LINE
  5
418
100
AcDbEntity
  8
0
 62
     7
 48
0.009003
100
AcDbLine
 10
18.84119
 20
97.143768
 30
0.0
 11
19.201298
 21
97.143768
 31
0.0
210
0.0
220
0.0
230
1.0
  0
LINE
  5
419
100
AcDbEntity
  8
0
 62
     7
 48
0.016425
100
AcDbLine
 10
19.201298
 20
97.143768
 30
0.0
 11
19.858288
 21
97.143768
 31
0.0
210
0.0
220
0.0
230
1.0
  0
LINE
  5
41A
100
AcDbEntity
  8
0
 62
     7
 48
0.022198
100
AcDbLine
 10
19.858288
 20
97.143768
 30
0.0
 11
20.746189
 21
97.143768
 31
0.0
210
0.0
220
0.0
230
1.0
  0
LINE
  5
41B
100
AcDbEntity
  8
0
 62
     7
 48
0.026321
100
AcDbLine
 10
20.746189
 20
97.143768
 30
0.0
 11
21.799023
 21
97.143768
 31
0.0
210
0.0
220
0.0
230
1.0
  0
LINE
  5
41C
100
AcDbEntity
  8
0
 62
     7
 48
0.028795
100
AcDbLine
 10
21.799023
 20
97.143768
 30
0.0
 11
22.950809
 21
97.143768
 31
0.0
210
0.0
220
0.0
230
1.0
  0
LINE
  5
41D
100
AcDbEntity
  8
0
 62
     7
 48
0.02962
100
AcDbLine
 10
22.950809
 20
97.143768
 30
0.0
 11
24.135593
 21
97.143768
 31
0.0
210
0.0
220
0.0
230
1.0
  0
LINE
  5
41E
100
AcDbEntity
  8
0
 62
     7
 48
0.028795
100
AcDbLine
 10
24.135593
 20
97.143768
 30
0.0
 11
25.28738
 21
97.143768
 31
0.0
210
0.0
220
0.0
230
1.0
  0
LINE
  5
41F
100
AcDbEntity
  8
0
 62
     7
 48
0.026321
100
AcDbLine
 10
25.28738
 20
97.143768
 30
0.0
 11
26.340214
 21
97.143768
 31
0.0
210
0.0
220
0.0
230
1.0
  0
LINE
  5
420
100
AcDbEntity
  8
0
 62
     7
 48
0.022198
100
AcDbLine
 10
26.340214
 20
97.143768
 30
0.0
 11
27.228115
 21
97.143768
 31
0.0
210
0.0
220
0.0
230
1.0
  0
LINE
  5
421
100
AcDbEntity
  8
0
 62
     7
 48
0.016425
100
AcDbLine
 10
27.228115
 20
97.143768
 30
0.0
 11
27.885105
 21
97.143768
 31
0.0
210
0.0
220
0.0
230
1.0
  0
LINE
  5
422
100
AcDbEntity
  8
0
 62
     7
 48
0.009003
100
AcDbLine
 10
27.885105
 20
97.143768
 30
0.0
 11
28.245213
 21
97.143768
 31
0.0
210
0.0
220
0.0
230
1.0
  0
LINE
  5
423
100
AcDbEntity
  8
0
 62
     7
 48
0.001203
100
AcDbLine
 10
28.245213
 20
97.143768
 30
0.0
 11
28.293316
 21
97.143768
 31
0.0
210
0.0
220
0.0
230
1.0
  0
ARC
  5
424
100
AcDbEntity
  8
0
 62
     7
100
AcDbCircle
 10
28.286518
 20
98.1689
 30
0.0
 40
1.02516
210
0.0
220
0.0
230
1.0
100
AcDbArc
 50
270.379978
 51
299.916775
  0
ARC
  5
425
100
AcDbEntity
  8
0
 62
     7
100
AcDbCircle
 10
28.279507
 20
98.157104
 30
0.0
 40
1.018502
210
0.0
220
0.0
230
1.0
100
AcDbArc
 50
300.589357
 51
329.439176
  0
ARC
  5
426
100
AcDbEntity
  8
0
 62
     7
100
AcDbCircle
 10
28.298862
 20
98.142136
 30
0.0
 40
0.994227
210
0.0
220
0.0
230
1.0
100
AcDbArc
 50
329.615559
 51
0.120828
  0
LINE
  5
427
100
AcDbEntity
  8
0
 62
     7
 48
0.001222
100
AcDbLine
 10
29.293087
 20
98.144226
 30
0.0
 11
29.293087
 21
98.1931
 31
0.0
210
0.0
220
0.0
230
1.0
  0
LINE
  5
428
100
AcDbEntity
  8
0
 62
     7
 48
0.008876
100
AcDbLine
 10
29.293087
 20
98.1931
 30
0.0
 11
29.293087
 21
98.548126
 31
0.0
210
0.0
220
0.0
230
1.0
  0
LINE
  5
429
100
AcDbEntity
  8
0
 62
     7
 48
0.015458
100
AcDbLine
 10
29.293087
 20
98.548126
 30
0.0
 11
29.293087
 21
99.166443
 31
0.0
210
0.0
220
0.0
230
1.0
  0
LINE
  5
42A
100
AcDbEntity
  8
0
 62
     7
 48
0.019646
100
AcDbLine
 10
29.293087
 20
99.166443
 30
0.0
 11
29.293087
 21
99.952301
 31
0.0
210
0.0
220
0.0
230
1.0
  0
LINE
  5
42B
100
AcDbEntity
  8
0
 62
     7
 48
0.021441
100
AcDbLine
 10
29.293087
 20
99.952301
 30
0.0
 11
29.293087
 21
100.809952
 31
0.0
210
0.0
220
0.0
230
1.0
  0
LINE
  5
42C
100
AcDbEntity
  8
0
 62
     7
 48
0.020843
100
AcDbLine
 10
29.293087
 20
100.809952
 30
0.0
 11
29.293087
 21
101.643677
 31
0.0
210
0.0
220
0.0
230
1.0
  0
LINE
  5
42D
100
AcDbEntity
  8
0
 62
     7
 48
0.017851
100
AcDbLine
 10
29.293087
 20
101.643677
 30
0.0
 11
29.293087
 21
102.357727
 31
0.0
210
0.0
220
0.0
230
1.0
  0
LINE
  5
42E
100
AcDbEntity
  8
0
 62
     7
 48
0.012466
100
AcDbLine
 10
29.293087
 20
102.357727
 30
0.0
 11
29.293087
 21
102.856369
 31
0.0
210
0.0
220
0.0
230
1.0
  0
LINE
  5
42F
100
AcDbEntity
  8
0
 62
     7
 48
0.004687
100
AcDbLine
 10
29.293087
 20
102.856369
 30
0.0
 11
29.293087
 21
103.043854
 31
0.0
210
0.0
220
0.0
230
1.0
  0
LINE
  5
430
100
AcDbEntity
  8
0
 62
     7
 48
0.00671
100
AcDbLine
 10
29.293087
 20
103.043854
 30
0.0
 11
29.257359
 21
103.309845
 31
0.0
210
0.0
220
0.0
230
1.0
  0
ARC
  5
431
100
AcDbEntity
  8
0
 62
     7
100
AcDbCircle
 10
28.275494
 20
103.033478
 30
0.0
 40
1.020015
210
0.0
220
0.0
230
1.0
100
AcDbArc
 50
15.719879
 51
44.728105
  0
ARC
  5
432
100
AcDbEntity
  8
0
 62
     7
100
AcDbCircle
 10
28.289394
 20
103.039398
 30
0.0
 40
1.005988
210
0.0
220
0.0
230
1.0
100
AcDbArc
 50
45.04616
 51
74.454465
  0
LINE
  5
433
100
AcDbEntity
  8
0
 62
     7
 48
0.006702
100
AcDbLine
 10
28.55901
 20
104.008591
 30
0.0
 11
28.293316
 21
104.044312
 31
0.0
210
0.0
220
0.0
230
1.0
  0
ARC
  5
434
100
AcDbEntity
  8
0
 62
     7
100
AcDbCircle
 10
61.366833
 20
83.85228
 30
0.0
 40
0.82638
210
0.0
220
0.0
230
1.0
100
AcDbArc
 50
324.402704
 51
359.42152
  0
ARC
  5
435
100
AcDbEntity
  8
0
 62
     7
100
AcDbCircle
 10
61.385181
 20
83.854691
 30
0.0
 40
0.812965
210
0.0
220
0.0
230
1.0
100
AcDbArc
 50
288.713297
 51
323.51109
  0
LINE
  5
436
100
AcDbEntity
  8
0
 62
     7
 48
0.006401
100
AcDbLine
 10
61.646008
 20
83.084702
 30
0.0
 11
61.393215
 21
83.043976
 31
0.0
210
0.0
220
0.0
230
1.0
  0
LINE
  5
437
100
AcDbEntity
  8
0
 62
     7
 48
0.005532
100
AcDbLine
 10
61.393215
 20
83.043976
 30
0.0
 11
61.171947
 21
83.043976
 31
0.0
210
0.0
220
0.0
230
1.0
  0
LINE
  5
438
100
AcDbEntity
  8
0
 62
     7
 48
0.015167
100
AcDbLine
 10
61.171947
 20
83.043976
 30
0.0
 11
60.56525
 21
83.043976
 31
0.0
210
0.0
220
0.0
230
1.0
  0
LINE
  5
439
100
AcDbEntity
  8
0
 62
     7
 48
0.022662
100
AcDbLine
 10
60.56525
 20
83.043976
 30
0.0
 11
59.658764
 21
83.043976
 31
0.0
210
0.0
220
0.0
230
1.0
  0
LINE
  5
43A
100
AcDbEntity
  8
0
 62
     7
 48
0.028015
100
AcDbLine
 10
59.658764
 20
83.043976
 30
0.0
 11
58.538151
 21
83.043976
 31
0.0
210
0.0
220
0.0
230
1.0
  0
LINE
  5
43B
100
AcDbEntity
  8
0
 62
     7
 48
0.031227
100
AcDbLine
 10
58.538151
 20
83.043976
 30
0.0
 11
57.289059
 21
83.043976
 31
0.0
210
0.0
220
0.0
230
1.0
  0
LINE
  5
43C
100
AcDbEntity
  8
0
 62
     7
 48
0.032298
100
AcDbLine
 10
57.289059
 20
83.043976
 30
0.0
 11
55.997143
 21
83.043976
 31
0.0
210
0.0
220
0.0
230
1.0
  0
LINE
  5
43D
100
AcDbEntity
  8
0
 62
     7
 48
0.031227
100
AcDbLine
 10
55.997143
 20
83.043976
 30
0.0
 11
54.748051
 21
83.043976
 31
0.0
210
0.0
220
0.0
230
1.0
  0
LINE
  5
43E
100
AcDbEntity
  8
0
 62
     7
 48
0.028015
100
AcDbLine
 10
54.748051
 20
83.043976
 30
0.0
 11
53.627438
 21
83.043976
 31
0.0
210
0.0
220
0.0
230
1.0
  0
LINE
  5
43F
100
AcDbEntity
  8
0
 62
     7
 48
0.022662
100
AcDbLine
 10
53.627438
 20
83.043976
 30
0.0
 11
52.720959
 21
83.043976
 31
0.0
210
0.0
220
0.0
230
1.0
  0
LINE
  5
440
100
AcDbEntity
  8
0
 62
     7
 48
0.015168
100
AcDbLine
 10
52.720959
 20
83.043976
 30
0.0
 11
52.114254
 21
83.043976
 31
0.0
210
0.0
220
0.0
230
1.0
  0
LINE
  5
441
100
AcDbEntity
  8
0
 62
     7
 48
0.005532
100
AcDbLine
 10
52.114254
 20
83.043976
 30
0.0
 11
51.892986
 21
83.043976
 31
0.0
210
0.0
220
0.0
230
1.0
  0
LINE
  5
442
100
AcDbEntity
  8
0
 62
     7
 48
0.006401
100
AcDbLine
 10
51.892986
 20
83.043976
 30
0.0
 11
51.640194
 21
83.084702
 31
0.0
210
0.0
220
0.0
230
1.0
  0
ARC
  5
443
100
AcDbEntity
  8
0
 62
     7
100
AcDbCircle
 10
51.905476
 20
83.860809
 30
0.0
 40
0.820185
210
0.0
220
0.0
230
1.0
100
AcDbArc
 50
216.646881
 51
251.128735
  0
ARC
  5
444
100
AcDbEntity
  8
0
 62
     7
100
AcDbCircle
 10
51.892002
 20
83.843338
 30
0.0
 40
0.798969
210
0.0
220
0.0
230
1.0
100
AcDbArc
 50
179.957275
 51
216.218489
  0
LINE
  5
445
100
AcDbEntity
  8
0
 62
     7
 48
0.00135
100
AcDbLine
 10
51.093037
 20
83.843933
 30
0.0
 11
51.093037
 21
83.897949
 31
0.0
210
0.0
220
0.0
230
1.0
  0
LINE
  5
446
100
AcDbEntity
  8
0
 62
     7
 48
0.010005
100
AcDbLine
 10
51.093037
 20
83.897949
 30
0.0
 11
51.093037
 21
84.298157
 31
0.0
210
0.0
220
0.0
230
1.0
  0
LINE
  5
447
100
AcDbEntity
  8
0
 62
     7
 48
0.017974
100
AcDbLine
 10
51.093037
 20
84.298157
 30
0.0
 11
51.093037
 21
85.017136
 31
0.0
210
0.0
220
0.0
230
1.0
  0
LINE
  5
448
100
AcDbEntity
  8
0
 62
     7
 48
0.023818
100
AcDbLine
 10
51.093037
 20
85.017136
 30
0.0
 11
51.093037
 21
85.969864
 31
0.0
210
0.0
220
0.0
230
1.0
  0
LINE
  5
449
100
AcDbEntity
  8
0
 62
     7
 48
0.027537
100
AcDbLine
 10
51.093037
 20
85.969864
 30
0.0
 11
51.093037
 21
87.07135
 31
0.0
210
0.0
220
0.0
230
1.0
  0
LINE
  5
44A
100
AcDbEntity
  8
0
 62
     7
 48
0.029131
100
AcDbLine
 10
51.093037
 20
87.07135
 30
0.0
 11
51.093037
 21
88.236588
 31
0.0
210
0.0
220
0.0
230
1.0
  0
LINE
  5
44B
100
AcDbEntity
  8
0
 62
     7
 48
0.0286
100
AcDbLine
 10
51.093037
 20
88.236588
 30
0.0
 11
51.093037
 21
89.380585
 31
0.0
210
0.0
220
0.0
230
1.0
  0
LINE
  5
44C
100
AcDbEntity
  8
0
 62
     7
 48
0.025943
100
AcDbLine
 10
51.093037
 20
89.380585
 30
0.0
 11
51.093037
 21
90.418304
 31
0.0
210
0.0
220
0.0
230
1.0
  0
LINE
  5
44D
100
AcDbEntity
  8
0
 62
     7
 48
0.021162
100
AcDbLine
 10
51.093037
 20
90.418304
 30
0.0
 11
51.093037
 21
91.264786
 31
0.0
210
0.0
220
0.0
230
1.0
  0
LINE
  5
44E
100
AcDbEntity
  8
0
 62
     7
 48
0.014256
100
AcDbLine
 10
51.093037
 20
91.264786
 30
0.0
 11
51.093037
 21
91.835007
 31
0.0
210
0.0
220
0.0
230
1.0
  0
LINE
  5
44F
100
AcDbEntity
  8
0
 62
     7
 48
0.005224
100
AcDbLine
 10
51.093037
 20
91.835007
 30
0.0
 11
51.093037
 21
92.043976
 31
0.0
210
0.0
220
0.0
230
1.0
  0
LINE
  5
450
100
AcDbEntity
  8
0
 62
     7
 48
0.006402
100
AcDbLine
 10
51.093037
 20
92.043976
 30
0.0
 11
51.133831
 21
92.296768
 31
0.0
210
0.0
220
0.0
230
1.0
  0
ARC
  5
451
100
AcDbEntity
  8
0
 62
     7
100
AcDbCircle
 10
51.910427
 20
92.030838
 30
0.0
 40
0.820868
210
0.0
220
0.0
230
1.0
100
AcDbArc
 50
126.63467
 51
161.096868
  0
ARC
  5
452
100
AcDbEntity
  8
0
 62
     7
100
AcDbCircle
 10
51.892727
 20
92.044846
 30
0.0
 40
0.799085
210
0.0
220
0.0
230
1.0
100
AcDbArc
 50
89.981308
 51
126.215762
  0
LINE
  5
453
100
AcDbEntity
  8
0
 62
     7
 48
0.001428
100
AcDbLine
 10
51.892986
 20
92.843933
 30
0.0
 11
51.950092
 21
92.843933
 31
0.0
210
0.0
220
0.0
230
1.0
  0
LINE
  5
454
100
AcDbEntity
  8
0
 62
     7
 48
0.010617
100
AcDbLine
 10
51.950092
 20
92.843933
 30
0.0
 11
52.374783
 21
92.843933
 31
0.0
210
0.0
220
0.0
230
1.0
  0
LINE
  5
455
100
AcDbEntity
  8
0
 62
     7
 48
0.019182
100
AcDbLine
 10
52.374783
 20
92.843933
 30
0.0
 11
53.142078
 21
92.843933
 31
0.0
210
0.0
220
0.0
230
1.0
  0
LINE
  5
456
100
AcDbEntity
  8
0
 62
     7
 48
0.025606
100
AcDbLine
 10
53.142078
 20
92.843933
 30
0.0
 11
54.166332
 21
92.843933
 31
0.0
210
0.0
220
0.0
230
1.0
  0
LINE
  5
457
100
AcDbEntity
  8
0
 62
     7
 48
0.029889
100
AcDbLine
 10
54.166332
 20
92.843933
 30
0.0
 11
55.361889
 21
92.843933
 31
0.0
210
0.0
220
0.0
230
1.0
  0
LINE
  5
458
100
AcDbEntity
  8
0
 62
     7
 48
0.03203
100
AcDbLine
 10
55.361889
 20
92.843933
 30
0.0
 11
56.643101
 21
92.843933
 31
0.0
210
0.0
220
0.0
230
1.0
  0
LINE
  5
459
100
AcDbEntity
  8
0
 62
     7
 48
0.03203
100
AcDbLine
 10
56.643101
 20
92.843933
 30
0.0
 11
57.924313
 21
92.843933
 31
0.0
210
0.0
220
0.0
230
1.0
  0
LINE
  5
45A
100
AcDbEntity
  8
0
 62
     7
 48
0.029889
100
AcDbLine
 10
57.924313
 20
92.843933
 30
0.0
 11
59.119869
 21
92.843933
 31
0.0
210
0.0
220
0.0
230
1.0
  0
LINE
  5
45B
100
AcDbEntity
  8
0
 62
     7
 48
0.025606
100
AcDbLine
 10
59.119869
 20
92.843933
 30
0.0
 11
60.144123
 21
92.843933
 31
0.0
210
0.0
220
0.0
230
1.0
  0
LINE
  5
45C
100
AcDbEntity
  8
0
 62
     7
 48
0.019183
100
AcDbLine
 10
60.144123
 20
92.843933
 30
0.0
 11
60.911427
 21
92.843933
 31
0.0
210
0.0
220
0.0
230
1.0
  0
LINE
  5
45D
100
AcDbEntity
  8
0
 62
     7
 48
0.010617
100
AcDbLine
 10
60.911427
 20
92.843933
 30
0.0
 11
61.336117
 21
92.843933
 31
0.0
210
0.0
220
0.0
230
1.0
  0
LINE
  5
45E
100
AcDbEntity
  8
0
 62
     7
 48
0.001427
100
AcDbLine
 10
61.336117
 20
92.843933
 30
0.0
 11
61.393215
 21
92.843933
 31
0.0
210
0.0
220
0.0
230
1.0
  0
ARC
  5
45F
100
AcDbEntity
  8
0
 62
     7
100
AcDbCircle
 10
61.384762
 20
92.018173
 30
0.0
 40
0.825804
210
0.0
220
0.0
230
1.0
100
AcDbArc
 50
54.389738
 51
89.413194
  0
ARC
  5
460
100
AcDbEntity
  8
0
 62
     7
100
AcDbCircle
 10
61.381863
 20
92.035278
 30
0.0
 40
0.813674
210
0.0
220
0.0
230
1.0
100
AcDbArc
 50
18.745931
 51
53.522528
  0
LINE
  5
461
100
AcDbEntity
  8
0
 62
     7
 48
0.006402
100
AcDbLine
 10
62.15237
 20
92.296768
 30
0.0
 11
62.193172
 21
92.043976
 31
0.0
210
0.0
220
0.0
230
1.0
  0
LINE
  5
462
100
AcDbEntity
  8
0
 62
     7
 48
0.005224
100
AcDbLine
 10
62.193172
 20
92.043976
 30
0.0
 11
62.193172
 21
91.835007
 31
0.0
210
0.0
220
0.0
230
1.0
  0
LINE
  5
463
100
AcDbEntity
  8
0
 62
     7
 48
0.014256
100
AcDbLine
 10
62.193172
 20
91.835007
 30
0.0
 11
62.193172
 21
91.264786
 31
0.0
210
0.0
220
0.0
230
1.0
  0
LINE
  5
464
100
AcDbEntity
  8
0
 62
     7
 48
0.021162
100
AcDbLine
 10
62.193172
 20
91.264786
 30
0.0
 11
62.193172
 21
90.418304
 31
0.0
210
0.0
220
0.0
230
1.0
  0
LINE
  5
465
100
AcDbEntity
  8
0
 62
     7
 48
0.025943
100
AcDbLine
 10
62.193172
 20
90.418304
 30
0.0
 11
62.193172
 21
89.380585
 31
0.0
210
0.0
220
0.0
230
1.0
  0
LINE
  5
466
100
AcDbEntity
  8
0
 62
     7
 48
0.0286
100
AcDbLine
 10
62.193172
 20
89.380585
 30
0.0
 11
62.193172
 21
88.236588
 31
0.0
210
0.0
220
0.0
230
1.0
  0
LINE
  5
467
100
AcDbEntity
  8
0
 62
     7
 48
0.029131
100
AcDbLine
 10
62.193172
 20
88.236588
 30
0.0
 11
62.193172
 21
87.07135
 31
0.0
210
0.0
220
0.0
230
1.0
  0
LINE
  5
468
100
AcDbEntity
  8
0
 62
     7
 48
0.027537
100
AcDbLine
 10
62.193172
 20
87.07135
 30
0.0
 11
62.193172
 21
85.969864
 31
0.0
210
0.0
220
0.0
230
1.0
  0
LINE
  5
469
100
AcDbEntity
  8
0
 62
     7
 48
0.023818
100
AcDbLine
 10
62.193172
 20
85.969864
 30
0.0
 11
62.193172
 21
85.017136
 31
0.0
210
0.0
220
0.0
230
1.0
  0
LINE
  5
46A
100
AcDbEntity
  8
0
 62
     7
 48
0.017974
100
AcDbLine
 10
62.193172
 20
85.017136
 30
0.0
 11
62.193172
 21
84.298157
 31
0.0
210
0.0
220
0.0
230
1.0
  0
LINE
  5
46B
100
AcDbEntity
  8
0
 62
     7
 48
0.010005
100
AcDbLine
 10
62.193172
 20
84.298157
 30
0.0
 11
62.193172
 21
83.897949
 31
0.0
210
0.0
220
0.0
230
1.0
  0
LINE
  5
46C
100
AcDbEntity
  8
0
 62
     7
 48
0.00135
100
AcDbLine
 10
62.193172
 20
83.897949
 30
0.0
 11
62.193172
 21
83.843933
 31
0.0
210
0.0
220
0.0
230
1.0
  0
LINE
  5
46D
100
AcDbEntity
  8
0
 62
     7
 48
0.005532
100
AcDbLine
 10
61.393215
 20
93.043747
 30
0.0
 11
61.171955
 21
93.043747
 31
0.0
210
0.0
220
0.0
230
1.0
  0
LINE
  5
46E
100
AcDbEntity
  8
0
 62
     7
 48
0.015167
100
AcDbLine
 10
61.171955
 20
93.043747
 30
0.0
 11
60.565273
 21
93.043747
 31
0.0
210
0.0
220
0.0
230
1.0
  0
LINE
  5
46F
100
AcDbEntity
  8
0
 62
     7
 48
0.022661
100
AcDbLine
 10
60.565273
 20
93.043747
 30
0.0
 11
59.658825
 21
93.043747
 31
0.0
210
0.0
220
0.0
230
1.0
  0
LINE
  5
470
100
AcDbEntity
  8
0
 62
     7
 48
0.028014
100
AcDbLine
 10
59.658825
 20
93.043747
 30
0.0
 11
58.538258
 21
93.043747
 31
0.0
210
0.0
220
0.0
230
1.0
  0
LINE
  5
471
100
AcDbEntity
  8
0
 62
     7
 48
0.031226
100
AcDbLine
 10
58.538258
 20
93.043747
 30
0.0
 11
57.289211
 21
93.043747
 31
0.0
210
0.0
220
0.0
230
1.0
  0
LINE
  5
472
100
AcDbEntity
  8
0
 62
     7
 48
0.032297
100
AcDbLine
 10
57.289211
 20
93.043747
 30
0.0
 11
55.997341
 21
93.043747
 31
0.0
210
0.0
220
0.0
230
1.0
  0
LINE
  5
473
100
AcDbEntity
  8
0
 62
     7
 48
0.031226
100
AcDbLine
 10
55.997341
 20
93.043747
 30
0.0
 11
54.748295
 21
93.043747
 31
0.0
210
0.0
220
0.0
230
1.0
  0
LINE
  5
474
100
AcDbEntity
  8
0
 62
     7
 48
0.028014
100
AcDbLine
 10
54.748295
 20
93.043747
 30
0.0
 11
53.62772
 21
93.043747
 31
0.0
210
0.0
220
0.0
230
1.0
  0
LINE
  5
475
100
AcDbEntity
  8
0
 62
     7
 48
0.022661
100
AcDbLine
 10
53.62772
 20
93.043747
 30
0.0
 11
52.721272
 21
93.043747
 31
0.0
210
0.0
220
0.0
230
1.0
  0
LINE
  5
476
100
AcDbEntity
  8
0
 62
     7
 48
0.015167
100
AcDbLine
 10
52.721272
 20
93.043747
 30
0.0
 11
52.11459
 21
93.043747
 31
0.0
210
0.0
220
0.0
230
1.0
  0
LINE
  5
477
100
AcDbEntity
  8
0
 62
     7
 48
0.005532
100
AcDbLine
 10
52.11459
 20
93.043747
 30
0.0
 11
51.89333
 21
93.043747
 31
0.0
210
0.0
220
0.0
230
1.0
  0
LINE
  5
478
100
AcDbEntity
  8
0
 62
     7
 48
0.008004
100
AcDbLine
 10
51.89333
 20
93.043747
 30
0.0
 11
51.577259
 21
92.992752
 31
0.0
210
0.0
220
0.0
230
1.0
  0
ARC
  5
479
100
AcDbEntity
  8
0
 62
     7
100
AcDbCircle
 10
51.909657
 20
92.021805
 30
0.0
 40
1.026273
210
0.0
220
0.0
230
1.0
100
AcDbArc
 50
108.898159
 51
143.35626
  0
ARC
  5
47A
100
AcDbEntity
  8
0
 62
     7
100
AcDbCircle
 10
51.891766
 20
92.04425
 30
0.0
 40
0.998546
210
0.0
220
0.0
230
1.0
100
AcDbArc
 50
143.777354
 51
180.015906
  0
LINE
  5
47B
100
AcDbEntity
  8
0
 62
     7
 48
0.00135
100
AcDbLine
 10
50.893215
 20
92.043976
 30
0.0
 11
50.893215
 21
91.98996
 31
0.0
210
0.0
220
0.0
230
1.0
  0
LINE
  5
47C
100
AcDbEntity
  8
0
 62
     7
 48
0.010005
100
AcDbLine
 10
50.893215
 20
91.98996
 30
0.0
 11
50.893215
 21
91.589752
 31
0.0
210
0.0
220
0.0
230
1.0
  0
LINE
  5
47D
100
AcDbEntity
  8
0
 62
     7
 48
0.017974
100
AcDbLine
 10
50.893215
 20
91.589752
 30
0.0
 11
50.893215
 21
90.870773
 31
0.0
210
0.0
220
0.0
230
1.0
  0
LINE
  5
47E
100
AcDbEntity
  8
0
 62
     7
 48
0.023818
100
AcDbLine
 10
50.893215
 20
90.870773
 30
0.0
 11
50.893215
 21
89.918045
 31
0.0
210
0.0
220
0.0
230
1.0
  0
LINE
  5
47F
100
AcDbEntity
  8
0
 62
     7
 48
0.027537
100
AcDbLine
 10
50.893215
 20
89.918045
 30
0.0
 11
50.893215
 21
88.816559
 31
0.0
210
0.0
220
0.0
230
1.0
  0
LINE
  5
480
100
AcDbEntity
  8
0
 62
     7
 48
0.029131
100
AcDbLine
 10
50.893215
 20
88.816559
 30
0.0
 11
50.893215
 21
87.651321
 31
0.0
210
0.0
220
0.0
230
1.0
  0
LINE
  5
481
100
AcDbEntity
  8
0
 62
     7
 48
0.0286
100
AcDbLine
 10
50.893215
 20
87.651321
 30
0.0
 11
50.893215
 21
86.507324
 31
0.0
210
0.0
220
0.0
230
1.0
  0
LINE
  5
482
100
AcDbEntity
  8
0
 62
     7
 48
0.025943
100
AcDbLine
 10
50.893215
 20
86.507324
 30
0.0
 11
50.893215
 21
85.469604
 31
0.0
210
0.0
220
0.0
230
1.0
  0
LINE
  5
483
100
AcDbEntity
  8
0
 62
     7
 48
0.021162
100
AcDbLine
 10
50.893215
 20
85.469604
 30
0.0
 11
50.893215
 21
84.623123
 31
0.0
210
0.0
220
0.0
230
1.0
  0
LINE
  5
484
100
AcDbEntity
  8
0
 62
     7
 48
0.014256
100
AcDbLine
 10
50.893215
 20
84.623123
 30
0.0
 11
50.893215
 21
84.052902
 31
0.0
210
0.0
220
0.0
230
1.0
  0
LINE
  5
485
100
AcDbEntity
  8
0
 62
     7
 48
0.005224
100
AcDbLine
 10
50.893215
 20
84.052902
 30
0.0
 11
50.893215
 21
83.843933
 31
0.0
210
0.0
220
0.0
230
1.0
  0
LINE
  5
486
100
AcDbEntity
  8
0
 62
     7
 48
0.008007
100
AcDbLine
 10
50.893215
 20
83.843933
 30
0.0
 11
50.944218
 21
83.527756
 31
0.0
210
0.0
220
0.0
230
1.0
  0
ARC
  5
487
100
AcDbEntity
  8
0
 62
     7
100
AcDbCircle
 10
51.914051
 20
83.859802
 30
0.0
 40
1.0251
210
0.0
220
0.0
230
1.0
100
AcDbArc
 50
198.899507
 51
233.390325
  0
ARC
  5
488
100
AcDbEntity
  8
0
 62
     7
100
AcDbCircle
 10
51.892796
 20
83.843674
 30
0.0
 40
0.999507
210
0.0
220
0.0
230
1.0
100
AcDbArc
 50
233.816774
 51
270.030627
  0
LINE
  5
489
100
AcDbEntity
  8
0
 62
     7
 48
0.001428
100
AcDbLine
 10
51.89333
 20
82.844162
 30
0.0
 11
51.950436
 21
82.844162
 31
0.0
210
0.0
220
0.0
230
1.0
  0
LINE
  5
48A
100
AcDbEntity
  8
0
 62
     7
 48
0.010617
100
AcDbLine
 10
51.950436
 20
82.844162
 30
0.0
 11
52.375111
 21
82.844162
 31
0.0
210
0.0
220
0.0
230
1.0
  0
LINE
  5
48B
100
AcDbEntity
  8
0
 62
     7
 48
0.019182
100
AcDbLine
 10
52.375111
 20
82.844162
 30
0.0
 11
53.142376
 21
82.844162
 31
0.0
210
0.0
220
0.0
230
1.0
  0
LINE
  5
48C
100
AcDbEntity
  8
0
 62
     7
 48
0.025605
100
AcDbLine
 10
53.142376
 20
82.844162
 30
0.0
 11
54.166592
 21
82.844162
 31
0.0
210
0.0
220
0.0
230
1.0
  0
LINE
  5
48D
100
AcDbEntity
  8
0
 62
     7
 48
0.029888
100
AcDbLine
 10
54.166592
 20
82.844162
 30
0.0
 11
55.36211
 21
82.844162
 31
0.0
210
0.0
220
0.0
230
1.0
  0
LINE
  5
48E
100
AcDbEntity
  8
0
 62
     7
 48
0.032029
100
AcDbLine
 10
55.36211
 20
82.844162
 30
0.0
 11
56.643276
 21
82.844162
 31
0.0
210
0.0
220
0.0
230
1.0
  0
LINE
  5
48F
100
AcDbEntity
  8
0
 62
     7
 48
0.032029
100
AcDbLine
 10
56.643276
 20
82.844162
 30
0.0
 11
57.924435
 21
82.844162
 31
0.0
210
0.0
220
0.0
230
1.0
  0
LINE
  5
490
100
AcDbEntity
  8
0
 62
     7
 48
0.029888
100
AcDbLine
 10
57.924435
 20
82.844162
 30
0.0
 11
59.119953
 21
82.844162
 31
0.0
210
0.0
220
0.0
230
1.0
  0
LINE
  5
491
100
AcDbEntity
  8
0
 62
     7
 48
0.025605
100
AcDbLine
 10
59.119953
 20
82.844162
 30
0.0
 11
60.144169
 21
82.844162
 31
0.0
210
0.0
220
0.0
230
1.0
  0
LINE
  5
492
100
AcDbEntity
  8
0
 62
     7
 48
0.019182
100
AcDbLine
 10
60.144169
 20
82.844162
 30
0.0
 11
60.911442
 21
82.844162
 31
0.0
210
0.0
220
0.0
230
1.0
  0
LINE
  5
493
100
AcDbEntity
  8
0
 62
     7
 48
0.010617
100
AcDbLine
 10
60.911442
 20
82.844162
 30
0.0
 11
61.336117
 21
82.844162
 31
0.0
210
0.0
220
0.0
230
1.0
  0
LINE
  5
494
100
AcDbEntity
  8
0
 62
     7
 48
0.001427
100
AcDbLine
 10
61.336117
 20
82.844162
 30
0.0
 11
61.393215
 21
82.844162
 31
0.0
210
0.0
220
0.0
230
1.0
  0
ARC
  5
495
100
AcDbEntity
  8
0
 62
     7
100
AcDbCircle
 10
61.382801
 20
83.878067
 30
0.0
 40
1.033956
210
0.0
220
0.0
230
1.0
100
AcDbArc
 50
270.577288
 51
305.559878
  0
ARC
  5
496
100
AcDbEntity
  8
0
 62
     7
100
AcDbCircle
 10
61.380695
 20
83.854156
 30
0.0
 40
1.015847
210
0.0
220
0.0
230
1.0
100
AcDbArc
 50
306.440863
 51
341.258381
  0
LINE
  5
497
100
AcDbEntity
  8
0
 62
     7
 48
0.008007
100
AcDbLine
 10
62.342678
 20
83.527756
 30
0.0
 11
62.393673
 21
83.843933
 31
0.0
210
0.0
220
0.0
230
1.0
  0
LINE
  5
498
100
AcDbEntity
  8
0
 62
     7
 48
0.005224
100
AcDbLine
 10
62.393673
 20
83.843933
 30
0.0
 11
62.393673
 21
84.052902
 31
0.0
210
0.0
220
0.0
230
1.0
  0
LINE
  5
499
100
AcDbEntity
  8
0
 62
     7
 48
0.014256
100
AcDbLine
 10
62.393673
 20
84.052902
 30
0.0
 11
62.393673
 21
84.623123
 31
0.0
210
0.0
220
0.0
230
1.0
  0
LINE
  5
49A
100
AcDbEntity
  8
0
 62
     7
 48
0.021162
100
AcDbLine
 10
62.393673
 20
84.623123
 30
0.0
 11
62.393673
 21
85.469604
 31
0.0
210
0.0
220
0.0
230
1.0
  0
LINE
  5
49B
100
AcDbEntity
  8
0
 62
     7
 48
0.025943
100
AcDbLine
 10
62.393673
 20
85.469604
 30
0.0
 11
62.393673
 21
86.507324
 31
0.0
210
0.0
220
0.0
230
1.0
  0
LINE
  5
49C
100
AcDbEntity
  8
0
 62
     7
 48
0.0286
100
AcDbLine
 10
62.393673
 20
86.507324
 30
0.0
 11
62.393673
 21
87.651321
 31
0.0
210
0.0
220
0.0
230
1.0
  0
LINE
  5
49D
100
AcDbEntity
  8
0
 62
     7
 48
0.029131
100
AcDbLine
 10
62.393673
 20
87.651321
 30
0.0
 11
62.393673
 21
88.816559
 31
0.0
210
0.0
220
0.0
230
1.0
  0
LINE
  5
49E
100
AcDbEntity
  8
0
 62
     7
 48
0.027537
100
AcDbLine
 10
62.393673
 20
88.816559
 30
0.0
 11
62.393673
 21
89.918045
 31
0.0
210
0.0
220
0.0
230
1.0
  0
LINE
  5
49F
100
AcDbEntity
  8
0
 62
     7
 48
0.023818
100
AcDbLine
 10
62.393673
 20
89.918045
 30
0.0
 11
62.393673
 21
90.870773
 31
0.0
210
0.0
220
0.0
230
1.0
  0
LINE
  5
4A0
100
AcDbEntity
  8
0
 62
     7
 48
0.017974
100
AcDbLine
 10
62.393673
 20
90.870773
 30
0.0
 11
62.393673
 21
91.589752
 31
0.0
210
0.0
220
0.0
230
1.0
  0
LINE
  5
4A1
100
AcDbEntity
  8
0
 62
     7
 48
0.010005
100
AcDbLine
 10
62.393673
 20
91.589752
 30
0.0
 11
62.393673
 21
91.98996
 31
0.0
210
0.0
220
0.0
230
1.0
  0
LINE
  5
4A2
100
AcDbEntity
  8
0
 62
     7
 48
0.00135
100
AcDbLine
 10
62.393673
 20
91.98996
 30
0.0
 11
62.393673
 21
92.043976
 31
0.0
210
0.0
220
0.0
230
1.0
  0
ARC
  5
4A3
100
AcDbEntity
  8
0
 62
     7
100
AcDbCircle
 10
61.362064
 20
92.033417
 30
0.0
 40
1.031667
210
0.0
220
0.0
230
1.0
100
AcDbArc
 50
0.586717
 51
35.623897
  0
ARC
  5
4A4
100
AcDbEntity
  8
0
 62
     7
100
AcDbCircle
 10
61.382885
 20
92.029419
 30
0.0
 40
1.017184
210
0.0
220
0.0
230
1.0
100
AcDbArc
 50
36.489798
 51
71.272928
  0
LINE
  5
4A5
100
AcDbEntity
  8
0
 62
     7
 48
0.008008
100
AcDbLine
 10
61.709461
 20
92.992752
 30
0.0
 11
61.393215
 21
93.043747
 31
0.0
210
0.0
220
0.0
230
1.0
  0
ARC
  5
4A6
100
AcDbEntity
  8
0
 62
     7
100
AcDbCircle
 10
49.067112
 20
83.85228
 30
0.0
 40
0.82638
210
0.0
220
0.0
230
1.0
100
AcDbArc
 50
324.402704
 51
359.42152
  0
ARC
  5
4A7
100
AcDbEntity
  8
0
 62
     7
100
AcDbCircle
 10
49.085461
 20
83.854691
 30
0.0
 40
0.812965
210
0.0
220
0.0
230
1.0
100
AcDbArc
 50
288.713297
 51
323.51109
  0
LINE
  5
4A8
100
AcDbEntity
  8
0
 62
     7
 48
0.006401
100
AcDbLine
 10
49.346287
 20
83.084702
 30
0.0
 11
49.093494
 21
83.043976
 31
0.0
210
0.0
220
0.0
230
1.0
  0
LINE
  5
4A9
100
AcDbEntity
  8
0
 62
     7
 48
0.004842
100
AcDbLine
 10
49.093494
 20
83.043976
 30
0.0
 11
48.899807
 21
83.043976
 31
0.0
210
0.0
220
0.0
230
1.0
  0
LINE
  5
4AA
100
AcDbEntity
  8
0
 62
     7
 48
0.013213
100
AcDbLine
 10
48.899807
 20
83.043976
 30
0.0
 11
48.371273
 21
83.043976
 31
0.0
210
0.0
220
0.0
230
1.0
  0
LINE
  5
4AB
100
AcDbEntity
  8
0
 62
     7
 48
0.019615
100
AcDbLine
 10
48.371273
 20
83.043976
 30
0.0
 11
47.586674
 21
83.043976
 31
0.0
210
0.0
220
0.0
230
1.0
  0
LINE
  5
4AC
100
AcDbEntity
  8
0
 62
     7
 48
0.024047
100
AcDbLine
 10
47.586674
 20
83.043976
 30
0.0
 11
46.624798
 21
83.043976
 31
0.0
210
0.0
220
0.0
230
1.0
  0
LINE
  5
4AD
100
AcDbEntity
  8
0
 62
     7
 48
0.026509
100
AcDbLine
 10
46.624798
 20
83.043976
 30
0.0
 11
45.564442
 21
83.043976
 31
0.0
210
0.0
220
0.0
230
1.0
  0
LINE
  5
4AE
100
AcDbEntity
  8
0
 62
     7
 48
0.027001
100
AcDbLine
 10
45.564442
 20
83.043976
 30
0.0
 11
44.484386
 21
83.043976
 31
0.0
210
0.0
220
0.0
230
1.0
  0
LINE
  5
4AF
100
AcDbEntity
  8
0
 62
     7
 48
0.025524
100
AcDbLine
 10
44.484386
 20
83.043976
 30
0.0
 11
43.463421
 21
83.043976
 31
0.0
210
0.0
220
0.0
230
1.0
  0
LINE
  5
4B0
100
AcDbEntity
  8
0
 62
     7
 48
0.022077
100
AcDbLine
 10
43.463421
 20
83.043976
 30
0.0
 11
42.580341
 21
83.043976
 31
0.0
210
0.0
220
0.0
230
1.0
  0
LINE
  5
4B1
100
AcDbEntity
  8
0
 62
     7
 48
0.01666
100
AcDbLine
 10
42.580341
 20
83.043976
 30
0.0
 11
41.913921
 21
83.043976
 31
0.0
210
0.0
220
0.0
230
1.0
  0
LINE
  5
4B2
100
AcDbEntity
  8
0
 62
     7
 48
0.009274
100
AcDbLine
 10
41.913921
 20
83.043976
 30
0.0
 11
41.542965
 21
83.043976
 31
0.0
210
0.0
220
0.0
230
1.0
  0
LINE
  5
4B3
100
AcDbEntity
  8
0
 62
     7
 48
0.001252
100
AcDbLine
 10
41.542965
 20
83.043976
 30
0.0
 11
41.492901
 21
83.043976
 31
0.0
210
0.0
220
0.0
230
1.0
  0
ARC
  5
4B4
100
AcDbEntity
  8
0
 62
     7
100
AcDbCircle
 10
41.50124
 20
83.870255
 30
0.0
 40
0.826316
210
0.0
220
0.0
230
1.0
100
AcDbArc
 50
234.424932
 51
269.421484
  0
ARC
  5
4B5
100
AcDbEntity
  8
0
 62
     7
100
AcDbCircle
 10
41.503292
 20
83.851776
 30
0.0
 40
0.812575
210
0.0
220
0.0
230
1.0
100
AcDbArc
 50
198.728233
 51
233.549413
  0
LINE
  5
4B6
100
AcDbEntity
  8
0
 62
     7
 48
0.006408
100
AcDbLine
 10
40.733738
 20
83.590881
 30
0.0
 11
40.692944
 21
83.843933
 31
0.0
210
0.0
220
0.0
230
1.0
  0
LINE
  5
4B7
100
AcDbEntity
  8
0
 62
     7
 48
0.004774
100
AcDbLine
 10
40.692944
 20
83.843933
 30
0.0
 11
40.692944
 21
84.034912
 31
0.0
210
0.0
220
0.0
230
1.0
  0
LINE
  5
4B8
100
AcDbEntity
  8
0
 62
     7
 48
0.013092
100
AcDbLine
 10
40.692944
 20
84.034912
 30
0.0
 11
40.692944
 21
84.558594
 31
0.0
210
0.0
220
0.0
230
1.0
  0
LINE
  5
4B9
100
AcDbEntity
  8
0
 62
     7
 48
0.01956
100
AcDbLine
 10
40.692944
 20
84.558594
 30
0.0
 11
40.692944
 21
85.341003
 31
0.0
210
0.0
220
0.0
230
1.0
  0
LINE
  5
4BA
100
AcDbEntity
  8
0
 62
     7
 48
0.024181
100
AcDbLine
 10
40.692944
 20
85.341003
 30
0.0
 11
40.692944
 21
86.308258
 31
0.0
210
0.0
220
0.0
230
1.0
  0
LINE
  5
4BB
100
AcDbEntity
  8
0
 62
     7
 48
0.026954
100
AcDbLine
 10
40.692944
 20
86.308258
 30
0.0
 11
40.692944
 21
87.386398
 31
0.0
210
0.0
220
0.0
230
1.0
  0
LINE
  5
4BC
100
AcDbEntity
  8
0
 62
     7
 48
0.027878
100
AcDbLine
 10
40.692944
 20
87.386398
 30
0.0
 11
40.692944
 21
88.501511
 31
0.0
210
0.0
220
0.0
230
1.0
  0
LINE
  5
4BD
100
AcDbEntity
  8
0
 62
     7
 48
0.026954
100
AcDbLine
 10
40.692944
 20
88.501511
 30
0.0
 11
40.692944
 21
89.579651
 31
0.0
210
0.0
220
0.0
230
1.0
  0
LINE
  5
4BE
100
AcDbEntity
  8
0
 62
     7
 48
0.024181
100
AcDbLine
 10
40.692944
 20
89.579651
 30
0.0
 11
40.692944
 21
90.546906
 31
0.0
210
0.0
220
0.0
230
1.0
  0
LINE
  5
4BF
100
AcDbEntity
  8
0
 62
     7
 48
0.01956
100
AcDbLine
 10
40.692944
 20
90.546906
 30
0.0
 11
40.692944
 21
91.329315
 31
0.0
210
0.0
220
0.0
230
1.0
  0
LINE
  5
4C0
100
AcDbEntity
  8
0
 62
     7
 48
0.013092
100
AcDbLine
 10
40.692944
 20
91.329315
 30
0.0
 11
40.692944
 21
91.852997
 31
0.0
210
0.0
220
0.0
230
1.0
  0
LINE
  5
4C1
100
AcDbEntity
  8
0
 62
     7
 48
0.004774
100
AcDbLine
 10
40.692944
 20
91.852997
 30
0.0
 11
40.692944
 21
92.043976
 31
0.0
210
0.0
220
0.0
230
1.0
  0
LINE
  5
4C2
100
AcDbEntity
  8
0
 62
     7
 48
0.006402
100
AcDbLine
 10
40.692944
 20
92.043976
 30
0.0
 11
40.733738
 21
92.296768
 31
0.0
210
0.0
220
0.0
230
1.0
  0
ARC
  5
4C3
100
AcDbEntity
  8
0
 62
     7
100
AcDbCircle
 10
41.510334
 20
92.030838
 30
0.0
 40
0.820868
210
0.0
220
0.0
230
1.0
100
AcDbArc
 50
126.63467
 51
161.096868
  0
ARC
  5
4C4
100
AcDbEntity
  8
0
 62
     7
100
AcDbCircle
 10
41.492641
 20
92.044846
 30
0.0
 40
0.799085
210
0.0
220
0.0
230
1.0
100
AcDbArc
 50
89.981308
 51
126.215762
  0
LINE
  5
4C5
100
AcDbEntity
  8
0
 62
     7
 48
0.001252
100
AcDbLine
 10
41.492901
 20
92.843933
 30
0.0
 11
41.542965
 21
92.843933
 31
0.0
210
0.0
220
0.0
230
1.0
  0
LINE
  5
4C6
100
AcDbEntity
  8
0
 62
     7
 48
0.009274
100
AcDbLine
 10
41.542965
 20
92.843933
 30
0.0
 11
41.913921
 21
92.843933
 31
0.0
210
0.0
220
0.0
230
1.0
  0
LINE
  5
4C7
100
AcDbEntity
  8
0
 62
     7
 48
0.01666
100
AcDbLine
 10
41.913921
 20
92.843933
 30
0.0
 11
42.580341
 21
92.843933
 31
0.0
210
0.0
220
0.0
230
1.0
  0
LINE
  5
4C8
100
AcDbEntity
  8
0
 62
     7
 48
0.022077
100
AcDbLine
 10
42.580341
 20
92.843933
 30
0.0
 11
43.463421
 21
92.843933
 31
0.0
210
0.0
220
0.0
230
1.0
  0
LINE
  5
4C9
100
AcDbEntity
  8
0
 62
     7
 48
0.025524
100
AcDbLine
 10
43.463421
 20
92.843933
 30
0.0
 11
44.484386
 21
92.843933
 31
0.0
210
0.0
220
0.0
230
1.0
  0
LINE
  5
4CA
100
AcDbEntity
  8
0
 62
     7
 48
0.027001
100
AcDbLine
 10
44.484386
 20
92.843933
 30
0.0
 11
45.564442
 21
92.843933
 31
0.0
210
0.0
220
0.0
230
1.0
  0
LINE
  5
4CB
100
AcDbEntity
  8
0
 62
     7
 48
0.026509
100
AcDbLine
 10
45.564442
 20
92.843933
 30
0.0
 11
46.624798
 21
92.843933
 31
0.0
210
0.0
220
0.0
230
1.0
  0
LINE
  5
4CC
100
AcDbEntity
  8
0
 62
     7
 48
0.024047
100
AcDbLine
 10
46.624798
 20
92.843933
 30
0.0
 11
47.586674
 21
92.843933
 31
0.0
210
0.0
220
0.0
230
1.0
  0
LINE
  5
4CD
100
AcDbEntity
  8
0
 62
     7
 48
0.019615
100
AcDbLine
 10
47.586674
 20
92.843933
 30
0.0
 11
48.371273
 21
92.843933
 31
0.0
210
0.0
220
0.0
230
1.0
  0
LINE
  5
4CE
100
AcDbEntity
  8
0
 62
     7
 48
0.013213
100
AcDbLine
 10
48.371273
 20
92.843933
 30
0.0
 11
48.899807
 21
92.843933
 31
0.0
210
0.0
220
0.0
230
1.0
  0
LINE
  5
4CF
100
AcDbEntity
  8
0
 62
     7
 48
0.004842
100
AcDbLine
 10
48.899807
 20
92.843933
 30
0.0
 11
49.093494
 21
92.843933
 31
0.0
210
0.0
220
0.0
230
1.0
  0
LINE
  5
4D0
100
AcDbEntity
  8
0
 62
     7
 48
0.006402
100
AcDbLine
 10
49.093494
 20
92.843933
 30
0.0
 11
49.346287
 21
92.803131
 31
0.0
210
0.0
220
0.0
230
1.0
  0
ARC
  5
4D1
100
AcDbEntity
  8
0
 62
     7
100
AcDbCircle
 10
49.080349
 20
92.026535
 30
0.0
 40
0.820868
210
0.0
220
0.0
230
1.0
100
AcDbArc
 50
36.634672
 51
71.096874
  0
ARC
  5
4D2
100
AcDbEntity
  8
0
 62
     7
100
AcDbCircle
 10
49.094364
 20
92.044235
 30
0.0
 40
0.799085
210
0.0
220
0.0
230
1.0
100
AcDbArc
 50
359.981323
 51
36.21576
  0
LINE
  5
4D3
100
AcDbEntity
  8
0
 62
     7
 48
0.001232
100
AcDbLine
 10
49.893452
 20
92.043976
 30
0.0
 11
49.893452
 21
91.99469
 31
0.0
210
0.0
220
0.0
230
1.0
  0
LINE
  5
4D4
100
AcDbEntity
  8
0
 62
     7
 48
0.009164
100
AcDbLine
 10
49.893452
 20
91.99469
 30
0.0
 11
49.893452
 21
91.628128
 31
0.0
210
0.0
220
0.0
230
1.0
  0
LINE
  5
4D5
100
AcDbEntity
  8
0
 62
     7
 48
0.016557
100
AcDbLine
 10
49.893452
 20
91.628128
 30
0.0
 11
49.893452
 21
90.965836
 31
0.0
210
0.0
220
0.0
230
1.0
  0
LINE
  5
4D6
100
AcDbEntity
  8
0
 62
     7
 48
0.022102
100
AcDbLine
 10
49.893452
 20
90.965836
 30
0.0
 11
49.893452
 21
90.081757
 31
0.0
210
0.0
220
0.0
230
1.0
  0
LINE
  5
4D7
100
AcDbEntity
  8
0
 62
     7
 48
0.025798
100
AcDbLine
 10
49.893452
 20
90.081757
 30
0.0
 11
49.893452
 21
89.04982
 31
0.0
210
0.0
220
0.0
230
1.0
  0
LINE
  5
4D8
100
AcDbEntity
  8
0
 62
     7
 48
0.027647
100
AcDbLine
 10
49.893452
 20
89.04982
 30
0.0
 11
49.893452
 21
87.943954
 31
0.0
210
0.0
220
0.0
230
1.0
  0
LINE
  5
4D9
100
AcDbEntity
  8
0
 62
     7
 48
0.027647
100
AcDbLine
 10
49.893452
 20
87.943954
 30
0.0
 11
49.893452
 21
86.838089
 31
0.0
210
0.0
220
0.0
230
1.0
  0
LINE
  5
4DA
100
AcDbEntity
  8
0
 62
     7
 48
0.025798
100
AcDbLine
 10
49.893452
 20
86.838089
 30
0.0
 11
49.893452
 21
85.806152
 31
0.0
210
0.0
220
0.0
230
1.0
  0
LINE
  5
4DB
100
AcDbEntity
  8
0
 62
     7
 48
0.022102
100
AcDbLine
 10
49.893452
 20
85.806152
 30
0.0
 11
49.893452
 21
84.922073
 31
0.0
210
0.0
220
0.0
230
1.0
  0
LINE
  5
4DC
100
AcDbEntity
  8
0
 62
     7
 48
0.016557
100
AcDbLine
 10
49.893452
 20
84.922073
 30
0.0
 11
49.893452
 21
84.259781
 31
0.0
210
0.0
220
0.0
230
1.0
  0
LINE
  5
4DD
100
AcDbEntity
  8
0
 62
     7
 48
0.009164
100
AcDbLine
 10
49.893452
 20
84.259781
 30
0.0
 11
49.893452
 21
83.893219
 31
0.0
210
0.0
220
0.0
230
1.0
  0
LINE
  5
4DE
100
AcDbEntity
  8
0
 62
     7
 48
0.001232
100
AcDbLine
 10
49.893452
 20
83.893219
 30
0.0
 11
49.893452
 21
83.843933
 31
0.0
210
0.0
220
0.0
230
1.0
  0
LINE
  5
4DF
100
AcDbEntity
  8
0
 62
     7
 48
0.004842
100
AcDbLine
 10
49.093494
 20
93.043747
 30
0.0
 11
48.899815
 21
93.043747
 31
0.0
210
0.0
220
0.0
230
1.0
  0
LINE
  5
4E0
100
AcDbEntity
  8
0
 62
     7
 48
0.013213
100
AcDbLine
 10
48.899815
 20
93.043747
 30
0.0
 11
48.371304
 21
93.043747
 31
0.0
210
0.0
220
0.0
230
1.0
  0
LINE
  5
4E1
100
AcDbEntity
  8
0
 62
     7
 48
0.019614
100
AcDbLine
 10
48.371304
 20
93.043747
 30
0.0
 11
47.586742
 21
93.043747
 31
0.0
210
0.0
220
0.0
230
1.0
  0
LINE
  5
4E2
100
AcDbEntity
  8
0
 62
     7
 48
0.024046
100
AcDbLine
 10
47.586742
 20
93.043747
 30
0.0
 11
46.624912
 21
93.043747
 31
0.0
210
0.0
220
0.0
230
1.0
  0
LINE
  5
4E3
100
AcDbEntity
  8
0
 62
     7
 48
0.026508
100
AcDbLine
 10
46.624912
 20
93.043747
 30
0.0
 11
45.564602
 21
93.043747
 31
0.0
210
0.0
220
0.0
230
1.0
  0
LINE
  5
4E4
100
AcDbEntity
  8
0
 62
     7
 48
0.027
100
AcDbLine
 10
45.564602
 20
93.043747
 30
0.0
 11
44.484592
 21
93.043747
 31
0.0
210
0.0
220
0.0
230
1.0
  0
LINE
  5
4E5
100
AcDbEntity
  8
0
 62
     7
 48
0.025523
100
AcDbLine
 10
44.484592
 20
93.043747
 30
0.0
 11
43.46368
 21
93.043747
 31
0.0
210
0.0
220
0.0
230
1.0
  0
LINE
  5
4E6
100
AcDbEntity
  8
0
 62
     7
 48
0.022076
100
AcDbLine
 10
43.46368
 20
93.043747
 30
0.0
 11
42.580631
 21
93.043747
 31
0.0
210
0.0
220
0.0
230
1.0
  0
LINE
  5
4E7
100
AcDbEntity
  8
0
 62
     7
 48
0.01666
100
AcDbLine
 10
42.580631
 20
93.043747
 30
0.0
 11
41.914249
 21
93.043747
 31
0.0
210
0.0
220
0.0
230
1.0
  0
LINE
  5
4E8
100
AcDbEntity
  8
0
 62
     7
 48
0.009274
100
AcDbLine
 10
41.914249
 20
93.043747
 30
0.0
 11
41.543301
 21
93.043747
 31
0.0
210
0.0
220
0.0
230
1.0
  0
LINE
  5
4E9
100
AcDbEntity
  8
0
 62
     7
 48
0.001251
100
AcDbLine
 10
41.543301
 20
93.043747
 30
0.0
 11
41.493244
 21
93.043747
 31
0.0
210
0.0
220
0.0
230
1.0
  0
ARC
  5
4EA
100
AcDbEntity
  8
0
 62
     7
100
AcDbCircle
 10
41.503811
 20
92.011108
 30
0.0
 40
1.032699
210
0.0
220
0.0
230
1.0
100
AcDbArc
 50
90.586108
 51
125.601291
  0
ARC
  5
4EB
100
AcDbEntity
  8
0
 62
     7
100
AcDbCircle
 10
41.507168
 20
92.032913
 30
0.0
 40
1.017033
210
0.0
220
0.0
230
1.0
100
AcDbArc
 50
126.470623
 51
161.246887
  0
LINE
  5
4EC
100
AcDbEntity
  8
0
 62
     7
 48
0.008
100
AcDbLine
 10
40.544125
 20
92.359879
 30
0.0
 11
40.49313
 21
92.043976
 31
0.0
210
0.0
220
0.0
230
1.0
  0
LINE
  5
4ED
100
AcDbEntity
  8
0
 62
     7
 48
0.005224
100
AcDbLine
 10
40.49313
 20
92.043976
 30
0.0
 11
40.49313
 21
91.835007
 31
0.0
210
0.0
220
0.0
230
1.0
  0
LINE
  5
4EE
100
AcDbEntity
  8
0
 62
     7
 48
0.014256
100
AcDbLine
 10
40.49313
 20
91.835007
 30
0.0
 11
40.49313
 21
91.264786
 31
0.0
210
0.0
220
0.0
230
1.0
  0
LINE
  5
4EF
100
AcDbEntity
  8
0
 62
     7
 48
0.021162
100
AcDbLine
 10
40.49313
 20
91.264786
 30
0.0
 11
40.49313
 21
90.418304
 31
0.0
210
0.0
220
0.0
230
1.0
  0
LINE
  5
4F0
100
AcDbEntity
  8
0
 62
     7
 48
0.025943
100
AcDbLine
 10
40.49313
 20
90.418304
 30
0.0
 11
40.49313
 21
89.380585
 31
0.0
210
0.0
220
0.0
230
1.0
  0
LINE
  5
4F1
100
AcDbEntity
  8
0
 62
     7
 48
0.0286
100
AcDbLine
 10
40.49313
 20
89.380585
 30
0.0
 11
40.49313
 21
88.236588
 31
0.0
210
0.0
220
0.0
230
1.0
  0
LINE
  5
4F2
100
AcDbEntity
  8
0
 62
     7
 48
0.029131
100
AcDbLine
 10
40.49313
 20
88.236588
 30
0.0
 11
40.49313
 21
87.07135
 31
0.0
210
0.0
220
0.0
230
1.0
  0
LINE
  5
4F3
100
AcDbEntity
  8
0
 62
     7
 48
0.027537
100
AcDbLine
 10
40.49313
 20
87.07135
 30
0.0
 11
40.49313
 21
85.969864
 31
0.0
210
0.0
220
0.0
230
1.0
  0
LINE
  5
4F4
100
AcDbEntity
  8
0
 62
     7
 48
0.023818
100
AcDbLine
 10
40.49313
 20
85.969864
 30
0.0
 11
40.49313
 21
85.017136
 31
0.0
210
0.0
220
0.0
230
1.0
  0
LINE
  5
4F5
100
AcDbEntity
  8
0
 62
     7
 48
0.017974
100
AcDbLine
 10
40.49313
 20
85.017136
 30
0.0
 11
40.49313
 21
84.298157
 31
0.0
210
0.0
220
0.0
230
1.0
  0
LINE
  5
4F6
100
AcDbEntity
  8
0
 62
     7
 48
0.010005
100
AcDbLine
 10
40.49313
 20
84.298157
 30
0.0
 11
40.49313
 21
83.897949
 31
0.0
210
0.0
220
0.0
230
1.0
  0
LINE
  5
4F7
100
AcDbEntity
  8
0
 62
     7
 48
0.00135
100
AcDbLine
 10
40.49313
 20
83.897949
 30
0.0
 11
40.49313
 21
83.843933
 31
0.0
210
0.0
220
0.0
230
1.0
  0
ARC
  5
4F8
100
AcDbEntity
  8
0
 62
     7
100
AcDbCircle
 10
41.525463
 20
83.854401
 30
0.0
 40
1.032387
210
0.0
220
0.0
230
1.0
100
AcDbArc
 50
180.580831
 51
215.608854
  0
ARC
  5
4F9
100
AcDbEntity
  8
0
 62
     7
100
AcDbCircle
 10
41.503262
 20
83.857803
 30
0.0
 40
1.016443
210
0.0
220
0.0
230
1.0
100
AcDbArc
 50
216.493473
 51
251.287358
  0
LINE
  5
4FA
100
AcDbEntity
  8
0
 62
     7
 48
0.008004
100
AcDbLine
 10
41.177166
 20
82.895096
 30
0.0
 11
41.493244
 21
82.844162
 31
0.0
210
0.0
220
0.0
230
1.0
  0
LINE
  5
4FB
100
AcDbEntity
  8
0
 62
     7
 48
0.004842
100
AcDbLine
 10
41.493244
 20
82.844162
 30
0.0
 11
41.686924
 21
82.844162
 31
0.0
210
0.0
220
0.0
230
1.0
  0
LINE
  5
4FC
100
AcDbEntity
  8
0
 62
     7
 48
0.013213
100
AcDbLine
 10
41.686924
 20
82.844162
 30
0.0
 11
42.215435
 21
82.844162
 31
0.0
210
0.0
220
0.0
230
1.0
  0
LINE
  5
4FD
100
AcDbEntity
  8
0
 62
     7
 48
0.019614
100
AcDbLine
 10
42.215435
 20
82.844162
 30
0.0
 11
42.999996
 21
82.844162
 31
0.0
210
0.0
220
0.0
230
1.0
  0
LINE
  5
4FE
100
AcDbEntity
  8
0
 62
     7
 48
0.024046
100
AcDbLine
 10
42.999996
 20
82.844162
 30
0.0
 11
43.961826
 21
82.844162
 31
0.0
210
0.0
220
0.0
230
1.0
  0
LINE
  5
4FF
100
AcDbEntity
  8
0
 62
     7
 48
0.026508
100
AcDbLine
 10
43.961826
 20
82.844162
 30
0.0
 11
45.022137
 21
82.844162
 31
0.0
210
0.0
220
0.0
230
1.0
  0
LINE
  5
500
100
AcDbEntity
  8
0
 62
     7
 48
0.027
100
AcDbLine
 10
45.022137
 20
82.844162
 30
0.0
 11
46.102139
 21
82.844162
 31
0.0
210
0.0
220
0.0
230
1.0
  0
LINE
  5
501
100
AcDbEntity
  8
0
 62
     7
 48
0.025523
100
AcDbLine
 10
46.102139
 20
82.844162
 30
0.0
 11
47.123058
 21
82.844162
 31
0.0
210
0.0
220
0.0
230
1.0
  0
LINE
  5
502
100
AcDbEntity
  8
0
 62
     7
 48
0.022076
100
AcDbLine
 10
47.123058
 20
82.844162
 30
0.0
 11
48.0061
 21
82.844162
 31
0.0
210
0.0
220
0.0
230
1.0
  0
LINE
  5
503
100
AcDbEntity
  8
0
 62
     7
 48
0.01666
100
AcDbLine
 10
48.0061
 20
82.844162
 30
0.0
 11
48.672489
 21
82.844162
 31
0.0
210
0.0
220
0.0
230
1.0
  0
LINE
  5
504
100
AcDbEntity
  8
0
 62
     7
 48
0.009274
100
AcDbLine
 10
48.672489
 20
82.844162
 30
0.0
 11
49.04343
 21
82.844162
 31
0.0
210
0.0
220
0.0
230
1.0
  0
LINE
  5
505
100
AcDbEntity
  8
0
 62
     7
 48
0.001252
100
AcDbLine
 10
49.04343
 20
82.844162
 30
0.0
 11
49.093494
 21
82.844162
 31
0.0
210
0.0
220
0.0
230
1.0
  0
ARC
  5
506
100
AcDbEntity
  8
0
 62
     7
100
AcDbCircle
 10
49.083012
 20
83.876572
 30
0.0
 40
1.032467
210
0.0
220
0.0
230
1.0
100
AcDbArc
 50
270.58166
 51
305.586406
  0
ARC
  5
507
100
AcDbEntity
  8
0
 62
     7
100
AcDbCircle
 10
49.08009
 20
83.854111
 30
0.0
 40
1.01602
210
0.0
220
0.0
230
1.0
100
AcDbArc
 50
306.457339
 51
341.263736
  0
LINE
  5
508
100
AcDbEntity
  8
0
 62
     7
 48
0.008007
100
AcDbLine
 10
50.042271
 20
83.527756
 30
0.0
 11
50.093266
 21
83.843933
 31
0.0
210
0.0
220
0.0
230
1.0
  0
LINE
  5
509
100
AcDbEntity
  8
0
 62
     7
 48
0.005224
100
AcDbLine
 10
50.093266
 20
83.843933
 30
0.0
 11
50.093266
 21
84.052902
 31
0.0
210
0.0
220
0.0
230
1.0
  0
LINE
  5
50A
100
AcDbEntity
  8
0
 62
     7
 48
0.014256
100
AcDbLine
 10
50.093266
 20
84.052902
 30
0.0
 11
50.093266
 21
84.623123
 31
0.0
210
0.0
220
0.0
230
1.0
  0
LINE
  5
50B
100
AcDbEntity
  8
0
 62
     7
 48
0.021162
100
AcDbLine
 10
50.093266
 20
84.623123
 30
0.0
 11
50.093266
 21
85.469604
 31
0.0
210
0.0
220
0.0
230
1.0
  0
LINE
  5
50C
100
AcDbEntity
  8
0
 62
     7
 48
0.025943
100
AcDbLine
 10
50.093266
 20
85.469604
 30
0.0
 11
50.093266
 21
86.507324
 31
0.0
210
0.0
220
0.0
230
1.0
  0
LINE
  5
50D
100
AcDbEntity
  8
0
 62
     7
 48
0.0286
100
AcDbLine
 10
50.093266
 20
86.507324
 30
0.0
 11
50.093266
 21
87.651321
 31
0.0
210
0.0
220
0.0
230
1.0
  0
LINE
  5
50E
100
AcDbEntity
  8
0
 62
     7
 48
0.029131
100
AcDbLine
 10
50.093266
 20
87.651321
 30
0.0
 11
50.093266
 21
88.816559
 31
0.0
210
0.0
220
0.0
230
1.0
  0
LINE
  5
50F
100
AcDbEntity
  8
0
 62
     7
 48
0.027537
100
AcDbLine
 10
50.093266
 20
88.816559
 30
0.0
 11
50.093266
 21
89.918045
 31
0.0
210
0.0
220
0.0
230
1.0
  0
LINE
  5
510
100
AcDbEntity
  8
0
 62
     7
 48
0.023818
100
AcDbLine
 10
50.093266
 20
89.918045
 30
0.0
 11
50.093266
 21
90.870773
 31
0.0
210
0.0
220
0.0
230
1.0
  0
LINE
  5
511
100
AcDbEntity
  8
0
 62
     7
 48
0.017974
100
AcDbLine
 10
50.093266
 20
90.870773
 30
0.0
 11
50.093266
 21
91.589752
 31
0.0
210
0.0
220
0.0
230
1.0
  0
LINE
  5
512
100
AcDbEntity
  8
0
 62
     7
 48
0.010005
100
AcDbLine
 10
50.093266
 20
91.589752
 30
0.0
 11
50.093266
 21
91.98996
 31
0.0
210
0.0
220
0.0
230
1.0
  0
LINE
  5
513
100
AcDbEntity
  8
0
 62
     7
 48
0.00135
100
AcDbLine
 10
50.093266
 20
91.98996
 30
0.0
 11
50.093266
 21
92.043976
 31
0.0
210
0.0
220
0.0
230
1.0
  0
ARC
  5
514
100
AcDbEntity
  8
0
 62
     7
100
AcDbCircle
 10
49.061367
 20
92.033386
 30
0.0
 40
1.031955
210
0.0
220
0.0
230
1.0
100
AcDbArc
 50
0.588301
 51
35.614576
  0
ARC
  5
515
100
AcDbEntity
  8
0
 62
     7
100
AcDbCircle
 10
49.082455
 20
92.029617
 30
0.0
 40
1.017119
210
0.0
220
0.0
230
1.0
100
AcDbArc
 50
36.478857
 51
71.249563
  0
LINE
  5
516
100
AcDbEntity
  8
0
 62
     7
 48
0.008
100
AcDbLine
 10
49.409405
 20
92.992752
 30
0.0
 11
49.093494
 21
93.043747
 31
0.0
210
0.0
220
0.0
230
1.0
  0
ARC
  5
517
100
AcDbEntity
  8
0
 62
     7
100
AcDbCircle
 10
38.667019
 20
83.85228
 30
0.0
 40
0.82638
210
0.0
220
0.0
230
1.0
100
AcDbArc
 50
324.402704
 51
359.42152
  0
ARC
  5
518
100
AcDbEntity
  8
0
 62
     7
100
AcDbCircle
 10
38.685375
 20
83.854691
 30
0.0
 40
0.812965
210
0.0
220
0.0
230
1.0
100
AcDbArc
 50
288.713297
 51
323.51109
  0
LINE
  5
519
100
AcDbEntity
  8
0
 62
     7
 48
0.006401
100
AcDbLine
 10
38.946201
 20
83.084702
 30
0.0
 11
38.693401
 21
83.043976
 31
0.0
210
0.0
220
0.0
230
1.0
  0
LINE
  5
51A
100
AcDbEntity
  8
0
 62
     7
 48
0.004842
100
AcDbLine
 10
38.693401
 20
83.043976
 30
0.0
 11
38.499737
 21
83.043976
 31
0.0
210
0.0
220
0.0
230
1.0
  0
LINE
  5
51B
100
AcDbEntity
  8
0
 62
     7
 48
0.013212
100
AcDbLine
 10
38.499737
 20
83.043976
 30
0.0
 11
37.971249
 21
83.043976
 31
0.0
210
0.0
220
0.0
230
1.0
  0
LINE
  5
51C
100
AcDbEntity
  8
0
 62
     7
 48
0.019613
100
AcDbLine
 10
37.971249
 20
83.043976
 30
0.0
 11
37.186718
 21
83.043976
 31
0.0
210
0.0
220
0.0
230
1.0
  0
LINE
  5
51D
100
AcDbEntity
  8
0
 62
     7
 48
0.024045
100
AcDbLine
 10
37.186718
 20
83.043976
 30
0.0
 11
36.224934
 21
83.043976
 31
0.0
210
0.0
220
0.0
230
1.0
  0
LINE
  5
51E
100
AcDbEntity
  8
0
 62
     7
 48
0.026507
100
AcDbLine
 10
36.224934
 20
83.043976
 30
0.0
 11
35.164669
 21
83.043976
 31
0.0
210
0.0
220
0.0
230
1.0
  0
LINE
  5
51F
100
AcDbEntity
  8
0
 62
     7
 48
0.026999
100
AcDbLine
 10
35.164669
 20
83.043976
 30
0.0
 11
34.084713
 21
83.043976
 31
0.0
210
0.0
220
0.0
230
1.0
  0
LINE
  5
520
100
AcDbEntity
  8
0
 62
     7
 48
0.025522
100
AcDbLine
 10
34.084713
 20
83.043976
 30
0.0
 11
33.063847
 21
83.043976
 31
0.0
210
0.0
220
0.0
230
1.0
  0
LINE
  5
521
100
AcDbEntity
  8
0
 62
     7
 48
0.022075
100
AcDbLine
 10
33.063847
 20
83.043976
 30
0.0
 11
32.180843
 21
83.043976
 31
0.0
210
0.0
220
0.0
230
1.0
  0
LINE
  5
522
100
AcDbEntity
  8
0
 62
     7
 48
0.016659
100
AcDbLine
 10
32.180843
 20
83.043976
 30
0.0
 11
31.514484
 21
83.043976
 31
0.0
210
0.0
220
0.0
230
1.0
  0
LINE
  5
523
100
AcDbEntity
  8
0
 62
     7
 48
0.009273
100
AcDbLine
 10
31.514484
 20
83.043976
 30
0.0
 11
31.143559
 21
83.043976
 31
0.0
210
0.0
220
0.0
230
1.0
  0
LINE
  5
524
100
AcDbEntity
  8
0
 62
     7
 48
0.001251
100
AcDbLine
 10
31.143559
 20
83.043976
 30
0.0
 11
31.093502
 21
83.043976
 31
0.0
210
0.0
220
0.0
230
1.0
  0
ARC
  5
525
100
AcDbEntity
  8
0
 62
     7
100
AcDbCircle
 10
31.10178
 20
83.87175
 30
0.0
 40
0.827805
210
0.0
220
0.0
230
1.0
100
AcDbArc
 50
234.4581
 51
269.426948
  0
ARC
  5
526
100
AcDbEntity
  8
0
 62
     7
100
AcDbCircle
 10
31.103016
 20
83.851807
 30
0.0
 40
0.812402
210
0.0
220
0.0
230
1.0
100
AcDbArc
 50
198.734913
 51
233.570012
  0
LINE
  5
527
100
AcDbEntity
  8
0
 62
     7
 48
0.006408
100
AcDbLine
 10
30.33366
 20
83.590881
 30
0.0
 11
30.292858
 21
83.843933
 31
0.0
210
0.0
220
0.0
230
1.0
  0
LINE
  5
528
100
AcDbEntity
  8
0
 62
     7
 48
0.004774
100
AcDbLine
 10
30.292858
 20
83.843933
 30
0.0
 11
30.292858
 21
84.034912
 31
0.0
210
0.0
220
0.0
230
1.0
  0
LINE
  5
529
100
AcDbEntity
  8
0
 62
     7
 48
0.013092
100
AcDbLine
 10
30.292858
 20
84.034912
 30
0.0
 11
30.292858
 21
84.558594
 31
0.0
210
0.0
220
0.0
230
1.0
  0
LINE
  5
52A
100
AcDbEntity
  8
0
 62
     7
 48
0.01956
100
AcDbLine
 10
30.292858
 20
84.558594
 30
0.0
 11
30.292858
 21
85.341003
 31
0.0
210
0.0
220
0.0
230
1.0
  0
LINE
  5
52B
100
AcDbEntity
  8
0
 62
     7
 48
0.024181
100
AcDbLine
 10
30.292858
 20
85.341003
 30
0.0
 11
30.292858
 21
86.308258
 31
0.0
210
0.0
220
0.0
230
1.0
  0
LINE
  5
52C
100
AcDbEntity
  8
0
 62
     7
 48
0.026954
100
AcDbLine
 10
30.292858
 20
86.308258
 30
0.0
 11
30.292858
 21
87.386398
 31
0.0
210
0.0
220
0.0
230
1.0
  0
LINE
  5
52D
100
AcDbEntity
  8
0
 62
     7
 48
0.027878
100
AcDbLine
 10
30.292858
 20
87.386398
 30
0.0
 11
30.292858
 21
88.501511
 31
0.0
210
0.0
220
0.0
230
1.0
  0
LINE
  5
52E
100
AcDbEntity
  8
0
 62
     7
 48
0.026954
100
AcDbLine
 10
30.292858
 20
88.501511
 30
0.0
 11
30.292858
 21
89.579651
 31
0.0
210
0.0
220
0.0
230
1.0
  0
LINE
  5
52F
100
AcDbEntity
  8
0
 62
     7
 48
0.024181
100
AcDbLine
 10
30.292858
 20
89.579651
 30
0.0
 11
30.292858
 21
90.546906
 31
0.0
210
0.0
220
0.0
230
1.0
  0
LINE
  5
530
100
AcDbEntity
  8
0
 62
     7
 48
0.01956
100
AcDbLine
 10
30.292858
 20
90.546906
 30
0.0
 11
30.292858
 21
91.329315
 31
0.0
210
0.0
220
0.0
230
1.0
  0
LINE
  5
531
100
AcDbEntity
  8
0
 62
     7
 48
0.013092
100
AcDbLine
 10
30.292858
 20
91.329315
 30
0.0
 11
30.292858
 21
91.852997
 31
0.0
210
0.0
220
0.0
230
1.0
  0
LINE
  5
532
100
AcDbEntity
  8
0
 62
     7
 48
0.004774
100
AcDbLine
 10
30.292858
 20
91.852997
 30
0.0
 11
30.292858
 21
92.043976
 31
0.0
210
0.0
220
0.0
230
1.0
  0
LINE
  5
533
100
AcDbEntity
  8
0
 62
     7
 48
0.006402
100
AcDbLine
 10
30.292858
 20
92.043976
 30
0.0
 11
30.33366
 21
92.296768
 31
0.0
210
0.0
220
0.0
230
1.0
  0
ARC
  5
534
100
AcDbEntity
  8
0
 62
     7
100
AcDbCircle
 10
31.109905
 20
92.030914
 30
0.0
 40
0.820515
210
0.0
220
0.0
230
1.0
100
AcDbArc
 50
126.610288
 51
161.093986
  0
ARC
  5
535
100
AcDbEntity
  8
0
 62
     7
100
AcDbCircle
 10
31.093029
 20
92.043823
 30
0.0
 40
0.800101
210
0.0
220
0.0
230
1.0
100
AcDbArc
 50
89.966439
 51
126.191981
  0
LINE
  5
536
100
AcDbEntity
  8
0
 62
     7
 48
0.001251
100
AcDbLine
 10
31.093502
 20
92.843933
 30
0.0
 11
31.143559
 21
92.843933
 31
0.0
210
0.0
220
0.0
230
1.0
  0
LINE
  5
537
100
AcDbEntity
  8
0
 62
     7
 48
0.009273
100
AcDbLine
 10
31.143559
 20
92.843933
 30
0.0
 11
31.514484
 21
92.843933
 31
0.0
210
0.0
220
0.0
230
1.0
  0
LINE
  5
538
100
AcDbEntity
  8
0
 62
     7
 48
0.016659
100
AcDbLine
 10
31.514484
 20
92.843933
 30
0.0
 11
32.180843
 21
92.843933
 31
0.0
210
0.0
220
0.0
230
1.0
  0
LINE
  5
539
100
AcDbEntity
  8
0
 62
     7
 48
0.022075
100
AcDbLine
 10
32.180843
 20
92.843933
 30
0.0
 11
33.063847
 21
92.843933
 31
0.0
210
0.0
220
0.0
230
1.0
  0
LINE
  5
53A
100
AcDbEntity
  8
0
 62
     7
 48
0.025522
100
AcDbLine
 10
33.063847
 20
92.843933
 30
0.0
 11
34.084713
 21
92.843933
 31
0.0
210
0.0
220
0.0
230
1.0
  0
LINE
  5
53B
100
AcDbEntity
  8
0
 62
     7
 48
0.026999
100
AcDbLine
 10
34.084713
 20
92.843933
 30
0.0
 11
35.164669
 21
92.843933
 31
0.0
210
0.0
220
0.0
230
1.0
  0
LINE
  5
53C
100
AcDbEntity
  8
0
 62
     7
 48
0.026507
100
AcDbLine
 10
35.164669
 20
92.843933
 30
0.0
 11
36.224934
 21
92.843933
 31
0.0
210
0.0
220
0.0
230
1.0
  0
LINE
  5
53D
100
AcDbEntity
  8
0
 62
     7
 48
0.024045
100
AcDbLine
 10
36.224934
 20
92.843933
 30
0.0
 11
37.186718
 21
92.843933
 31
0.0
210
0.0
220
0.0
230
1.0
  0
LINE
  5
53E
100
AcDbEntity
  8
0
 62
     7
 48
0.019613
100
AcDbLine
 10
37.186718
 20
92.843933
 30
0.0
 11
37.971249
 21
92.843933
 31
0.0
210
0.0
220
0.0
230
1.0
  0
LINE
  5
53F
100
AcDbEntity
  8
0
 62
     7
 48
0.013212
100
AcDbLine
 10
37.971249
 20
92.843933
 30
0.0
 11
38.499737
 21
92.843933
 31
0.0
210
0.0
220
0.0
230
1.0
  0
LINE
  5
540
100
AcDbEntity
  8
0
 62
     7
 48
0.004842
100
AcDbLine
 10
38.499737
 20
92.843933
 30
0.0
 11
38.693401
 21
92.843933
 31
0.0
210
0.0
220
0.0
230
1.0
  0
LINE
  5
541
100
AcDbEntity
  8
0
 62
     7
 48
0.006402
100
AcDbLine
 10
38.693401
 20
92.843933
 30
0.0
 11
38.946201
 21
92.803131
 31
0.0
210
0.0
220
0.0
230
1.0
  0
ARC
  5
542
100
AcDbEntity
  8
0
 62
     7
100
AcDbCircle
 10
38.680264
 20
92.026535
 30
0.0
 40
0.820868
210
0.0
220
0.0
230
1.0
100
AcDbArc
 50
36.634672
 51
71.096874
  0
ARC
  5
543
100
AcDbEntity
  8
0
 62
     7
100
AcDbCircle
 10
38.694271
 20
92.044235
 30
0.0
 40
0.799085
210
0.0
220
0.0
230
1.0
100
AcDbArc
 50
359.981323
 51
36.21576
  0
LINE
  5
544
100
AcDbEntity
  8
0
 62
     7
 48
0.001232
100
AcDbLine
 10
39.493359
 20
92.043976
 30
0.0
 11
39.493359
 21
91.99469
 31
0.0
210
0.0
220
0.0
230
1.0
  0
LINE
  5
545
100
AcDbEntity
  8
0
 62
     7
 48
0.009164
100
AcDbLine
 10
39.493359
 20
91.99469
 30
0.0
 11
39.493359
 21
91.628128
 31
0.0
210
0.0
220
0.0
230
1.0
  0
LINE
  5
546
100
AcDbEntity
  8
0
 62
     7
 48
0.016557
100
AcDbLine
 10
39.493359
 20
91.628128
 30
0.0
 11
39.493359
 21
90.965836
 31
0.0
210
0.0
220
0.0
230
1.0
  0
LINE
  5
547
100
AcDbEntity
  8
0
 62
     7
 48
0.022102
100
AcDbLine
 10
39.493359
 20
90.965836
 30
0.0
 11
39.493359
 21
90.081757
 31
0.0
210
0.0
220
0.0
230
1.0
  0
LINE
  5
548
100
AcDbEntity
  8
0
 62
     7
 48
0.025798
100
AcDbLine
 10
39.493359
 20
90.081757
 30
0.0
 11
39.493359
 21
89.04982
 31
0.0
210
0.0
220
0.0
230
1.0
  0
LINE
  5
549
100
AcDbEntity
  8
0
 62
     7
 48
0.027647
100
AcDbLine
 10
39.493359
 20
89.04982
 30
0.0
 11
39.493359
 21
87.943954
 31
0.0
210
0.0
220
0.0
230
1.0
  0
LINE
  5
54A
100
AcDbEntity
  8
0
 62
     7
 48
0.027647
100
AcDbLine
 10
39.493359
 20
87.943954
 30
0.0
 11
39.493359
 21
86.838089
 31
0.0
210
0.0
220
0.0
230
1.0
  0
LINE
  5
54B
100
AcDbEntity
  8
0
 62
     7
 48
0.025798
100
AcDbLine
 10
39.493359
 20
86.838089
 30
0.0
 11
39.493359
 21
85.806152
 31
0.0
210
0.0
220
0.0
230
1.0
  0
LINE
  5
54C
100
AcDbEntity
  8
0
 62
     7
 48
0.022102
100
AcDbLine
 10
39.493359
 20
85.806152
 30
0.0
 11
39.493359
 21
84.922073
 31
0.0
210
0.0
220
0.0
230
1.0
  0
LINE
  5
54D
100
AcDbEntity
  8
0
 62
     7
 48
0.016557
100
AcDbLine
 10
39.493359
 20
84.922073
 30
0.0
 11
39.493359
 21
84.259781
 31
0.0
210
0.0
220
0.0
230
1.0
  0
LINE
  5
54E
100
AcDbEntity
  8
0
 62
     7
 48
0.009164
100
AcDbLine
 10
39.493359
 20
84.259781
 30
0.0
 11
39.493359
 21
83.893219
 31
0.0
210
0.0
220
0.0
230
1.0
  0
LINE
  5
54F
100
AcDbEntity
  8
0
 62
     7
 48
0.001232
100
AcDbLine
 10
39.493359
 20
83.893219
 30
0.0
 11
39.493359
 21
83.843933
 31
0.0
210
0.0
220
0.0
230
1.0
  0
LINE
  5
550
100
AcDbEntity
  8
0
 62
     7
 48
0.004842
100
AcDbLine
 10
38.693401
 20
93.043747
 30
0.0
 11
38.499729
 21
93.043747
 31
0.0
210
0.0
220
0.0
230
1.0
  0
LINE
  5
551
100
AcDbEntity
  8
0
 62
     7
 48
0.013213
100
AcDbLine
 10
38.499729
 20
93.043747
 30
0.0
 11
37.97121
 21
93.043747
 31
0.0
210
0.0
220
0.0
230
1.0
  0
LINE
  5
552
100
AcDbEntity
  8
0
 62
     7
 48
0.019614
100
AcDbLine
 10
37.97121
 20
93.043747
 30
0.0
 11
37.186649
 21
93.043747
 31
0.0
210
0.0
220
0.0
230
1.0
  0
LINE
  5
553
100
AcDbEntity
  8
0
 62
     7
 48
0.024046
100
AcDbLine
 10
37.186649
 20
93.043747
 30
0.0
 11
36.224819
 21
93.043747
 31
0.0
210
0.0
220
0.0
230
1.0
  0
LINE
  5
554
100
AcDbEntity
  8
0
 62
     7
 48
0.026508
100
AcDbLine
 10
36.224819
 20
93.043747
 30
0.0
 11
35.164509
 21
93.043747
 31
0.0
210
0.0
220
0.0
230
1.0
  0
LINE
  5
555
100
AcDbEntity
  8
0
 62
     7
 48
0.027
100
AcDbLine
 10
35.164509
 20
93.043747
 30
0.0
 11
34.084507
 21
93.043747
 31
0.0
210
0.0
220
0.0
230
1.0
  0
LINE
  5
556
100
AcDbEntity
  8
0
 62
     7
 48
0.025523
100
AcDbLine
 10
34.084507
 20
93.043747
 30
0.0
 11
33.063587
 21
93.043747
 31
0.0
210
0.0
220
0.0
230
1.0
  0
LINE
  5
557
100
AcDbEntity
  8
0
 62
     7
 48
0.022076
100
AcDbLine
 10
33.063587
 20
93.043747
 30
0.0
 11
32.180546
 21
93.043747
 31
0.0
210
0.0
220
0.0
230
1.0
  0
LINE
  5
558
100
AcDbEntity
  8
0
 62
     7
 48
0.01666
100
AcDbLine
 10
32.180546
 20
93.043747
 30
0.0
 11
31.514156
 21
93.043747
 31
0.0
210
0.0
220
0.0
230
1.0
  0
LINE
  5
559
100
AcDbEntity
  8
0
 62
     7
 48
0.009274
100
AcDbLine
 10
31.514156
 20
93.043747
 30
0.0
 11
31.143215
 21
93.043747
 31
0.0
210
0.0
220
0.0
230
1.0
  0
LINE
  5
55A
100
AcDbEntity
  8
0
 62
     7
 48
0.001252
100
AcDbLine
 10
31.143215
 20
93.043747
 30
0.0
 11
31.093151
 21
93.043747
 31
0.0
210
0.0
220
0.0
230
1.0
  0
ARC
  5
55B
100
AcDbEntity
  8
0
 62
     7
100
AcDbCircle
 10
31.103718
 20
92.011108
 30
0.0
 40
1.032699
210
0.0
220
0.0
230
1.0
100
AcDbArc
 50
90.586108
 51
125.601291
  0
ARC
  5
55C
100
AcDbEntity
  8
0
 62
     7
100
AcDbCircle
 10
31.107075
 20
92.032913
 30
0.0
 40
1.017033
210
0.0
220
0.0
230
1.0
100
AcDbArc
 50
126.470623
 51
161.246887
  0
LINE
  5
55D
100
AcDbEntity
  8
0
 62
     7
 48
0.008
100
AcDbLine
 10
30.144032
 20
92.359879
 30
0.0
 11
30.093037
 21
92.043976
 31
0.0
210
0.0
220
0.0
230
1.0
  0
LINE
  5
55E
100
AcDbEntity
  8
0
 62
     7
 48
0.005224
100
AcDbLine
 10
30.093037
 20
92.043976
 30
0.0
 11
30.093037
 21
91.835007
 31
0.0
210
0.0
220
0.0
230
1.0
  0
LINE
  5
55F
100
AcDbEntity
  8
0
 62
     7
 48
0.014256
100
AcDbLine
 10
30.093037
 20
91.835007
 30
0.0
 11
30.093037
 21
91.264786
 31
0.0
210
0.0
220
0.0
230
1.0
  0
LINE
  5
560
100
AcDbEntity
  8
0
 62
     7
 48
0.021162
100
AcDbLine
 10
30.093037
 20
91.264786
 30
0.0
 11
30.093037
 21
90.418304
 31
0.0
210
0.0
220
0.0
230
1.0
  0
LINE
  5
561
100
AcDbEntity
  8
0
 62
     7
 48
0.025943
100
AcDbLine
 10
30.093037
 20
90.418304
 30
0.0
 11
30.093037
 21
89.380585
 31
0.0
210
0.0
220
0.0
230
1.0
  0
LINE
  5
562
100
AcDbEntity
  8
0
 62
     7
 48
0.0286
100
AcDbLine
 10
30.093037
 20
89.380585
 30
0.0
 11
30.093037
 21
88.236588
 31
0.0
210
0.0
220
0.0
230
1.0
  0
LINE
  5
563
100
AcDbEntity
  8
0
 62
     7
 48
0.029131
100
AcDbLine
 10
30.093037
 20
88.236588
 30
0.0
 11
30.093037
 21
87.07135
 31
0.0
210
0.0
220
0.0
230
1.0
  0
LINE
  5
564
100
AcDbEntity
  8
0
 62
     7
 48
0.027537
100
AcDbLine
 10
30.093037
 20
87.07135
 30
0.0
 11
30.093037
 21
85.969864
 31
0.0
210
0.0
220
0.0
230
1.0
  0
LINE
  5
565
100
AcDbEntity
  8
0
 62
     7
 48
0.023818
100
AcDbLine
 10
30.093037
 20
85.969864
 30
0.0
 11
30.093037
 21
85.017136
 31
0.0
210
0.0
220
0.0
230
1.0
  0
LINE
  5
566
100
AcDbEntity
  8
0
 62
     7
 48
0.017974
100
AcDbLine
 10
30.093037
 20
85.017136
 30
0.0
 11
30.093037
 21
84.298157
 31
0.0
210
0.0
220
0.0
230
1.0
  0
LINE
  5
567
100
AcDbEntity
  8
0
 62
     7
 48
0.010005
100
AcDbLine
 10
30.093037
 20
84.298157
 30
0.0
 11
30.093037
 21
83.897949
 31
0.0
210
0.0
220
0.0
230
1.0
  0
LINE
  5
568
100
AcDbEntity
  8
0
 62
     7
 48
0.00135
100
AcDbLine
 10
30.093037
 20
83.897949
 30
0.0
 11
30.093037
 21
83.843933
 31
0.0
210
0.0
220
0.0
230
1.0
  0
ARC
  5
569
100
AcDbEntity
  8
0
 62
     7
100
AcDbCircle
 10
31.12537
 20
83.854401
 30
0.0
 40
1.032387
210
0.0
220
0.0
230
1.0
100
AcDbArc
 50
180.580831
 51
215.608854
  0
ARC
  5
56A
100
AcDbEntity
  8
0
 62
     7
100
AcDbCircle
 10
31.103176
 20
83.857803
 30
0.0
 40
1.016443
210
0.0
220
0.0
230
1.0
100
AcDbArc
 50
216.493473
 51
251.287358
  0
LINE
  5
56B
100
AcDbEntity
  8
0
 62
     7
 48
0.008004
100
AcDbLine
 10
30.777081
 20
82.895096
 30
0.0
 11
31.093151
 21
82.844162
 31
0.0
210
0.0
220
0.0
230
1.0
  0
LINE
  5
56C
100
AcDbEntity
  8
0
 62
     7
 48
0.004842
100
AcDbLine
 10
31.093151
 20
82.844162
 30
0.0
 11
31.286831
 21
82.844162
 31
0.0
210
0.0
220
0.0
230
1.0
  0
LINE
  5
56D
100
AcDbEntity
  8
0
 62
     7
 48
0.013213
100
AcDbLine
 10
31.286831
 20
82.844162
 30
0.0
 11
31.81535
 21
82.844162
 31
0.0
210
0.0
220
0.0
230
1.0
  0
LINE
  5
56E
100
AcDbEntity
  8
0
 62
     7
 48
0.019614
100
AcDbLine
 10
31.81535
 20
82.844162
 30
0.0
 11
32.599911
 21
82.844162
 31
0.0
210
0.0
220
0.0
230
1.0
  0
LINE
  5
56F
100
AcDbEntity
  8
0
 62
     7
 48
0.024046
100
AcDbLine
 10
32.599911
 20
82.844162
 30
0.0
 11
33.561741
 21
82.844162
 31
0.0
210
0.0
220
0.0
230
1.0
  0
LINE
  5
570
100
AcDbEntity
  8
0
 62
     7
 48
0.026508
100
AcDbLine
 10
33.561741
 20
82.844162
 30
0.0
 11
34.622044
 21
82.844162
 31
0.0
210
0.0
220
0.0
230
1.0
  0
LINE
  5
571
100
AcDbEntity
  8
0
 62
     7
 48
0.027
100
AcDbLine
 10
34.622044
 20
82.844162
 30
0.0
 11
35.702053
 21
82.844162
 31
0.0
210
0.0
220
0.0
230
1.0
  0
LINE
  5
572
100
AcDbEntity
  8
0
 62
     7
 48
0.025523
100
AcDbLine
 10
35.702053
 20
82.844162
 30
0.0
 11
36.722973
 21
82.844162
 31
0.0
210
0.0
220
0.0
230
1.0
  0
LINE
  5
573
100
AcDbEntity
  8
0
 62
     7
 48
0.022076
100
AcDbLine
 10
36.722973
 20
82.844162
 30
0.0
 11
37.606014
 21
82.844162
 31
0.0
210
0.0
220
0.0
230
1.0
  0
LINE
  5
574
100
AcDbEntity
  8
0
 62
     7
 48
0.01666
100
AcDbLine
 10
37.606014
 20
82.844162
 30
0.0
 11
38.272396
 21
82.844162
 31
0.0
210
0.0
220
0.0
230
1.0
  0
LINE
  5
575
100
AcDbEntity
  8
0
 62
     7
 48
0.009274
100
AcDbLine
 10
38.272396
 20
82.844162
 30
0.0
 11
38.643345
 21
82.844162
 31
0.0
210
0.0
220
0.0
230
1.0
  0
LINE
  5
576
100
AcDbEntity
  8
0
 62
     7
 48
0.001251
100
AcDbLine
 10
38.643345
 20
82.844162
 30
0.0
 11
38.693401
 21
82.844162
 31
0.0
210
0.0
220
0.0
230
1.0
  0
ARC
  5
577
100
AcDbEntity
  8
0
 62
     7
100
AcDbCircle
 10
38.682926
 20
83.876572
 30
0.0
 40
1.032467
210
0.0
220
0.0
230
1.0
100
AcDbArc
 50
270.58166
 51
305.586406
  0
ARC
  5
578
100
AcDbEntity
  8
0
 62
     7
100
AcDbCircle
 10
38.680004
 20
83.854111
 30
0.0
 40
1.01602
210
0.0
220
0.0
230
1.0
100
AcDbArc
 50
306.457339
 51
341.263736
  0
LINE
  5
579
100
AcDbEntity
  8
0
 62
     7
 48
0.008007
100
AcDbLine
 10
39.642185
 20
83.527756
 30
0.0
 11
39.693172
 21
83.843933
 31
0.0
210
0.0
220
0.0
230
1.0
  0
LINE
  5
57A
100
AcDbEntity
  8
0
 62
     7
 48
0.005224
100
AcDbLine
 10
39.693172
 20
83.843933
 30
0.0
 11
39.693172
 21
84.052902
 31
0.0
210
0.0
220
0.0
230
1.0
  0
LINE
  5
57B
100
AcDbEntity
  8
0
 62
     7
 48
0.014256
100
AcDbLine
 10
39.693172
 20
84.052902
 30
0.0
 11
39.693172
 21
84.623123
 31
0.0
210
0.0
220
0.0
230
1.0
  0
LINE
  5
57C
100
AcDbEntity
  8
0
 62
     7
 48
0.021162
100
AcDbLine
 10
39.693172
 20
84.623123
 30
0.0
 11
39.693172
 21
85.469604
 31
0.0
210
0.0
220
0.0
230
1.0
  0
LINE
  5
57D
100
AcDbEntity
  8
0
 62
     7
 48
0.025943
100
AcDbLine
 10
39.693172
 20
85.469604
 30
0.0
 11
39.693172
 21
86.507324
 31
0.0
210
0.0
220
0.0
230
1.0
  0
LINE
  5
57E
100
AcDbEntity
  8
0
 62
     7
 48
0.0286
100
AcDbLine
 10
39.693172
 20
86.507324
 30
0.0
 11
39.693172
 21
87.651321
 31
0.0
210
0.0
220
0.0
230
1.0
  0
LINE
  5
57F
100
AcDbEntity
  8
0
 62
     7
 48
0.029131
100
AcDbLine
 10
39.693172
 20
87.651321
 30
0.0
 11
39.693172
 21
88.816559
 31
0.0
210
0.0
220
0.0
230
1.0
  0
LINE
  5
580
100
AcDbEntity
  8
0
 62
     7
 48
0.027537
100
AcDbLine
 10
39.693172
 20
88.816559
 30
0.0
 11
39.693172
 21
89.918045
 31
0.0
210
0.0
220
0.0
230
1.0
  0
LINE
  5
581
100
AcDbEntity
  8
0
 62
     7
 48
0.023818
100
AcDbLine
 10
39.693172
 20
89.918045
 30
0.0
 11
39.693172
 21
90.870773
 31
0.0
210
0.0
220
0.0
230
1.0
  0
LINE
  5
582
100
AcDbEntity
  8
0
 62
     7
 48
0.017974
100
AcDbLine
 10
39.693172
 20
90.870773
 30
0.0
 11
39.693172
 21
91.589752
 31
0.0
210
0.0
220
0.0
230
1.0
  0
LINE
  5
583
100
AcDbEntity
  8
0
 62
     7
 48
0.010005
100
AcDbLine
 10
39.693172
 20
91.589752
 30
0.0
 11
39.693172
 21
91.98996
 31
0.0
210
0.0
220
0.0
230
1.0
  0
LINE
  5
584
100
AcDbEntity
  8
0
 62
     7
 48
0.00135
100
AcDbLine
 10
39.693172
 20
91.98996
 30
0.0
 11
39.693172
 21
92.043976
 31
0.0
210
0.0
220
0.0
230
1.0
  0
ARC
  5
585
100
AcDbEntity
  8
0
 62
     7
100
AcDbCircle
 10
38.661274
 20
92.033386
 30
0.0
 40
1.031955
210
0.0
220
0.0
230
1.0
100
AcDbArc
 50
0.588301
 51
35.614576
  0
ARC
  5
586
100
AcDbEntity
  8
0
 62
     7
100
AcDbCircle
 10
38.682362
 20
92.029617
 30
0.0
 40
1.017119
210
0.0
220
0.0
230
1.0
100
AcDbArc
 50
36.478857
 51
71.249563
  0
LINE
  5
587
100
AcDbEntity
  8
0
 62
     7
 48
0.008
100
AcDbLine
 10
39.009312
 20
92.992752
 30
0.0
 11
38.693401
 21
93.043747
 31
0.0
210
0.0
220
0.0
230
1.0
  0
ARC
  5
588
100
AcDbEntity
  8
0
 62
     7
100
AcDbCircle
 10
55.623058
 20
88.293869
 30
0.0
 40
4.067938
210
0.0
220
0.0
230
1.0
100
AcDbArc
 50
0.08894
 51
16.590669
  0
ARC
  5
589
100
AcDbEntity
  8
0
 62
     7
100
AcDbCircle
 10
55.674633
 20
88.290359
 30
0.0
 40
4.019549
210
0.0
220
0.0
230
1.0
100
AcDbArc
 50
16.848463
 51
32.97674
  0
ARC
  5
58A
100
AcDbEntity
  8
0
 62
     7
100
AcDbCircle
 10
55.660694
 20
88.272125
 30
0.0
 40
4.041178
210
0.0
220
0.0
230
1.0
100
AcDbArc
 50
33.086134
 51
48.935859
  0
ARC
  5
58B
100
AcDbEntity
  8
0
 62
     7
100
AcDbCircle
 10
55.68346
 20
88.294846
 30
0.0
 40
4.009089
210
0.0
220
0.0
230
1.0
100
AcDbArc
 50
48.967823
 51
65.005637
  0
ARC
  5
58C
100
AcDbEntity
  8
0
 62
     7
100
AcDbCircle
 10
55.7057
 20
88.344345
 30
0.0
 40
3.954829
210
0.0
220
0.0
230
1.0
100
AcDbArc
 50
64.994686
 51
81.617004
  0
LINE
  5
58D
100
AcDbEntity
  8
0
 62
     7
 48
0.014816
100
AcDbLine
 10
56.282276
 20
92.256912
 30
0.0
 11
55.691219
 21
92.300293
 31
0.0
210
0.0
220
0.0
230
1.0
  0
ARC
  5
58E
100
AcDbEntity
  8
0
 62
     7
100
AcDbCircle
 10
55.697529
 20
88.232239
 30
0.0
 40
4.06806
210
0.0
220
0.0
230
1.0
100
AcDbArc
 50
90.088836
 51
106.591899
  0
ARC
  5
58F
100
AcDbEntity
  8
0
 62
     7
100
AcDbCircle
 10
55.700924
 20
88.284286
 30
0.0
 40
4.019196
210
0.0
220
0.0
230
1.0
100
AcDbArc
 50
106.850175
 51
122.98067
  0
ARC
  5
590
100
AcDbEntity
  8
0
 62
     7
100
AcDbCircle
 10
55.719273
 20
88.270218
 30
0.0
 40
4.040992
210
0.0
220
0.0
230
1.0
100
AcDbArc
 50
123.090309
 51
138.941252
  0
ARC
  5
591
100
AcDbEntity
  8
0
 62
     7
100
AcDbCircle
 10
55.696949
 20
88.292633
 30
0.0
 40
4.009436
210
0.0
220
0.0
230
1.0
100
AcDbArc
 50
138.973243
 51
155.010214
  0
ARC
  5
592
100
AcDbEntity
  8
0
 62
     7
100
AcDbCircle
 10
55.647854
 20
88.314667
 30
0.0
 40
3.955628
210
0.0
220
0.0
230
1.0
100
AcDbArc
 50
154.999191
 51
171.618694
  0
LINE
  5
593
100
AcDbEntity
  8
0
 62
     7
 48
0.014816
100
AcDbLine
 10
51.73447
 20
88.891235
 30
0.0
 11
51.691105
 21
88.300171
 31
0.0
210
0.0
220
0.0
230
1.0
  0
ARC
  5
594
100
AcDbEntity
  8
0
 62
     7
100
AcDbCircle
 10
55.759731
 20
88.306473
 30
0.0
 40
4.068634
210
0.0
220
0.0
230
1.0
100
AcDbArc
 50
180.088675
 51
196.589345
  0
ARC
  5
595
100
AcDbEntity
  8
0
 62
     7
100
AcDbCircle
 10
55.707134
 20
88.309708
 30
0.0
 40
4.019191
210
0.0
220
0.0
230
1.0
100
AcDbArc
 50
196.847623
 51
212.977784
  0
ARC
  5
596
100
AcDbEntity
  8
0
 62
     7
100
AcDbCircle
 10
55.720791
 20
88.327805
 30
0.0
 40
4.040501
210
0.0
220
0.0
230
1.0
100
AcDbArc
 50
213.087533
 51
228.939921
  0
ARC
  5
597
100
AcDbEntity
  8
0
 62
     7
100
AcDbCircle
 10
55.698353
 20
88.30545
 30
0.0
 40
4.008911
210
0.0
220
0.0
230
1.0
100
AcDbArc
 50
228.971969
 51
245.010961
  0
ARC
  5
598
100
AcDbEntity
  8
0
 62
     7
100
AcDbCircle
 10
55.676563
 20
88.256882
 30
0.0
 40
3.955686
210
0.0
220
0.0
230
1.0
100
AcDbArc
 50
244.999841
 51
261.620096
  0
LINE
  5
599
100
AcDbEntity
  8
0
 62
     7
 48
0.014818
100
AcDbLine
 10
55.100079
 20
84.34343
 30
0.0
 11
55.691219
 21
84.300064
 31
0.0
210
0.0
220
0.0
230
1.0
  0
ARC
  5
59A
100
AcDbEntity
  8
0
 62
     7
100
AcDbCircle
 10
55.684917
 20
88.367676
 30
0.0
 40
4.067611
210
0.0
220
0.0
230
1.0
100
AcDbArc
 50
270.088793
 51
286.591432
  0
ARC
  5
59B
100
AcDbEntity
  8
0
 62
     7
100
AcDbCircle
 10
55.68153
 20
88.315628
 30
0.0
 40
4.018749
210
0.0
220
0.0
230
1.0
100
AcDbArc
 50
286.849531
 51
302.980169
  0
ARC
  5
59C
100
AcDbEntity
  8
0
 62
     7
100
AcDbCircle
 10
55.663235
 20
88.329651
 30
0.0
 40
4.040472
210
0.0
220
0.0
230
1.0
100
AcDbArc
 50
303.0897
 51
318.941583
  0
ARC
  5
59D
100
AcDbEntity
  8
0
 62
     7
100
AcDbCircle
 10
55.685452
 20
88.307327
 30
0.0
 40
4.009059
210
0.0
220
0.0
230
1.0
100
AcDbArc
 50
318.973468
 51
335.011653
  0
ARC
  5
59E
100
AcDbEntity
  8
0
 62
     7
100
AcDbCircle
 10
55.734043
 20
88.285538
 30
0.0
 40
3.955811
210
0.0
220
0.0
230
1.0
100
AcDbArc
 50
335.000451
 51
351.62016
  0
LINE
  5
59F
100
AcDbEntity
  8
0
 62
     7
 48
0.014818
100
AcDbLine
 10
59.647617
 20
87.709045
 30
0.0
 11
59.69099
 21
88.300171
 31
0.0
210
0.0
220
0.0
230
1.0
  0
ARC
  5
5A0
100
AcDbEntity
  8
0
 62
     7
100
AcDbCircle
 10
45.223957
 20
88.293854
 30
0.0
 40
4.067292
210
0.0
220
0.0
230
1.0
100
AcDbArc
 50
0.089048
 51
16.593479
  0
ARC
  5
5A1
100
AcDbEntity
  8
0
 62
     7
100
AcDbCircle
 10
45.275082
 20
88.290222
 30
0.0
 40
4.019376
210
0.0
220
0.0
230
1.0
100
AcDbArc
 50
16.851277
 51
32.980702
  0
ARC
  5
5A2
100
AcDbEntity
  8
0
 62
     7
100
AcDbCircle
 10
45.2607
 20
88.271698
 30
0.0
 40
4.041529
210
0.0
220
0.0
230
1.0
100
AcDbArc
 50
33.089969
 51
48.939177
  0
ARC
  5
5A3
100
AcDbEntity
  8
0
 62
     7
100
AcDbCircle
 10
45.28326
 20
88.294205
 30
0.0
 40
4.009738
210
0.0
220
0.0
230
1.0
100
AcDbArc
 50
48.971008
 51
65.007247
  0
ARC
  5
5A4
100
AcDbEntity
  8
0
 62
     7
100
AcDbCircle
 10
45.305538
 20
88.343796
 30
0.0
 40
3.955375
210
0.0
220
0.0
230
1.0
100
AcDbArc
 50
64.996245
 51
81.617025
  0
LINE
  5
5A5
100
AcDbEntity
  8
0
 62
     7
 48
0.014816
100
AcDbLine
 10
45.882191
 20
92.256912
 30
0.0
 11
45.291126
 21
92.300293
 31
0.0
210
0.0
220
0.0
230
1.0
  0
ARC
  5
5A6
100
AcDbEntity
  8
0
 62
     7
100
AcDbCircle
 10
45.297451
 20
88.233002
 30
0.0
 40
4.067292
210
0.0
220
0.0
230
1.0
100
AcDbArc
 50
90.089048
 51
106.593475
  0
ARC
  5
5A7
100
AcDbEntity
  8
0
 62
     7
100
AcDbCircle
 10
45.30109
 20
88.284134
 30
0.0
 40
4.019376
210
0.0
220
0.0
230
1.0
100
AcDbArc
 50
106.851274
 51
122.980697
  0
ARC
  5
5A8
100
AcDbEntity
  8
0
 62
     7
100
AcDbCircle
 10
45.319607
 20
88.269745
 30
0.0
 40
4.041529
210
0.0
220
0.0
230
1.0
100
AcDbArc
 50
123.089966
 51
138.939175
  0
ARC
  5
5A9
100
AcDbEntity
  8
0
 62
     7
100
AcDbCircle
 10
45.2971
 20
88.292313
 30
0.0
 40
4.009738
210
0.0
220
0.0
230
1.0
100
AcDbArc
 50
138.971003
 51
155.00725
  0
ARC
  5
5AA
100
AcDbEntity
  8
0
 62
     7
100
AcDbCircle
 10
45.247509
 20
88.31459
 30
0.0
 40
3.955375
210
0.0
220
0.0
230
1.0
100
AcDbArc
 50
154.996239
 51
171.617027
  0
LINE
  5
5AB
100
AcDbEntity
  8
0
 62
     7
 48
0.014816
100
AcDbLine
 10
41.334393
 20
88.891235
 30
0.0
 11
41.291012
 21
88.300171
 31
0.0
210
0.0
220
0.0
230
1.0
  0
ARC
  5
5AC
100
AcDbEntity
  8
0
 62
     7
100
AcDbCircle
 10
45.359074
 20
88.306488
 30
0.0
 40
4.06806
210
0.0
220
0.0
230
1.0
100
AcDbArc
 50
180.088838
 51
196.5919
  0
ARC
  5
5AD
100
AcDbEntity
  8
0
 62
     7
100
AcDbCircle
 10
45.307026
 20
88.309891
 30
0.0
 40
4.019196
210
0.0
220
0.0
230
1.0
100
AcDbArc
 50
196.850177
 51
212.980665
  0
ARC
  5
5AE
100
AcDbEntity
  8
0
 62
     7
100
AcDbCircle
 10
45.321095
 20
88.328232
 30
0.0
 40
4.040992
210
0.0
220
0.0
230
1.0
100
AcDbArc
 50
213.090304
 51
228.941247
  0
ARC
  5
5AF
100
AcDbEntity
  8
0
 62
     7
100
AcDbCircle
 10
45.298679
 20
88.305908
 30
0.0
 40
4.009436
210
0.0
220
0.0
230
1.0
100
AcDbArc
 50
228.97324
 51
245.010223
  0
ARC
  5
5B0
100
AcDbEntity
  8
0
 62
     7
100
AcDbCircle
 10
45.276638
 20
88.256821
 30
0.0
 40
3.955628
210
0.0
220
0.0
230
1.0
100
AcDbArc
 50
244.999186
 51
261.618703
  0
LINE
  5
5B1
100
AcDbEntity
  8
0
 62
     7
 48
0.014816
100
AcDbLine
 10
44.700069
 20
84.34343
 30
0.0
 11
45.291126
 21
84.300064
 31
0.0
210
0.0
220
0.0
230
1.0
  0
ARC
  5
5B2
100
AcDbEntity
  8
0
 62
     7
100
AcDbCircle
 10
45.284817
 20
88.36792
 30
0.0
 40
4.067866
210
0.0
220
0.0
230
1.0
100
AcDbArc
 50
270.088902
 51
286.590913
  0
ARC
  5
5B3
100
AcDbEntity
  8
0
 62
     7
100
AcDbCircle
 10
45.281345
 20
88.316254
 30
0.0
 40
4.019371
210
0.0
220
0.0
230
1.0
100
AcDbArc
 50
286.848739
 51
302.977821
  0
ARC
  5
5B4
100
AcDbEntity
  8
0
 62
     7
100
AcDbCircle
 10
45.263081
 20
88.330215
 30
0.0
 40
4.041037
210
0.0
220
0.0
230
1.0
100
AcDbArc
 50
303.087185
 51
318.937841
  0
ARC
  5
5B5
100
AcDbEntity
  8
0
 62
     7
100
AcDbCircle
 10
45.28561
 20
88.307632
 30
0.0
 40
4.009213
210
0.0
220
0.0
230
1.0
100
AcDbArc
 50
318.969752
 51
335.007993
  0
ARC
  5
5B6
100
AcDbEntity
  8
0
 62
     7
100
AcDbCircle
 10
45.334682
 20
88.285599
 30
0.0
 40
3.955433
210
0.0
220
0.0
230
1.0
100
AcDbArc
 50
334.9969
 51
351.618439
  0
LINE
  5
5B7
100
AcDbEntity
  8
0
 62
     7
 48
0.014818
100
AcDbLine
 10
49.247868
 20
87.709045
 30
0.0
 11
49.291241
 21
88.300171
 31
0.0
210
0.0
220
0.0
230
1.0
  0
ARC
  5
5B8
100
AcDbEntity
  8
0
 62
     7
100
AcDbCircle
 10
34.823864
 20
88.293854
 30
0.0
 40
4.067292
210
0.0
220
0.0
230
1.0
100
AcDbArc
 50
0.089048
 51
16.593479
  0
ARC
  5
5B9
100
AcDbEntity
  8
0
 62
     7
100
AcDbCircle
 10
34.874989
 20
88.290222
 30
0.0
 40
4.019376
210
0.0
220
0.0
230
1.0
100
AcDbArc
 50
16.851277
 51
32.980702
  0
ARC
  5
5BA
100
AcDbEntity
  8
0
 62
     7
100
AcDbCircle
 10
34.860607
 20
88.271698
 30
0.0
 40
4.041529
210
0.0
220
0.0
230
1.0
100
AcDbArc
 50
33.089969
 51
48.939177
  0
ARC
  5
5BB
100
AcDbEntity
  8
0
 62
     7
100
AcDbCircle
 10
34.883175
 20
88.294205
 30
0.0
 40
4.009738
210
0.0
220
0.0
230
1.0
100
AcDbArc
 50
48.971008
 51
65.007247
  0
ARC
  5
5BC
100
AcDbEntity
  8
0
 62
     7
100
AcDbCircle
 10
34.905453
 20
88.343796
 30
0.0
 40
3.955375
210
0.0
220
0.0
230
1.0
100
AcDbArc
 50
64.996245
 51
81.617025
  0
LINE
  5
5BD
100
AcDbEntity
  8
0
 62
     7
 48
0.014816
100
AcDbLine
 10
35.482105
 20
92.256912
 30
0.0
 11
34.891041
 21
92.300293
 31
0.0
210
0.0
220
0.0
230
1.0
  0
ARC
  5
5BE
100
AcDbEntity
  8
0
 62
     7
100
AcDbCircle
 10
34.89735
 20
88.233261
 30
0.0
 40
4.067037
210
0.0
220
0.0
230
1.0
100
AcDbArc
 50
90.088952
 51
106.594001
  0
ARC
  5
5BF
100
AcDbEntity
  8
0
 62
     7
100
AcDbCircle
 10
34.900898
 20
88.284744
 30
0.0
 40
4.018754
210
0.0
220
0.0
230
1.0
100
AcDbArc
 50
106.852073
 51
122.983047
  0
ARC
  5
5C0
100
AcDbEntity
  8
0
 62
     7
100
AcDbCircle
 10
34.91946
 20
88.270325
 30
0.0
 40
4.040963
210
0.0
220
0.0
230
1.0
100
AcDbArc
 50
123.092453
 51
138.942905
  0
ARC
  5
5C1
100
AcDbEntity
  8
0
 62
     7
100
AcDbCircle
 10
34.897259
 20
88.292603
 30
0.0
 40
4.009585
210
0.0
220
0.0
230
1.0
100
AcDbArc
 50
138.974734
 51
155.010911
  0
ARC
  5
5C2
100
AcDbEntity
  8
0
 62
     7
100
AcDbCircle
 10
34.848141
 20
88.314651
 30
0.0
 40
3.955753
210
0.0
220
0.0
230
1.0
100
AcDbArc
 50
154.999793
 51
171.618748
  0
LINE
  5
5C3
100
AcDbEntity
  8
0
 62
     7
 48
0.014816
100
AcDbLine
 10
30.934635
 20
88.891235
 30
0.0
 11
30.89127
 21
88.300171
 31
0.0
210
0.0
220
0.0
230
1.0
  0
ARC
  5
5C4
100
AcDbEntity
  8
0
 62
     7
100
AcDbCircle
 10
34.959972
 20
88.306473
 30
0.0
 40
4.068706
210
0.0
220
0.0
230
1.0
100
AcDbArc
 50
180.088729
 51
196.589086
  0
ARC
  5
5C5
100
AcDbEntity
  8
0
 62
     7
100
AcDbCircle
 10
34.907475
 20
88.309738
 30
0.0
 40
4.01937
210
0.0
220
0.0
230
1.0
100
AcDbArc
 50
196.847363
 51
212.976705
  0
ARC
  5
5C6
100
AcDbEntity
  8
0
 62
     7
100
AcDbCircle
 10
34.921101
 20
88.32782
 30
0.0
 40
4.040642
210
0.0
220
0.0
230
1.0
100
AcDbArc
 50
213.086464
 51
228.937928
  0
ARC
  5
5C7
100
AcDbEntity
  8
0
 62
     7
100
AcDbCircle
 10
34.898479
 20
88.305267
 30
0.0
 40
4.008787
210
0.0
220
0.0
230
1.0
100
AcDbArc
 50
228.970057
 51
245.008611
  0
ARC
  5
5C8
100
AcDbEntity
  8
0
 62
     7
100
AcDbCircle
 10
34.876476
 20
88.256271
 30
0.0
 40
3.955082
210
0.0
220
0.0
230
1.0
100
AcDbArc
 50
244.997629
 51
261.618676
  0
LINE
  5
5C9
100
AcDbEntity
  8
0
 62
     7
 48
0.014816
100
AcDbLine
 10
34.299984
 20
84.34343
 30
0.0
 11
34.891041
 21
84.300064
 31
0.0
210
0.0
220
0.0
230
1.0
  0
ARC
  5
5CA
100
AcDbEntity
  8
0
 62
     7
100
AcDbCircle
 10
34.884731
 20
88.36792
 30
0.0
 40
4.067866
210
0.0
220
0.0
230
1.0
100
AcDbArc
 50
270.088902
 51
286.590913
  0
ARC
  5
5CB
100
AcDbEntity
  8
0
 62
     7
100
AcDbCircle
 10
34.881252
 20
88.316254
 30
0.0
 40
4.019371
210
0.0
220
0.0
230
1.0
100
AcDbArc
 50
286.848739
 51
302.977821
  0
ARC
  5
5CC
100
AcDbEntity
  8
0
 62
     7
100
AcDbCircle
 10
34.862995
 20
88.330215
 30
0.0
 40
4.041037
210
0.0
220
0.0
230
1.0
100
AcDbArc
 50
303.087185
 51
318.937841
  0
ARC
  5
5CD
100
AcDbEntity
  8
0
 62
     7
100
AcDbCircle
 10
34.885525
 20
88.307632
 30
0.0
 40
4.009213
210
0.0
220
0.0
230
1.0
100
AcDbArc
 50
318.969752
 51
335.007993
  0
ARC
  5
5CE
100
AcDbEntity
  8
0
 62
     7
100
AcDbCircle
 10
34.934589
 20
88.285599
 30
0.0
 40
3.955433
210
0.0
220
0.0
230
1.0
100
AcDbArc
 50
334.9969
 51
351.618439
  0
LINE
  5
5CF
100
AcDbEntity
  8
0
 62
     7
 48
0.014818
100
AcDbLine
 10
38.847775
 20
87.709045
 30
0.0
 11
38.891155
 21
88.300171
 31
0.0
210
0.0
220
0.0
230
1.0
  0
ARC
  5
5D0
100
AcDbEntity
  8
0
 62
     7
100
AcDbCircle
 10
24.423779
 20
88.293854
 30
0.0
 40
4.067292
210
0.0
220
0.0
230
1.0
100
AcDbArc
 50
0.089048
 51
16.593479
  0
ARC
  5
5D1
100
AcDbEntity
  8
0
 62
     7
100
AcDbCircle
 10
24.474903
 20
88.290222
 30
0.0
 40
4.019376
210
0.0
220
0.0
230
1.0
100
AcDbArc
 50
16.851277
 51
32.980702
  0
ARC
  5
5D2
100
AcDbEntity
  8
0
 62
     7
100
AcDbCircle
 10
24.460522
 20
88.271698
 30
0.0
 40
4.041529
210
0.0
220
0.0
230
1.0
100
AcDbArc
 50
33.089969
 51
48.939177
  0
ARC
  5
5D3
100
AcDbEntity
  8
0
 62
     7
100
AcDbCircle
 10
24.483082
 20
88.294205
 30
0.0
 40
4.009738
210
0.0
220
0.0
230
1.0
100
AcDbArc
 50
48.971008
 51
65.007247
  0
ARC
  5
5D4
100
AcDbEntity
  8
0
 62
     7
100
AcDbCircle
 10
24.50536
 20
88.343796
 30
0.0
 40
3.955375
210
0.0
220
0.0
230
1.0
100
AcDbArc
 50
64.996245
 51
81.617025
  0
LINE
  5
5D5
100
AcDbEntity
  8
0
 62
     7
 48
0.014816
100
AcDbLine
 10
25.082012
 20
92.256912
 30
0.0
 11
24.490948
 21
92.300293
 31
0.0
210
0.0
220
0.0
230
1.0
  0
ARC
  5
5D6
100
AcDbEntity
  8
0
 62
     7
100
AcDbCircle
 10
24.497265
 20
88.233261
 30
0.0
 40
4.067037
210
0.0
220
0.0
230
1.0
100
AcDbArc
 50
90.088952
 51
106.594001
  0
ARC
  5
5D7
100
AcDbEntity
  8
0
 62
     7
100
AcDbCircle
 10
24.500813
 20
88.284744
 30
0.0
 40
4.018754
210
0.0
220
0.0
230
1.0
100
AcDbArc
 50
106.852073
 51
122.983047
  0
ARC
  5
5D8
100
AcDbEntity
  8
0
 62
     7
100
AcDbCircle
 10
24.519367
 20
88.270325
 30
0.0
 40
4.040963
210
0.0
220
0.0
230
1.0
100
AcDbArc
 50
123.092453
 51
138.942905
  0
ARC
  5
5D9
100
AcDbEntity
  8
0
 62
     7
100
AcDbCircle
 10
24.497173
 20
88.292603
 30
0.0
 40
4.009585
210
0.0
220
0.0
230
1.0
100
AcDbArc
 50
138.974734
 51
155.010911
  0
ARC
  5
5DA
100
AcDbEntity
  8
0
 62
     7
100
AcDbCircle
 10
24.448055
 20
88.314651
 30
0.0
 40
3.955753
210
0.0
220
0.0
230
1.0
100
AcDbArc
 50
154.999793
 51
171.618748
  0
LINE
  5
5DB
100
AcDbEntity
  8
0
 62
     7
 48
0.014816
100
AcDbLine
 10
20.53455
 20
88.891235
 30
0.0
 11
20.491184
 21
88.300171
 31
0.0
210
0.0
220
0.0
230
1.0
  0
ARC
  5
5DC
100
AcDbEntity
  8
0
 62
     7
100
AcDbCircle
 10
24.559879
 20
88.306473
 30
0.0
 40
4.068706
210
0.0
220
0.0
230
1.0
100
AcDbArc
 50
180.088729
 51
196.589086
  0
ARC
  5
5DD
100
AcDbEntity
  8
0
 62
     7
100
AcDbCircle
 10
24.507389
 20
88.309738
 30
0.0
 40
4.01937
210
0.0
220
0.0
230
1.0
100
AcDbArc
 50
196.847363
 51
212.976705
  0
ARC
  5
5DE
100
AcDbEntity
  8
0
 62
     7
100
AcDbCircle
 10
24.521015
 20
88.32782
 30
0.0
 40
4.040642
210
0.0
220
0.0
230
1.0
100
AcDbArc
 50
213.086464
 51
228.937928
  0
ARC
  5
5DF
100
AcDbEntity
  8
0
 62
     7
100
AcDbCircle
 10
24.498394
 20
88.305267
 30
0.0
 40
4.008787
210
0.0
220
0.0
230
1.0
100
AcDbArc
 50
228.970057
 51
245.008611
  0
ARC
  5
5E0
100
AcDbEntity
  8
0
 62
     7
100
AcDbCircle
 10
24.476391
 20
88.256271
 30
0.0
 40
3.955082
210
0.0
220
0.0
230
1.0
100
AcDbArc
 50
244.997629
 51
261.618676
  0
LINE
  5
5E1
100
AcDbEntity
  8
0
 62
     7
 48
0.014816
100
AcDbLine
 10
23.899899
 20
84.34343
 30
0.0
 11
24.490948
 21
84.300064
 31
0.0
210
0.0
220
0.0
230
1.0
  0
ARC
  5
5E2
100
AcDbEntity
  8
0
 62
     7
100
AcDbCircle
 10
24.484638
 20
88.36792
 30
0.0
 40
4.067866
210
0.0
220
0.0
230
1.0
100
AcDbArc
 50
270.088902
 51
286.590913
  0
ARC
  5
5E3
100
AcDbEntity
  8
0
 62
     7
100
AcDbCircle
 10
24.481167
 20
88.316254
 30
0.0
 40
4.019371
210
0.0
220
0.0
230
1.0
100
AcDbArc
 50
286.848739
 51
302.977821
  0
ARC
  5
5E4
100
AcDbEntity
  8
0
 62
     7
100
AcDbCircle
 10
24.462902
 20
88.330215
 30
0.0
 40
4.041037
210
0.0
220
0.0
230
1.0
100
AcDbArc
 50
303.087185
 51
318.937841
  0
ARC
  5
5E5
100
AcDbEntity
  8
0
 62
     7
100
AcDbCircle
 10
24.485432
 20
88.307632
 30
0.0
 40
4.009213
210
0.0
220
0.0
230
1.0
100
AcDbArc
 50
318.969752
 51
335.007993
  0
ARC
  5
5E6
100
AcDbEntity
  8
0
 62
     7
100
AcDbCircle
 10
24.534504
 20
88.285599
 30
0.0
 40
3.955433
210
0.0
220
0.0
230
1.0
100
AcDbArc
 50
334.9969
 51
351.618439
  0
LINE
  5
5E7
100
AcDbEntity
  8
0
 62
     7
 48
0.014818
100
AcDbLine
 10
28.447689
 20
87.709045
 30
0.0
 11
28.491062
 21
88.300171
 31
0.0
210
0.0
220
0.0
230
1.0
  0
ARC
  5
5E8
100
AcDbEntity
  8
0
 62
     7
100
AcDbCircle
 10
24.439816
 20
100.59552
 30
0.0
 40
3.051141
210
0.0
220
0.0
230
1.0
100
AcDbArc
 50
0.088772
 51
16.589306
  0
ARC
  5
5E9
100
AcDbEntity
  8
0
 62
     7
100
AcDbCircle
 10
24.478916
 20
100.593002
 30
0.0
 40
3.014415
210
0.0
220
0.0
230
1.0
100
AcDbArc
 50
16.847205
 51
32.976313
  0
ARC
  5
5EA
100
AcDbEntity
  8
0
 62
     7
100
AcDbCircle
 10
24.468639
 20
100.579437
 30
0.0
 40
3.030426
210
0.0
220
0.0
230
1.0
100
AcDbArc
 50
33.085825
 51
48.937548
  0
ARC
  5
5EB
100
AcDbEntity
  8
0
 62
     7
100
AcDbCircle
 10
24.485569
 20
100.596313
 30
0.0
 40
3.006578
210
0.0
220
0.0
230
1.0
100
AcDbArc
 50
48.969508
 51
65.00892
  0
ARC
  5
5EC
100
AcDbEntity
  8
0
 62
     7
100
AcDbCircle
 10
24.501957
 20
100.632843
 30
0.0
 40
2.966547
210
0.0
220
0.0
230
1.0
100
AcDbArc
 50
64.997774
 51
81.619469
  0
LINE
  5
5ED
100
AcDbEntity
  8
0
 62
     7
 48
0.011114
100
AcDbLine
 10
24.934322
 20
103.567719
 30
0.0
 11
24.490948
 21
103.60025
 31
0.0
210
0.0
220
0.0
230
1.0
  0
ARC
  5
5EE
100
AcDbEntity
  8
0
 62
     7
100
AcDbCircle
 10
24.495686
 20
100.549683
 30
0.0
 40
3.050567
210
0.0
220
0.0
230
1.0
100
AcDbArc
 50
90.088979
 51
106.592718
  0
ARC
  5
5EF
100
AcDbEntity
  8
0
 62
     7
100
AcDbCircle
 10
24.498363
 20
100.588226
 30
0.0
 40
3.01442
210
0.0
220
0.0
230
1.0
100
AcDbArc
 50
106.850605
 51
122.980164
  0
ARC
  5
5F0
100
AcDbEntity
  8
0
 62
     7
100
AcDbCircle
 10
24.512188
 20
100.577545
 30
0.0
 40
3.030918
210
0.0
220
0.0
230
1.0
100
AcDbArc
 50
123.089517
 51
138.939313
  0
ARC
  5
5F1
100
AcDbEntity
  8
0
 62
     7
100
AcDbCircle
 10
24.495335
 20
100.594452
 30
0.0
 40
3.007103
210
0.0
220
0.0
230
1.0
100
AcDbArc
 50
138.971183
 51
155.007933
  0
ARC
  5
5F2
100
AcDbEntity
  8
0
 62
     7
100
AcDbCircle
 10
24.458279
 20
100.611084
 30
0.0
 40
2.966489
210
0.0
220
0.0
230
1.0
100
AcDbArc
 50
154.99691
 51
171.617587
  0
LINE
  5
5F3
100
AcDbEntity
  8
0
 62
     7
 48
0.011112
100
AcDbLine
 10
21.523479
 20
101.043533
 30
0.0
 11
21.490948
 21
100.60025
 31
0.0
210
0.0
220
0.0
230
1.0
  0
ARC
  5
5F4
100
AcDbEntity
  8
0
 62
     7
100
AcDbCircle
 10
24.542278
 20
100.604965
 30
0.0
 40
3.051335
210
0.0
220
0.0
230
1.0
100
AcDbArc
 50
180.088688
 51
196.590615
  0
ARC
  5
5F5
100
AcDbEntity
  8
0
 62
     7
100
AcDbCircle
 10
24.502819
 20
100.607407
 30
0.0
 40
3.01424
210
0.0
220
0.0
230
1.0
100
AcDbArc
 50
196.84914
 51
212.980119
  0
ARC
  5
5F6
100
AcDbEntity
  8
0
 62
     7
100
AcDbCircle
 10
24.513195
 20
100.621063
 30
0.0
 40
3.030381
210
0.0
220
0.0
230
1.0
100
AcDbArc
 50
213.089961
 51
228.942082
  0
ARC
  5
5F7
100
AcDbEntity
  8
0
 62
     7
100
AcDbCircle
 10
24.496433
 20
100.604385
 30
0.0
 40
3.006801
210
0.0
220
0.0
230
1.0
100
AcDbArc
 50
228.974155
 51
245.01189
  0
ARC
  5
5F8
100
AcDbEntity
  8
0
 62
     7
100
AcDbCircle
 10
24.48003
 20
100.567841
 30
0.0
 40
2.966743
210
0.0
220
0.0
230
1.0
100
AcDbArc
 50
245.000853
 51
261.619824
  0
LINE
  5
5F9
100
AcDbEntity
  8
0
 62
     7
 48
0.011112
100
AcDbLine
 10
24.047657
 20
97.632767
 30
0.0
 11
24.490948
 21
97.60025
 31
0.0
210
0.0
220
0.0
230
1.0
  0
ARC
  5
5FA
100
AcDbEntity
  8
0
 62
     7
100
AcDbCircle
 10
24.48624
 20
100.652145
 30
0.0
 40
3.051909
210
0.0
220
0.0
230
1.0
100
AcDbArc
 50
270.088493
 51
286.587197
  0
ARC
  5
5FB
100
AcDbEntity
  8
0
 62
     7
100
AcDbCircle
 10
24.483967
 20
100.612137
 30
0.0
 40
3.014235
210
0.0
220
0.0
230
1.0
100
AcDbArc
 50
286.845734
 51
302.976263
  0
ARC
  5
5FC
100
AcDbEntity
  8
0
 62
     7
100
AcDbCircle
 10
24.47057
 20
100.622101
 30
0.0
 40
3.02989
210
0.0
220
0.0
230
1.0
100
AcDbArc
 50
303.086284
 51
318.940301
  0
ARC
  5
5FD
100
AcDbEntity
  8
0
 62
     7
100
AcDbCircle
 10
24.487263
 20
100.605316
 30
0.0
 40
3.006275
210
0.0
220
0.0
230
1.0
100
AcDbArc
 50
318.972482
 51
335.012883
  0
ARC
  5
5FE
100
AcDbEntity
  8
0
 62
     7
100
AcDbCircle
 10
24.523289
 20
100.589157
 30
0.0
 40
2.9668
210
0.0
220
0.0
230
1.0
100
AcDbArc
 50
335.001708
 51
351.62169
  0
LINE
  5
5FF
100
AcDbEntity
  8
0
 62
     7
 48
0.011114
100
AcDbLine
 10
27.458431
 20
100.156876
 30
0.0
 11
27.490948
 21
100.60025
 31
0.0
210
0.0
220
0.0
230
1.0
  0
ARC
  5
600
100
AcDbEntity
  8
0
 62
     7
100
AcDbCircle
 10
172.884171
 20
96.510544
 30
0.0
 40
4.627647
210
0.0
220
0.0
230
1.0
100
AcDbArc
 50
75.962469
 51
76.495373
  0
LINE
  5
601
100
AcDbEntity
  8
0
 62
     7
 48
0.003214
100
AcDbLine
 10
173.964844
 20
101.010239
 30
0.0
 11
173.839432
 21
101.038483
 31
0.0
210
0.0
220
0.0
230
1.0
  0
LINE
  5
602
100
AcDbEntity
  8
0
 62
     7
 48
0.003173
100
AcDbLine
 10
173.839432
 20
101.038483
 30
0.0
 11
173.714844
 21
101.06279
 31
0.0
210
0.0
220
0.0
230
1.0
  0
ARC
  5
603
100
AcDbEntity
  8
0
 62
     7
100
AcDbCircle
 10
172.979538
 20
96.979294
 30
0.0
 40
4.149179
210
0.0
220
0.0
230
1.0
100
AcDbArc
 50
79.792224
 51
83.71476
  0
LINE
  5
604
100
AcDbEntity
  8
0
 62
     7
 48
0.003505
100
AcDbLine
 10
173.433777
 20
101.103531
 30
0.0
 11
173.294174
 21
101.116348
 31
0.0
210
0.0
220
0.0
230
1.0
  0
ARC
  5
605
100
AcDbEntity
  8
0
 62
     7
100
AcDbCircle
 10
173.006104
 20
97.228912
 30
0.0
 40
3.898094
210
0.0
220
0.0
230
1.0
100
AcDbArc
 50
85.762
 51
89.992127
  0
ARC
  5
606
100
AcDbEntity
  8
0
 62
     7
100
AcDbCircle
 10
104.205505
 20
81.359467
 30
0.0
 40
0.269954
210
0.0
220
0.0
230
1.0
100
AcDbArc
 50
254.900611
 51
266.906198
  0
ARC
  5
607
100
AcDbEntity
  8
0
 62
     7
100
AcDbCircle
 10
104.211166
 20
81.379623
 30
0.0
 40
0.290884
210
0.0
220
0.0
230
1.0
100
AcDbArc
 50
243.756746
 51
254.857882
  0
ARC
  5
608
100
AcDbEntity
  8
0
 62
     7
100
AcDbCircle
 10
104.220932
 20
81.399475
 30
0.0
 40
0.313005
210
0.0
220
0.0
230
1.0
100
AcDbArc
 50
233.409421
 51
243.761501
  0
ARC
  5
609
100
AcDbEntity
  8
0
 62
     7
100
AcDbCircle
 10
104.229324
 20
81.41095
 30
0.0
 40
0.32722
210
0.0
220
0.0
230
1.0
100
AcDbArc
 50
223.490799
 51
233.427427
  0
ARC
  5
60A
100
AcDbEntity
  8
0
 62
     7
100
AcDbCircle
 10
104.229507
 20
81.41124
 30
0.0
 40
0.327556
210
0.0
220
0.0
230
1.0
100
AcDbArc
 50
213.57768
 51
223.50409
  0
ARC
  5
60B
100
AcDbEntity
  8
0
 62
     7
100
AcDbCircle
 10
104.217972
 20
81.40358
 30
0.0
 40
0.313702
210
0.0
220
0.0
230
1.0
100
AcDbArc
 50
203.250038
 51
213.579045
  0
ARC
  5
60C
100
AcDbEntity
  8
0
 62
     7
100
AcDbCircle
 10
104.197235
 20
81.394608
 30
0.0
 40
0.291115
210
0.0
220
0.0
230
1.0
100
AcDbArc
 50
192.14654
 51
203.238835
  0
ARC
  5
60D
100
AcDbEntity
  8
0
 62
     7
100
AcDbCircle
 10
104.175247
 20
81.389801
 30
0.0
 40
0.268607
210
0.0
220
0.0
230
1.0
100
AcDbArc
 50
180.063567
 51
192.129614
  0
ARC
  5
60E
100
AcDbEntity
  8
0
 62
     7
100
AcDbCircle
 10
104.205505
 20
128.640518
 30
0.0
 40
0.269954
210
0.0
220
0.0
230
1.0
100
AcDbArc
 50
93.093791
 51
105.099413
  0
ARC
  5
60F
100
AcDbEntity
  8
0
 62
     7
100
AcDbCircle
 10
104.211166
 20
128.620361
 30
0.0
 40
0.290884
210
0.0
220
0.0
230
1.0
100
AcDbArc
 50
105.142129
 51
116.243289
  0
ARC
  5
610
100
AcDbEntity
  8
0
 62
     7
100
AcDbCircle
 10
104.220932
 20
128.60051
 30
0.0
 40
0.313005
210
0.0
220
0.0
230
1.0
100
AcDbArc
 50
116.238536
 51
126.590589
  0
ARC
  5
611
100
AcDbEntity
  8
0
 62
     7
100
AcDbCircle
 10
104.229324
 20
128.589035
 30
0.0
 40
0.32722
210
0.0
220
0.0
230
1.0
100
AcDbArc
 50
126.572598
 51
136.509225
  0
ARC
  5
612
100
AcDbEntity
  8
0
 62
     7
100
AcDbCircle
 10
104.229507
 20
128.588745
 30
0.0
 40
0.327556
210
0.0
220
0.0
230
1.0
100
AcDbArc
 50
136.495934
 51
146.422344
  0
ARC
  5
613
100
AcDbEntity
  8
0
 62
     7
100
AcDbCircle
 10
104.217972
 20
128.596405
 30
0.0
 40
0.313702
210
0.0
220
0.0
230
1.0
100
AcDbArc
 50
146.42098
 51
156.749987
  0
ARC
  5
614
100
AcDbEntity
  8
0
 62
     7
100
AcDbCircle
 10
104.197235
 20
128.605377
 30
0.0
 40
0.291116
210
0.0
220
0.0
230
1.0
100
AcDbArc
 50
156.761174
 51
167.853469
  0
ARC
  5
615
100
AcDbEntity
  8
0
 62
     7
100
AcDbCircle
 10
104.175247
 20
128.610184
 30
0.0
 40
0.268607
210
0.0
220
0.0
230
1.0
100
AcDbArc
 50
167.870395
 51
179.93643
  0
ARC
  5
616
100
AcDbEntity
  8
0
 62
     7
100
AcDbCircle
 10
245.510056
 20
122.823669
 30
0.0
 40
2.912202
210
0.0
220
0.0
230
1.0
100
AcDbArc
 50
90.025554
 51
101.983166
  0
ARC
  5
617
100
AcDbEntity
  8
0
 62
     7
100
AcDbCircle
 10
245.510239
 20
122.831421
 30
0.0
 40
2.904657
210
0.0
220
0.0
230
1.0
100
AcDbArc
 50
102.018348
 51
113.974703
  0
ARC
  5
618
100
AcDbEntity
  8
0
 62
     7
100
AcDbCircle
 10
245.512192
 20
122.830017
 30
0.0
 40
2.906729
210
0.0
220
0.0
230
1.0
100
AcDbArc
 50
113.998684
 51
126.003508
  0
ARC
  5
619
100
AcDbEntity
  8
0
 62
     7
100
AcDbCircle
 10
245.514633
 20
122.829422
 30
0.0
 40
2.90864
210
0.0
220
0.0
230
1.0
100
AcDbArc
 50
126.035432
 51
137.975532
  0
ARC
  5
61A
100
AcDbEntity
  8
0
 62
     7
100
AcDbCircle
 10
245.509323
 20
122.835464
 30
0.0
 40
2.900662
210
0.0
220
0.0
230
1.0
100
AcDbArc
 50
137.994258
 51
149.999969
  0
ARC
  5
61B
100
AcDbEntity
  8
0
 62
     7
100
AcDbCircle
 10
245.520309
 20
122.830719
 30
0.0
 40
2.912516
210
0.0
220
0.0
230
1.0
100
AcDbArc
 50
150.026661
 51
161.983414
  0
ARC
  5
61C
100
AcDbEntity
  8
0
 62
     7
100
AcDbCircle
 10
245.513657
 20
122.834747
 30
0.0
 40
2.904989
210
0.0
220
0.0
230
1.0
100
AcDbArc
 50
162.018576
 51
173.974016
  0
LINE
  5
61D
100
AcDbEntity
  8
0
 62
     7
 48
0.00761
100
AcDbLine
 10
242.624741
 20
123.139709
 30
0.0
 11
242.608749
 21
122.835739
 31
0.0
210
0.0
220
0.0
230
1.0
  0
ARC
  5
61E
100
AcDbEntity
  8
0
 62
     7
100
AcDbCircle
 10
245.521347
 20
87.165543
 30
0.0
 40
2.912581
210
0.0
220
0.0
230
1.0
100
AcDbArc
 50
180.025536
 51
191.98211
  0
ARC
  5
61F
100
AcDbEntity
  8
0
 62
     7
100
AcDbCircle
 10
245.513535
 20
87.16571
 30
0.0
 40
2.904975
210
0.0
220
0.0
230
1.0
100
AcDbArc
 50
192.017299
 51
203.972768
  0
ARC
  5
620
100
AcDbEntity
  8
0
 62
     7
100
AcDbCircle
 10
245.514816
 20
87.167618
 30
0.0
 40
2.906933
210
0.0
220
0.0
230
1.0
100
AcDbArc
 50
203.996769
 51
216.001031
  0
ARC
  5
621
100
AcDbEntity
  8
0
 62
     7
100
AcDbCircle
 10
245.515305
 20
87.169968
 30
0.0
 40
2.908694
210
0.0
220
0.0
230
1.0
100
AcDbArc
 50
216.032983
 51
227.97293
  0
ARC
  5
622
100
AcDbEntity
  8
0
 62
     7
100
AcDbCircle
 10
245.50914
 20
87.164566
 30
0.0
 40
2.900557
210
0.0
220
0.0
230
1.0
100
AcDbArc
 50
227.9917
 51
239.997685
  0
ARC
  5
623
100
AcDbEntity
  8
0
 62
     7
100
AcDbCircle
 10
245.51384
 20
87.175385
 30
0.0
 40
2.912268
210
0.0
220
0.0
230
1.0
100
AcDbArc
 50
240.024432
 51
251.981853
  0
ARC
  5
624
100
AcDbEntity
  8
0
 62
     7
100
AcDbCircle
 10
245.50975
 20
87.168686
 30
0.0
 40
2.904643
210
0.0
220
0.0
230
1.0
100
AcDbArc
 50
252.017069
 51
263.973452
  0
LINE
  5
625
100
AcDbEntity
  8
0
 62
     7
 48
0.007609
100
AcDbLine
 10
245.204819
 20
84.28009
 30
0.0
 11
245.508774
 21
84.264114
 31
0.0
210
0.0
220
0.0
230
1.0
  0
ARC
  5
626
100
AcDbEntity
  8
0
 62
     7
100
AcDbCircle
 10
234.50737
 20
82.507339
 30
0.0
 40
1.507341
210
0.0
220
0.0
230
1.0
100
AcDbArc
 50
258.033892
 51
269.975412
  0
ARC
  5
627
100
AcDbEntity
  8
0
 62
     7
100
AcDbCircle
 10
234.507004
 20
82.501007
 30
0.0
 40
1.501073
210
0.0
220
0.0
230
1.0
100
AcDbArc
 50
246.044095
 51
257.997063
  0
ARC
  5
628
100
AcDbEntity
  8
0
 62
     7
100
AcDbCircle
 10
234.507309
 20
82.500061
 30
0.0
 40
1.500342
210
0.0
220
0.0
230
1.0
100
AcDbArc
 50
234.007553
 51
246.018578
  0
ARC
  5
629
100
AcDbEntity
  8
0
 62
     7
100
AcDbCircle
 10
234.508041
 20
82.499619
 30
0.0
 40
1.500415
210
0.0
220
0.0
230
1.0
100
AcDbArc
 50
222.022991
 51
233.974523
  0
ARC
  5
62A
100
AcDbEntity
  8
0
 62
     7
100
AcDbCircle
 10
234.505478
 20
82.496582
 30
0.0
 40
1.496451
210
0.0
220
0.0
230
1.0
100
AcDbArc
 50
209.987295
 51
222.003783
  0
ARC
  5
62B
100
AcDbEntity
  8
0
 62
     7
100
AcDbCircle
 10
234.51207
 20
82.499619
 30
0.0
 40
1.503707
210
0.0
220
0.0
230
1.0
100
AcDbArc
 50
197.999192
 51
209.960903
  0
ARC
  5
62C
100
AcDbEntity
  8
0
 62
     7
100
AcDbCircle
 10
234.510544
 20
82.498184
 30
0.0
 40
1.501813
210
0.0
220
0.0
230
1.0
100
AcDbArc
 50
186.015079
 51
197.965096
  0
LINE
  5
62D
100
AcDbEntity
  8
0
 62
     7
 48
0.003934
100
AcDbLine
 10
233.017014
 20
82.340805
 30
0.0
 11
233.008774
 21
82.49794
 31
0.0
210
0.0
220
0.0
230
1.0
  0
ARC
  5
62E
100
AcDbEntity
  8
0
 62
     7
100
AcDbCircle
 10
268.407471
 20
87.176315
 30
0.0
 40
2.912202
210
0.0
220
0.0
230
1.0
100
AcDbArc
 50
270.025546
 51
281.983158
  0
ARC
  5
62F
100
AcDbEntity
  8
0
 62
     7
100
AcDbCircle
 10
268.407288
 20
87.168564
 30
0.0
 40
2.904657
210
0.0
220
0.0
230
1.0
100
AcDbArc
 50
282.018347
 51
293.974702
  0
ARC
  5
630
100
AcDbEntity
  8
0
 62
     7
100
AcDbCircle
 10
268.405334
 20
87.169968
 30
0.0
 40
2.906729
210
0.0
220
0.0
230
1.0
100
AcDbArc
 50
293.99869
 51
306.003512
  0
ARC
  5
631
100
AcDbEntity
  8
0
 62
     7
100
AcDbCircle
 10
268.402893
 20
87.170563
 30
0.0
 40
2.90864
210
0.0
220
0.0
230
1.0
100
AcDbArc
 50
306.035425
 51
317.975551
  0
ARC
  5
632
100
AcDbEntity
  8
0
 62
     7
100
AcDbCircle
 10
268.408203
 20
87.16452
 30
0.0
 40
2.900662
210
0.0
220
0.0
230
1.0
100
AcDbArc
 50
317.994263
 51
329.999961
  0
ARC
  5
633
100
AcDbEntity
  8
0
 62
     7
100
AcDbCircle
 10
268.397278
 20
87.169266
 30
0.0
 40
2.912516
210
0.0
220
0.0
230
1.0
100
AcDbArc
 50
330.026654
 51
341.98342
  0
ARC
  5
634
100
AcDbEntity
  8
0
 62
     7
100
AcDbCircle
 10
268.40387
 20
87.165237
 30
0.0
 40
2.904989
210
0.0
220
0.0
230
1.0
100
AcDbArc
 50
342.018581
 51
353.974007
  0
LINE
  5
635
100
AcDbEntity
  8
0
 62
     7
 48
0.00761
100
AcDbLine
 10
271.292786
 20
86.860275
 30
0.0
 11
271.308777
 21
87.164246
 31
0.0
210
0.0
220
0.0
230
1.0
  0
ARC
  5
636
100
AcDbEntity
  8
0
 62
     7
100
AcDbCircle
 10
268.396179
 20
122.834442
 30
0.0
 40
2.912581
210
0.0
220
0.0
230
1.0
100
AcDbArc
 50
0.025545
 51
11.982116
  0
ARC
  5
637
100
AcDbEntity
  8
0
 62
     7
100
AcDbCircle
 10
268.403992
 20
122.834274
 30
0.0
 40
2.904975
210
0.0
220
0.0
230
1.0
100
AcDbArc
 50
12.017297
 51
23.972766
  0
ARC
  5
638
100
AcDbEntity
  8
0
 62
     7
100
AcDbCircle
 10
268.40271
 20
122.832367
 30
0.0
 40
2.906933
210
0.0
220
0.0
230
1.0
100
AcDbArc
 50
23.996775
 51
36.001026
  0
ARC
  5
639
100
AcDbEntity
  8
0
 62
     7
100
AcDbCircle
 10
268.402222
 20
122.830017
 30
0.0
 40
2.908694
210
0.0
220
0.0
230
1.0
100
AcDbArc
 50
36.032987
 51
47.972925
  0
ARC
  5
63A
100
AcDbEntity
  8
0
 62
     7
100
AcDbCircle
 10
268.408386
 20
122.835419
 30
0.0
 40
2.900557
210
0.0
220
0.0
230
1.0
100
AcDbArc
 50
47.991707
 51
59.997685
  0
ARC
  5
63B
100
AcDbEntity
  8
0
 62
     7
100
AcDbCircle
 10
268.403748
 20
122.8246
 30
0.0
 40
2.912268
210
0.0
220
0.0
230
1.0
100
AcDbArc
 50
60.02444
 51
71.981861
  0
ARC
  5
63C
100
AcDbEntity
  8
0
 62
     7
100
AcDbCircle
 10
268.407776
 20
122.831299
 30
0.0
 40
2.904643
210
0.0
220
0.0
230
1.0
100
AcDbArc
 50
72.017072
 51
83.973453
  0
LINE
  5
63D
100
AcDbEntity
  8
0
 62
     7
 48
0.007608
100
AcDbLine
 10
268.712708
 20
125.719894
 30
0.0
 11
268.408813
 21
125.73587
 31
0.0
210
0.0
220
0.0
230
1.0
  0
ARC
  5
63E
100
AcDbEntity
  8
0
 62
     7
100
AcDbCircle
 10
234.516098
 20
127.501404
 30
0.0
 40
1.507341
210
0.0
220
0.0
230
1.0
100
AcDbArc
 50
168.033896
 51
179.975416
  0
ARC
  5
63F
100
AcDbEntity
  8
0
 62
     7
100
AcDbCircle
 10
234.50975
 20
127.501755
 30
0.0
 40
1.501073
210
0.0
220
0.0
230
1.0
100
AcDbArc
 50
156.0441
 51
167.997068
  0
ARC
  5
640
100
AcDbEntity
  8
0
 62
     7
100
AcDbCircle
 10
234.508835
 20
127.50145
 30
0.0
 40
1.500342
210
0.0
220
0.0
230
1.0
100
AcDbArc
 50
144.007558
 51
156.018568
  0
ARC
  5
641
100
AcDbEntity
  8
0
 62
     7
100
AcDbCircle
 10
234.508408
 20
127.500702
 30
0.0
 40
1.500415
210
0.0
220
0.0
230
1.0
100
AcDbArc
 50
132.022993
 51
143.974528
  0
ARC
  5
642
100
AcDbEntity
  8
0
 62
     7
100
AcDbCircle
 10
234.505356
 20
127.503311
 30
0.0
 40
1.496451
210
0.0
220
0.0
230
1.0
100
AcDbArc
 50
119.9873
 51
132.003774
  0
ARC
  5
643
100
AcDbEntity
  8
0
 62
     7
100
AcDbCircle
 10
234.508408
 20
127.496674
 30
0.0
 40
1.503707
210
0.0
220
0.0
230
1.0
100
AcDbArc
 50
107.999203
 51
119.960908
  0
ARC
  5
644
100
AcDbEntity
  8
0
 62
     7
100
AcDbCircle
 10
234.506943
 20
127.498199
 30
0.0
 40
1.501813
210
0.0
220
0.0
230
1.0
100
AcDbArc
 50
96.015077
 51
107.965094
  0
LINE
  5
645
100
AcDbEntity
  8
0
 62
     7
 48
0.003933
100
AcDbLine
 10
234.349594
 20
128.991745
 30
0.0
 11
234.506699
 21
129.0
 31
0.0
210
0.0
220
0.0
230
1.0
  0
ARC
  5
646
100
AcDbEntity
  8
0
 62
     7
100
AcDbCircle
 10
279.410217
 20
127.492645
 30
0.0
 40
1.507341
210
0.0
220
0.0
230
1.0
100
AcDbArc
 50
78.033893
 51
89.975414
  0
ARC
  5
647
100
AcDbEntity
  8
0
 62
     7
100
AcDbCircle
 10
279.410522
 20
127.498978
 30
0.0
 40
1.501073
210
0.0
220
0.0
230
1.0
100
AcDbArc
 50
66.044105
 51
77.997065
  0
ARC
  5
648
100
AcDbEntity
  8
0
 62
     7
100
AcDbCircle
 10
279.410217
 20
127.499924
 30
0.0
 40
1.500342
210
0.0
220
0.0
230
1.0
100
AcDbArc
 50
54.007556
 51
66.018573
  0
ARC
  5
649
100
AcDbEntity
  8
0
 62
     7
100
AcDbCircle
 10
279.409485
 20
127.500366
 30
0.0
 40
1.500415
210
0.0
220
0.0
230
1.0
100
AcDbArc
 50
42.022988
 51
53.974528
  0
ARC
  5
64A
100
AcDbEntity
  8
0
 62
     7
100
AcDbCircle
 10
279.412109
 20
127.503403
 30
0.0
 40
1.496451
210
0.0
220
0.0
230
1.0
100
AcDbArc
 50
29.987301
 51
42.003778
  0
ARC
  5
64B
100
AcDbEntity
  8
0
 62
     7
100
AcDbCircle
 10
279.405457
 20
127.500366
 30
0.0
 40
1.503707
210
0.0
220
0.0
230
1.0
100
AcDbArc
 50
17.999203
 51
29.960901
  0
ARC
  5
64C
100
AcDbEntity
  8
0
 62
     7
100
AcDbCircle
 10
279.406982
 20
127.501816
 30
0.0
 40
1.501813
210
0.0
220
0.0
230
1.0
100
AcDbArc
 50
6.015079
 51
17.965097
  0
LINE
  5
64D
100
AcDbEntity
  8
0
 62
     7
 48
0.003934
100
AcDbLine
 10
280.900513
 20
127.65918
 30
0.0
 11
280.908813
 21
127.502045
 31
0.0
210
0.0
220
0.0
230
1.0
  0
ARC
  5
64E
100
AcDbEntity
  8
0
 62
     7
100
AcDbCircle
 10
279.401428
 20
82.498581
 30
0.0
 40
1.507341
210
0.0
220
0.0
230
1.0
100
AcDbArc
 50
348.033902
 51
359.975421
  0
ARC
  5
64F
100
AcDbEntity
  8
0
 62
     7
100
AcDbCircle
 10
279.407776
 20
82.49823
 30
0.0
 40
1.501073
210
0.0
220
0.0
230
1.0
100
AcDbArc
 50
336.044105
 51
347.997073
  0
ARC
  5
650
100
AcDbEntity
  8
0
 62
     7
100
AcDbCircle
 10
279.408691
 20
82.498535
 30
0.0
 40
1.500342
210
0.0
220
0.0
230
1.0
100
AcDbArc
 50
324.007563
 51
336.018559
  0
ARC
  5
651
100
AcDbEntity
  8
0
 62
     7
100
AcDbCircle
 10
279.40918
 20
82.499283
 30
0.0
 40
1.500415
210
0.0
220
0.0
230
1.0
100
AcDbArc
 50
312.022986
 51
323.974533
  0
ARC
  5
652
100
AcDbEntity
  8
0
 62
     7
100
AcDbCircle
 10
279.41217
 20
82.496674
 30
0.0
 40
1.496451
210
0.0
220
0.0
230
1.0
100
AcDbArc
 50
299.98729
 51
312.003778
  0
ARC
  5
653
100
AcDbEntity
  8
0
 62
     7
100
AcDbCircle
 10
279.40918
 20
82.503311
 30
0.0
 40
1.503707
210
0.0
220
0.0
230
1.0
100
AcDbArc
 50
287.999189
 51
299.960898
  0
ARC
  5
654
100
AcDbEntity
  8
0
 62
     7
100
AcDbCircle
 10
279.410583
 20
82.501785
 30
0.0
 40
1.501813
210
0.0
220
0.0
230
1.0
100
AcDbArc
 50
276.015075
 51
287.965092
  0
LINE
  5
655
100
AcDbEntity
  8
0
 62
     7
 48
0.003935
100
AcDbLine
 10
279.567993
 20
81.00824
 30
0.0
 11
279.410828
 21
81.0
 31
0.0
210
0.0
220
0.0
230
1.0
  0
ARC
  5
656
100
AcDbEntity
  8
0
 62
     7
100
AcDbCircle
 10
63.091198
 20
82.0
 30
0.0
 40
1.0
210
0.0
220
0.0
230
1.0
100
AcDbArc
 50
270.000001
 51
360.0
  0
ARC
  5
657
100
AcDbEntity
  8
0
 62
     7
100
AcDbCircle
 10
63.091198
 20
128.0
 30
0.0
 40
1.0
210
0.0
220
0.0
230
1.0
100
AcDbArc
 50
0.0
 51
90.000003
  0
ARC
  5
658
100
AcDbEntity
  8
0
 62
     7
100
AcDbCircle
 10
17.091198
 20
128.0
 30
0.0
 40
1.0
210
0.0
220
0.0
230
1.0
100
AcDbArc
 50
90.000003
 51
180.000005
  0
ARC
  5
659
100
AcDbEntity
  8
0
 62
     7
100
AcDbCircle
 10
17.091198
 20
82.0
 30
0.0
 40
1.0
210
0.0
220
0.0
230
1.0
100
AcDbArc
 50
180.000005
 51
270.000001
  0
ARC
  5
65A
100
AcDbEntity
  8
0
 62
     7
100
AcDbCircle
 10
62.541203
 20
82.5
 30
0.0
 40
0.95
210
0.0
220
0.0
230
1.0
100
AcDbArc
 50
270.000001
 51
360.0
  0
ARC
  5
65B
100
AcDbEntity
  8
0
 62
     7
100
AcDbCircle
 10
62.541203
 20
127.5
 30
0.0
 40
0.95
210
0.0
220
0.0
230
1.0
100
AcDbArc
 50
0.0
 51
90.000003
  0
ARC
  5
65C
100
AcDbEntity
  8
0
 62
     7
100
AcDbCircle
 10
17.641201
 20
127.5
 30
0.0
 40
0.95
210
0.0
220
0.0
230
1.0
100
AcDbArc
 50
90.000003
 51
180.000005
  0
ARC
  5
65D
100
AcDbEntity
  8
0
 62
     7
100
AcDbCircle
 10
17.641201
 20
82.5
 30
0.0
 40
0.95
210
0.0
220
0.0
230
1.0
100
AcDbArc
 50
180.000005
 51
270.000001
  0
ENDSEC
  0
SECTION
  2
OBJECTS
  0
DICTIONARY
  5
19
100
AcDbDictionary
  3
ACAD_GROUP
350
1A
  3
ACAD_MLINESTYLE
350
1B
  0
DICTIONARY
  5
1A
102
{ACAD_REACTORS
330
19
102
}
100
AcDbDictionary
  0
DICTIONARY
  5
1B
102
{ACAD_REACTORS
330
19
102
}
100
AcDbDictionary
  3
STANDARD
350
1C
  0
MLINESTYLE
  5
1C
102
{ACAD_REACTORS
330
1B
102
}
100
AcDbMlineStyle
  2
STANDARD
 70
     0
  3

 62
     0
 51
90.0
 52
90.0
 71
     2
 49
0.5
 62
   256
  6
BYLAYER
 49
-0.5
 62
   256
  6
BYLAYER
  0
ENDSEC
  0
EOF
