  0
SECTION
  2
HEADER
  9
$ACADVER
  1
AC1015
  9
$ACADMAINTVER
 70
    10
  9
$DWGCODEPAGE
  3
ANSI_932
  9
$INSBASE
 10
0.0
 20
0.0
 30
0.0
  9
$EXTMIN
 10
48.70031421061741
 20
189.2847107154721
 30
0.0
  9
$EXTMAX
 10
353.3760722106174
 20
253.9692274022701
 30
0.0
  9
$LIMMIN
 10
0.0
 20
0.0
  9
$LIMMAX
 10
420.0
 20
297.0
  9
$ORTHOMODE
 70
     0
  9
$REGENMODE
 70
     1
  9
$FILLMODE
 70
     1
  9
$QTEXTMODE
 70
     0
  9
$MIRRTEXT
 70
     1
  9
$LTSCALE
 40
1.0
  9
$ATTMODE
 70
     1
  9
$TEXTSIZE
 40
2.5
  9
$TRACEWID
 40
1.0
  9
$TEXTSTYLE
  7
Standard
  9
$CLAYER
  8
0
  9
$CELTYPE
  6
ByLayer
  9
$CECOLOR
 62
   256
  9
$CELTSCALE
 40
1.0
  9
$DISPSILH
 70
     0
  9
$DIMSCALE
 40
1.0
  9
$DIMASZ
 40
2.5
  9
$DIMEXO
 40
0.625
  9
$DIMDLI
 40
3.75
  9
$DIMRND
 40
0.0
  9
$DIMDLE
 40
0.0
  9
$DIMEXE
 40
1.25
  9
$DIMTP
 40
0.0
  9
$DIMTM
 40
0.0
  9
$DIMTXT
 40
2.5
  9
$DIMCEN
 40
2.5
  9
$DIMTSZ
 40
0.0
  9
$DIMTOL
 70
     0
  9
$DIMLIM
 70
     0
  9
$DIMTIH
 70
     0
  9
$DIMTOH
 70
     0
  9
$DIMSE1
 70
     0
  9
$DIMSE2
 70
     0
  9
$DIMTAD
 70
     1
  9
$DIMZIN
 70
     8
  9
$DIMBLK
  1

  9
$DIMASO
 70
     1
  9
$DIMSHO
 70
     1
  9
$DIMPOST
  1

  9
$DIMAPOST
  1

  9
$DIMALT
 70
     0
  9
$DIMALTD
 70
     3
  9
$DIMALTF
 40
0.03937007874016
  9
$DIMLFAC
 40
1.0
  9
$DIMTOFL
 70
     1
  9
$DIMTVP
 40
0.0
  9
$DIMTIX
 70
     0
  9
$DIMSOXD
 70
     0
  9
$DIMSAH
 70
     0
  9
$DIMBLK1
  1

  9
$DIMBLK2
  1

  9
$DIMSTYLE
  2
ISO-25
  9
$DIMCLRD
 70
     0
  9
$DIMCLRE
 70
     0
  9
$DIMCLRT
 70
     0
  9
$DIMTFAC
 40
1.0
  9
$DIMGAP
 40
0.625
  9
$DIMJUST
 70
     0
  9
$DIMSD1
 70
     0
  9
$DIMSD2
 70
     0
  9
$DIMTOLJ
 70
     0
  9
$DIMTZIN
 70
     8
  9
$DIMALTZ
 70
     0
  9
$DIMALTTZ
 70
     0
  9
$DIMUPT
 70
     0
  9
$DIMDEC
 70
     2
  9
$DIMTDEC
 70
     2
  9
$DIMALTU
 70
     2
  9
$DIMALTTD
 70
     3
  9
$DIMTXSTY
  7
Standard
  9
$DIMAUNIT
 70
     0
  9
$DIMADEC
 70
     0
  9
$DIMALTRND
 40
0.0
  9
$DIMAZIN
 70
     0
  9
$DIMDSEP
 70
    46
  9
$DIMATFIT
 70
     3
  9
$DIMFRAC
 70
     0
  9
$DIMLDRBLK
  1

  9
$DIMLUNIT
 70
     2
  9
$DIMLWD
 70
    -2
  9
$DIMLWE
 70
    -2
  9
$DIMTMOVE
 70
     0
  9
$LUNITS
 70
     2
  9
$LUPREC
 70
     4
  9
$SKETCHINC
 40
1.0
  9
$FILLETRAD
 40
10.0
  9
$AUNITS
 70
     0
  9
$AUPREC
 70
     0
  9
$MENU
  1
.
  9
$ELEVATION
 40
0.0
  9
$PELEVATION
 40
0.0
  9
$THICKNESS
 40
0.0
  9
$LIMCHECK
 70
     0
  9
$CHAMFERA
 40
10.0
  9
$CHAMFERB
 40
10.0
  9
$CHAMFERC
 40
20.0
  9
$CHAMFERD
 40
0.0
  9
$SKPOLY
 70
     0
  9
$TDCREATE
 40
2456482.764557106
  9
$TDUCREATE
 40
2456482.389557106
  9
$TDUPDATE
 40
2456486.483664537
  9
$TDUUPDATE
 40
2456486.108664537
  9
$TDINDWG
 40
0.0099623727
  9
$TDUSRTIMER
 40
0.0099621875
  9
$USRTIMER
 70
     1
  9
$ANGBASE
 50
0.0
  9
$ANGDIR
 70
     0
  9
$PDMODE
 70
     0
  9
$PDSIZE
 40
0.0
  9
$PLINEWID
 40
0.0
  9
$SPLFRAME
 70
     0
  9
$SPLINETYPE
 70
     6
  9
$SPLINESEGS
 70
     8
  9
$HANDSEED
  5
CBE
  9
$SURFTAB1
 70
     6
  9
$SURFTAB2
 70
     6
  9
$SURFTYPE
 70
     6
  9
$SURFU
 70
     6
  9
$SURFV
 70
     6
  9
$UCSBASE
  2

  9
$UCSNAME
  2

  9
$UCSORG
 10
0.0
 20
0.0
 30
0.0
  9
$UCSXDIR
 10
1.0
 20
0.0
 30
0.0
  9
$UCSYDIR
 10
0.0
 20
1.0
 30
0.0
  9
$UCSORTHOREF
  2

  9
$UCSORTHOVIEW
 70
     0
  9
$UCSORGTOP
 10
0.0
 20
0.0
 30
0.0
  9
$UCSORGBOTTOM
 10
0.0
 20
0.0
 30
0.0
  9
$UCSORGLEFT
 10
0.0
 20
0.0
 30
0.0
  9
$UCSORGRIGHT
 10
0.0
 20
0.0
 30
0.0
  9
$UCSORGFRONT
 10
0.0
 20
0.0
 30
0.0
  9
$UCSORGBACK
 10
0.0
 20
0.0
 30
0.0
  9
$PUCSBASE
  2

  9
$PUCSNAME
  2

  9
$PUCSORG
 10
0.0
 20
0.0
 30
0.0
  9
$PUCSXDIR
 10
1.0
 20
0.0
 30
0.0
  9
$PUCSYDIR
 10
0.0
 20
1.0
 30
0.0
  9
$PUCSORTHOREF
  2

  9
$PUCSORTHOVIEW
 70
     0
  9
$PUCSORGTOP
 10
0.0
 20
0.0
 30
0.0
  9
$PUCSORGBOTTOM
 10
0.0
 20
0.0
 30
0.0
  9
$PUCSORGLEFT
 10
0.0
 20
0.0
 30
0.0
  9
$PUCSORGRIGHT
 10
0.0
 20
0.0
 30
0.0
  9
$PUCSORGFRONT
 10
0.0
 20
0.0
 30
0.0
  9
$PUCSORGBACK
 10
0.0
 20
0.0
 30
0.0
  9
$USERI1
 70
     0
  9
$USERI2
 70
     0
  9
$USERI3
 70
     0
  9
$USERI4
 70
     0
  9
$USERI5
 70
     0
  9
$USERR1
 40
0.0
  9
$USERR2
 40
0.0
  9
$USERR3
 40
0.0
  9
$USERR4
 40
0.0
  9
$USERR5
 40
0.0
  9
$WORLDVIEW
 70
     1
  9
$SHADEDGE
 70
     3
  9
$SHADEDIF
 70
    70
  9
$TILEMODE
 70
     1
  9
$MAXACTVP
 70
    64
  9
$PINSBASE
 10
0.0
 20
0.0
 30
0.0
  9
$PLIMCHECK
 70
     0
  9
$PEXTMIN
 10
1.000000000000000E+20
 20
1.000000000000000E+20
 30
1.000000000000000E+20
  9
$PEXTMAX
 10
-1.000000000000000E+20
 20
-1.000000000000000E+20
 30
-1.000000000000000E+20
  9
$PLIMMIN
 10
0.0
 20
0.0
  9
$PLIMMAX
 10
420.0
 20
297.0
  9
$UNITMODE
 70
     0
  9
$VISRETAIN
 70
     1
  9
$PLINEGEN
 70
     0
  9
$PSLTSCALE
 70
     1
  9
$TREEDEPTH
 70
  3020
  9
$CMLSTYLE
  2
Standard
  9
$CMLJUST
 70
     0
  9
$CMLSCALE
 40
20.0
  9
$PROXYGRAPHICS
 70
     1
  9
$MEASUREMENT
 70
     1
  9
$CELWEIGHT
370
    -1
  9
$ENDCAPS
280
     0
  9
$JOINSTYLE
280
     0
  9
$LWDISPLAY
290
     0
  9
$INSUNITS
 70
     4
  9
$HYPERLINKBASE
  1

  9
$STYLESHEET
  1

  9
$XEDIT
290
     1
  9
$CEPSNTYPE
380
     0
  9
$PSTYLEMODE
290
     1
  9
$FINGERPRINTGUID
  2
{2CFED6A1-4E19-42C0-8244-090ABCA1D597}
  9
$VERSIONGUID
  2
{C8062567-1FC8-424E-A338-B5F849686462}
  9
$EXTNAMES
290
     1
  9
$PSVPSCALE
 40
0.0
  9
$OLESTARTUP
290
     0
  0
ENDSEC
  0
SECTION
  2
CLASSES
  0
CLASS
  1
ACDBDICTIONARYWDFLT
  2
AcDbDictionaryWithDefault
  3
AutoCAD 2000
 90
        0
280
     0
281
     0
  0
CLASS
  1
ACDBPLACEHOLDER
  2
AcDbPlaceHolder
  3
AutoCAD 2000
 90
        0
280
     0
281
     0
  0
CLASS
  1
LAYOUT
  2
AcDbLayout
  3
AutoCAD 2000
 90
        0
280
     0
281
     0
  0
ENDSEC
  0
SECTION
  2
TABLES
  0
TABLE
  2
VPORT
  5
8
330
0
100
AcDbSymbolTable
 70
     5
  0
VPORT
  5
CBD
330
8
100
AcDbSymbolTableRecord
100
AcDbViewportTableRecord
  2
*Active
 70
     0
 10
0.0
 20
0.0
 11
1.0
 21
1.0
 12
199.0422006124725
 22
210.2371851998238
 13
0.0
 23
0.0
 14
10.0
 24
10.0
 15
10.0
 25
10.0
 16
0.0
 26
0.0
 36
1.0
 17
0.0
 27
0.0
 37
0.0
 40
207.5273043295392
 41
1.781954887218045
 42
50.0
 43
0.0
 44
0.0
 50
0.0
 51
0.0
 71
     0
 72
   100
 73
     1
 74
     3
 75
     0
 76
     0
 77
     0
 78
     0
281
     0
 65
     1
110
0.0
120
0.0
130
0.0
111
1.0
121
0.0
131
0.0
112
0.0
122
1.0
132
0.0
 79
     0
146
0.0
  0
ENDTAB
  0
TABLE
  2
LTYPE
  5
5
330
0
100
AcDbSymbolTable
 70
     2
  0
LTYPE
  5
14
330
5
100
AcDbSymbolTableRecord
100
AcDbLinetypeTableRecord
  2
ByBlock
 70
     0
  3

 72
    65
 73
     0
 40
0.0
  0
LTYPE
  5
15
330
5
100
AcDbSymbolTableRecord
100
AcDbLinetypeTableRecord
  2
ByLayer
 70
     0
  3

 72
    65
 73
     0
 40
0.0
  0
LTYPE
  5
16
330
5
100
AcDbSymbolTableRecord
100
AcDbLinetypeTableRecord
  2
Continuous
 70
     0
  3
Solid line
 72
    65
 73
     0
 40
0.0
  0
LTYPE
  5
65E
330
5
100
AcDbSymbolTableRecord
100
AcDbLinetypeTableRecord
  2
DASHED
 70
     0
  3
DASHED
 72
    65
 73
     2
 40
0.75
 49
0.5
 74
     0
 49
-0.25
 74
     0
  0
ENDTAB
  0
TABLE
  2
LAYER
  5
2
330
0
100
AcDbSymbolTable
 70
     1
  0
LAYER
  5
10
330
2
100
AcDbSymbolTableRecord
100
AcDbLayerTableRecord
  2
0
 70
     0
 62
     7
  6
Continuous
370
    -3
390
F
  0
ENDTAB
  0
TABLE
  2
STYLE
  5
3
330
0
100
AcDbSymbolTable
 70
     1
  0
STYLE
  5
11
330
3
100
AcDbSymbolTableRecord
100
AcDbTextStyleTableRecord
  2
Standard
 70
     0
 40
0.0
 41
1.0
 50
0.0
 71
     0
 42
2.5
  3
txt
  4

  0
ENDTAB
  0
TABLE
  2
VIEW
  5
6
330
0
100
AcDbSymbolTable
 70
     0
  0
ENDTAB
  0
TABLE
  2
UCS
  5
7
330
0
100
AcDbSymbolTable
 70
     0
  0
ENDTAB
  0
TABLE
  2
APPID
  5
9
330
0
100
AcDbSymbolTable
 70
     2
  0
APPID
  5
12
330
9
100
AcDbSymbolTableRecord
100
AcDbRegAppTableRecord
  2
ACAD
 70
     0
  0
APPID
  5
660
330
9
100
AcDbSymbolTableRecord
100
AcDbRegAppTableRecord
  2
TCAD
 70
     0
  0
ENDTAB
  0
TABLE
  2
DIMSTYLE
  5
A
330
0
100
AcDbSymbolTable
 70
     2
100
AcDbDimStyleTable
 71
     1
340
27
  0
DIMSTYLE
105
27
330
A
100
AcDbSymbolTableRecord
100
AcDbDimStyleTableRecord
  2
ISO-25
 70
     0
 41
2.5
 42
0.625
 43
3.75
 44
1.25
 73
     0
 74
     0
 77
     1
 78
     8
140
2.5
141
2.5
143
0.03937007874016
147
0.625
171
     3
172
     1
271
     2
272
     2
274
     3
283
     0
284
     8
340
11
  0
DIMSTYLE
105
65F
330
A
100
AcDbSymbolTableRecord
100
AcDbDimStyleTableRecord
  2
STANDARD
 70
     0
 41
3.0
 42
0.5
 43
5.5
 44
1.0
 45
0.01
 73
     0
 74
     0
 77
     1
 78
     8
140
2.75
143
1.0
147
1.0
148
0.0001
171
     4
172
     1
176
     7
177
     7
178
     7
274
     4
285
     8
340
11
341
658
342
658
  0
ENDTAB
  0
TABLE
  2
BLOCK_RECORD
  5
1
330
0
100
AcDbSymbolTable
 70
     2
  0
BLOCK_RECORD
  5
1F
330
1
100
AcDbSymbolTableRecord
100
AcDbBlockTableRecord
  2
*Model_Space
340
22
  0
BLOCK_RECORD
  5
1B
330
1
100
AcDbSymbolTableRecord
100
AcDbBlockTableRecord
  2
*Paper_Space
340
1E
  0
BLOCK_RECORD
  5
23
330
1
100
AcDbSymbolTableRecord
100
AcDbBlockTableRecord
  2
*Paper_Space0
340
26
  0
BLOCK_RECORD
  5
658
330
1
100
AcDbSymbolTableRecord
100
AcDbBlockTableRecord
  2
_OPEN
340
0
  0
ENDTAB
  0
ENDSEC
  0
SECTION
  2
BLOCKS
  0
BLOCK
  5
20
330
1F
100
AcDbEntity
  8
0
100
AcDbBlockBegin
  2
*Model_Space
 70
     0
 10
0.0
 20
0.0
 30
0.0
  3
*Model_Space
  1

  0
ENDBLK
  5
21
330
1F
100
AcDbEntity
  8
0
100
AcDbBlockEnd
  0
BLOCK
  5
1C
330
1B
100
AcDbEntity
 67
     1
  8
0
100
AcDbBlockBegin
  2
*Paper_Space
 70
     0
 10
0.0
 20
0.0
 30
0.0
  3
*Paper_Space
  1

  0
ENDBLK
  5
1D
330
1B
100
AcDbEntity
 67
     1
  8
0
100
AcDbBlockEnd
  0
BLOCK
  5
24
330
23
100
AcDbEntity
  8
0
100
AcDbBlockBegin
  2
*Paper_Space0
 70
     0
 10
0.0
 20
0.0
 30
0.0
  3
*Paper_Space0
  1

  0
ENDBLK
  5
25
330
23
100
AcDbEntity
  8
0
100
AcDbBlockEnd
  0
BLOCK
  5
65C
330
658
100
AcDbEntity
  8
0
100
AcDbBlockBegin
  2
_OPEN
 70
     0
 10
0.0
 20
0.0
 30
0.0
  3
_OPEN
  1

  0
LINE
  5
659
330
658
100
AcDbEntity
  8
0
  6
ByBlock
 62
     0
100
AcDbLine
 10
-1.0
 20
0.166667
 30
0.0
 11
0.0
 21
0.0
 31
0.0
  0
LINE
  5
65A
330
658
100
AcDbEntity
  8
0
  6
ByBlock
 62
     0
100
AcDbLine
 10
0.0
 20
0.0
 30
0.0
 11
-1.0
 21
-0.166667
 31
0.0
  0
LINE
  5
65B
330
658
100
AcDbEntity
  8
0
  6
ByBlock
 62
     0
100
AcDbLine
 10
0.0
 20
0.0
 30
0.0
 11
-1.0
 21
0.0
 31
0.0
  0
ENDBLK
  5
65D
330
658
100
AcDbEntity
  8
0
100
AcDbBlockEnd
  0
ENDSEC
  0
SECTION
  2
ENTITIES
  0
LINE
  5
976
330
1F
100
AcDbEntity
  8
0
  6
Continuous
 62
     7
100
AcDbLine
 10
158.6086172106173
 20
243.926969558871
 30
0.0
 11
221.9086172106174
 21
243.926969558871
 31
0.0
  0
LINE
  5
977
330
1F
100
AcDbEntity
  8
0
  6
Continuous
 62
     7
100
AcDbLine
 10
158.6086172106173
 20
199.326969558871
 30
0.0
 11
221.9086172106174
 21
199.326969558871
 31
0.0
  0
LINE
  5
978
330
1F
100
AcDbEntity
  8
0
  6
Continuous
 62
     7
100
AcDbLine
 10
49.90742121061743
 20
246.6269695588712
 30
0.0
 11
95.90742121061735
 21
246.6269695588712
 31
0.0
  0
LINE
  5
979
330
1F
100
AcDbEntity
  8
0
  6
Continuous
 62
     7
100
AcDbLine
 10
49.90742121061743
 20
198.6269695588712
 30
0.0
 11
95.90742121061735
 21
198.6269695588712
 31
0.0
  0
LINE
  5
97A
330
1F
100
AcDbEntity
  8
0
  6
Continuous
 62
     7
100
AcDbLine
 10
62.10742121061746
 20
222.7269695588712
 30
0.0
 11
89.10742121061744
 21
222.7269695588712
 31
0.0
  0
LINE
  5
97B
330
1F
100
AcDbEntity
  8
0
  6
Continuous
 62
     7
100
AcDbLine
 10
62.10742121061746
 20
213.7269695588711
 30
0.0
 11
89.10742121061744
 21
213.7269695588711
 31
0.0
  0
LINE
  5
97C
330
1F
100
AcDbEntity
  8
0
  6
Continuous
 62
     7
100
AcDbLine
 10
62.10742121061746
 20
228.9269695588711
 30
0.0
 11
89.10742121061744
 21
228.9269695588711
 31
0.0
  0
LINE
  5
97D
330
1F
100
AcDbEntity
  8
0
  6
Continuous
 62
     7
100
AcDbLine
 10
62.10742121061746
 20
237.926969558871
 30
0.0
 11
89.10742121061744
 21
237.926969558871
 31
0.0
  0
LINE
  5
97E
330
1F
100
AcDbEntity
  8
0
  6
Continuous
 62
     7
100
AcDbLine
 10
51.50742121061746
 20
245.0269695588711
 30
0.0
 11
94.30742121061745
 21
245.0269695588711
 31
0.0
  0
LINE
  5
97F
330
1F
100
AcDbEntity
  8
0
  6
Continuous
 62
     7
100
AcDbLine
 10
51.50742121061746
 20
200.2269695588712
 30
0.0
 11
94.30742121061745
 21
200.2269695588712
 31
0.0
  0
ARC
  5
980
330
1F
100
AcDbEntity
  8
0
  6
Continuous
 62
     7
100
AcDbCircle
 10
74.90742345184303
 20
208.2269718000966
 30
0.0
 40
2.999997758775248
100
AcDbArc
 50
359.9999571957143
 51
90.000042804288
  0
ARC
  5
981
330
1F
100
AcDbEntity
  8
0
  6
Continuous
 62
     7
100
AcDbCircle
 10
74.90742295184374
 20
206.2269678176456
 30
0.0
 40
2.999998258774973
100
AcDbArc
 50
269.9999667450077
 51
0.0000523535821133
  0
LINE
  5
982
330
1F
100
AcDbEntity
  8
0
  6
Continuous
 62
     7
100
AcDbLine
 10
48.90742121061743
 20
245.626969558871
 30
0.0
 11
48.90742121061743
 21
199.6269695588711
 31
0.0
  0
LINE
  5
983
330
1F
100
AcDbEntity
  8
0
  6
Continuous
 62
     7
100
AcDbLine
 10
50.50742121061746
 20
244.026969558871
 30
0.0
 11
50.50742121061746
 21
201.2269695588711
 31
0.0
  0
ARC
  5
984
330
1F
100
AcDbEntity
  8
0
  6
Continuous
 62
     7
100
AcDbCircle
 10
57.30741896939186
 20
208.2269718000966
 30
0.0
 40
2.999997758775248
100
AcDbArc
 50
89.99995719571201
 51
180.0000428042855
  0
ARC
  5
985
330
1F
100
AcDbEntity
  8
0
  6
Continuous
 62
     7
100
AcDbCircle
 10
61.30742345184303
 20
208.2269718000966
 30
0.0
 40
2.999997758775236
100
AcDbArc
 50
359.9999571957126
 51
90.000042804288
  0
ARC
  5
986
330
1F
100
AcDbEntity
  8
0
  6
Continuous
 62
     7
100
AcDbCircle
 10
70.90741896939184
 20
208.2269718000966
 30
0.0
 40
2.999997758775248
100
AcDbArc
 50
89.99995719571201
 51
180.0000428042855
  0
LINE
  5
987
330
1F
100
AcDbEntity
  8
0
  6
Continuous
 62
     7
100
AcDbLine
 10
61.30742121061746
 20
203.2269695588711
 30
0.0
 11
57.30742121061743
 21
203.2269695588711
 31
0.0
  0
LINE
  5
988
330
1F
100
AcDbEntity
  8
0
  6
Continuous
 62
     7
100
AcDbLine
 10
61.30742121061746
 20
211.226969558871
 30
0.0
 11
57.30742121061743
 21
211.226969558871
 31
0.0
  0
ARC
  5
989
330
1F
100
AcDbEntity
  8
0
  6
Continuous
 62
     7
100
AcDbCircle
 10
51.50742046354226
 20
201.2269688117959
 30
0.0
 40
0.9999992529251022
100
AcDbArc
 50
179.9999571957128
 51
270.0000428042863
  0
ARC
  5
98A
330
1F
100
AcDbEntity
  8
0
  6
Continuous
 62
     7
100
AcDbCircle
 10
49.90742046354225
 20
199.6269688117959
 30
0.0
 40
0.9999992529251022
100
AcDbArc
 50
179.9999571957128
 51
270.0000428042871
  0
LINE
  5
98B
330
1F
100
AcDbEntity
  8
0
  6
Continuous
 62
     7
100
AcDbLine
 10
54.30742121061745
 20
208.2269695588712
 30
0.0
 11
54.30742121061745
 21
206.2269695588712
 31
0.0
  0
ARC
  5
98C
330
1F
100
AcDbEntity
  8
0
  6
Continuous
 62
     7
100
AcDbCircle
 10
57.30741896939189
 20
206.2269673176456
 30
0.0
 40
2.999997758775291
100
AcDbArc
 50
179.9999571957128
 51
270.0000428042871
  0
ARC
  5
98D
330
1F
100
AcDbEntity
  8
0
  6
Continuous
 62
     7
100
AcDbCircle
 10
70.90741896939189
 20
206.2269673176456
 30
0.0
 40
2.999997758775291
100
AcDbArc
 50
179.9999571957128
 51
270.0000428042871
  0
LINE
  5
98E
330
1F
100
AcDbEntity
  8
0
  6
Continuous
 62
     7
100
AcDbLine
 10
64.30742121061746
 20
208.2269695588712
 30
0.0
 11
64.30742121061746
 21
206.2269695588712
 31
0.0
  0
LINE
  5
98F
330
1F
100
AcDbEntity
  8
0
  6
Continuous
 62
     7
100
AcDbLine
 10
67.90742121061744
 20
208.2269695588712
 30
0.0
 11
67.90742121061744
 21
206.2269695588712
 31
0.0
  0
ARC
  5
990
330
1F
100
AcDbEntity
  8
0
  6
Continuous
 62
     7
100
AcDbCircle
 10
61.30742295184375
 20
206.2269678176456
 30
0.0
 40
2.999998258774943
100
AcDbArc
 50
269.9999667450077
 51
0.0000523535821133
  0
LINE
  5
991
330
1F
100
AcDbEntity
  8
0
  6
Continuous
 62
     7
100
AcDbLine
 10
74.90742121061744
 20
203.2269695588711
 30
0.0
 11
70.90742121061744
 21
203.2269695588711
 31
0.0
  0
LINE
  5
992
330
1F
100
AcDbEntity
  8
0
  6
Continuous
 62
     7
100
AcDbLine
 10
74.90742121061744
 20
211.226969558871
 30
0.0
 11
70.90742121061744
 21
211.226969558871
 31
0.0
  0
LINE
  5
993
330
1F
100
AcDbEntity
  8
0
  6
Continuous
 62
     7
100
AcDbLine
 10
62.32408621061741
 20
232.9139145588711
 30
0.0
 11
61.95451821061745
 21
230.284301558871
 31
0.0
  0
LINE
  5
994
330
1F
100
AcDbEntity
  8
0
  6
Continuous
 62
     7
100
AcDbLine
 10
62.93260321061744
 20
232.9336395588712
 30
0.0
 11
62.59990721061743
 21
230.5663855588711
 31
0.0
  0
LINE
  5
995
330
1F
100
AcDbEntity
  8
0
  6
Continuous
 62
     7
100
AcDbLine
 10
65.75664121061746
 20
232.9139145588711
 30
0.0
 11
65.42394521061746
 21
230.5466595588712
 31
0.0
  0
LINE
  5
996
330
1F
100
AcDbEntity
  8
0
  6
Continuous
 62
     7
100
AcDbLine
 10
66.36515821061745
 20
232.9336395588712
 30
0.0
 11
65.99004621061745
 21
230.264576558871
 31
0.0
  0
LINE
  5
997
330
1F
100
AcDbEntity
  8
0
  6
Continuous
 62
     7
100
AcDbLine
 10
69.62226121061743
 20
232.9139145588711
 30
0.0
 11
69.25269321061747
 21
230.284301558871
 31
0.0
  0
LINE
  5
998
330
1F
100
AcDbEntity
  8
0
  6
Continuous
 62
     7
100
AcDbLine
 10
70.23077821061744
 20
232.9336395588712
 30
0.0
 11
69.89808221061743
 21
230.5663855588711
 31
0.0
  0
LINE
  5
999
330
1F
100
AcDbEntity
  8
0
  6
Continuous
 62
     7
100
AcDbLine
 10
73.05481621061746
 20
232.9139145588711
 30
0.0
 11
72.72212021061744
 21
230.5466595588712
 31
0.0
  0
LINE
  5
99A
330
1F
100
AcDbEntity
  8
0
  6
Continuous
 62
     7
100
AcDbLine
 10
73.66333321061745
 20
232.9336395588712
 30
0.0
 11
73.28822121061747
 21
230.264576558871
 31
0.0
  0
LINE
  5
99B
330
1F
100
AcDbEntity
  8
0
  6
Continuous
 62
     7
100
AcDbLine
 10
61.10742121061743
 20
236.9269695588712
 30
0.0
 11
61.10742121061743
 21
229.9269695588712
 31
0.0
  0
ARC
  5
9A8
330
1F
100
AcDbEntity
  8
0
  6
Continuous
 62
     7
100
AcDbCircle
 10
62.10742046354231
 20
221.7269703059463
 30
0.0
 40
0.999999252925159
100
AcDbArc
 50
89.99995719571606
 51
180.0000428042888
  0
LINE
  5
9A9
330
1F
100
AcDbEntity
  8
0
  6
Continuous
 62
     7
100
AcDbLine
 10
62.32408621061741
 20
217.716739558871
 30
0.0
 11
61.95451821061745
 21
215.0871265588711
 31
0.0
  0
LINE
  5
9AA
330
1F
100
AcDbEntity
  8
0
  6
Continuous
 62
     7
100
AcDbLine
 10
62.93260321061744
 20
217.7364645588712
 30
0.0
 11
62.59990721061743
 21
215.3692105588711
 31
0.0
  0
LINE
  5
9AB
330
1F
100
AcDbEntity
  8
0
  6
Continuous
 62
     7
100
AcDbLine
 10
65.75664121061746
 20
217.716739558871
 30
0.0
 11
65.42394521061746
 21
215.3494845588711
 31
0.0
  0
LINE
  5
9AC
330
1F
100
AcDbEntity
  8
0
  6
Continuous
 62
     7
100
AcDbLine
 10
66.36515821061745
 20
217.7364645588712
 30
0.0
 11
65.99004621061745
 21
215.067401558871
 31
0.0
  0
LINE
  5
9AD
330
1F
100
AcDbEntity
  8
0
  6
Continuous
 62
     7
100
AcDbLine
 10
61.10742121061743
 20
221.7269695588711
 30
0.0
 11
61.10742121061743
 21
214.7269695588712
 31
0.0
  0
LINE
  5
9AE
330
1F
100
AcDbEntity
  8
0
  6
Continuous
 62
     7
100
AcDbLine
 10
62.73108621061742
 20
215.218305558871
 30
0.0
 11
65.27304121061748
 21
215.218305558871
 31
0.0
  0
LINE
  5
9AF
330
1F
100
AcDbEntity
  8
0
  6
Continuous
 62
     7
100
AcDbLine
 10
62.36192721061741
 20
214.618455558871
 30
0.0
 11
65.47359321061747
 21
214.618455558871
 31
0.0
  0
LINE
  5
9B0
330
1F
100
AcDbEntity
  8
0
  6
Continuous
 62
     7
100
AcDbLine
 10
61.95451821061745
 20
215.0871265588711
 30
0.0
 11
62.09263321061746
 21
214.9282435588712
 31
0.0
  0
LINE
  5
9B1
330
1F
100
AcDbEntity
  8
0
  6
Continuous
 62
     7
100
AcDbLine
 10
62.59990721061743
 20
215.3692105588711
 30
0.0
 11
62.09263321061746
 21
214.9282435588712
 31
0.0
  0
LINE
  5
9B2
330
1F
100
AcDbEntity
  8
0
  6
Continuous
 62
     7
100
AcDbLine
 10
62.22381221061744
 20
214.7773395588711
 30
0.0
 11
62.36192721061741
 21
214.618455558871
 31
0.0
  0
LINE
  5
9B3
330
1F
100
AcDbEntity
  8
0
  6
Continuous
 62
     7
100
AcDbLine
 10
62.73108621061742
 20
215.218305558871
 30
0.0
 11
62.22381221061744
 21
214.7773395588711
 31
0.0
  0
ARC
  5
9B4
330
1F
100
AcDbEntity
  8
0
  6
Continuous
 62
     7
100
AcDbCircle
 10
62.10742046354225
 20
214.726968811796
 30
0.0
 40
0.9999992529251022
100
AcDbArc
 50
179.9999571957128
 51
270.0000428042863
  0
LINE
  5
9B5
330
1F
100
AcDbEntity
  8
0
  6
Continuous
 62
     7
100
AcDbLine
 10
65.27304121061748
 20
215.218305558871
 30
0.0
 11
65.65636721061742
 21
214.7773395588711
 31
0.0
  0
LINE
  5
9B6
330
1F
100
AcDbEntity
  8
0
  6
Continuous
 62
     7
100
AcDbLine
 10
65.65636721061742
 20
214.7773395588711
 30
0.0
 11
65.47359321061747
 21
214.618455558871
 31
0.0
  0
LINE
  5
9B7
330
1F
100
AcDbEntity
  8
0
  6
Continuous
 62
     7
100
AcDbLine
 10
65.42394521061746
 20
215.3494845588711
 30
0.0
 11
65.80727221061741
 21
214.9085185588711
 31
0.0
  0
LINE
  5
9B8
330
1F
100
AcDbEntity
  8
0
  6
Continuous
 62
     7
100
AcDbLine
 10
65.99004621061745
 20
215.067401558871
 30
0.0
 11
65.80727221061741
 21
214.9085185588711
 31
0.0
  0
LINE
  5
9BD
330
1F
100
AcDbEntity
  8
0
  6
Continuous
 62
     7
100
AcDbLine
 10
63.18773021061744
 20
218.467493558871
 30
0.0
 11
65.72968521061742
 21
218.467493558871
 31
0.0
  0
LINE
  5
9BE
330
1F
100
AcDbEntity
  8
0
  6
Continuous
 62
     7
100
AcDbLine
 10
63.33959921061741
 20
221.716680558871
 30
0.0
 11
66.45126421061743
 21
221.716680558871
 31
0.0
  0
LINE
  5
9BF
330
1F
100
AcDbEntity
  8
0
  6
Continuous
 62
     7
100
AcDbLine
 10
63.54015121061742
 20
221.1168305588711
 30
0.0
 11
66.08210621061745
 21
221.1168305588711
 31
0.0
  0
LINE
  5
9C0
330
1F
100
AcDbEntity
  8
0
  6
Continuous
 62
     7
100
AcDbLine
 10
63.08350721061744
 20
217.8676435588712
 30
0.0
 11
65.62546221061744
 21
217.8676435588712
 31
0.0
  0
LINE
  5
9C1
330
1F
100
AcDbEntity
  8
0
  6
Continuous
 62
     7
100
AcDbLine
 10
62.88295521061741
 20
218.467493558871
 30
0.0
 11
62.70018121061744
 21
218.308609558871
 31
0.0
  0
LINE
  5
9C2
330
1F
100
AcDbEntity
  8
0
  6
Continuous
 62
     7
100
AcDbLine
 10
62.44803321061747
 20
218.598672558871
 30
0.0
 11
62.56206521061745
 21
218.467493558871
 31
0.0
  0
LINE
  5
9C3
330
1F
100
AcDbEntity
  8
0
  6
Continuous
 62
     7
100
AcDbLine
 10
63.15682421061744
 20
221.5577975588711
 30
0.0
 11
63.54015121061742
 21
221.1168305588711
 31
0.0
  0
LINE
  5
9C4
330
1F
100
AcDbEntity
  8
0
  6
Continuous
 62
     7
100
AcDbLine
 10
63.38924621061743
 20
220.985651558871
 30
0.0
 11
63.05655121061743
 21
218.6183975588711
 31
0.0
  0
LINE
  5
9C5
330
1F
100
AcDbEntity
  8
0
  6
Continuous
 62
     7
100
AcDbLine
 10
63.00592021061746
 20
221.426618558871
 30
0.0
 11
62.82314621061747
 21
221.267735558871
 31
0.0
  0
LINE
  5
9C6
330
1F
100
AcDbEntity
  8
0
  6
Continuous
 62
     7
100
AcDbLine
 10
63.33959921061741
 20
221.716680558871
 30
0.0
 11
63.15682421061744
 21
221.5577975588711
 31
0.0
  0
LINE
  5
9C7
330
1F
100
AcDbEntity
  8
0
  6
Continuous
 62
     7
100
AcDbLine
 10
63.05655121061743
 20
218.6183975588711
 30
0.0
 11
62.88295521061741
 21
218.467493558871
 31
0.0
  0
LINE
  5
9C8
330
1F
100
AcDbEntity
  8
0
  6
Continuous
 62
     7
100
AcDbLine
 10
62.56206521061745
 20
218.467493558871
 30
0.0
 11
62.70018121061744
 21
218.308609558871
 31
0.0
  0
LINE
  5
9C9
330
1F
100
AcDbEntity
  8
0
  6
Continuous
 62
     7
100
AcDbLine
 10
62.82314621061747
 20
221.267735558871
 30
0.0
 11
62.44803321061747
 21
218.598672558871
 31
0.0
  0
LINE
  5
9CA
330
1F
100
AcDbEntity
  8
0
  6
Continuous
 62
     7
100
AcDbLine
 10
63.00592021061746
 20
221.426618558871
 30
0.0
 11
63.38924621061743
 21
220.985651558871
 31
0.0
  0
LINE
  5
9CB
330
1F
100
AcDbEntity
  8
0
  6
Continuous
 62
     7
100
AcDbLine
 10
62.96947521061746
 20
217.998822558871
 30
0.0
 11
63.08350721061744
 21
217.8676435588712
 31
0.0
  0
LINE
  5
9CC
330
1F
100
AcDbEntity
  8
0
  6
Continuous
 62
     7
100
AcDbLine
 10
62.83136021061742
 20
218.1577055588711
 30
0.0
 11
62.96947521061746
 21
217.998822558871
 31
0.0
  0
LINE
  5
9CD
330
1F
100
AcDbEntity
  8
0
  6
Continuous
 62
     7
100
AcDbLine
 10
63.01413421061743
 20
218.316589558871
 30
0.0
 11
62.83136021061742
 21
218.1577055588711
 31
0.0
  0
LINE
  5
9CE
330
1F
100
AcDbEntity
  8
0
  6
Continuous
 62
     7
100
AcDbLine
 10
63.18773021061744
 20
218.467493558871
 30
0.0
 11
63.01413421061743
 21
218.316589558871
 31
0.0
  0
LINE
  5
9CF
330
1F
100
AcDbEntity
  8
0
  6
Continuous
 62
     7
100
AcDbLine
 10
62.49768121061745
 20
217.8676435588712
 30
0.0
 11
62.32408621061741
 21
217.716739558871
 31
0.0
  0
LINE
  5
9D0
330
1F
100
AcDbEntity
  8
0
  6
Continuous
 62
     7
100
AcDbLine
 10
62.81857121061745
 20
217.8676435588712
 30
0.0
 11
62.93260321061744
 21
217.7364645588712
 31
0.0
  0
LINE
  5
9D1
330
1F
100
AcDbEntity
  8
0
  6
Continuous
 62
     7
100
AcDbLine
 10
62.68045621061745
 20
218.0265265588711
 30
0.0
 11
62.81857121061745
 21
217.8676435588712
 31
0.0
  0
LINE
  5
9D2
330
1F
100
AcDbEntity
  8
0
  6
Continuous
 62
     7
100
AcDbLine
 10
62.68045621061745
 20
218.0265265588711
 30
0.0
 11
62.49768121061745
 21
217.8676435588712
 31
0.0
  0
LINE
  5
9D3
330
1F
100
AcDbEntity
  8
0
  6
Continuous
 62
     7
100
AcDbLine
 10
65.62546221061744
 20
217.8676435588712
 30
0.0
 11
65.98183221061744
 21
218.177430558871
 31
0.0
  0
LINE
  5
9D4
330
1F
100
AcDbEntity
  8
0
  6
Continuous
 62
     7
100
AcDbLine
 10
66.85867421061742
 20
221.2480095588711
 30
0.0
 11
66.48910621061745
 21
218.6183975588711
 31
0.0
  0
LINE
  5
9D5
330
1F
100
AcDbEntity
  8
0
  6
Continuous
 62
     7
100
AcDbLine
 10
66.7205592106174
 20
221.4068935588711
 30
0.0
 11
66.85867421061742
 21
221.2480095588711
 31
0.0
  0
LINE
  5
9D6
330
1F
100
AcDbEntity
  8
0
  6
Continuous
 62
     7
100
AcDbLine
 10
66.7205592106174
 20
221.4068935588711
 30
0.0
 11
66.21328521061743
 21
220.9659265588711
 31
0.0
  0
LINE
  5
9D7
330
1F
100
AcDbEntity
  8
0
  6
Continuous
 62
     7
100
AcDbLine
 10
66.58938021061747
 20
221.5577975588711
 30
0.0
 11
66.08210621061745
 21
221.1168305588711
 31
0.0
  0
LINE
  5
9D8
330
1F
100
AcDbEntity
  8
0
  6
Continuous
 62
     7
100
AcDbLine
 10
66.13273621061742
 20
218.308609558871
 30
0.0
 11
66.48910621061745
 21
218.6183975588711
 31
0.0
  0
LINE
  5
9D9
330
1F
100
AcDbEntity
  8
0
  6
Continuous
 62
     7
100
AcDbLine
 10
66.13273621061742
 20
218.308609558871
 30
0.0
 11
65.88058921061746
 21
218.598672558871
 31
0.0
  0
LINE
  5
9DA
330
1F
100
AcDbEntity
  8
0
  6
Continuous
 62
     7
100
AcDbLine
 10
65.98183221061744
 20
218.177430558871
 30
0.0
 11
65.72968521061742
 21
218.467493558871
 31
0.0
  0
LINE
  5
9DB
330
1F
100
AcDbEntity
  8
0
  6
Continuous
 62
     7
100
AcDbLine
 10
66.45126421061743
 20
221.716680558871
 30
0.0
 11
66.58938021061747
 21
221.5577975588711
 31
0.0
  0
LINE
  5
9DC
330
1F
100
AcDbEntity
  8
0
  6
Continuous
 62
     7
100
AcDbLine
 10
66.21328521061743
 20
220.9659265588711
 30
0.0
 11
65.88058921061746
 21
218.598672558871
 31
0.0
  0
LINE
  5
9DD
330
1F
100
AcDbEntity
  8
0
  6
Continuous
 62
     7
100
AcDbLine
 10
66.36515821061745
 20
217.7364645588712
 30
0.0
 11
66.11301121061742
 21
218.0265265588711
 31
0.0
  0
LINE
  5
9DE
330
1F
100
AcDbEntity
  8
0
  6
Continuous
 62
     7
100
AcDbLine
 10
65.75664121061746
 20
217.716739558871
 30
0.0
 11
66.11301121061742
 21
218.0265265588711
 31
0.0
  0
LINE
  5
9DF
330
1F
100
AcDbEntity
  8
0
  6
Continuous
 62
     7
100
AcDbLine
 10
69.62226121061743
 20
217.716739558871
 30
0.0
 11
69.25269321061747
 21
215.0871265588711
 31
0.0
  0
LINE
  5
9E0
330
1F
100
AcDbEntity
  8
0
  6
Continuous
 62
     7
100
AcDbLine
 10
70.23077821061744
 20
217.7364645588712
 30
0.0
 11
69.89808221061743
 21
215.3692105588711
 31
0.0
  0
LINE
  5
9E1
330
1F
100
AcDbEntity
  8
0
  6
Continuous
 62
     7
100
AcDbLine
 10
73.05481621061746
 20
217.716739558871
 30
0.0
 11
72.72212021061744
 21
215.3494845588711
 31
0.0
  0
LINE
  5
9E2
330
1F
100
AcDbEntity
  8
0
  6
Continuous
 62
     7
100
AcDbLine
 10
73.66333321061745
 20
217.7364645588712
 30
0.0
 11
73.28822121061747
 21
215.067401558871
 31
0.0
  0
LINE
  5
9E3
330
1F
100
AcDbEntity
  8
0
  6
Continuous
 62
     7
100
AcDbLine
 10
70.02926121061742
 20
215.218305558871
 30
0.0
 11
72.57121621061745
 21
215.218305558871
 31
0.0
  0
LINE
  5
9E4
330
1F
100
AcDbEntity
  8
0
  6
Continuous
 62
     7
100
AcDbLine
 10
69.66010221061742
 20
214.618455558871
 30
0.0
 11
72.77176821061745
 21
214.618455558871
 31
0.0
  0
LINE
  5
9E5
330
1F
100
AcDbEntity
  8
0
  6
Continuous
 62
     7
100
AcDbLine
 10
69.25269321061747
 20
215.0871265588711
 30
0.0
 11
69.39080821061745
 21
214.9282435588712
 31
0.0
  0
LINE
  5
9E6
330
1F
100
AcDbEntity
  8
0
  6
Continuous
 62
     7
100
AcDbLine
 10
69.89808221061743
 20
215.3692105588711
 30
0.0
 11
69.39080821061745
 21
214.9282435588712
 31
0.0
  0
LINE
  5
9E7
330
1F
100
AcDbEntity
  8
0
  6
Continuous
 62
     7
100
AcDbLine
 10
69.52198721061741
 20
214.7773395588711
 30
0.0
 11
69.66010221061742
 21
214.618455558871
 31
0.0
  0
LINE
  5
9E8
330
1F
100
AcDbEntity
  8
0
  6
Continuous
 62
     7
100
AcDbLine
 10
70.02926121061742
 20
215.218305558871
 30
0.0
 11
69.52198721061741
 21
214.7773395588711
 31
0.0
  0
LINE
  5
9E9
330
1F
100
AcDbEntity
  8
0
  6
Continuous
 62
     7
100
AcDbLine
 10
72.57121621061745
 20
215.218305558871
 30
0.0
 11
72.95454221061746
 21
214.7773395588711
 31
0.0
  0
LINE
  5
9EA
330
1F
100
AcDbEntity
  8
0
  6
Continuous
 62
     7
100
AcDbLine
 10
72.95454221061746
 20
214.7773395588711
 30
0.0
 11
72.77176821061745
 21
214.618455558871
 31
0.0
  0
LINE
  5
9EB
330
1F
100
AcDbEntity
  8
0
  6
Continuous
 62
     7
100
AcDbLine
 10
72.72212021061744
 20
215.3494845588711
 30
0.0
 11
73.10544721061744
 21
214.9085185588711
 31
0.0
  0
LINE
  5
9EC
330
1F
100
AcDbEntity
  8
0
  6
Continuous
 62
     7
100
AcDbLine
 10
73.28822121061747
 20
215.067401558871
 30
0.0
 11
73.10544721061744
 21
214.9085185588711
 31
0.0
  0
LINE
  5
9F1
330
1F
100
AcDbEntity
  8
0
  6
Continuous
 62
     7
100
AcDbLine
 10
70.48590521061743
 20
218.467493558871
 30
0.0
 11
73.02786021061741
 21
218.467493558871
 31
0.0
  0
LINE
  5
9F2
330
1F
100
AcDbEntity
  8
0
  6
Continuous
 62
     7
100
AcDbLine
 10
70.63777421061743
 20
221.716680558871
 30
0.0
 11
73.74943921061742
 21
221.716680558871
 31
0.0
  0
LINE
  5
9F3
330
1F
100
AcDbEntity
  8
0
  6
Continuous
 62
     7
100
AcDbLine
 10
70.83832621061744
 20
221.1168305588711
 30
0.0
 11
73.38028121061744
 21
221.1168305588711
 31
0.0
  0
LINE
  5
9F4
330
1F
100
AcDbEntity
  8
0
  6
Continuous
 62
     7
100
AcDbLine
 10
70.38168221061744
 20
217.8676435588712
 30
0.0
 11
72.92363721061744
 21
217.8676435588712
 31
0.0
  0
LINE
  5
9F5
330
1F
100
AcDbEntity
  8
0
  6
Continuous
 62
     7
100
AcDbLine
 10
70.18113021061743
 20
218.467493558871
 30
0.0
 11
69.99835621061746
 21
218.308609558871
 31
0.0
  0
LINE
  5
9F6
330
1F
100
AcDbEntity
  8
0
  6
Continuous
 62
     7
100
AcDbLine
 10
69.74620821061747
 20
218.598672558871
 30
0.0
 11
69.86024021061746
 21
218.467493558871
 31
0.0
  0
LINE
  5
9F7
330
1F
100
AcDbEntity
  8
0
  6
Continuous
 62
     7
100
AcDbLine
 10
70.45499921061744
 20
221.5577975588711
 30
0.0
 11
70.83832621061744
 21
221.1168305588711
 31
0.0
  0
LINE
  5
9F8
330
1F
100
AcDbEntity
  8
0
  6
Continuous
 62
     7
100
AcDbLine
 10
70.68742121061744
 20
220.985651558871
 30
0.0
 11
70.35472621061741
 21
218.6183975588711
 31
0.0
  0
LINE
  5
9F9
330
1F
100
AcDbEntity
  8
0
  6
Continuous
 62
     7
100
AcDbLine
 10
70.30409521061746
 20
221.426618558871
 30
0.0
 11
70.12132121061745
 21
221.267735558871
 31
0.0
  0
LINE
  5
9FA
330
1F
100
AcDbEntity
  8
0
  6
Continuous
 62
     7
100
AcDbLine
 10
70.63777421061743
 20
221.716680558871
 30
0.0
 11
70.45499921061744
 21
221.5577975588711
 31
0.0
  0
LINE
  5
9FB
330
1F
100
AcDbEntity
  8
0
  6
Continuous
 62
     7
100
AcDbLine
 10
70.35472621061741
 20
218.6183975588711
 30
0.0
 11
70.18113021061743
 21
218.467493558871
 31
0.0
  0
LINE
  5
9FC
330
1F
100
AcDbEntity
  8
0
  6
Continuous
 62
     7
100
AcDbLine
 10
69.86024021061746
 20
218.467493558871
 30
0.0
 11
69.99835621061746
 21
218.308609558871
 31
0.0
  0
LINE
  5
9FD
330
1F
100
AcDbEntity
  8
0
  6
Continuous
 62
     7
100
AcDbLine
 10
70.12132121061745
 20
221.267735558871
 30
0.0
 11
69.74620821061747
 21
218.598672558871
 31
0.0
  0
LINE
  5
9FE
330
1F
100
AcDbEntity
  8
0
  6
Continuous
 62
     7
100
AcDbLine
 10
70.30409521061746
 20
221.426618558871
 30
0.0
 11
70.68742121061744
 21
220.985651558871
 31
0.0
  0
LINE
  5
9FF
330
1F
100
AcDbEntity
  8
0
  6
Continuous
 62
     7
100
AcDbLine
 10
70.26765021061746
 20
217.998822558871
 30
0.0
 11
70.38168221061744
 21
217.8676435588712
 31
0.0
  0
LINE
  5
A00
330
1F
100
AcDbEntity
  8
0
  6
Continuous
 62
     7
100
AcDbLine
 10
70.12953521061742
 20
218.1577055588711
 30
0.0
 11
70.26765021061746
 21
217.998822558871
 31
0.0
  0
LINE
  5
A01
330
1F
100
AcDbEntity
  8
0
  6
Continuous
 62
     7
100
AcDbLine
 10
70.31230921061743
 20
218.316589558871
 30
0.0
 11
70.12953521061742
 21
218.1577055588711
 31
0.0
  0
LINE
  5
A02
330
1F
100
AcDbEntity
  8
0
  6
Continuous
 62
     7
100
AcDbLine
 10
70.48590521061743
 20
218.467493558871
 30
0.0
 11
70.31230921061743
 21
218.316589558871
 31
0.0
  0
LINE
  5
A03
330
1F
100
AcDbEntity
  8
0
  6
Continuous
 62
     7
100
AcDbLine
 10
69.79585621061746
 20
217.8676435588712
 30
0.0
 11
69.62226121061743
 21
217.716739558871
 31
0.0
  0
LINE
  5
A04
330
1F
100
AcDbEntity
  8
0
  6
Continuous
 62
     7
100
AcDbLine
 10
70.11674621061745
 20
217.8676435588712
 30
0.0
 11
70.23077821061744
 21
217.7364645588712
 31
0.0
  0
LINE
  5
A05
330
1F
100
AcDbEntity
  8
0
  6
Continuous
 62
     7
100
AcDbLine
 10
69.97863121061747
 20
218.0265265588711
 30
0.0
 11
70.11674621061745
 21
217.8676435588712
 31
0.0
  0
LINE
  5
A06
330
1F
100
AcDbEntity
  8
0
  6
Continuous
 62
     7
100
AcDbLine
 10
69.97863121061747
 20
218.0265265588711
 30
0.0
 11
69.79585621061746
 21
217.8676435588712
 31
0.0
  0
LINE
  5
A07
330
1F
100
AcDbEntity
  8
0
  6
Continuous
 62
     7
100
AcDbLine
 10
72.92363721061744
 20
217.8676435588712
 30
0.0
 11
73.28000721061741
 21
218.177430558871
 31
0.0
  0
LINE
  5
A08
330
1F
100
AcDbEntity
  8
0
  6
Continuous
 62
     7
100
AcDbLine
 10
74.15684921061741
 20
221.2480095588711
 30
0.0
 11
73.78728121061747
 21
218.6183975588711
 31
0.0
  0
LINE
  5
A09
330
1F
100
AcDbEntity
  8
0
  6
Continuous
 62
     7
100
AcDbLine
 10
74.01873421061743
 20
221.4068935588711
 30
0.0
 11
74.15684921061741
 21
221.2480095588711
 31
0.0
  0
LINE
  5
A0A
330
1F
100
AcDbEntity
  8
0
  6
Continuous
 62
     7
100
AcDbLine
 10
74.01873421061743
 20
221.4068935588711
 30
0.0
 11
73.51146021061746
 21
220.9659265588711
 31
0.0
  0
LINE
  5
A0B
330
1F
100
AcDbEntity
  8
0
  6
Continuous
 62
     7
100
AcDbLine
 10
73.88755521061748
 20
221.5577975588711
 30
0.0
 11
73.38028121061744
 21
221.1168305588711
 31
0.0
  0
LINE
  5
A0C
330
1F
100
AcDbEntity
  8
0
  6
Continuous
 62
     7
100
AcDbLine
 10
73.43091121061743
 20
218.308609558871
 30
0.0
 11
73.78728121061747
 21
218.6183975588711
 31
0.0
  0
LINE
  5
A0D
330
1F
100
AcDbEntity
  8
0
  6
Continuous
 62
     7
100
AcDbLine
 10
73.43091121061743
 20
218.308609558871
 30
0.0
 11
73.17876421061743
 21
218.598672558871
 31
0.0
  0
LINE
  5
A0E
330
1F
100
AcDbEntity
  8
0
  6
Continuous
 62
     7
100
AcDbLine
 10
73.28000721061741
 20
218.177430558871
 30
0.0
 11
73.02786021061741
 21
218.467493558871
 31
0.0
  0
LINE
  5
A0F
330
1F
100
AcDbEntity
  8
0
  6
Continuous
 62
     7
100
AcDbLine
 10
73.74943921061742
 20
221.716680558871
 30
0.0
 11
73.88755521061748
 21
221.5577975588711
 31
0.0
  0
LINE
  5
A10
330
1F
100
AcDbEntity
  8
0
  6
Continuous
 62
     7
100
AcDbLine
 10
73.51146021061746
 20
220.9659265588711
 30
0.0
 11
73.17876421061743
 21
218.598672558871
 31
0.0
  0
LINE
  5
A11
330
1F
100
AcDbEntity
  8
0
  6
Continuous
 62
     7
100
AcDbLine
 10
73.66333321061745
 20
217.7364645588712
 30
0.0
 11
73.41118621061744
 21
218.0265265588711
 31
0.0
  0
LINE
  5
A12
330
1F
100
AcDbEntity
  8
0
  6
Continuous
 62
     7
100
AcDbLine
 10
73.05481621061746
 20
217.716739558871
 30
0.0
 11
73.41118621061744
 21
218.0265265588711
 31
0.0
  0
LINE
  5
A13
330
1F
100
AcDbEntity
  8
0
  6
Continuous
 62
     7
100
AcDbLine
 10
62.73108621061742
 20
230.4154805588712
 30
0.0
 11
65.27304121061748
 21
230.4154805588712
 31
0.0
  0
LINE
  5
A14
330
1F
100
AcDbEntity
  8
0
  6
Continuous
 62
     7
100
AcDbLine
 10
62.36192721061741
 20
229.8156305588711
 30
0.0
 11
65.47359321061747
 21
229.8156305588711
 31
0.0
  0
LINE
  5
A15
330
1F
100
AcDbEntity
  8
0
  6
Continuous
 62
     7
100
AcDbLine
 10
61.95451821061745
 20
230.284301558871
 30
0.0
 11
62.09263321061746
 21
230.1254185588712
 31
0.0
  0
LINE
  5
A16
330
1F
100
AcDbEntity
  8
0
  6
Continuous
 62
     7
100
AcDbLine
 10
62.59990721061743
 20
230.5663855588711
 30
0.0
 11
62.09263321061746
 21
230.1254185588712
 31
0.0
  0
LINE
  5
A17
330
1F
100
AcDbEntity
  8
0
  6
Continuous
 62
     7
100
AcDbLine
 10
62.22381221061744
 20
229.9745145588711
 30
0.0
 11
62.36192721061741
 21
229.8156305588711
 31
0.0
  0
LINE
  5
A18
330
1F
100
AcDbEntity
  8
0
  6
Continuous
 62
     7
100
AcDbLine
 10
62.73108621061742
 20
230.4154805588712
 30
0.0
 11
62.22381221061744
 21
229.9745145588711
 31
0.0
  0
ARC
  5
A19
330
1F
100
AcDbEntity
  8
0
  6
Continuous
 62
     7
100
AcDbCircle
 10
62.10742046354225
 20
229.926968811796
 30
0.0
 40
0.9999992529251022
100
AcDbArc
 50
179.9999571957128
 51
270.0000428042863
  0
LINE
  5
A1A
330
1F
100
AcDbEntity
  8
0
  6
Continuous
 62
     7
100
AcDbLine
 10
65.27304121061748
 20
230.4154805588712
 30
0.0
 11
65.65636721061742
 21
229.9745145588711
 31
0.0
  0
LINE
  5
A1B
330
1F
100
AcDbEntity
  8
0
  6
Continuous
 62
     7
100
AcDbLine
 10
65.65636721061742
 20
229.9745145588711
 30
0.0
 11
65.47359321061747
 21
229.8156305588711
 31
0.0
  0
LINE
  5
A1C
330
1F
100
AcDbEntity
  8
0
  6
Continuous
 62
     7
100
AcDbLine
 10
65.42394521061746
 20
230.5466595588712
 30
0.0
 11
65.80727221061741
 21
230.1056935588711
 31
0.0
  0
LINE
  5
A1D
330
1F
100
AcDbEntity
  8
0
  6
Continuous
 62
     7
100
AcDbLine
 10
65.99004621061745
 20
230.264576558871
 30
0.0
 11
65.80727221061741
 21
230.1056935588711
 31
0.0
  0
LINE
  5
A22
330
1F
100
AcDbEntity
  8
0
  6
Continuous
 62
     7
100
AcDbLine
 10
70.02926121061742
 20
230.4154805588712
 30
0.0
 11
72.57121621061745
 21
230.4154805588712
 31
0.0
  0
LINE
  5
A23
330
1F
100
AcDbEntity
  8
0
  6
Continuous
 62
     7
100
AcDbLine
 10
69.66010221061742
 20
229.8156305588711
 30
0.0
 11
72.77176821061745
 21
229.8156305588711
 31
0.0
  0
LINE
  5
A24
330
1F
100
AcDbEntity
  8
0
  6
Continuous
 62
     7
100
AcDbLine
 10
69.25269321061747
 20
230.284301558871
 30
0.0
 11
69.39080821061745
 21
230.1254185588712
 31
0.0
  0
LINE
  5
A25
330
1F
100
AcDbEntity
  8
0
  6
Continuous
 62
     7
100
AcDbLine
 10
69.89808221061743
 20
230.5663855588711
 30
0.0
 11
69.39080821061745
 21
230.1254185588712
 31
0.0
  0
LINE
  5
A26
330
1F
100
AcDbEntity
  8
0
  6
Continuous
 62
     7
100
AcDbLine
 10
69.52198721061741
 20
229.9745145588711
 30
0.0
 11
69.66010221061742
 21
229.8156305588711
 31
0.0
  0
LINE
  5
A27
330
1F
100
AcDbEntity
  8
0
  6
Continuous
 62
     7
100
AcDbLine
 10
70.02926121061742
 20
230.4154805588712
 30
0.0
 11
69.52198721061741
 21
229.9745145588711
 31
0.0
  0
LINE
  5
A28
330
1F
100
AcDbEntity
  8
0
  6
Continuous
 62
     7
100
AcDbLine
 10
72.57121621061745
 20
230.4154805588712
 30
0.0
 11
72.95454221061746
 21
229.9745145588711
 31
0.0
  0
LINE
  5
A29
330
1F
100
AcDbEntity
  8
0
  6
Continuous
 62
     7
100
AcDbLine
 10
72.95454221061746
 20
229.9745145588711
 30
0.0
 11
72.77176821061745
 21
229.8156305588711
 31
0.0
  0
LINE
  5
A2A
330
1F
100
AcDbEntity
  8
0
  6
Continuous
 62
     7
100
AcDbLine
 10
72.72212021061744
 20
230.5466595588712
 30
0.0
 11
73.10544721061744
 21
230.1056935588711
 31
0.0
  0
LINE
  5
A2B
330
1F
100
AcDbEntity
  8
0
  6
Continuous
 62
     7
100
AcDbLine
 10
73.28822121061747
 20
230.264576558871
 30
0.0
 11
73.10544721061744
 21
230.1056935588711
 31
0.0
  0
ARC
  5
A33
330
1F
100
AcDbEntity
  8
0
  6
Continuous
 62
     7
100
AcDbCircle
 10
49.90742046354228
 20
245.6269703059462
 30
0.0
 40
0.9999992529251306
100
AcDbArc
 50
89.99995719571442
 51
180.0000428042888
  0
ARC
  5
A34
330
1F
100
AcDbEntity
  8
0
  6
Continuous
 62
     7
100
AcDbCircle
 10
51.50742046354229
 20
244.0269703059462
 30
0.0
 40
0.9999992529251306
100
AcDbArc
 50
89.99995719571527
 51
180.0000428042888
  0
ARC
  5
A35
330
1F
100
AcDbEntity
  8
0
  6
Continuous
 62
     7
100
AcDbCircle
 10
62.10742046354224
 20
236.9269703059463
 30
0.0
 40
0.9999992529250738
100
AcDbArc
 50
89.99995719571201
 51
180.0000428042855
  0
LINE
  5
A36
330
1F
100
AcDbEntity
  8
0
  6
Continuous
 62
     7
100
AcDbLine
 10
63.54015121061742
 20
236.3140055588711
 30
0.0
 11
66.08210621061745
 21
236.3140055588711
 31
0.0
  0
LINE
  5
A37
330
1F
100
AcDbEntity
  8
0
  6
Continuous
 62
     7
100
AcDbLine
 10
63.08350721061744
 20
233.0648185588712
 30
0.0
 11
65.62546221061744
 21
233.0648185588712
 31
0.0
  0
LINE
  5
A38
330
1F
100
AcDbEntity
  8
0
  6
Continuous
 62
     7
100
AcDbLine
 10
63.18773021061744
 20
233.6646685588712
 30
0.0
 11
65.72968521061742
 21
233.6646685588712
 31
0.0
  0
LINE
  5
A39
330
1F
100
AcDbEntity
  8
0
  6
Continuous
 62
     7
100
AcDbLine
 10
63.33959921061741
 20
236.9138555588711
 30
0.0
 11
66.45126421061743
 21
236.9138555588711
 31
0.0
  0
LINE
  5
A3A
330
1F
100
AcDbEntity
  8
0
  6
Continuous
 62
     7
100
AcDbLine
 10
63.38924621061743
 20
236.1828265588711
 30
0.0
 11
63.05655121061743
 21
233.8155725588712
 31
0.0
  0
LINE
  5
A3B
330
1F
100
AcDbEntity
  8
0
  6
Continuous
 62
     7
100
AcDbLine
 10
63.00592021061746
 20
236.6237935588712
 30
0.0
 11
62.82314621061747
 21
236.4649105588711
 31
0.0
  0
LINE
  5
A3C
330
1F
100
AcDbEntity
  8
0
  6
Continuous
 62
     7
100
AcDbLine
 10
63.33959921061741
 20
236.9138555588711
 30
0.0
 11
63.15682421061744
 21
236.7549725588712
 31
0.0
  0
LINE
  5
A3D
330
1F
100
AcDbEntity
  8
0
  6
Continuous
 62
     7
100
AcDbLine
 10
63.05655121061743
 20
233.8155725588712
 30
0.0
 11
62.88295521061741
 21
233.6646685588712
 31
0.0
  0
LINE
  5
A3E
330
1F
100
AcDbEntity
  8
0
  6
Continuous
 62
     7
100
AcDbLine
 10
62.56206521061745
 20
233.6646685588712
 30
0.0
 11
62.70018121061744
 21
233.505784558871
 31
0.0
  0
LINE
  5
A3F
330
1F
100
AcDbEntity
  8
0
  6
Continuous
 62
     7
100
AcDbLine
 10
62.82314621061747
 20
236.4649105588711
 30
0.0
 11
62.44803321061747
 21
233.7958475588711
 31
0.0
  0
LINE
  5
A40
330
1F
100
AcDbEntity
  8
0
  6
Continuous
 62
     7
100
AcDbLine
 10
63.00592021061746
 20
236.6237935588712
 30
0.0
 11
63.38924621061743
 21
236.1828265588711
 31
0.0
  0
LINE
  5
A41
330
1F
100
AcDbEntity
  8
0
  6
Continuous
 62
     7
100
AcDbLine
 10
62.96947521061746
 20
233.1959975588711
 30
0.0
 11
63.08350721061744
 21
233.0648185588712
 31
0.0
  0
LINE
  5
A42
330
1F
100
AcDbEntity
  8
0
  6
Continuous
 62
     7
100
AcDbLine
 10
62.83136021061742
 20
233.3548805588712
 30
0.0
 11
62.96947521061746
 21
233.1959975588711
 31
0.0
  0
LINE
  5
A43
330
1F
100
AcDbEntity
  8
0
  6
Continuous
 62
     7
100
AcDbLine
 10
63.01413421061743
 20
233.5137645588712
 30
0.0
 11
62.83136021061742
 21
233.3548805588712
 31
0.0
  0
LINE
  5
A44
330
1F
100
AcDbEntity
  8
0
  6
Continuous
 62
     7
100
AcDbLine
 10
63.18773021061744
 20
233.6646685588712
 30
0.0
 11
63.01413421061743
 21
233.5137645588712
 31
0.0
  0
LINE
  5
A45
330
1F
100
AcDbEntity
  8
0
  6
Continuous
 62
     7
100
AcDbLine
 10
62.49768121061745
 20
233.0648185588712
 30
0.0
 11
62.32408621061741
 21
232.9139145588711
 31
0.0
  0
LINE
  5
A46
330
1F
100
AcDbEntity
  8
0
  6
Continuous
 62
     7
100
AcDbLine
 10
62.81857121061745
 20
233.0648185588712
 30
0.0
 11
62.93260321061744
 21
232.9336395588712
 31
0.0
  0
LINE
  5
A47
330
1F
100
AcDbEntity
  8
0
  6
Continuous
 62
     7
100
AcDbLine
 10
62.68045621061745
 20
233.2237015588712
 30
0.0
 11
62.81857121061745
 21
233.0648185588712
 31
0.0
  0
LINE
  5
A48
330
1F
100
AcDbEntity
  8
0
  6
Continuous
 62
     7
100
AcDbLine
 10
62.68045621061745
 20
233.2237015588712
 30
0.0
 11
62.49768121061745
 21
233.0648185588712
 31
0.0
  0
LINE
  5
A49
330
1F
100
AcDbEntity
  8
0
  6
Continuous
 62
     7
100
AcDbLine
 10
62.88295521061741
 20
233.6646685588712
 30
0.0
 11
62.70018121061744
 21
233.505784558871
 31
0.0
  0
LINE
  5
A4A
330
1F
100
AcDbEntity
  8
0
  6
Continuous
 62
     7
100
AcDbLine
 10
62.44803321061747
 20
233.7958475588711
 30
0.0
 11
62.56206521061745
 21
233.6646685588712
 31
0.0
  0
LINE
  5
A4B
330
1F
100
AcDbEntity
  8
0
  6
Continuous
 62
     7
100
AcDbLine
 10
63.15682421061744
 20
236.7549725588712
 30
0.0
 11
63.54015121061742
 21
236.3140055588711
 31
0.0
  0
LINE
  5
A4C
330
1F
100
AcDbEntity
  8
0
  6
Continuous
 62
     7
100
AcDbLine
 10
65.98183221061744
 20
233.3746055588711
 30
0.0
 11
65.72968521061742
 21
233.6646685588712
 31
0.0
  0
LINE
  5
A4D
330
1F
100
AcDbEntity
  8
0
  6
Continuous
 62
     7
100
AcDbLine
 10
66.45126421061743
 20
236.9138555588711
 30
0.0
 11
66.58938021061747
 21
236.7549725588712
 31
0.0
  0
LINE
  5
A4E
330
1F
100
AcDbEntity
  8
0
  6
Continuous
 62
     7
100
AcDbLine
 10
66.21328521061743
 20
236.1631015588712
 30
0.0
 11
65.88058921061746
 21
233.7958475588711
 31
0.0
  0
LINE
  5
A4F
330
1F
100
AcDbEntity
  8
0
  6
Continuous
 62
     7
100
AcDbLine
 10
66.36515821061745
 20
232.9336395588712
 30
0.0
 11
66.11301121061742
 21
233.2237015588712
 31
0.0
  0
LINE
  5
A50
330
1F
100
AcDbEntity
  8
0
  6
Continuous
 62
     7
100
AcDbLine
 10
65.75664121061746
 20
232.9139145588711
 30
0.0
 11
66.11301121061742
 21
233.2237015588712
 31
0.0
  0
LINE
  5
A51
330
1F
100
AcDbEntity
  8
0
  6
Continuous
 62
     7
100
AcDbLine
 10
65.62546221061744
 20
233.0648185588712
 30
0.0
 11
65.98183221061744
 21
233.3746055588711
 31
0.0
  0
LINE
  5
A52
330
1F
100
AcDbEntity
  8
0
  6
Continuous
 62
     7
100
AcDbLine
 10
66.85867421061742
 20
236.445184558871
 30
0.0
 11
66.48910621061745
 21
233.8155725588712
 31
0.0
  0
LINE
  5
A53
330
1F
100
AcDbEntity
  8
0
  6
Continuous
 62
     7
100
AcDbLine
 10
66.7205592106174
 20
236.6040685588711
 30
0.0
 11
66.85867421061742
 21
236.445184558871
 31
0.0
  0
LINE
  5
A54
330
1F
100
AcDbEntity
  8
0
  6
Continuous
 62
     7
100
AcDbLine
 10
66.7205592106174
 20
236.6040685588711
 30
0.0
 11
66.21328521061743
 21
236.1631015588712
 31
0.0
  0
LINE
  5
A55
330
1F
100
AcDbEntity
  8
0
  6
Continuous
 62
     7
100
AcDbLine
 10
66.58938021061747
 20
236.7549725588712
 30
0.0
 11
66.08210621061745
 21
236.3140055588711
 31
0.0
  0
LINE
  5
A56
330
1F
100
AcDbEntity
  8
0
  6
Continuous
 62
     7
100
AcDbLine
 10
66.13273621061742
 20
233.505784558871
 30
0.0
 11
66.48910621061745
 21
233.8155725588712
 31
0.0
  0
LINE
  5
A57
330
1F
100
AcDbEntity
  8
0
  6
Continuous
 62
     7
100
AcDbLine
 10
66.13273621061742
 20
233.505784558871
 30
0.0
 11
65.88058921061746
 21
233.7958475588711
 31
0.0
  0
LINE
  5
A58
330
1F
100
AcDbEntity
  8
0
  6
Continuous
 62
     7
100
AcDbLine
 10
70.48590521061743
 20
233.6646685588712
 30
0.0
 11
73.02786021061741
 21
233.6646685588712
 31
0.0
  0
LINE
  5
A59
330
1F
100
AcDbEntity
  8
0
  6
Continuous
 62
     7
100
AcDbLine
 10
70.63777421061743
 20
236.9138555588711
 30
0.0
 11
73.74943921061742
 21
236.9138555588711
 31
0.0
  0
LINE
  5
A5A
330
1F
100
AcDbEntity
  8
0
  6
Continuous
 62
     7
100
AcDbLine
 10
70.83832621061744
 20
236.3140055588711
 30
0.0
 11
73.38028121061744
 21
236.3140055588711
 31
0.0
  0
LINE
  5
A5B
330
1F
100
AcDbEntity
  8
0
  6
Continuous
 62
     7
100
AcDbLine
 10
70.38168221061744
 20
233.0648185588712
 30
0.0
 11
72.92363721061744
 21
233.0648185588712
 31
0.0
  0
LINE
  5
A5C
330
1F
100
AcDbEntity
  8
0
  6
Continuous
 62
     7
100
AcDbLine
 10
70.18113021061743
 20
233.6646685588712
 30
0.0
 11
69.99835621061746
 21
233.505784558871
 31
0.0
  0
LINE
  5
A5D
330
1F
100
AcDbEntity
  8
0
  6
Continuous
 62
     7
100
AcDbLine
 10
69.74620821061747
 20
233.7958475588711
 30
0.0
 11
69.86024021061746
 21
233.6646685588712
 31
0.0
  0
LINE
  5
A5E
330
1F
100
AcDbEntity
  8
0
  6
Continuous
 62
     7
100
AcDbLine
 10
70.45499921061744
 20
236.7549725588712
 30
0.0
 11
70.83832621061744
 21
236.3140055588711
 31
0.0
  0
LINE
  5
A5F
330
1F
100
AcDbEntity
  8
0
  6
Continuous
 62
     7
100
AcDbLine
 10
70.68742121061744
 20
236.1828265588711
 30
0.0
 11
70.35472621061741
 21
233.8155725588712
 31
0.0
  0
LINE
  5
A60
330
1F
100
AcDbEntity
  8
0
  6
Continuous
 62
     7
100
AcDbLine
 10
70.30409521061746
 20
236.6237935588712
 30
0.0
 11
70.12132121061745
 21
236.4649105588711
 31
0.0
  0
LINE
  5
A61
330
1F
100
AcDbEntity
  8
0
  6
Continuous
 62
     7
100
AcDbLine
 10
70.63777421061743
 20
236.9138555588711
 30
0.0
 11
70.45499921061744
 21
236.7549725588712
 31
0.0
  0
LINE
  5
A62
330
1F
100
AcDbEntity
  8
0
  6
Continuous
 62
     7
100
AcDbLine
 10
70.35472621061741
 20
233.8155725588712
 30
0.0
 11
70.18113021061743
 21
233.6646685588712
 31
0.0
  0
LINE
  5
A63
330
1F
100
AcDbEntity
  8
0
  6
Continuous
 62
     7
100
AcDbLine
 10
69.86024021061746
 20
233.6646685588712
 30
0.0
 11
69.99835621061746
 21
233.505784558871
 31
0.0
  0
LINE
  5
A64
330
1F
100
AcDbEntity
  8
0
  6
Continuous
 62
     7
100
AcDbLine
 10
70.12132121061745
 20
236.4649105588711
 30
0.0
 11
69.74620821061747
 21
233.7958475588711
 31
0.0
  0
LINE
  5
A65
330
1F
100
AcDbEntity
  8
0
  6
Continuous
 62
     7
100
AcDbLine
 10
70.30409521061746
 20
236.6237935588712
 30
0.0
 11
70.68742121061744
 21
236.1828265588711
 31
0.0
  0
LINE
  5
A66
330
1F
100
AcDbEntity
  8
0
  6
Continuous
 62
     7
100
AcDbLine
 10
70.26765021061746
 20
233.1959975588711
 30
0.0
 11
70.38168221061744
 21
233.0648185588712
 31
0.0
  0
LINE
  5
A67
330
1F
100
AcDbEntity
  8
0
  6
Continuous
 62
     7
100
AcDbLine
 10
70.12953521061742
 20
233.3548805588712
 30
0.0
 11
70.26765021061746
 21
233.1959975588711
 31
0.0
  0
LINE
  5
A68
330
1F
100
AcDbEntity
  8
0
  6
Continuous
 62
     7
100
AcDbLine
 10
70.31230921061743
 20
233.5137645588712
 30
0.0
 11
70.12953521061742
 21
233.3548805588712
 31
0.0
  0
LINE
  5
A69
330
1F
100
AcDbEntity
  8
0
  6
Continuous
 62
     7
100
AcDbLine
 10
70.48590521061743
 20
233.6646685588712
 30
0.0
 11
70.31230921061743
 21
233.5137645588712
 31
0.0
  0
LINE
  5
A6A
330
1F
100
AcDbEntity
  8
0
  6
Continuous
 62
     7
100
AcDbLine
 10
69.79585621061746
 20
233.0648185588712
 30
0.0
 11
69.62226121061743
 21
232.9139145588711
 31
0.0
  0
LINE
  5
A6B
330
1F
100
AcDbEntity
  8
0
  6
Continuous
 62
     7
100
AcDbLine
 10
70.11674621061745
 20
233.0648185588712
 30
0.0
 11
70.23077821061744
 21
232.9336395588712
 31
0.0
  0
LINE
  5
A6C
330
1F
100
AcDbEntity
  8
0
  6
Continuous
 62
     7
100
AcDbLine
 10
69.97863121061747
 20
233.2237015588712
 30
0.0
 11
70.11674621061745
 21
233.0648185588712
 31
0.0
  0
LINE
  5
A6D
330
1F
100
AcDbEntity
  8
0
  6
Continuous
 62
     7
100
AcDbLine
 10
69.97863121061747
 20
233.2237015588712
 30
0.0
 11
69.79585621061746
 21
233.0648185588712
 31
0.0
  0
LINE
  5
A6E
330
1F
100
AcDbEntity
  8
0
  6
Continuous
 62
     7
100
AcDbLine
 10
72.92363721061744
 20
233.0648185588712
 30
0.0
 11
73.28000721061741
 21
233.3746055588711
 31
0.0
  0
LINE
  5
A6F
330
1F
100
AcDbEntity
  8
0
  6
Continuous
 62
     7
100
AcDbLine
 10
74.15684921061741
 20
236.445184558871
 30
0.0
 11
73.78728121061747
 21
233.8155725588712
 31
0.0
  0
LINE
  5
A70
330
1F
100
AcDbEntity
  8
0
  6
Continuous
 62
     7
100
AcDbLine
 10
74.01873421061743
 20
236.6040685588711
 30
0.0
 11
74.15684921061741
 21
236.445184558871
 31
0.0
  0
LINE
  5
A71
330
1F
100
AcDbEntity
  8
0
  6
Continuous
 62
     7
100
AcDbLine
 10
74.01873421061743
 20
236.6040685588711
 30
0.0
 11
73.51146021061746
 21
236.1631015588712
 31
0.0
  0
LINE
  5
A72
330
1F
100
AcDbEntity
  8
0
  6
Continuous
 62
     7
100
AcDbLine
 10
73.88755521061748
 20
236.7549725588712
 30
0.0
 11
73.38028121061744
 21
236.3140055588711
 31
0.0
  0
LINE
  5
A73
330
1F
100
AcDbEntity
  8
0
  6
Continuous
 62
     7
100
AcDbLine
 10
73.43091121061743
 20
233.505784558871
 30
0.0
 11
73.78728121061747
 21
233.8155725588712
 31
0.0
  0
LINE
  5
A74
330
1F
100
AcDbEntity
  8
0
  6
Continuous
 62
     7
100
AcDbLine
 10
73.43091121061743
 20
233.505784558871
 30
0.0
 11
73.17876421061743
 21
233.7958475588711
 31
0.0
  0
LINE
  5
A75
330
1F
100
AcDbEntity
  8
0
  6
Continuous
 62
     7
100
AcDbLine
 10
73.28000721061741
 20
233.3746055588711
 30
0.0
 11
73.02786021061741
 21
233.6646685588712
 31
0.0
  0
LINE
  5
A76
330
1F
100
AcDbEntity
  8
0
  6
Continuous
 62
     7
100
AcDbLine
 10
73.74943921061742
 20
236.9138555588711
 30
0.0
 11
73.88755521061748
 21
236.7549725588712
 31
0.0
  0
LINE
  5
A77
330
1F
100
AcDbEntity
  8
0
  6
Continuous
 62
     7
100
AcDbLine
 10
73.51146021061746
 20
236.1631015588712
 30
0.0
 11
73.17876421061743
 21
233.7958475588711
 31
0.0
  0
LINE
  5
A78
330
1F
100
AcDbEntity
  8
0
  6
Continuous
 62
     7
100
AcDbLine
 10
73.66333321061745
 20
232.9336395588712
 30
0.0
 11
73.41118621061744
 21
233.2237015588712
 31
0.0
  0
LINE
  5
A79
330
1F
100
AcDbEntity
  8
0
  6
Continuous
 62
     7
100
AcDbLine
 10
73.05481621061746
 20
232.9139145588711
 30
0.0
 11
73.41118621061744
 21
233.2237015588712
 31
0.0
  0
LINE
  5
A7A
330
1F
100
AcDbEntity
  8
0
  6
DASHED
 62
     4
100
AcDbLine
 10
170.6265312106173
 20
247.323669558871
 30
0.0
 11
170.6719092106173
 21
253.8235105588711
 31
0.0
  0
ARC
  5
A7B
330
1F
100
AcDbEntity
  8
0
  6
DASHED
 62
     4
100
AcDbCircle
 10
179.6647089628899
 20
252.760704300713
 30
0.0
 40
0.9999996203932447
100
AcDbArc
 50
359.5999722570353
 51
89.60005786560984
  0
ARC
  5
A7C
330
1F
100
AcDbEntity
  8
0
  6
DASHED
 62
     4
100
AcDbCircle
 10
179.6647074687754
 20
252.7607043111436
 30
0.0
 40
0.9999996203932447
100
AcDbArc
 50
89.59997225703629
 51
179.6000578656098
  0
LINE
  5
A7D
330
1F
100
AcDbEntity
  8
0
  6
Continuous
 62
     7
100
AcDbLine
 10
96.90742121061736
 20
245.626969558871
 30
0.0
 11
96.90742121061736
 21
199.6269695588711
 31
0.0
  0
LINE
  5
A7E
330
1F
100
AcDbEntity
  8
0
  6
Continuous
 62
     7
100
AcDbLine
 10
95.30742121061745
 20
244.026969558871
 30
0.0
 11
95.30742121061745
 21
201.2269695588711
 31
0.0
  0
ARC
  5
A7F
330
1F
100
AcDbEntity
  8
0
  6
Continuous
 62
     7
100
AcDbCircle
 10
84.50741896939186
 20
208.2269718000965
 30
0.0
 40
2.999997758775278
100
AcDbArc
 50
89.99995719571201
 51
180.0000428042855
  0
ARC
  5
A80
330
1F
100
AcDbEntity
  8
0
  6
Continuous
 62
     7
100
AcDbCircle
 10
88.50742345184293
 20
208.2269718000966
 30
0.0
 40
2.999997758775248
100
AcDbArc
 50
359.9999571957143
 51
90.000042804288
  0
ARC
  5
A81
330
1F
100
AcDbEntity
  8
0
  6
Continuous
 62
     7
100
AcDbCircle
 10
88.50742295184373
 20
206.2269678176456
 30
0.0
 40
2.999998258774973
100
AcDbArc
 50
269.9999667450077
 51
0.0000523535821133
  0
ARC
  5
A82
330
1F
100
AcDbEntity
  8
0
  6
Continuous
 62
     7
100
AcDbCircle
 10
84.5074189693919
 20
206.2269673176456
 30
0.0
 40
2.999997758775291
100
AcDbArc
 50
179.9999571957128
 51
270.0000428042871
  0
LINE
  5
A83
330
1F
100
AcDbEntity
  8
0
  6
Continuous
 62
     7
100
AcDbLine
 10
77.90742121061744
 20
208.2269695588712
 30
0.0
 11
77.90742121061744
 21
206.2269695588712
 31
0.0
  0
LINE
  5
A84
330
1F
100
AcDbEntity
  8
0
  6
Continuous
 62
     7
100
AcDbLine
 10
81.50742121061744
 20
208.2269695588712
 30
0.0
 11
81.50742121061744
 21
206.2269695588712
 31
0.0
  0
LINE
  5
A85
330
1F
100
AcDbEntity
  8
0
  6
Continuous
 62
     7
100
AcDbLine
 10
88.50742121061745
 20
203.2269695588711
 30
0.0
 11
84.50742121061747
 21
203.2269695588711
 31
0.0
  0
LINE
  5
A86
330
1F
100
AcDbEntity
  8
0
  6
Continuous
 62
     7
100
AcDbLine
 10
88.50742121061745
 20
211.226969558871
 30
0.0
 11
84.50742121061747
 21
211.226969558871
 31
0.0
  0
ARC
  5
A87
330
1F
100
AcDbEntity
  8
0
  6
Continuous
 62
     7
100
AcDbCircle
 10
94.30742195769251
 20
201.2269688117959
 30
0.0
 40
0.9999992529251022
100
AcDbArc
 50
269.9999571957135
 51
0.0000428042871804
  0
ARC
  5
A88
330
1F
100
AcDbEntity
  8
0
  6
Continuous
 62
     7
100
AcDbCircle
 10
95.90742195769243
 20
199.6269688117959
 30
0.0
 40
0.9999992529251022
100
AcDbArc
 50
269.9999571957135
 51
0.0000428042871804
  0
LINE
  5
A89
330
1F
100
AcDbEntity
  8
0
  6
Continuous
 62
     7
100
AcDbLine
 10
91.50742121061744
 20
208.2269695588712
 30
0.0
 11
91.50742121061744
 21
206.2269695588712
 31
0.0
  0
LINE
  5
A8A
330
1F
100
AcDbEntity
  8
0
  6
Continuous
 62
     7
100
AcDbLine
 10
76.92043621061744
 20
232.9139145588711
 30
0.0
 11
76.55086821061745
 21
230.284301558871
 31
0.0
  0
LINE
  5
A8B
330
1F
100
AcDbEntity
  8
0
  6
Continuous
 62
     7
100
AcDbLine
 10
77.52895321061743
 20
232.9336395588712
 30
0.0
 11
77.19625721061746
 21
230.5663855588711
 31
0.0
  0
LINE
  5
A8C
330
1F
100
AcDbEntity
  8
0
  6
Continuous
 62
     7
100
AcDbLine
 10
80.35299121061745
 20
232.9139145588711
 30
0.0
 11
80.02029521061746
 21
230.5466595588712
 31
0.0
  0
LINE
  5
A8D
330
1F
100
AcDbEntity
  8
0
  6
Continuous
 62
     7
100
AcDbLine
 10
80.96150821061744
 20
232.9336395588712
 30
0.0
 11
80.58639621061745
 21
230.264576558871
 31
0.0
  0
LINE
  5
A8E
330
1F
100
AcDbEntity
  8
0
  6
Continuous
 62
     7
100
AcDbLine
 10
84.21861121061743
 20
232.9139145588711
 30
0.0
 11
83.84904321061744
 21
230.284301558871
 31
0.0
  0
LINE
  5
A8F
330
1F
100
AcDbEntity
  8
0
  6
Continuous
 62
     7
100
AcDbLine
 10
84.82712821061744
 20
232.9336395588712
 30
0.0
 11
84.49443221061747
 21
230.5663855588711
 31
0.0
  0
LINE
  5
A90
330
1F
100
AcDbEntity
  8
0
  6
Continuous
 62
     7
100
AcDbLine
 10
87.65116621061734
 20
232.9139145588711
 30
0.0
 11
87.31847021061744
 21
230.5466595588712
 31
0.0
  0
LINE
  5
A91
330
1F
100
AcDbEntity
  8
0
  6
Continuous
 62
     7
100
AcDbLine
 10
88.25968321061745
 20
232.9336395588712
 30
0.0
 11
87.88457121061744
 21
230.264576558871
 31
0.0
  0
LINE
  5
A92
330
1F
100
AcDbEntity
  8
0
  6
Continuous
 62
     7
100
AcDbLine
 10
90.10742121061744
 20
236.9269695588712
 30
0.0
 11
90.10742121061744
 21
229.9269695588712
 31
0.0
  0
ARC
  5
A93
330
1F
100
AcDbEntity
  8
0
  6
Continuous
 62
     7
100
AcDbCircle
 10
89.10742195769255
 20
221.7269703059463
 30
0.0
 40
0.9999992529251448
100
AcDbArc
 50
359.9999571957112
 51
90.00004280428392
  0
LINE
  5
A94
330
1F
100
AcDbEntity
  8
0
  6
Continuous
 62
     7
100
AcDbLine
 10
76.92043621061744
 20
217.716739558871
 30
0.0
 11
76.55086821061745
 21
215.0871265588711
 31
0.0
  0
LINE
  5
A95
330
1F
100
AcDbEntity
  8
0
  6
Continuous
 62
     7
100
AcDbLine
 10
77.52895321061743
 20
217.7364645588712
 30
0.0
 11
77.19625721061746
 21
215.3692105588711
 31
0.0
  0
LINE
  5
A96
330
1F
100
AcDbEntity
  8
0
  6
Continuous
 62
     7
100
AcDbLine
 10
80.35299121061745
 20
217.716739558871
 30
0.0
 11
80.02029521061746
 21
215.3494845588711
 31
0.0
  0
LINE
  5
A97
330
1F
100
AcDbEntity
  8
0
  6
Continuous
 62
     7
100
AcDbLine
 10
80.96150821061744
 20
217.7364645588712
 30
0.0
 11
80.58639621061745
 21
215.067401558871
 31
0.0
  0
LINE
  5
A98
330
1F
100
AcDbEntity
  8
0
  6
Continuous
 62
     7
100
AcDbLine
 10
77.32743621061743
 20
215.218305558871
 30
0.0
 11
79.86939121061745
 21
215.218305558871
 31
0.0
  0
LINE
  5
A99
330
1F
100
AcDbEntity
  8
0
  6
Continuous
 62
     7
100
AcDbLine
 10
76.95827721061744
 20
214.618455558871
 30
0.0
 11
80.06994321061744
 21
214.618455558871
 31
0.0
  0
LINE
  5
A9A
330
1F
100
AcDbEntity
  8
0
  6
Continuous
 62
     7
100
AcDbLine
 10
76.55086821061745
 20
215.0871265588711
 30
0.0
 11
76.68898321061743
 21
214.9282435588712
 31
0.0
  0
LINE
  5
A9B
330
1F
100
AcDbEntity
  8
0
  6
Continuous
 62
     7
100
AcDbLine
 10
77.19625721061746
 20
215.3692105588711
 30
0.0
 11
76.68898321061743
 21
214.9282435588712
 31
0.0
  0
LINE
  5
A9C
330
1F
100
AcDbEntity
  8
0
  6
Continuous
 62
     7
100
AcDbLine
 10
76.82016221061743
 20
214.7773395588711
 30
0.0
 11
76.95827721061744
 21
214.618455558871
 31
0.0
  0
LINE
  5
A9D
330
1F
100
AcDbEntity
  8
0
  6
Continuous
 62
     7
100
AcDbLine
 10
77.32743621061743
 20
215.218305558871
 30
0.0
 11
76.82016221061743
 21
214.7773395588711
 31
0.0
  0
LINE
  5
A9E
330
1F
100
AcDbEntity
  8
0
  6
Continuous
 62
     7
100
AcDbLine
 10
79.86939121061745
 20
215.218305558871
 30
0.0
 11
80.25271721061747
 21
214.7773395588711
 31
0.0
  0
LINE
  5
A9F
330
1F
100
AcDbEntity
  8
0
  6
Continuous
 62
     7
100
AcDbLine
 10
80.25271721061747
 20
214.7773395588711
 30
0.0
 11
80.06994321061744
 21
214.618455558871
 31
0.0
  0
LINE
  5
AA0
330
1F
100
AcDbEntity
  8
0
  6
Continuous
 62
     7
100
AcDbLine
 10
80.02029521061746
 20
215.3494845588711
 30
0.0
 11
80.40362221061744
 21
214.9085185588711
 31
0.0
  0
LINE
  5
AA1
330
1F
100
AcDbEntity
  8
0
  6
Continuous
 62
     7
100
AcDbLine
 10
80.58639621061745
 20
215.067401558871
 30
0.0
 11
80.40362221061744
 21
214.9085185588711
 31
0.0
  0
LINE
  5
AA6
330
1F
100
AcDbEntity
  8
0
  6
Continuous
 62
     7
100
AcDbLine
 10
77.78408021061746
 20
218.467493558871
 30
0.0
 11
80.32603521061743
 21
218.467493558871
 31
0.0
  0
LINE
  5
AA7
330
1F
100
AcDbEntity
  8
0
  6
Continuous
 62
     7
100
AcDbLine
 10
77.93594921061743
 20
221.716680558871
 30
0.0
 11
81.04761421061743
 21
221.716680558871
 31
0.0
  0
LINE
  5
AA8
330
1F
100
AcDbEntity
  8
0
  6
Continuous
 62
     7
100
AcDbLine
 10
78.13650121061744
 20
221.1168305588711
 30
0.0
 11
80.67845621061744
 21
221.1168305588711
 31
0.0
  0
LINE
  5
AA9
330
1F
100
AcDbEntity
  8
0
  6
Continuous
 62
     7
100
AcDbLine
 10
77.67985721061744
 20
217.8676435588712
 30
0.0
 11
80.22181221061744
 21
217.8676435588712
 31
0.0
  0
LINE
  5
AAA
330
1F
100
AcDbEntity
  8
0
  6
Continuous
 62
     7
100
AcDbLine
 10
77.47930521061744
 20
218.467493558871
 30
0.0
 11
77.29653121061743
 21
218.308609558871
 31
0.0
  0
LINE
  5
AAB
330
1F
100
AcDbEntity
  8
0
  6
Continuous
 62
     7
100
AcDbLine
 10
77.04438321061745
 20
218.598672558871
 30
0.0
 11
77.15841521061746
 21
218.467493558871
 31
0.0
  0
LINE
  5
AAC
330
1F
100
AcDbEntity
  8
0
  6
Continuous
 62
     7
100
AcDbLine
 10
77.75317421061743
 20
221.5577975588711
 30
0.0
 11
78.13650121061744
 21
221.1168305588711
 31
0.0
  0
LINE
  5
AAD
330
1F
100
AcDbEntity
  8
0
  6
Continuous
 62
     7
100
AcDbLine
 10
77.98559621061746
 20
220.985651558871
 30
0.0
 11
77.65290121061744
 21
218.6183975588711
 31
0.0
  0
LINE
  5
AAE
330
1F
100
AcDbEntity
  8
0
  6
Continuous
 62
     7
100
AcDbLine
 10
77.60227021061743
 20
221.426618558871
 30
0.0
 11
77.41949621061746
 21
221.267735558871
 31
0.0
  0
LINE
  5
AAF
330
1F
100
AcDbEntity
  8
0
  6
Continuous
 62
     7
100
AcDbLine
 10
77.93594921061743
 20
221.716680558871
 30
0.0
 11
77.75317421061743
 21
221.5577975588711
 31
0.0
  0
LINE
  5
AB0
330
1F
100
AcDbEntity
  8
0
  6
Continuous
 62
     7
100
AcDbLine
 10
77.65290121061744
 20
218.6183975588711
 30
0.0
 11
77.47930521061744
 21
218.467493558871
 31
0.0
  0
LINE
  5
AB1
330
1F
100
AcDbEntity
  8
0
  6
Continuous
 62
     7
100
AcDbLine
 10
77.15841521061746
 20
218.467493558871
 30
0.0
 11
77.29653121061743
 21
218.308609558871
 31
0.0
  0
LINE
  5
AB2
330
1F
100
AcDbEntity
  8
0
  6
Continuous
 62
     7
100
AcDbLine
 10
77.41949621061746
 20
221.267735558871
 30
0.0
 11
77.04438321061745
 21
218.598672558871
 31
0.0
  0
LINE
  5
AB3
330
1F
100
AcDbEntity
  8
0
  6
Continuous
 62
     7
100
AcDbLine
 10
77.60227021061743
 20
221.426618558871
 30
0.0
 11
77.98559621061746
 21
220.985651558871
 31
0.0
  0
LINE
  5
AB4
330
1F
100
AcDbEntity
  8
0
  6
Continuous
 62
     7
100
AcDbLine
 10
77.56582521061743
 20
217.998822558871
 30
0.0
 11
77.67985721061744
 21
217.8676435588712
 31
0.0
  0
LINE
  5
AB5
330
1F
100
AcDbEntity
  8
0
  6
Continuous
 62
     7
100
AcDbLine
 10
77.42771021061741
 20
218.1577055588711
 30
0.0
 11
77.56582521061743
 21
217.998822558871
 31
0.0
  0
LINE
  5
AB6
330
1F
100
AcDbEntity
  8
0
  6
Continuous
 62
     7
100
AcDbLine
 10
77.61048421061744
 20
218.316589558871
 30
0.0
 11
77.42771021061741
 21
218.1577055588711
 31
0.0
  0
LINE
  5
AB7
330
1F
100
AcDbEntity
  8
0
  6
Continuous
 62
     7
100
AcDbLine
 10
77.78408021061746
 20
218.467493558871
 30
0.0
 11
77.61048421061744
 21
218.316589558871
 31
0.0
  0
LINE
  5
AB8
330
1F
100
AcDbEntity
  8
0
  6
Continuous
 62
     7
100
AcDbLine
 10
77.09403121061743
 20
217.8676435588712
 30
0.0
 11
76.92043621061744
 21
217.716739558871
 31
0.0
  0
LINE
  5
AB9
330
1F
100
AcDbEntity
  8
0
  6
Continuous
 62
     7
100
AcDbLine
 10
77.41492121061745
 20
217.8676435588712
 30
0.0
 11
77.52895321061743
 21
217.7364645588712
 31
0.0
  0
LINE
  5
ABA
330
1F
100
AcDbEntity
  8
0
  6
Continuous
 62
     7
100
AcDbLine
 10
77.27680621061745
 20
218.0265265588711
 30
0.0
 11
77.41492121061745
 21
217.8676435588712
 31
0.0
  0
LINE
  5
ABB
330
1F
100
AcDbEntity
  8
0
  6
Continuous
 62
     7
100
AcDbLine
 10
77.27680621061745
 20
218.0265265588711
 30
0.0
 11
77.09403121061743
 21
217.8676435588712
 31
0.0
  0
LINE
  5
ABC
330
1F
100
AcDbEntity
  8
0
  6
Continuous
 62
     7
100
AcDbLine
 10
80.22181221061744
 20
217.8676435588712
 30
0.0
 11
80.57818221061744
 21
218.177430558871
 31
0.0
  0
LINE
  5
ABD
330
1F
100
AcDbEntity
  8
0
  6
Continuous
 62
     7
100
AcDbLine
 10
81.45502421061744
 20
221.2480095588711
 30
0.0
 11
81.08545621061747
 21
218.6183975588711
 31
0.0
  0
LINE
  5
ABE
330
1F
100
AcDbEntity
  8
0
  6
Continuous
 62
     7
100
AcDbLine
 10
81.31690921061744
 20
221.4068935588711
 30
0.0
 11
81.45502421061744
 21
221.2480095588711
 31
0.0
  0
LINE
  5
ABF
330
1F
100
AcDbEntity
  8
0
  6
Continuous
 62
     7
100
AcDbLine
 10
81.31690921061744
 20
221.4068935588711
 30
0.0
 11
80.80963521061745
 21
220.9659265588711
 31
0.0
  0
LINE
  5
AC0
330
1F
100
AcDbEntity
  8
0
  6
Continuous
 62
     7
100
AcDbLine
 10
81.18573021061745
 20
221.5577975588711
 30
0.0
 11
80.67845621061744
 21
221.1168305588711
 31
0.0
  0
LINE
  5
AC1
330
1F
100
AcDbEntity
  8
0
  6
Continuous
 62
     7
100
AcDbLine
 10
80.72908621061744
 20
218.308609558871
 30
0.0
 11
81.08545621061747
 21
218.6183975588711
 31
0.0
  0
LINE
  5
AC2
330
1F
100
AcDbEntity
  8
0
  6
Continuous
 62
     7
100
AcDbLine
 10
80.72908621061744
 20
218.308609558871
 30
0.0
 11
80.47693921061743
 21
218.598672558871
 31
0.0
  0
LINE
  5
AC3
330
1F
100
AcDbEntity
  8
0
  6
Continuous
 62
     7
100
AcDbLine
 10
80.57818221061744
 20
218.177430558871
 30
0.0
 11
80.32603521061743
 21
218.467493558871
 31
0.0
  0
LINE
  5
AC4
330
1F
100
AcDbEntity
  8
0
  6
Continuous
 62
     7
100
AcDbLine
 10
81.04761421061743
 20
221.716680558871
 30
0.0
 11
81.18573021061745
 21
221.5577975588711
 31
0.0
  0
LINE
  5
AC5
330
1F
100
AcDbEntity
  8
0
  6
Continuous
 62
     7
100
AcDbLine
 10
80.80963521061745
 20
220.9659265588711
 30
0.0
 11
80.47693921061743
 21
218.598672558871
 31
0.0
  0
LINE
  5
AC6
330
1F
100
AcDbEntity
  8
0
  6
Continuous
 62
     7
100
AcDbLine
 10
80.96150821061744
 20
217.7364645588712
 30
0.0
 11
80.70936121061746
 21
218.0265265588711
 31
0.0
  0
LINE
  5
AC7
330
1F
100
AcDbEntity
  8
0
  6
Continuous
 62
     7
100
AcDbLine
 10
80.35299121061745
 20
217.716739558871
 30
0.0
 11
80.70936121061746
 21
218.0265265588711
 31
0.0
  0
LINE
  5
AC8
330
1F
100
AcDbEntity
  8
0
  6
Continuous
 62
     7
100
AcDbLine
 10
84.21861121061743
 20
217.716739558871
 30
0.0
 11
83.84904321061744
 21
215.0871265588711
 31
0.0
  0
LINE
  5
AC9
330
1F
100
AcDbEntity
  8
0
  6
Continuous
 62
     7
100
AcDbLine
 10
84.82712821061744
 20
217.7364645588712
 30
0.0
 11
84.49443221061747
 21
215.3692105588711
 31
0.0
  0
LINE
  5
ACA
330
1F
100
AcDbEntity
  8
0
  6
Continuous
 62
     7
100
AcDbLine
 10
87.65116621061734
 20
217.716739558871
 30
0.0
 11
87.31847021061744
 21
215.3494845588711
 31
0.0
  0
LINE
  5
ACB
330
1F
100
AcDbEntity
  8
0
  6
Continuous
 62
     7
100
AcDbLine
 10
88.25968321061745
 20
217.7364645588712
 30
0.0
 11
87.88457121061744
 21
215.067401558871
 31
0.0
  0
LINE
  5
ACC
330
1F
100
AcDbEntity
  8
0
  6
Continuous
 62
     7
100
AcDbLine
 10
90.10742121061744
 20
221.7269695588711
 30
0.0
 11
90.10742121061744
 21
214.7269695588712
 31
0.0
  0
LINE
  5
ACD
330
1F
100
AcDbEntity
  8
0
  6
Continuous
 62
     7
100
AcDbLine
 10
84.62561121061744
 20
215.218305558871
 30
0.0
 11
87.16756621061746
 21
215.218305558871
 31
0.0
  0
LINE
  5
ACE
330
1F
100
AcDbEntity
  8
0
  6
Continuous
 62
     7
100
AcDbLine
 10
84.25645221061744
 20
214.618455558871
 30
0.0
 11
87.36811821061746
 21
214.618455558871
 31
0.0
  0
LINE
  5
ACF
330
1F
100
AcDbEntity
  8
0
  6
Continuous
 62
     7
100
AcDbLine
 10
83.84904321061744
 20
215.0871265588711
 30
0.0
 11
83.98715821061745
 21
214.9282435588712
 31
0.0
  0
LINE
  5
AD0
330
1F
100
AcDbEntity
  8
0
  6
Continuous
 62
     7
100
AcDbLine
 10
84.49443221061747
 20
215.3692105588711
 30
0.0
 11
83.98715821061745
 21
214.9282435588712
 31
0.0
  0
LINE
  5
AD1
330
1F
100
AcDbEntity
  8
0
  6
Continuous
 62
     7
100
AcDbLine
 10
84.11833721061745
 20
214.7773395588711
 30
0.0
 11
84.25645221061744
 21
214.618455558871
 31
0.0
  0
LINE
  5
AD2
330
1F
100
AcDbEntity
  8
0
  6
Continuous
 62
     7
100
AcDbLine
 10
84.62561121061744
 20
215.218305558871
 30
0.0
 11
84.11833721061745
 21
214.7773395588711
 31
0.0
  0
LINE
  5
AD3
330
1F
100
AcDbEntity
  8
0
  6
Continuous
 62
     7
100
AcDbLine
 10
87.16756621061746
 20
215.218305558871
 30
0.0
 11
87.55089221061744
 21
214.7773395588711
 31
0.0
  0
LINE
  5
AD4
330
1F
100
AcDbEntity
  8
0
  6
Continuous
 62
     7
100
AcDbLine
 10
87.55089221061744
 20
214.7773395588711
 30
0.0
 11
87.36811821061746
 21
214.618455558871
 31
0.0
  0
LINE
  5
AD5
330
1F
100
AcDbEntity
  8
0
  6
Continuous
 62
     7
100
AcDbLine
 10
87.31847021061744
 20
215.3494845588711
 30
0.0
 11
87.70179721061735
 21
214.9085185588711
 31
0.0
  0
LINE
  5
AD6
330
1F
100
AcDbEntity
  8
0
  6
Continuous
 62
     7
100
AcDbLine
 10
87.88457121061744
 20
215.067401558871
 30
0.0
 11
87.70179721061735
 21
214.9085185588711
 31
0.0
  0
ARC
  5
ADA
330
1F
100
AcDbEntity
  8
0
  6
Continuous
 62
     7
100
AcDbCircle
 10
89.10742195769255
 20
214.726968811796
 30
0.0
 40
0.9999992529251022
100
AcDbArc
 50
269.9999571957135
 51
0.0000428042871804
  0
LINE
  5
ADB
330
1F
100
AcDbEntity
  8
0
  6
Continuous
 62
     7
100
AcDbLine
 10
85.08225521061744
 20
218.467493558871
 30
0.0
 11
87.62421021061735
 21
218.467493558871
 31
0.0
  0
LINE
  5
ADC
330
1F
100
AcDbEntity
  8
0
  6
Continuous
 62
     7
100
AcDbLine
 10
85.23412421061744
 20
221.716680558871
 30
0.0
 11
88.34578921061744
 21
221.716680558871
 31
0.0
  0
LINE
  5
ADD
330
1F
100
AcDbEntity
  8
0
  6
Continuous
 62
     7
100
AcDbLine
 10
85.43467621061743
 20
221.1168305588711
 30
0.0
 11
87.97663121061743
 21
221.1168305588711
 31
0.0
  0
LINE
  5
ADE
330
1F
100
AcDbEntity
  8
0
  6
Continuous
 62
     7
100
AcDbLine
 10
84.97803221061735
 20
217.8676435588712
 30
0.0
 11
87.51998721061744
 21
217.8676435588712
 31
0.0
  0
LINE
  5
ADF
330
1F
100
AcDbEntity
  8
0
  6
Continuous
 62
     7
100
AcDbLine
 10
84.77748021061733
 20
218.467493558871
 30
0.0
 11
84.59470621061745
 21
218.308609558871
 31
0.0
  0
LINE
  5
AE0
330
1F
100
AcDbEntity
  8
0
  6
Continuous
 62
     7
100
AcDbLine
 10
84.34255821061745
 20
218.598672558871
 30
0.0
 11
84.45659021061747
 21
218.467493558871
 31
0.0
  0
LINE
  5
AE1
330
1F
100
AcDbEntity
  8
0
  6
Continuous
 62
     7
100
AcDbLine
 10
85.05134921061744
 20
221.5577975588711
 30
0.0
 11
85.43467621061743
 21
221.1168305588711
 31
0.0
  0
LINE
  5
AE2
330
1F
100
AcDbEntity
  8
0
  6
Continuous
 62
     7
100
AcDbLine
 10
85.28377121061742
 20
220.985651558871
 30
0.0
 11
84.95107621061734
 21
218.6183975588711
 31
0.0
  0
LINE
  5
AE3
330
1F
100
AcDbEntity
  8
0
  6
Continuous
 62
     7
100
AcDbLine
 10
84.90044521061745
 20
221.426618558871
 30
0.0
 11
84.71767121061745
 21
221.267735558871
 31
0.0
  0
LINE
  5
AE4
330
1F
100
AcDbEntity
  8
0
  6
Continuous
 62
     7
100
AcDbLine
 10
85.23412421061744
 20
221.716680558871
 30
0.0
 11
85.05134921061744
 21
221.5577975588711
 31
0.0
  0
LINE
  5
AE5
330
1F
100
AcDbEntity
  8
0
  6
Continuous
 62
     7
100
AcDbLine
 10
84.95107621061734
 20
218.6183975588711
 30
0.0
 11
84.77748021061733
 21
218.467493558871
 31
0.0
  0
LINE
  5
AE6
330
1F
100
AcDbEntity
  8
0
  6
Continuous
 62
     7
100
AcDbLine
 10
84.45659021061747
 20
218.467493558871
 30
0.0
 11
84.59470621061745
 21
218.308609558871
 31
0.0
  0
LINE
  5
AE7
330
1F
100
AcDbEntity
  8
0
  6
Continuous
 62
     7
100
AcDbLine
 10
84.71767121061745
 20
221.267735558871
 30
0.0
 11
84.34255821061745
 21
218.598672558871
 31
0.0
  0
LINE
  5
AE8
330
1F
100
AcDbEntity
  8
0
  6
Continuous
 62
     7
100
AcDbLine
 10
84.90044521061745
 20
221.426618558871
 30
0.0
 11
85.28377121061742
 21
220.985651558871
 31
0.0
  0
LINE
  5
AE9
330
1F
100
AcDbEntity
  8
0
  6
Continuous
 62
     7
100
AcDbLine
 10
84.86400021061735
 20
217.998822558871
 30
0.0
 11
84.97803221061735
 21
217.8676435588712
 31
0.0
  0
LINE
  5
AEA
330
1F
100
AcDbEntity
  8
0
  6
Continuous
 62
     7
100
AcDbLine
 10
84.72588521061734
 20
218.1577055588711
 30
0.0
 11
84.86400021061735
 21
217.998822558871
 31
0.0
  0
LINE
  5
AEB
330
1F
100
AcDbEntity
  8
0
  6
Continuous
 62
     7
100
AcDbLine
 10
84.90865921061745
 20
218.316589558871
 30
0.0
 11
84.72588521061734
 21
218.1577055588711
 31
0.0
  0
LINE
  5
AEC
330
1F
100
AcDbEntity
  8
0
  6
Continuous
 62
     7
100
AcDbLine
 10
85.08225521061744
 20
218.467493558871
 30
0.0
 11
84.90865921061745
 21
218.316589558871
 31
0.0
  0
LINE
  5
AED
330
1F
100
AcDbEntity
  8
0
  6
Continuous
 62
     7
100
AcDbLine
 10
84.39220621061743
 20
217.8676435588712
 30
0.0
 11
84.21861121061743
 21
217.716739558871
 31
0.0
  0
LINE
  5
AEE
330
1F
100
AcDbEntity
  8
0
  6
Continuous
 62
     7
100
AcDbLine
 10
84.71309621061745
 20
217.8676435588712
 30
0.0
 11
84.82712821061744
 21
217.7364645588712
 31
0.0
  0
LINE
  5
AEF
330
1F
100
AcDbEntity
  8
0
  6
Continuous
 62
     7
100
AcDbLine
 10
84.57498121061744
 20
218.0265265588711
 30
0.0
 11
84.71309621061745
 21
217.8676435588712
 31
0.0
  0
LINE
  5
AF0
330
1F
100
AcDbEntity
  8
0
  6
Continuous
 62
     7
100
AcDbLine
 10
84.57498121061744
 20
218.0265265588711
 30
0.0
 11
84.39220621061743
 21
217.8676435588712
 31
0.0
  0
LINE
  5
AF1
330
1F
100
AcDbEntity
  8
0
  6
Continuous
 62
     7
100
AcDbLine
 10
87.51998721061744
 20
217.8676435588712
 30
0.0
 11
87.87635721061736
 21
218.177430558871
 31
0.0
  0
LINE
  5
AF2
330
1F
100
AcDbEntity
  8
0
  6
Continuous
 62
     7
100
AcDbLine
 10
88.75319921061736
 20
221.2480095588711
 30
0.0
 11
88.38363121061744
 21
218.6183975588711
 31
0.0
  0
LINE
  5
AF3
330
1F
100
AcDbEntity
  8
0
  6
Continuous
 62
     7
100
AcDbLine
 10
88.61508421061735
 20
221.4068935588711
 30
0.0
 11
88.75319921061736
 21
221.2480095588711
 31
0.0
  0
LINE
  5
AF4
330
1F
100
AcDbEntity
  8
0
  6
Continuous
 62
     7
100
AcDbLine
 10
88.61508421061735
 20
221.4068935588711
 30
0.0
 11
88.10781021061744
 21
220.9659265588711
 31
0.0
  0
LINE
  5
AF5
330
1F
100
AcDbEntity
  8
0
  6
Continuous
 62
     7
100
AcDbLine
 10
88.48390521061736
 20
221.5577975588711
 30
0.0
 11
87.97663121061743
 21
221.1168305588711
 31
0.0
  0
LINE
  5
AF6
330
1F
100
AcDbEntity
  8
0
  6
Continuous
 62
     7
100
AcDbLine
 10
88.02726121061736
 20
218.308609558871
 30
0.0
 11
88.38363121061744
 21
218.6183975588711
 31
0.0
  0
LINE
  5
AF7
330
1F
100
AcDbEntity
  8
0
  6
Continuous
 62
     7
100
AcDbLine
 10
88.02726121061736
 20
218.308609558871
 30
0.0
 11
87.77511421061744
 21
218.598672558871
 31
0.0
  0
LINE
  5
AF8
330
1F
100
AcDbEntity
  8
0
  6
Continuous
 62
     7
100
AcDbLine
 10
87.87635721061736
 20
218.177430558871
 30
0.0
 11
87.62421021061735
 21
218.467493558871
 31
0.0
  0
LINE
  5
AF9
330
1F
100
AcDbEntity
  8
0
  6
Continuous
 62
     7
100
AcDbLine
 10
88.34578921061744
 20
221.716680558871
 30
0.0
 11
88.48390521061736
 21
221.5577975588711
 31
0.0
  0
LINE
  5
AFA
330
1F
100
AcDbEntity
  8
0
  6
Continuous
 62
     7
100
AcDbLine
 10
88.10781021061744
 20
220.9659265588711
 30
0.0
 11
87.77511421061744
 21
218.598672558871
 31
0.0
  0
LINE
  5
AFB
330
1F
100
AcDbEntity
  8
0
  6
Continuous
 62
     7
100
AcDbLine
 10
88.25968321061745
 20
217.7364645588712
 30
0.0
 11
88.00753621061744
 21
218.0265265588711
 31
0.0
  0
LINE
  5
AFC
330
1F
100
AcDbEntity
  8
0
  6
Continuous
 62
     7
100
AcDbLine
 10
87.65116621061734
 20
217.716739558871
 30
0.0
 11
88.00753621061744
 21
218.0265265588711
 31
0.0
  0
LINE
  5
AFD
330
1F
100
AcDbEntity
  8
0
  6
Continuous
 62
     7
100
AcDbLine
 10
77.32743621061743
 20
230.4154805588712
 30
0.0
 11
79.86939121061745
 21
230.4154805588712
 31
0.0
  0
LINE
  5
AFE
330
1F
100
AcDbEntity
  8
0
  6
Continuous
 62
     7
100
AcDbLine
 10
76.95827721061744
 20
229.8156305588711
 30
0.0
 11
80.06994321061744
 21
229.8156305588711
 31
0.0
  0
LINE
  5
AFF
330
1F
100
AcDbEntity
  8
0
  6
Continuous
 62
     7
100
AcDbLine
 10
76.55086821061745
 20
230.284301558871
 30
0.0
 11
76.68898321061743
 21
230.1254185588712
 31
0.0
  0
LINE
  5
B00
330
1F
100
AcDbEntity
  8
0
  6
Continuous
 62
     7
100
AcDbLine
 10
77.19625721061746
 20
230.5663855588711
 30
0.0
 11
76.68898321061743
 21
230.1254185588712
 31
0.0
  0
LINE
  5
B01
330
1F
100
AcDbEntity
  8
0
  6
Continuous
 62
     7
100
AcDbLine
 10
76.82016221061743
 20
229.9745145588711
 30
0.0
 11
76.95827721061744
 21
229.8156305588711
 31
0.0
  0
LINE
  5
B02
330
1F
100
AcDbEntity
  8
0
  6
Continuous
 62
     7
100
AcDbLine
 10
77.32743621061743
 20
230.4154805588712
 30
0.0
 11
76.82016221061743
 21
229.9745145588711
 31
0.0
  0
LINE
  5
B03
330
1F
100
AcDbEntity
  8
0
  6
Continuous
 62
     7
100
AcDbLine
 10
79.86939121061745
 20
230.4154805588712
 30
0.0
 11
80.25271721061747
 21
229.9745145588711
 31
0.0
  0
LINE
  5
B04
330
1F
100
AcDbEntity
  8
0
  6
Continuous
 62
     7
100
AcDbLine
 10
80.25271721061747
 20
229.9745145588711
 30
0.0
 11
80.06994321061744
 21
229.8156305588711
 31
0.0
  0
LINE
  5
B05
330
1F
100
AcDbEntity
  8
0
  6
Continuous
 62
     7
100
AcDbLine
 10
80.02029521061746
 20
230.5466595588712
 30
0.0
 11
80.40362221061744
 21
230.1056935588711
 31
0.0
  0
LINE
  5
B06
330
1F
100
AcDbEntity
  8
0
  6
Continuous
 62
     7
100
AcDbLine
 10
80.58639621061745
 20
230.264576558871
 30
0.0
 11
80.40362221061744
 21
230.1056935588711
 31
0.0
  0
LINE
  5
B0B
330
1F
100
AcDbEntity
  8
0
  6
Continuous
 62
     7
100
AcDbLine
 10
84.62561121061744
 20
230.4154805588712
 30
0.0
 11
87.16756621061746
 21
230.4154805588712
 31
0.0
  0
LINE
  5
B0C
330
1F
100
AcDbEntity
  8
0
  6
Continuous
 62
     7
100
AcDbLine
 10
84.25645221061744
 20
229.8156305588711
 30
0.0
 11
87.36811821061746
 21
229.8156305588711
 31
0.0
  0
LINE
  5
B0D
330
1F
100
AcDbEntity
  8
0
  6
Continuous
 62
     7
100
AcDbLine
 10
83.84904321061744
 20
230.284301558871
 30
0.0
 11
83.98715821061745
 21
230.1254185588712
 31
0.0
  0
LINE
  5
B0E
330
1F
100
AcDbEntity
  8
0
  6
Continuous
 62
     7
100
AcDbLine
 10
84.49443221061747
 20
230.5663855588711
 30
0.0
 11
83.98715821061745
 21
230.1254185588712
 31
0.0
  0
LINE
  5
B0F
330
1F
100
AcDbEntity
  8
0
  6
Continuous
 62
     7
100
AcDbLine
 10
84.11833721061745
 20
229.9745145588711
 30
0.0
 11
84.25645221061744
 21
229.8156305588711
 31
0.0
  0
LINE
  5
B10
330
1F
100
AcDbEntity
  8
0
  6
Continuous
 62
     7
100
AcDbLine
 10
84.62561121061744
 20
230.4154805588712
 30
0.0
 11
84.11833721061745
 21
229.9745145588711
 31
0.0
  0
LINE
  5
B11
330
1F
100
AcDbEntity
  8
0
  6
Continuous
 62
     7
100
AcDbLine
 10
87.16756621061746
 20
230.4154805588712
 30
0.0
 11
87.55089221061744
 21
229.9745145588711
 31
0.0
  0
LINE
  5
B12
330
1F
100
AcDbEntity
  8
0
  6
Continuous
 62
     7
100
AcDbLine
 10
87.55089221061744
 20
229.9745145588711
 30
0.0
 11
87.36811821061746
 21
229.8156305588711
 31
0.0
  0
LINE
  5
B13
330
1F
100
AcDbEntity
  8
0
  6
Continuous
 62
     7
100
AcDbLine
 10
87.31847021061744
 20
230.5466595588712
 30
0.0
 11
87.70179721061735
 21
230.1056935588711
 31
0.0
  0
LINE
  5
B14
330
1F
100
AcDbEntity
  8
0
  6
Continuous
 62
     7
100
AcDbLine
 10
87.88457121061744
 20
230.264576558871
 30
0.0
 11
87.70179721061735
 21
230.1056935588711
 31
0.0
  0
ARC
  5
B19
330
1F
100
AcDbEntity
  8
0
  6
Continuous
 62
     7
100
AcDbCircle
 10
89.10742195769255
 20
229.926968811796
 30
0.0
 40
0.9999992529251022
100
AcDbArc
 50
269.9999571957135
 51
0.0000428042871804
  0
LINE
  5
B1A
330
1F
100
AcDbEntity
  8
0
  6
Continuous
 62
     7
100
AcDbLine
 10
77.78408021061746
 20
233.6646685588712
 30
0.0
 11
80.32603521061743
 21
233.6646685588712
 31
0.0
  0
LINE
  5
B1B
330
1F
100
AcDbEntity
  8
0
  6
Continuous
 62
     7
100
AcDbLine
 10
77.93594921061743
 20
236.9138555588711
 30
0.0
 11
81.04761421061743
 21
236.9138555588711
 31
0.0
  0
LINE
  5
B1C
330
1F
100
AcDbEntity
  8
0
  6
Continuous
 62
     7
100
AcDbLine
 10
78.13650121061744
 20
236.3140055588711
 30
0.0
 11
80.67845621061744
 21
236.3140055588711
 31
0.0
  0
LINE
  5
B1D
330
1F
100
AcDbEntity
  8
0
  6
Continuous
 62
     7
100
AcDbLine
 10
77.67985721061744
 20
233.0648185588712
 30
0.0
 11
80.22181221061744
 21
233.0648185588712
 31
0.0
  0
LINE
  5
B1E
330
1F
100
AcDbEntity
  8
0
  6
Continuous
 62
     7
100
AcDbLine
 10
77.47930521061744
 20
233.6646685588712
 30
0.0
 11
77.29653121061743
 21
233.505784558871
 31
0.0
  0
LINE
  5
B1F
330
1F
100
AcDbEntity
  8
0
  6
Continuous
 62
     7
100
AcDbLine
 10
77.04438321061745
 20
233.7958475588711
 30
0.0
 11
77.15841521061746
 21
233.6646685588712
 31
0.0
  0
LINE
  5
B20
330
1F
100
AcDbEntity
  8
0
  6
Continuous
 62
     7
100
AcDbLine
 10
77.75317421061743
 20
236.7549725588712
 30
0.0
 11
78.13650121061744
 21
236.3140055588711
 31
0.0
  0
LINE
  5
B21
330
1F
100
AcDbEntity
  8
0
  6
Continuous
 62
     7
100
AcDbLine
 10
77.98559621061746
 20
236.1828265588711
 30
0.0
 11
77.65290121061744
 21
233.8155725588712
 31
0.0
  0
LINE
  5
B22
330
1F
100
AcDbEntity
  8
0
  6
Continuous
 62
     7
100
AcDbLine
 10
77.60227021061743
 20
236.6237935588712
 30
0.0
 11
77.41949621061746
 21
236.4649105588711
 31
0.0
  0
LINE
  5
B23
330
1F
100
AcDbEntity
  8
0
  6
Continuous
 62
     7
100
AcDbLine
 10
77.93594921061743
 20
236.9138555588711
 30
0.0
 11
77.75317421061743
 21
236.7549725588712
 31
0.0
  0
LINE
  5
B24
330
1F
100
AcDbEntity
  8
0
  6
Continuous
 62
     7
100
AcDbLine
 10
77.65290121061744
 20
233.8155725588712
 30
0.0
 11
77.47930521061744
 21
233.6646685588712
 31
0.0
  0
LINE
  5
B25
330
1F
100
AcDbEntity
  8
0
  6
Continuous
 62
     7
100
AcDbLine
 10
77.15841521061746
 20
233.6646685588712
 30
0.0
 11
77.29653121061743
 21
233.505784558871
 31
0.0
  0
LINE
  5
B26
330
1F
100
AcDbEntity
  8
0
  6
Continuous
 62
     7
100
AcDbLine
 10
77.41949621061746
 20
236.4649105588711
 30
0.0
 11
77.04438321061745
 21
233.7958475588711
 31
0.0
  0
LINE
  5
B27
330
1F
100
AcDbEntity
  8
0
  6
Continuous
 62
     7
100
AcDbLine
 10
77.60227021061743
 20
236.6237935588712
 30
0.0
 11
77.98559621061746
 21
236.1828265588711
 31
0.0
  0
LINE
  5
B28
330
1F
100
AcDbEntity
  8
0
  6
Continuous
 62
     7
100
AcDbLine
 10
77.56582521061743
 20
233.1959975588711
 30
0.0
 11
77.67985721061744
 21
233.0648185588712
 31
0.0
  0
LINE
  5
B29
330
1F
100
AcDbEntity
  8
0
  6
Continuous
 62
     7
100
AcDbLine
 10
77.42771021061741
 20
233.3548805588712
 30
0.0
 11
77.56582521061743
 21
233.1959975588711
 31
0.0
  0
LINE
  5
B2A
330
1F
100
AcDbEntity
  8
0
  6
Continuous
 62
     7
100
AcDbLine
 10
77.61048421061744
 20
233.5137645588712
 30
0.0
 11
77.42771021061741
 21
233.3548805588712
 31
0.0
  0
LINE
  5
B2B
330
1F
100
AcDbEntity
  8
0
  6
Continuous
 62
     7
100
AcDbLine
 10
77.78408021061746
 20
233.6646685588712
 30
0.0
 11
77.61048421061744
 21
233.5137645588712
 31
0.0
  0
LINE
  5
B2C
330
1F
100
AcDbEntity
  8
0
  6
Continuous
 62
     7
100
AcDbLine
 10
77.09403121061743
 20
233.0648185588712
 30
0.0
 11
76.92043621061744
 21
232.9139145588711
 31
0.0
  0
LINE
  5
B2D
330
1F
100
AcDbEntity
  8
0
  6
Continuous
 62
     7
100
AcDbLine
 10
77.41492121061745
 20
233.0648185588712
 30
0.0
 11
77.52895321061743
 21
232.9336395588712
 31
0.0
  0
LINE
  5
B2E
330
1F
100
AcDbEntity
  8
0
  6
Continuous
 62
     7
100
AcDbLine
 10
77.27680621061745
 20
233.2237015588712
 30
0.0
 11
77.41492121061745
 21
233.0648185588712
 31
0.0
  0
LINE
  5
B2F
330
1F
100
AcDbEntity
  8
0
  6
Continuous
 62
     7
100
AcDbLine
 10
77.27680621061745
 20
233.2237015588712
 30
0.0
 11
77.09403121061743
 21
233.0648185588712
 31
0.0
  0
LINE
  5
B30
330
1F
100
AcDbEntity
  8
0
  6
Continuous
 62
     7
100
AcDbLine
 10
80.22181221061744
 20
233.0648185588712
 30
0.0
 11
80.57818221061744
 21
233.3746055588711
 31
0.0
  0
LINE
  5
B31
330
1F
100
AcDbEntity
  8
0
  6
Continuous
 62
     7
100
AcDbLine
 10
81.45502421061744
 20
236.445184558871
 30
0.0
 11
81.08545621061747
 21
233.8155725588712
 31
0.0
  0
LINE
  5
B32
330
1F
100
AcDbEntity
  8
0
  6
Continuous
 62
     7
100
AcDbLine
 10
81.31690921061744
 20
236.6040685588711
 30
0.0
 11
81.45502421061744
 21
236.445184558871
 31
0.0
  0
LINE
  5
B33
330
1F
100
AcDbEntity
  8
0
  6
Continuous
 62
     7
100
AcDbLine
 10
81.31690921061744
 20
236.6040685588711
 30
0.0
 11
80.80963521061745
 21
236.1631015588712
 31
0.0
  0
LINE
  5
B34
330
1F
100
AcDbEntity
  8
0
  6
Continuous
 62
     7
100
AcDbLine
 10
81.18573021061745
 20
236.7549725588712
 30
0.0
 11
80.67845621061744
 21
236.3140055588711
 31
0.0
  0
LINE
  5
B35
330
1F
100
AcDbEntity
  8
0
  6
Continuous
 62
     7
100
AcDbLine
 10
80.72908621061744
 20
233.505784558871
 30
0.0
 11
81.08545621061747
 21
233.8155725588712
 31
0.0
  0
LINE
  5
B36
330
1F
100
AcDbEntity
  8
0
  6
Continuous
 62
     7
100
AcDbLine
 10
80.72908621061744
 20
233.505784558871
 30
0.0
 11
80.47693921061743
 21
233.7958475588711
 31
0.0
  0
LINE
  5
B37
330
1F
100
AcDbEntity
  8
0
  6
Continuous
 62
     7
100
AcDbLine
 10
80.57818221061744
 20
233.3746055588711
 30
0.0
 11
80.32603521061743
 21
233.6646685588712
 31
0.0
  0
LINE
  5
B38
330
1F
100
AcDbEntity
  8
0
  6
Continuous
 62
     7
100
AcDbLine
 10
81.04761421061743
 20
236.9138555588711
 30
0.0
 11
81.18573021061745
 21
236.7549725588712
 31
0.0
  0
LINE
  5
B39
330
1F
100
AcDbEntity
  8
0
  6
Continuous
 62
     7
100
AcDbLine
 10
80.80963521061745
 20
236.1631015588712
 30
0.0
 11
80.47693921061743
 21
233.7958475588711
 31
0.0
  0
LINE
  5
B3A
330
1F
100
AcDbEntity
  8
0
  6
Continuous
 62
     7
100
AcDbLine
 10
80.96150821061744
 20
232.9336395588712
 30
0.0
 11
80.70936121061746
 21
233.2237015588712
 31
0.0
  0
LINE
  5
B3B
330
1F
100
AcDbEntity
  8
0
  6
Continuous
 62
     7
100
AcDbLine
 10
80.35299121061745
 20
232.9139145588711
 30
0.0
 11
80.70936121061746
 21
233.2237015588712
 31
0.0
  0
ARC
  5
B3C
330
1F
100
AcDbEntity
  8
0
  6
Continuous
 62
     7
100
AcDbCircle
 10
89.10742195769264
 20
236.9269703059463
 30
0.0
 40
0.9999992529250738
100
AcDbArc
 50
359.9999571957143
 51
90.000042804288
  0
LINE
  5
B3D
330
1F
100
AcDbEntity
  8
0
  6
Continuous
 62
     7
100
AcDbLine
 10
85.08225521061744
 20
233.6646685588712
 30
0.0
 11
87.62421021061735
 21
233.6646685588712
 31
0.0
  0
LINE
  5
B3E
330
1F
100
AcDbEntity
  8
0
  6
Continuous
 62
     7
100
AcDbLine
 10
85.23412421061744
 20
236.9138555588711
 30
0.0
 11
88.34578921061744
 21
236.9138555588711
 31
0.0
  0
LINE
  5
B3F
330
1F
100
AcDbEntity
  8
0
  6
Continuous
 62
     7
100
AcDbLine
 10
85.43467621061743
 20
236.3140055588711
 30
0.0
 11
87.97663121061743
 21
236.3140055588711
 31
0.0
  0
LINE
  5
B40
330
1F
100
AcDbEntity
  8
0
  6
Continuous
 62
     7
100
AcDbLine
 10
84.97803221061735
 20
233.0648185588712
 30
0.0
 11
87.51998721061744
 21
233.0648185588712
 31
0.0
  0
LINE
  5
B41
330
1F
100
AcDbEntity
  8
0
  6
Continuous
 62
     7
100
AcDbLine
 10
84.77748021061733
 20
233.6646685588712
 30
0.0
 11
84.59470621061745
 21
233.505784558871
 31
0.0
  0
LINE
  5
B42
330
1F
100
AcDbEntity
  8
0
  6
Continuous
 62
     7
100
AcDbLine
 10
84.34255821061745
 20
233.7958475588711
 30
0.0
 11
84.45659021061747
 21
233.6646685588712
 31
0.0
  0
LINE
  5
B43
330
1F
100
AcDbEntity
  8
0
  6
Continuous
 62
     7
100
AcDbLine
 10
85.05134921061744
 20
236.7549725588712
 30
0.0
 11
85.43467621061743
 21
236.3140055588711
 31
0.0
  0
LINE
  5
B44
330
1F
100
AcDbEntity
  8
0
  6
Continuous
 62
     7
100
AcDbLine
 10
85.28377121061742
 20
236.1828265588711
 30
0.0
 11
84.95107621061734
 21
233.8155725588712
 31
0.0
  0
LINE
  5
B45
330
1F
100
AcDbEntity
  8
0
  6
Continuous
 62
     7
100
AcDbLine
 10
84.90044521061745
 20
236.6237935588712
 30
0.0
 11
84.71767121061745
 21
236.4649105588711
 31
0.0
  0
LINE
  5
B46
330
1F
100
AcDbEntity
  8
0
  6
Continuous
 62
     7
100
AcDbLine
 10
85.23412421061744
 20
236.9138555588711
 30
0.0
 11
85.05134921061744
 21
236.7549725588712
 31
0.0
  0
LINE
  5
B47
330
1F
100
AcDbEntity
  8
0
  6
Continuous
 62
     7
100
AcDbLine
 10
84.95107621061734
 20
233.8155725588712
 30
0.0
 11
84.77748021061733
 21
233.6646685588712
 31
0.0
  0
LINE
  5
B48
330
1F
100
AcDbEntity
  8
0
  6
Continuous
 62
     7
100
AcDbLine
 10
84.45659021061747
 20
233.6646685588712
 30
0.0
 11
84.59470621061745
 21
233.505784558871
 31
0.0
  0
LINE
  5
B49
330
1F
100
AcDbEntity
  8
0
  6
Continuous
 62
     7
100
AcDbLine
 10
84.71767121061745
 20
236.4649105588711
 30
0.0
 11
84.34255821061745
 21
233.7958475588711
 31
0.0
  0
LINE
  5
B4A
330
1F
100
AcDbEntity
  8
0
  6
Continuous
 62
     7
100
AcDbLine
 10
84.90044521061745
 20
236.6237935588712
 30
0.0
 11
85.28377121061742
 21
236.1828265588711
 31
0.0
  0
LINE
  5
B4B
330
1F
100
AcDbEntity
  8
0
  6
Continuous
 62
     7
100
AcDbLine
 10
84.86400021061735
 20
233.1959975588711
 30
0.0
 11
84.97803221061735
 21
233.0648185588712
 31
0.0
  0
LINE
  5
B4C
330
1F
100
AcDbEntity
  8
0
  6
Continuous
 62
     7
100
AcDbLine
 10
84.72588521061734
 20
233.3548805588712
 30
0.0
 11
84.86400021061735
 21
233.1959975588711
 31
0.0
  0
LINE
  5
B4D
330
1F
100
AcDbEntity
  8
0
  6
Continuous
 62
     7
100
AcDbLine
 10
84.90865921061745
 20
233.5137645588712
 30
0.0
 11
84.72588521061734
 21
233.3548805588712
 31
0.0
  0
LINE
  5
B4E
330
1F
100
AcDbEntity
  8
0
  6
Continuous
 62
     7
100
AcDbLine
 10
85.08225521061744
 20
233.6646685588712
 30
0.0
 11
84.90865921061745
 21
233.5137645588712
 31
0.0
  0
LINE
  5
B4F
330
1F
100
AcDbEntity
  8
0
  6
Continuous
 62
     7
100
AcDbLine
 10
84.39220621061743
 20
233.0648185588712
 30
0.0
 11
84.21861121061743
 21
232.9139145588711
 31
0.0
  0
LINE
  5
B50
330
1F
100
AcDbEntity
  8
0
  6
Continuous
 62
     7
100
AcDbLine
 10
84.71309621061745
 20
233.0648185588712
 30
0.0
 11
84.82712821061744
 21
232.9336395588712
 31
0.0
  0
LINE
  5
B51
330
1F
100
AcDbEntity
  8
0
  6
Continuous
 62
     7
100
AcDbLine
 10
84.57498121061744
 20
233.2237015588712
 30
0.0
 11
84.71309621061745
 21
233.0648185588712
 31
0.0
  0
LINE
  5
B52
330
1F
100
AcDbEntity
  8
0
  6
Continuous
 62
     7
100
AcDbLine
 10
84.57498121061744
 20
233.2237015588712
 30
0.0
 11
84.39220621061743
 21
233.0648185588712
 31
0.0
  0
LINE
  5
B53
330
1F
100
AcDbEntity
  8
0
  6
Continuous
 62
     7
100
AcDbLine
 10
87.51998721061744
 20
233.0648185588712
 30
0.0
 11
87.87635721061736
 21
233.3746055588711
 31
0.0
  0
LINE
  5
B54
330
1F
100
AcDbEntity
  8
0
  6
Continuous
 62
     7
100
AcDbLine
 10
88.75319921061736
 20
236.445184558871
 30
0.0
 11
88.38363121061744
 21
233.8155725588712
 31
0.0
  0
LINE
  5
B55
330
1F
100
AcDbEntity
  8
0
  6
Continuous
 62
     7
100
AcDbLine
 10
88.61508421061735
 20
236.6040685588711
 30
0.0
 11
88.75319921061736
 21
236.445184558871
 31
0.0
  0
LINE
  5
B56
330
1F
100
AcDbEntity
  8
0
  6
Continuous
 62
     7
100
AcDbLine
 10
88.61508421061735
 20
236.6040685588711
 30
0.0
 11
88.10781021061744
 21
236.1631015588712
 31
0.0
  0
LINE
  5
B57
330
1F
100
AcDbEntity
  8
0
  6
Continuous
 62
     7
100
AcDbLine
 10
88.48390521061736
 20
236.7549725588712
 30
0.0
 11
87.97663121061743
 21
236.3140055588711
 31
0.0
  0
LINE
  5
B58
330
1F
100
AcDbEntity
  8
0
  6
Continuous
 62
     7
100
AcDbLine
 10
88.02726121061736
 20
233.505784558871
 30
0.0
 11
88.38363121061744
 21
233.8155725588712
 31
0.0
  0
LINE
  5
B59
330
1F
100
AcDbEntity
  8
0
  6
Continuous
 62
     7
100
AcDbLine
 10
88.02726121061736
 20
233.505784558871
 30
0.0
 11
87.77511421061744
 21
233.7958475588711
 31
0.0
  0
LINE
  5
B5A
330
1F
100
AcDbEntity
  8
0
  6
Continuous
 62
     7
100
AcDbLine
 10
87.87635721061736
 20
233.3746055588711
 30
0.0
 11
87.62421021061735
 21
233.6646685588712
 31
0.0
  0
LINE
  5
B5B
330
1F
100
AcDbEntity
  8
0
  6
Continuous
 62
     7
100
AcDbLine
 10
88.34578921061744
 20
236.9138555588711
 30
0.0
 11
88.48390521061736
 21
236.7549725588712
 31
0.0
  0
LINE
  5
B5C
330
1F
100
AcDbEntity
  8
0
  6
Continuous
 62
     7
100
AcDbLine
 10
88.10781021061744
 20
236.1631015588712
 30
0.0
 11
87.77511421061744
 21
233.7958475588711
 31
0.0
  0
LINE
  5
B5D
330
1F
100
AcDbEntity
  8
0
  6
Continuous
 62
     7
100
AcDbLine
 10
88.25968321061745
 20
232.9336395588712
 30
0.0
 11
88.00753621061744
 21
233.2237015588712
 31
0.0
  0
LINE
  5
B5E
330
1F
100
AcDbEntity
  8
0
  6
Continuous
 62
     7
100
AcDbLine
 10
87.65116621061734
 20
232.9139145588711
 30
0.0
 11
88.00753621061744
 21
233.2237015588712
 31
0.0
  0
ARC
  5
B5F
330
1F
100
AcDbEntity
  8
0
  6
Continuous
 62
     7
100
AcDbCircle
 10
94.30742195769251
 20
244.0269703059462
 30
0.0
 40
0.9999992529251306
100
AcDbArc
 50
359.9999571957112
 51
90.00004280428473
  0
ARC
  5
B60
330
1F
100
AcDbEntity
  8
0
  6
Continuous
 62
     7
100
AcDbCircle
 10
95.90742195769243
 20
245.6269703059462
 30
0.0
 40
0.9999992529251306
100
AcDbArc
 50
359.9999571957112
 51
90.00004280428473
  0
LINE
  5
B61
330
1F
100
AcDbEntity
  8
0
  6
Continuous
 62
     7
100
AcDbLine
 10
154.6086172106174
 20
245.626969558871
 30
0.0
 11
154.6086172106174
 21
197.6269695588712
 31
0.0
  0
LINE
  5
B62
330
1F
100
AcDbEntity
  8
0
  6
Continuous
 62
     7
100
AcDbLine
 10
151.6086172106174
 20
244.626969558871
 30
0.0
 11
151.6086172106174
 21
198.6269695588712
 31
0.0
  0
LINE
  5
B63
330
1F
100
AcDbEntity
  8
0
  6
Continuous
 62
     7
100
AcDbLine
 10
158.6086172106173
 20
245.626969558871
 30
0.0
 11
158.6086172106173
 21
197.6269695588712
 31
0.0
  0
LINE
  5
B64
330
1F
100
AcDbEntity
  8
0
  6
Continuous
 62
     7
100
AcDbLine
 10
152.6086172106174
 20
197.6269695588712
 30
0.0
 11
158.6086172106173
 21
197.6269695588712
 31
0.0
  0
ARC
  5
B65
330
1F
100
AcDbEntity
  8
0
  6
Continuous
 62
     7
100
AcDbCircle
 10
152.6086164635422
 20
198.626968811796
 30
0.0
 40
0.9999992529251022
100
AcDbArc
 50
179.9999571957128
 51
270.0000428042863
  0
LINE
  5
B67
330
1F
100
AcDbEntity
  8
0
  6
DASHED
 62
     4
100
AcDbLine
 10
170.6265312106173
 20
195.9302695588712
 30
0.0
 11
170.6719092106173
 21
189.430427558871
 31
0.0
  0
LINE
  5
B68
330
1F
100
AcDbEntity
  8
0
  6
DASHED
 62
     4
100
AcDbLine
 10
180.6646842106173
 20
190.5002155588712
 30
0.0
 11
180.6262872106174
 21
196.0000815588711
 31
0.0
  0
LINE
  5
B69
330
1F
100
AcDbEntity
  8
0
  6
DASHED
 62
     4
100
AcDbLine
 10
178.6647332106174
 20
190.486253558871
 30
0.0
 11
178.6263362106172
 21
195.9861195588711
 31
0.0
  0
ARC
  5
B6A
330
1F
100
AcDbEntity
  8
0
  6
DASHED
 62
     4
100
AcDbCircle
 10
179.6647089628899
 20
190.4932338170293
 30
0.0
 40
0.9999996203932631
100
AcDbArc
 50
270.3999421343901
 51
0.400027742964539
  0
LINE
  5
B6B
330
1F
100
AcDbEntity
  8
0
  6
DASHED
 62
     4
100
AcDbLine
 10
179.6716902106173
 20
189.4932585588712
 30
0.0
 11
170.6719092106173
 21
189.430427558871
 31
0.0
  0
ARC
  5
B6C
330
1F
100
AcDbEntity
  8
0
  6
DASHED
 62
     4
100
AcDbCircle
 10
179.6647074687754
 20
190.4932338065984
 30
0.0
 40
0.9999996203932067
100
AcDbArc
 50
180.3999421343949
 51
270.4000277429676
  0
LINE
  5
B6E
330
1F
100
AcDbEntity
  8
0
  6
Continuous
 62
     7
100
AcDbLine
 10
167.6086172106173
 20
202.9269695588712
 30
0.0
 11
184.6086172106172
 21
202.9269695588712
 31
0.0
  0
LINE
  5
B6F
330
1F
100
AcDbEntity
  8
0
  6
Continuous
 62
     7
100
AcDbLine
 10
184.6086172106172
 20
207.3269695588711
 30
0.0
 11
177.4086172106174
 21
207.3269695588711
 31
0.0
  0
LINE
  5
B70
330
1F
100
AcDbEntity
  8
0
  6
DASHED
 62
     4
100
AcDbLine
 10
168.6265802106174
 20
195.9163065588711
 30
0.0
 11
168.6027682106173
 21
199.326969558871
 31
0.0
  0
LINE
  5
B71
330
1F
100
AcDbEntity
  8
0
  6
DASHED
 62
     4
100
AcDbLine
 10
170.6265312106173
 20
195.9302695588712
 30
0.0
 11
170.6028172106174
 21
199.326969558871
 31
0.0
  0
LINE
  5
B72
330
1F
100
AcDbEntity
  8
0
  6
DASHED
 62
     4
100
AcDbLine
 10
209.3955862106172
 20
196.200932558871
 30
0.0
 11
168.6265802106174
 21
195.9163065588711
 31
0.0
  0
LINE
  5
B73
330
1F
100
AcDbEntity
  8
0
  6
Continuous
 62
     7
100
AcDbLine
 10
174.8086172106174
 20
207.3269695588711
 30
0.0
 11
167.6086172106173
 21
207.3269695588711
 31
0.0
  0
LINE
  5
B74
330
1F
100
AcDbEntity
  8
0
  6
Continuous
 62
     7
100
AcDbLine
 10
167.6086172106173
 20
207.3269695588711
 30
0.0
 11
167.6086172106173
 21
202.9269695588712
 31
0.0
  0
LINE
  5
B75
330
1F
100
AcDbEntity
  8
0
  6
Continuous
 62
     7
100
AcDbLine
 10
177.4086172106174
 20
209.4269695588712
 30
0.0
 11
174.8086172106174
 21
209.4269695588712
 31
0.0
  0
LINE
  5
B76
330
1F
100
AcDbEntity
  8
0
  6
Continuous
 62
     7
100
AcDbLine
 10
174.8086172106174
 20
207.3269695588711
 30
0.0
 11
174.8086172106174
 21
209.4269695588712
 31
0.0
  0
LINE
  5
B77
330
1F
100
AcDbEntity
  8
0
  6
Continuous
 62
     7
100
AcDbLine
 10
177.4086172106174
 20
207.3269695588711
 30
0.0
 11
177.4086172106174
 21
209.4269695588712
 31
0.0
  0
LINE
  5
B79
330
1F
100
AcDbEntity
  8
0
  6
Continuous
 62
     7
100
AcDbLine
 10
184.6086172106172
 20
202.9269695588712
 30
0.0
 11
184.6086172106172
 21
207.3269695588711
 31
0.0
  0
LINE
  5
B7A
330
1F
100
AcDbEntity
  8
0
  6
Continuous
 62
     7
100
AcDbLine
 10
152.6086172106174
 20
245.626969558871
 30
0.0
 11
158.6086172106173
 21
245.626969558871
 31
0.0
  0
ARC
  5
B7B
330
1F
100
AcDbEntity
  8
0
  6
Continuous
 62
     7
100
AcDbCircle
 10
152.6086164635422
 20
244.6269703059463
 30
0.0
 40
0.9999992529250738
100
AcDbArc
 50
89.99995719571201
 51
180.0000428042855
  0
LINE
  5
B7E
330
1F
100
AcDbEntity
  8
0
  6
DASHED
 62
     4
100
AcDbLine
 10
209.3955862106172
 20
247.0530055588711
 30
0.0
 11
168.6265802106174
 21
247.3376315588712
 31
0.0
  0
LINE
  5
B7F
330
1F
100
AcDbEntity
  8
0
  6
DASHED
 62
     4
100
AcDbLine
 10
168.6265802106174
 20
247.3376315588712
 30
0.0
 11
168.6027682106173
 21
243.926969558871
 31
0.0
  0
LINE
  5
B80
330
1F
100
AcDbEntity
  8
0
  6
DASHED
 62
     4
100
AcDbLine
 10
170.6265312106173
 20
247.323669558871
 30
0.0
 11
170.6028172106174
 21
243.926969558871
 31
0.0
  0
LINE
  5
B81
330
1F
100
AcDbEntity
  8
0
  6
DASHED
 62
     4
100
AcDbLine
 10
178.6647332106174
 20
252.7676855588711
 30
0.0
 11
178.6263362106172
 21
247.267819558871
 31
0.0
  0
LINE
  5
B83
330
1F
100
AcDbEntity
  8
0
  6
DASHED
 62
     4
100
AcDbLine
 10
180.6646842106173
 20
252.7537225588712
 30
0.0
 11
180.6262872106174
 21
247.2538565588711
 31
0.0
  0
LINE
  5
B84
330
1F
100
AcDbEntity
  8
0
  6
DASHED
 62
     4
100
AcDbLine
 10
179.6716902106173
 20
253.7606795588712
 30
0.0
 11
170.6719092106173
 21
253.8235105588711
 31
0.0
  0
LINE
  5
B85
330
1F
100
AcDbEntity
  8
0
  6
Continuous
 62
     7
100
AcDbLine
 10
350.2689652106173
 20
208.5269695588712
 30
0.0
 11
308.0689652106172
 21
208.5269695588712
 31
0.0
  0
LINE
  5
B86
330
1F
100
AcDbEntity
  8
0
  6
Continuous
 62
     7
100
AcDbLine
 10
350.2689652106173
 20
224.3269695588711
 30
0.0
 11
308.0689652106172
 21
224.3269695588711
 31
0.0
  0
LINE
  5
B87
330
1F
100
AcDbEntity
  8
0
  6
Continuous
 62
     7
100
AcDbLine
 10
350.2689652106173
 20
215.9269695588712
 30
0.0
 11
308.0689652106172
 21
215.9269695588712
 31
0.0
  0
LINE
  5
B88
330
1F
100
AcDbEntity
  8
0
  6
Continuous
 62
     7
100
AcDbLine
 10
350.2689652106173
 20
225.326969558871
 30
0.0
 11
308.0689652106172
 21
225.326969558871
 31
0.0
  0
LINE
  5
B89
330
1F
100
AcDbEntity
  8
0
  6
Continuous
 62
     7
100
AcDbLine
 10
350.2689652106173
 20
232.726969558871
 30
0.0
 11
308.0689652106172
 21
232.726969558871
 31
0.0
  0
LINE
  5
B8A
330
1F
100
AcDbEntity
  8
0
  6
Continuous
 62
     7
100
AcDbLine
 10
350.2689652106173
 20
233.726969558871
 30
0.0
 11
308.0689652106172
 21
233.726969558871
 31
0.0
  0
LINE
  5
B8B
330
1F
100
AcDbEntity
  8
0
  6
Continuous
 62
     7
100
AcDbLine
 10
350.2689652106173
 20
207.5269695588711
 30
0.0
 11
308.0689652106172
 21
207.5269695588711
 31
0.0
  0
LINE
  5
B8C
330
1F
100
AcDbEntity
  8
0
  6
Continuous
 62
     7
100
AcDbLine
 10
350.2689652106173
 20
216.9269695588712
 30
0.0
 11
308.0689652106172
 21
216.9269695588712
 31
0.0
  0
LINE
  5
B8D
330
1F
100
AcDbEntity
  8
0
  6
Continuous
 62
     7
100
AcDbLine
 10
352.1689652106173
 20
196.6269695588712
 30
0.0
 11
306.1689652106171
 21
196.6269695588712
 31
0.0
  0
LINE
  5
B8E
330
1F
100
AcDbEntity
  8
0
  6
Continuous
 62
     7
100
AcDbLine
 10
352.1689652106173
 20
244.626969558871
 30
0.0
 11
306.1689652106171
 21
244.626969558871
 31
0.0
  0
LINE
  5
B8F
330
1F
100
AcDbEntity
  8
0
  6
Continuous
 62
     7
100
AcDbLine
 10
349.7689652106173
 20
242.226969558871
 30
0.0
 11
308.5689652106172
 21
242.226969558871
 31
0.0
  0
LINE
  5
B90
330
1F
100
AcDbEntity
  8
0
  6
Continuous
 62
     7
100
AcDbLine
 10
349.7689652106173
 20
199.0269695588711
 30
0.0
 11
308.5689652106172
 21
199.0269695588711
 31
0.0
  0
LINE
  5
B91
330
1F
100
AcDbEntity
  8
0
  6
Continuous
 62
     7
100
AcDbLine
 10
350.7689652106173
 20
200.0269695588712
 30
0.0
 11
307.5689652106171
 21
200.0269695588712
 31
0.0
  0
LINE
  5
B92
330
1F
100
AcDbEntity
  8
0
  6
Continuous
 62
     7
100
AcDbLine
 10
350.7689652106173
 20
241.226969558871
 30
0.0
 11
307.5689652106171
 21
241.226969558871
 31
0.0
  0
ARC
  5
B98
330
1F
100
AcDbEntity
  8
0
  6
DASHED
 62
     4
100
AcDbCircle
 10
212.6639037106174
 20
252.530322058871
 30
0.0
 40
1.000000172081241
100
AcDbArc
 50
340.8442958297226
 51
160.8442958297225
  0
LINE
  5
B99
330
1F
100
AcDbEntity
  8
0
  6
DASHED
 62
     4
 48
2.0
100
AcDbLine
 10
253.6107552106173
 20
243.929073558871
 30
0.0
 11
253.6157032106173
 21
199.325054558871
 31
0.0
  0
LINE
  5
B9A
330
1F
100
AcDbEntity
  8
0
  6
DASHED
 62
     4
 48
2.0
100
AcDbLine
 10
252.1108442106174
 20
243.134561558871
 30
0.0
 11
252.1156152106172
 21
200.119410558871
 31
0.0
  0
LINE
  5
B9C
330
1F
100
AcDbEntity
  8
0
  6
DASHED
 62
     4
 48
2.0
100
AcDbLine
 10
223.6139652106174
 20
198.420391558871
 30
0.0
 11
252.9205902106173
 21
198.6249935588711
 31
0.0
  0
LINE
  5
B9D
330
1F
100
AcDbEntity
  8
0
  6
Continuous
 62
     7
100
AcDbLine
 10
222.6086172106172
 20
200.0269695588712
 30
0.0
 11
238.6086172106173
 21
200.0269695588712
 31
0.0
  0
LINE
  5
B9E
330
1F
100
AcDbEntity
  8
0
  6
DASHED
 62
     4
100
AcDbLine
 10
211.7192742106174
 20
190.395480558871
 30
0.0
 11
209.7018952106174
 21
196.2030705588711
 31
0.0
  0
ARC
  5
B9F
330
1F
100
AcDbEntity
  8
0
  6
DASHED
 62
     4
100
AcDbCircle
 10
212.6639042106174
 20
190.723617058871
 30
0.0
 40
0.9999996997660696
100
AcDbArc
 50
199.1557135706987
 51
19.15571357069873
  0
LINE
  5
BA1
330
1F
100
AcDbEntity
  8
0
  6
DASHED
 62
     4
100
AcDbLine
 10
209.3955862106172
 20
196.200932558871
 30
0.0
 11
209.3737622106174
 21
199.326969558871
 31
0.0
  0
LINE
  5
BA3
330
1F
100
AcDbEntity
  8
0
  6
DASHED
 62
     4
100
AcDbLine
 10
213.6085352106174
 20
191.051751558871
 30
0.0
 11
210.7339782106174
 21
199.326969558871
 31
0.0
  0
ARC
  5
BA4
330
1F
100
AcDbEntity
  8
0
  6
DASHED
 62
     4
100
AcDbCircle
 10
211.1044859445534
 20
195.2128380140248
 30
0.0
 40
1.000000910444043
100
AcDbArc
 50
19.15569219487552
 51
90.39996947680606
  0
LINE
  5
BA5
330
1F
100
AcDbEntity
  8
0
  6
DASHED
 62
     4
100
AcDbLine
 10
209.3955862106172
 20
196.200932558871
 30
0.0
 11
211.8140022106174
 21
196.2178165588712
 31
0.0
  0
LINE
  5
BA6
330
1F
100
AcDbEntity
  8
0
  6
DASHED
 62
     4
 48
2.0
100
AcDbLine
 10
223.6152482106172
 20
199.920437558871
 30
0.0
 11
223.6139652106174
 21
198.420391558871
 31
0.0
  0
LINE
  5
BA7
330
1F
100
AcDbEntity
  8
0
  6
Continuous
 62
     7
100
AcDbLine
 10
221.9086172106174
 20
199.326969558871
 30
0.0
 11
222.6086172106172
 21
200.0269695588712
 31
0.0
  0
LINE
  5
BA8
330
1F
100
AcDbEntity
  8
0
  6
DASHED
 62
     4
 48
2.0
100
AcDbLine
 10
223.6152482106172
 20
199.920437558871
 30
0.0
 11
252.1156152106172
 21
200.119410558871
 31
0.0
  0
LINE
  5
BA9
330
1F
100
AcDbEntity
  8
0
  6
Continuous
 62
     7
100
AcDbLine
 10
235.6087272106174
 20
202.1269695588712
 30
0.0
 11
236.6087272106172
 21
201.1269695588711
 31
0.0
  0
LINE
  5
BAA
330
1F
100
AcDbEntity
  8
0
  6
Continuous
 62
     7
100
AcDbLine
 10
236.6087272106172
 20
201.1269695588711
 30
0.0
 11
238.6087272106172
 21
201.1269695588711
 31
0.0
  0
LINE
  5
BAB
330
1F
100
AcDbEntity
  8
0
  6
Continuous
 62
     7
100
AcDbLine
 10
238.6087272106172
 20
201.1269695588711
 30
0.0
 11
238.6087272106172
 21
200.0269695588712
 31
0.0
  0
LINE
  5
BAC
330
1F
100
AcDbEntity
  8
0
  6
Continuous
 62
     7
100
AcDbLine
 10
233.2087272106174
 20
241.126969558871
 30
0.0
 11
233.2087272106174
 21
202.1269695588712
 31
0.0
  0
LINE
  5
BAD
330
1F
100
AcDbEntity
  8
0
  6
Continuous
 62
     7
100
AcDbLine
 10
233.2087272106174
 20
202.1269695588712
 30
0.0
 11
235.6087272106174
 21
202.1269695588712
 31
0.0
  0
LINE
  5
BAE
330
1F
100
AcDbEntity
  8
0
  6
Continuous
 62
     7
100
AcDbLine
 10
235.6087272106174
 20
207.5270295588711
 30
0.0
 11
236.6087272106172
 21
208.5270295588712
 31
0.0
  0
LINE
  5
BAF
330
1F
100
AcDbEntity
  8
0
  6
Continuous
 62
     7
100
AcDbLine
 10
235.6087272106174
 20
210.527029558871
 30
0.0
 11
236.6087272106172
 21
209.5270295588711
 31
0.0
  0
LINE
  5
BB0
330
1F
100
AcDbEntity
  8
0
  6
Continuous
 62
     7
100
AcDbLine
 10
233.2087272106174
 20
210.527029558871
 30
0.0
 11
235.6087272106174
 21
210.527029558871
 31
0.0
  0
LINE
  5
BB1
330
1F
100
AcDbEntity
  8
0
  6
Continuous
 62
     7
100
AcDbLine
 10
233.2087272106174
 20
207.5270295588711
 30
0.0
 11
235.6087272106174
 21
207.5270295588711
 31
0.0
  0
LINE
  5
BB3
330
1F
100
AcDbEntity
  8
0
  6
Continuous
 62
     7
100
AcDbLine
 10
236.6087272106172
 20
209.5270295588711
 30
0.0
 11
238.6087272106172
 21
209.5270295588711
 31
0.0
  0
LINE
  5
BB4
330
1F
100
AcDbEntity
  8
0
  6
Continuous
 62
     7
100
AcDbLine
 10
236.6087272106172
 20
208.5270295588712
 30
0.0
 11
238.6087272106172
 21
208.5270295588712
 31
0.0
  0
LINE
  5
BB5
330
1F
100
AcDbEntity
  8
0
  6
Continuous
 62
     7
100
AcDbLine
 10
238.6087272106172
 20
209.5270295588711
 30
0.0
 11
238.6087272106172
 21
208.5270295588712
 31
0.0
  0
ARC
  5
BB6
330
1F
100
AcDbEntity
  8
0
  6
DASHED
 62
     4
 48
2.0
100
AcDbCircle
 10
252.915703426505
 20
199.3249762895325
 30
0.0
 40
0.6999997884879497
100
AcDbArc
 50
270.3999920913675
 51
0.0064064344654517
  0
LINE
  5
BB7
330
1F
100
AcDbEntity
  8
0
  6
DASHED
 62
     4
 48
2.0
100
AcDbLine
 10
223.6127792106174
 20
244.8335555588712
 30
0.0
 11
252.9156422106174
 21
244.628979558871
 31
0.0
  0
LINE
  5
BBA
330
1F
100
AcDbEntity
  8
0
  6
DASHED
 62
     4
100
AcDbLine
 10
211.7192742106174
 20
252.8584575588711
 30
0.0
 11
209.7018952106174
 21
247.050867558871
 31
0.0
  0
LINE
  5
BBC
330
1F
100
AcDbEntity
  8
0
  6
DASHED
 62
     4
100
AcDbLine
 10
209.3955862106172
 20
247.0530055588711
 30
0.0
 11
209.3737622106174
 21
243.926969558871
 31
0.0
  0
LINE
  5
BBD
330
1F
100
AcDbEntity
  8
0
  6
DASHED
 62
     4
100
AcDbLine
 10
213.6085352106174
 20
252.202186558871
 30
0.0
 11
210.7339782106174
 21
243.926969558871
 31
0.0
  0
LINE
  5
BBE
330
1F
100
AcDbEntity
  8
0
  6
DASHED
 62
     4
100
AcDbLine
 10
209.3955862106172
 20
247.0530055588711
 30
0.0
 11
211.8140022106174
 21
247.036121558871
 31
0.0
  0
ARC
  5
BBF
330
1F
100
AcDbEntity
  8
0
  6
DASHED
 62
     4
100
AcDbCircle
 10
211.1044859445536
 20
248.0411001037173
 30
0.0
 40
1.000000910443991
100
AcDbArc
 50
269.6000305231906
 51
340.8443078051226
  0
LINE
  5
BC0
330
1F
100
AcDbEntity
  8
0
  6
DASHED
 62
     4
 48
2.0
100
AcDbLine
 10
223.6116222106173
 20
243.3335265588711
 30
0.0
 11
223.6127792106174
 21
244.8335555588712
 31
0.0
  0
LINE
  5
BC2
330
1F
100
AcDbEntity
  8
0
  6
Continuous
 62
     7
100
AcDbLine
 10
221.9086172106174
 20
243.926969558871
 30
0.0
 11
222.6086172106172
 21
243.226969558871
 31
0.0
  0
LINE
  5
BC5
330
1F
100
AcDbEntity
  8
0
  6
Continuous
 62
     7
100
AcDbLine
 10
235.6087272106174
 20
215.9270295588711
 30
0.0
 11
236.6087272106172
 21
216.927029558871
 31
0.0
  0
LINE
  5
BC7
330
1F
100
AcDbEntity
  8
0
  6
Continuous
 62
     7
100
AcDbLine
 10
233.2087272106174
 20
215.9270295588711
 30
0.0
 11
235.6087272106174
 21
215.9270295588711
 31
0.0
  0
LINE
  5
BC8
330
1F
100
AcDbEntity
  8
0
  6
Continuous
 62
     7
100
AcDbLine
 10
235.6087272106174
 20
218.927029558871
 30
0.0
 11
236.6087272106172
 21
217.9270295588711
 31
0.0
  0
LINE
  5
BC9
330
1F
100
AcDbEntity
  8
0
  6
Continuous
 62
     7
100
AcDbLine
 10
233.2087272106174
 20
218.927029558871
 30
0.0
 11
235.6087272106174
 21
218.927029558871
 31
0.0
  0
LINE
  5
BCA
330
1F
100
AcDbEntity
  8
0
  6
Continuous
 62
     7
100
AcDbLine
 10
236.6087272106172
 20
217.9270295588711
 30
0.0
 11
238.6087272106172
 21
217.9270295588711
 31
0.0
  0
LINE
  5
BCB
330
1F
100
AcDbEntity
  8
0
  6
Continuous
 62
     7
100
AcDbLine
 10
236.6087272106172
 20
216.927029558871
 30
0.0
 11
238.6087272106172
 21
216.927029558871
 31
0.0
  0
LINE
  5
BCC
330
1F
100
AcDbEntity
  8
0
  6
Continuous
 62
     7
100
AcDbLine
 10
238.6087272106172
 20
217.9270295588711
 30
0.0
 11
238.6087272106172
 21
216.927029558871
 31
0.0
  0
LINE
  5
BCD
330
1F
100
AcDbEntity
  8
0
  6
Continuous
 62
     7
100
AcDbLine
 10
235.6087272106174
 20
227.327029558871
 30
0.0
 11
236.6087272106172
 21
226.3270295588712
 31
0.0
  0
LINE
  5
BCF
330
1F
100
AcDbEntity
  8
0
  6
Continuous
 62
     7
100
AcDbLine
 10
235.6087272106174
 20
224.3270295588712
 30
0.0
 11
236.6087272106172
 21
225.327029558871
 31
0.0
  0
LINE
  5
BD0
330
1F
100
AcDbEntity
  8
0
  6
Continuous
 62
     7
100
AcDbLine
 10
233.2087272106174
 20
224.3270295588712
 30
0.0
 11
235.6087272106174
 21
224.3270295588712
 31
0.0
  0
LINE
  5
BD1
330
1F
100
AcDbEntity
  8
0
  6
Continuous
 62
     7
100
AcDbLine
 10
236.6087272106172
 20
226.3270295588712
 30
0.0
 11
238.6087272106172
 21
226.3270295588712
 31
0.0
  0
LINE
  5
BD2
330
1F
100
AcDbEntity
  8
0
  6
Continuous
 62
     7
100
AcDbLine
 10
236.6087272106172
 20
225.327029558871
 30
0.0
 11
238.6087272106172
 21
225.327029558871
 31
0.0
  0
LINE
  5
BD3
330
1F
100
AcDbEntity
  8
0
  6
Continuous
 62
     7
100
AcDbLine
 10
238.6087272106172
 20
226.3270295588712
 30
0.0
 11
238.6087272106172
 21
225.327029558871
 31
0.0
  0
LINE
  5
BD4
330
1F
100
AcDbEntity
  8
0
  6
Continuous
 62
     7
100
AcDbLine
 10
233.2087272106174
 20
227.327029558871
 30
0.0
 11
235.6087272106174
 21
227.327029558871
 31
0.0
  0
LINE
  5
BD5
330
1F
100
AcDbEntity
  8
0
  6
DASHED
 62
     4
 48
2.0
100
AcDbLine
 10
223.6116222106173
 20
243.3335265588711
 30
0.0
 11
252.1108442106174
 21
243.134561558871
 31
0.0
  0
LINE
  5
BD6
330
1F
100
AcDbEntity
  8
0
  6
Continuous
 62
     7
100
AcDbLine
 10
238.6087272106172
 20
243.226969558871
 30
0.0
 11
238.6087272106172
 21
242.126969558871
 31
0.0
  0
LINE
  5
BD8
330
1F
100
AcDbEntity
  8
0
  6
Continuous
 62
     7
100
AcDbLine
 10
235.6087272106174
 20
235.726969558871
 30
0.0
 11
236.6087272106172
 21
234.726969558871
 31
0.0
  0
LINE
  5
BD9
330
1F
100
AcDbEntity
  8
0
  6
Continuous
 62
     7
100
AcDbLine
 10
235.6087272106174
 20
232.726969558871
 30
0.0
 11
236.6087272106172
 21
233.726969558871
 31
0.0
  0
LINE
  5
BDA
330
1F
100
AcDbEntity
  8
0
  6
Continuous
 62
     7
100
AcDbLine
 10
233.2087272106174
 20
235.726969558871
 30
0.0
 11
235.6087272106174
 21
235.726969558871
 31
0.0
  0
LINE
  5
BDB
330
1F
100
AcDbEntity
  8
0
  6
Continuous
 62
     7
100
AcDbLine
 10
233.2087272106174
 20
232.726969558871
 30
0.0
 11
235.6087272106174
 21
232.726969558871
 31
0.0
  0
LINE
  5
BDD
330
1F
100
AcDbEntity
  8
0
  6
Continuous
 62
     7
100
AcDbLine
 10
238.6087272106172
 20
234.726969558871
 30
0.0
 11
238.6087272106172
 21
233.726969558871
 31
0.0
  0
LINE
  5
BDE
330
1F
100
AcDbEntity
  8
0
  6
Continuous
 62
     7
100
AcDbLine
 10
236.6087272106172
 20
234.726969558871
 30
0.0
 11
238.6087272106172
 21
234.726969558871
 31
0.0
  0
LINE
  5
BDF
330
1F
100
AcDbEntity
  8
0
  6
Continuous
 62
     7
100
AcDbLine
 10
236.6087272106172
 20
233.726969558871
 30
0.0
 11
238.6087272106172
 21
233.726969558871
 31
0.0
  0
LINE
  5
BE0
330
1F
100
AcDbEntity
  8
0
  6
Continuous
 62
     7
100
AcDbLine
 10
235.6087272106174
 20
241.126969558871
 30
0.0
 11
236.6087272106172
 21
242.126969558871
 31
0.0
  0
LINE
  5
BE1
330
1F
100
AcDbEntity
  8
0
  6
Continuous
 62
     7
100
AcDbLine
 10
233.2087272106174
 20
241.126969558871
 30
0.0
 11
235.6087272106174
 21
241.126969558871
 31
0.0
  0
LINE
  5
BE2
330
1F
100
AcDbEntity
  8
0
  6
Continuous
 62
     7
100
AcDbLine
 10
236.6087272106172
 20
242.126969558871
 30
0.0
 11
238.6087272106172
 21
242.126969558871
 31
0.0
  0
LINE
  5
BE3
330
1F
100
AcDbEntity
  8
0
  6
Continuous
 62
     7
100
AcDbLine
 10
222.6086172106172
 20
243.226969558871
 30
0.0
 11
238.6085082106173
 21
243.226969558871
 31
0.0
  0
ARC
  5
BE6
330
1F
100
AcDbEntity
  8
0
  6
DASHED
 62
     4
 48
2.0
100
AcDbCircle
 10
252.9107556425469
 20
243.9289970428323
 30
0.0
 40
0.699999572362339
100
AcDbArc
 50
0.0063447779829996
 51
89.60002546882924
  0
LINE
  5
BE7
330
1F
100
AcDbEntity
  8
0
  6
Continuous
 62
     7
100
AcDbLine
 10
310.2689652106173
 20
215.9269695588712
 30
0.0
 11
310.2689652106173
 21
208.5269695588712
 31
0.0
  0
LINE
  5
BE8
330
1F
100
AcDbEntity
  8
0
  6
Continuous
 62
     7
100
AcDbLine
 10
305.1689652106174
 20
243.626969558871
 30
0.0
 11
305.1689652106174
 21
197.6269695588712
 31
0.0
  0
LINE
  5
BE9
330
1F
100
AcDbEntity
  8
0
  6
Continuous
 62
     7
100
AcDbLine
 10
307.5689652106171
 20
241.226969558871
 30
0.0
 11
307.5689652106171
 21
200.0269695588712
 31
0.0
  0
LINE
  5
BEA
330
1F
100
AcDbEntity
  8
0
  6
Continuous
 62
     7
100
AcDbLine
 10
310.2689652106173
 20
207.5269695588711
 30
0.0
 11
310.2689652106173
 21
200.0269695588712
 31
0.0
  0
ARC
  5
BEB
330
1F
100
AcDbEntity
  8
0
  6
Continuous
 62
     7
100
AcDbCircle
 10
306.1689644635421
 20
197.6269688117959
 30
0.0
 40
0.9999992529250167
100
AcDbArc
 50
179.9999571957094
 51
270.0000428042847
  0
LINE
  5
BEC
330
1F
100
AcDbEntity
  8
0
  6
Continuous
 62
     7
100
AcDbLine
 10
307.5689672106173
 20
201.0269705588711
 30
0.0
 11
308.5689672106173
 21
201.0269695588712
 31
0.0
  0
LINE
  5
BED
330
1F
100
AcDbEntity
  8
0
  6
Continuous
 62
     7
100
AcDbLine
 10
308.5689652106172
 20
200.0269695588712
 30
0.0
 11
308.5689672106173
 21
201.0269695588712
 31
0.0
  0
ARC
  5
BEE
330
1F
100
AcDbEntity
  8
0
  6
Continuous
 62
     7
100
AcDbCircle
 10
308.568964463542
 20
200.0269688117959
 30
0.0
 40
0.9999992529250738
100
AcDbArc
 50
179.9999571957128
 51
270.0000428042879
  0
LINE
  5
BEF
330
1F
100
AcDbEntity
  8
0
  6
Continuous
 62
     7
100
AcDbLine
 10
308.0689652106172
 20
208.5269695588712
 30
0.0
 11
308.0689652106172
 21
207.5269695588711
 31
0.0
  0
LINE
  5
BF0
330
1F
100
AcDbEntity
  8
0
  6
Continuous
 62
     7
100
AcDbLine
 10
308.0689652106172
 20
206.5269705588712
 30
0.0
 11
309.0689652106171
 21
206.5269705588712
 31
0.0
  0
LINE
  5
BF1
330
1F
100
AcDbEntity
  8
0
  6
Continuous
 62
     7
100
AcDbLine
 10
308.0689652106172
 20
209.5269705588711
 30
0.0
 11
308.0689652106172
 21
206.5269705588712
 31
0.0
  0
LINE
  5
BF2
330
1F
100
AcDbEntity
  8
0
  6
Continuous
 62
     7
100
AcDbLine
 10
309.0689652106171
 20
207.5269705588711
 30
0.0
 11
309.0689652106171
 21
206.5269705588712
 31
0.0
  0
LINE
  5
BF3
330
1F
100
AcDbEntity
  8
0
  6
Continuous
 62
     7
100
AcDbLine
 10
309.0689652106171
 20
209.5269705588711
 30
0.0
 11
309.0689652106171
 21
208.5269705588712
 31
0.0
  0
LINE
  5
BF4
330
1F
100
AcDbEntity
  8
0
  6
Continuous
 62
     7
100
AcDbLine
 10
308.0689652106172
 20
209.5269705588711
 30
0.0
 11
309.0689652106171
 21
209.5269705588711
 31
0.0
  0
LINE
  5
BF5
330
1F
100
AcDbEntity
  8
0
  6
Continuous
 62
     7
100
AcDbLine
 10
310.2689652106173
 20
232.726969558871
 30
0.0
 11
310.2689652106173
 21
225.326969558871
 31
0.0
  0
LINE
  5
BF6
330
1F
100
AcDbEntity
  8
0
  6
Continuous
 62
     7
100
AcDbLine
 10
308.0689652106172
 20
234.726969558871
 30
0.0
 11
308.0689652106172
 21
231.726969558871
 31
0.0
  0
LINE
  5
BF7
330
1F
100
AcDbEntity
  8
0
  6
Continuous
 62
     7
100
AcDbLine
 10
309.0689652106171
 20
232.726969558871
 30
0.0
 11
309.0689652106171
 21
231.726969558871
 31
0.0
  0
LINE
  5
BF8
330
1F
100
AcDbEntity
  8
0
  6
Continuous
 62
     7
100
AcDbLine
 10
310.2689652106173
 20
224.3269695588711
 30
0.0
 11
310.2689652106173
 21
216.9269695588712
 31
0.0
  0
LINE
  5
BF9
330
1F
100
AcDbEntity
  8
0
  6
Continuous
 62
     7
100
AcDbLine
 10
308.0689652106172
 20
216.9269695588712
 30
0.0
 11
308.0689652106172
 21
215.9269695588712
 31
0.0
  0
LINE
  5
BFA
330
1F
100
AcDbEntity
  8
0
  6
Continuous
 62
     7
100
AcDbLine
 10
308.0689652106172
 20
217.9269695588712
 30
0.0
 11
308.0689652106172
 21
214.9269695588712
 31
0.0
  0
LINE
  5
BFB
330
1F
100
AcDbEntity
  8
0
  6
Continuous
 62
     7
100
AcDbLine
 10
308.0689652106172
 20
214.9269695588712
 30
0.0
 11
309.0689652106171
 21
214.9269695588712
 31
0.0
  0
LINE
  5
BFC
330
1F
100
AcDbEntity
  8
0
  6
Continuous
 62
     7
100
AcDbLine
 10
309.0689652106171
 20
215.9269695588712
 30
0.0
 11
309.0689652106171
 21
214.9269695588712
 31
0.0
  0
LINE
  5
BFD
330
1F
100
AcDbEntity
  8
0
  6
Continuous
 62
     7
100
AcDbLine
 10
309.0689652106171
 20
217.9269695588712
 30
0.0
 11
309.0689652106171
 21
216.9269695588712
 31
0.0
  0
LINE
  5
BFE
330
1F
100
AcDbEntity
  8
0
  6
Continuous
 62
     7
100
AcDbLine
 10
308.0689652106172
 20
217.9269695588712
 30
0.0
 11
309.0689652106171
 21
217.9269695588712
 31
0.0
  0
LINE
  5
BFF
330
1F
100
AcDbEntity
  8
0
  6
Continuous
 62
     7
100
AcDbLine
 10
308.0689652106172
 20
225.326969558871
 30
0.0
 11
308.0689652106172
 21
224.3269695588711
 31
0.0
  0
LINE
  5
C00
330
1F
100
AcDbEntity
  8
0
  6
Continuous
 62
     7
100
AcDbLine
 10
308.0689652106172
 20
223.326969558871
 30
0.0
 11
309.0689652106171
 21
223.326969558871
 31
0.0
  0
LINE
  5
C01
330
1F
100
AcDbEntity
  8
0
  6
Continuous
 62
     7
100
AcDbLine
 10
308.0689652106172
 20
226.3269695588711
 30
0.0
 11
308.0689652106172
 21
223.326969558871
 31
0.0
  0
LINE
  5
C02
330
1F
100
AcDbEntity
  8
0
  6
Continuous
 62
     7
100
AcDbLine
 10
309.0689652106171
 20
224.3269695588711
 30
0.0
 11
309.0689652106171
 21
223.326969558871
 31
0.0
  0
LINE
  5
C03
330
1F
100
AcDbEntity
  8
0
  6
Continuous
 62
     7
100
AcDbLine
 10
309.0689652106171
 20
226.3269695588711
 30
0.0
 11
309.0689652106171
 21
225.326969558871
 31
0.0
  0
LINE
  5
C04
330
1F
100
AcDbEntity
  8
0
  6
Continuous
 62
     7
100
AcDbLine
 10
308.0689652106172
 20
226.3269695588711
 30
0.0
 11
309.0689652106171
 21
226.3269695588711
 31
0.0
  0
LINE
  5
C05
330
1F
100
AcDbEntity
  8
0
  6
Continuous
 62
     7
100
AcDbLine
 10
308.0689652106172
 20
231.726969558871
 30
0.0
 11
309.0689652106171
 21
231.726969558871
 31
0.0
  0
LINE
  5
C06
330
1F
100
AcDbEntity
  8
0
  6
Continuous
 62
     7
100
AcDbLine
 10
310.2689652106173
 20
241.226969558871
 30
0.0
 11
310.2689652106173
 21
233.726969558871
 31
0.0
  0
LINE
  5
C07
330
1F
100
AcDbEntity
  8
0
  6
Continuous
 62
     7
100
AcDbLine
 10
308.0689652106172
 20
233.726969558871
 30
0.0
 11
308.0689652106172
 21
232.726969558871
 31
0.0
  0
LINE
  5
C08
330
1F
100
AcDbEntity
  8
0
  6
Continuous
 62
     7
100
AcDbLine
 10
309.0689652106171
 20
234.726969558871
 30
0.0
 11
309.0689652106171
 21
233.726969558871
 31
0.0
  0
LINE
  5
C09
330
1F
100
AcDbEntity
  8
0
  6
Continuous
 62
     7
100
AcDbLine
 10
308.0689652106172
 20
234.726969558871
 30
0.0
 11
309.0689652106171
 21
234.726969558871
 31
0.0
  0
LINE
  5
C0A
330
1F
100
AcDbEntity
  8
0
  6
Continuous
 62
     7
100
AcDbLine
 10
308.5689652106172
 20
241.1269675588711
 30
0.0
 11
308.5689652106172
 21
240.126967558871
 31
0.0
  0
LINE
  5
C0B
330
1F
100
AcDbEntity
  8
0
  6
Continuous
 62
     7
100
AcDbLine
 10
307.5689652106171
 20
240.126967558871
 30
0.0
 11
308.5689652106172
 21
240.126967558871
 31
0.0
  0
ARC
  5
C0C
330
1F
100
AcDbEntity
  8
0
  6
Continuous
 62
     7
100
AcDbCircle
 10
308.568964463542
 20
241.2269703059461
 30
0.0
 40
0.9999992529251022
100
AcDbArc
 50
89.99995719571201
 51
180.0000428042871
  0
ARC
  5
C0D
330
1F
100
AcDbEntity
  8
0
  6
Continuous
 62
     7
100
AcDbCircle
 10
306.1689644635421
 20
243.6269703059461
 30
0.0
 40
0.9999992529250738
100
AcDbArc
 50
89.99995719571852
 51
180.0000428042919
  0
LINE
  5
C0E
330
1F
100
AcDbEntity
  8
0
  6
Continuous
 62
     7
100
AcDbLine
 10
320.2689652106173
 20
215.9269695588712
 30
0.0
 11
320.2689652106173
 21
208.5269695588712
 31
0.0
  0
LINE
  5
C0F
330
1F
100
AcDbEntity
  8
0
  6
Continuous
 62
     7
100
AcDbLine
 10
338.0689652106173
 20
215.9269695588712
 30
0.0
 11
338.0689652106173
 21
208.5269695588712
 31
0.0
  0
LINE
  5
C10
330
1F
100
AcDbEntity
  8
0
  6
Continuous
 62
     7
100
AcDbLine
 10
324.1689652106173
 20
215.9269695588712
 30
0.0
 11
324.1689652106173
 21
208.5269695588712
 31
0.0
  0
LINE
  5
C11
330
1F
100
AcDbEntity
  8
0
  6
Continuous
 62
     7
100
AcDbLine
 10
320.2689652106173
 20
215.9269695588712
 30
0.0
 11
320.2689652106173
 21
208.5269695588712
 31
0.0
  0
LINE
  5
C12
330
1F
100
AcDbEntity
  8
0
  6
Continuous
 62
     7
100
AcDbLine
 10
334.1689652106174
 20
215.9269695588712
 30
0.0
 11
334.1689652106174
 21
208.5269695588712
 31
0.0
  0
LINE
  5
C13
330
1F
100
AcDbEntity
  8
0
  6
Continuous
 62
     7
100
AcDbLine
 10
353.1689652106174
 20
243.626969558871
 30
0.0
 11
353.1689652106174
 21
197.6269695588712
 31
0.0
  0
LINE
  5
C14
330
1F
100
AcDbEntity
  8
0
  6
Continuous
 62
     7
100
AcDbLine
 10
350.7689652106173
 20
241.226969558871
 30
0.0
 11
350.7689652106173
 21
200.0269695588712
 31
0.0
  0
LINE
  5
C15
330
1F
100
AcDbEntity
  8
0
  6
Continuous
 62
     7
100
AcDbLine
 10
322.4689652106174
 20
215.9269695588712
 30
0.0
 11
322.4689652106174
 21
208.5269695588712
 31
0.0
  0
LINE
  5
C16
330
1F
100
AcDbEntity
  8
0
  6
Continuous
 62
     7
100
AcDbLine
 10
336.3689652106173
 20
215.9269695588712
 30
0.0
 11
336.3689652106173
 21
208.5269695588712
 31
0.0
  0
LINE
  5
C17
330
1F
100
AcDbEntity
  8
0
  6
Continuous
 62
     7
100
AcDbLine
 10
348.0689652106172
 20
215.9269695588712
 30
0.0
 11
348.0689652106172
 21
208.5269695588712
 31
0.0
  0
LINE
  5
C1E
330
1F
100
AcDbEntity
  8
0
  6
Continuous
 62
     7
100
AcDbLine
 10
320.2689652106173
 20
207.5269695588711
 30
0.0
 11
320.2689652106173
 21
200.0269695588712
 31
0.0
  0
LINE
  5
C1F
330
1F
100
AcDbEntity
  8
0
  6
Continuous
 62
     7
100
AcDbLine
 10
324.1689652106173
 20
207.5269695588711
 30
0.0
 11
324.1689652106173
 21
200.0269695588712
 31
0.0
  0
LINE
  5
C20
330
1F
100
AcDbEntity
  8
0
  6
Continuous
 62
     7
100
AcDbLine
 10
320.2689652106173
 20
207.5269695588711
 30
0.0
 11
320.2689652106173
 21
200.1269695588712
 31
0.0
  0
LINE
  5
C21
330
1F
100
AcDbEntity
  8
0
  6
Continuous
 62
     7
100
AcDbLine
 10
322.4689652106174
 20
207.5269695588711
 30
0.0
 11
322.4689652106174
 21
200.0269695588712
 31
0.0
  0
LINE
  5
C24
330
1F
100
AcDbEntity
  8
0
  6
Continuous
 62
     7
100
AcDbLine
 10
338.0689652106173
 20
207.5269695588711
 30
0.0
 11
338.0689652106173
 21
200.0269695588712
 31
0.0
  0
LINE
  5
C25
330
1F
100
AcDbEntity
  8
0
  6
Continuous
 62
     7
100
AcDbLine
 10
334.1689652106174
 20
207.5269695588711
 30
0.0
 11
334.1689652106174
 21
200.0269695588712
 31
0.0
  0
LINE
  5
C26
330
1F
100
AcDbEntity
  8
0
  6
Continuous
 62
     7
100
AcDbLine
 10
336.3689652106173
 20
207.5269695588711
 30
0.0
 11
336.3689652106173
 21
200.0269695588712
 31
0.0
  0
LINE
  5
C28
330
1F
100
AcDbEntity
  8
0
  6
Continuous
 62
     7
100
AcDbLine
 10
348.0689652106172
 20
207.5269695588711
 30
0.0
 11
348.0689652106172
 21
200.0269695588712
 31
0.0
  0
LINE
  5
C29
330
1F
100
AcDbEntity
  8
0
  6
Continuous
 62
     7
100
AcDbLine
 10
349.7689652106173
 20
200.0269695588712
 30
0.0
 11
349.7689672106173
 21
201.0269695588712
 31
0.0
  0
LINE
  5
C2A
330
1F
100
AcDbEntity
  8
0
  6
Continuous
 62
     7
100
AcDbLine
 10
350.7689672106173
 20
201.0269675588712
 30
0.0
 11
349.7689672106173
 21
201.0269695588712
 31
0.0
  0
ARC
  5
C2B
330
1F
100
AcDbEntity
  8
0
  6
Continuous
 62
     7
100
AcDbCircle
 10
349.7689659576926
 20
200.0269688117959
 30
0.0
 40
0.9999992529251022
100
AcDbArc
 50
269.9999571957119
 51
0.0000428042871804
  0
ARC
  5
C2C
330
1F
100
AcDbEntity
  8
0
  6
Continuous
 62
     7
100
AcDbCircle
 10
352.1689659576926
 20
197.626968811796
 30
0.0
 40
0.9999992529251022
100
AcDbArc
 50
269.9999571957119
 51
0.0000428042871804
  0
LINE
  5
C2E
330
1F
100
AcDbEntity
  8
0
  6
Continuous
 62
     7
100
AcDbLine
 10
350.2689652106173
 20
208.5269695588712
 30
0.0
 11
350.2689652106173
 21
207.5269695588711
 31
0.0
  0
LINE
  5
C2F
330
1F
100
AcDbEntity
  8
0
  6
Continuous
 62
     7
100
AcDbLine
 10
350.2689652106173
 20
206.5269705588712
 30
0.0
 11
349.2689652106173
 21
206.5269705588712
 31
0.0
  0
LINE
  5
C30
330
1F
100
AcDbEntity
  8
0
  6
Continuous
 62
     7
100
AcDbLine
 10
350.2689652106173
 20
209.5269705588711
 30
0.0
 11
349.2689652106173
 21
209.5269705588711
 31
0.0
  0
LINE
  5
C31
330
1F
100
AcDbEntity
  8
0
  6
Continuous
 62
     7
100
AcDbLine
 10
349.2689652106173
 20
209.5269705588711
 30
0.0
 11
349.2689652106173
 21
208.5269705588712
 31
0.0
  0
LINE
  5
C32
330
1F
100
AcDbEntity
  8
0
  6
Continuous
 62
     7
100
AcDbLine
 10
350.2689652106173
 20
209.5269705588711
 30
0.0
 11
350.2689652106173
 21
206.5269705588712
 31
0.0
  0
LINE
  5
C33
330
1F
100
AcDbEntity
  8
0
  6
Continuous
 62
     7
100
AcDbLine
 10
349.2689652106173
 20
207.5269705588711
 30
0.0
 11
349.2689652106173
 21
206.5269705588712
 31
0.0
  0
LINE
  5
C3B
330
1F
100
AcDbEntity
  8
0
  6
Continuous
 62
     7
100
AcDbLine
 10
320.2689652106173
 20
232.726969558871
 30
0.0
 11
320.2689652106173
 21
225.326969558871
 31
0.0
  0
LINE
  5
C3C
330
1F
100
AcDbEntity
  8
0
  6
Continuous
 62
     7
100
AcDbLine
 10
320.2689652106173
 20
232.726969558871
 30
0.0
 11
320.2689652106173
 21
225.326969558871
 31
0.0
  0
LINE
  5
C3D
330
1F
100
AcDbEntity
  8
0
  6
Continuous
 62
     7
100
AcDbLine
 10
324.1689652106173
 20
232.726969558871
 30
0.0
 11
324.1689652106173
 21
225.326969558871
 31
0.0
  0
LINE
  5
C3E
330
1F
100
AcDbEntity
  8
0
  6
Continuous
 62
     7
100
AcDbLine
 10
334.1689652106174
 20
232.726969558871
 30
0.0
 11
334.1689652106174
 21
225.326969558871
 31
0.0
  0
LINE
  5
C3F
330
1F
100
AcDbEntity
  8
0
  6
Continuous
 62
     7
100
AcDbLine
 10
338.0689652106173
 20
232.726969558871
 30
0.0
 11
338.0689652106173
 21
225.326969558871
 31
0.0
  0
LINE
  5
C40
330
1F
100
AcDbEntity
  8
0
  6
Continuous
 62
     7
100
AcDbLine
 10
322.4689652106174
 20
232.726969558871
 30
0.0
 11
322.4689652106174
 21
225.326969558871
 31
0.0
  0
LINE
  5
C41
330
1F
100
AcDbEntity
  8
0
  6
Continuous
 62
     7
100
AcDbLine
 10
336.3689652106173
 20
232.726969558871
 30
0.0
 11
336.3689652106173
 21
225.326969558871
 31
0.0
  0
LINE
  5
C48
330
1F
100
AcDbEntity
  8
0
  6
Continuous
 62
     7
100
AcDbLine
 10
320.2689652106173
 20
224.3269695588711
 30
0.0
 11
320.2689652106173
 21
216.9269695588712
 31
0.0
  0
LINE
  5
C49
330
1F
100
AcDbEntity
  8
0
  6
Continuous
 62
     7
100
AcDbLine
 10
320.2689652106173
 20
224.3269695588711
 30
0.0
 11
320.2689652106173
 21
216.9269695588712
 31
0.0
  0
LINE
  5
C4A
330
1F
100
AcDbEntity
  8
0
  6
Continuous
 62
     7
100
AcDbLine
 10
324.1689652106173
 20
224.3269695588711
 30
0.0
 11
324.1689652106173
 21
216.9269695588712
 31
0.0
  0
LINE
  5
C4B
330
1F
100
AcDbEntity
  8
0
  6
Continuous
 62
     7
100
AcDbLine
 10
322.4689652106174
 20
224.3269695588711
 30
0.0
 11
322.4689652106174
 21
216.9269695588712
 31
0.0
  0
LINE
  5
C51
330
1F
100
AcDbEntity
  8
0
  6
Continuous
 62
     7
100
AcDbLine
 10
338.0689652106173
 20
224.3269695588711
 30
0.0
 11
338.0689652106173
 21
216.9269695588712
 31
0.0
  0
LINE
  5
C52
330
1F
100
AcDbEntity
  8
0
  6
Continuous
 62
     7
100
AcDbLine
 10
334.1689652106174
 20
224.3269695588711
 30
0.0
 11
334.1689652106174
 21
216.9269695588712
 31
0.0
  0
LINE
  5
C53
330
1F
100
AcDbEntity
  8
0
  6
Continuous
 62
     7
100
AcDbLine
 10
336.3689652106173
 20
224.3269695588711
 30
0.0
 11
336.3689652106173
 21
216.9269695588712
 31
0.0
  0
LINE
  5
C59
330
1F
100
AcDbEntity
  8
0
  6
Continuous
 62
     7
100
AcDbLine
 10
320.2689652106173
 20
241.226969558871
 30
0.0
 11
320.2689652106173
 21
233.726969558871
 31
0.0
  0
LINE
  5
C5A
330
1F
100
AcDbEntity
  8
0
  6
Continuous
 62
     7
100
AcDbLine
 10
320.2689652106173
 20
241.126969558871
 30
0.0
 11
320.2689652106173
 21
233.726969558871
 31
0.0
  0
LINE
  5
C5D
330
1F
100
AcDbEntity
  8
0
  6
Continuous
 62
     7
100
AcDbLine
 10
324.1689652106173
 20
241.226969558871
 30
0.0
 11
324.1689652106173
 21
233.726969558871
 31
0.0
  0
LINE
  5
C5E
330
1F
100
AcDbEntity
  8
0
  6
Continuous
 62
     7
100
AcDbLine
 10
322.4689652106174
 20
241.226969558871
 30
0.0
 11
322.4689652106174
 21
233.726969558871
 31
0.0
  0
LINE
  5
C5F
330
1F
100
AcDbEntity
  8
0
  6
Continuous
 62
     7
100
AcDbLine
 10
326.6689652106173
 20
233.726969558871
 30
0.0
 11
323.3689652106173
 21
233.726969558871
 31
0.0
  0
LINE
  5
C60
330
1F
100
AcDbEntity
  8
0
  6
Continuous
 62
     7
100
AcDbLine
 10
326.6689652106173
 20
232.726969558871
 30
0.0
 11
323.3689652106173
 21
232.726969558871
 31
0.0
  0
LINE
  5
C61
330
1F
100
AcDbEntity
  8
0
  6
Continuous
 62
     7
100
AcDbLine
 10
334.1689652106174
 20
241.226969558871
 30
0.0
 11
334.1689652106174
 21
233.726969558871
 31
0.0
  0
LINE
  5
C62
330
1F
100
AcDbEntity
  8
0
  6
Continuous
 62
     7
100
AcDbLine
 10
334.1689652106174
 20
241.126969558871
 30
0.0
 11
334.1689652106174
 21
233.726969558871
 31
0.0
  0
LINE
  5
C63
330
1F
100
AcDbEntity
  8
0
  6
Continuous
 62
     7
100
AcDbLine
 10
336.3689652106173
 20
241.226969558871
 30
0.0
 11
336.3689652106173
 21
233.726969558871
 31
0.0
  0
LINE
  5
C65
330
1F
100
AcDbEntity
  8
0
  6
Continuous
 62
     7
100
AcDbLine
 10
338.0689652106173
 20
241.226969558871
 30
0.0
 11
338.0689652106173
 21
233.726969558871
 31
0.0
  0
LINE
  5
C66
330
1F
100
AcDbEntity
  8
0
  6
Continuous
 62
     7
100
AcDbLine
 10
348.0689652106172
 20
232.726969558871
 30
0.0
 11
348.0689652106172
 21
225.326969558871
 31
0.0
  0
LINE
  5
C67
330
1F
100
AcDbEntity
  8
0
  6
Continuous
 62
     7
100
AcDbLine
 10
349.2689652106173
 20
232.726969558871
 30
0.0
 11
349.2689652106173
 21
231.726969558871
 31
0.0
  0
LINE
  5
C68
330
1F
100
AcDbEntity
  8
0
  6
Continuous
 62
     7
100
AcDbLine
 10
350.2689652106173
 20
234.726969558871
 30
0.0
 11
350.2689652106173
 21
231.726969558871
 31
0.0
  0
LINE
  5
C69
330
1F
100
AcDbEntity
  8
0
  6
Continuous
 62
     7
100
AcDbLine
 10
348.0689652106172
 20
224.3269695588711
 30
0.0
 11
348.0689652106172
 21
216.9269695588712
 31
0.0
  0
LINE
  5
C6A
330
1F
100
AcDbEntity
  8
0
  6
Continuous
 62
     7
100
AcDbLine
 10
350.2689652106173
 20
216.9269695588712
 30
0.0
 11
350.2689652106173
 21
215.9269695588712
 31
0.0
  0
LINE
  5
C6B
330
1F
100
AcDbEntity
  8
0
  6
Continuous
 62
     7
100
AcDbLine
 10
350.2689652106173
 20
217.9269695588712
 30
0.0
 11
350.2689652106173
 21
214.9269695588712
 31
0.0
  0
LINE
  5
C6D
330
1F
100
AcDbEntity
  8
0
  6
Continuous
 62
     7
100
AcDbLine
 10
350.2689652106173
 20
214.9269695588712
 30
0.0
 11
349.2689652106173
 21
214.9269695588712
 31
0.0
  0
LINE
  5
C6E
330
1F
100
AcDbEntity
  8
0
  6
Continuous
 62
     7
100
AcDbLine
 10
349.2689652106173
 20
215.9269695588712
 30
0.0
 11
349.2689652106173
 21
214.9269695588712
 31
0.0
  0
LINE
  5
C70
330
1F
100
AcDbEntity
  8
0
  6
Continuous
 62
     7
100
AcDbLine
 10
350.2689652106173
 20
217.9269695588712
 30
0.0
 11
349.2689652106173
 21
217.9269695588712
 31
0.0
  0
LINE
  5
C71
330
1F
100
AcDbEntity
  8
0
  6
Continuous
 62
     7
100
AcDbLine
 10
349.2689652106173
 20
217.9269695588712
 30
0.0
 11
349.2689652106173
 21
216.9269695588712
 31
0.0
  0
LINE
  5
C72
330
1F
100
AcDbEntity
  8
0
  6
Continuous
 62
     7
100
AcDbLine
 10
350.2689652106173
 20
225.326969558871
 30
0.0
 11
350.2689652106173
 21
224.3269695588711
 31
0.0
  0
LINE
  5
C73
330
1F
100
AcDbEntity
  8
0
  6
Continuous
 62
     7
100
AcDbLine
 10
350.2689652106173
 20
223.326969558871
 30
0.0
 11
349.2689652106173
 21
223.326969558871
 31
0.0
  0
LINE
  5
C74
330
1F
100
AcDbEntity
  8
0
  6
Continuous
 62
     7
100
AcDbLine
 10
350.2689652106173
 20
226.3269695588711
 30
0.0
 11
349.2689652106173
 21
226.3269695588711
 31
0.0
  0
LINE
  5
C75
330
1F
100
AcDbEntity
  8
0
  6
Continuous
 62
     7
100
AcDbLine
 10
349.2689652106173
 20
226.3269695588711
 30
0.0
 11
349.2689652106173
 21
225.326969558871
 31
0.0
  0
LINE
  5
C76
330
1F
100
AcDbEntity
  8
0
  6
Continuous
 62
     7
100
AcDbLine
 10
350.2689652106173
 20
226.3269695588711
 30
0.0
 11
350.2689652106173
 21
223.326969558871
 31
0.0
  0
LINE
  5
C77
330
1F
100
AcDbEntity
  8
0
  6
Continuous
 62
     7
100
AcDbLine
 10
349.2689652106173
 20
224.3269695588711
 30
0.0
 11
349.2689652106173
 21
223.326969558871
 31
0.0
  0
LINE
  5
C79
330
1F
100
AcDbEntity
  8
0
  6
Continuous
 62
     7
100
AcDbLine
 10
350.2689652106173
 20
231.726969558871
 30
0.0
 11
349.2689652106173
 21
231.726969558871
 31
0.0
  0
LINE
  5
C7A
330
1F
100
AcDbEntity
  8
0
  6
Continuous
 62
     7
100
AcDbLine
 10
348.0689652106172
 20
241.226969558871
 30
0.0
 11
348.0689652106172
 21
233.726969558871
 31
0.0
  0
LINE
  5
C7C
330
1F
100
AcDbEntity
  8
0
  6
Continuous
 62
     7
100
AcDbLine
 10
350.2689652106173
 20
233.726969558871
 30
0.0
 11
350.2689652106173
 21
232.726969558871
 31
0.0
  0
LINE
  5
C7D
330
1F
100
AcDbEntity
  8
0
  6
Continuous
 62
     7
100
AcDbLine
 10
350.2689652106173
 20
234.726969558871
 30
0.0
 11
349.2689652106173
 21
234.726969558871
 31
0.0
  0
LINE
  5
C7E
330
1F
100
AcDbEntity
  8
0
  6
Continuous
 62
     7
100
AcDbLine
 10
349.2689652106173
 20
234.726969558871
 30
0.0
 11
349.2689652106173
 21
233.726969558871
 31
0.0
  0
LINE
  5
C7F
330
1F
100
AcDbEntity
  8
0
  6
Continuous
 62
     7
100
AcDbLine
 10
349.7689652106173
 20
241.1269675588711
 30
0.0
 11
349.7689652106173
 21
240.126967558871
 31
0.0
  0
LINE
  5
C80
330
1F
100
AcDbEntity
  8
0
  6
Continuous
 62
     7
100
AcDbLine
 10
350.7689652106173
 20
240.126967558871
 30
0.0
 11
349.7689652106173
 21
240.126967558871
 31
0.0
  0
ARC
  5
C81
330
1F
100
AcDbEntity
  8
0
  6
Continuous
 62
     7
100
AcDbCircle
 10
349.7689659576926
 20
241.2269703059461
 30
0.0
 40
0.9999992529250738
100
AcDbArc
 50
359.9999571957126
 51
90.000042804288
  0
ARC
  5
C82
330
1F
100
AcDbEntity
  8
0
  6
Continuous
 62
     7
100
AcDbCircle
 10
352.1689659576924
 20
243.6269703059461
 30
0.0
 40
0.9999992529251306
100
AcDbArc
 50
359.9999571957112
 51
90.00004280428473
  0
CIRCLE
  5
C83
330
1F
100
AcDbEntity
  8
0
  6
Continuous
 62
     7
100
AcDbCircle
 10
315.2689674518429
 20
237.4769718000965
 30
0.0
 40
2.99999775877522
  0
CIRCLE
  5
C92
330
1F
100
AcDbEntity
  8
0
  6
Continuous
 62
     7
100
AcDbCircle
 10
315.2689674518429
 20
229.0269718000966
 30
0.0
 40
2.99999775877522
  0
CIRCLE
  5
C93
330
1F
100
AcDbEntity
  8
0
  6
Continuous
 62
     7
100
AcDbCircle
 10
315.2689674518429
 20
220.5769718000964
 30
0.0
 40
2.99999775877522
  0
CIRCLE
  5
C94
330
1F
100
AcDbEntity
  8
0
  6
Continuous
 62
     7
100
AcDbCircle
 10
315.2689674518429
 20
212.1269718000966
 30
0.0
 40
2.99999775877522
  0
CIRCLE
  5
C95
330
1F
100
AcDbEntity
  8
0
  6
Continuous
 62
     7
100
AcDbCircle
 10
315.2689674518429
 20
203.6769718000965
 30
0.0
 40
2.99999775877522
  0
CIRCLE
  5
C96
330
1F
100
AcDbEntity
  8
0
  6
Continuous
 62
     7
100
AcDbCircle
 10
329.168967451843
 20
237.4769718000965
 30
0.0
 40
2.99999775877522
  0
CIRCLE
  5
C97
330
1F
100
AcDbEntity
  8
0
  6
Continuous
 62
     7
100
AcDbCircle
 10
329.168967451843
 20
229.0269718000966
 30
0.0
 40
2.99999775877522
  0
CIRCLE
  5
C98
330
1F
100
AcDbEntity
  8
0
  6
Continuous
 62
     7
100
AcDbCircle
 10
329.168967451843
 20
220.5769718000964
 30
0.0
 40
2.99999775877522
  0
CIRCLE
  5
C99
330
1F
100
AcDbEntity
  8
0
  6
Continuous
 62
     7
100
AcDbCircle
 10
329.168967451843
 20
212.1269718000966
 30
0.0
 40
2.99999775877522
  0
CIRCLE
  5
C9A
330
1F
100
AcDbEntity
  8
0
  6
Continuous
 62
     7
100
AcDbCircle
 10
329.168967451843
 20
203.6769718000965
 30
0.0
 40
2.99999775877522
  0
CIRCLE
  5
C9B
330
1F
100
AcDbEntity
  8
0
  6
Continuous
 62
     7
100
AcDbCircle
 10
343.0689674518429
 20
237.4769718000965
 30
0.0
 40
2.99999775877522
  0
CIRCLE
  5
C9C
330
1F
100
AcDbEntity
  8
0
  6
Continuous
 62
     7
100
AcDbCircle
 10
343.0689674518429
 20
229.0269718000966
 30
0.0
 40
2.99999775877522
  0
CIRCLE
  5
C9D
330
1F
100
AcDbEntity
  8
0
  6
Continuous
 62
     7
100
AcDbCircle
 10
343.0689674518429
 20
220.5769718000964
 30
0.0
 40
2.99999775877522
  0
CIRCLE
  5
C9E
330
1F
100
AcDbEntity
  8
0
  6
Continuous
 62
     7
100
AcDbCircle
 10
343.0689674518429
 20
212.1269718000966
 30
0.0
 40
2.99999775877522
  0
CIRCLE
  5
C9F
330
1F
100
AcDbEntity
  8
0
  6
Continuous
 62
     7
100
AcDbCircle
 10
343.0689674518429
 20
203.6769718000965
 30
0.0
 40
2.99999775877522
  0
CIRCLE
  5
CA0
330
1F
100
AcDbEntity
  8
0
  6
Continuous
 62
     7
100
AcDbCircle
 10
57.30742195769263
 20
216.6269703059461
 30
0.0
 40
0.9999992529251022
  0
CIRCLE
  5
CA1
330
1F
100
AcDbEntity
  8
0
  6
Continuous
 62
     7
100
AcDbCircle
 10
57.30742195769263
 20
221.6269703059463
 30
0.0
 40
0.9999992529251022
  0
CIRCLE
  5
CA2
330
1F
100
AcDbEntity
  8
0
  6
Continuous
 62
     7
100
AcDbCircle
 10
57.30742195769263
 20
226.6269703059462
 30
0.0
 40
0.9999992529251022
  0
CIRCLE
  5
CA3
330
1F
100
AcDbEntity
  8
0
  6
Continuous
 62
     7
100
AcDbCircle
 10
57.30742195769263
 20
231.6269703059461
 30
0.0
 40
0.9999992529251022
  0
CIRCLE
  5
CA4
330
1F
100
AcDbEntity
  8
0
  6
Continuous
 62
     7
100
AcDbCircle
 10
57.30742195769263
 20
236.6269703059463
 30
0.0
 40
0.9999992529251022
  0
CIRCLE
  5
CA6
330
1F
100
AcDbEntity
  8
0
  6
Continuous
 62
     7
100
AcDbCircle
 10
67.00594654671757
 20
214.6184558949713
 30
0.0
 40
0.4498876638999981
  0
CIRCLE
  5
CAA
330
1F
100
AcDbEntity
  8
0
  6
Continuous
 62
     7
100
AcDbCircle
 10
74.30594654671756
 20
214.6184558949713
 30
0.0
 40
0.4498876638999981
  0
CIRCLE
  5
CAB
330
1F
100
AcDbEntity
  8
0
  6
Continuous
 62
     7
100
AcDbCircle
 10
81.60594654671756
 20
214.6184558949713
 30
0.0
 40
0.4498876638999981
  0
CIRCLE
  5
CAC
330
1F
100
AcDbEntity
  8
0
  6
Continuous
 62
     7
100
AcDbCircle
 10
88.90594654671756
 20
214.6184558949713
 30
0.0
 40
0.4498876638999981
  0
CIRCLE
  5
CAD
330
1F
100
AcDbEntity
  8
0
  6
Continuous
 62
     7
100
AcDbCircle
 10
88.90594654671758
 20
229.8156308949713
 30
0.0
 40
0.4498876638999981
  0
CIRCLE
  5
CAE
330
1F
100
AcDbEntity
  8
0
  6
Continuous
 62
     7
100
AcDbCircle
 10
81.6059465467176
 20
229.8156308949713
 30
0.0
 40
0.4498876638999981
  0
CIRCLE
  5
CAF
330
1F
100
AcDbEntity
  8
0
  6
Continuous
 62
     7
100
AcDbCircle
 10
74.30594654671759
 20
229.8156308949713
 30
0.0
 40
0.4498876638999981
  0
CIRCLE
  5
CB0
330
1F
100
AcDbEntity
  8
0
  6
Continuous
 62
     7
100
AcDbCircle
 10
67.0059465467176
 20
229.8156308949713
 30
0.0
 40
0.4498876638999981
  0
LINE
  5
CB1
330
1F
100
AcDbEntity
  8
0
  6
DASHED
 62
     4
100
AcDbLine
 10
168.6027682106173
 20
199.326969558871
 30
0.0
 11
210.7339782106174
 21
199.326969558871
 31
0.0
  0
LINE
  5
CB2
330
1F
100
AcDbEntity
  8
0
  6
DASHED
 62
     4
100
AcDbLine
 10
168.6027682106173
 20
243.926969558871
 30
0.0
 11
210.7339782106174
 21
243.926969558871
 31
0.0
  0
ENDSEC
  0
SECTION
  2
OBJECTS
  0
DICTIONARY
  5
C
330
0
100
AcDbDictionary
281
     1
  3
ACAD_GROUP
350
D
  3
ACAD_LAYOUT
350
1A
  3
ACAD_MLINESTYLE
350
17
  3
ACAD_PLOTSETTINGS
350
19
  3
ACAD_PLOTSTYLENAME
350
E
  0
DICTIONARY
  5
D
102
{ACAD_REACTORS
330
C
102
}
330
C
100
AcDbDictionary
281
     1
  0
DICTIONARY
  5
1A
102
{ACAD_REACTORS
330
C
102
}
330
C
100
AcDbDictionary
281
     1
  3
Model
350
22
  3
ﾚｲｱｳﾄ1
350
1E
  3
ﾚｲｱｳﾄ2
350
26
  0
DICTIONARY
  5
17
102
{ACAD_REACTORS
330
C
102
}
330
C
100
AcDbDictionary
281
     1
  3
Standard
350
18
  0
DICTIONARY
  5
19
102
{ACAD_REACTORS
330
C
102
}
330
C
100
AcDbDictionary
281
     1
  0
ACDBDICTIONARYWDFLT
  5
E
102
{ACAD_REACTORS
330
C
102
}
330
C
100
AcDbDictionary
281
     1
  3
Normal
350
F
100
AcDbDictionaryWithDefault
340
F
  0
LAYOUT
  5
22
102
{ACAD_REACTORS
330
1A
102
}
330
1A
100
AcDbPlotSettings
  1

  2
A2 Printer TG2 RPCS
  4
A4
  6

 40
5.873749732971191
 41
5.873747825622557
 42
5.873748779296875
 43
5.873748779296875
 44
209.9733276367186
 45
296.9259948730469
 46
0.0
 47
0.0
 48
0.0
 49
0.0
140
0.0
141
0.0
142
1.0
143
1.0
 70
 11952
 72
     1
 73
     1
 74
     0
  7

 75
     0
147
1.0
148
-105.0458706198519
149
-115.2290829731887
100
AcDbLayout
  1
Model
 70
     1
 71
     0
 10
0.0
 20
0.0
 11
12.0
 21
9.0
 12
0.0
 22
0.0
 32
0.0
 14
0.0
 24
0.0
 34
0.0
 15
0.0
 25
0.0
 35
0.0
146
0.0
 13
0.0
 23
0.0
 33
0.0
 16
1.0
 26
0.0
 36
0.0
 17
0.0
 27
1.0
 37
0.0
 76
     0
330
1F
  0
LAYOUT
  5
1E
102
{ACAD_REACTORS
330
1A
102
}
330
1A
100
AcDbPlotSettings
  1

  2
A2 Printer TG2 RPCS
  4

  6

 40
0.0
 41
0.0
 42
0.0
 43
0.0
 44
0.0
 45
0.0
 46
0.0
 47
0.0
 48
0.0
 49
0.0
140
0.0
141
0.0
142
1.0
143
1.0
 70
   688
 72
     0
 73
     0
 74
     5
  7

 75
    16
147
1.0
148
0.0
149
0.0
100
AcDbLayout
  1
ﾚｲｱｳﾄ1
 70
     1
 71
     1
 10
0.0
 20
0.0
 11
420.0
 21
297.0
 12
0.0
 22
0.0
 32
0.0
 14
1.000000000000000E+20
 24
1.000000000000000E+20
 34
1.000000000000000E+20
 15
-1.000000000000000E+20
 25
-1.000000000000000E+20
 35
-1.000000000000000E+20
146
0.0
 13
0.0
 23
0.0
 33
0.0
 16
1.0
 26
0.0
 36
0.0
 17
0.0
 27
1.0
 37
0.0
 76
     0
330
1B
  0
LAYOUT
  5
26
102
{ACAD_REACTORS
330
1A
102
}
330
1A
100
AcDbPlotSettings
  1

  2
A2 Printer TG2 RPCS
  4

  6

 40
0.0
 41
0.0
 42
0.0
 43
0.0
 44
0.0
 45
0.0
 46
0.0
 47
0.0
 48
0.0
 49
0.0
140
0.0
141
0.0
142
1.0
143
1.0
 70
   688
 72
     0
 73
     0
 74
     5
  7

 75
    16
147
1.0
148
0.0
149
0.0
100
AcDbLayout
  1
ﾚｲｱｳﾄ2
 70
     1
 71
     2
 10
0.0
 20
0.0
 11
12.0
 21
9.0
 12
0.0
 22
0.0
 32
0.0
 14
0.0
 24
0.0
 34
0.0
 15
0.0
 25
0.0
 35
0.0
146
0.0
 13
0.0
 23
0.0
 33
0.0
 16
1.0
 26
0.0
 36
0.0
 17
0.0
 27
1.0
 37
0.0
 76
     0
330
23
  0
MLINESTYLE
  5
18
102
{ACAD_REACTORS
330
17
102
}
330
17
100
AcDbMlineStyle
  2
STANDARD
 70
     0
  3

 62
   256
 51
90.0
 52
90.0
 71
     2
 49
0.5
 62
   256
  6
BYLAYER
 49
-0.5
 62
   256
  6
BYLAYER
  0
ACDBPLACEHOLDER
  5
F
102
{ACAD_REACTORS
330
E
102
}
330
E
  0
ENDSEC
  0
EOF
