  0
SECTION
  2
HEADER
  9
$ACADVER
  1
AC1015
  9
$ACADMAINTVER
 70
    20
  9
$DWGCODEPAGE
  3
ANSI_932
  9
$INSBASE
 10
0.0
 20
0.0
 30
0.0
  9
$EXTMIN
 10
-3.020014896442489
 20
-50.32125823827948
 30
-0.0015258207003583
  9
$EXTMAX
 10
323.420176989638
 20
208.3227962189766
 30
0.0000000349246037
  9
$LIMMIN
 10
0.0
 20
0.0
  9
$LIMMAX
 10
420.0
 20
297.0
  9
$ORTHOMODE
 70
     0
  9
$REGENMODE
 70
     1
  9
$FILLMODE
 70
     1
  9
$QTEXTMODE
 70
     0
  9
$MIRRTEXT
 70
     1
  9
$LTSCALE
 40
1.0
  9
$ATTMODE
 70
     1
  9
$TEXTSIZE
 40
1.0
  9
$TRACEWID
 40
1.0
  9
$TEXTSTYLE
  7
ACISOTS
  9
$CLAYER
  8
AM_0
  9
$CELTYPE
  6
ByLayer
  9
$CECOLOR
 62
   256
  9
$CELTSCALE
 40
1.0
  9
$DISPSILH
 70
     0
  9
$DIMSCALE
 40
1.0
  9
$DIMASZ
 40
2.5
  9
$DIMEXO
 40
1.0
  9
$DIMDLI
 40
10.0
  9
$DIMRND
 40
0.0
  9
$DIMDLE
 40
0.0
  9
$DIMEXE
 40
1.0
  9
$DIMTP
 40
0.1
  9
$DIMTM
 40
0.1
  9
$DIMTXT
 40
3.5
  9
$DIMCEN
 40
0.0
  9
$DIMTSZ
 40
0.0
  9
$DIMTOL
 70
     0
  9
$DIMLIM
 70
     0
  9
$DIMTIH
 70
     0
  9
$DIMTOH
 70
     0
  9
$DIMSE1
 70
     0
  9
$DIMSE2
 70
     0
  9
$DIMTAD
 70
     3
  9
$DIMZIN
 70
     8
  9
$DIMBLK
  1
Open30
  9
$DIMASO
 70
     1
  9
$DIMSHO
 70
     1
  9
$DIMPOST
  1

  9
$DIMAPOST
  1
"
  9
$DIMALT
 70
     0
  9
$DIMALTD
 70
     2
  9
$DIMALTF
 40
0.0393701
  9
$DIMLFAC
 40
1.0
  9
$DIMTOFL
 70
     1
  9
$DIMTVP
 40
0.0
  9
$DIMTIX
 70
     0
  9
$DIMSOXD
 70
     0
  9
$DIMSAH
 70
     0
  9
$DIMBLK1
  1
Open30
  9
$DIMBLK2
  1
Open30
  9
$DIMSTYLE
  2
AM_JIS
  9
$DIMCLRD
 70
   256
  9
$DIMCLRE
 70
   256
  9
$DIMCLRT
 70
     2
  9
$DIMTFAC
 40
0.71
  9
$DIMGAP
 40
1.5
  9
$DIMJUST
 70
     0
  9
$DIMSD1
 70
     0
  9
$DIMSD2
 70
     0
  9
$DIMTOLJ
 70
     0
  9
$DIMTZIN
 70
     8
  9
$DIMALTZ
 70
     0
  9
$DIMALTTZ
 70
     0
  9
$DIMUPT
 70
     0
  9
$DIMDEC
 70
     2
  9
$DIMTDEC
 70
     3
  9
$DIMALTU
 70
     2
  9
$DIMALTTD
 70
     4
  9
$DIMTXSTY
  7
STANDARD
  9
$DIMAUNIT
 70
     0
  9
$DIMADEC
 70
     0
  9
$DIMALTRND
 40
0.0
  9
$DIMAZIN
 70
     2
  9
$DIMDSEP
 70
    46
  9
$DIMATFIT
 70
     3
  9
$DIMFRAC
 70
     0
  9
$DIMLDRBLK
  1
Open30
  9
$DIMLUNIT
 70
     2
  9
$DIMLWD
 70
    -1
  9
$DIMLWE
 70
    -1
  9
$DIMTMOVE
 70
     0
  9
$LUNITS
 70
     2
  9
$LUPREC
 70
     2
  9
$SKETCHINC
 40
1.0
  9
$FILLETRAD
 40
2.5
  9
$AUNITS
 70
     0
  9
$AUPREC
 70
     0
  9
$MENU
  1
.
  9
$ELEVATION
 40
0.0
  9
$PELEVATION
 40
0.0
  9
$THICKNESS
 40
0.0
  9
$LIMCHECK
 70
     0
  9
$CHAMFERA
 40
2.5
  9
$CHAMFERB
 40
2.5
  9
$CHAMFERC
 40
20.0
  9
$CHAMFERD
 40
0.0
  9
$SKPOLY
 70
     0
  9
$TDCREATE
 40
2456406.576683461
  9
$TDUCREATE
 40
2456406.201683461
  9
$TDUPDATE
 40
2456406.680925185
  9
$TDUUPDATE
 40
2456406.305925185
  9
$TDINDWG
 40
0.0082955556
  9
$TDUSRTIMER
 40
0.0082903009
  9
$USRTIMER
 70
     1
  9
$ANGBASE
 50
0.0
  9
$ANGDIR
 70
     0
  9
$PDMODE
 70
     0
  9
$PDSIZE
 40
0.0
  9
$PLINEWID
 40
0.0
  9
$SPLFRAME
 70
     0
  9
$SPLINETYPE
 70
     6
  9
$SPLINESEGS
 70
     8
  9
$HANDSEED
  5
13C6
  9
$SURFTAB1
 70
     6
  9
$SURFTAB2
 70
     6
  9
$SURFTYPE
 70
     6
  9
$SURFU
 70
     6
  9
$SURFV
 70
     6
  9
$UCSBASE
  2

  9
$UCSNAME
  2

  9
$UCSORG
 10
0.0
 20
0.0
 30
0.0
  9
$UCSXDIR
 10
1.0
 20
0.0
 30
0.0
  9
$UCSYDIR
 10
0.0
 20
1.0
 30
0.0
  9
$UCSORTHOREF
  2

  9
$UCSORTHOVIEW
 70
     0
  9
$UCSORGTOP
 10
0.0
 20
0.0
 30
0.0
  9
$UCSORGBOTTOM
 10
0.0
 20
0.0
 30
0.0
  9
$UCSORGLEFT
 10
0.0
 20
0.0
 30
0.0
  9
$UCSORGRIGHT
 10
0.0
 20
0.0
 30
0.0
  9
$UCSORGFRONT
 10
0.0
 20
0.0
 30
0.0
  9
$UCSORGBACK
 10
0.0
 20
0.0
 30
0.0
  9
$PUCSBASE
  2

  9
$PUCSNAME
  2

  9
$PUCSORG
 10
0.0
 20
0.0
 30
0.0
  9
$PUCSXDIR
 10
1.0
 20
0.0
 30
0.0
  9
$PUCSYDIR
 10
0.0
 20
1.0
 30
0.0
  9
$PUCSORTHOREF
  2

  9
$PUCSORTHOVIEW
 70
     0
  9
$PUCSORGTOP
 10
0.0
 20
0.0
 30
0.0
  9
$PUCSORGBOTTOM
 10
0.0
 20
0.0
 30
0.0
  9
$PUCSORGLEFT
 10
0.0
 20
0.0
 30
0.0
  9
$PUCSORGRIGHT
 10
0.0
 20
0.0
 30
0.0
  9
$PUCSORGFRONT
 10
0.0
 20
0.0
 30
0.0
  9
$PUCSORGBACK
 10
0.0
 20
0.0
 30
0.0
  9
$USERI1
 70
     0
  9
$USERI2
 70
     0
  9
$USERI3
 70
     0
  9
$USERI4
 70
     0
  9
$USERI5
 70
     0
  9
$USERR1
 40
0.0
  9
$USERR2
 40
0.0
  9
$USERR3
 40
0.0
  9
$USERR4
 40
0.0
  9
$USERR5
 40
0.0
  9
$WORLDVIEW
 70
     1
  9
$SHADEDGE
 70
     3
  9
$SHADEDIF
 70
    70
  9
$TILEMODE
 70
     1
  9
$MAXACTVP
 70
    64
  9
$PINSBASE
 10
0.0
 20
0.0
 30
0.0
  9
$PLIMCHECK
 70
     0
  9
$PEXTMIN
 10
1.000000000000000E+20
 20
1.000000000000000E+20
 30
1.000000000000000E+20
  9
$PEXTMAX
 10
-1.000000000000000E+20
 20
-1.000000000000000E+20
 30
-1.000000000000000E+20
  9
$PLIMMIN
 10
0.0
 20
0.0
  9
$PLIMMAX
 10
420.0
 20
297.0
  9
$UNITMODE
 70
     0
  9
$VISRETAIN
 70
     1
  9
$PLINEGEN
 70
     0
  9
$PSLTSCALE
 70
     1
  9
$TREEDEPTH
 70
  3020
  9
$CMLSTYLE
  2
Standard
  9
$CMLJUST
 70
     0
  9
$CMLSCALE
 40
20.0
  9
$PROXYGRAPHICS
 70
     1
  9
$MEASUREMENT
 70
     1
  9
$CELWEIGHT
370
    -1
  9
$ENDCAPS
280
     0
  9
$JOINSTYLE
280
     0
  9
$LWDISPLAY
290
     0
  9
$INSUNITS
 70
     4
  9
$HYPERLINKBASE
  1

  9
$STYLESHEET
  1

  9
$XEDIT
290
     1
  9
$CEPSNTYPE
380
     0
  9
$PSTYLEMODE
290
     1
  9
$FINGERPRINTGUID
  2
{A328EDCF-1531-4C95-8B98-251DC3D07E67}
  9
$VERSIONGUID
  2
{BF659B83-36BE-419D-A22B-3D9B3DADD5D9}
  9
$EXTNAMES
290
     1
  9
$PSVPSCALE
 40
0.0
  9
$OLESTARTUP
290
     0
  0
ENDSEC
  0
SECTION
  2
CLASSES
  0
CLASS
  1
ACDBDICTIONARYWDFLT
  2
AcDbDictionaryWithDefault
  3
ObjectDBX Classes
 90
        0
280
     0
281
     0
  0
CLASS
  1
ACDBPLACEHOLDER
  2
AcDbPlaceHolder
  3
ObjectDBX Classes
 90
        0
280
     0
281
     0
  0
CLASS
  1
LAYOUT
  2
AcDbLayout
  3
ObjectDBX Classes
 90
        0
280
     0
281
     0
  0
CLASS
  1
ACME_DOCUMENT
  2
AcMeDbDoc
  3
AcMeServices
 90
        0
280
     0
281
     0
  0
CLASS
  1
AMGSETTINGSOBJ
  2
AmgSettingsObj
  3
"AcadM|Product Description: AutoCAD Mechanical 2000|Company: Autodesk"
 90
        0
280
     0
281
     0
  0
CLASS
  1
ACMESCOPE
  2
AcMeScope
  3
AcMeServices
 90
        0
280
     0
281
     0
  0
CLASS
  1
ACMECOMMANDHISTORY
  2
AcMeCommandHistory
  3
AcMeServices
 90
        0
280
     0
281
     0
  0
CLASS
  1
ACIMSYSVARMAN
  2
AcImSysVarManager
  3
AcMeServices
 90
        0
280
     0
281
     0
  0
CLASS
  1
ACIMREALSYSVAR
  2
AcImRealSysVar
  3
AcMeServices
 90
        0
280
     0
281
     0
  0
CLASS
  1
ACIMINTSYSVAR
  2
AcImIntSysVar
  3
AcMeServices
 90
        0
280
     0
281
     0
  0
CLASS
  1
ACMEDRAWINGMAN
  2
AcMeDrawingMan
  3
AcMeServices
 90
        0
280
     0
281
     0
  0
CLASS
  1
ACMEVIEW
  2
AcMeView
  3
AcMeServices
 90
        0
280
     0
281
     0
  0
CLASS
  1
ACDBENTITYCACHE
  2
AcMeEntityCache
  3
AcMeServices
 90
        0
280
     0
281
     0
  0
CLASS
  1
GSMANAGER
  2
AcMeGSManager
  3
AcMeServices
 90
        0
280
     0
281
     0
  0
CLASS
  1
AMDTINTERNALREACTOR
  2
AmdtInternalReactor
  3
AcMeServices
 90
        0
280
     0
281
     0
  0
CLASS
  1
ACMESTATEMGR
  2
AcMeStateMgr
  3
AcMeServices
 90
        0
280
     0
281
     0
  0
CLASS
  1
ACGREFMASTER
  2
AcGrefMaster
  3
AcAttribServices
 90
        0
280
     0
281
     0
  0
CLASS
  1
ACME_DATABASE
  2
AcMeDbDatabase
  3
AcMeServices
 90
        0
280
     0
281
     0
  0
CLASS
  1
ACRFINSADJUSTERMGR
  2
AcRfInsAdjusterMgr
  3
AcMeServices
 90
        0
280
     0
281
     0
  0
CLASS
  1
ACGREFACADMASTER
  2
AcGrefacadMaster
  3
AcGrefServices
 90
        0
280
     0
281
     0
  0
CLASS
  1
AMIMASTER
  2
AmiMaster
  3
AmiServices
 90
        0
280
     0
281
     0
  0
CLASS
  1
ACMDATADICTIONARY
  2
AcmDataDictionary
  3
"AcmSymBB|Product Description: AutoCAD Mechanical 2004 DX|Company: Autodesk"
 90
        0
280
     0
281
     0
  0
CLASS
  1
ACMDATAENTRYBLOCK
  2
AcmDataEntryBlock
  3
"AcmSymBB|Product Description: AutoCAD Mechanical 2004 DX|Company: Autodesk"
 90
    32768
280
     0
281
     0
  0
CLASS
  1
ACIMSTRSYSVAR
  2
AcImStrSysVar
  3
AcMeServices
 90
        0
280
     0
281
     0
  0
CLASS
  1
ACMSTANDARDISO
  2
AcmStandardISO
  3
"Amdt_StdImp|Product Description: AutoCAD Mechanical 2004 DX|Company: Autodesk"
 90
    32768
280
     0
281
     0
  0
CLASS
  1
AMGOBJPROPCFG
  2
AmgObjPropCfg
  3
"AmgLay|Product Description: AutoCAD Mechanical 2000|Company: Autodesk"
 90
        1
280
     0
281
     0
  0
CLASS
  1
AMDTEDGESTANDARDISO
  2
AmdtEdgeStdISO
  3
"Amdt_StdImp|Product Description: AutoCAD Mechanical 2004 DX|Company: Autodesk"
 90
    32768
280
     0
281
     0
  0
CLASS
  1
ACMSURFSTANDARDISO
  2
AcmSurfTextStdISO
  3
"Amdt_StdImp|Product Description: AutoCAD Mechanical 2004 DX|Company: Autodesk"
 90
    32768
280
     0
281
     0
  0
CLASS
  1
ACMFCFSTANDARDISO
  2
AcmFCFStdISO
  3
"Amdt_StdImp|Product Description: AutoCAD Mechanical 2004 DX|Company: Autodesk"
 90
    32768
280
     0
281
     0
  0
CLASS
  1
ACMWELDSTANDARDISO
  2
AcmWeldingStdISO
  3
"Amdt_StdImp|Product Description: AutoCAD Mechanical 2004 DX|Company: Autodesk"
 90
    32768
280
     0
281
     0
  0
CLASS
  1
ACMIDSTANDARDISO
  2
AcmIdStdISO
  3
"Amdt_StdImp|Product Description: AutoCAD Mechanical 2004 DX|Company: Autodesk"
 90
    32768
280
     0
281
     0
  0
CLASS
  1
ACMDATUMSTANDARDISO
  2
AcmDatumStdISO
  3
"Amdt_StdImp|Product Description: AutoCAD Mechanical 2004 DX|Company: Autodesk"
 90
    32768
280
     0
281
     0
  0
CLASS
  1
ACMBOMSTANDARDISO
  2
AcmBOMStdISO
  3
"Amdt_StdImp|Product Description: AutoCAD Mechanical 2004 DX|Company: Autodesk"
 90
    32768
280
     0
281
     0
  0
CLASS
  1
ACMDETAILSTANDARDISO
  2
AmdtDetailSymStdISO
  3
"Amdt_StdImp|Product Description: AutoCAD Mechanical 2004 DX|Company: Autodesk"
 90
    32768
280
     0
281
     0
  0
CLASS
  1
ACMSECTIONSTANDARDISO
  2
AmdtSectionSymStdISO
  3
"Amdt_StdImp|Product Description: AutoCAD Mechanical 2004 DX|Company: Autodesk"
 90
    32768
280
     0
281
     0
  0
CLASS
  1
ACMCENTERLINESTANDARDISO
  2
AmdtCenterLineStdISO
  3
"Amdt_StdImp|Product Description: AutoCAD Mechanical 2004 DX|Company: Autodesk"
 90
    32768
280
     0
281
     0
  0
CLASS
  1
ACMNOTESTANDARDISO
  2
AmdtNoteStdISO
  3
"Amdt_StdImp|Product Description: AutoCAD Mechanical 2004 DX|Company: Autodesk"
 90
    32768
280
     0
281
     0
  0
CLASS
  1
ACAMGLAYSTD
  2
AcAmgLayStd
  3
"AcAmgLayStd|Product Description: AutoCAD Mechanical 2000|Company: Autodesk"
 90
        0
280
     0
281
     0
  0
CLASS
  1
ACAMGDIMSTD
  2
AcAmgDimStd
  3
"AcAmgDimStd|Product Description: AutoCAD Mechanical 2000|Company: Autodesk"
 90
        0
280
     0
281
     0
  0
CLASS
  1
ACAMGHOLECHARTSTDISO
  2
AcAmgHoleChartStdISO
  3
ACMSYMBB_MODULE_NAME
 90
    32768
280
     0
281
     0
  0
CLASS
  1
ACAMGTITLESTD
  2
AcAmgTitleStd
  3
"TITLEAPP"
 90
        0
280
     0
281
     0
  0
CLASS
  1
LAYER_INDEX
  2
AcDbLayerIndex
  3
ObjectDBX Classes
 90
    32768
280
     0
281
     0
  0
CLASS
  1
IDBUFFER
  2
AcDbIdBuffer
  3
ObjectDBX Classes
 90
    32768
280
     0
281
     0
  0
CLASS
  1
DICTIONARYVAR
  2
AcDbDictionaryVar
  3
ObjectDBX Classes
 90
        0
280
     0
281
     0
  0
CLASS
  1
AM_DRAWING_MGR
  2
AcDmDwgMgr
  3
AcMechDwgViewMgmt
 90
        0
280
     0
281
     0
  0
CLASS
  1
AM_DWG_DOCUMENT
  2
AcDmDwgDocument
  3
AcMechDwgViewMgmt
 90
        0
280
     0
281
     0
  0
CLASS
  1
AM_DWG_SHEET
  2
AcDmSheet
  3
AcMechDwgViewMgmt
 90
        0
280
     0
281
     0
  0
CLASS
  1
AM_VIEWDIMPARMAP
  2
AcDmViewDimParMap
  3
AcMechDwgViewMgmt
 90
        0
280
     0
281
     0
  0
CLASS
  1
AM_DWGMGR_NAME
  2
AcDmDwgMgrName
  3
AcMechDwgViewMgmt
 90
        0
280
     0
281
     0
  0
CLASS
  1
AMDTMENUSTATEMGR
  2
AmdtMenuStateMgr
  3
McadcomServices
 90
        0
280
     0
281
     0
  0
CLASS
  1
AMDTMCOMMENUSTATE
  2
AmdtMcomMenuState
  3
McadcomServices
 90
        0
280
     0
281
     0
  0
CLASS
  1
MAPIAMMOUDLE
  2
MApiAmModule
  3
MApiAmServices
 90
        0
280
     0
281
     0
  0
CLASS
  1
AMDTADMENUSTATE
  2
AmdtAdMenuState
  3
DesignerServices
 90
        0
280
     0
281
     0
  0
CLASS
  1
ADAPPL
  2
AcAdAppl
  3
DesignerServices
 90
        0
280
     0
281
     0
  0
CLASS
  1
DEPMGR
  2
AcAdDepMgr
  3
DesignerServices
 90
        0
280
     0
281
     0
  0
CLASS
  1
PARAMMGR
  2
AcAdParamMgr
  3
DesignerServices
 90
        0
280
     0
281
     0
  0
CLASS
  1
PARAMSCOPE
  2
AcAdParamScope
  3
DesignerServices
 90
        0
280
     0
281
     0
  0
CLASS
  1
NAMEDAPPL
  2
AcAdNamedAppl
  3
DesignerServices
 90
        0
280
     0
281
     0
  0
CLASS
  1
AMDTDMMENUSTATE
  2
AmdtDmMenuState
  3
AcMechDwgViewMgmt
 90
        0
280
     0
281
     0
  0
CLASS
  1
AMDTAMMENUSTATE
  2
AmdtAmMenuState
  3
DesignerAssemblies
 90
        0
280
     0
281
     0
  0
CLASS
  1
ACAMPROJECT
  2
AcAmProject
  3
DesignerAssemblies
 90
        0
280
     0
281
     0
  0
CLASS
  1
ACAMGRCOMPDEF
  2
AcAmGrCompDef
  3
DesignerAssemblies
 90
        0
280
     0
281
     0
  0
CLASS
  1
ACCMCONTEXT
  2
AcCmContext
  3
DesignerAssemblies
 90
        0
280
     0
281
     0
  0
CLASS
  1
ACAMCOMPDEF
  2
AcAmCompDef
  3
DesignerAssemblies
 90
        0
280
     0
281
     0
  0
CLASS
  1
ACAMCOMPDEFMGR
  2
AcAmCompDefMgr
  3
DesignerAssemblies
 90
        0
280
     0
281
     0
  0
CLASS
  1
AMCONTEXTMGR
  2
AcAmContextMgr
  3
DesignerAssemblies
 90
        0
280
     0
281
     0
  0
CLASS
  1
ACAMCONTEXTMODELER
  2
AcAmContextModeler
  3
DesignerAssemblies
 90
        0
280
     0
281
     0
  0
CLASS
  1
ACMTHREADLINESTANDARDISO
  2
AmdtThreadLineStdISO
  3
"Amdt_StdImp|Product Description: AutoCAD Mechanical 2004 DX|Company: Autodesk"
 90
    32768
280
     0
281
     0
  0
CLASS
  1
CATALOGSTATE
  2
AcAmCatalogState
  3
DesignerAssemblies
 90
        0
280
     0
281
     0
  0
CLASS
  1
ACAMGRCOMPDEFSET
  2
AcAmGrCompDefSet
  3
DesignerAssemblies
 90
        0
280
     0
281
     0
  0
CLASS
  1
AMDTBROWSERDBTAB
  2
AmdtBrowserDbTab
  3
McadcomServices
 90
        0
280
     0
281
     0
  0
CLASS
  1
CBROWSERAPPOBJECT
  2
CBrowserAppObject
  3
McadcomServices
 90
        0
280
     0
281
     0
  0
CLASS
  1
DM_PLACEHOLDER
  2
AcDmSelsetPlaceholder
  3
AcMechDwgViewMgmt
 90
        0
280
     0
281
     0
  0
CLASS
  1
TABLESTYLE
  2
AcDbTableStyle
  3
ObjectDBX Classes
 90
     2047
280
     0
281
     0
  0
CLASS
  1
VAACXREFPANELOBJECT
  2
VaAcXREFPanelObject
  3
VAAC_ADDIN
 90
    32768
280
     0
281
     0
  0
CLASS
  1
VAACIMAGEINVENTORY
  2
VaAcImageInventory
  3
VAAC_ADDIN
 90
    32768
280
     0
281
     0
  0
CLASS
  1
AMDTNOTETEMPLATEDB
  2
AmdtNoteTemplateDB
  3
AMDT_STDIMP_MODULE_NAME
 90
        0
280
     0
281
     0
  0
CLASS
  1
ACMBOM
  2
AcmBom
  3
"AcmSymBB|Product Description: AutoCAD Mechanical 2004 DX|Company: Autodesk"
 90
    32768
280
     0
281
     0
  0
CLASS
  1
AMDTFORMULAUPDATEDISPATCHER
  2
AmdtFormulaUpdateDispatcher
  3
AcMeServices
 90
    32768
280
     0
281
     0
  0
CLASS
  1
ACMPARTLIST
  2
AcmPartList
  3
"AcmSymBB|Product Description: AutoCAD Mechanical 2004 DX|Company: Autodesk"
 90
    33791
280
     0
281
     1
  0
CLASS
  1
ACAMGFILTERDAT
  2
AcAmgFilterDat
  3
"AcadM|Product Description: AutoCAD Mechanical 2000|Company: Autodesk"
 90
    32768
280
     0
281
     0
  0
CLASS
  1
SORTENTSTABLE
  2
AcDbSortentsTable
  3
ObjectDBX Classes
 90
        0
280
     0
281
     0
  0
CLASS
  1
ACMSTANDARDJIS
  2
AcmStandardJIS
  3
"Amdt_StdImp|Product Description: AutoCAD Mechanical 2004 DX|Company: Autodesk"
 90
        0
280
     0
281
     0
  0
CLASS
  1
ACMSURFSTANDARDJIS
  2
AcmSurfTextStdJIS
  3
"Amdt_StdImp|Product Description: AutoCAD Mechanical 2004 DX|Company: Autodesk"
 90
        0
280
     0
281
     0
  0
CLASS
  1
ACMFCFSTANDARDJIS
  2
AcmFCFStdJIS
  3
"Amdt_StdImp|Product Description: AutoCAD Mechanical 2004 DX|Company: Autodesk"
 90
        0
280
     0
281
     0
  0
CLASS
  1
ACMWELDSTANDARDJIS
  2
AcmWeldingStdJIS
  3
"Amdt_StdImp|Product Description: AutoCAD Mechanical 2004 DX|Company: Autodesk"
 90
        0
280
     0
281
     0
  0
CLASS
  1
ACMIDSTANDARDJIS
  2
AcmIdStdJIS
  3
"Amdt_StdImp|Product Description: AutoCAD Mechanical 2004 DX|Company: Autodesk"
 90
        0
280
     0
281
     0
  0
CLASS
  1
ACMDATUMSTANDARDJIS
  2
AcmDatumStdJIS
  3
"Amdt_StdImp|Product Description: AutoCAD Mechanical 2004 DX|Company: Autodesk"
 90
        0
280
     0
281
     0
  0
CLASS
  1
ACMBOMSTANDARDJIS
  2
AcmBOMStdJIS
  3
"Amdt_StdImp|Product Description: AutoCAD Mechanical 2004 DX|Company: Autodesk"
 90
        0
280
     0
281
     0
  0
CLASS
  1
ACMDETAILSTANDARDJIS
  2
AmdtDetailSymStdJIS
  3
"Amdt_StdImp|Product Description: AutoCAD Mechanical 2004 DX|Company: Autodesk"
 90
        0
280
     0
281
     0
  0
CLASS
  1
ACMSECTIONSTANDARDJIS
  2
AmdtSectionSymStdJIS
  3
"Amdt_StdImp|Product Description: AutoCAD Mechanical 2004 DX|Company: Autodesk"
 90
        0
280
     0
281
     0
  0
CLASS
  1
ACMCENTERLINESTANDARDJIS
  2
AmdtCenterLineStdJIS
  3
"Amdt_StdImp|Product Description: AutoCAD Mechanical 2004 DX|Company: Autodesk"
 90
        0
280
     0
281
     0
  0
CLASS
  1
ACMTHREADLINESTANDARDJIS
  2
AmdtThreadLineStdJIS
  3
"Amdt_StdImp|Product Description: AutoCAD Mechanical 2004 DX|Company: Autodesk"
 90
        0
280
     0
281
     0
  0
CLASS
  1
ACMNOTESTANDARDJIS
  2
AmdtNoteStdJIS
  3
"Amdt_StdImp|Product Description: AutoCAD Mechanical 2004 DX|Company: Autodesk"
 90
        0
280
     0
281
     0
  0
CLASS
  1
ACAMGHOLECHARTSTDJIS
  2
AcAmgHoleChartStdJIS
  3
ACMSYMBB_MODULE_NAME
 90
        0
280
     0
281
     0
  0
CLASS
  1
ACRFATTGENMGR
  2
AcRfAttGeneralMgr
  3
AcAttribServices
 90
    32768
280
     0
281
     0
  0
CLASS
  1
DIMASSOC
  2
AcDbDimAssoc
  3
"AcDbDimAssoc|Product Desc:     AcDim ARX App For Dimension|Company:          Autodesk, Inc.|WEB Address:      www.autodesk.com"
 90
    32768
280
     0
281
     0
  0
ENDSEC
  0
SECTION
  2
TABLES
  0
TABLE
  2
VPORT
  5
8
330
0
100
AcDbSymbolTable
 70
     3
  0
VPORT
  5
13BD
330
8
100
AcDbSymbolTableRecord
100
AcDbViewportTableRecord
  2
*Active
 70
     0
 10
0.0
 20
0.0
 11
1.0
 21
1.0
 12
160.2000810465977
 22
79.00076899034854
 13
0.0
 23
0.0
 14
2.5
 24
2.5
 15
10.0
 25
10.0
 16
0.0
 26
0.0
 36
1.0
 17
0.0
 27
0.0
 37
0.0
 40
520.5245308680961
 41
1.954070981210855
 42
50.0
 43
0.0
 44
0.0
 50
0.0
 51
0.0
 71
     0
 72
   100
 73
     1
 74
     3
 75
     0
 76
     0
 77
     0
 78
     0
281
     0
 65
     1
110
0.0
120
0.0
130
0.0
111
1.0
121
0.0
131
0.0
112
0.0
122
1.0
132
0.0
 79
     0
146
0.0
  0
ENDTAB
  0
TABLE
  2
LTYPE
  5
5
330
0
100
AcDbSymbolTable
 70
    17
  0
LTYPE
  5
14
330
5
100
AcDbSymbolTableRecord
100
AcDbLinetypeTableRecord
  2
ByBlock
 70
     0
  3

 72
    65
 73
     0
 40
0.0
  0
LTYPE
  5
15
330
5
100
AcDbSymbolTableRecord
100
AcDbLinetypeTableRecord
  2
ByLayer
 70
     0
  3

 72
    65
 73
     0
 40
0.0
  0
LTYPE
  5
16
330
5
100
AcDbSymbolTableRecord
100
AcDbLinetypeTableRecord
  2
Continuous
 70
     0
  3
Solid line
 72
    65
 73
     0
 40
0.0
  0
LTYPE
  5
64
330
5
100
AcDbSymbolTableRecord
100
AcDbLinetypeTableRecord
  2
AM_ISO02W050
 70
     0
  3
__ __ __ __ __ __ __ __ __ __ __ __ __ __ __
 72
    65
 73
     2
 40
7.5
 49
6.0
 74
     0
 49
-1.5
 74
     0
  0
LTYPE
  5
65
330
5
100
AcDbSymbolTableRecord
100
AcDbLinetypeTableRecord
  2
AM_ISO08W050
 70
     0
  3
____ . ____ . ____ . ____ . ____ . ____ . ____
 72
    65
 73
     4
 40
18.0
 49
12.0
 74
     0
 49
-1.5
 74
     0
 49
3.0
 74
     0
 49
-1.5
 74
     0
  0
LTYPE
  5
66
330
5
100
AcDbSymbolTableRecord
100
AcDbLinetypeTableRecord
  2
AM_ISO09W050
 70
     0
  3
_____ . . _____ . . _____ . . ____ .. ____
 72
    65
 73
     6
 40
22.5
 49
12.0
 74
     0
 49
-1.5
 74
     0
 49
3.0
 74
     0
 49
-1.5
 74
     0
 49
3.0
 74
     0
 49
-1.5
 74
     0
  0
LTYPE
  5
67
330
5
100
AcDbSymbolTableRecord
100
AcDbLinetypeTableRecord
  2
Amconstr
 70
     0
  3
_______________________
 72
    65
 73
     2
 40
9999.0
 49
9999.0
 74
     0
 49
0.0
 74
     0
  0
LTYPE
  5
68
330
5
100
AcDbSymbolTableRecord
100
AcDbLinetypeTableRecord
  2
AM_ISO08W050x2
 70
     0
  3
__ . __ . __ . __ . __ . __
 72
    65
 73
     4
 40
9.0
 49
6.0
 74
     0
 49
-0.75
 74
     0
 49
1.5
 74
     0
 49
-0.75
 74
     0
  0
LTYPE
  5
69
330
5
100
AcDbSymbolTableRecord
100
AcDbLinetypeTableRecord
  2
AM_ISO02W050x2
 70
     0
  3
 _ _ _ _ _ _ _ _ _ _ _ _
 72
    65
 73
     2
 40
3.75
 49
3.0
 74
     0
 49
-0.75
 74
     0
  0
LTYPE
  5
6C
330
5
100
AcDbSymbolTableRecord
100
AcDbLinetypeTableRecord
  2
Amzigzag
 70
     0
  3
/\/-/\/-/\/-/\/-/\/-/\/
 72
    65
 73
     2
 40
11.0001
 49
0.0001
 74
     4
 75
   135
340
6B
 46
0.04
 50
0.0
 44
0.0
 45
0.0
 49
-11.0
 74
     0
  0
LTYPE
  5
7A
330
5
100
AcDbSymbolTableRecord
100
AcDbLinetypeTableRecord
  2
ACISOWELD
 70
     0
  3
_ _ _ _ _
 72
    65
 73
     2
 40
2.0
 49
2.0
 74
     0
 49
-1.0
 74
     0
  0
LTYPE
  5
7B
330
5
100
AcDbSymbolTableRecord
100
AcDbLinetypeTableRecord
  2
ACISOTGB
 70
     0
  3
__ . . __ . .
 72
    65
 73
     6
 40
9.0
 49
4.0
 74
     0
 49
-1.0
 74
     0
 49
1.0
 74
     0
 49
-1.0
 74
     0
 49
1.0
 74
     0
 49
-1.0
 74
     0
  0
LTYPE
  5
7C
330
5
100
AcDbSymbolTableRecord
100
AcDbLinetypeTableRecord
  2
ACISOTGL
 70
     0
  3
_ _ _ _ _
 72
    65
 73
     2
 40
3.0
 49
2.0
 74
     0
 49
-1.0
 74
     0
  0
LTYPE
  5
7E
330
5
100
AcDbSymbolTableRecord
100
AcDbLinetypeTableRecord
  2
CENTER
 70
     0
  3
__ . __
 72
    65
 73
     4
 40
7.0
 49
4.0
 74
     0
 49
-1.0
 74
     0
 49
1.0
 74
     0
 49
-1.0
 74
     0
  0
LTYPE
  5
D8
330
5
100
AcDbSymbolTableRecord
100
AcDbLinetypeTableRecord
  2
HIDDEN
 70
     0
  3
Hidden __ __ __ __ __ __ __ __ __ __ __ __ __ _
 72
    65
 73
     2
 40
9.524999999999996
 49
6.349999999999997
 74
     0
 49
-3.174999999999998
 74
     0
  0
LTYPE
  5
D9
330
5
100
AcDbSymbolTableRecord
100
AcDbLinetypeTableRecord
  2
PHANTOM2
 70
     0
  3
Phantom (.5x) ___ _ _ ___ _ _ ___ _ _ ___ _ _
 72
    65
 73
     6
 40
31.75
 49
15.875
 74
     0
 49
-3.174999999999998
 74
     0
 49
3.174999999999998
 74
     0
 49
-3.174999999999998
 74
     0
 49
3.174999999999998
 74
     0
 49
-3.174999999999998
 74
     0
  0
LTYPE
  5
207
330
5
100
AcDbSymbolTableRecord
100
AcDbLinetypeTableRecord
  2
ACJISTGB
 70
     0
  3
__ . . __ . .
 72
    65
 73
     6
 40
9.0
 49
4.0
 74
     0
 49
-1.0
 74
     0
 49
1.0
 74
     0
 49
-1.0
 74
     0
 49
1.0
 74
     0
 49
-1.0
 74
     0
  0
LTYPE
  5
208
330
5
100
AcDbSymbolTableRecord
100
AcDbLinetypeTableRecord
  2
ACJISTGL
 70
     0
  3
_ _ _ _ _
 72
    65
 73
     2
 40
3.0
 49
2.0
 74
     0
 49
-1.0
 74
     0
  0
LTYPE
  5
7FB
330
5
100
AcDbSymbolTableRecord
100
AcDbLinetypeTableRecord
  2
ACJISWELD
 70
     0
  3
_ _ _ _ _
 72
    65
 73
     2
 40
2.0
 49
2.0
 74
     0
 49
-1.0
 74
     0
  0
ENDTAB
  0
TABLE
  2
LAYER
  5
2
102
{ACAD_XDICTIONARY
360
21A
102
}
330
0
100
AcDbSymbolTable
 70
     4
  0
LAYER
  5
10
330
2
100
AcDbSymbolTableRecord
100
AcDbLayerTableRecord
  2
0
 70
     0
 62
     7
  6
Continuous
370
    -3
390
F
  0
LAYER
  5
1B0
330
2
100
AcDbSymbolTableRecord
100
AcDbLayerTableRecord
  2
AM_5
 70
     0
 62
     3
  6
Continuous
370
    25
390
F
  0
LAYER
  5
1FD
330
2
100
AcDbSymbolTableRecord
100
AcDbLayerTableRecord
  2
AM_0
 70
     0
 62
     7
  6
Continuous
370
    50
390
F
  0
LAYER
  5
1224
330
2
100
AcDbSymbolTableRecord
100
AcDbLayerTableRecord
  2
Defpoints
 70
     0
 62
     7
  6
Continuous
290
     0
370
    -3
390
F
  0
ENDTAB
  0
TABLE
  2
STYLE
  5
3
330
0
100
AcDbSymbolTable
 70
     9
  0
STYLE
  5
11
330
3
100
AcDbSymbolTableRecord
100
AcDbTextStyleTableRecord
  2
STANDARD
 70
     0
 40
0.0
 41
1.0
 50
0.0
 71
     0
 42
2.5
  3
ISOCP.SHX
  4
extfont.shx
  0
STYLE
  5
6B
330
3
100
AcDbSymbolTableRecord
100
AcDbTextStyleTableRecord
  2

 70
     1
 40
0.0
 41
1.0
 50
0.0
 71
     0
 42
2.5
  3
ltypeshp.shx
  4

  0
STYLE
  5
6D
330
3
100
AcDbSymbolTableRecord
100
AcDbTextStyleTableRecord
  2
ACISOTS
 70
     0
 40
1.0
 41
1.0
 50
0.0
 71
     0
 42
1.0
  3
isocp.shx
  4
extfont.shx
  0
STYLE
  5
79
330
3
100
AcDbSymbolTableRecord
100
AcDbTextStyleTableRecord
  2
ACISOGDT
 70
     0
 40
0.0
 41
1.0
 50
0.0
 71
     0
 42
2.5
  3
amgdt.shx
  4
extfont.shx
  0
STYLE
  5
1F8
330
3
100
AcDbSymbolTableRecord
100
AcDbTextStyleTableRecord
  2
USER1
 70
     0
 40
0.0
 41
1.0
 50
0.0
 71
     0
 42
1.0
  3
TXT.SHX
  4

  0
STYLE
  5
1F9
330
3
100
AcDbSymbolTableRecord
100
AcDbTextStyleTableRecord
  2
USER2
 70
     0
 40
0.0
 41
1.0
 50
0.0
 71
     0
 42
1.0
  3
SIMPLEX.SHX
  4

  0
STYLE
  5
1FA
330
3
100
AcDbSymbolTableRecord
100
AcDbTextStyleTableRecord
  2
USER3
 70
     0
 40
0.0
 41
1.0
 50
0.0
 71
     0
 42
1.0
  3
ITALIC.SHX
  4

  0
STYLE
  5
1FB
330
3
100
AcDbSymbolTableRecord
100
AcDbTextStyleTableRecord
  2
ACJISTS
 70
     0
 40
1.0
 41
1.0
 50
0.0
 71
     0
 42
2.5
  3
isocp.shx
  4
extfont.shx
  0
STYLE
  5
1FC
330
3
100
AcDbSymbolTableRecord
100
AcDbTextStyleTableRecord
  2
ACJISGDT
 70
     0
 40
0.0
 41
1.0
 50
0.0
 71
     0
 42
2.5
  3
amgdt.shx
  4
extfont.shx
  0
ENDTAB
  0
TABLE
  2
VIEW
  5
6
330
0
100
AcDbSymbolTable
 70
     0
  0
ENDTAB
  0
TABLE
  2
UCS
  5
7
330
0
100
AcDbSymbolTable
 70
     0
  0
ENDTAB
  0
TABLE
  2
APPID
  5
9
330
0
100
AcDbSymbolTable
 70
    18
  0
APPID
  5
12
330
9
100
AcDbSymbolTableRecord
100
AcDbRegAppTableRecord
  2
ACAD
 70
     0
  0
APPID
  5
46
330
9
100
AcDbSymbolTableRecord
100
AcDbRegAppTableRecord
  2
MCAD_NO_VIS
 70
     0
  0
APPID
  5
47
330
9
100
AcDbSymbolTableRecord
100
AcDbRegAppTableRecord
  2
ACAD_TEMP_GRAPHIC
 70
     0
  0
APPID
  5
58
330
9
100
AcDbSymbolTableRecord
100
AcDbRegAppTableRecord
  2
ACATTRIBSERVICES
 70
     0
  0
APPID
  5
EE
330
9
100
AcDbSymbolTableRecord
100
AcDbRegAppTableRecord
  2
AD_DRAW
 70
     0
  0
APPID
  5
10C
330
9
100
AcDbSymbolTableRecord
100
AcDbRegAppTableRecord
  2
DESIGNERASSEMBLIES
 70
     0
  0
APPID
  5
111
330
9
100
AcDbSymbolTableRecord
100
AcDbRegAppTableRecord
  2
ACADM_DIM_EDIT
 70
     0
  0
APPID
  5
112
330
9
100
AcDbSymbolTableRecord
100
AcDbRegAppTableRecord
  2
AMDT_DM_ADJ
 70
     0
  0
APPID
  5
210
330
9
100
AcDbSymbolTableRecord
100
AcDbRegAppTableRecord
  2
GENIUS_GENREC_14
 70
     0
  0
APPID
  5
211
330
9
100
AcDbSymbolTableRecord
100
AcDbRegAppTableRecord
  2
GENIUS_GENODEF_13
 70
     0
  0
APPID
  5
212
330
9
100
AcDbSymbolTableRecord
100
AcDbRegAppTableRecord
  2
GENIUS_GENOBJ-N-REC_13
 70
     0
  0
APPID
  5
213
330
9
100
AcDbSymbolTableRecord
100
AcDbRegAppTableRecord
  2
GENIUS_GENOBJ-N-FIL_13
 70
     0
  0
APPID
  5
214
330
9
100
AcDbSymbolTableRecord
100
AcDbRegAppTableRecord
  2
GENIUS_GENOREF_13
 70
     0
  0
APPID
  5
215
330
9
100
AcDbSymbolTableRecord
100
AcDbRegAppTableRecord
  2
GENIUS_GENOBJ-N-CEN_13
 70
     0
  0
APPID
  5
216
330
9
100
AcDbSymbolTableRecord
100
AcDbRegAppTableRecord
  2
GENIUS_GENCEN_19
 70
     0
  0
APPID
  5
217
330
9
100
AcDbSymbolTableRecord
100
AcDbRegAppTableRecord
  2
GENIUS_GENFIL_13
 70
     0
  0
APPID
  5
218
330
9
100
AcDbSymbolTableRecord
100
AcDbRegAppTableRecord
  2
GENIUS_GENOBJ-N-CHA_13
 70
     0
  0
APPID
  5
219
330
9
100
AcDbSymbolTableRecord
100
AcDbRegAppTableRecord
  2
ACAD_PSEXT
 70
     0
  0
ENDTAB
  0
TABLE
  2
DIMSTYLE
  5
A
330
0
100
AcDbSymbolTable
 70
    16
100
AcDbDimStyleTable
 71
     2
340
1FE
340
81
  0
DIMSTYLE
105
27
330
A
100
AcDbSymbolTableRecord
100
AcDbDimStyleTableRecord
  2
ISO-25
 70
     0
 41
2.5
 42
0.625
 43
3.75
 44
1.25
 73
     0
 74
     0
 77
     1
 78
     8
140
2.5
141
2.5
143
0.03937007874016
147
0.625
171
     3
172
     1
271
     2
272
     2
274
     3
278
    44
283
     0
284
     8
340
11
  0
DIMSTYLE
105
81
330
A
100
AcDbSymbolTableRecord
100
AcDbDimStyleTableRecord
  2
AM_ISO
 70
     0
  4
"
 41
2.5
 42
1.0
 43
10.0
 44
1.0
 47
0.1
 48
0.1
 73
     0
 74
     0
 77
     1
 78
     8
 79
     2
140
3.5
141
0.0
143
0.0393701
146
0.71
147
1.5
172
     1
176
   256
177
   256
178
     2
271
     2
272
     3
274
     4
283
     0
284
     8
340
11
371
    -1
372
    -1
  0
DIMSTYLE
105
82
330
A
100
AcDbSymbolTableRecord
100
AcDbDimStyleTableRecord
  2
AM_ISO$3
 70
     0
  4
"
 41
2.5
 42
1.0
 43
10.0
 44
1.0
 47
0.1
 48
0.1
 73
     0
 77
     1
 78
     8
 79
     2
140
3.5
141
0.0
143
0.0393701
146
0.71
147
1.5
176
   256
177
   256
178
     2
271
     2
272
     3
274
     4
283
     0
284
     8
288
     1
289
     0
340
11
371
    -1
372
    -1
  0
DIMSTYLE
105
83
330
A
100
AcDbSymbolTableRecord
100
AcDbDimStyleTableRecord
  2
AM_ISO$4
 70
     0
  4
"
 41
2.5
 42
1.0
 43
10.0
 44
1.0
 47
0.1
 48
0.1
 73
     0
 77
     1
 78
     8
 79
     2
140
3.5
141
0.0
143
0.0393701
146
0.71
147
1.5
176
   256
177
   256
178
     2
271
     2
272
     3
274
     4
283
     0
284
     8
288
     1
289
     0
340
11
371
    -1
372
    -1
  0
DIMSTYLE
105
84
330
A
100
AcDbSymbolTableRecord
100
AcDbDimStyleTableRecord
  2
AM_ISO$6
 70
     0
  4
"
 41
2.5
 42
1.0
 43
10.0
 44
1.0
 47
0.1
 48
0.1
 73
     0
 74
     0
 78
     8
 79
     2
140
3.5
141
0.0
143
0.0393701
146
0.71
147
1.5
172
     1
176
   256
177
   256
178
     2
271
     2
272
     3
274
     4
283
     0
284
     8
340
11
371
    -1
372
    -1
  0
DIMSTYLE
105
85
330
A
100
AcDbSymbolTableRecord
100
AcDbDimStyleTableRecord
  2
AM_ISO$7
 70
     0
  4
"
 41
2.5
 42
1.0
 43
10.0
 44
1.0
 47
0.1
 48
0.1
 73
     0
 74
     0
 77
     1
 78
     8
 79
     2
140
5.0
141
0.0
143
0.0393701
146
0.71
147
1.5
172
     1
176
   256
177
   256
178
     2
271
     2
272
     3
274
     4
283
     0
284
     8
340
11
371
    -1
372
    -1
  0
DIMSTYLE
105
86
330
A
100
AcDbSymbolTableRecord
100
AcDbDimStyleTableRecord
  2
AM_ISO$SF
 70
     0
  4
"
 41
2.5
 42
1.0
 43
10.0
 44
1.0
 47
0.1
 48
0.1
 73
     0
 74
     0
 75
     1
 76
     1
 77
     1
 78
     8
 79
     2
140
3.5
141
0.0
143
0.0393701
146
0.71
147
1.5
172
     1
176
   256
177
   256
178
     2
271
     2
272
     3
274
     4
283
     0
284
     8
340
11
371
    -1
372
    -1
  0
DIMSTYLE
105
8B
330
A
100
AcDbSymbolTableRecord
100
AcDbDimStyleTableRecord
  2
AM_ISO$SH
 70
     0
  4
"
 41
2.5
 42
1.0
 43
10.0
 44
1.0
 47
0.1
 48
0.1
 73
     0
 74
     0
 75
     1
 76
     1
 77
     1
 78
     8
 79
     2
140
3.5
141
0.0
143
0.0393701
144
2.0
146
0.71
147
1.5
172
     1
173
     1
176
   256
177
   256
178
     2
271
     2
272
     3
274
     4
283
     0
284
     8
340
11
343
87
371
    -1
372
    -1
  0
DIMSTYLE
105
1FE
330
A
100
AcDbSymbolTableRecord
100
AcDbDimStyleTableRecord
  2
AM_JIS
 70
     0
  4
"
 41
2.5
 42
1.0
 43
10.0
 44
1.0
 47
0.1
 48
0.1
 73
     0
 74
     0
 77
     3
 78
     8
 79
     2
140
3.5
141
0.0
143
0.0393701
146
0.71
147
1.5
172
     1
176
   256
177
   256
178
     2
271
     2
272
     3
274
     4
283
     0
284
     8
340
11
341
1FF
342
1FF
343
1FF
344
1FF
371
    -1
372
    -1
  0
DIMSTYLE
105
209
330
A
100
AcDbSymbolTableRecord
100
AcDbDimStyleTableRecord
  2
AM_JIS$3
 70
     0
  4
"
 41
2.5
 42
1.0
 43
10.0
 44
1.0
 47
0.1
 48
0.1
 73
     0
 77
     3
 78
     8
 79
     2
140
3.5
141
0.0
143
0.0393701
146
0.71
147
1.5
176
   256
177
   256
178
     2
271
     2
272
     3
274
     4
283
     0
284
     8
288
     1
289
     0
340
11
341
1FF
342
1FF
343
1FF
344
1FF
371
    -1
372
    -1
  0
DIMSTYLE
105
20A
330
A
100
AcDbSymbolTableRecord
100
AcDbDimStyleTableRecord
  2
AM_JIS$4
 70
     0
  4
"
 41
2.5
 42
1.0
 43
10.0
 44
1.0
 47
0.1
 48
0.1
 73
     0
 77
     3
 78
     8
 79
     2
140
3.5
141
0.0
143
0.0393701
146
0.71
147
1.5
176
   256
177
   256
178
     2
271
     2
272
     3
274
     4
283
     0
284
     8
288
     1
289
     0
340
11
341
1FF
342
1FF
343
1FF
344
1FF
371
    -1
372
    -1
  0
DIMSTYLE
105
20B
330
A
100
AcDbSymbolTableRecord
100
AcDbDimStyleTableRecord
  2
AM_JIS$6
 70
     0
  4
"
 41
2.5
 42
1.0
 43
10.0
 44
1.0
 47
0.1
 48
0.1
 73
     0
 74
     0
 78
     8
 79
     2
140
3.5
141
0.0
143
0.0393701
146
0.71
147
1.5
172
     1
176
   256
177
   256
178
     2
271
     2
272
     3
274
     4
283
     0
284
     8
340
11
341
1FF
342
1FF
343
1FF
344
1FF
371
    -1
372
    -1
  0
DIMSTYLE
105
20C
330
A
100
AcDbSymbolTableRecord
100
AcDbDimStyleTableRecord
  2
AM_JIS$7
 70
     0
  4
"
 41
2.5
 42
1.0
 43
10.0
 44
1.0
 47
0.1
 48
0.1
 73
     0
 74
     0
 77
     3
 78
     8
 79
     2
140
3.5
141
0.0
143
0.0393701
146
0.71
147
1.5
172
     1
176
   256
177
   256
178
     2
271
     2
272
     3
274
     4
283
     0
284
     8
340
11
341
1FF
342
1FF
343
1FF
344
1FF
371
    -1
372
    -1
  0
DIMSTYLE
105
20D
330
A
100
AcDbSymbolTableRecord
100
AcDbDimStyleTableRecord
  2
AM_JIS$SF
 70
     0
  4
"
 41
2.5
 42
1.0
 43
10.0
 44
1.0
 47
0.1
 48
0.1
 73
     0
 74
     0
 75
     1
 76
     1
 77
     3
 78
     8
 79
     2
140
3.5
141
0.0
143
0.0393701
146
0.71
147
1.5
172
     1
176
   256
177
   256
178
     2
271
     2
272
     3
274
     4
283
     0
284
     8
340
11
341
1FF
342
1FF
343
1FF
344
1FF
371
    -1
372
    -1
  0
DIMSTYLE
105
20E
330
A
100
AcDbSymbolTableRecord
100
AcDbDimStyleTableRecord
  2
AM_JIS$SH
 70
     0
  4
"
 41
2.5
 42
1.0
 43
10.0
 44
1.0
 47
0.1
 48
0.1
 73
     0
 74
     0
 75
     1
 76
     1
 77
     3
 78
     8
 79
     2
140
3.5
141
0.0
143
0.0393701
144
2.0
146
0.71
147
1.5
172
     1
173
     1
176
   256
177
   256
178
     2
271
     2
272
     3
274
     4
283
     0
284
     8
340
11
341
1FF
342
1FF
343
87
344
1FF
371
    -1
372
    -1
  0
DIMSTYLE
105
20F
330
A
100
AcDbSymbolTableRecord
100
AcDbDimStyleTableRecord
  2
AM_JIS$0
 70
     0
  4
"
 40
1.25
 41
2.5
 42
1.0
 43
10.0
 44
1.0
 47
0.1
 48
0.1
 73
     0
 74
     0
 77
     3
 78
     8
 79
     2
140
2.799999999999998
141
0.0
143
0.0393701
146
0.71
147
1.0
172
     1
176
   256
177
   256
178
     2
271
     2
272
     2
283
     0
284
     8
289
     1
340
11
341
1FF
342
1FF
371
    -1
372
    -1
  0
ENDTAB
  0
TABLE
  2
BLOCK_RECORD
  5
1
330
0
100
AcDbSymbolTable
 70
     5
  0
BLOCK_RECORD
  5
1F
102
{ACAD_XDICTIONARY
360
8F
102
}
330
1
100
AcDbSymbolTableRecord
100
AcDbBlockTableRecord
  2
*Model_Space
340
22
  0
BLOCK_RECORD
  5
1B
330
1
100
AcDbSymbolTableRecord
100
AcDbBlockTableRecord
  2
*Paper_Space
340
1E
  0
BLOCK_RECORD
  5
23
330
1
100
AcDbSymbolTableRecord
100
AcDbBlockTableRecord
  2
*Paper_Space0
340
26
  0
BLOCK_RECORD
  5
87
330
1
100
AcDbSymbolTableRecord
100
AcDbBlockTableRecord
  2
GENAXEH
340
0
  0
BLOCK_RECORD
  5
1FF
330
1
100
AcDbSymbolTableRecord
100
AcDbBlockTableRecord
  2
_Open30
340
0
  0
BLOCK_RECORD
  5
1225
330
1
100
AcDbSymbolTableRecord
100
AcDbBlockTableRecord
  2
*D3
340
0
  0
ENDTAB
  0
ENDSEC
  0
SECTION
  2
BLOCKS
  0
BLOCK
  5
20
330
1F
100
AcDbEntity
  8
0
100
AcDbBlockBegin
  2
*Model_Space
 70
     0
 10
0.0
 20
0.0
 30
0.0
  3
*Model_Space
  1

  0
ENDBLK
  5
21
330
1F
100
AcDbEntity
  8
0
100
AcDbBlockEnd
  0
BLOCK
  5
1C
330
1B
100
AcDbEntity
 67
     1
  8
0
100
AcDbBlockBegin
  2
*Paper_Space
 70
     0
 10
0.0
 20
0.0
 30
0.0
  3
*Paper_Space
  1

  0
ENDBLK
  5
1D
330
1B
100
AcDbEntity
 67
     1
  8
0
100
AcDbBlockEnd
  0
BLOCK
  5
24
330
23
100
AcDbEntity
  8
0
100
AcDbBlockBegin
  2
*Paper_Space0
 70
     0
 10
0.0
 20
0.0
 30
0.0
  3
*Paper_Space0
  1

  0
ENDBLK
  5
25
330
23
100
AcDbEntity
  8
0
100
AcDbBlockEnd
  0
BLOCK
  5
13B1
330
87
100
AcDbEntity
  8
0
100
AcDbBlockBegin
  2
GENAXEH
 70
     0
 10
0.0
 20
0.0
 30
0.0
  3
GENAXEH
  1

  0
LINE
  5
13B2
330
87
100
AcDbEntity
  8
0
100
AcDbLine
 10
-1.0
 20
0.0
 30
0.0
 11
1.0
 21
0.0
 31
0.0
  0
ENDBLK
  5
13B3
330
87
100
AcDbEntity
  8
0
100
AcDbBlockEnd
  0
BLOCK
  5
13A5
330
1FF
100
AcDbEntity
  8
0
100
AcDbBlockBegin
  2
_Open30
 70
     0
 10
0.0
 20
0.0
 30
0.0
  3
_Open30
  1

  0
LINE
  5
13A6
330
1FF
100
AcDbEntity
  8
0
  6
ByBlock
 62
     0
370
    -2
100
AcDbLine
 10
-1.0
 20
0.26794919
 30
0.0
 11
0.0
 21
0.0
 31
0.0
  0
LINE
  5
13A7
330
1FF
100
AcDbEntity
  8
0
  6
ByBlock
 62
     0
370
    -2
100
AcDbLine
 10
0.0
 20
0.0
 30
0.0
 11
-1.0
 21
-0.26794919
 31
0.0
  0
LINE
  5
13A8
330
1FF
100
AcDbEntity
  8
0
  6
ByBlock
 62
     0
370
    -2
100
AcDbLine
 10
0.0
 20
0.0
 30
0.0
 11
-1.0
 21
0.0
 31
0.0
  0
ENDBLK
  5
13A9
330
1FF
100
AcDbEntity
  8
0
100
AcDbBlockEnd
  0
BLOCK
  5
123D
330
1225
100
AcDbEntity
  8
0
100
AcDbBlockBegin
  2
*D3
 70
     1
 10
0.0
 20
0.0
 30
0.0
  3
*D3
  1

  0
LINE
  5
1231
330
1225
100
AcDbEntity
  8
AM_5
100
AcDbLine
 10
1.250000052296903
 20
109.3000002050661
 30
0.0
 11
-48.22659932814278
 21
109.3000002050661
 31
0.0
  0
LINE
  5
1232
330
1225
100
AcDbEntity
  8
AM_5
100
AcDbLine
 10
4.750000052296087
 20
26.30000020506626
 30
0.0
 11
-48.22659932814282
 21
26.30000020506627
 31
0.0
  0
LINE
  5
1233
330
1225
100
AcDbEntity
  8
AM_5
100
AcDbLine
 10
-46.97659932814278
 20
106.1750002050661
 30
0.0
 11
-46.97659932814281
 21
29.42500020506627
 31
0.0
  0
INSERT
  5
1234
330
1225
100
AcDbEntity
  8
AM_5
100
AcDbBlockReference
  2
_Open30
 10
-46.97659932814278
 20
109.3000002050661
 30
0.0
 41
3.125
 42
3.125
 43
3.125
 50
90.0
  0
INSERT
  5
1235
330
1225
100
AcDbEntity
  8
AM_5
100
AcDbBlockReference
  2
_Open30
 10
-46.97659932814281
 20
26.30000020506627
 30
0.0
 41
3.125
 42
3.125
 43
3.125
 50
270.0
  0
MTEXT
  5
1236
330
1225
100
AcDbEntity
  8
AM_5
 62
     2
100
AcDbMText
 10
-49.97659932814283
 20
67.80000020506617
 30
0.0
 40
3.499999999999996
 41
0.0
 71
     5
 72
     1
  1
83
 11
0.0000000000000001
 21
1.0
 31
0.0
 73
     1
 44
1.0
1001
ACAD
1000
MTEXTBEGIN
1070
    73
1070
     1
1070
    44
1040
1.0
1070
    74
1070
     0
1000
MTEXTEND
  0
POINT
  5
1237
330
1225
100
AcDbEntity
  8
Defpoints
 62
     0
100
AcDbPoint
 10
2.500000052296904
 20
109.3000002050661
 30
0.0
  0
POINT
  5
1238
330
1225
100
AcDbEntity
  8
Defpoints
 62
     0
100
AcDbPoint
 10
6.000000052296087
 20
26.30000020506626
 30
0.0
  0
POINT
  5
1239
330
1225
100
AcDbEntity
  8
Defpoints
 62
     0
100
AcDbPoint
 10
-46.97659932814281
 20
26.30000020506627
 30
0.0
  0
ENDBLK
  5
123E
330
1225
100
AcDbEntity
  8
0
100
AcDbBlockEnd
  0
ENDSEC
  0
SECTION
  2
ENTITIES
  0
LINE
  5
582
330
1F
100
AcDbEntity
  8
0
100
AcDbLine
 10
103.6500000522969
 20
103.8500002050662
 30
0.0
 11
103.6500000522969
 21
160.7500002050664
 31
0.0
  0
LINE
  5
583
330
1F
100
AcDbEntity
  8
0
100
AcDbLine
 10
107.2000000522968
 20
160.8000002050661
 30
0.0
 11
107.2000000522967
 21
103.8000002050661
 31
0.0
  0
LINE
  5
584
330
1F
100
AcDbEntity
  8
0
100
AcDbLine
 10
107.5000000522968
 20
160.8000002050661
 30
0.0
 11
107.5000000522968
 21
145.3000002050661
 31
0.0
  0
LINE
  5
585
330
1F
100
AcDbEntity
  8
0
100
AcDbLine
 10
107.5000000522968
 20
135.3000002050661
 30
0.0
 11
107.5000000522968
 21
103.8000002050661
 31
0.0
  0
ARC
  5
586
330
1F
100
AcDbEntity
  8
0
100
AcDbCircle
 10
103.7000000522967
 20
160.8000002050661
 30
0.0
 40
3.5
100
AcDbArc
 50
0.0
 51
90.0
1001
GENIUS_GENODEF_13
1002
{
1000
HIER
1070
     0
1002
}
1002
{
1000
MANEDIT
1070
     0
1002
}
1002
{
1000
NOSEL
1070
     0
1002
}
1002
{
1000
BEHIND
1070
     0
1002
}
1002
{
1000
OTHER
1070
     0
1002
}
1002
{
1000
REACTOR
1002
}
1001
GENIUS_GENOBJ-N-FIL_13
1002
{
1000
OWNER
1000
GEN
1002
}
  0
ARC
  5
587
330
1F
100
AcDbEntity
  8
0
100
AcDbCircle
 10
103.7000000522967
 20
160.8000002050661
 30
0.0
 40
3.799999999999998
100
AcDbArc
 50
0.0
 51
90.0
1001
GENIUS_GENODEF_13
1002
{
1000
HIER
1070
     0
1002
}
1002
{
1000
MANEDIT
1070
     0
1002
}
1002
{
1000
NOSEL
1070
     0
1002
}
1002
{
1000
BEHIND
1070
     0
1002
}
1002
{
1000
OTHER
1070
     0
1002
}
1002
{
1000
REACTOR
1002
}
1001
GENIUS_GENOBJ-N-FIL_13
1002
{
1000
OWNER
1000
GEN
1002
}
  0
LINE
  5
588
330
1F
100
AcDbEntity
  8
0
100
AcDbLine
 10
16.70000005229679
 20
160.8000002050661
 30
0.0
 11
16.70000005229688
 21
103.8000002050661
 31
0.0
  0
LINE
  5
589
330
1F
100
AcDbEntity
  8
0
100
AcDbLine
 10
16.70000005229679
 20
164.300000205066
 30
0.0
 11
103.7000000522967
 21
164.300000205066
 31
0.0
  0
LINE
  5
58A
330
1F
100
AcDbEntity
  8
0
100
AcDbLine
 10
16.70000005229679
 20
164.6000002050661
 30
0.0
 11
103.7000000522967
 21
164.6000002050661
 31
0.0
  0
LINE
  5
58B
330
1F
100
AcDbEntity
  8
0
100
AcDbLine
 10
16.70000005229679
 20
160.8000002050661
 30
0.0
 11
103.7000000522967
 21
160.8000002050661
 31
0.0
  0
LINE
  5
58C
330
1F
100
AcDbEntity
  8
0
100
AcDbLine
 10
16.70000005229688
 20
100.3000002050661
 30
0.0
 11
103.7000000522968
 21
100.3000002050661
 31
0.0
  0
LINE
  5
58D
330
1F
100
AcDbEntity
  8
0
100
AcDbLine
 10
16.70000005229688
 20
100.0000002050661
 30
0.0
 11
103.7000000522968
 21
100.0000002050661
 31
0.0
  0
LINE
  5
58E
330
1F
100
AcDbEntity
  8
0
100
AcDbLine
 10
16.70000005229688
 20
103.8000002050661
 30
0.0
 11
103.7000000522968
 21
103.8000002050661
 31
0.0
  0
ARC
  5
58F
330
1F
100
AcDbEntity
  8
0
100
AcDbCircle
 10
103.7000000522967
 20
103.8000002050661
 30
0.0
 40
3.5
100
AcDbArc
 50
270.0
 51
0.0
1001
GENIUS_GENODEF_13
1002
{
1000
HIER
1070
     0
1002
}
1002
{
1000
MANEDIT
1070
     0
1002
}
1002
{
1000
NOSEL
1070
     0
1002
}
1002
{
1000
BEHIND
1070
     0
1002
}
1002
{
1000
OTHER
1070
     0
1002
}
1002
{
1000
REACTOR
1002
}
1001
GENIUS_GENOBJ-N-FIL_13
1002
{
1000
OWNER
1000
GEN
1002
}
  0
ARC
  5
590
330
1F
100
AcDbEntity
  8
0
100
AcDbCircle
 10
103.7000000522967
 20
103.8000002050661
 30
0.0
 40
3.799999999999998
100
AcDbArc
 50
270.0
 51
0.0
1001
GENIUS_GENODEF_13
1002
{
1000
HIER
1070
     0
1002
}
1002
{
1000
MANEDIT
1070
     0
1002
}
1002
{
1000
NOSEL
1070
     0
1002
}
1002
{
1000
BEHIND
1070
     0
1002
}
1002
{
1000
OTHER
1070
     0
1002
}
1002
{
1000
REACTOR
1002
}
1001
GENIUS_GENOBJ-N-FIL_13
1002
{
1000
OWNER
1000
GEN
1002
}
  0
LINE
  5
591
330
1F
100
AcDbEntity
  8
0
100
AcDbLine
 10
13.20000005229678
 20
160.8000002050661
 30
0.0
 11
13.20000005229678
 21
103.8000002050661
 31
0.0
  0
LINE
  5
592
330
1F
100
AcDbEntity
  8
0
100
AcDbLine
 10
12.90000005229682
 20
160.8000002050661
 30
0.0
 11
12.90000005229682
 21
103.8000002050661
 31
0.0
  0
ARC
  5
593
330
1F
100
AcDbEntity
  8
0
100
AcDbCircle
 10
16.70000005229679
 20
160.8000002050661
 30
0.0
 40
3.5
100
AcDbArc
 50
90.0
 51
180.0
1001
GENIUS_GENODEF_13
1002
{
1000
HIER
1070
     0
1002
}
1002
{
1000
MANEDIT
1070
     0
1002
}
1002
{
1000
NOSEL
1070
     0
1002
}
1002
{
1000
BEHIND
1070
     0
1002
}
1002
{
1000
OTHER
1070
     0
1002
}
1002
{
1000
REACTOR
1002
}
1001
GENIUS_GENOBJ-N-FIL_13
1002
{
1000
OWNER
1000
GEN
1002
}
  0
ARC
  5
594
330
1F
100
AcDbEntity
  8
0
100
AcDbCircle
 10
16.70000005229679
 20
160.8000002050661
 30
0.0
 40
3.799999999999998
100
AcDbArc
 50
90.0
 51
180.0
1001
GENIUS_GENODEF_13
1002
{
1000
HIER
1070
     0
1002
}
1002
{
1000
MANEDIT
1070
     0
1002
}
1002
{
1000
NOSEL
1070
     0
1002
}
1002
{
1000
BEHIND
1070
     0
1002
}
1002
{
1000
OTHER
1070
     0
1002
}
1002
{
1000
REACTOR
1002
}
1001
GENIUS_GENOBJ-N-FIL_13
1002
{
1000
OWNER
1000
GEN
1002
}
  0
ARC
  5
595
330
1F
100
AcDbEntity
  8
0
100
AcDbCircle
 10
16.70000005229679
 20
103.8000002050661
 30
0.0
 40
3.5
100
AcDbArc
 50
180.0
 51
270.0
1001
GENIUS_GENODEF_13
1002
{
1000
HIER
1070
     0
1002
}
1002
{
1000
MANEDIT
1070
     0
1002
}
1002
{
1000
NOSEL
1070
     0
1002
}
1002
{
1000
BEHIND
1070
     0
1002
}
1002
{
1000
OTHER
1070
     0
1002
}
1002
{
1000
REACTOR
1002
}
1001
GENIUS_GENOBJ-N-FIL_13
1002
{
1000
OWNER
1000
GEN
1002
}
  0
ARC
  5
596
330
1F
100
AcDbEntity
  8
0
100
AcDbCircle
 10
16.70000005229679
 20
103.8000002050661
 30
0.0
 40
3.799999999999998
100
AcDbArc
 50
180.0
 51
270.0
1001
GENIUS_GENODEF_13
1002
{
1000
HIER
1070
     0
1002
}
1002
{
1000
MANEDIT
1070
     0
1002
}
1002
{
1000
NOSEL
1070
     0
1002
}
1002
{
1000
BEHIND
1070
     0
1002
}
1002
{
1000
OTHER
1070
     0
1002
}
1002
{
1000
REACTOR
1002
}
1001
GENIUS_GENOBJ-N-FIL_13
1002
{
1000
OWNER
1000
GEN
1002
}
  0
LINE
  5
597
330
1F
100
AcDbEntity
  8
0
100
AcDbLine
 10
16.75000005229674
 20
118.8500002050663
 30
0.0
 11
103.6500000522969
 21
118.8500002050663
 31
0.0
  0
LINE
  5
598
330
1F
100
AcDbEntity
  8
0
100
AcDbLine
 10
16.75000005229674
 20
103.8500002050662
 30
0.0
 11
16.75000005229662
 21
160.7500002050663
 31
0.0
  0
LINE
  5
599
330
1F
100
AcDbEntity
  8
0
100
AcDbLine
 10
103.6500000522969
 20
160.7500002050664
 30
0.0
 11
16.75000005229662
 21
160.7500002050663
 31
0.0
  0
LINE
  5
59A
330
1F
100
AcDbEntity
  8
0
100
AcDbLine
 10
16.75000005229674
 20
103.8500002050662
 30
0.0
 11
103.6500000522969
 21
103.8500002050662
 31
0.0
  0
ARC
  5
59C
330
1F
100
AcDbEntity
  8
0
100
AcDbCircle
 10
93.7000000522967
 20
153.1000002050662
 30
0.0
 40
1.0
100
AcDbArc
 50
0.0
 51
90.0
1001
GENIUS_GENREC_14
1002
{
1000
PYDIR
1011
30.20000005229667
1021
152.6000002050663
1031
0.0
1002
}
1002
{
1000
PXDIR
1011
90.20000005229679
1021
126.1000002050661
1031
0.0
1002
}
1002
{
1000
PORI
1011
30.20000005229667
1021
126.1000002050661
1031
0.0
1002
}
1002
{
1000
PINS
1011
30.20000005229667
1021
126.1000002050661
1031
0.0
1002
}
1002
{
1000
PINS2
1011
90.20000005229679
1021
152.6000002050663
1031
0.0
1002
}
1002
{
1000
C
1070
     1
1002
}
1001
GENIUS_GENOBJ-N-REC_13
1002
{
1000
OWNER
1000
GEN
1002
}
1001
GENIUS_GENOBJ-N-FIL_13
1002
{
1000
OWNER
1000
GEN
1002
}
1001
GENIUS_GENODEF_13
1002
{
1000
HIER
1070
     0
1002
}
1002
{
1000
MANEDIT
1070
     0
1002
}
1002
{
1000
NOSEL
1070
     0
1002
}
1002
{
1000
BEHIND
1070
     0
1002
}
1002
{
1000
OTHER
1070
     0
1002
}
1002
{
1000
REACTOR
1002
}
  0
LINE
  5
59D
330
1F
100
AcDbEntity
  8
0
100
AcDbLine
 10
25.70000005229666
 20
153.1000002050662
 30
0.0
 11
25.70000005229666
 21
124.6000002050662
 31
0.0
1001
GENIUS_GENREC_14
1002
{
1000
PYDIR
1011
30.20000005229667
1021
152.6000002050663
1031
0.0
1002
}
1002
{
1000
PXDIR
1011
90.20000005229679
1021
125.1000002050661
1031
0.0
1002
}
1002
{
1000
PORI
1011
30.20000005229667
1021
125.1000002050661
1031
0.0
1002
}
1002
{
1000
PINS
1011
30.20000005229667
1021
125.1000002050661
1031
0.0
1002
}
1002
{
1000
PINS2
1011
90.20000005229679
1021
152.6000002050663
1031
0.0
1002
}
1002
{
1000
C
1070
     1
1002
}
1001
GENIUS_GENOBJ-N-REC_13
1002
{
1000
OWNER
1000
GEN
1002
}
1001
GENIUS_GENODEF_13
1002
{
1000
HIER
1070
     0
1002
}
1002
{
1000
MANEDIT
1070
     0
1002
}
1002
{
1000
NOSEL
1070
     0
1002
}
1002
{
1000
BEHIND
1070
     0
1002
}
1002
{
1000
OTHER
1070
     0
1002
}
1002
{
1000
REACTOR
1002
}
  0
ARC
  5
59E
330
1F
100
AcDbEntity
  8
0
100
AcDbCircle
 10
26.70000005229669
 20
153.1000002050662
 30
0.0
 40
1.0
100
AcDbArc
 50
90.0
 51
180.0
1001
GENIUS_GENREC_14
1002
{
1000
PYDIR
1011
30.20000005229667
1021
152.6000002050663
1031
0.0
1002
}
1002
{
1000
PXDIR
1011
90.20000005229679
1021
126.1000002050661
1031
0.0
1002
}
1002
{
1000
PORI
1011
30.20000005229667
1021
126.1000002050661
1031
0.0
1002
}
1002
{
1000
PINS
1011
30.20000005229667
1021
126.1000002050661
1031
0.0
1002
}
1002
{
1000
PINS2
1011
90.20000005229679
1021
152.6000002050663
1031
0.0
1002
}
1002
{
1000
C
1070
     1
1002
}
1001
GENIUS_GENOBJ-N-REC_13
1002
{
1000
OWNER
1000
GEN
1002
}
1001
GENIUS_GENOBJ-N-FIL_13
1002
{
1000
OWNER
1000
GEN
1002
}
1001
GENIUS_GENODEF_13
1002
{
1000
HIER
1070
     0
1002
}
1002
{
1000
MANEDIT
1070
     0
1002
}
1002
{
1000
NOSEL
1070
     0
1002
}
1002
{
1000
BEHIND
1070
     0
1002
}
1002
{
1000
OTHER
1070
     0
1002
}
1002
{
1000
REACTOR
1002
}
  0
LINE
  5
59F
330
1F
100
AcDbEntity
  8
0
100
AcDbLine
 10
26.70000005229679
 20
123.6000002050661
 30
0.0
 11
93.7000000522967
 21
123.6000002050661
 31
0.0
1001
GENIUS_GENREC_14
1002
{
1000
PYDIR
1011
30.20000005229667
1021
151.6000002050663
1031
0.0
1002
}
1002
{
1000
PXDIR
1011
90.20000005229679
1021
125.1000002050661
1031
0.0
1002
}
1002
{
1000
PORI
1011
30.20000005229667
1021
125.1000002050661
1031
0.0
1002
}
1002
{
1000
PINS
1011
30.20000005229667
1021
125.1000002050661
1031
0.0
1002
}
1002
{
1000
PINS2
1011
90.20000005229679
1021
151.6000002050663
1031
0.0
1002
}
1002
{
1000
C
1070
     1
1002
}
1001
GENIUS_GENOBJ-N-REC_13
1002
{
1000
OWNER
1000
GEN
1002
}
1001
GENIUS_GENODEF_13
1002
{
1000
HIER
1070
     0
1002
}
1002
{
1000
MANEDIT
1070
     0
1002
}
1002
{
1000
NOSEL
1070
     0
1002
}
1002
{
1000
BEHIND
1070
     0
1002
}
1002
{
1000
OTHER
1070
     0
1002
}
1002
{
1000
REACTOR
1002
}
  0
ARC
  5
5A0
330
1F
100
AcDbEntity
  8
0
100
AcDbCircle
 10
93.7000000522967
 20
124.6000002050662
 30
0.0
 40
1.0
100
AcDbArc
 50
270.0
 51
0.0
1001
GENIUS_GENREC_14
1002
{
1000
PYDIR
1011
30.20000005229667
1021
151.6000002050663
1031
0.0
1002
}
1002
{
1000
PXDIR
1011
90.20000005229679
1021
125.1000002050661
1031
0.0
1002
}
1002
{
1000
PORI
1011
30.20000005229667
1021
125.1000002050661
1031
0.0
1002
}
1002
{
1000
PINS
1011
30.20000005229667
1021
125.1000002050661
1031
0.0
1002
}
1002
{
1000
PINS2
1011
90.20000005229679
1021
151.6000002050663
1031
0.0
1002
}
1002
{
1000
C
1070
     1
1002
}
1001
GENIUS_GENOBJ-N-REC_13
1002
{
1000
OWNER
1000
GEN
1002
}
1001
GENIUS_GENODEF_13
1002
{
1000
HIER
1070
     0
1002
}
1002
{
1000
MANEDIT
1070
     0
1002
}
1002
{
1000
NOSEL
1070
     0
1002
}
1002
{
1000
BEHIND
1070
     0
1002
}
1002
{
1000
OTHER
1070
     0
1002
}
1002
{
1000
REACTOR
1002
}
1001
GENIUS_GENOBJ-N-FIL_13
1002
{
1000
OWNER
1000
GEN
1002
}
  0
ARC
  5
5A1
330
1F
100
AcDbEntity
  8
0
100
AcDbCircle
 10
26.70000005229679
 20
124.6000002050662
 30
0.0
 40
1.0
100
AcDbArc
 50
180.0
 51
270.0
1001
GENIUS_GENREC_14
1002
{
1000
PYDIR
1011
30.20000005229667
1021
151.6000002050663
1031
0.0
1002
}
1002
{
1000
PXDIR
1011
90.20000005229679
1021
125.1000002050661
1031
0.0
1002
}
1002
{
1000
PORI
1011
30.20000005229667
1021
125.1000002050661
1031
0.0
1002
}
1002
{
1000
PINS
1011
30.20000005229667
1021
125.1000002050661
1031
0.0
1002
}
1002
{
1000
PINS2
1011
90.20000005229679
1021
151.6000002050663
1031
0.0
1002
}
1002
{
1000
C
1070
     1
1002
}
1001
GENIUS_GENOBJ-N-REC_13
1002
{
1000
OWNER
1000
GEN
1002
}
1001
GENIUS_GENODEF_13
1002
{
1000
HIER
1070
     0
1002
}
1002
{
1000
MANEDIT
1070
     0
1002
}
1002
{
1000
NOSEL
1070
     0
1002
}
1002
{
1000
BEHIND
1070
     0
1002
}
1002
{
1000
OTHER
1070
     0
1002
}
1002
{
1000
REACTOR
1002
}
1001
GENIUS_GENOBJ-N-FIL_13
1002
{
1000
OWNER
1000
GEN
1002
}
  0
LINE
  5
5A2
330
1F
100
AcDbEntity
  8
0
100
AcDbLine
 10
93.7000000522967
 20
154.1000002050663
 30
0.0
 11
26.70000005229669
 21
154.1000002050663
 31
0.0
1001
GENIUS_GENREC_14
1002
{
1000
PYDIR
1011
30.20000005229667
1021
152.6000002050663
1031
0.0
1002
}
1002
{
1000
PXDIR
1011
90.20000005229679
1021
126.1000002050661
1031
0.0
1002
}
1002
{
1000
PORI
1011
30.20000005229667
1021
126.1000002050661
1031
0.0
1002
}
1002
{
1000
PINS
1011
30.20000005229667
1021
126.1000002050661
1031
0.0
1002
}
1002
{
1000
PINS2
1011
90.20000005229679
1021
152.6000002050663
1031
0.0
1002
}
1002
{
1000
C
1070
     1
1002
}
1001
GENIUS_GENOBJ-N-REC_13
1002
{
1000
OWNER
1000
GEN
1002
}
1001
GENIUS_GENODEF_13
1002
{
1000
HIER
1070
     0
1002
}
1002
{
1000
MANEDIT
1070
     0
1002
}
1002
{
1000
NOSEL
1070
     0
1002
}
1002
{
1000
BEHIND
1070
     0
1002
}
1002
{
1000
OTHER
1070
     0
1002
}
1002
{
1000
REACTOR
1002
}
  0
LINE
  5
5A3
330
1F
100
AcDbEntity
  8
0
100
AcDbLine
 10
16.75000005229674
 20
103.8500002050662
 30
0.0
 11
16.75000005229674
 21
118.8500002050663
 31
0.0
  0
LINE
  5
5A4
330
1F
100
AcDbEntity
  8
0
100
AcDbLine
 10
16.75000005229674
 20
103.8500002050662
 30
0.0
 11
103.6500000522969
 21
103.8500002050662
 31
0.0
  0
ELLIPSE
  5
5A5
330
1F
100
AcDbEntity
  8
0
100
AcDbEllipse
 10
54.40044031315697
 20
105.7656978794847
 30
0.0
 11
1.00276584225578
 21
0.0000000000000003
 31
0.0
210
0.0
220
0.0
230
1.0
 40
0.6522657033973506
 41
0.3314984999878012
 42
5.951686807191784
  0
ELLIPSE
  5
5A6
330
1F
100
AcDbEntity
  8
0
100
AcDbEllipse
 10
54.29159499956708
 20
105.7656978794847
 30
0.0
 11
1.591594947270215
 21
0.0000000000000061
 31
0.0
210
0.0
220
0.0
230
1.0
 40
0.5753333635477742
 41
0.7175354078333669
 42
6.048567121221497
  0
LINE
  5
5A7
330
1F
100
AcDbEntity
  8
0
100
AcDbLine
 10
55.8395852956745
 20
105.5528241312025
 30
0.0
 11
55.34861127414218
 21
105.5528241312025
 31
0.0
  0
LINE
  5
5A8
330
1F
100
AcDbEntity
  8
0
100
AcDbLine
 10
55.8395349360178
 20
105.9785716277671
 30
0.0
 11
55.34861127414218
 21
105.9785716277671
 31
0.0
  0
LINE
  5
5A9
330
1F
100
AcDbEntity
  8
0
100
AcDbLine
 10
55.49074808637207
 20
106.6813955539033
 30
0.0
 11
55.49074808637207
 21
106.3677963668841
 31
0.0
  0
LINE
  5
5AA
330
1F
100
AcDbEntity
  8
0
100
AcDbLine
 10
55.8395349360178
 20
106.6813955539033
 30
0.0
 11
55.49074808637207
 21
106.6813955539033
 31
0.0
  0
LINE
  5
5AB
330
1F
100
AcDbEntity
  8
0
100
AcDbLine
 10
55.8395349360178
 20
105.9785716277671
 30
0.0
 11
55.8395349360178
 21
106.6813955539033
 31
0.0
  0
LINE
  5
5AC
330
1F
100
AcDbEntity
  8
0
100
AcDbLine
 10
58.2377907499713
 20
106.4197676469267
 30
0.0
 11
58.2377907499713
 21
105.9183141585545
 31
0.0
  0
LINE
  5
5AD
330
1F
100
AcDbEntity
  8
0
100
AcDbLine
 10
57.19127912206428
 20
106.4197676469267
 30
0.0
 11
57.19127912206428
 21
105.9183141585545
 31
0.0
  0
LINE
  5
5AE
330
1F
100
AcDbEntity
  8
0
100
AcDbLine
 10
56.49360470345957
 20
106.4197676469267
 30
0.0
 11
56.49360470345957
 21
105.1116281120429
 31
0.0
  0
LINE
  5
5AF
330
1F
100
AcDbEntity
  8
0
100
AcDbLine
 10
58.93546516857586
 20
106.4197676469267
 30
0.0
 11
58.93546516857586
 21
105.1116281120429
 31
0.0
  0
LINE
  5
5B0
330
1F
100
AcDbEntity
  8
0
100
AcDbLine
 10
57.19127912206428
 20
105.9183141585545
 30
0.0
 11
58.2377907499713
 21
105.9183141585545
 31
0.0
  0
LINE
  5
5B1
330
1F
100
AcDbEntity
  8
0
100
AcDbLine
 10
57.19127912206428
 20
105.613081600415
 30
0.0
 11
58.2377907499713
 21
105.613081600415
 31
0.0
  0
LINE
  5
5B2
330
1F
100
AcDbEntity
  8
0
100
AcDbLine
 10
57.54011633136669
 20
105.1116281120429
 30
0.0
 11
57.19127912206428
 21
105.1116281120429
 31
0.0
  0
LINE
  5
5B3
330
1F
100
AcDbEntity
  8
0
100
AcDbLine
 10
57.54011633136669
 20
104.8500002050662
 30
0.0
 11
56.14476749415729
 21
104.8500002050662
 31
0.0
  0
LINE
  5
5B4
330
1F
100
AcDbEntity
  8
0
100
AcDbLine
 10
56.14476749415729
 20
105.1116281120429
 30
0.0
 11
56.14476749415729
 21
104.8500002050662
 31
0.0
  0
LINE
  5
5B5
330
1F
100
AcDbEntity
  8
0
100
AcDbLine
 10
56.49360470345957
 20
105.1116281120429
 30
0.0
 11
56.14476749415729
 21
105.1116281120429
 31
0.0
  0
LINE
  5
5B6
330
1F
100
AcDbEntity
  8
0
100
AcDbLine
 10
57.19127912206428
 20
105.613081600415
 30
0.0
 11
57.19127912206428
 21
105.1116281120429
 31
0.0
  0
LINE
  5
5B7
330
1F
100
AcDbEntity
  8
0
100
AcDbLine
 10
59.28430237787819
 20
104.8500002050662
 30
0.0
 11
57.88895354066887
 21
104.8500002050662
 31
0.0
  0
LINE
  5
5B8
330
1F
100
AcDbEntity
  8
0
100
AcDbLine
 10
57.88895354066887
 20
105.1116281120429
 30
0.0
 11
57.88895354066887
 21
104.8500002050662
 31
0.0
  0
LINE
  5
5B9
330
1F
100
AcDbEntity
  8
0
100
AcDbLine
 10
57.54011633136669
 20
105.1116281120429
 30
0.0
 11
57.54011633136669
 21
104.8500002050662
 31
0.0
  0
LINE
  5
5BA
330
1F
100
AcDbEntity
  8
0
100
AcDbLine
 10
58.2377907499713
 20
105.1116281120429
 30
0.0
 11
57.88895354066887
 21
105.1116281120429
 31
0.0
  0
LINE
  5
5BB
330
1F
100
AcDbEntity
  8
0
100
AcDbLine
 10
58.2377907499713
 20
105.613081600415
 30
0.0
 11
58.2377907499713
 21
105.1116281120429
 31
0.0
  0
LINE
  5
5BC
330
1F
100
AcDbEntity
  8
0
100
AcDbLine
 10
59.28430237787819
 20
105.1116281120429
 30
0.0
 11
59.28430237787819
 21
104.8500002050662
 31
0.0
  0
LINE
  5
5BD
330
1F
100
AcDbEntity
  8
0
100
AcDbLine
 10
59.28430237787819
 20
105.1116281120429
 30
0.0
 11
58.93546516857586
 21
105.1116281120429
 31
0.0
  0
LINE
  5
5BE
330
1F
100
AcDbEntity
  8
0
100
AcDbLine
 10
57.54011633136669
 20
106.4197676469267
 30
0.0
 11
57.19127912206428
 21
106.4197676469267
 31
0.0
  0
LINE
  5
5BF
330
1F
100
AcDbEntity
  8
0
100
AcDbLine
 10
57.54011633136669
 20
106.6813955539033
 30
0.0
 11
56.14476749415729
 21
106.6813955539033
 31
0.0
  0
LINE
  5
5C0
330
1F
100
AcDbEntity
  8
0
100
AcDbLine
 10
56.14476749415729
 20
106.6813955539033
 30
0.0
 11
56.14476749415729
 21
106.4197676469267
 31
0.0
  0
LINE
  5
5C1
330
1F
100
AcDbEntity
  8
0
100
AcDbLine
 10
56.49360470345957
 20
106.4197676469267
 30
0.0
 11
56.14476749415729
 21
106.4197676469267
 31
0.0
  0
LINE
  5
5C2
330
1F
100
AcDbEntity
  8
0
100
AcDbLine
 10
59.28430237787819
 20
106.6813955539033
 30
0.0
 11
57.88895354066887
 21
106.6813955539033
 31
0.0
  0
LINE
  5
5C3
330
1F
100
AcDbEntity
  8
0
100
AcDbLine
 10
58.2377907499713
 20
106.4197676469267
 30
0.0
 11
57.88895354066887
 21
106.4197676469267
 31
0.0
  0
LINE
  5
5C4
330
1F
100
AcDbEntity
  8
0
100
AcDbLine
 10
57.88895354066887
 20
106.6813955539033
 30
0.0
 11
57.88895354066887
 21
106.4197676469267
 31
0.0
  0
LINE
  5
5C5
330
1F
100
AcDbEntity
  8
0
100
AcDbLine
 10
57.54011633136669
 20
106.6813955539033
 30
0.0
 11
57.54011633136669
 21
106.4197676469267
 31
0.0
  0
LINE
  5
5C6
330
1F
100
AcDbEntity
  8
0
100
AcDbLine
 10
59.28430237787819
 20
106.6813955539033
 30
0.0
 11
59.28430237787819
 21
106.4197676469267
 31
0.0
  0
LINE
  5
5C7
330
1F
100
AcDbEntity
  8
0
100
AcDbLine
 10
59.28430237787819
 20
106.4197676469267
 30
0.0
 11
58.93546516857586
 21
106.4197676469267
 31
0.0
  0
LINE
  5
5C8
330
1F
100
AcDbEntity
  8
0
100
AcDbLine
 10
59.93837214532
 20
106.4197676469267
 30
0.0
 11
59.93837214532
 21
105.1116281120429
 31
0.0
  0
LINE
  5
5C9
330
1F
100
AcDbEntity
  8
0
100
AcDbLine
 10
60.63604656392449
 20
106.4197676469267
 30
0.0
 11
60.63604656392449
 21
105.1116281120429
 31
0.0
  0
LINE
  5
5CA
330
1F
100
AcDbEntity
  8
0
100
AcDbLine
 10
60.98488377322708
 20
104.8500002050662
 30
0.0
 11
59.5895349360178
 21
104.8500002050662
 31
0.0
  0
LINE
  5
5CB
330
1F
100
AcDbEntity
  8
0
100
AcDbLine
 10
59.5895349360178
 20
105.1116281120429
 30
0.0
 11
59.5895349360178
 21
104.8500002050662
 31
0.0
  0
LINE
  5
5CC
330
1F
100
AcDbEntity
  8
0
100
AcDbLine
 10
59.93837214532
 20
105.1116281120429
 30
0.0
 11
59.5895349360178
 21
105.1116281120429
 31
0.0
  0
LINE
  5
5CD
330
1F
100
AcDbEntity
  8
0
100
AcDbLine
 10
60.98488377322708
 20
105.1116281120429
 30
0.0
 11
60.98488377322708
 21
104.8500002050662
 31
0.0
  0
LINE
  5
5CE
330
1F
100
AcDbEntity
  8
0
100
AcDbLine
 10
60.98488377322708
 20
105.1116281120429
 30
0.0
 11
60.63604656392449
 21
105.1116281120429
 31
0.0
  0
LINE
  5
5CF
330
1F
100
AcDbEntity
  8
0
100
AcDbLine
 10
60.98488377322708
 20
106.6813955539033
 30
0.0
 11
59.5895349360178
 21
106.6813955539033
 31
0.0
  0
LINE
  5
5D0
330
1F
100
AcDbEntity
  8
0
100
AcDbLine
 10
59.5895349360178
 20
106.6813955539033
 30
0.0
 11
59.58953493601772
 21
106.4197676469267
 31
0.0
  0
LINE
  5
5D1
330
1F
100
AcDbEntity
  8
0
100
AcDbLine
 10
59.93837214532
 20
106.4197676469267
 30
0.0
 11
59.5895349360178
 21
106.4197676469267
 31
0.0
  0
LINE
  5
5D2
330
1F
100
AcDbEntity
  8
0
100
AcDbLine
 10
60.98488377322708
 20
106.4197676469267
 30
0.0
 11
60.63604656392449
 21
106.4197676469267
 31
0.0
  0
LINE
  5
5D3
330
1F
100
AcDbEntity
  8
0
100
AcDbLine
 10
60.98488377322708
 20
106.6813955539033
 30
0.0
 11
60.98488377322708
 21
106.4197676469267
 31
0.0
  0
LINE
  5
5D4
330
1F
100
AcDbEntity
  8
0
100
AcDbLine
 10
63.68837214532
 20
106.4197676469267
 30
0.0
 11
63.68837214532
 21
105.3732560190196
 31
0.0
  0
LINE
  5
5D5
330
1F
100
AcDbEntity
  8
0
100
AcDbLine
 10
62.38023261043628
 20
106.6813955539033
 30
0.0
 11
63.68837214532
 21
105.3732560190196
 31
0.0
  0
LINE
  5
5D6
330
1F
100
AcDbEntity
  8
0
100
AcDbLine
 10
62.03139540113399
 20
106.1669047164082
 30
0.0
 11
63.34829991247598
 21
104.8500002050662
 31
0.0
  0
LINE
  5
5D7
330
1F
100
AcDbEntity
  8
0
100
AcDbLine
 10
62.03139540113399
 20
106.1669047164082
 30
0.0
 11
62.03139540113399
 21
105.1116281120429
 31
0.0
  0
LINE
  5
5D8
330
1F
100
AcDbEntity
  8
0
100
AcDbLine
 10
61.63895354066887
 20
106.4197676469267
 30
0.0
 11
61.63895354066887
 21
105.1116281120429
 31
0.0
  0
LINE
  5
5D9
330
1F
100
AcDbEntity
  8
0
100
AcDbLine
 10
64.08081400578521
 20
106.4197676469267
 30
0.0
 11
64.08081400578521
 21
104.8500002050662
 31
0.0
  0
LINE
  5
5DA
330
1F
100
AcDbEntity
  8
0
100
AcDbLine
 10
62.38023261043628
 20
105.1116281120429
 30
0.0
 11
62.38023261043628
 21
104.8500002050662
 31
0.0
  0
LINE
  5
5DB
330
1F
100
AcDbEntity
  8
0
100
AcDbLine
 10
61.29011633136649
 20
105.1116281120429
 30
0.0
 11
61.29011633136649
 21
104.8500002050662
 31
0.0
  0
LINE
  5
5DC
330
1F
100
AcDbEntity
  8
0
100
AcDbLine
 10
62.38023261043628
 20
104.8500002050662
 30
0.0
 11
61.29011633136649
 21
104.8500002050662
 31
0.0
  0
LINE
  5
5DD
330
1F
100
AcDbEntity
  8
0
100
AcDbLine
 10
61.63895354066887
 20
105.1116281120429
 30
0.0
 11
61.29011633136649
 21
105.1116281120429
 31
0.0
  0
LINE
  5
5DE
330
1F
100
AcDbEntity
  8
0
100
AcDbLine
 10
62.03139540113399
 20
105.1116281120429
 30
0.0
 11
62.38023261043628
 21
105.1116281120429
 31
0.0
  0
LINE
  5
5DF
330
1F
100
AcDbEntity
  8
0
100
AcDbLine
 10
64.08081400578521
 20
104.8500002050662
 30
0.0
 11
63.34829991247598
 21
104.8500002050662
 31
0.0
  0
LINE
  5
5E0
330
1F
100
AcDbEntity
  8
0
100
AcDbLine
 10
62.38023261043628
 20
106.6813955539033
 30
0.0
 11
61.29011633136649
 21
106.6813955539033
 31
0.0
  0
LINE
  5
5E1
330
1F
100
AcDbEntity
  8
0
100
AcDbLine
 10
61.29011633136649
 20
106.6813955539033
 30
0.0
 11
61.29011633136649
 21
106.4197676469267
 31
0.0
  0
LINE
  5
5E2
330
1F
100
AcDbEntity
  8
0
100
AcDbLine
 10
61.63895354066887
 20
106.4197676469267
 30
0.0
 11
61.29011633136649
 21
106.4197676469267
 31
0.0
  0
LINE
  5
5E3
330
1F
100
AcDbEntity
  8
0
100
AcDbLine
 10
64.42965121508739
 20
106.6813955539033
 30
0.0
 11
63.3395349360178
 21
106.6813955539033
 31
0.0
  0
LINE
  5
5E4
330
1F
100
AcDbEntity
  8
0
100
AcDbLine
 10
63.3395349360178
 20
106.6813955539033
 30
0.0
 11
63.3395349360178
 21
106.4197676469267
 31
0.0
  0
LINE
  5
5E5
330
1F
100
AcDbEntity
  8
0
100
AcDbLine
 10
63.68837214532
 20
106.4197676469267
 30
0.0
 11
63.3395349360178
 21
106.4197676469267
 31
0.0
  0
LINE
  5
5E6
330
1F
100
AcDbEntity
  8
0
100
AcDbLine
 10
64.42965121508739
 20
106.6813955539033
 30
0.0
 11
64.42965121508739
 21
106.4197676469267
 31
0.0
  0
LINE
  5
5E7
330
1F
100
AcDbEntity
  8
0
100
AcDbLine
 10
64.42965121508739
 20
106.4197676469267
 30
0.0
 11
64.08081400578521
 21
106.4197676469267
 31
0.0
  0
ELLIPSE
  5
5E8
330
1F
100
AcDbEntity
  8
0
100
AcDbEllipse
 10
66.13023261043618
 20
105.7656978794847
 30
0.0
 11
-1.569767441860465
 21
0.0
 31
0.0
210
0.0
220
0.0
230
1.0
 40
0.5833333335538832
 41
0.0
 42
6.283185307179584
  0
ELLIPSE
  5
5E9
330
1F
100
AcDbEntity
  8
0
100
AcDbEllipse
 10
66.13025779026449
 20
105.7656978794847
 30
0.0
 11
-0.8721182030841744
 21
0.0
 31
0.0
210
0.0
220
0.0
230
1.0
 40
0.7499783459728239
 41
0.0
 42
6.283185307179584
  0
LINE
  5
5EA
330
1F
100
AcDbEntity
  8
0
100
AcDbLine
 10
26.70000005229679
 20
114.3500002050662
 30
0.0
 11
36.7000000522968
 21
114.3500002050662
 31
0.0
1001
GENIUS_GENODEF_13
1002
{
1000
HIER
1070
     0
1002
}
1002
{
1000
MANEDIT
1070
     0
1002
}
1002
{
1000
NOSEL
1070
     0
1002
}
1002
{
1000
BEHIND
1070
     0
1002
}
1002
{
1000
OTHER
1070
     0
1002
}
1002
{
1000
REACTOR
1002
}
1001
GENIUS_GENOBJ-N-CEN_13
1002
{
1000
OWNER
1000
GEN
1002
}
1001
GENIUS_GENCEN_19
1002
{
1040
2.793999999999998
1002
}
  0
LINE
  5
5EB
330
1F
100
AcDbEntity
  8
0
100
AcDbLine
 10
26.70000005229679
 20
108.3500002050661
 30
0.0
 11
36.7000000522968
 21
108.3500002050661
 31
0.0
1001
GENIUS_GENODEF_13
1002
{
1000
HIER
1070
     0
1002
}
1002
{
1000
MANEDIT
1070
     0
1002
}
1002
{
1000
NOSEL
1070
     0
1002
}
1002
{
1000
BEHIND
1070
     0
1002
}
1002
{
1000
OTHER
1070
     0
1002
}
1002
{
1000
REACTOR
1002
}
1001
GENIUS_GENOBJ-N-CEN_13
1002
{
1000
OWNER
1000
GEN
1002
}
1001
GENIUS_GENCEN_19
1002
{
1040
2.793999999999998
1002
}
  0
ARC
  5
5EC
330
1F
100
AcDbEntity
  8
0
100
AcDbCircle
 10
26.70000005229679
 20
111.3500002050662
 30
0.0
 40
3.000000000000006
100
AcDbArc
 50
90.0
 51
270.0
  0
ARC
  5
5ED
330
1F
100
AcDbEntity
  8
0
100
AcDbCircle
 10
36.7000000522968
 20
111.3500002050662
 30
0.0
 40
3.000000000000006
100
AcDbArc
 50
270.0
 51
90.0
  0
LINE
  5
5EE
330
1F
100
AcDbEntity
  8
0
100
AcDbLine
 10
45.70000005229679
 20
114.3500002050662
 30
0.0
 11
55.70000005229688
 21
114.3500002050662
 31
0.0
1001
GENIUS_GENODEF_13
1002
{
1000
HIER
1070
     0
1002
}
1002
{
1000
MANEDIT
1070
     0
1002
}
1002
{
1000
NOSEL
1070
     0
1002
}
1002
{
1000
BEHIND
1070
     0
1002
}
1002
{
1000
OTHER
1070
     0
1002
}
1002
{
1000
REACTOR
1002
}
1001
GENIUS_GENOBJ-N-CEN_13
1002
{
1000
OWNER
1000
GEN
1002
}
1001
GENIUS_GENCEN_19
1002
{
1040
2.793999999999998
1002
}
  0
LINE
  5
5EF
330
1F
100
AcDbEntity
  8
0
100
AcDbLine
 10
45.70000005229679
 20
108.3500002050661
 30
0.0
 11
55.70000005229688
 21
108.3500002050661
 31
0.0
1001
GENIUS_GENODEF_13
1002
{
1000
HIER
1070
     0
1002
}
1002
{
1000
MANEDIT
1070
     0
1002
}
1002
{
1000
NOSEL
1070
     0
1002
}
1002
{
1000
BEHIND
1070
     0
1002
}
1002
{
1000
OTHER
1070
     0
1002
}
1002
{
1000
REACTOR
1002
}
1001
GENIUS_GENOBJ-N-CEN_13
1002
{
1000
OWNER
1000
GEN
1002
}
1001
GENIUS_GENCEN_19
1002
{
1040
2.793999999999998
1002
}
  0
ARC
  5
5F0
330
1F
100
AcDbEntity
  8
0
100
AcDbCircle
 10
45.70000005229679
 20
111.3500002050662
 30
0.0
 40
3.000000000000006
100
AcDbArc
 50
90.0
 51
270.0
  0
ARC
  5
5F1
330
1F
100
AcDbEntity
  8
0
100
AcDbCircle
 10
55.70000005229688
 20
111.3500002050662
 30
0.0
 40
3.000000000000006
100
AcDbArc
 50
270.0
 51
90.0
  0
LINE
  5
5F2
330
1F
100
AcDbEntity
  8
0
100
AcDbLine
 10
64.70000005229678
 20
114.3500002050662
 30
0.0
 11
74.70000005229687
 21
114.3500002050662
 31
0.0
1001
GENIUS_GENODEF_13
1002
{
1000
HIER
1070
     0
1002
}
1002
{
1000
MANEDIT
1070
     0
1002
}
1002
{
1000
NOSEL
1070
     0
1002
}
1002
{
1000
BEHIND
1070
     0
1002
}
1002
{
1000
OTHER
1070
     0
1002
}
1002
{
1000
REACTOR
1002
}
1001
GENIUS_GENOBJ-N-CEN_13
1002
{
1000
OWNER
1000
GEN
1002
}
1001
GENIUS_GENCEN_19
1002
{
1040
2.793999999999998
1002
}
  0
LINE
  5
5F3
330
1F
100
AcDbEntity
  8
0
100
AcDbLine
 10
64.70000005229678
 20
108.3500002050661
 30
0.0
 11
74.70000005229687
 21
108.3500002050661
 31
0.0
1001
GENIUS_GENODEF_13
1002
{
1000
HIER
1070
     0
1002
}
1002
{
1000
MANEDIT
1070
     0
1002
}
1002
{
1000
NOSEL
1070
     0
1002
}
1002
{
1000
BEHIND
1070
     0
1002
}
1002
{
1000
OTHER
1070
     0
1002
}
1002
{
1000
REACTOR
1002
}
1001
GENIUS_GENOBJ-N-CEN_13
1002
{
1000
OWNER
1000
GEN
1002
}
1001
GENIUS_GENCEN_19
1002
{
1040
2.793999999999998
1002
}
  0
ARC
  5
5F4
330
1F
100
AcDbEntity
  8
0
100
AcDbCircle
 10
64.70000005229678
 20
111.3500002050662
 30
0.0
 40
3.000000000000006
100
AcDbArc
 50
90.0
 51
270.0
  0
ARC
  5
5F5
330
1F
100
AcDbEntity
  8
0
100
AcDbCircle
 10
74.70000005229687
 20
111.3500002050662
 30
0.0
 40
3.000000000000006
100
AcDbArc
 50
270.0
 51
90.0
  0
LINE
  5
5F6
330
1F
100
AcDbEntity
  8
0
100
AcDbLine
 10
83.7000000522968
 20
114.3500002050662
 30
0.0
 11
93.70000005229687
 21
114.3500002050662
 31
0.0
1001
GENIUS_GENODEF_13
1002
{
1000
HIER
1070
     0
1002
}
1002
{
1000
MANEDIT
1070
     0
1002
}
1002
{
1000
NOSEL
1070
     0
1002
}
1002
{
1000
BEHIND
1070
     0
1002
}
1002
{
1000
OTHER
1070
     0
1002
}
1002
{
1000
REACTOR
1002
}
1001
GENIUS_GENOBJ-N-CEN_13
1002
{
1000
OWNER
1000
GEN
1002
}
1001
GENIUS_GENCEN_19
1002
{
1040
2.793999999999998
1002
}
  0
LINE
  5
5F7
330
1F
100
AcDbEntity
  8
0
100
AcDbLine
 10
83.7000000522968
 20
108.3500002050661
 30
0.0
 11
93.70000005229687
 21
108.3500002050661
 31
0.0
1001
GENIUS_GENODEF_13
1002
{
1000
HIER
1070
     0
1002
}
1002
{
1000
MANEDIT
1070
     0
1002
}
1002
{
1000
NOSEL
1070
     0
1002
}
1002
{
1000
BEHIND
1070
     0
1002
}
1002
{
1000
OTHER
1070
     0
1002
}
1002
{
1000
REACTOR
1002
}
1001
GENIUS_GENOBJ-N-CEN_13
1002
{
1000
OWNER
1000
GEN
1002
}
1001
GENIUS_GENCEN_19
1002
{
1040
2.793999999999998
1002
}
  0
ARC
  5
5F8
330
1F
100
AcDbEntity
  8
0
100
AcDbCircle
 10
83.7000000522968
 20
111.3500002050662
 30
0.0
 40
3.000000000000006
100
AcDbArc
 50
90.0
 51
270.0
  0
ARC
  5
5F9
330
1F
100
AcDbEntity
  8
0
100
AcDbCircle
 10
93.70000005229687
 20
111.3500002050662
 30
0.0
 40
3.000000000000006
100
AcDbArc
 50
270.0
 51
90.0
  0
LINE
  5
5FA
330
1F
100
AcDbEntity
  8
0
100
AcDbLine
 10
107.3000000522968
 20
145.3000002050661
 30
0.0
 11
107.3000000522968
 21
135.3000002050662
 31
0.0
  0
LINE
  5
5FB
330
1F
100
AcDbEntity
  8
0
100
AcDbLine
 10
108.4000000522958
 20
128.3000002050662
 30
0.0
 11
118.400000052296
 21
128.3000002050662
 31
0.0
  0
LINE
  5
5FC
330
1F
100
AcDbEntity
  8
0
100
AcDbLine
 10
107.3000000522968
 20
145.3000002050661
 30
0.0
 11
108.4000000522958
 21
145.3000002050661
 31
0.0
  0
LINE
  5
5FD
330
1F
100
AcDbEntity
  8
0
100
AcDbLine
 10
107.2000000522968
 20
143.5000002050661
 30
0.0
 11
107.3000000522973
 21
143.5000002050661
 31
0.0
  0
LINE
  5
5FE
330
1F
100
AcDbEntity
  8
0
100
AcDbLine
 10
107.2000000522967
 20
137.1000002050661
 30
0.0
 11
107.3000000522973
 21
137.1000002050661
 31
0.0
  0
LINE
  5
5FF
330
1F
100
AcDbEntity
  8
0
100
AcDbLine
 10
107.3000000522968
 20
135.3000002050662
 30
0.0
 11
108.4000000522957
 21
135.3000002050659
 31
0.0
  0
LINE
  5
600
330
1F
100
AcDbEntity
  8
0
100
AcDbLine
 10
112.2000000522958
 20
131.7000002050662
 30
0.0
 11
114.6000000522959
 21
131.7000002050662
 31
0.0
1001
GENIUS_GENREC_14
1002
{
1000
PYDIR
1011
112.4000000522958
1021
133.9000002050657
1031
0.0
1002
}
1002
{
1000
PXDIR
1011
114.400000052296
1021
131.900000205066
1031
0.0
1002
}
1002
{
1000
PORI
1011
112.4000000522958
1021
131.900000205066
1031
0.0
1002
}
1002
{
1000
PINS
1011
112.4000000522958
1021
131.900000205066
1031
0.0
1002
}
1002
{
1000
PINS2
1011
114.400000052296
1021
133.9000002050657
1031
0.0
1002
}
1002
{
1000
C
1070
     1
1002
}
1001
GENIUS_GENODEF_13
1002
{
1000
HIER
1070
     0
1002
}
1002
{
1000
MANEDIT
1070
     0
1002
}
1002
{
1000
NOSEL
1070
     0
1002
}
1002
{
1000
BEHIND
1070
     0
1002
}
1002
{
1000
OTHER
1070
     0
1002
}
1002
{
1000
REACTOR
1002
}
1001
GENIUS_GENOBJ-N-REC_13
1002
{
1000
OWNER
1000
GEN
1002
}
  0
LINE
  5
601
330
1F
100
AcDbEntity
  8
0
100
AcDbLine
 10
114.6000000522959
 20
131.7000002050662
 30
0.0
 11
114.6000000522959
 21
133.9000002050657
 31
0.0
1001
GENIUS_GENREC_14
1002
{
1000
PYDIR
1011
112.4000000522958
1021
133.7000002050656
1031
0.0
1002
}
1002
{
1000
PXDIR
1011
114.400000052296
1021
131.900000205066
1031
0.0
1002
}
1002
{
1000
PORI
1011
112.4000000522958
1021
131.900000205066
1031
0.0
1002
}
1002
{
1000
PINS
1011
112.4000000522958
1021
131.900000205066
1031
0.0
1002
}
1002
{
1000
PINS2
1011
114.400000052296
1021
133.7000002050656
1031
0.0
1002
}
1002
{
1000
C
1070
     1
1002
}
1001
GENIUS_GENODEF_13
1002
{
1000
HIER
1070
     0
1002
}
1002
{
1000
MANEDIT
1070
     0
1002
}
1002
{
1000
NOSEL
1070
     0
1002
}
1002
{
1000
BEHIND
1070
     0
1002
}
1002
{
1000
OTHER
1070
     0
1002
}
1002
{
1000
REACTOR
1002
}
1001
GENIUS_GENOBJ-N-REC_13
1002
{
1000
OWNER
1000
GEN
1002
}
  0
LINE
  5
602
330
1F
100
AcDbEntity
  8
0
100
AcDbLine
 10
114.6000000522959
 20
133.9000002050657
 30
0.0
 11
112.2000000522958
 21
133.9000002050657
 31
0.0
1001
GENIUS_GENREC_14
1002
{
1000
PYDIR
1011
112.4000000522958
1021
133.7000002050656
1031
0.0
1002
}
1002
{
1000
PXDIR
1011
114.400000052296
1021
131.900000205066
1031
0.0
1002
}
1002
{
1000
PORI
1011
112.4000000522958
1021
131.900000205066
1031
0.0
1002
}
1002
{
1000
PINS
1011
112.4000000522958
1021
131.900000205066
1031
0.0
1002
}
1002
{
1000
PINS2
1011
114.400000052296
1021
133.7000002050656
1031
0.0
1002
}
1002
{
1000
C
1070
     1
1002
}
1001
GENIUS_GENODEF_13
1002
{
1000
HIER
1070
     0
1002
}
1002
{
1000
MANEDIT
1070
     0
1002
}
1002
{
1000
NOSEL
1070
     0
1002
}
1002
{
1000
BEHIND
1070
     0
1002
}
1002
{
1000
OTHER
1070
     0
1002
}
1002
{
1000
REACTOR
1002
}
1001
GENIUS_GENOBJ-N-REC_13
1002
{
1000
OWNER
1000
GEN
1002
}
  0
LINE
  5
603
330
1F
100
AcDbEntity
  8
0
100
AcDbLine
 10
112.2000000522958
 20
133.9000002050657
 30
0.0
 11
112.2000000522958
 21
131.7000002050662
 31
0.0
1001
GENIUS_GENREC_14
1002
{
1000
PYDIR
1011
112.4000000522958
1021
133.7000002050656
1031
0.0
1002
}
1002
{
1000
PXDIR
1011
114.400000052296
1021
131.900000205066
1031
0.0
1002
}
1002
{
1000
PORI
1011
112.4000000522958
1021
131.900000205066
1031
0.0
1002
}
1002
{
1000
PINS
1011
112.4000000522958
1021
131.900000205066
1031
0.0
1002
}
1002
{
1000
PINS2
1011
114.400000052296
1021
133.7000002050656
1031
0.0
1002
}
1002
{
1000
C
1070
     1
1002
}
1001
GENIUS_GENODEF_13
1002
{
1000
HIER
1070
     0
1002
}
1002
{
1000
MANEDIT
1070
     0
1002
}
1002
{
1000
NOSEL
1070
     0
1002
}
1002
{
1000
BEHIND
1070
     0
1002
}
1002
{
1000
OTHER
1070
     0
1002
}
1002
{
1000
REACTOR
1002
}
1001
GENIUS_GENOBJ-N-REC_13
1002
{
1000
OWNER
1000
GEN
1002
}
  0
LINE
  5
604
330
1F
100
AcDbEntity
  8
0
100
AcDbLine
 10
118.4000000522958
 20
128.3000002050758
 30
0.0
 11
118.4000000522958
 21
152.3000002050662
 31
0.0
  0
LINE
  5
605
330
1F
100
AcDbEntity
  8
0
100
AcDbLine
 10
108.4000000522957
 20
128.3000002050758
 30
0.0
 11
108.4000000522957
 21
135.3000002050659
 31
0.0
  0
LINE
  5
606
330
1F
100
AcDbEntity
  8
0
100
AcDbLine
 10
108.4000000522958
 20
145.3000002050661
 30
0.0
 11
108.4000000522958
 21
152.3000002050662
 31
0.0
  0
LINE
  5
607
330
1F
100
AcDbEntity
  8
0
100
AcDbLine
 10
108.4000000522958
 20
145.3000002050661
 30
0.0
 11
113.4000000522958
 21
140.3000002050662
 31
0.0
  0
LINE
  5
608
330
1F
100
AcDbEntity
  8
0
100
AcDbLine
 10
113.4000000522958
 20
140.3000002050662
 30
0.0
 11
108.4000000522958
 21
135.3000002050662
 31
0.0
  0
LINE
  5
609
330
1F
100
AcDbEntity
  8
0
100
AcDbLine
 10
117.400000052296
 20
205.3000002050664
 30
0.0
 11
109.4000000522958
 21
205.3000002050663
 31
0.0
  0
LINE
  5
60A
330
1F
100
AcDbEntity
  8
0
100
AcDbLine
 10
108.4000000522958
 20
152.3000002050662
 30
0.0
 11
109.4000000522958
 21
205.3000002050663
 31
0.0
  0
LINE
  5
60B
330
1F
100
AcDbEntity
  8
0
100
AcDbLine
 10
118.4000000522958
 20
152.3000002050662
 30
0.0
 11
117.400000052296
 21
205.3000002050664
 31
0.0
  0
LINE
  5
60C
330
1F
100
AcDbEntity
  8
0
100
AcDbLine
 10
109.5000000522954
 20
205.3000002050663
 30
0.0
 11
109.5557981854847
 21
207.201503130905
 31
0.0
  0
LINE
  5
60D
330
1F
100
AcDbEntity
  8
0
100
AcDbLine
 10
117.3000000522954
 20
205.3000002050663
 30
0.0
 11
117.2442019191061
 21
207.2015031309045
 31
0.0
  0
ARC
  5
60E
330
1F
100
AcDbEntity
  8
0
100
AcDbCircle
 10
116.7442943490911
 20
207.1918895237891
 30
0.0
 40
0.5
100
AcDbArc
 50
1.101706115201059
 51
69.38841074338518
1001
GENIUS_GENODEF_13
1002
{
1000
HIER
1070
     0
1002
}
1002
{
1000
MANEDIT
1070
     0
1002
}
1002
{
1000
NOSEL
1070
     0
1002
}
1002
{
1000
BEHIND
1070
     0
1002
}
1002
{
1000
OTHER
1070
     0
1002
}
1002
{
1000
REACTOR
1002
}
1001
GENIUS_GENOBJ-N-FIL_13
1002
{
1000
OWNER
1000
GEN
1002
}
  0
ARC
  5
60F
330
1F
100
AcDbEntity
  8
0
100
AcDbCircle
 10
110.0557057554996
 20
207.1918895237894
 30
0.0
 40
0.5
100
AcDbArc
 50
110.6115892566115
 51
178.8982938847924
1001
GENIUS_GENOBJ-N-FIL_13
1002
{
1000
OWNER
1000
GEN
1002
}
1001
GENIUS_GENODEF_13
1002
{
1000
HIER
1070
     0
1002
}
1002
{
1000
MANEDIT
1070
     0
1002
}
1002
{
1000
NOSEL
1070
     0
1002
}
1002
{
1000
BEHIND
1070
     0
1002
}
1002
{
1000
OTHER
1070
     0
1002
}
1002
{
1000
REACTOR
1002
}
  0
ARC
  5
610
330
1F
100
AcDbEntity
  8
0
100
AcDbCircle
 10
113.4000000522951
 20
198.3000002050662
 30
0.0
 40
10.0
100
AcDbArc
 50
69.38841074338518
 51
81.37307343471126
  0
ARC
  5
611
330
1F
100
AcDbEntity
  8
0
100
AcDbCircle
 10
113.4000000522951
 20
198.3000002050662
 30
0.0
 40
10.0
100
AcDbArc
 50
98.62692656528871
 51
110.6115892566115
  0
LINE
  5
612
330
1F
100
AcDbEntity
  8
0
100
AcDbLine
 10
114.9000000534358
 20
208.1868601715358
 30
0.0
 11
111.9000000511544
 21
208.1868601715358
 31
0.0
  0
LINE
  5
613
330
1F
100
AcDbEntity
  8
0
100
AcDbLine
 10
114.400000052296
 20
132.2000002050662
 30
0.0
 11
112.4000000522958
 21
132.2000002050661
 31
0.0
  0
LINE
  5
614
330
1F
100
AcDbEntity
  8
0
100
AcDbLine
 10
117.9000000522959
 20
126.8000002050662
 30
0.0
 11
108.9000000522956
 21
126.800000205066
 31
0.0
  0
LINE
  5
615
330
1F
100
AcDbEntity
  8
0
100
AcDbLine
 10
108.4000000522958
 20
127.3000002050661
 30
0.0
 11
108.9000000522956
 21
126.800000205066
 31
0.0
1001
GENIUS_GENFIL_13
1070
     0
1040
0.5
1040
0.5
1040
20.0
1040
0.0
1002
{
1002
}
1001
GENIUS_GENODEF_13
1002
{
1000
HIER
1070
     0
1002
}
1002
{
1000
MANEDIT
1070
     0
1002
}
1002
{
1000
NOSEL
1070
     0
1002
}
1002
{
1000
BEHIND
1070
     0
1002
}
1002
{
1000
OTHER
1070
     0
1002
}
1002
{
1000
REACTOR
1002
}
1001
GENIUS_GENOBJ-N-CHA_13
1002
{
1000
OWNER
1000
GEN
1002
}
  0
LINE
  5
616
330
1F
100
AcDbEntity
  8
0
100
AcDbLine
 10
118.4000000522958
 20
128.3000002050662
 30
0.0
 11
118.400000052296
 21
127.3000002050662
 31
0.0
  0
LINE
  5
617
330
1F
100
AcDbEntity
  8
0
100
AcDbLine
 10
117.9000000522959
 20
126.8000002050662
 30
0.0
 11
118.400000052296
 21
127.3000002050662
 31
0.0
1001
GENIUS_GENFIL_13
1070
     0
1040
0.5
1040
0.5
1040
0.4999999999999787
1040
45.00000000000446
1000
~T
1001
GENIUS_GENOREF_13
1005
0
  0
LINE
  5
618
330
1F
100
AcDbEntity
  8
0
100
AcDbLine
 10
108.4000000522959
 20
128.3000002050662
 30
0.0
 11
108.4000000522958
 21
127.3000002050661
 31
0.0
  0
LINE
  5
619
330
1F
100
AcDbEntity
  8
0
100
AcDbLine
 10
118.400000052296
 20
127.3000002050665
 30
0.0
 11
108.4000000522958
 21
127.3000002050661
 31
0.0
  0
LINE
  5
61A
330
1F
100
AcDbEntity
  8
0
100
AcDbLine
 10
114.400000052296
 20
133.7000002050656
 30
0.0
 11
112.4000000522958
 21
133.7000002050657
 31
0.0
  0
LINE
  5
61B
330
1F
100
AcDbEntity
  8
0
100
AcDbLine
 10
112.4000000522958
 20
131.7000002050662
 30
0.0
 11
112.4000000522958
 21
133.7000002050657
 31
0.0
  0
LINE
  5
61C
330
1F
100
AcDbEntity
  8
0
100
AcDbLine
 10
114.4000000522958
 20
131.7000002050662
 30
0.0
 11
114.400000052296
 21
133.7000002050656
 31
0.0
  0
LINE
  5
61D
330
1F
100
AcDbEntity
  8
0
100
AcDbLine
 10
12.00000005229707
 20
128.3000002050662
 30
0.0
 11
0.000000052296798
 21
128.3000002050662
 31
0.0
  0
LINE
  5
61E
330
1F
100
AcDbEntity
  8
0
100
AcDbLine
 10
12.90000005229682
 20
145.3000002050661
 30
0.0
 11
12.00000005229707
 21
145.3000002050661
 31
0.0
  0
LINE
  5
61F
330
1F
100
AcDbEntity
  8
0
100
AcDbLine
 10
12.90000005229682
 20
135.3000002050661
 30
0.0
 11
12.00000005229707
 21
135.3000002050659
 31
0.0
  0
LINE
  5
620
330
1F
100
AcDbEntity
  8
0
100
AcDbLine
 10
0.0000000522969685
 20
121.8000002050661
 30
0.0
 11
0.0000000522969685
 21
146.8000002050566
 31
0.0
  0
LINE
  5
621
330
1F
100
AcDbEntity
  8
0
100
AcDbLine
 10
12.00000005229707
 20
121.8000002050661
 30
0.0
 11
12.00000005229707
 21
135.3000002050659
 31
0.0
  0
LINE
  5
622
330
1F
100
AcDbEntity
  8
0
100
AcDbLine
 10
12.00000005229707
 20
145.3000002050661
 30
0.0
 11
12.00000005229707
 21
146.8000002050566
 31
0.0
  0
LINE
  5
623
330
1F
100
AcDbEntity
  8
0
100
AcDbLine
 10
12.00000005229707
 20
146.8000002050566
 30
0.0
 11
0.0000000522969685
 21
146.8000002050566
 31
0.0
  0
LINE
  5
624
330
1F
100
AcDbEntity
  8
0
100
AcDbLine
 10
0.500000052296798
 20
147.3000002050566
 30
0.0
 11
0.0000000522968548
 21
146.8000002050566
 31
0.0
1001
GENIUS_GENFIL_13
1070
     0
1040
0.5
1040
0.5
1040
0.5
1040
45.00000000000325
1002
{
1002
}
1001
GENIUS_GENOBJ-N-CHA_13
1002
{
1000
OWNER
1000
GEN
1002
}
1001
GENIUS_GENODEF_13
1002
{
1000
HIER
1070
     0
1002
}
1002
{
1000
MANEDIT
1070
     0
1002
}
1002
{
1000
NOSEL
1070
     0
1002
}
1002
{
1000
BEHIND
1070
     0
1002
}
1002
{
1000
OTHER
1070
     0
1002
}
1002
{
1000
REACTOR
1002
}
  0
LINE
  5
625
330
1F
100
AcDbEntity
  8
0
100
AcDbLine
 10
0.500000052296798
 20
147.3000002050566
 30
0.0
 11
11.50000005229697
 21
147.3000002050566
 31
0.0
  0
LINE
  5
626
330
1F
100
AcDbEntity
  8
0
100
AcDbLine
 10
12.00000005229697
 20
146.8000002050566
 30
0.0
 11
11.50000005229697
 21
147.3000002050566
 31
0.0
1001
GENIUS_GENFIL_13
1070
     0
1040
0.5
1040
0.5
1040
0.5
1040
45.00000000000325
1002
{
1002
}
1001
GENIUS_GENOBJ-N-CHA_13
1002
{
1000
OWNER
1000
GEN
1002
}
1001
GENIUS_GENODEF_13
1002
{
1000
HIER
1070
     0
1002
}
1002
{
1000
MANEDIT
1070
     0
1002
}
1002
{
1000
NOSEL
1070
     0
1002
}
1002
{
1000
BEHIND
1070
     0
1002
}
1002
{
1000
OTHER
1070
     0
1002
}
1002
{
1000
REACTOR
1002
}
  0
SPLINE
  5
627
330
1F
100
AcDbEntity
  8
0
100
AcDbSpline
210
0.0
220
0.0
230
1.0
 70
     8
 71
     3
 72
    38
 73
    34
 74
     0
 42
0.0000000001
 43
0.0000000001
 40
8.160870181059902
 40
8.160870181059902
 40
8.160870181059902
 40
8.160870181059902
 40
9.159821244704103
 40
9.159821244704103
 40
10.15877230834831
 40
10.15877230834831
 40
11.15772337199251
 40
11.15772337199251
 40
12.15667443563672
 40
12.15667443563672
 40
13.19794091725749
 40
13.19794091725749
 40
14.23920739887826
 40
14.23920739887826
 40
15.28047388049904
 40
15.28047388049904
 40
16.32174036211981
 40
16.32174036211981
 40
17.36300684374058
 40
17.36300684374058
 40
18.40427332536135
 40
18.40427332536135
 40
19.44553980698212
 40
19.44553980698212
 40
20.48680628860289
 40
20.48680628860289
 40
21.4857573522471
 40
21.4857573522471
 40
22.48470841589131
 40
22.48470841589131
 40
23.48365947953551
 40
23.48365947953551
 40
24.48261054317971
 40
24.48261054317971
 40
24.48261054317971
 40
24.48261054317971
 10
12.00000005229697
 20
145.3000002050661
 30
0.0
 10
12.00000005229697
 20
145.3000002050661
 30
0.0
 10
11.97174896377475
 20
145.2662095859848
 30
0.0
 10
11.85925115523957
 20
145.1303494720205
 30
0.0
 10
11.7750619551424
 20
145.0283410098075
 30
0.0
 10
11.5627154455525
 20
144.7665054575452
 30
0.0
 10
11.43440160678085
 20
144.6064486455709
 30
0.0
 10
11.15314988970647
 20
144.2455966308952
 30
0.0
 10
11.00030273282107
 20
144.044799982872
 30
0.0
 10
10.68859200659528
 20
143.617403768023
 30
0.0
 10
10.51718030781228
 20
143.3733800292398
 30
0.0
 10
10.17527430436338
 20
142.844339256591
 30
0.0
 10
10.00476859880551
 20
142.5594330770018
 30
0.0
 10
9.699279719508114
 20
141.958775964548
 30
0.0
 10
9.564392364856873
 20
141.6428218057295
 30
0.0
 10
9.372518020686683
 20
140.9871353147656
 30
0.0
 10
9.316624842652243
 20
140.647089032273
 30
0.0
 10
9.316624842652243
 20
139.9529113778593
 30
0.0
 10
9.372518020686683
 20
139.6128650953666
 30
0.0
 10
9.564392364856873
 20
138.9571786044027
 30
0.0
 10
9.699279719508114
 20
138.6412244455841
 30
0.0
 10
10.00476859880551
 20
138.0405673331305
 30
0.0
 10
10.17527430436338
 20
137.7556611535412
 30
0.0
 10
10.51718030781228
 20
137.2266203808925
 30
0.0
 10
10.68859200659528
 20
136.9825966421091
 30
0.0
 10
11.00030273282107
 20
136.5552004272601
 30
0.0
 10
11.15314988970647
 20
136.3544037792371
 30
0.0
 10
11.43440160678085
 20
135.9935517645614
 30
0.0
 10
11.5627154455525
 20
135.833494952587
 30
0.0
 10
11.7750619551424
 20
135.5716594003247
 30
0.0
 10
11.85925115523957
 20
135.4696509381118
 30
0.0
 10
11.97174896377475
 20
135.3337908241475
 30
0.0
 10
12.00000005229697
 20
135.3000002050661
 30
0.0
 10
12.00000005229697
 20
135.3000002050661
 30
0.0
  0
LINE
  5
628
330
1F
100
AcDbEntity
  8
0
100
AcDbLine
 10
12.00000005229697
 20
128.3000002050662
 30
0.0
 11
0.0000000522969046
 21
128.3000002050662
 31
0.0
  0
LINE
  5
629
330
1F
100
AcDbEntity
  8
0
100
AcDbLine
 10
6.000000052237168
 20
126.800000205066
 30
0.0
 11
6.000000052237168
 21
121.8000002050661
 31
0.0
  0
LINE
  5
62A
330
1F
100
AcDbEntity
  8
0
100
AcDbLine
 10
12.00000005229697
 20
120.3000002050661
 30
0.0
 11
12.00000005229697
 21
112.3000002050661
 31
0.0
  0
LINE
  5
62B
330
1F
100
AcDbEntity
  8
0
100
AcDbLine
 10
6.000000052237168
 20
120.3000002050661
 30
0.0
 11
6.000000052237168
 21
112.3000002050661
 31
0.0
  0
LINE
  5
62C
330
1F
100
AcDbEntity
  8
0
100
AcDbLine
 10
0.0000000522969046
 20
120.3000002050661
 30
0.0
 11
0.0000000522969046
 21
112.3000002050661
 31
0.0
  0
LINE
  5
62D
330
1F
100
AcDbEntity
  8
0
100
AcDbLine
 10
12.00000005229697
 20
126.800000205066
 30
0.0
 11
0.0000000522969046
 21
126.800000205066
 31
0.0
  0
LINE
  5
62E
330
1F
100
AcDbEntity
  8
0
100
AcDbLine
 10
11.00000005229685
 20
120.3000002050661
 30
0.0
 11
11.00000005229685
 21
121.8000002050661
 31
0.0
  0
LINE
  5
62F
330
1F
100
AcDbEntity
  8
0
100
AcDbLine
 10
1.000000052296903
 20
120.3000002050661
 30
0.0
 11
1.000000052296903
 21
121.8000002050661
 31
0.0
  0
LINE
  5
630
330
1F
100
AcDbEntity
  8
0
100
AcDbLine
 10
0.5000000522969046
 20
112.3000002050661
 30
0.0
 11
0.5000000522969046
 21
111.3000002050661
 31
0.0
  0
LINE
  5
631
330
1F
100
AcDbEntity
  8
0
100
AcDbLine
 10
11.50000005229697
 20
112.3000002050661
 30
0.0
 11
11.50000005229697
 21
111.3000002050661
 31
0.0
  0
LINE
  5
632
330
1F
100
AcDbEntity
  8
0
100
AcDbLine
 10
9.500000052296966
 20
109.3000002050661
 30
0.0
 11
2.500000052296904
 21
109.3000002050661
 31
0.0
  0
ARC
  5
633
330
1F
100
AcDbEntity
  8
0
100
AcDbCircle
 10
2.500000052296904
 20
111.3000002050661
 30
0.0
 40
2.0
100
AcDbArc
 50
180.0
 51
270.0
  0
ARC
  5
634
330
1F
100
AcDbEntity
  8
0
100
AcDbCircle
 10
9.500000052296966
 20
111.3000002050661
 30
0.0
 40
2.0
100
AcDbArc
 50
270.0
 51
0.0
  0
LINE
  5
635
330
1F
100
AcDbEntity
  8
0
100
AcDbLine
 10
0.0000000522969685
 20
121.8000002050661
 30
0.0
 11
12.00000005229707
 21
121.8000002050661
 31
0.0
  0
LINE
  5
636
330
1F
100
AcDbEntity
  8
0
100
AcDbLine
 10
0.0000000522969046
 20
120.3000002050661
 30
0.0
 11
12.00000005229697
 21
120.3000002050661
 31
0.0
  0
LINE
  5
637
330
1F
100
AcDbEntity
  8
0
100
AcDbLine
 10
0.0000000522969046
 20
112.3000002050661
 30
0.0
 11
12.00000005229697
 21
112.3000002050661
 31
0.0
  0
LINE
  5
638
330
1F
100
AcDbEntity
  8
0
100
AcDbLine
 10
103.7000000522968
 20
160.8000002050661
 30
0.0
 11
103.7000000522967
 21
103.8000002050661
 31
0.0
  0
LINE
  5
639
330
1F
100
AcDbEntity
  8
0
100
AcDbLine
 10
103.6500000522969
 20
103.8500002050662
 30
0.0
 11
103.6500000522969
 21
118.8500002050663
 31
0.0
  0
LINE
  5
644
330
1F
100
AcDbEntity
  8
0
100
AcDbLine
 10
16.75000005229662
 20
159.7500002050662
 30
0.0
 11
103.6500000522969
 21
159.7500002050666
 31
0.0
  0
LINE
  5
645
330
1F
100
AcDbEntity
  8
0
100
AcDbLine
 10
16.75000005229662
 20
158.7500002050663
 30
0.0
 11
103.6500000522969
 21
158.7500002050665
 31
0.0
  0
LINE
  5
646
330
1F
100
AcDbEntity
  8
0
100
AcDbLine
 10
16.75000005229662
 20
157.7500002050662
 30
0.0
 11
103.6500000522969
 21
157.7500002050666
 31
0.0
  0
LINE
  5
647
330
1F
100
AcDbEntity
  8
0
100
AcDbLine
 10
16.75000005229662
 20
156.7500002050663
 30
0.0
 11
103.6500000522969
 21
156.7500002050666
 31
0.0
  0
LINE
  5
648
330
1F
100
AcDbEntity
  8
0
100
AcDbLine
 10
16.75000005229662
 20
155.7500002050662
 30
0.0
 11
103.6500000522969
 21
155.7500002050666
 31
0.0
  0
LINE
  5
649
330
1F
100
AcDbEntity
  8
0
100
AcDbLine
 10
16.75000005229662
 20
154.7500002050663
 30
0.0
 11
103.6500000522969
 21
154.7500002050666
 31
0.0
  0
LINE
  5
64A
330
1F
100
AcDbEntity
  8
0
100
AcDbLine
 10
16.75000005229662
 20
153.7500002050662
 30
0.0
 11
25.94006584461825
 21
153.7500002050662
 31
0.0
  0
LINE
  5
64B
330
1F
100
AcDbEntity
  8
0
100
AcDbLine
 10
94.45993425997489
 20
153.7500002050666
 30
0.0
 11
103.6500000522969
 21
153.7500002050666
 31
0.0
  0
LINE
  5
64C
330
1F
100
AcDbEntity
  8
0
100
AcDbLine
 10
16.75000005229662
 20
152.7500002050663
 30
0.0
 11
25.70000005229666
 21
152.7500002050663
 31
0.0
  0
LINE
  5
64D
330
1F
100
AcDbEntity
  8
0
100
AcDbLine
 10
94.70000005229669
 20
152.7500002050666
 30
0.0
 11
103.6500000522969
 21
152.7500002050666
 31
0.0
  0
LINE
  5
64E
330
1F
100
AcDbEntity
  8
0
100
AcDbLine
 10
16.75000005229662
 20
151.7500002050662
 30
0.0
 11
25.70000005229666
 21
151.7500002050662
 31
0.0
  0
LINE
  5
64F
330
1F
100
AcDbEntity
  8
0
100
AcDbLine
 10
94.70000005229669
 20
151.7500002050666
 30
0.0
 11
103.6500000522969
 21
151.7500002050666
 31
0.0
  0
LINE
  5
650
330
1F
100
AcDbEntity
  8
0
100
AcDbLine
 10
16.75000005229662
 20
150.7500002050663
 30
0.0
 11
25.70000005229666
 21
150.7500002050663
 31
0.0
  0
LINE
  5
651
330
1F
100
AcDbEntity
  8
0
100
AcDbLine
 10
94.70000005229669
 20
150.7500002050666
 30
0.0
 11
103.6500000522969
 21
150.7500002050666
 31
0.0
  0
LINE
  5
652
330
1F
100
AcDbEntity
  8
0
100
AcDbLine
 10
16.75000005229662
 20
149.7500002050662
 30
0.0
 11
25.70000005229666
 21
149.7500002050662
 31
0.0
  0
LINE
  5
653
330
1F
100
AcDbEntity
  8
0
100
AcDbLine
 10
94.70000005229669
 20
149.7500002050666
 30
0.0
 11
103.6500000522969
 21
149.7500002050666
 31
0.0
  0
LINE
  5
654
330
1F
100
AcDbEntity
  8
0
100
AcDbLine
 10
16.75000005229662
 20
148.7500002050663
 30
0.0
 11
25.70000005229666
 21
148.7500002050663
 31
0.0
  0
LINE
  5
655
330
1F
100
AcDbEntity
  8
0
100
AcDbLine
 10
94.70000005229669
 20
148.7500002050666
 30
0.0
 11
103.6500000522969
 21
148.7500002050666
 31
0.0
  0
LINE
  5
656
330
1F
100
AcDbEntity
  8
0
100
AcDbLine
 10
16.75000005229662
 20
147.7500002050663
 30
0.0
 11
25.70000005229666
 21
147.7500002050663
 31
0.0
  0
LINE
  5
657
330
1F
100
AcDbEntity
  8
0
100
AcDbLine
 10
94.70000005229669
 20
147.7500002050666
 30
0.0
 11
103.6500000522969
 21
147.7500002050666
 31
0.0
  0
LINE
  5
658
330
1F
100
AcDbEntity
  8
0
100
AcDbLine
 10
16.75000005229662
 20
146.7500002050663
 30
0.0
 11
25.70000005229666
 21
146.7500002050663
 31
0.0
  0
LINE
  5
659
330
1F
100
AcDbEntity
  8
0
100
AcDbLine
 10
94.70000005229669
 20
146.7500002050666
 30
0.0
 11
103.6500000522969
 21
146.7500002050666
 31
0.0
  0
LINE
  5
65A
330
1F
100
AcDbEntity
  8
0
100
AcDbLine
 10
16.75000005229662
 20
145.7500002050663
 30
0.0
 11
25.70000005229666
 21
145.7500002050663
 31
0.0
  0
LINE
  5
65B
330
1F
100
AcDbEntity
  8
0
100
AcDbLine
 10
94.70000005229669
 20
145.7500002050666
 30
0.0
 11
103.6500000522969
 21
145.7500002050666
 31
0.0
  0
LINE
  5
65C
330
1F
100
AcDbEntity
  8
0
100
AcDbLine
 10
16.75000005229662
 20
144.7500002050663
 30
0.0
 11
25.70000005229666
 21
144.7500002050663
 31
0.0
  0
LINE
  5
65D
330
1F
100
AcDbEntity
  8
0
100
AcDbLine
 10
94.70000005229669
 20
144.7500002050666
 30
0.0
 11
103.6500000522969
 21
144.7500002050666
 31
0.0
  0
LINE
  5
65E
330
1F
100
AcDbEntity
  8
0
100
AcDbLine
 10
16.75000005229662
 20
143.7500002050663
 30
0.0
 11
25.70000005229666
 21
143.7500002050663
 31
0.0
  0
LINE
  5
65F
330
1F
100
AcDbEntity
  8
0
100
AcDbLine
 10
94.70000005229669
 20
143.7500002050666
 30
0.0
 11
103.6500000522969
 21
143.7500002050666
 31
0.0
  0
LINE
  5
660
330
1F
100
AcDbEntity
  8
0
100
AcDbLine
 10
16.75000005229662
 20
142.7500002050663
 30
0.0
 11
25.70000005229666
 21
142.7500002050663
 31
0.0
  0
LINE
  5
661
330
1F
100
AcDbEntity
  8
0
100
AcDbLine
 10
94.70000005229669
 20
142.7500002050666
 30
0.0
 11
103.6500000522969
 21
142.7500002050666
 31
0.0
  0
LINE
  5
662
330
1F
100
AcDbEntity
  8
0
100
AcDbLine
 10
16.75000005229662
 20
141.7500002050663
 30
0.0
 11
25.70000005229666
 21
141.7500002050663
 31
0.0
  0
LINE
  5
663
330
1F
100
AcDbEntity
  8
0
100
AcDbLine
 10
94.70000005229669
 20
141.7500002050666
 30
0.0
 11
103.6500000522969
 21
141.7500002050666
 31
0.0
  0
LINE
  5
664
330
1F
100
AcDbEntity
  8
0
100
AcDbLine
 10
16.75000005229662
 20
140.7500002050663
 30
0.0
 11
25.70000005229666
 21
140.7500002050663
 31
0.0
  0
LINE
  5
665
330
1F
100
AcDbEntity
  8
0
100
AcDbLine
 10
94.70000005229669
 20
140.7500002050666
 30
0.0
 11
103.6500000522969
 21
140.7500002050666
 31
0.0
  0
LINE
  5
666
330
1F
100
AcDbEntity
  8
0
100
AcDbLine
 10
16.75000005229662
 20
139.7500002050663
 30
0.0
 11
25.70000005229666
 21
139.7500002050663
 31
0.0
  0
LINE
  5
667
330
1F
100
AcDbEntity
  8
0
100
AcDbLine
 10
94.70000005229669
 20
139.7500002050666
 30
0.0
 11
103.6500000522969
 21
139.7500002050666
 31
0.0
  0
LINE
  5
668
330
1F
100
AcDbEntity
  8
0
100
AcDbLine
 10
16.75000005229662
 20
138.7500002050663
 30
0.0
 11
25.70000005229666
 21
138.7500002050663
 31
0.0
  0
LINE
  5
669
330
1F
100
AcDbEntity
  8
0
100
AcDbLine
 10
94.70000005229669
 20
138.7500002050666
 30
0.0
 11
103.6500000522969
 21
138.7500002050666
 31
0.0
  0
LINE
  5
66A
330
1F
100
AcDbEntity
  8
0
100
AcDbLine
 10
16.75000005229662
 20
137.7500002050663
 30
0.0
 11
25.70000005229666
 21
137.7500002050663
 31
0.0
  0
LINE
  5
66B
330
1F
100
AcDbEntity
  8
0
100
AcDbLine
 10
94.70000005229669
 20
137.7500002050666
 30
0.0
 11
103.6500000522969
 21
137.7500002050666
 31
0.0
  0
LINE
  5
66C
330
1F
100
AcDbEntity
  8
0
100
AcDbLine
 10
16.75000005229662
 20
136.7500002050662
 30
0.0
 11
25.70000005229666
 21
136.7500002050662
 31
0.0
  0
LINE
  5
66D
330
1F
100
AcDbEntity
  8
0
100
AcDbLine
 10
94.70000005229669
 20
136.7500002050666
 30
0.0
 11
103.6500000522969
 21
136.7500002050666
 31
0.0
  0
LINE
  5
66E
330
1F
100
AcDbEntity
  8
0
100
AcDbLine
 10
16.75000005229662
 20
135.7500002050663
 30
0.0
 11
25.70000005229666
 21
135.7500002050663
 31
0.0
  0
LINE
  5
66F
330
1F
100
AcDbEntity
  8
0
100
AcDbLine
 10
94.70000005229669
 20
135.7500002050666
 30
0.0
 11
103.6500000522969
 21
135.7500002050666
 31
0.0
  0
LINE
  5
670
330
1F
100
AcDbEntity
  8
0
100
AcDbLine
 10
16.75000005229662
 20
134.7500002050662
 30
0.0
 11
25.70000005229666
 21
134.7500002050662
 31
0.0
  0
LINE
  5
671
330
1F
100
AcDbEntity
  8
0
100
AcDbLine
 10
94.70000005229669
 20
134.7500002050666
 30
0.0
 11
103.6500000522969
 21
134.7500002050666
 31
0.0
  0
LINE
  5
672
330
1F
100
AcDbEntity
  8
0
100
AcDbLine
 10
16.75000005229662
 20
133.7500002050663
 30
0.0
 11
25.70000005229666
 21
133.7500002050663
 31
0.0
  0
LINE
  5
673
330
1F
100
AcDbEntity
  8
0
100
AcDbLine
 10
94.70000005229669
 20
133.7500002050665
 30
0.0
 11
103.6500000522969
 21
133.7500002050665
 31
0.0
  0
LINE
  5
674
330
1F
100
AcDbEntity
  8
0
100
AcDbLine
 10
16.75000005229662
 20
132.7500002050662
 30
0.0
 11
25.70000005229666
 21
132.7500002050662
 31
0.0
  0
LINE
  5
675
330
1F
100
AcDbEntity
  8
0
100
AcDbLine
 10
94.70000005229669
 20
132.7500002050665
 30
0.0
 11
103.6500000522969
 21
132.7500002050665
 31
0.0
  0
LINE
  5
676
330
1F
100
AcDbEntity
  8
0
100
AcDbLine
 10
16.75000005229662
 20
131.7500002050663
 30
0.0
 11
25.70000005229666
 21
131.7500002050663
 31
0.0
  0
LINE
  5
677
330
1F
100
AcDbEntity
  8
0
100
AcDbLine
 10
94.70000005229669
 20
131.7500002050666
 30
0.0
 11
103.6500000522969
 21
131.7500002050666
 31
0.0
  0
LINE
  5
678
330
1F
100
AcDbEntity
  8
0
100
AcDbLine
 10
16.75000005229662
 20
130.7500002050662
 30
0.0
 11
25.70000005229666
 21
130.7500002050662
 31
0.0
  0
LINE
  5
679
330
1F
100
AcDbEntity
  8
0
100
AcDbLine
 10
94.70000005229669
 20
130.7500002050666
 30
0.0
 11
103.6500000522969
 21
130.7500002050666
 31
0.0
  0
LINE
  5
67A
330
1F
100
AcDbEntity
  8
0
100
AcDbLine
 10
16.75000005229662
 20
129.7500002050663
 30
0.0
 11
25.70000005229666
 21
129.7500002050663
 31
0.0
  0
LINE
  5
67B
330
1F
100
AcDbEntity
  8
0
100
AcDbLine
 10
94.70000005229669
 20
129.7500002050666
 30
0.0
 11
103.6500000522969
 21
129.7500002050666
 31
0.0
  0
LINE
  5
67C
330
1F
100
AcDbEntity
  8
0
100
AcDbLine
 10
16.75000005229662
 20
128.7500002050662
 30
0.0
 11
25.70000005229666
 21
128.7500002050663
 31
0.0
  0
LINE
  5
67D
330
1F
100
AcDbEntity
  8
0
100
AcDbLine
 10
94.70000005229669
 20
128.7500002050666
 30
0.0
 11
103.6500000522969
 21
128.7500002050666
 31
0.0
  0
LINE
  5
67E
330
1F
100
AcDbEntity
  8
0
100
AcDbLine
 10
16.75000005229662
 20
127.7500002050663
 30
0.0
 11
25.70000005229666
 21
127.7500002050663
 31
0.0
  0
LINE
  5
67F
330
1F
100
AcDbEntity
  8
0
100
AcDbLine
 10
94.70000005229669
 20
127.7500002050665
 30
0.0
 11
103.6500000522969
 21
127.7500002050666
 31
0.0
  0
LINE
  5
680
330
1F
100
AcDbEntity
  8
0
100
AcDbLine
 10
16.75000005229662
 20
126.7500002050662
 30
0.0
 11
25.70000005229666
 21
126.7500002050663
 31
0.0
  0
LINE
  5
681
330
1F
100
AcDbEntity
  8
0
100
AcDbLine
 10
94.70000005229669
 20
126.7500002050666
 30
0.0
 11
103.6500000522969
 21
126.7500002050666
 31
0.0
  0
LINE
  5
682
330
1F
100
AcDbEntity
  8
0
100
AcDbLine
 10
16.75000005229662
 20
125.7500002050663
 30
0.0
 11
25.70000005229666
 21
125.7500002050663
 31
0.0
  0
LINE
  5
683
330
1F
100
AcDbEntity
  8
0
100
AcDbLine
 10
94.70000005229669
 20
125.7500002050665
 30
0.0
 11
103.6500000522969
 21
125.7500002050666
 31
0.0
  0
LINE
  5
684
330
1F
100
AcDbEntity
  8
0
100
AcDbLine
 10
16.75000005229662
 20
124.7500002050662
 30
0.0
 11
25.70000005229666
 21
124.7500002050663
 31
0.0
  0
LINE
  5
685
330
1F
100
AcDbEntity
  8
0
100
AcDbLine
 10
94.70000005229669
 20
124.7500002050666
 30
0.0
 11
103.6500000522969
 21
124.7500002050666
 31
0.0
  0
LINE
  5
686
330
1F
100
AcDbEntity
  8
0
100
AcDbLine
 10
16.75000005229662
 20
123.7500002050663
 30
0.0
 11
26.17321736465378
 21
123.7500002050663
 31
0.0
  0
LINE
  5
687
330
1F
100
AcDbEntity
  8
0
100
AcDbLine
 10
94.22678273993998
 20
123.7500002050665
 30
0.0
 11
103.6500000522969
 21
123.7500002050666
 31
0.0
  0
LINE
  5
688
330
1F
100
AcDbEntity
  8
0
100
AcDbLine
 10
16.75000005229662
 20
122.7500002050662
 30
0.0
 11
103.6500000522969
 21
122.7500002050666
 31
0.0
  0
LINE
  5
689
330
1F
100
AcDbEntity
  8
0
100
AcDbLine
 10
16.75000005229662
 20
121.7500002050662
 30
0.0
 11
103.6500000522969
 21
121.7500002050666
 31
0.0
  0
LINE
  5
68A
330
1F
100
AcDbEntity
  8
0
100
AcDbLine
 10
16.75000005229662
 20
120.7500002050662
 30
0.0
 11
103.6500000522969
 21
120.7500002050666
 31
0.0
  0
LINE
  5
68B
330
1F
100
AcDbEntity
  8
0
100
AcDbLine
 10
16.75000005229662
 20
119.7500002050662
 30
0.0
 11
103.6500000522969
 21
119.7500002050666
 31
0.0
  0
LINE
  5
68C
330
1F
100
AcDbEntity
  8
0
100
AcDbLine
 10
94.70000005229669
 20
153.1000002050662
 30
0.0
 11
94.70000005229669
 21
124.6000002050662
 31
0.0
1001
GENIUS_GENREC_14
1002
{
1000
PYDIR
1011
99.2000000522967
1021
152.6000002050663
1031
0.0
1002
}
1002
{
1000
PXDIR
1011
159.2000000522968
1021
125.1000002050661
1031
0.0
1002
}
1002
{
1000
PORI
1011
99.2000000522967
1021
125.1000002050661
1031
0.0
1002
}
1002
{
1000
PINS
1011
99.2000000522967
1021
125.1000002050661
1031
0.0
1002
}
1002
{
1000
PINS2
1011
159.2000000522968
1021
152.6000002050663
1031
0.0
1002
}
1002
{
1000
C
1070
     1
1002
}
1001
GENIUS_GENOBJ-N-REC_13
1002
{
1000
OWNER
1000
GEN
1002
}
1001
GENIUS_GENODEF_13
1002
{
1000
HIER
1070
     0
1002
}
1002
{
1000
MANEDIT
1070
     0
1002
}
1002
{
1000
NOSEL
1070
     0
1002
}
1002
{
1000
BEHIND
1070
     0
1002
}
1002
{
1000
OTHER
1070
     0
1002
}
1002
{
1000
REACTOR
1002
}
  0
LINE
  5
74B
330
1F
100
AcDbEntity
  8
0
100
AcDbLine
 10
29.70000005229666
 20
125.6000002050661
 30
0.0
 11
90.70000005229671
 21
125.6000002050661
 31
0.0
1001
GENIUS_GENREC_14
1002
{
1000
PYDIR
1011
30.20000005229667
1021
151.6000002050663
1031
0.0
1002
}
1002
{
1000
PXDIR
1011
90.20000005229679
1021
126.1000002050661
1031
0.0
1002
}
1002
{
1000
PORI
1011
30.20000005229667
1021
126.1000002050661
1031
0.0
1002
}
1002
{
1000
PINS
1011
30.20000005229667
1021
126.1000002050661
1031
0.0
1002
}
1002
{
1000
PINS2
1011
90.20000005229679
1021
151.6000002050663
1031
0.0
1002
}
1002
{
1000
C
1070
     1
1002
}
1001
GENIUS_GENOBJ-N-REC_13
1002
{
1000
OWNER
1000
GEN
1002
}
1001
GENIUS_GENODEF_13
1002
{
1000
HIER
1070
     0
1002
}
1002
{
1000
MANEDIT
1070
     0
1002
}
1002
{
1000
NOSEL
1070
     0
1002
}
1002
{
1000
BEHIND
1070
     0
1002
}
1002
{
1000
OTHER
1070
     0
1002
}
1002
{
1000
REACTOR
1002
}
  0
LINE
  5
74C
330
1F
100
AcDbEntity
  8
0
100
AcDbLine
 10
90.70000005229671
 20
125.6000002050661
 30
0.0
 11
90.70000005229671
 21
152.1000002050663
 31
0.0
1001
GENIUS_GENREC_14
1002
{
1000
PYDIR
1011
30.20000005229667
1021
151.6000002050663
1031
0.0
1002
}
1002
{
1000
PXDIR
1011
90.20000005229679
1021
126.1000002050661
1031
0.0
1002
}
1002
{
1000
PORI
1011
30.20000005229667
1021
126.1000002050661
1031
0.0
1002
}
1002
{
1000
PINS
1011
30.20000005229667
1021
126.1000002050661
1031
0.0
1002
}
1002
{
1000
PINS2
1011
90.20000005229679
1021
151.6000002050663
1031
0.0
1002
}
1002
{
1000
C
1070
     1
1002
}
1001
GENIUS_GENOBJ-N-REC_13
1002
{
1000
OWNER
1000
GEN
1002
}
1001
GENIUS_GENODEF_13
1002
{
1000
HIER
1070
     0
1002
}
1002
{
1000
MANEDIT
1070
     0
1002
}
1002
{
1000
NOSEL
1070
     0
1002
}
1002
{
1000
BEHIND
1070
     0
1002
}
1002
{
1000
OTHER
1070
     0
1002
}
1002
{
1000
REACTOR
1002
}
  0
LINE
  5
74D
330
1F
100
AcDbEntity
  8
0
100
AcDbLine
 10
90.70000005229671
 20
152.1000002050663
 30
0.0
 11
29.70000005229666
 21
152.1000002050663
 31
0.0
1001
GENIUS_GENREC_14
1002
{
1000
PYDIR
1011
30.20000005229667
1021
151.6000002050663
1031
0.0
1002
}
1002
{
1000
PXDIR
1011
90.20000005229679
1021
126.1000002050661
1031
0.0
1002
}
1002
{
1000
PORI
1011
30.20000005229667
1021
126.1000002050661
1031
0.0
1002
}
1002
{
1000
PINS
1011
30.20000005229667
1021
126.1000002050661
1031
0.0
1002
}
1002
{
1000
PINS2
1011
90.20000005229679
1021
151.6000002050663
1031
0.0
1002
}
1002
{
1000
C
1070
     1
1002
}
1001
GENIUS_GENOBJ-N-REC_13
1002
{
1000
OWNER
1000
GEN
1002
}
1001
GENIUS_GENODEF_13
1002
{
1000
HIER
1070
     0
1002
}
1002
{
1000
MANEDIT
1070
     0
1002
}
1002
{
1000
NOSEL
1070
     0
1002
}
1002
{
1000
BEHIND
1070
     0
1002
}
1002
{
1000
OTHER
1070
     0
1002
}
1002
{
1000
REACTOR
1002
}
  0
LINE
  5
74E
330
1F
100
AcDbEntity
  8
0
100
AcDbLine
 10
29.70000005229666
 20
152.1000002050663
 30
0.0
 11
29.70000005229666
 21
125.6000002050661
 31
0.0
1001
GENIUS_GENREC_14
1002
{
1000
PYDIR
1011
30.20000005229667
1021
151.6000002050663
1031
0.0
1002
}
1002
{
1000
PXDIR
1011
90.20000005229679
1021
126.1000002050661
1031
0.0
1002
}
1002
{
1000
PORI
1011
30.20000005229667
1021
126.1000002050661
1031
0.0
1002
}
1002
{
1000
PINS
1011
30.20000005229667
1021
126.1000002050661
1031
0.0
1002
}
1002
{
1000
PINS2
1011
90.20000005229679
1021
151.6000002050663
1031
0.0
1002
}
1002
{
1000
C
1070
     1
1002
}
1001
GENIUS_GENOBJ-N-REC_13
1002
{
1000
OWNER
1000
GEN
1002
}
1001
GENIUS_GENODEF_13
1002
{
1000
HIER
1070
     0
1002
}
1002
{
1000
MANEDIT
1070
     0
1002
}
1002
{
1000
NOSEL
1070
     0
1002
}
1002
{
1000
BEHIND
1070
     0
1002
}
1002
{
1000
OTHER
1070
     0
1002
}
1002
{
1000
REACTOR
1002
}
  0
LINE
  5
91E
330
1F
100
AcDbEntity
  8
0
100
AcDbLine
 10
303.7000000522967
 20
164.300000205066
 30
0.0
 11
216.7000000522969
 21
164.300000205066
 31
0.0
  0
LINE
  5
91F
330
1F
100
AcDbEntity
  8
0
100
AcDbLine
 10
280.2000000522969
 20
152.0500002050661
 30
0.0
 11
240.2000000522969
 21
152.0500002050661
 31
0.0
  0
LINE
  5
920
330
1F
100
AcDbEntity
  8
0
100
AcDbLine
 10
213.200000052297
 20
160.8000002050661
 30
0.0
 11
213.200000052297
 21
103.800000205066
 31
0.0
  0
ARC
  5
921
330
1F
100
AcDbEntity
  8
0
100
AcDbCircle
 10
216.7000000522969
 20
160.8000002050661
 30
0.0
 40
3.5
100
AcDbArc
 50
90.0
 51
180.0
1001
GENIUS_GENOBJ-N-FIL_13
1002
{
1000
OWNER
1000
GEN
1002
}
1001
GENIUS_GENODEF_13
1002
{
1000
HIER
1070
     0
1002
}
1002
{
1000
MANEDIT
1070
     0
1002
}
1002
{
1000
NOSEL
1070
     0
1002
}
1002
{
1000
BEHIND
1070
     0
1002
}
1002
{
1000
OTHER
1070
     0
1002
}
1002
{
1000
REACTOR
1002
}
  0
LINE
  5
922
330
1F
100
AcDbEntity
  8
0
100
AcDbLine
 10
307.2000000522968
 20
160.800000205066
 30
0.0
 11
307.2000000522971
 21
103.800000205066
 31
0.0
  0
ARC
  5
923
330
1F
100
AcDbEntity
  8
0
100
AcDbCircle
 10
303.7000000522971
 20
103.8000002050659
 30
0.0
 40
3.5
100
AcDbArc
 50
270.0
 51
0.0
1001
GENIUS_GENODEF_13
1002
{
1000
HIER
1070
     0
1002
}
1002
{
1000
MANEDIT
1070
     0
1002
}
1002
{
1000
NOSEL
1070
     0
1002
}
1002
{
1000
BEHIND
1070
     0
1002
}
1002
{
1000
OTHER
1070
     0
1002
}
1002
{
1000
REACTOR
1002
}
1001
GENIUS_GENOBJ-N-FIL_13
1002
{
1000
OWNER
1000
GEN
1002
}
  0
ARC
  5
924
330
1F
100
AcDbEntity
  8
0
100
AcDbCircle
 10
303.7000000522967
 20
160.800000205066
 30
0.0
 40
3.5
100
AcDbArc
 50
0.0
 51
90.0
1001
GENIUS_GENODEF_13
1002
{
1000
HIER
1070
     0
1002
}
1002
{
1000
MANEDIT
1070
     0
1002
}
1002
{
1000
NOSEL
1070
     0
1002
}
1002
{
1000
BEHIND
1070
     0
1002
}
1002
{
1000
OTHER
1070
     0
1002
}
1002
{
1000
REACTOR
1002
}
1001
GENIUS_GENOBJ-N-FIL_13
1002
{
1000
OWNER
1000
GEN
1002
}
  0
LINE
  5
925
330
1F
100
AcDbEntity
  8
0
100
AcDbLine
 10
227.7000000522971
 20
151.300000205066
 30
0.0
 11
292.7000000522966
 21
151.3000002050659
 31
0.0
  0
LINE
  5
926
330
1F
100
AcDbEntity
  8
0
100
AcDbLine
 10
227.700000052297
 20
100.3000002050659
 30
0.0
 11
227.7000000522971
 21
151.300000205066
 31
0.0
  0
LINE
  5
927
330
1F
100
AcDbEntity
  8
0
100
AcDbLine
 10
223.450000052297
 20
101.8000002050659
 30
0.0
 11
223.4500000522972
 21
162.8000002050661
 31
0.0
  0
ARC
  5
928
330
1F
100
AcDbEntity
  8
0
100
AcDbCircle
 10
224.9500000522972
 20
162.8000002050661
 30
0.0
 40
1.5
100
AcDbArc
 50
90.0
 51
180.0
1001
GENIUS_GENODEF_13
1002
{
1000
HIER
1070
     0
1002
}
1002
{
1000
MANEDIT
1070
     0
1002
}
1002
{
1000
NOSEL
1070
     0
1002
}
1002
{
1000
BEHIND
1070
     0
1002
}
1002
{
1000
OTHER
1070
     0
1002
}
1002
{
1000
REACTOR
1002
}
1001
GENIUS_GENOBJ-N-FIL_13
1002
{
1000
OWNER
1000
GEN
1002
}
  0
ARC
  5
929
330
1F
100
AcDbEntity
  8
0
100
AcDbCircle
 10
224.9500000522969
 20
101.8000002050659
 30
0.0
 40
1.5
100
AcDbArc
 50
180.0
 51
270.0
1001
GENIUS_GENODEF_13
1002
{
1000
HIER
1070
     0
1002
}
1002
{
1000
MANEDIT
1070
     0
1002
}
1002
{
1000
NOSEL
1070
     0
1002
}
1002
{
1000
BEHIND
1070
     0
1002
}
1002
{
1000
OTHER
1070
     0
1002
}
1002
{
1000
REACTOR
1002
}
1001
GENIUS_GENOBJ-N-FIL_13
1002
{
1000
OWNER
1000
GEN
1002
}
  0
CIRCLE
  5
92A
330
1F
100
AcDbEntity
  8
0
100
AcDbCircle
 10
300.2000000522969
 20
157.3000002050662
 30
0.0
 40
2.5
  0
CIRCLE
  5
92B
330
1F
100
AcDbEntity
  8
0
100
AcDbCircle
 10
220.2000000522969
 20
157.3000002050663
 30
0.0
 40
2.5
  0
CIRCLE
  5
92C
330
1F
100
AcDbEntity
  8
0
100
AcDbCircle
 10
220.2000000522968
 20
107.3000002050656
 30
0.0
 40
2.5
  0
LINE
  5
92D
330
1F
100
AcDbEntity
  8
0
100
AcDbLine
 10
236.9500000522969
 20
159.8000002050661
 30
0.0
 11
236.9500000522969
 21
158.5386129925918
 31
0.0
  0
LINE
  5
92E
330
1F
100
AcDbEntity
  8
0
100
AcDbLine
 10
233.4500000522969
 20
159.8000002050661
 30
0.0
 11
233.4500000522969
 21
158.5386129925919
 31
0.0
  0
ARC
  5
92F
330
1F
100
AcDbEntity
  8
0
100
AcDbCircle
 10
235.2000000522967
 20
155.800000205066
 30
0.0
 40
3.25
100
AcDbArc
 50
122.5789703928048
 51
57.42102960719513
  0
ARC
  5
930
330
1F
100
AcDbEntity
  8
0
100
AcDbCircle
 10
235.2000000522969
 20
159.800000205066
 30
0.0
 40
1.75
100
AcDbArc
 50
0.0000000000032569
 51
180.0
1001
GENIUS_GENODEF_13
1002
{
1000
HIER
1070
     0
1002
}
1002
{
1000
MANEDIT
1070
     0
1002
}
1002
{
1000
NOSEL
1070
     0
1002
}
1002
{
1000
BEHIND
1070
     0
1002
}
1002
{
1000
OTHER
1070
     0
1002
}
1002
{
1000
REACTOR
1002
}
1001
GENIUS_GENOBJ-N-FIL_13
1002
{
1000
OWNER
1000
GEN
1002
}
  0
LINE
  5
931
330
1F
100
AcDbEntity
  8
0
100
AcDbLine
 10
240.2000000522969
 20
162.050000205066
 30
0.0
 11
240.2000000522969
 21
152.0500002050661
 31
0.0
  0
LINE
  5
932
330
1F
100
AcDbEntity
  8
0
100
AcDbLine
 10
280.2000000522969
 20
162.050000205066
 30
0.0
 11
280.2000000522969
 21
152.0500002050661
 31
0.0
  0
CIRCLE
  5
933
330
1F
100
AcDbEntity
  8
0
100
AcDbCircle
 10
300.2000000522969
 20
107.3000002050658
 30
0.0
 40
2.5
  0
LINE
  5
934
330
1F
100
AcDbEntity
  8
0
100
AcDbLine
 10
303.7000000522971
 20
100.3000002050659
 30
0.0
 11
216.7000000522969
 21
100.3000002050659
 31
0.0
  0
ARC
  5
936
330
1F
100
AcDbEntity
  8
0
100
AcDbCircle
 10
295.4500000522966
 20
101.8000002050659
 30
0.0
 40
1.5
100
AcDbArc
 50
270.0
 51
0.0
1001
GENIUS_GENODEF_13
1002
{
1000
HIER
1070
     0
1002
}
1002
{
1000
MANEDIT
1070
     0
1002
}
1002
{
1000
NOSEL
1070
     0
1002
}
1002
{
1000
BEHIND
1070
     0
1002
}
1002
{
1000
OTHER
1070
     0
1002
}
1002
{
1000
REACTOR
1002
}
1001
GENIUS_GENOBJ-N-FIL_13
1002
{
1000
OWNER
1000
GEN
1002
}
  0
ARC
  5
937
330
1F
100
AcDbEntity
  8
0
100
AcDbCircle
 10
216.7000000522969
 20
103.8000002050659
 30
0.0
 40
3.5
100
AcDbArc
 50
180.0
 51
270.0
1001
GENIUS_GENOBJ-N-FIL_13
1002
{
1000
OWNER
1000
GEN
1002
}
1001
GENIUS_GENODEF_13
1002
{
1000
HIER
1070
     0
1002
}
1002
{
1000
MANEDIT
1070
     0
1002
}
1002
{
1000
NOSEL
1070
     0
1002
}
1002
{
1000
BEHIND
1070
     0
1002
}
1002
{
1000
OTHER
1070
     0
1002
}
1002
{
1000
REACTOR
1002
}
  0
LINE
  5
938
330
1F
100
AcDbEntity
  8
0
100
AcDbLine
 10
292.7000000522967
 20
100.3000002050659
 30
0.0
 11
292.7000000522966
 21
151.3000002050659
 31
0.0
  0
LINE
  5
939
330
1F
100
AcDbEntity
  8
0
100
AcDbLine
 10
296.9500000522966
 20
101.8000002050659
 30
0.0
 11
296.9500000522966
 21
162.8000002050661
 31
0.0
  0
ARC
  5
93A
330
1F
100
AcDbEntity
  8
0
100
AcDbCircle
 10
295.4500000522966
 20
162.8000002050661
 30
0.0
 40
1.5
100
AcDbArc
 50
0.0
 51
90.0
1001
GENIUS_GENOBJ-N-FIL_13
1002
{
1000
OWNER
1000
GEN
1002
}
1001
GENIUS_GENODEF_13
1002
{
1000
HIER
1070
     0
1002
}
1002
{
1000
MANEDIT
1070
     0
1002
}
1002
{
1000
NOSEL
1070
     0
1002
}
1002
{
1000
BEHIND
1070
     0
1002
}
1002
{
1000
OTHER
1070
     0
1002
}
1002
{
1000
REACTOR
1002
}
  0
LINE
  5
93B
330
1F
100
AcDbEntity
  8
0
100
AcDbLine
 10
280.2000000522969
 20
162.050000205066
 30
0.0
 11
240.2000000522969
 21
162.050000205066
 31
0.0
  0
LINE
  5
93C
330
1F
100
AcDbEntity
  8
0
100
AcDbLine
 10
283.4500000522968
 20
159.8000002050661
 30
0.0
 11
283.4500000522968
 21
158.5386129925918
 31
0.0
  0
LINE
  5
93D
330
1F
100
AcDbEntity
  8
0
100
AcDbLine
 10
286.9500000522968
 20
159.8000002050661
 30
0.0
 11
286.9500000522968
 21
158.5386129925919
 31
0.0
  0
ARC
  5
93E
330
1F
100
AcDbEntity
  8
0
100
AcDbCircle
 10
285.2000000522969
 20
155.800000205066
 30
0.0
 40
3.25
100
AcDbArc
 50
122.5789703928048
 51
57.42102960719513
  0
ARC
  5
93F
330
1F
100
AcDbEntity
  8
0
100
AcDbCircle
 10
285.2000000522969
 20
159.800000205066
 30
0.0
 40
1.75
100
AcDbArc
 50
0.0
 51
179.9999999999966
1001
GENIUS_GENODEF_13
1002
{
1000
HIER
1070
     0
1002
}
1002
{
1000
MANEDIT
1070
     0
1002
}
1002
{
1000
NOSEL
1070
     0
1002
}
1002
{
1000
BEHIND
1070
     0
1002
}
1002
{
1000
OTHER
1070
     0
1002
}
1002
{
1000
REACTOR
1002
}
1001
GENIUS_GENOBJ-N-FIL_13
1002
{
1000
OWNER
1000
GEN
1002
}
  0
ARC
  5
940
330
1F
100
AcDbEntity
  8
0
100
AcDbCircle
 10
213.700000052297
 20
140.3000002050658
 30
0.0
 40
6.0
100
AcDbArc
 50
75.52248781407005
 51
90.0
  0
ARC
  5
941
330
1F
100
AcDbEntity
  8
0
100
AcDbCircle
 10
213.700000052297
 20
140.3000002050658
 30
0.0
 40
6.0
100
AcDbArc
 50
270.0
 51
284.47751218593
  0
LINE
  5
942
330
1F
100
AcDbEntity
  8
0
100
AcDbLine
 10
223.450000052297
 20
146.1094752243769
 30
0.0
 11
215.200000052297
 21
146.1094752243769
 31
0.0
  0
LINE
  5
943
330
1F
100
AcDbEntity
  8
0
100
AcDbLine
 10
213.200000052297
 20
146.3000002050658
 30
0.0
 11
213.700000052297
 21
146.3000002050658
 31
0.0
  0
LINE
  5
944
330
1F
100
AcDbEntity
  8
0
100
AcDbLine
 10
213.200000052297
 20
134.3000002050658
 30
0.0
 11
213.700000052297
 21
134.3000002050658
 31
0.0
  0
LINE
  5
945
330
1F
100
AcDbEntity
  8
0
100
AcDbLine
 10
215.200000052297
 20
134.4905251857547
 30
0.0
 11
223.450000052297
 21
134.4905251857547
 31
0.0
  0
ARC
  5
946
330
1F
100
AcDbEntity
  8
0
100
AcDbCircle
 10
306.7000000522968
 20
140.300000205066
 30
0.0
 40
6.0
100
AcDbArc
 50
90.0
 51
104.4775121859299
  0
ARC
  5
947
330
1F
100
AcDbEntity
  8
0
100
AcDbCircle
 10
306.7000000522968
 20
140.300000205066
 30
0.0
 40
6.0
100
AcDbArc
 50
255.52248781407
 51
270.0
  0
LINE
  5
948
330
1F
100
AcDbEntity
  8
0
100
AcDbLine
 10
296.9500000522968
 20
146.1094752243771
 30
0.0
 11
305.2000000522968
 21
146.1094752243771
 31
0.0
  0
LINE
  5
949
330
1F
100
AcDbEntity
  8
0
100
AcDbLine
 10
307.2000000522968
 20
146.300000205066
 30
0.0
 11
306.7000000522968
 21
146.300000205066
 31
0.0
  0
LINE
  5
94A
330
1F
100
AcDbEntity
  8
0
100
AcDbLine
 10
307.2000000522968
 20
134.300000205066
 30
0.0
 11
306.7000000522968
 21
134.300000205066
 31
0.0
  0
LINE
  5
94B
330
1F
100
AcDbEntity
  8
0
100
AcDbLine
 10
305.2000000522968
 20
134.4905251857549
 30
0.0
 11
296.9500000522968
 21
134.4905251857549
 31
0.0
  0
LINE
  5
94C
330
1F
100
AcDbEntity
  8
0
100
AcDbLine
 10
228.2000000522969
 20
151.300000205066
 30
0.0
 11
228.200000052297
 21
100.300000205066
 31
0.0
  0
LINE
  5
94D
330
1F
100
AcDbEntity
  8
0
100
AcDbLine
 10
292.2000000522966
 20
151.300000205066
 30
0.0
 11
292.2000000522966
 21
100.300000205066
 31
0.0
  0
ARC
  5
94E
330
1F
100
AcDbEntity
  8
0
100
AcDbCircle
 10
260.2000000522969
 20
104.0500002050661
 30
0.0
 40
2.999999999999984
100
AcDbArc
 50
0.0
 51
180.0
  0
LINE
  5
94F
330
1F
100
AcDbEntity
  8
0
100
AcDbLine
 10
263.2000000522968
 20
104.0500002050661
 30
0.0
 11
263.2000000522968
 21
100.300000205066
 31
0.0
  0
LINE
  5
950
330
1F
100
AcDbEntity
  8
0
100
AcDbLine
 10
257.2000000522968
 20
104.0500002050661
 30
0.0
 11
257.2000000522968
 21
100.300000205066
 31
0.0
  0
ARC
  5
952
330
1F
100
AcDbEntity
  8
0
100
AcDbCircle
 10
268.7583333856303
 20
155.800000205066
 30
0.0
 40
2.5
100
AcDbArc
 50
15.98866499138025
 51
340.5287793655102
  0
ARC
  5
953
330
1F
100
AcDbEntity
  8
0
100
AcDbCircle
 10
268.7583333856303
 20
155.800000205066
 30
0.0
 40
2.166666666666666
100
AcDbArc
 50
25.00623305001779
 51
161.4936568715907
  0
ARC
  5
954
330
1F
100
AcDbEntity
  8
0
100
AcDbCircle
 10
268.7583333856303
 20
155.800000205066
 30
0.0
 40
2.166666666666666
100
AcDbArc
 50
171.5353527878993
 51
337.3801350519575
  0
LINE
  5
955
330
1F
100
AcDbEntity
  8
0
100
AcDbLine
 10
268.9250000522969
 20
157.0829144387117
 30
0.0
 11
268.9250000522969
 21
156.2344086626798
 31
0.0
  0
LINE
  5
956
330
1F
100
AcDbEntity
  8
0
100
AcDbLine
 10
268.5916667189636
 20
156.6485059810979
 30
0.0
 11
268.5916667189636
 21
155.800000205066
 31
0.0
  0
LINE
  5
957
330
1F
100
AcDbEntity
  8
0
100
AcDbLine
 10
267.4250000522969
 20
154.9666668717327
 30
0.0
 11
270.0916667189635
 21
154.9666668717327
 31
0.0
  0
LINE
  5
958
330
1F
100
AcDbEntity
  8
0
100
AcDbLine
 10
267.4250000522969
 20
154.5500002050661
 30
0.0
 11
268.5083333856303
 21
154.5500002050661
 31
0.0
  0
LINE
  5
959
330
1F
100
AcDbEntity
  8
0
100
AcDbLine
 10
269.0083333856303
 20
154.5500002050661
 30
0.0
 11
270.0916667189635
 21
154.5500002050661
 31
0.0
  0
LINE
  5
95A
330
1F
100
AcDbEntity
  8
0
100
AcDbLine
 10
268.5083333856303
 20
153.8833335383994
 30
0.0
 11
269.0083333856303
 21
153.8833335383994
 31
0.0
  0
LINE
  5
95B
330
1F
100
AcDbEntity
  8
0
100
AcDbLine
 10
268.5916667189636
 20
155.800000205066
 30
0.0
 11
271.1616239040128
 21
156.4886181573826
 31
0.0
  0
LINE
  5
95C
330
1F
100
AcDbEntity
  8
0
100
AcDbLine
 10
268.9250000522969
 20
156.2344086626798
 30
0.0
 11
270.7219006323911
 21
156.7158867219951
 31
0.0
  0
LINE
  5
95D
330
1F
100
AcDbEntity
  8
0
100
AcDbLine
 10
266.6152684858357
 20
156.1189316706091
 30
0.0
 11
268.5916667189636
 21
156.6485059810979
 31
0.0
  0
LINE
  5
95E
330
1F
100
AcDbEntity
  8
0
100
AcDbLine
 10
266.7037082566237
 20
156.4877210959072
 30
0.0
 11
268.9250000522969
 21
157.0829144387117
 31
0.0
  0
LINE
  5
95F
330
1F
100
AcDbEntity
  8
0
100
AcDbLine
 10
269.0083333856303
 20
154.5500002050661
 30
0.0
 11
269.0083333856303
 21
153.8833335383994
 31
0.0
  0
LINE
  5
960
330
1F
100
AcDbEntity
  8
0
100
AcDbLine
 10
268.5083333856303
 20
154.5500002050661
 30
0.0
 11
268.5083333856303
 21
153.8833335383994
 31
0.0
  0
LINE
  5
961
330
1F
100
AcDbEntity
  8
0
100
AcDbLine
 10
270.0916667189635
 20
154.9666668717327
 30
0.0
 11
270.0916667189635
 21
154.5500002050661
 31
0.0
  0
LINE
  5
962
330
1F
100
AcDbEntity
  8
0
100
AcDbLine
 10
267.4250000522969
 20
154.9666668717327
 30
0.0
 11
267.4250000522969
 21
154.5500002050661
 31
0.0
  0
LINE
  5
963
330
1F
100
AcDbEntity
  8
0
100
AcDbLine
 10
267.4250000522969
 20
155.6333335383994
 30
0.0
 11
270.0916667189635
 21
155.6333335383994
 31
0.0
  0
LINE
  5
964
330
1F
100
AcDbEntity
  8
0
100
AcDbLine
 10
267.4250000522969
 20
155.2166668717327
 30
0.0
 11
270.0916667189635
 21
155.2166668717327
 31
0.0
  0
LINE
  5
965
330
1F
100
AcDbEntity
  8
0
100
AcDbLine
 10
270.0916667189635
 20
155.6333335383994
 30
0.0
 11
270.0916667189635
 21
155.2166668717327
 31
0.0
  0
LINE
  5
966
330
1F
100
AcDbEntity
  8
0
100
AcDbLine
 10
267.4250000522969
 20
155.6333335383994
 30
0.0
 11
267.4250000522969
 21
155.2166668717327
 31
0.0
  0
LINE
  5
967
330
1F
100
AcDbEntity
  8
0
100
AcDbLine
 10
270.7583333856303
 20
154.9666668717327
 30
0.0
 11
271.1153559895854
 21
154.9666668717327
 31
0.0
  0
LINE
  5
968
330
1F
100
AcDbEntity
  8
0
100
AcDbLine
 10
277.4500000522969
 20
153.8000002050661
 30
0.0
 11
277.4500000522969
 21
157.8000002050661
 31
0.0
1001
GENIUS_GENREC_14
1002
{
1000
PYDIR
1011
273.4500000522969
1021
153.8000002050661
1031
0.0
1002
}
1002
{
1000
PXDIR
1011
277.4500000522969
1021
157.8000002050661
1031
0.0
1002
}
1002
{
1000
PORI
1011
277.4500000522969
1021
153.8000002050661
1031
0.0
1002
}
1002
{
1000
PINS
1011
277.4500000522969
1021
153.8000002050661
1031
0.0
1002
}
1002
{
1000
HVAL
1000
4
1002
}
1002
{
1000
H
1070
     2
1002
}
1002
{
1000
WVAL
1000
4
1002
}
1002
{
1000
W
1070
     2
1002
}
1002
{
1000
C
1070
     1
1002
}
1001
GENIUS_GENOBJ-N-REC_13
1002
{
1000
OWNER
1000
GEN
1002
}
1001
GENIUS_GENODEF_13
1002
{
1000
HIER
1070
     0
1002
}
1002
{
1000
MANEDIT
1070
     0
1002
}
1002
{
1000
NOSEL
1070
     0
1002
}
1002
{
1000
BEHIND
1070
     0
1002
}
1002
{
1000
OTHER
1070
     0
1002
}
1002
{
1000
REACTOR
1002
}
  0
LINE
  5
969
330
1F
100
AcDbEntity
  8
0
100
AcDbLine
 10
277.4500000522969
 20
157.8000002050661
 30
0.0
 11
273.4500000522969
 21
157.8000002050661
 31
0.0
1001
GENIUS_GENREC_14
1002
{
1000
PYDIR
1011
273.4500000522969
1021
153.8000002050661
1031
0.0
1002
}
1002
{
1000
PXDIR
1011
277.4500000522969
1021
157.8000002050661
1031
0.0
1002
}
1002
{
1000
PORI
1011
277.4500000522969
1021
153.8000002050661
1031
0.0
1002
}
1002
{
1000
PINS
1011
277.4500000522969
1021
153.8000002050661
1031
0.0
1002
}
1002
{
1000
HVAL
1000
4
1002
}
1002
{
1000
H
1070
     2
1002
}
1002
{
1000
WVAL
1000
4
1002
}
1002
{
1000
W
1070
     2
1002
}
1002
{
1000
C
1070
     1
1002
}
1001
GENIUS_GENOBJ-N-REC_13
1002
{
1000
OWNER
1000
GEN
1002
}
1001
GENIUS_GENODEF_13
1002
{
1000
HIER
1070
     0
1002
}
1002
{
1000
MANEDIT
1070
     0
1002
}
1002
{
1000
NOSEL
1070
     0
1002
}
1002
{
1000
BEHIND
1070
     0
1002
}
1002
{
1000
OTHER
1070
     0
1002
}
1002
{
1000
REACTOR
1002
}
  0
LINE
  5
96A
330
1F
100
AcDbEntity
  8
0
100
AcDbLine
 10
273.4500000522969
 20
157.8000002050661
 30
0.0
 11
273.4500000522969
 21
153.8000002050661
 31
0.0
1001
GENIUS_GENREC_14
1002
{
1000
PYDIR
1011
273.4500000522969
1021
153.8000002050661
1031
0.0
1002
}
1002
{
1000
PXDIR
1011
277.4500000522969
1021
157.8000002050661
1031
0.0
1002
}
1002
{
1000
PORI
1011
277.4500000522969
1021
153.8000002050661
1031
0.0
1002
}
1002
{
1000
PINS
1011
277.4500000522969
1021
153.8000002050661
1031
0.0
1002
}
1002
{
1000
HVAL
1000
4
1002
}
1002
{
1000
H
1070
     2
1002
}
1002
{
1000
WVAL
1000
4
1002
}
1002
{
1000
W
1070
     2
1002
}
1002
{
1000
C
1070
     1
1002
}
1001
GENIUS_GENOBJ-N-REC_13
1002
{
1000
OWNER
1000
GEN
1002
}
1001
GENIUS_GENODEF_13
1002
{
1000
HIER
1070
     0
1002
}
1002
{
1000
MANEDIT
1070
     0
1002
}
1002
{
1000
NOSEL
1070
     0
1002
}
1002
{
1000
BEHIND
1070
     0
1002
}
1002
{
1000
OTHER
1070
     0
1002
}
1002
{
1000
REACTOR
1002
}
  0
LINE
  5
96B
330
1F
100
AcDbEntity
  8
0
100
AcDbLine
 10
273.4500000522969
 20
153.8000002050661
 30
0.0
 11
277.4500000522969
 21
153.8000002050661
 31
0.0
1001
GENIUS_GENREC_14
1002
{
1000
PYDIR
1011
273.4500000522969
1021
153.8000002050661
1031
0.0
1002
}
1002
{
1000
PXDIR
1011
277.4500000522969
1021
157.8000002050661
1031
0.0
1002
}
1002
{
1000
PORI
1011
277.4500000522969
1021
153.8000002050661
1031
0.0
1002
}
1002
{
1000
PINS
1011
277.4500000522969
1021
153.8000002050661
1031
0.0
1002
}
1002
{
1000
HVAL
1000
4
1002
}
1002
{
1000
H
1070
     2
1002
}
1002
{
1000
WVAL
1000
4
1002
}
1002
{
1000
W
1070
     2
1002
}
1002
{
1000
C
1070
     1
1002
}
1001
GENIUS_GENOBJ-N-REC_13
1002
{
1000
OWNER
1000
GEN
1002
}
1001
GENIUS_GENODEF_13
1002
{
1000
HIER
1070
     0
1002
}
1002
{
1000
MANEDIT
1070
     0
1002
}
1002
{
1000
NOSEL
1070
     0
1002
}
1002
{
1000
BEHIND
1070
     0
1002
}
1002
{
1000
OTHER
1070
     0
1002
}
1002
{
1000
REACTOR
1002
}
  0
CIRCLE
  5
96C
330
1F
100
AcDbEntity
  8
0
100
AcDbCircle
 10
300.2000000522969
 20
157.3000002050662
 30
0.0
 40
1.75
  0
CIRCLE
  5
96D
330
1F
100
AcDbEntity
  8
0
100
AcDbCircle
 10
300.2000000522969
 20
157.3000002050662
 30
0.0
 40
1.55
  0
CIRCLE
  5
96E
330
1F
100
AcDbEntity
  8
0
100
AcDbCircle
 10
300.2000000522969
 20
157.3000002050662
 30
0.0
 40
0.9
  0
ARC
  5
96F
330
1F
100
AcDbEntity
  8
0
100
AcDbCircle
 10
300.2000000522969
 20
158.3000002050662
 30
0.0
 40
0.4
100
AcDbArc
 50
205.9444797719998
 51
334.0555202279995
  0
ARC
  5
970
330
1F
100
AcDbEntity
  8
0
100
AcDbCircle
 10
299.3339746485124
 20
157.8000002050661
 30
0.0
 40
0.4
100
AcDbArc
 50
265.9444797725357
 51
34.05552022747366
  0
ARC
  5
971
330
1F
100
AcDbEntity
  8
0
100
AcDbCircle
 10
299.3339746485124
 20
156.8000002050662
 30
0.0
 40
0.4
100
AcDbArc
 50
325.9444797720362
 51
94.0555202279638
  0
ARC
  5
972
330
1F
100
AcDbEntity
  8
0
100
AcDbCircle
 10
300.2000000522969
 20
156.3000002050662
 30
0.0
 40
0.4
100
AcDbArc
 50
25.94447977135886
 51
154.0555202286411
  0
ARC
  5
973
330
1F
100
AcDbEntity
  8
0
100
AcDbCircle
 10
301.0660254560812
 20
156.8000002050662
 30
0.0
 40
0.4
100
AcDbArc
 50
85.94447977219289
 51
214.0555202278115
  0
ARC
  5
974
330
1F
100
AcDbEntity
  8
0
100
AcDbCircle
 10
301.0660254560812
 20
157.8000002050663
 30
0.0
 40
0.4
100
AcDbArc
 50
145.9444797714078
 51
274.0555202286006
  0
CIRCLE
  5
975
330
1F
100
AcDbEntity
  8
0
100
AcDbCircle
 10
300.2000000522969
 20
157.3000002050662
 30
0.0
 40
0.4
  0
CIRCLE
  5
976
330
1F
100
AcDbEntity
  8
0
100
AcDbCircle
 10
300.2000000522969
 20
107.3000002050658
 30
0.0
 40
1.75
  0
CIRCLE
  5
977
330
1F
100
AcDbEntity
  8
0
100
AcDbCircle
 10
300.2000000522969
 20
107.3000002050658
 30
0.0
 40
1.55
  0
CIRCLE
  5
978
330
1F
100
AcDbEntity
  8
0
100
AcDbCircle
 10
300.2000000522969
 20
107.3000002050658
 30
0.0
 40
0.9
  0
ARC
  5
979
330
1F
100
AcDbEntity
  8
0
100
AcDbCircle
 10
300.2000000522969
 20
108.3000002050658
 30
0.0
 40
0.4
100
AcDbArc
 50
205.9444797719998
 51
334.0555202279995
  0
ARC
  5
97A
330
1F
100
AcDbEntity
  8
0
100
AcDbCircle
 10
299.3339746485124
 20
107.8000002050657
 30
0.0
 40
0.4
100
AcDbArc
 50
265.9444797725357
 51
34.05552022747366
  0
ARC
  5
97B
330
1F
100
AcDbEntity
  8
0
100
AcDbCircle
 10
299.3339746485124
 20
106.8000002050658
 30
0.0
 40
0.4
100
AcDbArc
 50
325.9444797720362
 51
94.0555202279638
  0
ARC
  5
97C
330
1F
100
AcDbEntity
  8
0
100
AcDbCircle
 10
300.2000000522969
 20
106.3000002050658
 30
0.0
 40
0.4
100
AcDbArc
 50
25.94447977135886
 51
154.0555202286411
  0
ARC
  5
97D
330
1F
100
AcDbEntity
  8
0
100
AcDbCircle
 10
301.0660254560812
 20
106.8000002050658
 30
0.0
 40
0.4
100
AcDbArc
 50
85.94447977219289
 51
214.0555202278115
  0
ARC
  5
97E
330
1F
100
AcDbEntity
  8
0
100
AcDbCircle
 10
301.0660254560812
 20
107.8000002050659
 30
0.0
 40
0.4
100
AcDbArc
 50
145.9444797714078
 51
274.0555202286006
  0
CIRCLE
  5
97F
330
1F
100
AcDbEntity
  8
0
100
AcDbCircle
 10
300.2000000522969
 20
107.3000002050658
 30
0.0
 40
0.4
  0
CIRCLE
  5
980
330
1F
100
AcDbEntity
  8
0
100
AcDbCircle
 10
220.2000000522968
 20
107.3000002050656
 30
0.0
 40
1.75
  0
CIRCLE
  5
981
330
1F
100
AcDbEntity
  8
0
100
AcDbCircle
 10
220.2000000522968
 20
107.3000002050656
 30
0.0
 40
1.55
  0
CIRCLE
  5
982
330
1F
100
AcDbEntity
  8
0
100
AcDbCircle
 10
220.2000000522968
 20
107.3000002050656
 30
0.0
 40
0.9
  0
ARC
  5
983
330
1F
100
AcDbEntity
  8
0
100
AcDbCircle
 10
220.2000000522968
 20
108.3000002050656
 30
0.0
 40
0.4
100
AcDbArc
 50
205.9444797719998
 51
334.0555202279995
  0
ARC
  5
984
330
1F
100
AcDbEntity
  8
0
100
AcDbCircle
 10
219.3339746485124
 20
107.8000002050654
 30
0.0
 40
0.4
100
AcDbArc
 50
265.9444797725357
 51
34.05552022747366
  0
ARC
  5
985
330
1F
100
AcDbEntity
  8
0
100
AcDbCircle
 10
219.3339746485124
 20
106.8000002050655
 30
0.0
 40
0.4
100
AcDbArc
 50
325.9444797720362
 51
94.0555202279638
  0
ARC
  5
986
330
1F
100
AcDbEntity
  8
0
100
AcDbCircle
 10
220.2000000522968
 20
106.3000002050656
 30
0.0
 40
0.4
100
AcDbArc
 50
25.94447977135886
 51
154.0555202286411
  0
ARC
  5
987
330
1F
100
AcDbEntity
  8
0
100
AcDbCircle
 10
221.0660254560812
 20
106.8000002050655
 30
0.0
 40
0.4
100
AcDbArc
 50
85.94447977219289
 51
214.0555202278115
  0
ARC
  5
988
330
1F
100
AcDbEntity
  8
0
100
AcDbCircle
 10
221.0660254560812
 20
107.8000002050657
 30
0.0
 40
0.4
100
AcDbArc
 50
145.9444797714078
 51
274.0555202286006
  0
CIRCLE
  5
989
330
1F
100
AcDbEntity
  8
0
100
AcDbCircle
 10
220.2000000522968
 20
107.3000002050656
 30
0.0
 40
0.4
  0
CIRCLE
  5
98A
330
1F
100
AcDbEntity
  8
0
100
AcDbCircle
 10
220.2000000522969
 20
157.3000002050663
 30
0.0
 40
1.75
  0
CIRCLE
  5
98B
330
1F
100
AcDbEntity
  8
0
100
AcDbCircle
 10
220.2000000522969
 20
157.3000002050663
 30
0.0
 40
1.55
  0
CIRCLE
  5
98C
330
1F
100
AcDbEntity
  8
0
100
AcDbCircle
 10
220.2000000522969
 20
157.3000002050663
 30
0.0
 40
0.9
  0
ARC
  5
98D
330
1F
100
AcDbEntity
  8
0
100
AcDbCircle
 10
220.2000000522969
 20
158.3000002050663
 30
0.0
 40
0.4
100
AcDbArc
 50
205.9444797719998
 51
334.0555202279995
  0
ARC
  5
98E
330
1F
100
AcDbEntity
  8
0
100
AcDbCircle
 10
219.3339746485125
 20
157.8000002050662
 30
0.0
 40
0.4
100
AcDbArc
 50
265.9444797725357
 51
34.05552022747366
  0
ARC
  5
98F
330
1F
100
AcDbEntity
  8
0
100
AcDbCircle
 10
219.3339746485125
 20
156.8000002050663
 30
0.0
 40
0.4
100
AcDbArc
 50
325.9444797720362
 51
94.0555202279638
  0
ARC
  5
990
330
1F
100
AcDbEntity
  8
0
100
AcDbCircle
 10
220.2000000522969
 20
156.3000002050663
 30
0.0
 40
0.4
100
AcDbArc
 50
25.94447977135886
 51
154.0555202286411
  0
ARC
  5
991
330
1F
100
AcDbEntity
  8
0
100
AcDbCircle
 10
221.0660254560813
 20
156.8000002050663
 30
0.0
 40
0.4
100
AcDbArc
 50
85.94447977219289
 51
214.0555202278115
  0
ARC
  5
992
330
1F
100
AcDbEntity
  8
0
100
AcDbCircle
 10
221.0660254560813
 20
157.8000002050664
 30
0.0
 40
0.4
100
AcDbArc
 50
145.9444797714078
 51
274.0555202286006
  0
CIRCLE
  5
993
330
1F
100
AcDbEntity
  8
0
100
AcDbCircle
 10
220.2000000522969
 20
157.3000002050663
 30
0.0
 40
0.4
  0
CIRCLE
  5
994
330
1F
100
AcDbEntity
  8
0
100
AcDbCircle
 10
260.2000000522969
 20
104.0500002050661
 30
0.0
 40
2.75
  0
LINE
  5
995
330
1F
100
AcDbEntity
  8
0
100
AcDbLine
 10
258.0362533018657
 20
105.5066401743102
 30
0.0
 11
258.7433600830522
 21
106.2137469554968
 31
0.0
  0
LINE
  5
996
330
1F
100
AcDbEntity
  8
0
100
AcDbLine
 10
261.656640021541
 20
101.8862534546351
 30
0.0
 11
262.3637468027275
 21
102.5933602358217
 31
0.0
  0
LINE
  5
997
330
1F
100
AcDbEntity
  8
0
100
AcDbLine
 10
262.3637468027275
 20
102.5933602358217
 30
0.0
 11
260.8010408163052
 21
104.1560662222439
 31
0.0
  0
LINE
  5
998
330
1F
100
AcDbEntity
  8
0
100
AcDbLine
 10
261.656640021541
 20
101.8862534546351
 30
0.0
 11
260.0939340351187
 21
103.4489594410574
 31
0.0
  0
LINE
  5
999
330
1F
100
AcDbEntity
  8
0
100
AcDbLine
 10
261.08388352878
 20
105.4288584283799
 30
0.0
 11
261.5788582756105
 21
104.9338836815493
 31
0.0
  0
LINE
  5
99A
330
1F
100
AcDbEntity
  8
0
100
AcDbLine
 10
258.8211418289831
 20
103.1661167285829
 30
0.0
 11
259.3161165758136
 21
102.6711419817523
 31
0.0
  0
LINE
  5
99B
330
1F
100
AcDbEntity
  8
0
100
AcDbLine
 10
258.8211418289831
 20
103.1661167285829
 30
0.0
 11
259.598959288288
 21
103.943934187888
 31
0.0
  0
LINE
  5
99C
330
1F
100
AcDbEntity
  8
0
100
AcDbLine
 10
259.3161165758136
 20
102.6711419817523
 30
0.0
 11
260.0939340351187
 21
103.4489594410574
 31
0.0
  0
LINE
  5
99D
330
1F
100
AcDbEntity
  8
0
100
AcDbLine
 10
259.598959288288
 20
103.943934187888
 30
0.0
 11
258.0362533018657
 21
105.5066401743102
 31
0.0
  0
LINE
  5
99E
330
1F
100
AcDbEntity
  8
0
100
AcDbLine
 10
260.3060660694746
 20
104.6510409690745
 30
0.0
 11
258.7433600830522
 21
106.2137469554968
 31
0.0
  0
LINE
  5
99F
330
1F
100
AcDbEntity
  8
0
100
AcDbLine
 10
260.3060660694746
 20
104.6510409690745
 30
0.0
 11
261.08388352878
 21
105.4288584283799
 31
0.0
  0
LINE
  5
9A0
330
1F
100
AcDbEntity
  8
0
100
AcDbLine
 10
260.8010408163052
 20
104.1560662222439
 30
0.0
 11
261.5788582756105
 21
104.9338836815493
 31
0.0
  0
LINE
  5
9A1
330
1F
100
AcDbEntity
  8
0
100
AcDbLine
 10
303.7000000522967
 20
164.6000002050661
 30
0.0
 11
216.7000000522969
 21
164.6000002050661
 31
0.0
  0
LINE
  5
9A2
330
1F
100
AcDbEntity
  8
0
100
AcDbLine
 10
212.9000000522967
 20
160.800000205066
 30
0.0
 11
212.9000000522967
 21
145.3000002050659
 31
0.0
  0
LINE
  5
9A3
330
1F
100
AcDbEntity
  8
0
100
AcDbLine
 10
212.9000000522967
 20
135.300000205066
 30
0.0
 11
212.9000000522967
 21
103.8000002050659
 31
0.0
  0
ARC
  5
9A4
330
1F
100
AcDbEntity
  8
0
100
AcDbCircle
 10
216.7000000522969
 20
160.800000205066
 30
0.0
 40
3.799999999999998
100
AcDbArc
 50
90.0
 51
180.0
1001
GENIUS_GENOBJ-N-FIL_13
1002
{
1000
OWNER
1000
GEN
1002
}
1001
GENIUS_GENODEF_13
1002
{
1000
HIER
1070
     0
1002
}
1002
{
1000
MANEDIT
1070
     0
1002
}
1002
{
1000
NOSEL
1070
     0
1002
}
1002
{
1000
BEHIND
1070
     0
1002
}
1002
{
1000
OTHER
1070
     0
1002
}
1002
{
1000
REACTOR
1002
}
  0
LINE
  5
9A5
330
1F
100
AcDbEntity
  8
0
100
AcDbLine
 10
307.5000000522966
 20
160.800000205066
 30
0.0
 11
307.5000000522968
 21
145.3000002050659
 31
0.0
  0
LINE
  5
9A6
330
1F
100
AcDbEntity
  8
0
100
AcDbLine
 10
307.5000000522968
 20
135.300000205066
 30
0.0
 11
307.5000000522968
 21
103.8000002050659
 31
0.0
  0
ARC
  5
9A7
330
1F
100
AcDbEntity
  8
0
100
AcDbCircle
 10
303.7000000522969
 20
103.8000002050659
 30
0.0
 40
3.799999999999998
100
AcDbArc
 50
270.0
 51
0.0
1001
GENIUS_GENODEF_13
1002
{
1000
HIER
1070
     0
1002
}
1002
{
1000
MANEDIT
1070
     0
1002
}
1002
{
1000
NOSEL
1070
     0
1002
}
1002
{
1000
BEHIND
1070
     0
1002
}
1002
{
1000
OTHER
1070
     0
1002
}
1002
{
1000
REACTOR
1002
}
1001
GENIUS_GENOBJ-N-FIL_13
1002
{
1000
OWNER
1000
GEN
1002
}
  0
ARC
  5
9A8
330
1F
100
AcDbEntity
  8
0
100
AcDbCircle
 10
303.7000000522967
 20
160.800000205066
 30
0.0
 40
3.799999999999998
100
AcDbArc
 50
0.0
 51
90.0
1001
GENIUS_GENODEF_13
1002
{
1000
HIER
1070
     0
1002
}
1002
{
1000
MANEDIT
1070
     0
1002
}
1002
{
1000
NOSEL
1070
     0
1002
}
1002
{
1000
BEHIND
1070
     0
1002
}
1002
{
1000
OTHER
1070
     0
1002
}
1002
{
1000
REACTOR
1002
}
1001
GENIUS_GENOBJ-N-FIL_13
1002
{
1000
OWNER
1000
GEN
1002
}
  0
LINE
  5
9A9
330
1F
100
AcDbEntity
  8
0
100
AcDbLine
 10
303.7000000522969
 20
100.0000002050659
 30
0.0
 11
216.7000000522968
 21
100.0000002050659
 31
0.0
  0
ARC
  5
9AA
330
1F
100
AcDbEntity
  8
0
100
AcDbCircle
 10
216.7000000522968
 20
103.8000002050659
 30
0.0
 40
3.799999999999998
100
AcDbArc
 50
180.0
 51
270.0
1001
GENIUS_GENOBJ-N-FIL_13
1002
{
1000
OWNER
1000
GEN
1002
}
1001
GENIUS_GENODEF_13
1002
{
1000
HIER
1070
     0
1002
}
1002
{
1000
MANEDIT
1070
     0
1002
}
1002
{
1000
NOSEL
1070
     0
1002
}
1002
{
1000
BEHIND
1070
     0
1002
}
1002
{
1000
OTHER
1070
     0
1002
}
1002
{
1000
REACTOR
1002
}
  0
LINE
  5
9AB
330
1F
100
AcDbEntity
  8
0
100
AcDbLine
 10
308.4000000522967
 20
128.3000002050661
 30
0.0
 11
320.4000000522969
 21
128.300000205066
 31
0.0
  0
LINE
  5
9AC
330
1F
100
AcDbEntity
  8
0
100
AcDbLine
 10
307.3000000522968
 20
145.3000002050659
 30
0.0
 11
308.4000000522967
 21
145.3000002050659
 31
0.0
  0
LINE
  5
9AD
330
1F
100
AcDbEntity
  8
0
100
AcDbLine
 10
307.3000000522968
 20
135.3000002050661
 30
0.0
 11
308.4000000522967
 21
135.3000002050657
 31
0.0
  0
LINE
  5
9AE
330
1F
100
AcDbEntity
  8
0
100
AcDbLine
 10
320.4000000522967
 20
121.8000002050661
 30
0.0
 11
320.4000000522967
 21
146.8000002050565
 31
0.0
  0
LINE
  5
9AF
330
1F
100
AcDbEntity
  8
0
100
AcDbLine
 10
308.4000000522967
 20
121.800000205066
 30
0.0
 11
308.4000000522967
 21
135.3000002050657
 31
0.0
  0
LINE
  5
9B0
330
1F
100
AcDbEntity
  8
0
100
AcDbLine
 10
308.4000000522967
 20
145.3000002050659
 30
0.0
 11
308.4000000522967
 21
146.8000002050565
 31
0.0
  0
LINE
  5
9B1
330
1F
100
AcDbEntity
  8
0
100
AcDbLine
 10
308.4000000522967
 20
146.8000002050565
 30
0.0
 11
320.4000000522967
 21
146.8000002050565
 31
0.0
  0
LINE
  5
9B2
330
1F
100
AcDbEntity
  8
0
100
AcDbLine
 10
319.9000000522969
 20
147.3000002050564
 30
0.0
 11
320.4000000522967
 21
146.8000002050566
 31
0.0
1001
GENIUS_GENFIL_13
1070
     0
1040
0.5
1040
0.5
1040
0.5
1040
45.00000000000325
1002
{
1002
}
1001
GENIUS_GENOBJ-N-CHA_13
1002
{
1000
OWNER
1000
GEN
1002
}
1001
GENIUS_GENODEF_13
1002
{
1000
HIER
1070
     0
1002
}
1002
{
1000
MANEDIT
1070
     0
1002
}
1002
{
1000
NOSEL
1070
     0
1002
}
1002
{
1000
BEHIND
1070
     0
1002
}
1002
{
1000
OTHER
1070
     0
1002
}
1002
{
1000
REACTOR
1002
}
  0
LINE
  5
9B3
330
1F
100
AcDbEntity
  8
0
100
AcDbLine
 10
319.9000000522969
 20
147.3000002050564
 30
0.0
 11
308.9000000522966
 21
147.3000002050564
 31
0.0
  0
LINE
  5
9B4
330
1F
100
AcDbEntity
  8
0
100
AcDbLine
 10
308.4000000522967
 20
146.8000002050565
 30
0.0
 11
308.9000000522966
 21
147.3000002050564
 31
0.0
1001
GENIUS_GENFIL_13
1070
     0
1040
0.5
1040
0.5
1040
0.5
1040
45.00000000000325
1002
{
1002
}
1001
GENIUS_GENOBJ-N-CHA_13
1002
{
1000
OWNER
1000
GEN
1002
}
1001
GENIUS_GENODEF_13
1002
{
1000
HIER
1070
     0
1002
}
1002
{
1000
MANEDIT
1070
     0
1002
}
1002
{
1000
NOSEL
1070
     0
1002
}
1002
{
1000
BEHIND
1070
     0
1002
}
1002
{
1000
OTHER
1070
     0
1002
}
1002
{
1000
REACTOR
1002
}
  0
SPLINE
  5
9B5
330
1F
100
AcDbEntity
  8
0
100
AcDbSpline
210
0.0
220
0.0
230
1.0
 70
     8
 71
     3
 72
    38
 73
    34
 74
     0
 42
0.0000000001
 43
0.0000000001
 40
8.160870181059902
 40
8.160870181059902
 40
8.160870181059902
 40
8.160870181059902
 40
9.159821244704103
 40
9.159821244704103
 40
10.15877230834831
 40
10.15877230834831
 40
11.15772337199251
 40
11.15772337199251
 40
12.15667443563672
 40
12.15667443563672
 40
13.19794091725749
 40
13.19794091725749
 40
14.23920739887826
 40
14.23920739887826
 40
15.28047388049904
 40
15.28047388049904
 40
16.32174036211981
 40
16.32174036211981
 40
17.36300684374058
 40
17.36300684374058
 40
18.40427332536135
 40
18.40427332536135
 40
19.44553980698212
 40
19.44553980698212
 40
20.48680628860289
 40
20.48680628860289
 40
21.4857573522471
 40
21.4857573522471
 40
22.48470841589131
 40
22.48470841589131
 40
23.48365947953551
 40
23.48365947953551
 40
24.48261054317971
 40
24.48261054317971
 40
24.48261054317971
 40
24.48261054317971
 10
308.4000000522967
 20
145.300000205066
 30
0.0
 10
308.4000000522967
 20
145.300000205066
 30
0.0
 10
308.4282511408189
 20
145.2662095859847
 30
0.0
 10
308.5407489493541
 20
145.1303494720203
 30
0.0
 10
308.6249381494513
 20
145.0283410098073
 30
0.0
 10
308.8372846590412
 20
144.7665054575451
 30
0.0
 10
308.9655984978128
 20
144.6064486455708
 30
0.0
 10
309.2468502148872
 20
144.2455966308951
 30
0.0
 10
309.3996973717726
 20
144.044799982872
 30
0.0
 10
309.7114080979984
 20
143.617403768023
 30
0.0
 10
309.8828197967814
 20
143.3733800292397
 30
0.0
 10
310.2247258002303
 20
142.8443392565909
 30
0.0
 10
310.3952315057882
 20
142.5594330770017
 30
0.0
 10
310.7007203850856
 20
141.9587759645479
 30
0.0
 10
310.8356077397368
 20
141.6428218057293
 30
0.0
 10
311.027482083907
 20
140.9871353147654
 30
0.0
 10
311.0833752619415
 20
140.6470890322729
 30
0.0
 10
311.0833752619415
 20
139.9529113778591
 30
0.0
 10
311.027482083907
 20
139.6128650953665
 30
0.0
 10
310.8356077397368
 20
138.9571786044025
 30
0.0
 10
310.7007203850856
 20
138.641224445584
 30
0.0
 10
310.3952315057882
 20
138.0405673331303
 30
0.0
 10
310.2247258002303
 20
137.7556611535412
 30
0.0
 10
309.8828197967814
 20
137.2266203808923
 30
0.0
 10
309.7114080979984
 20
136.982596642109
 30
0.0
 10
309.3996973717726
 20
136.5552004272601
 30
0.0
 10
309.2468502148872
 20
136.3544037792369
 30
0.0
 10
308.9655984978128
 20
135.9935517645612
 30
0.0
 10
308.8372846590412
 20
135.8334949525869
 30
0.0
 10
308.6249381494513
 20
135.5716594003246
 30
0.0
 10
308.5407489493541
 20
135.4696509381117
 30
0.0
 10
308.4282511408189
 20
135.3337908241473
 30
0.0
 10
308.4000000522967
 20
135.300000205066
 30
0.0
 10
308.4000000522967
 20
135.300000205066
 30
0.0
  0
LINE
  5
9B6
330
1F
100
AcDbEntity
  8
0
100
AcDbLine
 10
320.4000000522969
 20
128.3000002050661
 30
0.0
 11
308.4000000522967
 21
128.300000205066
 31
0.0
  0
LINE
  5
9B7
330
1F
100
AcDbEntity
  8
0
100
AcDbLine
 10
320.4000000522967
 20
128.300000205066
 30
0.0
 11
308.4000000522967
 21
128.300000205066
 31
0.0
  0
LINE
  5
9B8
330
1F
100
AcDbEntity
  8
0
100
AcDbLine
 10
314.4000000522368
 20
126.800000205066
 30
0.0
 11
314.4000000522368
 21
121.800000205066
 31
0.0
  0
LINE
  5
9B9
330
1F
100
AcDbEntity
  8
0
100
AcDbLine
 10
320.4000000522967
 20
120.300000205066
 30
0.0
 11
320.4000000522967
 21
112.300000205066
 31
0.0
  0
LINE
  5
9BA
330
1F
100
AcDbEntity
  8
0
100
AcDbLine
 10
314.4000000522368
 20
120.300000205066
 30
0.0
 11
314.4000000522368
 21
112.300000205066
 31
0.0
  0
LINE
  5
9BB
330
1F
100
AcDbEntity
  8
0
100
AcDbLine
 10
308.4000000522967
 20
120.300000205066
 30
0.0
 11
308.4000000522967
 21
112.300000205066
 31
0.0
  0
LINE
  5
9BC
330
1F
100
AcDbEntity
  8
0
100
AcDbLine
 10
320.4000000522967
 20
126.800000205066
 30
0.0
 11
308.4000000522967
 21
126.800000205066
 31
0.0
  0
LINE
  5
9BD
330
1F
100
AcDbEntity
  8
0
100
AcDbLine
 10
319.4000000522966
 20
120.300000205066
 30
0.0
 11
319.4000000522966
 21
121.800000205066
 31
0.0
  0
LINE
  5
9BE
330
1F
100
AcDbEntity
  8
0
100
AcDbLine
 10
309.4000000522967
 20
120.300000205066
 30
0.0
 11
309.4000000522967
 21
121.800000205066
 31
0.0
  0
LINE
  5
9BF
330
1F
100
AcDbEntity
  8
0
100
AcDbLine
 10
308.9000000522966
 20
112.300000205066
 30
0.0
 11
308.9000000522966
 21
111.300000205066
 31
0.0
  0
LINE
  5
9C0
330
1F
100
AcDbEntity
  8
0
100
AcDbLine
 10
319.9000000522967
 20
112.300000205066
 30
0.0
 11
319.9000000522967
 21
111.300000205066
 31
0.0
  0
LINE
  5
9C1
330
1F
100
AcDbEntity
  8
0
100
AcDbLine
 10
317.9000000522967
 20
109.300000205066
 30
0.0
 11
310.9000000522966
 21
109.300000205066
 31
0.0
  0
ARC
  5
9C2
330
1F
100
AcDbEntity
  8
0
100
AcDbCircle
 10
310.9000000522966
 20
111.300000205066
 30
0.0
 40
2.0
100
AcDbArc
 50
180.0
 51
270.0
  0
ARC
  5
9C3
330
1F
100
AcDbEntity
  8
0
100
AcDbCircle
 10
317.9000000522967
 20
111.300000205066
 30
0.0
 40
2.0
100
AcDbArc
 50
270.0
 51
0.0
  0
LINE
  5
9C4
330
1F
100
AcDbEntity
  8
0
100
AcDbLine
 10
308.4000000522967
 20
121.800000205066
 30
0.0
 11
320.4000000522967
 21
121.8000002050661
 31
0.0
  0
LINE
  5
9C5
330
1F
100
AcDbEntity
  8
0
100
AcDbLine
 10
308.4000000522967
 20
120.300000205066
 30
0.0
 11
320.4000000522967
 21
120.300000205066
 31
0.0
  0
LINE
  5
9C6
330
1F
100
AcDbEntity
  8
0
100
AcDbLine
 10
308.4000000522967
 20
112.300000205066
 30
0.0
 11
320.4000000522967
 21
112.300000205066
 31
0.0
  0
LINE
  5
9D1
330
1F
100
AcDbEntity
  8
0
100
AcDbLine
 10
212.0000000522978
 20
128.3000002050661
 30
0.0
 11
202.0000000522978
 21
128.300000205066
 31
0.0
  0
LINE
  5
9D2
330
1F
100
AcDbEntity
  8
0
100
AcDbLine
 10
213.1000000522969
 20
145.3000002050659
 30
0.0
 11
212.0000000522979
 21
145.300000205066
 31
0.0
  0
LINE
  5
9D3
330
1F
100
AcDbEntity
  8
0
100
AcDbLine
 10
213.1000000522969
 20
135.3000002050661
 30
0.0
 11
212.0000000522979
 21
135.3000002050658
 31
0.0
  0
LINE
  5
9D4
330
1F
100
AcDbEntity
  8
0
100
AcDbLine
 10
208.2000000522978
 20
131.700000205066
 30
0.0
 11
205.8000000522977
 21
131.700000205066
 31
0.0
1001
GENIUS_GENREC_14
1002
{
1000
PYDIR
1011
208.0000000522978
1021
133.9000002050656
1031
0.0
1002
}
1002
{
1000
PXDIR
1011
206.0000000522978
1021
131.900000205066
1031
0.0
1002
}
1002
{
1000
PORI
1011
208.0000000522978
1021
131.900000205066
1031
0.0
1002
}
1002
{
1000
PINS
1011
208.0000000522978
1021
131.900000205066
1031
0.0
1002
}
1002
{
1000
PINS2
1011
206.0000000522978
1021
133.9000002050656
1031
0.0
1002
}
1002
{
1000
C
1070
     1
1002
}
1001
GENIUS_GENODEF_13
1002
{
1000
HIER
1070
     0
1002
}
1002
{
1000
MANEDIT
1070
     0
1002
}
1002
{
1000
NOSEL
1070
     0
1002
}
1002
{
1000
BEHIND
1070
     0
1002
}
1002
{
1000
OTHER
1070
     0
1002
}
1002
{
1000
REACTOR
1002
}
1001
GENIUS_GENOBJ-N-REC_13
1002
{
1000
OWNER
1000
GEN
1002
}
  0
LINE
  5
9D5
330
1F
100
AcDbEntity
  8
0
100
AcDbLine
 10
205.8000000522977
 20
131.700000205066
 30
0.0
 11
205.8000000522977
 21
133.9000002050656
 31
0.0
1001
GENIUS_GENREC_14
1002
{
1000
PYDIR
1011
208.0000000522978
1021
133.7000002050655
1031
0.0
1002
}
1002
{
1000
PXDIR
1011
206.0000000522978
1021
131.900000205066
1031
0.0
1002
}
1002
{
1000
PORI
1011
208.0000000522978
1021
131.900000205066
1031
0.0
1002
}
1002
{
1000
PINS
1011
208.0000000522978
1021
131.900000205066
1031
0.0
1002
}
1002
{
1000
PINS2
1011
206.0000000522978
1021
133.7000002050655
1031
0.0
1002
}
1002
{
1000
C
1070
     1
1002
}
1001
GENIUS_GENODEF_13
1002
{
1000
HIER
1070
     0
1002
}
1002
{
1000
MANEDIT
1070
     0
1002
}
1002
{
1000
NOSEL
1070
     0
1002
}
1002
{
1000
BEHIND
1070
     0
1002
}
1002
{
1000
OTHER
1070
     0
1002
}
1002
{
1000
REACTOR
1002
}
1001
GENIUS_GENOBJ-N-REC_13
1002
{
1000
OWNER
1000
GEN
1002
}
  0
LINE
  5
9D6
330
1F
100
AcDbEntity
  8
0
100
AcDbLine
 10
205.8000000522977
 20
133.9000002050656
 30
0.0
 11
208.2000000522978
 21
133.9000002050656
 31
0.0
1001
GENIUS_GENREC_14
1002
{
1000
PYDIR
1011
208.0000000522978
1021
133.7000002050655
1031
0.0
1002
}
1002
{
1000
PXDIR
1011
206.0000000522978
1021
131.900000205066
1031
0.0
1002
}
1002
{
1000
PORI
1011
208.0000000522978
1021
131.900000205066
1031
0.0
1002
}
1002
{
1000
PINS
1011
208.0000000522978
1021
131.900000205066
1031
0.0
1002
}
1002
{
1000
PINS2
1011
206.0000000522978
1021
133.7000002050655
1031
0.0
1002
}
1002
{
1000
C
1070
     1
1002
}
1001
GENIUS_GENODEF_13
1002
{
1000
HIER
1070
     0
1002
}
1002
{
1000
MANEDIT
1070
     0
1002
}
1002
{
1000
NOSEL
1070
     0
1002
}
1002
{
1000
BEHIND
1070
     0
1002
}
1002
{
1000
OTHER
1070
     0
1002
}
1002
{
1000
REACTOR
1002
}
1001
GENIUS_GENOBJ-N-REC_13
1002
{
1000
OWNER
1000
GEN
1002
}
  0
LINE
  5
9D7
330
1F
100
AcDbEntity
  8
0
100
AcDbLine
 10
208.2000000522978
 20
133.9000002050656
 30
0.0
 11
208.2000000522978
 21
131.700000205066
 31
0.0
1001
GENIUS_GENREC_14
1002
{
1000
PYDIR
1011
208.0000000522978
1021
133.7000002050655
1031
0.0
1002
}
1002
{
1000
PXDIR
1011
206.0000000522978
1021
131.900000205066
1031
0.0
1002
}
1002
{
1000
PORI
1011
208.0000000522978
1021
131.900000205066
1031
0.0
1002
}
1002
{
1000
PINS
1011
208.0000000522978
1021
131.900000205066
1031
0.0
1002
}
1002
{
1000
PINS2
1011
206.0000000522978
1021
133.7000002050655
1031
0.0
1002
}
1002
{
1000
C
1070
     1
1002
}
1001
GENIUS_GENODEF_13
1002
{
1000
HIER
1070
     0
1002
}
1002
{
1000
MANEDIT
1070
     0
1002
}
1002
{
1000
NOSEL
1070
     0
1002
}
1002
{
1000
BEHIND
1070
     0
1002
}
1002
{
1000
OTHER
1070
     0
1002
}
1002
{
1000
REACTOR
1002
}
1001
GENIUS_GENOBJ-N-REC_13
1002
{
1000
OWNER
1000
GEN
1002
}
  0
LINE
  5
9D8
330
1F
100
AcDbEntity
  8
0
100
AcDbLine
 10
202.0000000522978
 20
128.3000002050757
 30
0.0
 11
202.0000000522978
 21
152.3000002050661
 31
0.0
  0
LINE
  5
9D9
330
1F
100
AcDbEntity
  8
0
100
AcDbLine
 10
212.0000000522979
 20
128.3000002050757
 30
0.0
 11
212.0000000522979
 21
135.3000002050658
 31
0.0
  0
LINE
  5
9DA
330
1F
100
AcDbEntity
  8
0
100
AcDbLine
 10
212.0000000522979
 20
145.300000205066
 30
0.0
 11
212.0000000522979
 21
152.3000002050661
 31
0.0
  0
LINE
  5
9DB
330
1F
100
AcDbEntity
  8
0
100
AcDbLine
 10
212.0000000522979
 20
145.300000205066
 30
0.0
 11
207.0000000522977
 21
140.300000205066
 31
0.0
  0
LINE
  5
9DC
330
1F
100
AcDbEntity
  8
0
100
AcDbLine
 10
207.0000000522977
 20
140.300000205066
 30
0.0
 11
212.0000000522978
 21
135.3000002050661
 31
0.0
  0
LINE
  5
9DD
330
1F
100
AcDbEntity
  8
0
100
AcDbLine
 10
203.0000000522975
 20
205.3000002050663
 30
0.0
 11
211.0000000522977
 21
205.3000002050661
 31
0.0
  0
LINE
  5
9DF
330
1F
100
AcDbEntity
  8
0
100
AcDbLine
 10
212.0000000522978
 20
152.3000002050661
 30
0.0
 11
211.0000000522977
 21
205.3000002050661
 31
0.0
  0
LINE
  5
9E0
330
1F
100
AcDbEntity
  8
0
100
AcDbLine
 10
202.0000000522978
 20
152.3000002050661
 30
0.0
 11
203.0000000522975
 21
205.3000002050663
 31
0.0
  0
LINE
  5
9E1
330
1F
100
AcDbEntity
  8
0
100
AcDbLine
 10
210.9000000522982
 20
205.3000002050661
 30
0.0
 11
210.844201919109
 21
207.2015031309049
 31
0.0
  0
LINE
  5
9E2
330
1F
100
AcDbEntity
  8
0
100
AcDbLine
 10
203.1000000522982
 20
205.3000002050661
 30
0.0
 11
203.1557981854875
 21
207.2015031309045
 31
0.0
  0
ARC
  5
9E3
330
1F
100
AcDbEntity
  8
0
100
AcDbCircle
 10
203.6557057555024
 20
207.191889523789
 30
0.0
 40
0.5
100
AcDbArc
 50
110.6115892566146
 51
178.8982938847989
1001
GENIUS_GENODEF_13
1002
{
1000
HIER
1070
     0
1002
}
1002
{
1000
MANEDIT
1070
     0
1002
}
1002
{
1000
NOSEL
1070
     0
1002
}
1002
{
1000
BEHIND
1070
     0
1002
}
1002
{
1000
OTHER
1070
     0
1002
}
1002
{
1000
REACTOR
1002
}
1001
GENIUS_GENOBJ-N-FIL_13
1002
{
1000
OWNER
1000
GEN
1002
}
  0
ARC
  5
9E4
330
1F
100
AcDbEntity
  8
0
100
AcDbCircle
 10
210.3442943490941
 20
207.1918895237891
 30
0.0
 40
0.5
100
AcDbArc
 50
1.101706115207564
 51
69.38841074338864
1001
GENIUS_GENOBJ-N-FIL_13
1002
{
1000
OWNER
1000
GEN
1002
}
1001
GENIUS_GENODEF_13
1002
{
1000
HIER
1070
     0
1002
}
1002
{
1000
MANEDIT
1070
     0
1002
}
1002
{
1000
NOSEL
1070
     0
1002
}
1002
{
1000
BEHIND
1070
     0
1002
}
1002
{
1000
OTHER
1070
     0
1002
}
1002
{
1000
REACTOR
1002
}
  0
ARC
  5
9E5
330
1F
100
AcDbEntity
  8
0
100
AcDbCircle
 10
207.0000000522985
 20
198.300000205066
 30
0.0
 40
10.0
100
AcDbArc
 50
98.62692656528871
 51
110.6115892566146
  0
ARC
  5
9E6
330
1F
100
AcDbEntity
  8
0
100
AcDbCircle
 10
207.0000000522985
 20
198.300000205066
 30
0.0
 40
10.0
100
AcDbArc
 50
81.37307343471134
 51
98.62692656528871
  0
ARC
  5
9E7
330
1F
100
AcDbEntity
  8
0
100
AcDbCircle
 10
207.0000000522985
 20
198.300000205066
 30
0.0
 40
10.0
100
AcDbArc
 50
69.38841074338864
 51
81.37307343471134
  0
LINE
  5
9E8
330
1F
100
AcDbEntity
  8
0
100
AcDbLine
 10
205.5000000511577
 20
208.1868601715356
 30
0.0
 11
208.5000000534392
 21
208.1868601715356
 31
0.0
  0
LINE
  5
9E9
330
1F
100
AcDbEntity
  8
0
100
AcDbLine
 10
206.0000000522978
 20
132.2000002050661
 30
0.0
 11
208.0000000522978
 21
132.200000205066
 31
0.0
  0
LINE
  5
9EA
330
1F
100
AcDbEntity
  8
0
100
AcDbLine
 10
202.5000000522975
 20
126.800000205066
 30
0.0
 11
211.500000052298
 21
126.800000205066
 31
0.0
  0
LINE
  5
9EB
330
1F
100
AcDbEntity
  8
0
100
AcDbLine
 10
212.0000000522978
 20
127.300000205066
 30
0.0
 11
211.500000052298
 21
126.800000205066
 31
0.0
1001
GENIUS_GENFIL_13
1070
     0
1040
0.5
1040
0.5
1040
20.0
1040
0.0
1002
{
1002
}
1001
GENIUS_GENODEF_13
1002
{
1000
HIER
1070
     0
1002
}
1002
{
1000
MANEDIT
1070
     0
1002
}
1002
{
1000
NOSEL
1070
     0
1002
}
1002
{
1000
BEHIND
1070
     0
1002
}
1002
{
1000
OTHER
1070
     0
1002
}
1002
{
1000
REACTOR
1002
}
1001
GENIUS_GENOBJ-N-CHA_13
1002
{
1000
OWNER
1000
GEN
1002
}
  0
LINE
  5
9EC
330
1F
100
AcDbEntity
  8
0
100
AcDbLine
 10
202.0000000522978
 20
128.3000002050661
 30
0.0
 11
202.0000000522975
 21
127.3000002050661
 31
0.0
  0
LINE
  5
9ED
330
1F
100
AcDbEntity
  8
0
100
AcDbLine
 10
202.5000000522975
 20
126.800000205066
 30
0.0
 11
202.0000000522975
 21
127.3000002050661
 31
0.0
1001
GENIUS_GENFIL_13
1070
     0
1040
0.5
1040
0.5
1040
0.4999999999999787
1040
45.00000000000446
1000
~T
  0
LINE
  5
9EE
330
1F
100
AcDbEntity
  8
0
100
AcDbLine
 10
212.0000000522975
 20
128.300000205066
 30
0.0
 11
212.0000000522978
 21
127.300000205066
 31
0.0
  0
LINE
  5
9EF
330
1F
100
AcDbEntity
  8
0
100
AcDbLine
 10
202.0000000522975
 20
127.3000002050665
 30
0.0
 11
212.0000000522978
 21
127.300000205066
 31
0.0
  0
LINE
  5
9F0
330
1F
100
AcDbEntity
  8
0
100
AcDbLine
 10
206.0000000522978
 20
133.7000002050655
 30
0.0
 11
208.0000000522978
 21
133.7000002050656
 31
0.0
  0
LINE
  5
9F1
330
1F
100
AcDbEntity
  8
0
100
AcDbLine
 10
208.0000000522978
 20
131.700000205066
 30
0.0
 11
208.0000000522978
 21
133.7000002050656
 31
0.0
  0
LINE
  5
9F2
330
1F
100
AcDbEntity
  8
0
100
AcDbLine
 10
206.0000000522978
 20
131.700000205066
 30
0.0
 11
206.0000000522978
 21
133.7000002050655
 31
0.0
  0
LINE
  5
9F3
330
1F
100
AcDbEntity
  8
0
100
AcDbLine
 10
145.2000000522968
 20
164.3000002050665
 30
0.0
 11
150.2000000522968
 21
164.3000002050663
 31
0.0
  0
LINE
  5
9F4
330
1F
100
AcDbEntity
  8
0
100
AcDbLine
 10
145.2000000522968
 20
100.3000002050661
 30
0.0
 11
150.2000000522969
 21
100.3000002050662
 31
0.0
  0
LINE
  5
9F5
330
1F
100
AcDbEntity
  8
0
100
AcDbLine
 10
143.2000000522968
 20
102.3000002050661
 30
0.0
 11
145.2000000522968
 21
100.3000002050661
 31
0.0
1001
GENIUS_GENFIL_13
1070
     0
1040
2.0
1040
2.0
1040
2.0
1040
45.0000000000008
1002
{
1002
}
1001
GENIUS_GENOBJ-N-CHA_13
1002
{
1000
OWNER
1000
GEN
1002
}
1001
GENIUS_GENODEF_13
1002
{
1000
HIER
1070
     0
1002
}
1002
{
1000
MANEDIT
1070
     0
1002
}
1002
{
1000
NOSEL
1070
     0
1002
}
1002
{
1000
BEHIND
1070
     0
1002
}
1002
{
1000
OTHER
1070
     0
1002
}
1002
{
1000
REACTOR
1002
}
  0
LINE
  5
9F6
330
1F
100
AcDbEntity
  8
0
100
AcDbLine
 10
143.2000000522968
 20
162.3000002050664
 30
0.0
 11
143.2000000522968
 21
102.3000002050661
 31
0.0
  0
LINE
  5
9F7
330
1F
100
AcDbEntity
  8
0
100
AcDbLine
 10
145.2000000522968
 20
164.3000002050665
 30
0.0
 11
143.2000000522968
 21
162.3000002050664
 31
0.0
1001
GENIUS_GENFIL_13
1070
     0
1040
2.0
1040
2.0
1040
2.0
1040
45.00000000000055
1000
~T
  0
LINE
  5
9F8
330
1F
100
AcDbEntity
  8
0
100
AcDbLine
 10
150.2000000522968
 20
164.3000002050663
 30
0.0
 11
150.2000000522969
 21
100.3000002050662
 31
0.0
  0
LINE
  5
9F9
330
1F
100
AcDbEntity
  8
0
100
AcDbLine
 10
160.2000000522961
 20
126.8000002050663
 30
0.0
 11
160.2000000522969
 21
102.3000002050662
 31
0.0
1001
GENIUS_GENODEF_13
1002
{
1000
HIER
1070
     0
1002
}
1002
{
1000
MANEDIT
1070
     0
1002
}
1002
{
1000
NOSEL
1070
     0
1002
}
1002
{
1000
BEHIND
1070
     0
1002
}
1002
{
1000
OTHER
1070
     0
1002
}
1002
{
1000
REACTOR
1002
}
1001
GENIUS_GENOBJ-N-CEN_13
1002
{
1000
OWNER
1000
GEN
1002
}
1001
GENIUS_GENCEN_19
1002
{
1040
2.793999999999998
1002
}
  0
LINE
  5
9FA
330
1F
100
AcDbEntity
  8
0
100
AcDbLine
 10
153.2000000522968
 20
164.3000002050663
 30
0.0
 11
153.9264151466348
 21
164.3000002050663
 31
0.0
  0
LINE
  5
9FB
330
1F
100
AcDbEntity
  8
0
100
AcDbLine
 10
153.2000000522969
 20
100.3000002050662
 30
0.0
 11
178.7000000522969
 21
100.3000002050662
 31
0.0
  0
LINE
  5
9FC
330
1F
100
AcDbEntity
  8
0
100
AcDbLine
 10
160.2000000522969
 20
102.3000002050662
 30
0.0
 11
158.2000000522969
 21
100.3000002050662
 31
0.0
1001
GENIUS_GENFIL_13
1070
     0
1040
2.0
1040
2.0
1040
2.000000000000024
1040
45.00000000000031
1000
~T
  0
LINE
  5
9FD
330
1F
100
AcDbEntity
  8
0
100
AcDbLine
 10
153.2000000522967
 20
100.3000002050665
 30
0.0
 11
153.2000000522967
 21
164.3000002050662
 31
0.0
  0
ARC
  5
9FE
330
1F
100
AcDbEntity
  8
0
100
AcDbCircle
 10
152.9000000522967
 20
100.3000002050665
 30
0.0
 40
0.3
100
AcDbArc
 50
270.0
 51
0.0
1001
GENIUS_GENODEF_13
1002
{
1000
HIER
1070
     0
1002
}
1002
{
1000
MANEDIT
1070
     0
1002
}
1002
{
1000
NOSEL
1070
     0
1002
}
1002
{
1000
BEHIND
1070
     0
1002
}
1002
{
1000
OTHER
1070
     0
1002
}
1002
{
1000
REACTOR
1002
}
1001
GENIUS_GENOBJ-N-FIL_13
1002
{
1000
OWNER
1000
GEN
1002
}
  0
ARC
  5
9FF
330
1F
100
AcDbEntity
  8
0
100
AcDbCircle
 10
152.9000000522966
 20
164.3000002050662
 30
0.0
 40
0.3
100
AcDbArc
 50
0.0
 51
90.00000000000325
1001
GENIUS_GENOBJ-N-FIL_13
1002
{
1000
OWNER
1000
GEN
1002
}
1001
GENIUS_GENODEF_13
1002
{
1000
HIER
1070
     0
1002
}
1002
{
1000
MANEDIT
1070
     0
1002
}
1002
{
1000
NOSEL
1070
     0
1002
}
1002
{
1000
BEHIND
1070
     0
1002
}
1002
{
1000
OTHER
1070
     0
1002
}
1002
{
1000
REACTOR
1002
}
  0
ARC
  5
A00
330
1F
100
AcDbEntity
  8
0
100
AcDbCircle
 10
150.5000000522967
 20
100.3000002050665
 30
0.0
 40
0.3
100
AcDbArc
 50
180.0
 51
270.0
1001
GENIUS_GENOBJ-N-FIL_13
1002
{
1000
OWNER
1000
GEN
1002
}
1001
GENIUS_GENODEF_13
1002
{
1000
HIER
1070
     0
1002
}
1002
{
1000
MANEDIT
1070
     0
1002
}
1002
{
1000
NOSEL
1070
     0
1002
}
1002
{
1000
BEHIND
1070
     0
1002
}
1002
{
1000
OTHER
1070
     0
1002
}
1002
{
1000
REACTOR
1002
}
  0
ARC
  5
A01
330
1F
100
AcDbEntity
  8
0
100
AcDbCircle
 10
150.5000000522967
 20
164.300000205066
 30
0.0
 40
0.3
100
AcDbArc
 50
90.00000000000325
 51
180.0
1001
GENIUS_GENODEF_13
1002
{
1000
HIER
1070
     0
1002
}
1002
{
1000
MANEDIT
1070
     0
1002
}
1002
{
1000
NOSEL
1070
     0
1002
}
1002
{
1000
BEHIND
1070
     0
1002
}
1002
{
1000
OTHER
1070
     0
1002
}
1002
{
1000
REACTOR
1002
}
1001
GENIUS_GENOBJ-N-FIL_13
1002
{
1000
OWNER
1000
GEN
1002
}
  0
LINE
  5
A02
330
1F
100
AcDbEntity
  8
0
100
AcDbLine
 10
152.9000000522966
 20
164.6000002050661
 30
0.0
 11
150.5000000522967
 21
164.6000002050661
 31
0.0
  0
LINE
  5
A03
330
1F
100
AcDbEntity
  8
0
100
AcDbLine
 10
152.9000000522967
 20
100.0000002050664
 30
0.0
 11
150.5000000522967
 21
100.0000002050665
 31
0.0
  0
LINE
  5
A04
330
1F
100
AcDbEntity
  8
0
100
AcDbLine
 10
153.7000000522951
 20
128.3000002050664
 30
0.0
 11
163.7000000522952
 21
128.3000002050662
 31
0.0
  0
LINE
  5
A05
330
1F
100
AcDbEntity
  8
0
100
AcDbLine
 10
163.7000000522951
 20
128.3000002050759
 30
0.0
 11
163.7000000522951
 21
131.7000002050662
 31
0.0
  0
LINE
  5
A06
330
1F
100
AcDbEntity
  8
0
100
AcDbLine
 10
163.7000000522951
 20
133.9000002050664
 30
0.0
 11
163.7000000522951
 21
152.3000002050664
 31
0.0
  0
LINE
  5
A07
330
1F
100
AcDbEntity
  8
0
100
AcDbLine
 10
153.7000000522951
 20
128.3000002050664
 30
0.0
 11
153.7000000522951
 21
131.7000002050662
 31
0.0
  0
LINE
  5
A08
330
1F
100
AcDbEntity
  8
0
100
AcDbLine
 10
153.7000000522951
 20
133.9000002050664
 30
0.0
 11
153.7000000522951
 21
152.3000002050594
 31
0.0
  0
LINE
  5
A09
330
1F
100
AcDbEntity
  8
0
100
AcDbLine
 10
163.7000000522952
 20
133.9000002050664
 30
0.0
 11
163.5538644920996
 21
133.9000002050664
 31
0.0
  0
LINE
  5
A0A
330
1F
100
AcDbEntity
  8
0
100
AcDbLine
 10
163.5538644920996
 20
133.9000002050664
 30
0.0
 11
163.5538644920999
 21
131.7000002050662
 31
0.0
  0
LINE
  5
A0B
330
1F
100
AcDbEntity
  8
0
100
AcDbLine
 10
163.5538644920999
 20
131.7000002050662
 30
0.0
 11
163.7000000522952
 21
131.7000002050662
 31
0.0
  0
LINE
  5
A0C
330
1F
100
AcDbEntity
  8
0
100
AcDbLine
 10
153.7000000522951
 20
133.9000002050664
 30
0.0
 11
153.8461356124904
 21
133.9000002050664
 31
0.0
  0
LINE
  5
A0D
330
1F
100
AcDbEntity
  8
0
100
AcDbLine
 10
153.8461356124904
 20
133.9000002050664
 30
0.0
 11
153.8461356124904
 21
131.7000002050662
 31
0.0
  0
LINE
  5
A0E
330
1F
100
AcDbEntity
  8
0
100
AcDbLine
 10
153.8461356124904
 20
131.7000002050662
 30
0.0
 11
153.7000000522951
 21
131.7000002050662
 31
0.0
  0
LINE
  5
A0F
330
1F
100
AcDbEntity
  8
0
100
AcDbLine
 10
162.7000000522952
 20
205.3000002050665
 30
0.0
 11
154.7000000522951
 21
205.3000002050664
 31
0.0
  0
LINE
  5
A10
330
1F
100
AcDbEntity
  8
0
100
AcDbLine
 10
153.7000000522951
 20
152.3000002050594
 30
0.0
 11
154.7000000522951
 21
205.3000002050664
 31
0.0
  0
LINE
  5
A11
330
1F
100
AcDbEntity
  8
0
100
AcDbLine
 10
163.7000000522951
 20
152.3000002050701
 30
0.0
 11
162.7000000522952
 21
205.3000002050665
 31
0.0
  0
LINE
  5
A12
330
1F
100
AcDbEntity
  8
0
100
AcDbLine
 10
154.8000000522947
 20
205.3000002050664
 30
0.0
 11
154.8557981854838
 21
207.2015031309051
 31
0.0
  0
LINE
  5
A13
330
1F
100
AcDbEntity
  8
0
100
AcDbLine
 10
162.6000000522946
 20
205.3000002050664
 30
0.0
 11
162.5442019191055
 21
207.2015031309049
 31
0.0
  0
ARC
  5
A14
330
1F
100
AcDbEntity
  8
0
100
AcDbCircle
 10
162.0442943490905
 20
207.1918895237892
 30
0.0
 40
0.5
100
AcDbArc
 50
1.10170611520105
 51
69.38841074338532
1001
GENIUS_GENODEF_13
1002
{
1000
HIER
1070
     0
1002
}
1002
{
1000
MANEDIT
1070
     0
1002
}
1002
{
1000
NOSEL
1070
     0
1002
}
1002
{
1000
BEHIND
1070
     0
1002
}
1002
{
1000
OTHER
1070
     0
1002
}
1002
{
1000
REACTOR
1002
}
1001
GENIUS_GENOBJ-N-FIL_13
1002
{
1000
OWNER
1000
GEN
1002
}
  0
ARC
  5
A15
330
1F
100
AcDbEntity
  8
0
100
AcDbCircle
 10
162.0442943490905
 20
207.1918895237892
 30
0.0
 40
0.5
100
AcDbArc
 50
69.38841074338532
 51
69.38841074338532
1001
GENIUS_GENODEF_13
1002
{
1000
HIER
1070
     0
1002
}
1002
{
1000
MANEDIT
1070
     0
1002
}
1002
{
1000
NOSEL
1070
     0
1002
}
1002
{
1000
BEHIND
1070
     0
1002
}
1002
{
1000
OTHER
1070
     0
1002
}
1002
{
1000
REACTOR
1002
}
1001
GENIUS_GENOBJ-N-FIL_13
1002
{
1000
OWNER
1000
GEN
1002
}
  0
ARC
  5
A16
330
1F
100
AcDbEntity
  8
0
100
AcDbCircle
 10
155.3557057554989
 20
207.1918895237893
 30
0.0
 40
0.5
100
AcDbArc
 50
110.6115892566113
 51
178.8982938847924
1001
GENIUS_GENOBJ-N-FIL_13
1002
{
1000
OWNER
1000
GEN
1002
}
1001
GENIUS_GENODEF_13
1002
{
1000
HIER
1070
     0
1002
}
1002
{
1000
MANEDIT
1070
     0
1002
}
1002
{
1000
NOSEL
1070
     0
1002
}
1002
{
1000
BEHIND
1070
     0
1002
}
1002
{
1000
OTHER
1070
     0
1002
}
1002
{
1000
REACTOR
1002
}
  0
ARC
  5
A17
330
1F
100
AcDbEntity
  8
0
100
AcDbCircle
 10
158.7000000522943
 20
198.3000002050664
 30
0.0
 40
10.0
100
AcDbArc
 50
69.38841074338532
 51
81.37307343471134
  0
ARC
  5
A18
330
1F
100
AcDbEntity
  8
0
100
AcDbCircle
 10
158.7000000522943
 20
198.3000002050664
 30
0.0
 40
10.0
100
AcDbArc
 50
81.37307343471134
 51
98.62692656528871
  0
ARC
  5
A19
330
1F
100
AcDbEntity
  8
0
100
AcDbCircle
 10
158.7000000522943
 20
198.3000002050664
 30
0.0
 40
10.0
100
AcDbArc
 50
98.62692656528871
 51
110.6115892566113
  0
LINE
  5
A1A
330
1F
100
AcDbEntity
  8
0
100
AcDbLine
 10
160.2000000534351
 20
208.1868601715359
 30
0.0
 11
157.2000000511536
 21
208.1868601715359
 31
0.0
  0
LINE
  5
A1B
330
1F
100
AcDbEntity
  8
0
100
AcDbLine
 10
153.7000000522951
 20
128.3000002050664
 30
0.0
 11
163.7000000522952
 21
128.3000002050662
 31
0.0
  0
LINE
  5
A1C
330
1F
100
AcDbEntity
  8
0
100
AcDbLine
 10
163.2000000522954
 20
126.8000002050663
 30
0.0
 11
154.2000000522948
 21
126.8000002050662
 31
0.0
  0
LINE
  5
A1D
330
1F
100
AcDbEntity
  8
0
100
AcDbLine
 10
153.7000000522951
 20
127.3000002050662
 30
0.0
 11
154.2000000522948
 21
126.8000002050662
 31
0.0
1001
GENIUS_GENFIL_13
1070
     0
1040
0.5
1040
0.5
1040
20.0
1040
0.0
1002
{
1002
}
1001
GENIUS_GENODEF_13
1002
{
1000
HIER
1070
     0
1002
}
1002
{
1000
MANEDIT
1070
     0
1002
}
1002
{
1000
NOSEL
1070
     0
1002
}
1002
{
1000
BEHIND
1070
     0
1002
}
1002
{
1000
OTHER
1070
     0
1002
}
1002
{
1000
REACTOR
1002
}
1001
GENIUS_GENOBJ-N-CHA_13
1002
{
1000
OWNER
1000
GEN
1002
}
  0
LINE
  5
A1E
330
1F
100
AcDbEntity
  8
0
100
AcDbLine
 10
163.7000000522952
 20
128.3000002050664
 30
0.0
 11
163.7000000522952
 21
127.3000002050663
 31
0.0
  0
LINE
  5
A1F
330
1F
100
AcDbEntity
  8
0
100
AcDbLine
 10
163.2000000522954
 20
126.8000002050663
 30
0.0
 11
163.7000000522952
 21
127.3000002050663
 31
0.0
1001
GENIUS_GENFIL_13
1070
     0
1040
0.5
1040
0.5
1040
0.4999999999999787
1040
45.00000000000446
1000
~T
  0
LINE
  5
A20
330
1F
100
AcDbEntity
  8
0
100
AcDbLine
 10
153.7000000522954
 20
128.3000002050662
 30
0.0
 11
153.7000000522951
 21
127.3000002050662
 31
0.0
  0
LINE
  5
A21
330
1F
100
AcDbEntity
  8
0
100
AcDbLine
 10
163.7000000522954
 20
127.3000002050668
 30
0.0
 11
153.7000000522951
 21
127.3000002050662
 31
0.0
  0
LINE
  5
A22
330
1F
100
AcDbEntity
  8
0
100
AcDbLine
 10
142.7000000522968
 20
109.2160256088507
 30
0.0
 11
142.7000000522969
 21
113.4839748012819
 31
0.0
  0
ARC
  5
A23
330
1F
100
AcDbEntity
  8
0
100
AcDbCircle
 10
142.7000000522968
 20
108.3500002050663
 30
0.0
 40
0.5
100
AcDbArc
 50
0.0
 51
60.00000000000006
  0
ARC
  5
A24
330
1F
100
AcDbEntity
  8
0
100
AcDbCircle
 10
143.2000000522968
 20
109.2160256088507
 30
0.0
 40
0.5
100
AcDbArc
 50
180.0
 51
240.0
  0
ARC
  5
A25
330
1F
100
AcDbEntity
  8
0
100
AcDbCircle
 10
142.7000000522968
 20
114.3500002050663
 30
0.0
 40
0.5
100
AcDbArc
 50
299.9999999999999
 51
0.0
  0
ARC
  5
A26
330
1F
100
AcDbEntity
  8
0
100
AcDbCircle
 10
143.2000000522968
 20
113.4839748012819
 30
0.0
 40
0.5
100
AcDbArc
 50
119.9999999999999
 51
180.0
  0
ARC
  5
A27
330
1F
100
AcDbEntity
  8
0
100
AcDbCircle
 10
158.7000000522951
 20
140.3000002050682
 30
0.0
 40
6.0
100
AcDbArc
 50
326.4426902380781
 51
33.55730976192193
1001
GENIUS_GENODEF_13
1002
{
1000
HIER
1070
     0
1002
}
1002
{
1000
MANEDIT
1070
     0
1002
}
1002
{
1000
NOSEL
1070
     0
1002
}
1002
{
1000
BEHIND
1070
     0
1002
}
1002
{
1000
OTHER
1070
     0
1002
}
1002
{
1000
REACTOR
1002
}
1001
GENIUS_GENOBJ-N-FIL_13
1002
{
1000
OWNER
1000
GEN
1002
}
  0
LINE
  5
A32
330
1F
100
AcDbEntity
  8
0
100
AcDbLine
 10
180.2000000522968
 20
162.8000002050664
 30
0.0
 11
180.2000000522969
 21
101.8000002050662
 31
0.0
1001
GENIUS_GENODEF_13
1002
{
1000
HIER
1070
     0
1002
}
1002
{
1000
MANEDIT
1070
     0
1002
}
1002
{
1000
NOSEL
1070
     0
1002
}
1002
{
1000
BEHIND
1070
     0
1002
}
1002
{
1000
OTHER
1070
     0
1002
}
1002
{
1000
REACTOR
1002
}
1001
GENIUS_GENOBJ-N-CEN_13
1002
{
1000
OWNER
1000
GEN
1002
}
1001
GENIUS_GENCEN_19
1002
{
1040
2.793999999999998
1002
}
  0
ARC
  5
A33
330
1F
100
AcDbEntity
  8
0
100
AcDbCircle
 10
178.7000000522968
 20
162.8000002050664
 30
0.0
 40
1.5
100
AcDbArc
 50
0.0
 51
90.0
1001
GENIUS_GENOBJ-N-CEN_13
1002
{
1000
OWNER
1000
GEN
1002
}
1001
GENIUS_GENCEN_19
1002
{
1040
2.793999999999998
1002
}
1001
GENIUS_GENODEF_13
1002
{
1000
HIER
1070
     0
1002
}
1002
{
1000
MANEDIT
1070
     0
1002
}
1002
{
1000
NOSEL
1070
     0
1002
}
1002
{
1000
BEHIND
1070
     0
1002
}
1002
{
1000
OTHER
1070
     0
1002
}
1002
{
1000
REACTOR
1002
}
1001
GENIUS_GENOBJ-N-FIL_13
1002
{
1000
OWNER
1000
GEN
1002
}
  0
ARC
  5
A34
330
1F
100
AcDbEntity
  8
0
100
AcDbCircle
 10
178.7000000522969
 20
101.8000002050662
 30
0.0
 40
1.5
100
AcDbArc
 50
270.0
 51
0.0
1001
GENIUS_GENOBJ-N-FIL_13
1002
{
1000
OWNER
1000
GEN
1002
}
1001
GENIUS_GENODEF_13
1002
{
1000
HIER
1070
     0
1002
}
1002
{
1000
MANEDIT
1070
     0
1002
}
1002
{
1000
NOSEL
1070
     0
1002
}
1002
{
1000
BEHIND
1070
     0
1002
}
1002
{
1000
OTHER
1070
     0
1002
}
1002
{
1000
REACTOR
1002
}
  0
LINE
  5
A35
330
1F
100
AcDbEntity
  8
0
100
AcDbLine
 10
163.4735849579555
 20
164.3000002050663
 30
0.0
 11
178.7000000522968
 21
164.3000002050664
 31
0.0
  0
LINE
  5
111D
330
1F
100
AcDbEntity
  8
0
100
AcDbLine
 10
316.4500000522958
 20
26.30000020506621
 30
0.0
 11
316.4500000522958
 21
65.62857163363768
 31
0.0
  0
LINE
  5
111E
330
1F
100
AcDbEntity
  8
0
100
AcDbLine
 10
312.3500000522974
 20
26.30000020506621
 30
0.0
 11
312.3500000522974
 21
67.97142877649395
 31
0.0
  0
LINE
  5
111F
330
1F
100
AcDbEntity
  8
0
100
AcDbLine
 10
156.6500000522959
 20
26.30000020506611
 30
0.0
 11
156.6500000522959
 21
67.97142877649474
 31
0.0
  0
LINE
  5
1120
330
1F
100
AcDbEntity
  8
0
100
AcDbLine
 10
160.7500000522943
 20
26.30000020506631
 30
0.0
 11
160.7500000522943
 21
65.62857163363847
 31
0.0
  0
LINE
  5
1121
330
1F
100
AcDbEntity
  8
0
100
AcDbLine
 10
13.30000005229601
 20
-20.99999979493387
 30
0.0
 11
13.30000005229618
 21
-18.49999979493385
 31
0.0
  0
LINE
  5
1122
330
1F
100
AcDbEntity
  8
0
100
AcDbLine
 10
-1.299999947704008
 20
-20.99999979493387
 30
0.0
 11
-1.299999947704008
 21
-18.49999979493385
 31
0.0
  0
LINE
  5
1123
330
1F
100
AcDbEntity
  8
0
100
AcDbLine
 10
-2.799999947704009
 20
5.500000205066212
 30
0.0
 11
-2.799999947704009
 21
-41.19999979493392
 31
0.0
  0
LINE
  5
1124
330
1F
100
AcDbEntity
  8
0
100
AcDbLine
 10
14.80000005229618
 20
5.500000205066272
 30
0.0
 11
14.80000005229618
 21
-41.19999979493392
 31
0.0
  0
LINE
  5
1125
330
1F
100
AcDbEntity
  8
0
100
AcDbLine
 10
-2.799999947704009
 20
-14.49999979493385
 30
0.0
 11
14.80000005229618
 21
-14.49999979493385
 31
0.0
  0
LINE
  5
1126
330
1F
100
AcDbEntity
  8
0
100
AcDbLine
 10
-2.799999947704009
 20
-16.99999979493385
 30
0.0
 11
14.80000005229618
 21
-16.99999979493385
 31
0.0
  0
LINE
  5
1127
330
1F
100
AcDbEntity
  8
0
100
AcDbLine
 10
-2.799999947704009
 20
-18.49999979493385
 30
0.0
 11
14.80000005229618
 21
-18.49999979493385
 31
0.0
  0
LINE
  5
1128
330
1F
100
AcDbEntity
  8
0
100
AcDbLine
 10
-1.299999947704008
 20
-16.99999979493385
 30
0.0
 11
-1.299999947704008
 21
-14.49999979493385
 31
0.0
  0
LINE
  5
1129
330
1F
100
AcDbEntity
  8
0
100
AcDbLine
 10
13.30000005229618
 20
-16.99999979493385
 30
0.0
 11
13.30000005229618
 21
-14.49999979493385
 31
0.0
  0
ARC
  5
112A
330
1F
100
AcDbEntity
  8
0
100
AcDbCircle
 10
6.000000052296003
 20
-41.19999979493392
 30
0.0
 40
8.800000000000006
100
AcDbArc
 50
180.0
 51
0.0
  0
LINE
  5
112B
330
1F
100
AcDbEntity
  8
0
100
AcDbLine
 10
14.80000005229618
 20
-40.99999979493389
 30
0.0
 11
-2.799999947704009
 21
-40.99999979493389
 31
0.0
  0
LINE
  5
112C
330
1F
100
AcDbEntity
  8
0
100
AcDbLine
 10
-2.799999947704009
 20
-22.49999979493387
 30
0.0
 11
14.80000005229618
 21
-22.49999979493387
 31
0.0
  0
LINE
  5
112D
330
1F
100
AcDbEntity
  8
0
100
AcDbLine
 10
-2.799999947704009
 20
-20.99999979493387
 30
0.0
 11
14.80000005229618
 21
-20.99999979493387
 31
0.0
  0
LINE
  5
112E
330
1F
100
AcDbEntity
  8
0
100
AcDbLine
 10
-2.799999947704009
 20
-24.99999979493387
 30
0.0
 11
14.80000005229618
 21
-24.99999979493387
 31
0.0
  0
LINE
  5
112F
330
1F
100
AcDbEntity
  8
0
100
AcDbLine
 10
-2.799999947704009
 20
-26.49999979493387
 30
0.0
 11
14.80000005229618
 21
-26.49999979493387
 31
0.0
  0
LINE
  5
1130
330
1F
100
AcDbEntity
  8
0
100
AcDbLine
 10
-2.799999947704009
 20
-30.4999997949339
 30
0.0
 11
14.80000005229618
 21
-30.4999997949339
 31
0.0
  0
LINE
  5
1131
330
1F
100
AcDbEntity
  8
0
100
AcDbLine
 10
-2.799999947704009
 20
-28.99999979493387
 30
0.0
 11
14.80000005229618
 21
-28.99999979493387
 31
0.0
  0
LINE
  5
1132
330
1F
100
AcDbEntity
  8
0
100
AcDbLine
 10
-2.799999947704009
 20
-32.9999997949339
 30
0.0
 11
14.80000005229618
 21
-32.9999997949339
 31
0.0
  0
LINE
  5
1133
330
1F
100
AcDbEntity
  8
0
100
AcDbLine
 10
-2.799999947704009
 20
-34.4999997949339
 30
0.0
 11
14.80000005229618
 21
-34.4999997949339
 31
0.0
  0
LINE
  5
1134
330
1F
100
AcDbEntity
  8
0
100
AcDbLine
 10
-2.799999947704009
 20
-36.9999997949339
 30
0.0
 11
14.80000005229618
 21
-36.9999997949339
 31
0.0
  0
LINE
  5
1135
330
1F
100
AcDbEntity
  8
0
100
AcDbLine
 10
-2.799999947704009
 20
-38.4999997949339
 30
0.0
 11
14.80000005229618
 21
-38.4999997949339
 31
0.0
  0
LINE
  5
1136
330
1F
100
AcDbEntity
  8
0
100
AcDbLine
 10
-1.299999947704008
 20
-32.9999997949339
 30
0.0
 11
-1.299999947704008
 21
-30.4999997949339
 31
0.0
  0
LINE
  5
1137
330
1F
100
AcDbEntity
  8
0
100
AcDbLine
 10
-1.299999947704008
 20
-24.99999979493387
 30
0.0
 11
-1.299999947704008
 21
-22.49999979493387
 31
0.0
  0
LINE
  5
1138
330
1F
100
AcDbEntity
  8
0
100
AcDbLine
 10
-1.299999947704008
 20
-28.99999979493387
 30
0.0
 11
-1.299999947704008
 21
-26.49999979493387
 31
0.0
  0
LINE
  5
1139
330
1F
100
AcDbEntity
  8
0
100
AcDbLine
 10
-1.299999947704008
 20
-36.9999997949339
 30
0.0
 11
-1.299999947704008
 21
-34.4999997949339
 31
0.0
  0
LINE
  5
113A
330
1F
100
AcDbEntity
  8
0
100
AcDbLine
 10
-1.299999947704008
 20
-40.99999979493389
 30
0.0
 11
-1.299999947704008
 21
-38.4999997949339
 31
0.0
  0
LINE
  5
113B
330
1F
100
AcDbEntity
  8
0
100
AcDbLine
 10
13.30000005229601
 20
-32.9999997949339
 30
0.0
 11
13.30000005229601
 21
-30.4999997949339
 31
0.0
  0
LINE
  5
113C
330
1F
100
AcDbEntity
  8
0
100
AcDbLine
 10
13.30000005229601
 20
-24.99999979493387
 30
0.0
 11
13.30000005229601
 21
-22.49999979493387
 31
0.0
  0
LINE
  5
113D
330
1F
100
AcDbEntity
  8
0
100
AcDbLine
 10
13.30000005229601
 20
-28.99999979493387
 30
0.0
 11
13.30000005229601
 21
-26.49999979493387
 31
0.0
  0
LINE
  5
113E
330
1F
100
AcDbEntity
  8
0
100
AcDbLine
 10
13.30000005229601
 20
-36.9999997949339
 30
0.0
 11
13.30000005229601
 21
-34.4999997949339
 31
0.0
  0
LINE
  5
113F
330
1F
100
AcDbEntity
  8
0
100
AcDbLine
 10
13.30000005229601
 20
-40.99999979493389
 30
0.0
 11
13.30000005229601
 21
-38.4999997949339
 31
0.0
  0
CIRCLE
  5
1140
330
1F
100
AcDbEntity
  8
0
100
AcDbCircle
 10
6.000000052296003
 20
-45.99999979493389
 30
0.0
 40
2.000000000000003
  0
LINE
  5
1141
330
1F
100
AcDbEntity
  8
0
100
AcDbLine
 10
13.45000005229605
 20
8.500000205066212
 30
0.0
 11
13.45000005229605
 21
6.500000205066272
 31
0.0
1001
GENIUS_GENODEF_13
1002
{
1000
HIER
1070
     0
1002
}
1002
{
1000
MANEDIT
1070
     0
1002
}
1002
{
1000
NOSEL
1070
     0
1002
}
1002
{
1000
BEHIND
1070
     0
1002
}
1002
{
1000
OTHER
1070
     0
1002
}
1002
{
1000
REACTOR
1002
}
1001
GENIUS_GENOBJ-N-CEN_13
1002
{
1000
OWNER
1000
GEN
1002
}
  0
LINE
  5
1142
330
1F
100
AcDbEntity
  8
0
100
AcDbLine
 10
-1.449999947704043
 20
8.500000205066212
 30
0.0
 11
-1.449999947704043
 21
6.500000205066212
 31
0.0
1001
GENIUS_GENODEF_13
1002
{
1000
HIER
1070
     0
1002
}
1002
{
1000
MANEDIT
1070
     0
1002
}
1002
{
1000
NOSEL
1070
     0
1002
}
1002
{
1000
BEHIND
1070
     0
1002
}
1002
{
1000
OTHER
1070
     0
1002
}
1002
{
1000
REACTOR
1002
}
1001
GENIUS_GENOBJ-N-CEN_13
1002
{
1000
OWNER
1000
GEN
1002
}
  0
LINE
  5
1143
330
1F
100
AcDbEntity
  8
0
100
AcDbLine
 10
12.95000005229605
 20
9.000000205066212
 30
0.0
 11
-0.9499999477040431
 21
9.000000205066212
 31
0.0
  0
ARC
  5
1144
330
1F
100
AcDbEntity
  8
0
100
AcDbCircle
 10
-0.9499999477040431
 20
8.500000205066212
 30
0.0
 40
0.5000000000000009
100
AcDbArc
 50
90.0
 51
180.0
1001
GENIUS_GENOBJ-N-FIL_13
1002
{
1000
OWNER
1000
GEN
1002
}
1001
GENIUS_GENODEF_13
1002
{
1000
HIER
1070
     0
1002
}
1002
{
1000
MANEDIT
1070
     0
1002
}
1002
{
1000
NOSEL
1070
     0
1002
}
1002
{
1000
BEHIND
1070
     0
1002
}
1002
{
1000
OTHER
1070
     0
1002
}
1002
{
1000
REACTOR
1002
}
  0
ARC
  5
1145
330
1F
100
AcDbEntity
  8
0
100
AcDbCircle
 10
12.95000005229605
 20
8.500000205066212
 30
0.0
 40
0.5000000000000009
100
AcDbArc
 50
0.0
 51
90.0
1001
GENIUS_GENOBJ-N-CEN_13
1002
{
1000
OWNER
1000
GEN
1002
}
1001
GENIUS_GENOBJ-N-FIL_13
1002
{
1000
OWNER
1000
GEN
1002
}
1001
GENIUS_GENODEF_13
1002
{
1000
HIER
1070
     0
1002
}
1002
{
1000
MANEDIT
1070
     0
1002
}
1002
{
1000
NOSEL
1070
     0
1002
}
1002
{
1000
BEHIND
1070
     0
1002
}
1002
{
1000
OTHER
1070
     0
1002
}
1002
{
1000
REACTOR
1002
}
  0
LINE
  5
1146
330
1F
100
AcDbEntity
  8
0
100
AcDbLine
 10
13.80000005229618
 20
6.500000205066272
 30
0.0
 11
-1.799999947704009
 21
6.500000205066212
 31
0.0
  0
LINE
  5
1147
330
1F
100
AcDbEntity
  8
0
100
AcDbLine
 10
13.80000005229618
 20
-6.499999794933812
 30
0.0
 11
-1.799999947703836
 21
-6.499999794933812
 31
0.0
  0
ARC
  5
1148
330
1F
100
AcDbEntity
  8
0
100
AcDbCircle
 10
-1.799999947704009
 20
5.500000205066212
 30
0.0
 40
1.000000000000001
100
AcDbArc
 50
90.0
 51
180.0
1001
GENIUS_GENODEF_13
1002
{
1000
HIER
1070
     0
1002
}
1002
{
1000
MANEDIT
1070
     0
1002
}
1002
{
1000
NOSEL
1070
     0
1002
}
1002
{
1000
BEHIND
1070
     0
1002
}
1002
{
1000
OTHER
1070
     0
1002
}
1002
{
1000
REACTOR
1002
}
1001
GENIUS_GENOBJ-N-FIL_13
1002
{
1000
OWNER
1000
GEN
1002
}
  0
ARC
  5
1149
330
1F
100
AcDbEntity
  8
0
100
AcDbCircle
 10
-1.799999947703836
 20
-5.499999794933813
 30
0.0
 40
1.000000000000001
100
AcDbArc
 50
180.0
 51
270.0
1001
GENIUS_GENODEF_13
1002
{
1000
HIER
1070
     0
1002
}
1002
{
1000
MANEDIT
1070
     0
1002
}
1002
{
1000
NOSEL
1070
     0
1002
}
1002
{
1000
BEHIND
1070
     0
1002
}
1002
{
1000
OTHER
1070
     0
1002
}
1002
{
1000
REACTOR
1002
}
1001
GENIUS_GENOBJ-N-FIL_13
1002
{
1000
OWNER
1000
GEN
1002
}
  0
ARC
  5
114A
330
1F
100
AcDbEntity
  8
0
100
AcDbCircle
 10
13.80000005229618
 20
5.500000205066272
 30
0.0
 40
1.000000000000001
100
AcDbArc
 50
0.0
 51
90.0
1001
GENIUS_GENOBJ-N-FIL_13
1002
{
1000
OWNER
1000
GEN
1002
}
1001
GENIUS_GENODEF_13
1002
{
1000
HIER
1070
     0
1002
}
1002
{
1000
MANEDIT
1070
     0
1002
}
1002
{
1000
NOSEL
1070
     0
1002
}
1002
{
1000
BEHIND
1070
     0
1002
}
1002
{
1000
OTHER
1070
     0
1002
}
1002
{
1000
REACTOR
1002
}
  0
ARC
  5
114B
330
1F
100
AcDbEntity
  8
0
100
AcDbCircle
 10
13.80000005229618
 20
-5.499999794933813
 30
0.0
 40
1.000000000000001
100
AcDbArc
 50
270.0
 51
0.0
1001
GENIUS_GENOBJ-N-FIL_13
1002
{
1000
OWNER
1000
GEN
1002
}
1001
GENIUS_GENODEF_13
1002
{
1000
HIER
1070
     0
1002
}
1002
{
1000
MANEDIT
1070
     0
1002
}
1002
{
1000
NOSEL
1070
     0
1002
}
1002
{
1000
BEHIND
1070
     0
1002
}
1002
{
1000
OTHER
1070
     0
1002
}
1002
{
1000
REACTOR
1002
}
  0
LINE
  5
114C
330
1F
100
AcDbEntity
  8
0
100
AcDbLine
 10
12.45000005229605
 20
15.48054020132261
 30
0.0
 11
12.45000005229605
 21
9.000000205066212
 31
0.0
  0
LINE
  5
114D
330
1F
100
AcDbEntity
  8
0
100
AcDbLine
 10
-0.4499999477038159
 20
15.48054020132255
 30
0.0
 11
-0.4499999477036454
 21
9.000000205066212
 31
0.0
  0
LINE
  5
114E
330
1F
100
AcDbEntity
  8
0
100
AcDbLine
 10
9.951478962234318
 20
26.30000020506626
 30
0.0
 11
2.048521142357856
 21
26.30000020506626
 31
0.0
  0
LINE
  5
114F
330
1F
100
AcDbEntity
  8
0
100
AcDbLine
 10
1.06186185149005
 20
25.46279898805949
 30
0.0
 11
-0.3165928563828402
 21
17.10852803125456
 31
0.0
  0
LINE
  5
1150
330
1F
100
AcDbEntity
  8
0
100
AcDbLine
 10
10.93813825310218
 20
25.46279898805949
 30
0.0
 11
12.31659296097524
 21
17.10852803125468
 31
0.0
  0
ARC
  5
1151
330
1F
100
AcDbEntity
  8
0
100
AcDbCircle
 10
2.45000005229599
 20
15.48054020132261
 30
0.0
 40
10.00000000000001
100
AcDbArc
 50
0.0
 51
9.369385096487079
1001
GENIUS_GENODEF_13
1002
{
1000
HIER
1070
     0
1002
}
1002
{
1000
MANEDIT
1070
     0
1002
}
1002
{
1000
NOSEL
1070
     0
1002
}
1002
{
1000
BEHIND
1070
     0
1002
}
1002
{
1000
OTHER
1070
     0
1002
}
1002
{
1000
REACTOR
1002
}
1001
GENIUS_GENOBJ-N-FIL_13
1002
{
1000
OWNER
1000
GEN
1002
}
  0
ARC
  5
1152
330
1F
100
AcDbEntity
  8
0
100
AcDbCircle
 10
9.550000052296182
 20
15.48054020132255
 30
0.0
 40
10.00000000000001
100
AcDbArc
 50
170.6306149035129
 51
180.0
1001
GENIUS_GENOBJ-N-FIL_13
1002
{
1000
OWNER
1000
GEN
1002
}
1001
GENIUS_GENODEF_13
1002
{
1000
HIER
1070
     0
1002
}
1002
{
1000
MANEDIT
1070
     0
1002
}
1002
{
1000
NOSEL
1070
     0
1002
}
1002
{
1000
BEHIND
1070
     0
1002
}
1002
{
1000
OTHER
1070
     0
1002
}
1002
{
1000
REACTOR
1002
}
  0
ARC
  5
1153
330
1F
100
AcDbEntity
  8
0
100
AcDbCircle
 10
9.951478962234318
 20
25.30000020506625
 30
0.0
 40
1.000000000000001
100
AcDbArc
 50
9.369385096487079
 51
90.0
1001
GENIUS_GENOBJ-N-FIL_13
1002
{
1000
OWNER
1000
GEN
1002
}
1001
GENIUS_GENODEF_13
1002
{
1000
HIER
1070
     0
1002
}
1002
{
1000
MANEDIT
1070
     0
1002
}
1002
{
1000
NOSEL
1070
     0
1002
}
1002
{
1000
BEHIND
1070
     0
1002
}
1002
{
1000
OTHER
1070
     0
1002
}
1002
{
1000
REACTOR
1002
}
  0
ARC
  5
1154
330
1F
100
AcDbEntity
  8
0
100
AcDbCircle
 10
2.048521142357856
 20
25.30000020506625
 30
0.0
 40
1.000000000000001
100
AcDbArc
 50
90.0
 51
170.6306149035129
1001
GENIUS_GENODEF_13
1002
{
1000
HIER
1070
     0
1002
}
1002
{
1000
MANEDIT
1070
     0
1002
}
1002
{
1000
NOSEL
1070
     0
1002
}
1002
{
1000
BEHIND
1070
     0
1002
}
1002
{
1000
OTHER
1070
     0
1002
}
1002
{
1000
REACTOR
1002
}
1001
GENIUS_GENOBJ-N-FIL_13
1002
{
1000
OWNER
1000
GEN
1002
}
  0
LINE
  5
1155
330
1F
100
AcDbEntity
  8
0
100
AcDbLine
 10
3.950000052296161
 20
26.30000020506603
 30
0.0
 11
3.950000052295138
 21
67.97142877649514
 31
0.0
  0
LINE
  5
1156
330
1F
100
AcDbEntity
  8
0
100
AcDbLine
 10
8.050000052296182
 20
26.3000002050662
 30
0.0
 11
8.050000052295388
 21
65.62857163363711
 31
0.0
  0
LINE
  5
1157
330
1F
100
AcDbEntity
  8
0
100
AcDbLine
 10
8.050000052295388
 20
67.6285716336381
 30
0.0
 11
8.050000052296411
 21
109.3000002050661
 31
0.0
  0
LINE
  5
1158
330
1F
100
AcDbEntity
  8
0
100
AcDbLine
 10
8.050000052295388
 20
67.6285716336381
 30
0.0
 11
3.950000052296786
 21
69.97142877649441
 31
0.0
  0
LINE
  5
1159
330
1F
100
AcDbEntity
  8
0
100
AcDbLine
 10
8.050000052296809
 20
65.62857163363722
 30
0.0
 11
3.950000052296786
 21
67.97142877649441
 31
0.0
  0
LINE
  5
115A
330
1F
100
AcDbEntity
  8
0
100
AcDbLine
 10
3.950000052296786
 20
69.97142877649441
 30
0.0
 11
3.950000052297808
 21
109.3000002050661
 31
0.0
  0
LINE
  5
115B
330
1F
100
AcDbEntity
  8
0
100
AcDbLine
 10
13.25603202576536
 20
-43.49999979493397
 30
0.0
 11
-1.256031921173187
 21
-43.49999979493397
 31
0.0
  0
ARC
  5
115C
330
1F
100
AcDbEntity
  8
0
100
AcDbCircle
 10
13.25603202576536
 20
-41.99999979493397
 30
0.0
 40
1.5
100
AcDbArc
 50
270.0
 51
353.70837386061
1001
GENIUS_GENODEF_13
1002
{
1000
HIER
1070
     0
1002
}
1002
{
1000
MANEDIT
1070
     0
1002
}
1002
{
1000
NOSEL
1070
     0
1002
}
1002
{
1000
BEHIND
1070
     0
1002
}
1002
{
1000
OTHER
1070
     0
1002
}
1002
{
1000
REACTOR
1002
}
1001
GENIUS_GENOBJ-N-FIL_13
1002
{
1000
OWNER
1000
GEN
1002
}
  0
ARC
  5
115D
330
1F
100
AcDbEntity
  8
0
100
AcDbCircle
 10
-1.256031921173187
 20
-41.99999979493397
 30
0.0
 40
1.5
100
AcDbArc
 50
186.29162613939
 51
270.0
1001
GENIUS_GENODEF_13
1002
{
1000
HIER
1070
     0
1002
}
1002
{
1000
MANEDIT
1070
     0
1002
}
1002
{
1000
NOSEL
1070
     0
1002
}
1002
{
1000
BEHIND
1070
     0
1002
}
1002
{
1000
OTHER
1070
     0
1002
}
1002
{
1000
REACTOR
1002
}
1001
GENIUS_GENOBJ-N-FIL_13
1002
{
1000
OWNER
1000
GEN
1002
}
  0
LINE
  5
115E
330
1F
100
AcDbEntity
  8
0
100
AcDbLine
 10
152.6000000522958
 20
5.500000205066044
 30
0.0
 11
152.6000000522958
 21
-5.999999794933955
 31
0.0
  0
LINE
  5
115F
330
1F
100
AcDbEntity
  8
0
100
AcDbLine
 10
166.6000000522959
 20
5.500000205066044
 30
0.0
 11
166.6000000522958
 21
-5.999999794933785
 31
0.0
  0
LINE
  5
1160
330
1F
100
AcDbEntity
  8
0
100
AcDbLine
 10
154.0000000522959
 20
2.50000020506607
 30
0.0
 11
154.0000000522959
 21
-5.999999794933955
 31
0.0
  0
LINE
  5
1161
330
1F
100
AcDbEntity
  8
0
100
AcDbLine
 10
165.2000000522956
 20
2.50000020506607
 30
0.0
 11
165.2000000522956
 21
-5.999999794933785
 31
0.0
  0
LINE
  5
1162
330
1F
100
AcDbEntity
  8
0
100
AcDbLine
 10
154.7500000522959
 20
25.30000020506607
 30
0.0
 11
154.7500000522959
 21
9.000000205066042
 31
0.0
  0
LINE
  5
1163
330
1F
100
AcDbEntity
  8
0
100
AcDbLine
 10
162.6500000522957
 20
25.30000020506637
 30
0.0
 11
162.6500000522957
 21
9.000000205066042
 31
0.0
  0
LINE
  5
1164
330
1F
100
AcDbEntity
  8
0
100
AcDbLine
 10
158.7000000522958
 20
9.000000205066042
 30
0.0
 11
158.7000000522958
 21
26.30000020506606
 31
0.0
  0
LINE
  5
1165
330
1F
100
AcDbEntity
  8
0
100
AcDbLine
 10
155.7500000522959
 20
26.30000020506606
 30
0.0
 11
161.6500000522957
 21
26.30000020506635
 31
0.0
  0
ARC
  5
1166
330
1F
100
AcDbEntity
  8
0
100
AcDbCircle
 10
155.7500000522959
 20
25.300000205066
 30
0.0
 40
1.0
100
AcDbArc
 50
90.0
 51
180.0
1001
GENIUS_GENOBJ-N-FIL_13
1002
{
1000
OWNER
1000
GEN
1002
}
1001
GENIUS_GENODEF_13
1002
{
1000
HIER
1070
     0
1002
}
1002
{
1000
MANEDIT
1070
     0
1002
}
1002
{
1000
NOSEL
1070
     0
1002
}
1002
{
1000
BEHIND
1070
     0
1002
}
1002
{
1000
OTHER
1070
     0
1002
}
1002
{
1000
REACTOR
1002
}
  0
ARC
  5
1167
330
1F
100
AcDbEntity
  8
0
100
AcDbCircle
 10
161.6500000522957
 20
25.3000002050663
 30
0.0
 40
1.0
100
AcDbArc
 50
0.0
 51
90.0
1001
GENIUS_GENOBJ-N-FIL_13
1002
{
1000
OWNER
1000
GEN
1002
}
1001
GENIUS_GENODEF_13
1002
{
1000
HIER
1070
     0
1002
}
1002
{
1000
MANEDIT
1070
     0
1002
}
1002
{
1000
NOSEL
1070
     0
1002
}
1002
{
1000
BEHIND
1070
     0
1002
}
1002
{
1000
OTHER
1070
     0
1002
}
1002
{
1000
REACTOR
1002
}
  0
LINE
  5
1168
330
1F
100
AcDbEntity
  8
0
100
AcDbLine
 10
154.7500000522959
 20
9.000000205066212
 30
0.0
 11
162.6500000522957
 21
9.000000205066042
 31
0.0
  0
LINE
  5
1169
330
1F
100
AcDbEntity
  8
0
100
AcDbLine
 10
153.6000000522958
 20
6.500000205066044
 30
0.0
 11
165.6000000522959
 21
6.500000205066044
 31
0.0
  0
LINE
  5
116A
330
1F
100
AcDbEntity
  8
0
100
AcDbLine
 10
154.0000000522959
 20
2.50000020506607
 30
0.0
 11
165.2000000522956
 21
2.50000020506607
 31
0.0
  0
ARC
  5
116B
330
1F
100
AcDbEntity
  8
0
100
AcDbCircle
 10
153.6000000522958
 20
5.500000205066186
 30
0.0
 40
1.0
100
AcDbArc
 50
90.0
 51
180.0
1001
GENIUS_GENOBJ-N-FIL_13
1002
{
1000
OWNER
1000
GEN
1002
}
1001
GENIUS_GENODEF_13
1002
{
1000
HIER
1070
     0
1002
}
1002
{
1000
MANEDIT
1070
     0
1002
}
1002
{
1000
NOSEL
1070
     0
1002
}
1002
{
1000
BEHIND
1070
     0
1002
}
1002
{
1000
OTHER
1070
     0
1002
}
1002
{
1000
REACTOR
1002
}
  0
ARC
  5
116C
330
1F
100
AcDbEntity
  8
0
100
AcDbCircle
 10
154.7500000522959
 20
8.000000205066324
 30
0.0
 40
1.0
100
AcDbArc
 50
90.0
 51
180.0
1001
GENIUS_GENODEF_13
1002
{
1000
HIER
1070
     0
1002
}
1002
{
1000
MANEDIT
1070
     0
1002
}
1002
{
1000
NOSEL
1070
     0
1002
}
1002
{
1000
BEHIND
1070
     0
1002
}
1002
{
1000
OTHER
1070
     0
1002
}
1002
{
1000
REACTOR
1002
}
1001
GENIUS_GENOBJ-N-FIL_13
1002
{
1000
OWNER
1000
GEN
1002
}
  0
LINE
  5
116D
330
1F
100
AcDbEntity
  8
0
100
AcDbLine
 10
153.7500000522959
 20
8.000000205066044
 30
0.0
 11
153.7500000522959
 21
6.500000205066044
 31
0.0
  0
ARC
  5
116E
330
1F
100
AcDbEntity
  8
0
100
AcDbCircle
 10
162.6500000522957
 20
8.000000205065987
 30
0.0
 40
1.0
100
AcDbArc
 50
0.0
 51
90.0
1001
GENIUS_GENODEF_13
1002
{
1000
HIER
1070
     0
1002
}
1002
{
1000
MANEDIT
1070
     0
1002
}
1002
{
1000
NOSEL
1070
     0
1002
}
1002
{
1000
BEHIND
1070
     0
1002
}
1002
{
1000
OTHER
1070
     0
1002
}
1002
{
1000
REACTOR
1002
}
1001
GENIUS_GENOBJ-N-FIL_13
1002
{
1000
OWNER
1000
GEN
1002
}
  0
ARC
  5
116F
330
1F
100
AcDbEntity
  8
0
100
AcDbCircle
 10
165.6000000522958
 20
5.500000205065987
 30
0.0
 40
1.0
100
AcDbArc
 50
0.0
 51
90.0
1001
GENIUS_GENODEF_13
1002
{
1000
HIER
1070
     0
1002
}
1002
{
1000
MANEDIT
1070
     0
1002
}
1002
{
1000
NOSEL
1070
     0
1002
}
1002
{
1000
BEHIND
1070
     0
1002
}
1002
{
1000
OTHER
1070
     0
1002
}
1002
{
1000
REACTOR
1002
}
1001
GENIUS_GENOBJ-N-FIL_13
1002
{
1000
OWNER
1000
GEN
1002
}
  0
LINE
  5
1170
330
1F
100
AcDbEntity
  8
0
100
AcDbLine
 10
163.6500000522957
 20
8.000000205066044
 30
0.0
 11
163.6500000522957
 21
6.500000205066044
 31
0.0
  0
ARC
  5
1171
330
1F
100
AcDbEntity
  8
0
100
AcDbCircle
 10
153.1000000522959
 20
-5.999999794933812
 30
0.0
 40
0.5
100
AcDbArc
 50
180.0
 51
270.0
1001
GENIUS_GENOBJ-N-FIL_13
1002
{
1000
OWNER
1000
GEN
1002
}
1001
GENIUS_GENODEF_13
1002
{
1000
HIER
1070
     0
1002
}
1002
{
1000
MANEDIT
1070
     0
1002
}
1002
{
1000
NOSEL
1070
     0
1002
}
1002
{
1000
BEHIND
1070
     0
1002
}
1002
{
1000
OTHER
1070
     0
1002
}
1002
{
1000
REACTOR
1002
}
  0
LINE
  5
1172
330
1F
100
AcDbEntity
  8
0
100
AcDbLine
 10
153.1000000522959
 20
-6.499999794933955
 30
0.0
 11
153.5000000522959
 21
-6.499999794933955
 31
0.0
  0
ARC
  5
1173
330
1F
100
AcDbEntity
  8
0
100
AcDbCircle
 10
153.5000000522957
 20
-5.999999794933812
 30
0.0
 40
0.5
100
AcDbArc
 50
270.0
 51
0.0
1001
GENIUS_GENODEF_13
1002
{
1000
HIER
1070
     0
1002
}
1002
{
1000
MANEDIT
1070
     0
1002
}
1002
{
1000
NOSEL
1070
     0
1002
}
1002
{
1000
BEHIND
1070
     0
1002
}
1002
{
1000
OTHER
1070
     0
1002
}
1002
{
1000
REACTOR
1002
}
1001
GENIUS_GENOBJ-N-FIL_13
1002
{
1000
OWNER
1000
GEN
1002
}
  0
ARC
  5
1174
330
1F
100
AcDbEntity
  8
0
100
AcDbCircle
 10
166.1000000522958
 20
-5.999999794933669
 30
0.0
 40
0.5
100
AcDbArc
 50
270.0
 51
0.0
1001
GENIUS_GENOBJ-N-FIL_13
1002
{
1000
OWNER
1000
GEN
1002
}
1001
GENIUS_GENODEF_13
1002
{
1000
HIER
1070
     0
1002
}
1002
{
1000
MANEDIT
1070
     0
1002
}
1002
{
1000
NOSEL
1070
     0
1002
}
1002
{
1000
BEHIND
1070
     0
1002
}
1002
{
1000
OTHER
1070
     0
1002
}
1002
{
1000
REACTOR
1002
}
  0
LINE
  5
1175
330
1F
100
AcDbEntity
  8
0
100
AcDbLine
 10
165.7000000522955
 20
-6.499999794933785
 30
0.0
 11
166.1000000522955
 21
-6.499999794933785
 31
0.0
  0
ARC
  5
1176
330
1F
100
AcDbEntity
  8
0
100
AcDbCircle
 10
165.7000000522955
 20
-5.999999794933669
 30
0.0
 40
0.5
100
AcDbArc
 50
180.0
 51
270.0
1001
GENIUS_GENOBJ-N-FIL_13
1002
{
1000
OWNER
1000
GEN
1002
}
1001
GENIUS_GENODEF_13
1002
{
1000
HIER
1070
     0
1002
}
1002
{
1000
MANEDIT
1070
     0
1002
}
1002
{
1000
NOSEL
1070
     0
1002
}
1002
{
1000
BEHIND
1070
     0
1002
}
1002
{
1000
OTHER
1070
     0
1002
}
1002
{
1000
REACTOR
1002
}
  0
LINE
  5
1177
330
1F
100
AcDbEntity
  8
0
100
AcDbLine
 10
163.6000000522959
 20
-28.99999979493396
 30
0.0
 11
163.6000000522959
 21
-26.49999979493396
 31
0.0
  0
LINE
  5
1178
330
1F
100
AcDbEntity
  8
0
100
AcDbLine
 10
159.6000000522958
 20
2.50000020506607
 30
0.0
 11
159.6000000522958
 21
-43.49999979493392
 31
0.0
  0
LINE
  5
1179
330
1F
100
AcDbEntity
  8
0
100
AcDbLine
 10
163.6000000522959
 20
-43.4999997949336
 30
0.0
 11
159.6000000522958
 21
-43.49999979493392
 31
0.0
  0
LINE
  5
117A
330
1F
100
AcDbEntity
  8
0
100
AcDbLine
 10
163.6000000522959
 20
-36.99999979493393
 30
0.0
 11
163.6000000522959
 21
-34.49999979493379
 31
0.0
  0
LINE
  5
117B
330
1F
100
AcDbEntity
  8
0
100
AcDbLine
 10
163.6000000522959
 20
-40.99999979493392
 30
0.0
 11
163.6000000522959
 21
-38.49999979493376
 31
0.0
  0
LINE
  5
117C
330
1F
100
AcDbEntity
  8
0
100
AcDbLine
 10
165.1000000522958
 20
-40.99999979493392
 30
0.0
 11
163.6000000522959
 21
-40.99999979493392
 31
0.0
  0
LINE
  5
117D
330
1F
100
AcDbEntity
  8
0
100
AcDbLine
 10
165.1000000522958
 20
-38.49999979493376
 30
0.0
 11
163.6000000522959
 21
-38.49999979493376
 31
0.0
  0
LINE
  5
117E
330
1F
100
AcDbEntity
  8
0
100
AcDbLine
 10
165.1000000522958
 20
-36.99999979493393
 30
0.0
 11
163.6000000522959
 21
-36.99999979493393
 31
0.0
  0
LINE
  5
117F
330
1F
100
AcDbEntity
  8
0
100
AcDbLine
 10
165.1000000522958
 20
-36.99999979493393
 30
0.0
 11
165.1000000522958
 21
-38.49999979493376
 31
0.0
  0
LINE
  5
1180
330
1F
100
AcDbEntity
  8
0
100
AcDbLine
 10
165.1000000522958
 20
-48.49999979493379
 30
0.0
 11
165.1000000522958
 21
-40.99999979493392
 31
0.0
  0
LINE
  5
1181
330
1F
100
AcDbEntity
  8
0
100
AcDbLine
 10
165.1000000522958
 20
-34.49999979493379
 30
0.0
 11
163.6000000522959
 21
-34.49999979493379
 31
0.0
  0
LINE
  5
1182
330
1F
100
AcDbEntity
  8
0
100
AcDbLine
 10
165.1000000522958
 20
-32.99999979493393
 30
0.0
 11
163.6000000522959
 21
-32.99999979493393
 31
0.0
  0
LINE
  5
1183
330
1F
100
AcDbEntity
  8
0
100
AcDbLine
 10
165.1000000522958
 20
-28.99999979493396
 30
0.0
 11
165.1000000522958
 21
-30.49999979493377
 31
0.0
  0
LINE
  5
1184
330
1F
100
AcDbEntity
  8
0
100
AcDbLine
 10
165.1000000522958
 20
-30.49999979493377
 30
0.0
 11
163.6000000522959
 21
-30.49999979493377
 31
0.0
  0
LINE
  5
1185
330
1F
100
AcDbEntity
  8
0
100
AcDbLine
 10
165.1000000522958
 20
-28.99999979493396
 30
0.0
 11
163.6000000522959
 21
-28.99999979493396
 31
0.0
  0
LINE
  5
1186
330
1F
100
AcDbEntity
  8
0
100
AcDbLine
 10
163.6000000522959
 20
-32.99999979493393
 30
0.0
 11
163.6000000522959
 21
-30.49999979493377
 31
0.0
  0
LINE
  5
1187
330
1F
100
AcDbEntity
  8
0
100
AcDbLine
 10
165.1000000522958
 20
-32.99999979493393
 30
0.0
 11
165.1000000522958
 21
-34.49999979493379
 31
0.0
  0
LINE
  5
1188
330
1F
100
AcDbEntity
  8
0
100
AcDbLine
 10
163.6000000522959
 20
-20.99999979493393
 30
0.0
 11
163.6000000522959
 21
-18.49999979493394
 31
0.0
  0
LINE
  5
1189
330
1F
100
AcDbEntity
  8
0
100
AcDbLine
 10
165.1000000522958
 20
-26.49999979493396
 30
0.0
 11
163.6000000522959
 21
-26.49999979493396
 31
0.0
  0
LINE
  5
118A
330
1F
100
AcDbEntity
  8
0
100
AcDbLine
 10
165.1000000522958
 20
-24.99999979493396
 30
0.0
 11
163.6000000522959
 21
-24.99999979493396
 31
0.0
  0
LINE
  5
118B
330
1F
100
AcDbEntity
  8
0
100
AcDbLine
 10
165.1000000522958
 20
-24.99999979493396
 30
0.0
 11
165.1000000522958
 21
-26.49999979493396
 31
0.0
  0
LINE
  5
118C
330
1F
100
AcDbEntity
  8
0
100
AcDbLine
 10
165.1000000522958
 20
-22.49999979493393
 30
0.0
 11
163.6000000522959
 21
-22.49999979493393
 31
0.0
  0
LINE
  5
118D
330
1F
100
AcDbEntity
  8
0
100
AcDbLine
 10
165.1000000522958
 20
-20.99999979493393
 30
0.0
 11
163.6000000522959
 21
-20.99999979493393
 31
0.0
  0
LINE
  5
118E
330
1F
100
AcDbEntity
  8
0
100
AcDbLine
 10
165.1000000522958
 20
-20.99999979493393
 30
0.0
 11
165.1000000522958
 21
-22.49999979493393
 31
0.0
  0
LINE
  5
118F
330
1F
100
AcDbEntity
  8
0
100
AcDbLine
 10
163.6000000522959
 20
-24.99999979493396
 30
0.0
 11
163.6000000522959
 21
-22.49999979493393
 31
0.0
  0
LINE
  5
1190
330
1F
100
AcDbEntity
  8
0
100
AcDbLine
 10
165.1000000522958
 20
-18.49999979493394
 30
0.0
 11
163.6000000522959
 21
-18.49999979493394
 31
0.0
  0
LINE
  5
1191
330
1F
100
AcDbEntity
  8
0
100
AcDbLine
 10
165.1000000522958
 20
-16.99999979493394
 30
0.0
 11
163.6000000522959
 21
-16.99999979493394
 31
0.0
  0
LINE
  5
1192
330
1F
100
AcDbEntity
  8
0
100
AcDbLine
 10
165.1000000522958
 20
-16.99999979493394
 30
0.0
 11
165.1000000522958
 21
-18.49999979493394
 31
0.0
  0
LINE
  5
1193
330
1F
100
AcDbEntity
  8
0
100
AcDbLine
 10
165.1000000522958
 20
-14.49999979493395
 30
0.0
 11
163.6000000522959
 21
-14.49999979493395
 31
0.0
  0
LINE
  5
1194
330
1F
100
AcDbEntity
  8
0
100
AcDbLine
 10
165.1000000522958
 20
2.000000205066044
 30
0.0
 11
165.1000000522958
 21
-14.49999979493395
 31
0.0
  0
LINE
  5
1195
330
1F
100
AcDbEntity
  8
0
100
AcDbLine
 10
163.6000000522959
 20
-16.99999979493394
 30
0.0
 11
163.6000000522959
 21
-14.49999979493395
 31
0.0
  0
LINE
  5
1196
330
1F
100
AcDbEntity
  8
0
100
AcDbLine
 10
164.6000000522958
 20
2.50000020506607
 30
0.0
 11
159.6000000522958
 21
2.50000020506607
 31
0.0
  0
ARC
  5
1197
330
1F
100
AcDbEntity
  8
0
100
AcDbCircle
 10
164.6000000522958
 20
2.000000205065985
 30
0.0
 40
0.5
100
AcDbArc
 50
0.0
 51
90.0
1001
GENIUS_GENOBJ-N-FIL_13
1002
{
1000
OWNER
1000
GEN
1002
}
1001
GENIUS_GENODEF_13
1002
{
1000
HIER
1070
     0
1002
}
1002
{
1000
MANEDIT
1070
     0
1002
}
1002
{
1000
NOSEL
1070
     0
1002
}
1002
{
1000
BEHIND
1070
     0
1002
}
1002
{
1000
OTHER
1070
     0
1002
}
1002
{
1000
REACTOR
1002
}
  0
ARC
  5
1198
330
1F
100
AcDbEntity
  8
0
100
AcDbCircle
 10
163.6000000522958
 20
-48.49999979493384
 30
0.0
 40
1.5
100
AcDbArc
 50
270.0
 51
0.0
1001
GENIUS_GENODEF_13
1002
{
1000
HIER
1070
     0
1002
}
1002
{
1000
MANEDIT
1070
     0
1002
}
1002
{
1000
NOSEL
1070
     0
1002
}
1002
{
1000
BEHIND
1070
     0
1002
}
1002
{
1000
OTHER
1070
     0
1002
}
1002
{
1000
REACTOR
1002
}
1001
GENIUS_GENOBJ-N-FIL_13
1002
{
1000
OWNER
1000
GEN
1002
}
  0
LINE
  5
1199
330
1F
100
AcDbEntity
  8
0
100
AcDbLine
 10
163.600000052296
 20
-49.99999979493377
 30
0.0
 11
163.6000000522959
 21
-43.4999997949336
 31
0.0
  0
LINE
  5
119A
330
1F
100
AcDbEntity
  8
0
100
AcDbLine
 10
165.2000000522956
 20
-3.299999794933611
 30
0.0
 11
165.1000000522958
 21
-3.299999794933611
 31
0.0
  0
LINE
  5
119B
330
1F
100
AcDbEntity
  8
0
100
AcDbLine
 10
165.1000000522958
 20
-0.7999997949337825
 30
0.0
 11
165.2000000522956
 21
-0.9249997949336119
 31
0.0
  0
LINE
  5
119C
330
1F
100
AcDbEntity
  8
0
100
AcDbLine
 10
155.6000000522958
 20
-28.99999979493396
 30
0.0
 11
155.6000000522958
 21
-26.49999979493396
 31
0.0
  0
ARC
  5
119D
330
1F
100
AcDbEntity
  8
0
100
AcDbCircle
 10
155.6000000522958
 20
-41.99999979493367
 30
0.0
 40
1.5
100
AcDbArc
 50
180.0
 51
270.0
1001
GENIUS_GENODEF_13
1002
{
1000
HIER
1070
     0
1002
}
1002
{
1000
MANEDIT
1070
     0
1002
}
1002
{
1000
NOSEL
1070
     0
1002
}
1002
{
1000
BEHIND
1070
     0
1002
}
1002
{
1000
OTHER
1070
     0
1002
}
1002
{
1000
REACTOR
1002
}
1001
GENIUS_GENOBJ-N-FIL_13
1002
{
1000
OWNER
1000
GEN
1002
}
  0
LINE
  5
119E
330
1F
100
AcDbEntity
  8
0
100
AcDbLine
 10
155.6000000522958
 20
-43.49999979493392
 30
0.0
 11
159.6000000522958
 21
-43.49999979493392
 31
0.0
  0
LINE
  5
119F
330
1F
100
AcDbEntity
  8
0
100
AcDbLine
 10
155.6000000522958
 20
-36.99999979493393
 30
0.0
 11
155.6000000522958
 21
-34.49999979493393
 31
0.0
  0
LINE
  5
11A0
330
1F
100
AcDbEntity
  8
0
100
AcDbLine
 10
155.6000000522958
 20
-40.99999979493392
 30
0.0
 11
155.6000000522958
 21
-38.49999979493393
 31
0.0
  0
LINE
  5
11A1
330
1F
100
AcDbEntity
  8
0
100
AcDbLine
 10
154.1000000522958
 20
-40.99999979493392
 30
0.0
 11
155.6000000522958
 21
-40.99999979493392
 31
0.0
  0
LINE
  5
11A2
330
1F
100
AcDbEntity
  8
0
100
AcDbLine
 10
154.1000000522958
 20
-38.49999979493393
 30
0.0
 11
155.6000000522958
 21
-38.49999979493393
 31
0.0
  0
LINE
  5
11A3
330
1F
100
AcDbEntity
  8
0
100
AcDbLine
 10
154.1000000522958
 20
-36.99999979493393
 30
0.0
 11
155.6000000522958
 21
-36.99999979493393
 31
0.0
  0
LINE
  5
11A4
330
1F
100
AcDbEntity
  8
0
100
AcDbLine
 10
154.1000000522958
 20
-36.99999979493393
 30
0.0
 11
154.1000000522958
 21
-38.49999979493393
 31
0.0
  0
LINE
  5
11A5
330
1F
100
AcDbEntity
  8
0
100
AcDbLine
 10
154.1000000522958
 20
-41.99999979493393
 30
0.0
 11
154.1000000522958
 21
-40.99999979493392
 31
0.0
  0
LINE
  5
11A6
330
1F
100
AcDbEntity
  8
0
100
AcDbLine
 10
154.1000000522958
 20
-34.49999979493393
 30
0.0
 11
155.6000000522958
 21
-34.49999979493393
 31
0.0
  0
LINE
  5
11A7
330
1F
100
AcDbEntity
  8
0
100
AcDbLine
 10
154.1000000522958
 20
-32.99999979493393
 30
0.0
 11
155.6000000522958
 21
-32.99999979493393
 31
0.0
  0
LINE
  5
11A8
330
1F
100
AcDbEntity
  8
0
100
AcDbLine
 10
154.1000000522958
 20
-28.99999979493396
 30
0.0
 11
154.1000000522958
 21
-30.49999979493396
 31
0.0
  0
LINE
  5
11A9
330
1F
100
AcDbEntity
  8
0
100
AcDbLine
 10
154.1000000522958
 20
-30.49999979493396
 30
0.0
 11
155.6000000522958
 21
-30.49999979493396
 31
0.0
  0
LINE
  5
11AA
330
1F
100
AcDbEntity
  8
0
100
AcDbLine
 10
154.1000000522958
 20
-28.99999979493396
 30
0.0
 11
155.6000000522958
 21
-28.99999979493396
 31
0.0
  0
LINE
  5
11AB
330
1F
100
AcDbEntity
  8
0
100
AcDbLine
 10
155.6000000522958
 20
-32.99999979493393
 30
0.0
 11
155.6000000522958
 21
-30.49999979493396
 31
0.0
  0
LINE
  5
11AC
330
1F
100
AcDbEntity
  8
0
100
AcDbLine
 10
154.1000000522958
 20
-32.99999979493393
 30
0.0
 11
154.1000000522958
 21
-34.49999979493393
 31
0.0
  0
LINE
  5
11AD
330
1F
100
AcDbEntity
  8
0
100
AcDbLine
 10
157.1000000522958
 20
-12.99999979493395
 30
0.0
 11
157.1000000522958
 21
-10.49999979493395
 31
0.0
  0
LINE
  5
11AE
330
1F
100
AcDbEntity
  8
0
100
AcDbLine
 10
155.6000000522958
 20
-20.99999979493393
 30
0.0
 11
155.6000000522958
 21
-18.49999979493394
 31
0.0
  0
LINE
  5
11AF
330
1F
100
AcDbEntity
  8
0
100
AcDbLine
 10
154.1000000522958
 20
-26.49999979493396
 30
0.0
 11
155.6000000522958
 21
-26.49999979493396
 31
0.0
  0
LINE
  5
11B0
330
1F
100
AcDbEntity
  8
0
100
AcDbLine
 10
154.1000000522958
 20
-24.99999979493396
 30
0.0
 11
155.6000000522958
 21
-24.99999979493396
 31
0.0
  0
LINE
  5
11B1
330
1F
100
AcDbEntity
  8
0
100
AcDbLine
 10
154.1000000522958
 20
-24.99999979493396
 30
0.0
 11
154.1000000522958
 21
-26.49999979493396
 31
0.0
  0
LINE
  5
11B2
330
1F
100
AcDbEntity
  8
0
100
AcDbLine
 10
154.1000000522958
 20
-22.49999979493393
 30
0.0
 11
155.6000000522958
 21
-22.49999979493393
 31
0.0
  0
LINE
  5
11B3
330
1F
100
AcDbEntity
  8
0
100
AcDbLine
 10
154.1000000522958
 20
-20.99999979493393
 30
0.0
 11
155.6000000522958
 21
-20.99999979493393
 31
0.0
  0
LINE
  5
11B4
330
1F
100
AcDbEntity
  8
0
100
AcDbLine
 10
154.1000000522958
 20
-20.99999979493393
 30
0.0
 11
154.1000000522958
 21
-22.49999979493393
 31
0.0
  0
LINE
  5
11B5
330
1F
100
AcDbEntity
  8
0
100
AcDbLine
 10
155.6000000522958
 20
-24.99999979493396
 30
0.0
 11
155.6000000522958
 21
-22.49999979493393
 31
0.0
  0
LINE
  5
11B6
330
1F
100
AcDbEntity
  8
0
100
AcDbLine
 10
154.1000000522958
 20
-18.49999979493394
 30
0.0
 11
155.6000000522958
 21
-18.49999979493394
 31
0.0
  0
LINE
  5
11B7
330
1F
100
AcDbEntity
  8
0
100
AcDbLine
 10
154.1000000522958
 20
-16.99999979493394
 30
0.0
 11
155.6000000522958
 21
-16.99999979493394
 31
0.0
  0
LINE
  5
11B8
330
1F
100
AcDbEntity
  8
0
100
AcDbLine
 10
154.1000000522958
 20
-16.99999979493394
 30
0.0
 11
154.1000000522958
 21
-18.49999979493394
 31
0.0
  0
LINE
  5
11B9
330
1F
100
AcDbEntity
  8
0
100
AcDbLine
 10
154.1000000522958
 20
-14.49999979493395
 30
0.0
 11
155.6000000522958
 21
-14.49999979493395
 31
0.0
  0
LINE
  5
11BA
330
1F
100
AcDbEntity
  8
0
100
AcDbLine
 10
154.1000000522958
 20
-12.99999979493395
 30
0.0
 11
157.1000000522958
 21
-12.99999979493395
 31
0.0
  0
LINE
  5
11BB
330
1F
100
AcDbEntity
  8
0
100
AcDbLine
 10
154.1000000522958
 20
-12.99999979493395
 30
0.0
 11
154.1000000522958
 21
-14.49999979493395
 31
0.0
  0
LINE
  5
11BC
330
1F
100
AcDbEntity
  8
0
100
AcDbLine
 10
155.6000000522958
 20
-16.99999979493394
 30
0.0
 11
155.6000000522958
 21
-14.49999979493395
 31
0.0
  0
LINE
  5
11BD
330
1F
100
AcDbEntity
  8
0
100
AcDbLine
 10
154.6000000522958
 20
2.50000020506607
 30
0.0
 11
159.6000000522958
 21
2.50000020506607
 31
0.0
  0
LINE
  5
11BE
330
1F
100
AcDbEntity
  8
0
100
AcDbLine
 10
154.1000000522958
 20
2.000000205066044
 30
0.0
 11
154.1000000522958
 21
-10.49999979493395
 31
0.0
  0
LINE
  5
11BF
330
1F
100
AcDbEntity
  8
0
100
AcDbLine
 10
154.1000000522958
 20
-10.49999979493395
 30
0.0
 11
157.1000000522958
 21
-10.49999979493395
 31
0.0
  0
ARC
  5
11C0
330
1F
100
AcDbEntity
  8
0
100
AcDbCircle
 10
154.6000000522958
 20
2.000000205065985
 30
0.0
 40
0.5
100
AcDbArc
 50
90.0
 51
180.0
1001
GENIUS_GENOBJ-N-FIL_13
1002
{
1000
OWNER
1000
GEN
1002
}
1001
GENIUS_GENODEF_13
1002
{
1000
HIER
1070
     0
1002
}
1002
{
1000
MANEDIT
1070
     0
1002
}
1002
{
1000
NOSEL
1070
     0
1002
}
1002
{
1000
BEHIND
1070
     0
1002
}
1002
{
1000
OTHER
1070
     0
1002
}
1002
{
1000
REACTOR
1002
}
  0
LINE
  5
11C1
330
1F
100
AcDbEntity
  8
0
100
AcDbLine
 10
159.6000000522958
 20
-10.49999979493375
 30
0.0
 11
159.6000000522958
 21
-33.99999979493376
 31
0.0
  0
LINE
  5
11C2
330
1F
100
AcDbEntity
  8
0
100
AcDbLine
 10
159.1000000522958
 20
-7.499999794933955
 30
0.0
 11
159.6000000522958
 21
-7.499999794933955
 31
0.0
  0
LINE
  5
11C3
330
1F
100
AcDbEntity
  8
0
100
AcDbLine
 10
159.1000000522958
 20
-10.49999979493395
 30
0.0
 11
159.6000000522958
 21
-10.49999979493395
 31
0.0
  0
LINE
  5
11C4
330
1F
100
AcDbEntity
  8
0
100
AcDbLine
 10
159.1000000522958
 20
-7.499999794933955
 30
0.0
 11
159.1000000522958
 21
-10.49999979493395
 31
0.0
  0
LINE
  5
11C5
330
1F
100
AcDbEntity
  8
0
100
AcDbLine
 10
159.1000000522958
 20
-36.99999979493393
 30
0.0
 11
159.6000000522958
 21
-36.99999979493393
 31
0.0
  0
LINE
  5
11C6
330
1F
100
AcDbEntity
  8
0
100
AcDbLine
 10
159.1000000522958
 20
-33.99999979493376
 30
0.0
 11
159.6000000522958
 21
-33.99999979493376
 31
0.0
  0
LINE
  5
11C7
330
1F
100
AcDbEntity
  8
0
100
AcDbLine
 10
159.1000000522958
 20
-33.99999979493376
 30
0.0
 11
159.1000000522958
 21
-36.99999979493393
 31
0.0
  0
LINE
  5
11C8
330
1F
100
AcDbEntity
  8
0
100
AcDbLine
 10
321.7000000522958
 20
-20.99999979493377
 30
0.0
 11
321.7000000522958
 21
-18.49999979493375
 31
0.0
  0
LINE
  5
11C9
330
1F
100
AcDbEntity
  8
0
100
AcDbLine
 10
307.1000000522958
 20
-20.99999979493377
 30
0.0
 11
307.1000000522958
 21
-18.49999979493375
 31
0.0
  0
LINE
  5
11CA
330
1F
100
AcDbEntity
  8
0
100
AcDbLine
 10
305.6000000522958
 20
5.500000205066243
 30
0.0
 11
305.6000000522958
 21
-41.19999979493392
 31
0.0
  0
LINE
  5
11CB
330
1F
100
AcDbEntity
  8
0
100
AcDbLine
 10
323.2000000522958
 20
5.500000205066243
 30
0.0
 11
323.2000000522958
 21
-41.19999979493392
 31
0.0
  0
LINE
  5
11CC
330
1F
100
AcDbEntity
  8
0
100
AcDbLine
 10
305.6000000522958
 20
-14.49999979493376
 30
0.0
 11
323.2000000522958
 21
-14.49999979493376
 31
0.0
  0
LINE
  5
11CD
330
1F
100
AcDbEntity
  8
0
100
AcDbLine
 10
305.6000000522958
 20
-16.99999979493376
 30
0.0
 11
323.2000000522958
 21
-16.99999979493376
 31
0.0
  0
LINE
  5
11CE
330
1F
100
AcDbEntity
  8
0
100
AcDbLine
 10
305.6000000522958
 20
-18.49999979493375
 30
0.0
 11
323.2000000522958
 21
-18.49999979493375
 31
0.0
  0
LINE
  5
11CF
330
1F
100
AcDbEntity
  8
0
100
AcDbLine
 10
310.1000000522958
 20
-0.7999997949337825
 30
0.0
 11
310.1000000522958
 21
-3.299999794933781
 31
0.0
1001
GENIUS_GENOBJ-N-CEN_13
1002
{
1000
OWNER
1000
GEN
1002
}
1001
GENIUS_GENODEF_13
1002
{
1000
HIER
1070
     0
1002
}
1002
{
1000
MANEDIT
1070
     0
1002
}
1002
{
1000
NOSEL
1070
     0
1002
}
1002
{
1000
BEHIND
1070
     0
1002
}
1002
{
1000
OTHER
1070
     0
1002
}
1002
{
1000
REACTOR
1002
}
  0
LINE
  5
11D0
330
1F
100
AcDbEntity
  8
0
100
AcDbLine
 10
312.7000000522958
 20
-0.7999997949337825
 30
0.0
 11
312.7000000522958
 21
-3.299999794933781
 31
0.0
1001
GENIUS_GENOBJ-N-CEN_13
1002
{
1000
OWNER
1000
GEN
1002
}
1001
GENIUS_GENODEF_13
1002
{
1000
HIER
1070
     0
1002
}
1002
{
1000
MANEDIT
1070
     0
1002
}
1002
{
1000
NOSEL
1070
     0
1002
}
1002
{
1000
BEHIND
1070
     0
1002
}
1002
{
1000
OTHER
1070
     0
1002
}
1002
{
1000
REACTOR
1002
}
  0
LINE
  5
11D1
330
1F
100
AcDbEntity
  8
0
100
AcDbLine
 10
310.1000000522958
 20
-0.7999997949337825
 30
0.0
 11
312.7000000522958
 21
-0.7999997949337825
 31
0.0
  0
LINE
  5
11D2
330
1F
100
AcDbEntity
  8
0
100
AcDbLine
 10
310.1000000522958
 20
-1.799999794933953
 30
0.0
 11
312.7000000522958
 21
-1.79999979493378
 31
0.0
  0
LINE
  5
11D3
330
1F
100
AcDbEntity
  8
0
100
AcDbLine
 10
310.1000000522958
 20
-3.299999794933781
 30
0.0
 11
312.7000000522958
 21
-3.299999794933781
 31
0.0
  0
LINE
  5
11D4
330
1F
100
AcDbEntity
  8
0
100
AcDbLine
 10
307.1000000522958
 20
-16.99999979493376
 30
0.0
 11
307.1000000522958
 21
-14.49999979493376
 31
0.0
  0
LINE
  5
11D5
330
1F
100
AcDbEntity
  8
0
100
AcDbLine
 10
318.7000000522961
 20
-0.7999997949337825
 30
0.0
 11
318.7000000522961
 21
-3.299999794933781
 31
0.0
1001
GENIUS_GENOBJ-N-CEN_13
1002
{
1000
OWNER
1000
GEN
1002
}
1001
GENIUS_GENODEF_13
1002
{
1000
HIER
1070
     0
1002
}
1002
{
1000
MANEDIT
1070
     0
1002
}
1002
{
1000
NOSEL
1070
     0
1002
}
1002
{
1000
BEHIND
1070
     0
1002
}
1002
{
1000
OTHER
1070
     0
1002
}
1002
{
1000
REACTOR
1002
}
  0
LINE
  5
11D6
330
1F
100
AcDbEntity
  8
0
100
AcDbLine
 10
316.1000000522958
 20
-0.7999997949337825
 30
0.0
 11
316.1000000522958
 21
-3.299999794933781
 31
0.0
1001
GENIUS_GENOBJ-N-CEN_13
1002
{
1000
OWNER
1000
GEN
1002
}
1001
GENIUS_GENODEF_13
1002
{
1000
HIER
1070
     0
1002
}
1002
{
1000
MANEDIT
1070
     0
1002
}
1002
{
1000
NOSEL
1070
     0
1002
}
1002
{
1000
BEHIND
1070
     0
1002
}
1002
{
1000
OTHER
1070
     0
1002
}
1002
{
1000
REACTOR
1002
}
  0
LINE
  5
11D7
330
1F
100
AcDbEntity
  8
0
100
AcDbLine
 10
318.7000000522961
 20
-0.7999997949337825
 30
0.0
 11
316.1000000522958
 21
-0.7999997949337825
 31
0.0
  0
LINE
  5
11D8
330
1F
100
AcDbEntity
  8
0
100
AcDbLine
 10
318.7000000522961
 20
-1.799999794933953
 30
0.0
 11
316.1000000522958
 21
-1.79999979493378
 31
0.0
  0
LINE
  5
11D9
330
1F
100
AcDbEntity
  8
0
100
AcDbLine
 10
318.7000000522961
 20
-3.299999794933781
 30
0.0
 11
316.1000000522958
 21
-3.299999794933781
 31
0.0
  0
LINE
  5
11DA
330
1F
100
AcDbEntity
  8
0
100
AcDbLine
 10
321.7000000522958
 20
-16.99999979493376
 30
0.0
 11
321.7000000522958
 21
-14.49999979493376
 31
0.0
  0
ARC
  5
11DB
330
1F
100
AcDbEntity
  8
0
100
AcDbCircle
 10
314.4000000522958
 20
-41.19999979493393
 30
0.0
 40
8.799999999999991
100
AcDbArc
 50
180.0
 51
0.0
  0
LINE
  5
11DC
330
1F
100
AcDbEntity
  8
0
100
AcDbLine
 10
323.2000000522958
 20
-40.99999979493374
 30
0.0
 11
305.6000000522958
 21
-40.99999979493374
 31
0.0
  0
LINE
  5
11DD
330
1F
100
AcDbEntity
  8
0
100
AcDbLine
 10
305.6000000522958
 20
-22.49999979493376
 30
0.0
 11
323.2000000522958
 21
-22.49999979493376
 31
0.0
  0
LINE
  5
11DE
330
1F
100
AcDbEntity
  8
0
100
AcDbLine
 10
305.6000000522958
 20
-20.99999979493377
 30
0.0
 11
323.2000000522958
 21
-20.99999979493377
 31
0.0
  0
LINE
  5
11DF
330
1F
100
AcDbEntity
  8
0
100
AcDbLine
 10
305.6000000522958
 20
-24.99999979493376
 30
0.0
 11
323.2000000522958
 21
-24.99999979493376
 31
0.0
  0
LINE
  5
11E0
330
1F
100
AcDbEntity
  8
0
100
AcDbLine
 10
305.6000000522958
 20
-26.49999979493379
 30
0.0
 11
323.2000000522958
 21
-26.49999979493379
 31
0.0
  0
LINE
  5
11E1
330
1F
100
AcDbEntity
  8
0
100
AcDbLine
 10
305.6000000522958
 20
-30.49999979493377
 30
0.0
 11
323.2000000522958
 21
-30.49999979493377
 31
0.0
  0
LINE
  5
11E2
330
1F
100
AcDbEntity
  8
0
100
AcDbLine
 10
305.6000000522958
 20
-28.99999979493376
 30
0.0
 11
323.2000000522958
 21
-28.99999979493376
 31
0.0
  0
LINE
  5
11E3
330
1F
100
AcDbEntity
  8
0
100
AcDbLine
 10
305.6000000522958
 20
-32.99999979493377
 30
0.0
 11
323.2000000522958
 21
-32.99999979493377
 31
0.0
  0
LINE
  5
11E4
330
1F
100
AcDbEntity
  8
0
100
AcDbLine
 10
305.6000000522958
 20
-34.49999979493377
 30
0.0
 11
323.2000000522958
 21
-34.49999979493377
 31
0.0
  0
LINE
  5
11E5
330
1F
100
AcDbEntity
  8
0
100
AcDbLine
 10
305.6000000522958
 20
-36.99999979493376
 30
0.0
 11
323.2000000522958
 21
-36.99999979493376
 31
0.0
  0
LINE
  5
11E6
330
1F
100
AcDbEntity
  8
0
100
AcDbLine
 10
305.6000000522958
 20
-38.49999979493376
 30
0.0
 11
323.2000000522958
 21
-38.49999979493376
 31
0.0
  0
LINE
  5
11E7
330
1F
100
AcDbEntity
  8
0
100
AcDbLine
 10
307.1000000522959
 20
-32.99999979493377
 30
0.0
 11
307.1000000522959
 21
-30.49999979493377
 31
0.0
  0
LINE
  5
11E8
330
1F
100
AcDbEntity
  8
0
100
AcDbLine
 10
307.1000000522959
 20
-24.99999979493376
 30
0.0
 11
307.1000000522958
 21
-22.49999979493376
 31
0.0
  0
LINE
  5
11E9
330
1F
100
AcDbEntity
  8
0
100
AcDbLine
 10
307.1000000522959
 20
-28.99999979493376
 30
0.0
 11
307.1000000522959
 21
-26.49999979493379
 31
0.0
  0
LINE
  5
11EA
330
1F
100
AcDbEntity
  8
0
100
AcDbLine
 10
307.1000000522959
 20
-36.99999979493376
 30
0.0
 11
307.1000000522959
 21
-34.49999979493377
 31
0.0
  0
LINE
  5
11EB
330
1F
100
AcDbEntity
  8
0
100
AcDbLine
 10
307.1000000522958
 20
-40.99999979493374
 30
0.0
 11
307.1000000522959
 21
-38.49999979493376
 31
0.0
  0
LINE
  5
11EC
330
1F
100
AcDbEntity
  8
0
100
AcDbLine
 10
321.7000000522958
 20
-32.99999979493377
 30
0.0
 11
321.7000000522958
 21
-30.49999979493377
 31
0.0
  0
LINE
  5
11ED
330
1F
100
AcDbEntity
  8
0
100
AcDbLine
 10
321.7000000522958
 20
-24.99999979493376
 30
0.0
 11
321.7000000522958
 21
-22.49999979493376
 31
0.0
  0
LINE
  5
11EE
330
1F
100
AcDbEntity
  8
0
100
AcDbLine
 10
321.7000000522958
 20
-28.99999979493376
 30
0.0
 11
321.7000000522958
 21
-26.49999979493379
 31
0.0
  0
LINE
  5
11EF
330
1F
100
AcDbEntity
  8
0
100
AcDbLine
 10
321.7000000522958
 20
-36.99999979493376
 30
0.0
 11
321.7000000522958
 21
-34.49999979493377
 31
0.0
  0
LINE
  5
11F0
330
1F
100
AcDbEntity
  8
0
100
AcDbLine
 10
321.7000000522958
 20
-40.99999979493374
 30
0.0
 11
321.7000000522958
 21
-38.49999979493376
 31
0.0
  0
CIRCLE
  5
11F1
330
1F
100
AcDbEntity
  8
0
100
AcDbCircle
 10
314.4000000522958
 20
-45.99999979493378
 30
0.0
 40
2.0
  0
LINE
  5
11F2
330
1F
100
AcDbEntity
  8
0
100
AcDbLine
 10
321.8500000522958
 20
8.500000205066227
 30
0.0
 11
321.8500000522958
 21
6.500000205066227
 31
0.0
1001
GENIUS_GENODEF_13
1002
{
1000
HIER
1070
     0
1002
}
1002
{
1000
MANEDIT
1070
     0
1002
}
1002
{
1000
NOSEL
1070
     0
1002
}
1002
{
1000
BEHIND
1070
     0
1002
}
1002
{
1000
OTHER
1070
     0
1002
}
1002
{
1000
REACTOR
1002
}
1001
GENIUS_GENOBJ-N-CEN_13
1002
{
1000
OWNER
1000
GEN
1002
}
  0
LINE
  5
11F3
330
1F
100
AcDbEntity
  8
0
100
AcDbLine
 10
306.950000052296
 20
8.500000205066227
 30
0.0
 11
306.950000052296
 21
6.500000205066227
 31
0.0
1001
GENIUS_GENODEF_13
1002
{
1000
HIER
1070
     0
1002
}
1002
{
1000
MANEDIT
1070
     0
1002
}
1002
{
1000
NOSEL
1070
     0
1002
}
1002
{
1000
BEHIND
1070
     0
1002
}
1002
{
1000
OTHER
1070
     0
1002
}
1002
{
1000
REACTOR
1002
}
1001
GENIUS_GENOBJ-N-CEN_13
1002
{
1000
OWNER
1000
GEN
1002
}
  0
LINE
  5
11F4
330
1F
100
AcDbEntity
  8
0
100
AcDbLine
 10
321.3500000522958
 20
9.000000205066227
 30
0.0
 11
307.4500000522958
 21
9.000000205066227
 31
0.0
  0
ARC
  5
11F5
330
1F
100
AcDbEntity
  8
0
100
AcDbCircle
 10
307.4500000522958
 20
8.500000205066212
 30
0.0
 40
0.5
100
AcDbArc
 50
90.0
 51
180.0
1001
GENIUS_GENOBJ-N-FIL_13
1002
{
1000
OWNER
1000
GEN
1002
}
1001
GENIUS_GENODEF_13
1002
{
1000
HIER
1070
     0
1002
}
1002
{
1000
MANEDIT
1070
     0
1002
}
1002
{
1000
NOSEL
1070
     0
1002
}
1002
{
1000
BEHIND
1070
     0
1002
}
1002
{
1000
OTHER
1070
     0
1002
}
1002
{
1000
REACTOR
1002
}
  0
ARC
  5
11F6
330
1F
100
AcDbEntity
  8
0
100
AcDbCircle
 10
321.3500000522958
 20
8.500000205066212
 30
0.0
 40
0.5
100
AcDbArc
 50
0.0
 51
90.0
1001
GENIUS_GENOBJ-N-CEN_13
1002
{
1000
OWNER
1000
GEN
1002
}
1001
GENIUS_GENOBJ-N-FIL_13
1002
{
1000
OWNER
1000
GEN
1002
}
1001
GENIUS_GENODEF_13
1002
{
1000
HIER
1070
     0
1002
}
1002
{
1000
MANEDIT
1070
     0
1002
}
1002
{
1000
NOSEL
1070
     0
1002
}
1002
{
1000
BEHIND
1070
     0
1002
}
1002
{
1000
OTHER
1070
     0
1002
}
1002
{
1000
REACTOR
1002
}
  0
LINE
  5
11F7
330
1F
100
AcDbEntity
  8
0
100
AcDbLine
 10
318.9000000522958
 20
-3.499999794933771
 30
0.0
 11
315.9000000522961
 21
-3.499999794933771
 31
0.0
  0
LINE
  5
11F8
330
1F
100
AcDbEntity
  8
0
100
AcDbLine
 10
319.9000000522961
 20
-0.5999997949337798
 30
0.0
 11
308.9000000522958
 21
-0.5999997949337798
 31
0.0
  0
LINE
  5
11F9
330
1F
100
AcDbEntity
  8
0
100
AcDbLine
 10
319.9000000522961
 20
5.400000205066218
 30
0.0
 11
308.9000000522958
 21
5.400000205066218
 31
0.0
  0
LINE
  5
11FA
330
1F
100
AcDbEntity
  8
0
100
AcDbLine
 10
322.2000000522962
 20
6.500000205066227
 30
0.0
 11
306.6000000522958
 21
6.500000205066227
 31
0.0
  0
LINE
  5
11FB
330
1F
100
AcDbEntity
  8
0
100
AcDbLine
 10
322.2000000522962
 20
-6.499999794933771
 30
0.0
 11
306.6000000522958
 21
-6.499999794933771
 31
0.0
  0
LINE
  5
11FC
330
1F
100
AcDbEntity
  8
0
100
AcDbLine
 10
309.9000000522957
 20
-0.5999997949337798
 30
0.0
 11
309.9000000522957
 21
-3.499999794933771
 31
0.0
1001
GENIUS_GENODEF_13
1002
{
1000
HIER
1070
     0
1002
}
1002
{
1000
MANEDIT
1070
     0
1002
}
1002
{
1000
NOSEL
1070
     0
1002
}
1002
{
1000
BEHIND
1070
     0
1002
}
1002
{
1000
OTHER
1070
     0
1002
}
1002
{
1000
REACTOR
1002
}
1001
GENIUS_GENOBJ-N-CEN_13
1002
{
1000
OWNER
1000
GEN
1002
}
  0
LINE
  5
11FD
330
1F
100
AcDbEntity
  8
0
100
AcDbLine
 10
312.9000000522958
 20
-0.5999997949337798
 30
0.0
 11
312.9000000522958
 21
-3.499999794933771
 31
0.0
1001
GENIUS_GENODEF_13
1002
{
1000
HIER
1070
     0
1002
}
1002
{
1000
MANEDIT
1070
     0
1002
}
1002
{
1000
NOSEL
1070
     0
1002
}
1002
{
1000
BEHIND
1070
     0
1002
}
1002
{
1000
OTHER
1070
     0
1002
}
1002
{
1000
REACTOR
1002
}
1001
GENIUS_GENOBJ-N-CEN_13
1002
{
1000
OWNER
1000
GEN
1002
}
  0
LINE
  5
11FE
330
1F
100
AcDbEntity
  8
0
100
AcDbLine
 10
315.9000000522961
 20
-0.5999997949337798
 30
0.0
 11
315.9000000522961
 21
-3.499999794933771
 31
0.0
1001
GENIUS_GENODEF_13
1002
{
1000
HIER
1070
     0
1002
}
1002
{
1000
MANEDIT
1070
     0
1002
}
1002
{
1000
NOSEL
1070
     0
1002
}
1002
{
1000
BEHIND
1070
     0
1002
}
1002
{
1000
OTHER
1070
     0
1002
}
1002
{
1000
REACTOR
1002
}
1001
GENIUS_GENOBJ-N-CEN_13
1002
{
1000
OWNER
1000
GEN
1002
}
  0
ARC
  5
11FF
330
1F
100
AcDbEntity
  8
0
100
AcDbCircle
 10
306.6000000522958
 20
5.500000205066212
 30
0.0
 40
1.0
100
AcDbArc
 50
90.0
 51
180.0
1001
GENIUS_GENODEF_13
1002
{
1000
HIER
1070
     0
1002
}
1002
{
1000
MANEDIT
1070
     0
1002
}
1002
{
1000
NOSEL
1070
     0
1002
}
1002
{
1000
BEHIND
1070
     0
1002
}
1002
{
1000
OTHER
1070
     0
1002
}
1002
{
1000
REACTOR
1002
}
1001
GENIUS_GENOBJ-N-FIL_13
1002
{
1000
OWNER
1000
GEN
1002
}
  0
LINE
  5
1200
330
1F
100
AcDbEntity
  8
0
100
AcDbLine
 10
308.9000000522958
 20
5.400000205066218
 30
0.0
 11
308.9000000522958
 21
-0.5999997949337798
 31
0.0
1001
GENIUS_GENODEF_13
1002
{
1000
HIER
1070
     0
1002
}
1002
{
1000
MANEDIT
1070
     0
1002
}
1002
{
1000
NOSEL
1070
     0
1002
}
1002
{
1000
BEHIND
1070
     0
1002
}
1002
{
1000
OTHER
1070
     0
1002
}
1002
{
1000
REACTOR
1002
}
1001
GENIUS_GENOBJ-N-CEN_13
1002
{
1000
OWNER
1000
GEN
1002
}
  0
ARC
  5
1201
330
1F
100
AcDbEntity
  8
0
100
AcDbCircle
 10
306.6000000522958
 20
-5.499999794933798
 30
0.0
 40
1.0
100
AcDbArc
 50
180.0
 51
270.0
1001
GENIUS_GENODEF_13
1002
{
1000
HIER
1070
     0
1002
}
1002
{
1000
MANEDIT
1070
     0
1002
}
1002
{
1000
NOSEL
1070
     0
1002
}
1002
{
1000
BEHIND
1070
     0
1002
}
1002
{
1000
OTHER
1070
     0
1002
}
1002
{
1000
REACTOR
1002
}
1001
GENIUS_GENOBJ-N-FIL_13
1002
{
1000
OWNER
1000
GEN
1002
}
  0
LINE
  5
1202
330
1F
100
AcDbEntity
  8
0
100
AcDbLine
 10
312.9000000522958
 20
-3.499999794933771
 30
0.0
 11
309.9000000522957
 21
-3.499999794933771
 31
0.0
  0
LINE
  5
1203
330
1F
100
AcDbEntity
  8
0
100
AcDbLine
 10
318.9000000522958
 20
-0.5999997949337798
 30
0.0
 11
318.9000000522958
 21
-3.499999794933771
 31
0.0
1001
GENIUS_GENODEF_13
1002
{
1000
HIER
1070
     0
1002
}
1002
{
1000
MANEDIT
1070
     0
1002
}
1002
{
1000
NOSEL
1070
     0
1002
}
1002
{
1000
BEHIND
1070
     0
1002
}
1002
{
1000
OTHER
1070
     0
1002
}
1002
{
1000
REACTOR
1002
}
1001
GENIUS_GENOBJ-N-CEN_13
1002
{
1000
OWNER
1000
GEN
1002
}
  0
LINE
  5
1204
330
1F
100
AcDbEntity
  8
0
100
AcDbLine
 10
319.9000000522961
 20
5.400000205066218
 30
0.0
 11
319.9000000522961
 21
-0.5999997949337798
 31
0.0
1001
GENIUS_GENODEF_13
1002
{
1000
HIER
1070
     0
1002
}
1002
{
1000
MANEDIT
1070
     0
1002
}
1002
{
1000
NOSEL
1070
     0
1002
}
1002
{
1000
BEHIND
1070
     0
1002
}
1002
{
1000
OTHER
1070
     0
1002
}
1002
{
1000
REACTOR
1002
}
1001
GENIUS_GENOBJ-N-CEN_13
1002
{
1000
OWNER
1000
GEN
1002
}
  0
ARC
  5
1205
330
1F
100
AcDbEntity
  8
0
100
AcDbCircle
 10
322.2000000522962
 20
5.500000205066212
 30
0.0
 40
1.0
100
AcDbArc
 50
0.0
 51
90.0
1001
GENIUS_GENOBJ-N-FIL_13
1002
{
1000
OWNER
1000
GEN
1002
}
1001
GENIUS_GENODEF_13
1002
{
1000
HIER
1070
     0
1002
}
1002
{
1000
MANEDIT
1070
     0
1002
}
1002
{
1000
NOSEL
1070
     0
1002
}
1002
{
1000
BEHIND
1070
     0
1002
}
1002
{
1000
OTHER
1070
     0
1002
}
1002
{
1000
REACTOR
1002
}
  0
ARC
  5
1206
330
1F
100
AcDbEntity
  8
0
100
AcDbCircle
 10
322.2000000522962
 20
-5.499999794933798
 30
0.0
 40
1.0
100
AcDbArc
 50
270.0
 51
0.0
1001
GENIUS_GENOBJ-N-FIL_13
1002
{
1000
OWNER
1000
GEN
1002
}
1001
GENIUS_GENODEF_13
1002
{
1000
HIER
1070
     0
1002
}
1002
{
1000
MANEDIT
1070
     0
1002
}
1002
{
1000
NOSEL
1070
     0
1002
}
1002
{
1000
BEHIND
1070
     0
1002
}
1002
{
1000
OTHER
1070
     0
1002
}
1002
{
1000
REACTOR
1002
}
  0
LINE
  5
1207
330
1F
100
AcDbEntity
  8
0
100
AcDbLine
 10
320.8500000522958
 20
15.48054020132254
 30
0.0
 11
320.8500000522958
 21
9.000000205066227
 31
0.0
  0
LINE
  5
1208
330
1F
100
AcDbEntity
  8
0
100
AcDbLine
 10
307.9500000522962
 20
15.48054020132248
 30
0.0
 11
307.9500000522962
 21
9.000000205066227
 31
0.0
  0
LINE
  5
1209
330
1F
100
AcDbEntity
  8
0
100
AcDbLine
 10
318.351478962234
 20
26.30000020506621
 30
0.0
 11
310.4485211423579
 21
26.30000020506621
 31
0.0
  0
LINE
  5
120A
330
1F
100
AcDbEntity
  8
0
100
AcDbLine
 10
309.4618618514898
 20
25.4627989880594
 30
0.0
 11
308.0834071436171
 21
17.10852803125455
 31
0.0
  0
LINE
  5
120B
330
1F
100
AcDbEntity
  8
0
100
AcDbLine
 10
319.3381382531021
 20
25.4627989880594
 30
0.0
 11
320.716592960975
 21
17.10852803125472
 31
0.0
  0
ARC
  5
120C
330
1F
100
AcDbEntity
  8
0
100
AcDbCircle
 10
310.8500000522959
 20
15.48054020132251
 30
0.0
 40
10.0
100
AcDbArc
 50
0.0
 51
9.369385096487079
1001
GENIUS_GENODEF_13
1002
{
1000
HIER
1070
     0
1002
}
1002
{
1000
MANEDIT
1070
     0
1002
}
1002
{
1000
NOSEL
1070
     0
1002
}
1002
{
1000
BEHIND
1070
     0
1002
}
1002
{
1000
OTHER
1070
     0
1002
}
1002
{
1000
REACTOR
1002
}
1001
GENIUS_GENOBJ-N-FIL_13
1002
{
1000
OWNER
1000
GEN
1002
}
  0
ARC
  5
120D
330
1F
100
AcDbEntity
  8
0
100
AcDbCircle
 10
317.9500000522959
 20
15.48054020132244
 30
0.0
 40
10.0
100
AcDbArc
 50
170.6306149035129
 51
180.0
1001
GENIUS_GENOBJ-N-FIL_13
1002
{
1000
OWNER
1000
GEN
1002
}
1001
GENIUS_GENODEF_13
1002
{
1000
HIER
1070
     0
1002
}
1002
{
1000
MANEDIT
1070
     0
1002
}
1002
{
1000
NOSEL
1070
     0
1002
}
1002
{
1000
BEHIND
1070
     0
1002
}
1002
{
1000
OTHER
1070
     0
1002
}
1002
{
1000
REACTOR
1002
}
  0
ARC
  5
120E
330
1F
100
AcDbEntity
  8
0
100
AcDbCircle
 10
318.351478962234
 20
25.30000020506618
 30
0.0
 40
1.0
100
AcDbArc
 50
9.369385096487079
 51
90.0
1001
GENIUS_GENOBJ-N-FIL_13
1002
{
1000
OWNER
1000
GEN
1002
}
1001
GENIUS_GENODEF_13
1002
{
1000
HIER
1070
     0
1002
}
1002
{
1000
MANEDIT
1070
     0
1002
}
1002
{
1000
NOSEL
1070
     0
1002
}
1002
{
1000
BEHIND
1070
     0
1002
}
1002
{
1000
OTHER
1070
     0
1002
}
1002
{
1000
REACTOR
1002
}
  0
ARC
  5
120F
330
1F
100
AcDbEntity
  8
0
100
AcDbCircle
 10
310.4485211423579
 20
25.30000020506618
 30
0.0
 40
1.0
100
AcDbArc
 50
90.0
 51
170.6306149035129
1001
GENIUS_GENODEF_13
1002
{
1000
HIER
1070
     0
1002
}
1002
{
1000
MANEDIT
1070
     0
1002
}
1002
{
1000
NOSEL
1070
     0
1002
}
1002
{
1000
BEHIND
1070
     0
1002
}
1002
{
1000
OTHER
1070
     0
1002
}
1002
{
1000
REACTOR
1002
}
1001
GENIUS_GENOBJ-N-FIL_13
1002
{
1000
OWNER
1000
GEN
1002
}
  0
LINE
  5
1210
330
1F
100
AcDbEntity
  8
0
100
AcDbLine
 10
165.0000000522959
 20
2.300000205066068
 30
0.0
 11
165.0000000522959
 21
2.500000205066384
 31
0.0
  0
LINE
  5
1211
330
1F
100
AcDbEntity
  8
0
100
AcDbLine
 10
165.1000000522958
 20
-5.299999794933611
 30
0.0
 11
165.2000000522956
 21
-5.299999794933611
 31
0.0
  0
LINE
  5
1213
330
1F
100
AcDbEntity
  8
0
100
AcDbLine
 10
156.6500000522959
 20
26.30000020506621
 30
0.0
 11
160.7500000522959
 21
26.30000020506621
 31
0.0
  0
LINE
  5
124A
330
1F
100
AcDbEntity
  8
0
100
AcDbLine
 10
160.7500000522951
 20
67.62857163363806
 30
0.0
 11
156.6500000522965
 21
69.97142877649436
 31
0.0
  0
LINE
  5
124B
330
1F
100
AcDbEntity
  8
0
100
AcDbLine
 10
160.7500000522965
 20
65.62857163363718
 30
0.0
 11
156.6500000522965
 21
67.97142877649436
 31
0.0
  0
LINE
  5
124C
330
1F
100
AcDbEntity
  8
0
100
AcDbLine
 10
316.4500000522953
 20
67.62857163363806
 30
0.0
 11
312.3500000522966
 21
69.97142877649436
 31
0.0
  0
LINE
  5
124D
330
1F
100
AcDbEntity
  8
0
100
AcDbLine
 10
316.4500000522967
 20
65.62857163363718
 30
0.0
 11
312.3500000522966
 21
67.97142877649436
 31
0.0
  0
LINE
  5
124E
330
1F
100
AcDbEntity
  8
0
100
AcDbLine
 10
160.7500000522943
 20
67.62857163363853
 30
0.0
 11
160.7500000522943
 21
100.3000002050662
 31
0.0
  0
LINE
  5
124F
330
1F
100
AcDbEntity
  8
0
100
AcDbLine
 10
156.6500000522959
 20
69.97142877649475
 30
0.0
 11
156.6500000522959
 21
100.3000002050661
 31
0.0
  0
LINE
  5
1250
330
1F
100
AcDbEntity
  8
0
100
AcDbLine
 10
316.4500000522958
 20
67.62857163363772
 30
0.0
 11
316.4500000522958
 21
109.3000002050661
 31
0.0
  0
LINE
  5
1251
330
1F
100
AcDbEntity
  8
0
100
AcDbLine
 10
312.3500000522974
 20
69.97142877649395
 30
0.0
 11
312.3500000522974
 21
109.3000002050661
 31
0.0
  0
LINE
  5
1252
330
1F
100
AcDbEntity
  8
0
100
AcDbLine
 10
240.9500000522969
 20
152.300000205066
 30
0.0
 11
279.4500000522969
 21
152.300000205066
 31
0.0
1001
GENIUS_GENREC_14
1002
{
1000
PYDIR
1011
240.2000000522969
1021
162.050000205066
1031
0.0
1002
}
1002
{
1000
PXDIR
1011
280.2000000522969
1021
152.050000205066
1031
0.0
1002
}
1002
{
1000
PORI
1011
240.2000000522969
1021
152.050000205066
1031
0.0
1002
}
1002
{
1000
PINS
1011
240.2000000522969
1021
152.050000205066
1031
0.0
1002
}
1002
{
1000
PINS2
1011
280.2000000522969
1021
162.050000205066
1031
0.0
1002
}
1002
{
1000
C
1070
     1
1002
}
1001
GENIUS_GENOBJ-N-REC_13
1002
{
1000
OWNER
1000
GEN
1002
}
1001
GENIUS_GENODEF_13
1002
{
1000
HIER
1070
     0
1002
}
1002
{
1000
MANEDIT
1070
     0
1002
}
1002
{
1000
NOSEL
1070
     0
1002
}
1002
{
1000
BEHIND
1070
     0
1002
}
1002
{
1000
OTHER
1070
     0
1002
}
1002
{
1000
REACTOR
1002
}
  0
ARC
  5
1253
330
1F
100
AcDbEntity
  8
0
100
AcDbCircle
 10
279.4500000522969
 20
152.800000205066
 30
0.0
 40
0.5
100
AcDbArc
 50
270.0
 51
0.0
1001
GENIUS_GENREC_14
1002
{
1000
PYDIR
1011
240.2000000522969
1021
162.050000205066
1031
0.0
1002
}
1002
{
1000
PXDIR
1011
280.2000000522969
1021
152.050000205066
1031
0.0
1002
}
1002
{
1000
PORI
1011
240.2000000522969
1021
152.050000205066
1031
0.0
1002
}
1002
{
1000
PINS
1011
240.2000000522969
1021
152.050000205066
1031
0.0
1002
}
1002
{
1000
PINS2
1011
280.2000000522969
1021
162.050000205066
1031
0.0
1002
}
1002
{
1000
C
1070
     1
1002
}
1001
GENIUS_GENOBJ-N-REC_13
1002
{
1000
OWNER
1000
GEN
1002
}
1001
GENIUS_GENODEF_13
1002
{
1000
HIER
1070
     0
1002
}
1002
{
1000
MANEDIT
1070
     0
1002
}
1002
{
1000
NOSEL
1070
     0
1002
}
1002
{
1000
BEHIND
1070
     0
1002
}
1002
{
1000
OTHER
1070
     0
1002
}
1002
{
1000
REACTOR
1002
}
  0
LINE
  5
1254
330
1F
100
AcDbEntity
  8
0
100
AcDbLine
 10
279.9500000522969
 20
152.800000205066
 30
0.0
 11
279.9500000522969
 21
161.300000205066
 31
0.0
1001
GENIUS_GENREC_14
1002
{
1000
PYDIR
1011
240.2000000522969
1021
162.050000205066
1031
0.0
1002
}
1002
{
1000
PXDIR
1011
280.2000000522969
1021
152.050000205066
1031
0.0
1002
}
1002
{
1000
PORI
1011
240.2000000522969
1021
152.050000205066
1031
0.0
1002
}
1002
{
1000
PINS
1011
240.2000000522969
1021
152.050000205066
1031
0.0
1002
}
1002
{
1000
PINS2
1011
280.2000000522969
1021
162.050000205066
1031
0.0
1002
}
1002
{
1000
C
1070
     1
1002
}
1001
GENIUS_GENOBJ-N-REC_13
1002
{
1000
OWNER
1000
GEN
1002
}
1001
GENIUS_GENODEF_13
1002
{
1000
HIER
1070
     0
1002
}
1002
{
1000
MANEDIT
1070
     0
1002
}
1002
{
1000
NOSEL
1070
     0
1002
}
1002
{
1000
BEHIND
1070
     0
1002
}
1002
{
1000
OTHER
1070
     0
1002
}
1002
{
1000
REACTOR
1002
}
  0
ARC
  5
1255
330
1F
100
AcDbEntity
  8
0
100
AcDbCircle
 10
279.4500000522969
 20
161.300000205066
 30
0.0
 40
0.5
100
AcDbArc
 50
0.0
 51
90.0
1001
GENIUS_GENREC_14
1002
{
1000
PYDIR
1011
240.2000000522969
1021
162.050000205066
1031
0.0
1002
}
1002
{
1000
PXDIR
1011
280.2000000522969
1021
152.050000205066
1031
0.0
1002
}
1002
{
1000
PORI
1011
240.2000000522969
1021
152.050000205066
1031
0.0
1002
}
1002
{
1000
PINS
1011
240.2000000522969
1021
152.050000205066
1031
0.0
1002
}
1002
{
1000
PINS2
1011
280.2000000522969
1021
162.050000205066
1031
0.0
1002
}
1002
{
1000
C
1070
     1
1002
}
1001
GENIUS_GENOBJ-N-REC_13
1002
{
1000
OWNER
1000
GEN
1002
}
1001
GENIUS_GENODEF_13
1002
{
1000
HIER
1070
     0
1002
}
1002
{
1000
MANEDIT
1070
     0
1002
}
1002
{
1000
NOSEL
1070
     0
1002
}
1002
{
1000
BEHIND
1070
     0
1002
}
1002
{
1000
OTHER
1070
     0
1002
}
1002
{
1000
REACTOR
1002
}
  0
LINE
  5
1256
330
1F
100
AcDbEntity
  8
0
100
AcDbLine
 10
279.4500000522969
 20
161.800000205066
 30
0.0
 11
240.9500000522969
 21
161.800000205066
 31
0.0
1001
GENIUS_GENREC_14
1002
{
1000
PYDIR
1011
240.2000000522969
1021
162.050000205066
1031
0.0
1002
}
1002
{
1000
PXDIR
1011
280.2000000522969
1021
152.050000205066
1031
0.0
1002
}
1002
{
1000
PORI
1011
240.2000000522969
1021
152.050000205066
1031
0.0
1002
}
1002
{
1000
PINS
1011
240.2000000522969
1021
152.050000205066
1031
0.0
1002
}
1002
{
1000
PINS2
1011
280.2000000522969
1021
162.050000205066
1031
0.0
1002
}
1002
{
1000
C
1070
     1
1002
}
1001
GENIUS_GENOBJ-N-REC_13
1002
{
1000
OWNER
1000
GEN
1002
}
1001
GENIUS_GENODEF_13
1002
{
1000
HIER
1070
     0
1002
}
1002
{
1000
MANEDIT
1070
     0
1002
}
1002
{
1000
NOSEL
1070
     0
1002
}
1002
{
1000
BEHIND
1070
     0
1002
}
1002
{
1000
OTHER
1070
     0
1002
}
1002
{
1000
REACTOR
1002
}
  0
ARC
  5
1257
330
1F
100
AcDbEntity
  8
0
100
AcDbCircle
 10
240.9500000522969
 20
161.300000205066
 30
0.0
 40
0.5
100
AcDbArc
 50
90.0
 51
180.0
1001
GENIUS_GENREC_14
1002
{
1000
PYDIR
1011
240.2000000522969
1021
162.050000205066
1031
0.0
1002
}
1002
{
1000
PXDIR
1011
280.2000000522969
1021
152.050000205066
1031
0.0
1002
}
1002
{
1000
PORI
1011
240.2000000522969
1021
152.050000205066
1031
0.0
1002
}
1002
{
1000
PINS
1011
240.2000000522969
1021
152.050000205066
1031
0.0
1002
}
1002
{
1000
PINS2
1011
280.2000000522969
1021
162.050000205066
1031
0.0
1002
}
1002
{
1000
C
1070
     1
1002
}
1001
GENIUS_GENOBJ-N-REC_13
1002
{
1000
OWNER
1000
GEN
1002
}
1001
GENIUS_GENODEF_13
1002
{
1000
HIER
1070
     0
1002
}
1002
{
1000
MANEDIT
1070
     0
1002
}
1002
{
1000
NOSEL
1070
     0
1002
}
1002
{
1000
BEHIND
1070
     0
1002
}
1002
{
1000
OTHER
1070
     0
1002
}
1002
{
1000
REACTOR
1002
}
  0
LINE
  5
1258
330
1F
100
AcDbEntity
  8
0
100
AcDbLine
 10
240.4500000522969
 20
161.300000205066
 30
0.0
 11
240.4500000522969
 21
152.800000205066
 31
0.0
1001
GENIUS_GENREC_14
1002
{
1000
PYDIR
1011
240.2000000522969
1021
162.050000205066
1031
0.0
1002
}
1002
{
1000
PXDIR
1011
280.2000000522969
1021
152.050000205066
1031
0.0
1002
}
1002
{
1000
PORI
1011
240.2000000522969
1021
152.050000205066
1031
0.0
1002
}
1002
{
1000
PINS
1011
240.2000000522969
1021
152.050000205066
1031
0.0
1002
}
1002
{
1000
PINS2
1011
280.2000000522969
1021
162.050000205066
1031
0.0
1002
}
1002
{
1000
C
1070
     1
1002
}
1001
GENIUS_GENOBJ-N-REC_13
1002
{
1000
OWNER
1000
GEN
1002
}
1001
GENIUS_GENODEF_13
1002
{
1000
HIER
1070
     0
1002
}
1002
{
1000
MANEDIT
1070
     0
1002
}
1002
{
1000
NOSEL
1070
     0
1002
}
1002
{
1000
BEHIND
1070
     0
1002
}
1002
{
1000
OTHER
1070
     0
1002
}
1002
{
1000
REACTOR
1002
}
  0
ARC
  5
1259
330
1F
100
AcDbEntity
  8
0
100
AcDbCircle
 10
240.9500000522969
 20
152.800000205066
 30
0.0
 40
0.5
100
AcDbArc
 50
180.0
 51
270.0
1001
GENIUS_GENREC_14
1002
{
1000
PYDIR
1011
240.2000000522969
1021
162.050000205066
1031
0.0
1002
}
1002
{
1000
PXDIR
1011
280.2000000522969
1021
152.050000205066
1031
0.0
1002
}
1002
{
1000
PORI
1011
240.2000000522969
1021
152.050000205066
1031
0.0
1002
}
1002
{
1000
PINS
1011
240.2000000522969
1021
152.050000205066
1031
0.0
1002
}
1002
{
1000
PINS2
1011
280.2000000522969
1021
162.050000205066
1031
0.0
1002
}
1002
{
1000
C
1070
     1
1002
}
1001
GENIUS_GENOBJ-N-REC_13
1002
{
1000
OWNER
1000
GEN
1002
}
1001
GENIUS_GENODEF_13
1002
{
1000
HIER
1070
     0
1002
}
1002
{
1000
MANEDIT
1070
     0
1002
}
1002
{
1000
NOSEL
1070
     0
1002
}
1002
{
1000
BEHIND
1070
     0
1002
}
1002
{
1000
OTHER
1070
     0
1002
}
1002
{
1000
REACTOR
1002
}
  0
ENDSEC
  0
SECTION
  2
OBJECTS
  0
DICTIONARY
  5
C
330
0
100
AcDbDictionary
281
     1
  3
ACAD_COLOR
350
BE
  3
ACAD_GROUP
350
D
  3
ACAD_LAYOUT
350
1A
  3
ACAD_MATERIAL
350
BD
  3
ACAD_MLINESTYLE
350
17
  3
ACAD_PLOTSETTINGS
350
19
  3
ACAD_PLOTSTYLENAME
350
E
  3
ACAD_TABLESTYLE
350
11A
  3
ACDBHEADERROUNDTRIPXREC
350
13BF
  3
AcDbVariableDictionary
350
94
  3
AcmDictionary
350
5B
  3
AMG
350
41
  3
AMGSNAPSETTINGS
350
1B8
  3
DWGPROPS
350
13BE
  0
DICTIONARY
  5
21A
330
2
100
AcDbDictionary
280
     1
281
     1
  3
ACAD_LAYERSTATES
360
21B
  0
DICTIONARY
  5
8F
330
1F
100
AcDbDictionary
280
     1
281
     1
  3
ACAD_SORTENTS
360
74F
  0
DICTIONARY
  5
BE
102
{ACAD_REACTORS
330
C
102
}
330
C
100
AcDbDictionary
281
     1
  0
DICTIONARY
  5
D
102
{ACAD_REACTORS
330
C
102
}
330
C
100
AcDbDictionary
281
     1
  0
DICTIONARY
  5
1A
102
{ACAD_REACTORS
330
C
102
}
330
C
100
AcDbDictionary
281
     1
  3
Model
350
22
  3
レイアウト1
350
1E
  3
レイアウト2
350
26
  0
DICTIONARY
  5
BD
102
{ACAD_REACTORS
330
C
102
}
330
C
100
AcDbDictionary
281
     1
  0
DICTIONARY
  5
17
102
{ACAD_REACTORS
330
C
102
}
330
C
100
AcDbDictionary
281
     1
  3
Standard
350
18
  0
DICTIONARY
  5
19
102
{ACAD_REACTORS
330
C
102
}
330
C
100
AcDbDictionary
281
     1
  0
ACDBDICTIONARYWDFLT
  5
E
102
{ACAD_REACTORS
330
C
102
}
330
C
100
AcDbDictionary
281
     1
  3
Normal
350
F
100
AcDbDictionaryWithDefault
340
F
  0
DICTIONARY
  5
11A
102
{ACAD_REACTORS
330
C
102
}
330
C
100
AcDbDictionary
281
     1
  3
Standard
350
11B
  0
DICTIONARY
  5
13BF
102
{ACAD_REACTORS
330
C
102
}
330
C
100
AcDbDictionary
281
     1
  0
DICTIONARY
  5
94
102
{ACAD_REACTORS
330
C
102
}
330
C
100
AcDbDictionary
281
     1
  3
CTABLESTYLE
350
138
  3
DIMASSOC
350
96
  3
INDEXCTL
350
95
  3
PROJECTNAME
350
6A8
  0
DICTIONARY
  5
5B
102
{ACAD_REACTORS
330
C
102
}
330
C
100
AcDbDictionary
281
     1
  3
AcmBOM
350
1B5
  3
AcmStdDictionary
350
61
  3
AMDTSECTSYM_ARROWCOLOR
350
123
  0
DICTIONARY
  5
41
102
{ACAD_REACTORS
330
C
102
}
330
C
100
AcDbDictionary
281
     1
  0
DICTIONARY
  5
1B8
102
{ACAD_REACTORS
330
C
102
}
330
C
100
AcDbDictionary
281
     1
  0
XRECORD
  5
13BE
102
{ACAD_REACTORS
330
C
102
}
330
C
100
AcDbXrecord
280
     1
  1
DWGPROPS COOKIE
  2

  3

  4

  6

  7

  8

  9

300
AmdtFileType=84
301
=
302
=
303
=
304
=
305
=
306
=
307
=
308
=
309
=
 40
0.0082953819444444
 41
2456406.576683461
 42
2456406.680925185
  1

 90
        1
  0
DICTIONARY
  5
21B
102
{ACAD_REACTORS
330
21A
102
}
330
21A
100
AcDbDictionary
281
     1
  0
SORTENTSTABLE
  5
74F
102
{ACAD_REACTORS
330
8F
102
}
330
8F
100
AcDbSortentsTable
330
1F
331
1255
  5
955
331
11E6
  5
11F3
331
11EE
  5
11FB
331
11F6
  5
1203
331
11FE
  5
120B
331
98A
  5
992
331
9D1
  5
9D9
331
74C
  5
5A5
331
953
  5
95B
331
A08
  5
A10
331
11AD
  5
11BA
331
1137
  5
1143
331
116E
  5
117B
331
992
  5
99A
331
9D9
  5
9E2
331
95B
  5
963
331
A10
  5
A18
331
11B5
  5
11C2
331
A18
  5
A20
331
113F
  5
114B
331
963
  5
96B
331
99A
  5
9A2
331
924
  5
924
331
9E1
  5
9E9
331
1176
  5
1183
331
117E
  5
118B
331
11BD
  5
11CA
331
A20
  5
A32
331
92C
  5
92C
331
9A2
  5
9AA
331
1147
  5
1154
331
1186
  5
1193
331
659
  5
665
331
5E3
  5
5EF
331
61A
  5
626
331
5A4
  5
5B0
331
661
  5
66D
331
5AC
  5
5B8
331
5EB
  5
5F7
331
622
  5
62E
331
62A
  5
636
331
669
  5
675
331
5B4
  5
5C0
331
5F3
  5
5FF
331
632
  5
63E
331
5BC
  5
5C8
331
11C7
  5
11D4
331
1206
  5
1213
331
11CF
  5
11DC
331
120E
  5
1250
331
11D7
  5
11E4
331
11DF
  5
11EC
331
124E
  5
112C
331
9E9
  5
9F1
331
934
  5
934
331
96B
  5
973
331
675
  5
681
331
9AA
  5
9B2
331
114F
  5
115C
331
9B2
  5
9BA
331
9F1
  5
9F9
331
118E
  5
119B
331
67D
  5
689
331
93C
  5
93C
331
973
  5
97B
331
1120
  5
112B
331
1157
  5
1164
331
97B
  5
983
331
9BA
  5
9C2
331
685
  5
691
331
944
  5
944
331
9F9
  5
A01
331
1196
  5
11A3
331
119E
  5
11AB
331
A01
  5
A09
331
1128
  5
1134
331
983
  5
98B
331
9C2
  5
9D4
331
115F
  5
116C
331
94C
  5
94C
331
11A6
  5
11B3
331
1167
  5
1174
331
5FB
  5
607
331
585
  5
58D
331
5C4
  5
5D0
331
5CC
  5
5D8
331
603
  5
60F
331
58D
  5
595
331
64A
  5
656
331
595
  5
59E
331
5D4
  5
5E0
331
60B
  5
617
331
652
  5
65E
331
59D
  5
5A9
331
5DC
  5
5E8
331
613
  5
61F
331
11E7
  5
11F4
331
1256
  5
956
331
11EF
  5
11FC
331
11F7
  5
1204
331
11FF
  5
120C
331
A09
  5
A11
331
1130
  5
113C
331
954
  5
95C
331
98B
  5
993
331
74D
  5
5A6
331
9D2
  5
9DA
331
116F
  5
117C
331
11AE
  5
11BB
331
9DA
  5
9E3
331
A11
  5
A19
331
95C
  5
964
331
993
  5
99B
331
1138
  5
1144
331
1140
  5
114C
331
1177
  5
1184
331
99B
  5
9A3
331
9E2
  5
9EA
331
925
  5
925
331
964
  5
96C
331
A19
  5
A21
331
11B6
  5
11C3
331
11BE
  5
11CB
331
117F
  5
118C
331
9A3
  5
9AB
331
92D
  5
92D
331
A21
  5
A33
331
1187
  5
1194
331
61B
  5
627
331
65A
  5
666
331
5A5
  5
5B1
331
5E4
  5
5F0
331
5EC
  5
5F8
331
623
  5
62F
331
5AD
  5
5B9
331
662
  5
66E
331
66A
  5
676
331
5F4
  5
600
331
62B
  5
637
331
5B5
  5
5C1
331
5BD
  5
5C9
331
633
  5
63F
331
11C0
  5
11CD
331
1207
  5
1223
331
11C8
  5
11D5
331
11D0
  5
11DD
331
120F
  5
1251
331
11D8
  5
11E5
331
124F
  5
112A
331
1148
  5
1155
331
96C
  5
974
331
9AB
  5
9B3
331
676
  5
682
331
9EA
  5
9F2
331
118F
  5
119C
331
9F2
  5
9FA
331
93D
  5
93D
331
974
  5
97C
331
67E
  5
68A
331
9B3
  5
9BB
331
1150
  5
115D
331
1158
  5
1165
331
1197
  5
11A4
331
9FA
  5
A02
331
1121
  5
112D
331
945
  5
945
331
97C
  5
984
331
686
  5
692
331
9BB
  5
9C3
331
1160
  5
116D
331
119F
  5
11AC
331
9C3
  5
9D5
331
A02
  5
A0A
331
94D
  5
94D
331
984
  5
98C
331
1129
  5
1135
331
11A7
  5
11B4
331
586
  5
58E
331
5C5
  5
5D1
331
5FC
  5
608
331
604
  5
610
331
58E
  5
596
331
5CD
  5
5D9
331
60C
  5
618
331
64B
  5
657
331
596
  5
59F
331
5D5
  5
5E1
331
5DD
  5
5E9
331
614
  5
620
331
59E
  5
5AA
331
653
  5
65F
331
11E0
  5
11ED
331
1257
  5
957
331
11E8
  5
11F5
331
11F0
  5
11FD
331
11F8
  5
1205
331
1131
  5
113D
331
1168
  5
1175
331
98C
  5
994
331
9D3
  5
9DB
331
74E
  5
5A7
331
955
  5
95D
331
A0A
  5
A12
331
11AF
  5
11BC
331
A12
  5
A1A
331
1139
  5
1145
331
994
  5
99C
331
9DB
  5
9E4
331
1170
  5
117D
331
91E
  5
91E
331
95D
  5
965
331
11B7
  5
11C4
331
A1A
  5
A22
331
1141
  5
114D
331
965
  5
96D
331
99C
  5
9A4
331
926
  5
926
331
9E3
  5
9EB
331
1178
  5
1185
331
1180
  5
118D
331
A22
  5
A34
331
11BF
  5
11CC
331
92E
  5
92E
331
9A4
  5
9AC
331
65B
  5
667
331
5A6
  5
5B2
331
5E5
  5
5F1
331
61C
  5
628
331
663
  5
66F
331
5AE
  5
5BA
331
5ED
  5
5F9
331
624
  5
630
331
62C
  5
638
331
66B
  5
677
331
5B6
  5
5C2
331
5F5
  5
601
331
634
  5
640
331
5BE
  5
5CA
331
11C1
  5
11CE
331
1200
  5
120D
331
11C9
  5
11D6
331
1208
  5
124A
331
1210
  5
1252
331
11D1
  5
11DE
331
11D9
  5
11E6
331
1149
  5
1156
331
1188
  5
1195
331
9AC
  5
9B4
331
9EB
  5
9F3
331
936
  5
936
331
96D
  5
975
331
A32
  5
111E
331
677
  5
683
331
1151
  5
115E
331
9B4
  5
9BC
331
9F3
  5
9FB
331
1190
  5
119D
331
67F
  5
68B
331
93E
  5
93E
331
975
  5
97D
331
1122
  5
112E
331
1159
  5
1166
331
97D
  5
985
331
9BC
  5
9C4
331
687
  5
693
331
946
  5
946
331
9FB
  5
A03
331
1198
  5
11A5
331
11A0
  5
11AD
331
A03
  5
A0B
331
112A
  5
1136
331
94E
  5
94E
331
985
  5
98D
331
9C4
  5
9D6
331
1161
  5
116E
331
5FD
  5
609
331
587
  5
58F
331
5C6
  5
5D2
331
5CE
  5
5DA
331
605
  5
611
331
58F
  5
597
331
644
  5
650
331
64C
  5
658
331
597
  5
5A0
331
5D6
  5
5E2
331
60D
  5
619
331
615
  5
621
331
654
  5
660
331
59F
  5
5AB
331
5DE
  5
5EA
331
11E1
  5
11EE
331
1250
  5
1126
331
11E9
  5
11F6
331
1258
  5
958
331
11F1
  5
11FE
331
11F9
  5
1206
331
1169
  5
1176
331
11A8
  5
11B5
331
A0B
  5
A13
331
1132
  5
113E
331
956
  5
95E
331
98D
  5
995
331
9D4
  5
9DC
331
1171
  5
117E
331
11B0
  5
11BD
331
9DC
  5
9E5
331
A13
  5
A1B
331
91F
  5
91F
331
95E
  5
966
331
995
  5
99D
331
113A
  5
1146
331
1142
  5
114E
331
1179
  5
1186
331
99D
  5
9A5
331
9E4
  5
9EC
331
927
  5
927
331
966
  5
96E
331
A1B
  5
A23
331
11B8
  5
11C5
331
A23
  5
A35
331
9A5
  5
9AD
331
92F
  5
92F
331
1181
  5
118E
331
61D
  5
629
331
65C
  5
668
331
5A7
  5
5B3
331
5E6
  5
5F2
331
5EE
  5
5FA
331
625
  5
631
331
5AF
  5
5BB
331
664
  5
670
331
66C
  5
678
331
5B7
  5
5C3
331
5F6
  5
602
331
62D
  5
639
331
5BF
  5
5CB
331
635
  5
641
331
1201
  5
120E
331
11C2
  5
11CF
331
1209
  5
124B
331
11CA
  5
11D7
331
11D2
  5
11DF
331
1211
  5
1253
331
11DA
  5
11E7
331
670
  5
67C
331
A33
  5
111F
331
114A
  5
1157
331
96E
  5
976
331
9AD
  5
9B5
331
678
  5
684
331
937
  5
937
331
9EC
  5
9F4
331
1189
  5
1196
331
1191
  5
119E
331
9F4
  5
9FC
331
93F
  5
93F
331
976
  5
97E
331
680
  5
68C
331
9B5
  5
9BD
331
1152
  5
115F
331
115A
  5
1167
331
1199
  5
11A6
331
9BD
  5
9C5
331
9FC
  5
A04
331
947
  5
947
331
97E
  5
986
331
1123
  5
112F
331
688
  5
694
331
1162
  5
116F
331
11A1
  5
11AE
331
9C5
  5
9D7
331
A04
  5
A0C
331
94F
  5
94F
331
986
  5
98E
331
112B
  5
1137
331
588
  5
590
331
5C7
  5
5D3
331
5FE
  5
60A
331
606
  5
612
331
645
  5
651
331
590
  5
598
331
5CF
  5
5DB
331
60E
  5
61A
331
64D
  5
659
331
598
  5
5A1
331
5D7
  5
5E3
331
5DF
  5
5EB
331
616
  5
622
331
655
  5
661
331
1251
  5
1128
331
11E2
  5
11EF
331
1259
  5
959
331
11EA
  5
11F7
331
11F2
  5
11FF
331
11FA
  5
1207
331
1133
  5
113F
331
116A
  5
1177
331
98E
  5
996
331
9D5
  5
9DD
331
957
  5
95F
331
A0C
  5
A14
331
11A9
  5
11B6
331
11B1
  5
11BE
331
A14
  5
A1C
331
113B
  5
1147
331
95F
  5
967
331
996
  5
99E
331
920
  5
920
331
9DD
  5
9E6
331
1172
  5
117F
331
117A
  5
1187
331
11B9
  5
11C6
331
A1C
  5
A24
331
1143
  5
1150
331
967
  5
96F
331
99E
  5
9A6
331
928
  5
928
331
9E5
  5
9ED
331
1182
  5
118F
331
A24
  5
A36
331
9A6
  5
9AE
331
5A0
  5
5AC
331
65D
  5
669
331
5A8
  5
5B4
331
5E7
  5
5F3
331
61E
  5
62A
331
626
  5
632
331
665
  5
671
331
5B0
  5
5BC
331
5EF
  5
5FB
331
62E
  5
63A
331
66D
  5
679
331
5B8
  5
5C4
331
5F7
  5
603
331
636
  5
642
331
11C3
  5
11D0
331
1202
  5
120F
331
11CB
  5
11D8
331
120A
  5
124C
331
11D3
  5
11E0
331
124A
  5
1256
331
11DB
  5
11E8
331
930
  5
930
331
671
  5
67D
331
114B
  5
1158
331
118A
  5
1197
331
9AE
  5
9B6
331
9ED
  5
9F5
331
679
  5
685
331
938
  5
938
331
96F
  5
977
331
A34
  5
1120
331
1153
  5
1160
331
9B6
  5
9BE
331
9F5
  5
9FD
331
1192
  5
119F
331
681
  5
68D
331
940
  5
940
331
977
  5
97F
331
1124
  5
1130
331
115B
  5
1168
331
97F
  5
987
331
9BE
  5
9C6
331
689
  5
695
331
948
  5
948
331
9FD
  5
A05
331
119A
  5
11A7
331
11A2
  5
11AF
331
A05
  5
A0D
331
112C
  5
1138
331
987
  5
98F
331
9C6
  5
9D8
331
1163
  5
1170
331
5C0
  5
5CC
331
5C8
  5
5D4
331
5FF
  5
60B
331
589
  5
591
331
5D0
  5
5DC
331
607
  5
613
331
591
  5
599
331
646
  5
652
331
64E
  5
65A
331
599
  5
5A2
331
5D8
  5
5E4
331
60F
  5
61B
331
617
  5
623
331
656
  5
662
331
11E3
  5
11F0
331
1252
  5
952
331
11EB
  5
11F8
331
11F3
  5
1200
331
11FB
  5
1208
331
950
  5
950
331
116B
  5
1178
331
11AA
  5
11B7
331
9D6
  5
9DF
331
A0D
  5
A15
331
958
  5
960
331
98F
  5
997
331
1134
  5
1140
331
1173
  5
1180
331
11B2
  5
11BF
331
A15
  5
A1D
331
921
  5
921
331
960
  5
968
331
997
  5
99F
331
113C
  5
1148
331
1144
  5
1151
331
117B
  5
1188
331
99F
  5
9A7
331
929
  5
929
331
9E6
  5
9EE
331
A1D
  5
A25
331
11BA
  5
11C7
331
A25
  5
A37
331
9A7
  5
9AF
331
1183
  5
1190
331
5A1
  5
5AD
331
5E0
  5
5EC
331
61F
  5
62B
331
65E
  5
66A
331
5A9
  5
5B5
331
5E8
  5
5F4
331
5F0
  5
5FC
331
627
  5
633
331
5B1
  5
5BD
331
666
  5
672
331
66E
  5
67A
331
5B9
  5
5C5
331
62F
  5
63B
331
637
  5
643
331
1203
  5
1210
331
11C4
  5
11D1
331
11CC
  5
11D9
331
120B
  5
124D
331
11D4
  5
11E1
331
1213
  5
1255
331
11DC
  5
11E9
331
124B
  5
1257
331
968
  5
970
331
672
  5
67E
331
931
  5
931
331
118B
  5
1198
331
A35
  5
1121
331
114C
  5
1159
331
970
  5
978
331
9AF
  5
9B7
331
67A
  5
686
331
939
  5
939
331
9EE
  5
9F6
331
1193
  5
11A0
331
9F6
  5
9FE
331
111D
  5
1125
331
941
  5
941
331
978
  5
980
331
682
  5
68E
331
9B7
  5
9BF
331
1154
  5
1161
331
115C
  5
1169
331
119B
  5
11A8
331
9BF
  5
9D1
331
9FE
  5
A06
331
68A
  5
696
331
949
  5
949
331
980
  5
988
331
1125
  5
1131
331
112D
  5
1139
331
1164
  5
1171
331
A06
  5
A0E
331
11A3
  5
11B0
331
5C1
  5
5CD
331
5F8
  5
604
331
582
  5
58A
331
58A
  5
592
331
5C9
  5
5D5
331
600
  5
60C
331
608
  5
614
331
647
  5
653
331
592
  5
59A
331
5D1
  5
5DD
331
5D9
  5
5E5
331
610
  5
61C
331
59A
  5
5A3
331
64F
  5
65B
331
657
  5
663
331
1253
  5
953
331
11E4
  5
11F1
331
11EC
  5
11F9
331
11F4
  5
1201
331
11FC
  5
1209
331
988
  5
990
331
1135
  5
1141
331
116C
  5
1179
331
990
  5
998
331
9D7
  5
9E0
331
959
  5
961
331
A0E
  5
A16
331
11AB
  5
11B8
331
11B3
  5
11C0
331
A16
  5
A1E
331
113D
  5
1149
331
961
  5
969
331
998
  5
9A0
331
922
  5
922
331
9DF
  5
9E7
331
1174
  5
1181
331
117C
  5
1189
331
11BB
  5
11C8
331
9E7
  5
9EF
331
A1E
  5
A26
331
9A0
  5
9A8
331
1145
  5
1152
331
92A
  5
92A
331
1184
  5
1191
331
A26
  5
A38
331
5E1
  5
5ED
331
618
  5
624
331
5A2
  5
5AE
331
65F
  5
66B
331
5AA
  5
5B6
331
5E9
  5
5F5
331
620
  5
62C
331
628
  5
634
331
667
  5
673
331
5B2
  5
5BE
331
5F1
  5
5FD
331
630
  5
63C
331
5BA
  5
5C6
331
66F
  5
67B
331
11C5
  5
11D2
331
1204
  5
1211
331
11CD
  5
11DA
331
120C
  5
124E
331
11D5
  5
11E2
331
11DD
  5
11EA
331
124C
  5
1258
331
932
  5
932
331
969
  5
971
331
673
  5
67F
331
9A8
  5
9B0
331
114D
  5
115A
331
9B0
  5
9B8
331
9EF
  5
9F7
331
118C
  5
1199
331
67B
  5
687
331
93A
  5
93A
331
971
  5
979
331
111E
  5
1127
331
1155
  5
1162
331
979
  5
981
331
9B8
  5
9C0
331
683
  5
68F
331
942
  5
942
331
9F7
  5
9FF
331
1194
  5
11A1
331
119C
  5
11A9
331
1126
  5
1132
331
115D
  5
116A
331
981
  5
989
331
9C0
  5
9D2
331
68B
  5
697
331
94A
  5
94A
331
9FF
  5
A07
331
11A4
  5
11B1
331
A07
  5
A0F
331
112E
  5
113A
331
1165
  5
1172
331
5F9
  5
605
331
638
  5
644
331
583
  5
58B
331
5C2
  5
5CE
331
5CA
  5
5D6
331
601
  5
60D
331
58B
  5
593
331
648
  5
654
331
5D2
  5
5DE
331
609
  5
615
331
593
  5
59C
331
650
  5
65C
331
5DA
  5
5E6
331
611
  5
61D
331
11E5
  5
11F2
331
1254
  5
954
331
11ED
  5
11FA
331
11F5
  5
1202
331
11FD
  5
120A
331
952
  5
95A
331
989
  5
991
331
74B
  5
5A4
331
116D
  5
117A
331
11AC
  5
11B9
331
9D8
  5
9E1
331
A0F
  5
A17
331
95A
  5
962
331
991
  5
999
331
1136
  5
1142
331
113E
  5
114A
331
1175
  5
1182
331
9E0
  5
9E8
331
A17
  5
A1F
331
11B4
  5
11C1
331
923
  5
923
331
962
  5
96A
331
999
  5
9A1
331
1146
  5
1153
331
117D
  5
118A
331
9A1
  5
9A9
331
92B
  5
92B
331
A1F
  5
A27
331
11BC
  5
11C9
331
A27
  5
111D
331
1185
  5
1192
331
619
  5
625
331
658
  5
664
331
5A3
  5
5AF
331
5E2
  5
5EE
331
5EA
  5
5F6
331
621
  5
62D
331
5AB
  5
5B7
331
660
  5
66C
331
5F2
  5
5FE
331
629
  5
635
331
5B3
  5
5BF
331
668
  5
674
331
5BB
  5
5C7
331
631
  5
63D
331
1205
  5
1212
331
11C6
  5
11D3
331
11CE
  5
11DB
331
120D
  5
124F
331
11D6
  5
11E3
331
11DE
  5
11EB
331
124D
  5
1259
331
96A
  5
972
331
9A9
  5
9B1
331
674
  5
680
331
933
  5
933
331
9E8
  5
9F0
331
118D
  5
119A
331
9F0
  5
9F8
331
972
  5
97A
331
9B1
  5
9B9
331
114E
  5
115B
331
67C
  5
688
331
93B
  5
93B
331
1195
  5
11A2
331
9F8
  5
A00
331
111F
  5
1129
331
943
  5
943
331
97A
  5
982
331
684
  5
690
331
9B9
  5
9C1
331
1156
  5
1163
331
115E
  5
116B
331
119D
  5
11AA
331
9C1
  5
9D3
331
A00
  5
A08
331
68C
  5
698
331
94B
  5
94B
331
982
  5
98A
331
1127
  5
1133
331
112F
  5
113B
331
1166
  5
1173
331
11A5
  5
11B2
331
639
  5
645
331
584
  5
58C
331
5C3
  5
5CF
331
5FA
  5
606
331
58C
  5
594
331
5CB
  5
5D7
331
602
  5
60E
331
60A
  5
616
331
649
  5
655
331
594
  5
59D
331
5D3
  5
5DF
331
5DB
  5
5E7
331
612
  5
61E
331
59C
  5
5A8
331
651
  5
65D
  0
LAYOUT
  5
22
102
{ACAD_XDICTIONARY
360
13C2
102
}
102
{ACAD_REACTORS
330
1A
102
}
330
1A
100
AcDbPlotSettings
  1

  2

  4

  6

 40
0.0
 41
0.0
 42
0.0
 43
0.0
 44
0.0
 45
0.0
 46
0.0
 47
0.0
 48
0.0
 49
0.0
140
0.0
141
0.0
142
1.0
143
1.0
 70
  1712
 72
     0
 73
     0
 74
     0
  7

 75
     0
147
1.0
148
0.0
149
0.0
100
AcDbLayout
  1
Model
 70
     1
 71
     0
 10
0.0
 20
0.0
 11
12.0
 21
9.0
 12
0.0
 22
0.0
 32
0.0
 14
0.0
 24
0.0
 34
0.0
 15
0.0
 25
0.0
 35
0.0
146
0.0
 13
0.0
 23
0.0
 33
0.0
 16
1.0
 26
0.0
 36
0.0
 17
0.0
 27
1.0
 37
0.0
 76
     0
330
1F
  0
LAYOUT
  5
1E
102
{ACAD_XDICTIONARY
360
13C0
102
}
102
{ACAD_REACTORS
330
1A
102
}
330
1A
100
AcDbPlotSettings
  1

  2

  4

  6

 40
0.0
 41
0.0
 42
0.0
 43
0.0
 44
0.0
 45
0.0
 46
0.0
 47
0.0
 48
0.0
 49
0.0
140
0.0
141
0.0
142
1.0
143
1.0
 70
   688
 72
     0
 73
     0
 74
     5
  7

 75
    16
147
1.0
148
0.0
149
0.0
100
AcDbLayout
  1
レイアウト1
 70
     1
 71
     1
 10
0.0
 20
0.0
 11
420.0
 21
297.0
 12
0.0
 22
0.0
 32
0.0
 14
1.000000000000000E+20
 24
1.000000000000000E+20
 34
1.000000000000000E+20
 15
-1.000000000000000E+20
 25
-1.000000000000000E+20
 35
-1.000000000000000E+20
146
0.0
 13
0.0
 23
0.0
 33
0.0
 16
1.0
 26
0.0
 36
0.0
 17
0.0
 27
1.0
 37
0.0
 76
     0
330
1B
  0
LAYOUT
  5
26
102
{ACAD_XDICTIONARY
360
13C4
102
}
102
{ACAD_REACTORS
330
1A
102
}
330
1A
100
AcDbPlotSettings
  1

  2

  4

  6

 40
0.0
 41
0.0
 42
0.0
 43
0.0
 44
0.0
 45
0.0
 46
0.0
 47
0.0
 48
0.0
 49
0.0
140
0.0
141
0.0
142
1.0
143
1.0
 70
   688
 72
     0
 73
     0
 74
     5
  7

 75
    16
147
1.0
148
0.0
149
0.0
100
AcDbLayout
  1
レイアウト2
 70
     1
 71
     2
 10
0.0
 20
0.0
 11
12.0
 21
9.0
 12
0.0
 22
0.0
 32
0.0
 14
0.0
 24
0.0
 34
0.0
 15
0.0
 25
0.0
 35
0.0
146
0.0
 13
0.0
 23
0.0
 33
0.0
 16
1.0
 26
0.0
 36
0.0
 17
0.0
 27
1.0
 37
0.0
 76
     0
330
23
  0
MLINESTYLE
  5
18
102
{ACAD_REACTORS
330
17
102
}
330
17
100
AcDbMlineStyle
  2
STANDARD
 70
     0
  3

 62
   256
 51
90.0
 52
90.0
 71
     2
 49
0.5
 62
   256
  6
BYLAYER
 49
-0.5
 62
   256
  6
BYLAYER
  0
ACDBPLACEHOLDER
  5
F
102
{ACAD_REACTORS
330
E
102
}
330
E
  0
TABLESTYLE
  5
11B
102
{ACAD_REACTORS
330
11A
102
}
330
11A
100
AcDbTableStyle
  3
Standard
 70
     0
 71
     0
 40
1.5
 41
1.5
280
     0
281
     0
  7
STANDARD
140
4.5
170
     2
 62
     0
 63
     7
283
     0
274
    -2
284
     1
 64
     0
275
    -2
285
     1
 65
     0
276
    -2
286
     1
 66
     0
277
    -2
287
     1
 67
     0
278
    -2
288
     1
 68
     0
279
    -2
289
     1
 69
     0
  7
STANDARD
140
6.0
170
     5
 62
     0
 63
     7
283
     0
274
    -2
284
     1
 64
     0
275
    -2
285
     1
 65
     0
276
    -2
286
     1
 66
     0
277
    -2
287
     1
 67
     0
278
    -2
288
     1
 68
     0
279
    -2
289
     1
 69
     0
  7
STANDARD
140
4.5
170
     5
 62
     0
 63
     7
283
     0
274
    -2
284
     1
 64
     0
275
    -2
285
     1
 65
     0
276
    -2
286
     1
 66
     0
277
    -2
287
     1
 67
     0
278
    -2
288
     1
 68
     0
279
    -2
289
     1
 69
     0
  0
DICTIONARYVAR
  5
138
102
{ACAD_REACTORS
330
94
102
}
330
94
100
DictionaryVariables
280
     0
  1
STANDARD
  0
DICTIONARYVAR
  5
96
102
{ACAD_REACTORS
330
94
102
}
330
94
100
DictionaryVariables
280
     0
  1
2
  0
DICTIONARYVAR
  5
95
102
{ACAD_REACTORS
330
94
102
}
330
94
100
DictionaryVariables
280
     0
  1
0
  0
DICTIONARYVAR
  5
6A8
102
{ACAD_REACTORS
330
94
102
}
330
94
100
DictionaryVariables
280
     0
  1

  0
DICTIONARY
  5
1B5
102
{ACAD_REACTORS
330
5B
102
}
330
5B
100
AcDbDictionary
281
     1
  0
DICTIONARY
  5
61
102
{ACAD_REACTORS
330
5B
102
}
330
5B
100
AcDbDictionary
281
     1
  0
XRECORD
  5
123
102
{ACAD_REACTORS
330
5B
102
}
330
5B
100
AcDbXrecord
280
     1
 90
-1023410169
  0
DICTIONARY
  5
13C2
330
22
100
AcDbDictionary
280
     1
281
     1
  3
ACAD_XREC_ROUNDTRIP
360
13C3
  0
DICTIONARY
  5
13C0
330
1E
100
AcDbDictionary
280
     1
281
     1
  3
ACAD_XREC_ROUNDTRIP
360
13C1
  0
DICTIONARY
  5
13C4
330
26
100
AcDbDictionary
280
     1
281
     1
  3
ACAD_XREC_ROUNDTRIP
360
13C5
  0
XRECORD
  5
13C3
102
{ACAD_REACTORS
330
13C2
102
}
330
13C2
100
AcDbXrecord
280
     1
102
SHADEPLOT
 70
     0
102
SHADEPLOTRESLEVEL
 70
     2
102
SHADEPLOTCUSTOMDPI
 70
   300
  0
XRECORD
  5
13C1
102
{ACAD_REACTORS
330
13C0
102
}
330
13C0
100
AcDbXrecord
280
     1
102
SHADEPLOT
 70
     0
102
SHADEPLOTRESLEVEL
 70
     2
102
SHADEPLOTCUSTOMDPI
 70
   300
  0
XRECORD
  5
13C5
102
{ACAD_REACTORS
330
13C4
102
}
330
13C4
100
AcDbXrecord
280
     1
102
SHADEPLOT
 70
     0
102
SHADEPLOTRESLEVEL
 70
     2
102
SHADEPLOTCUSTOMDPI
 70
   300
  0
ENDSEC
  0
EOF
